  0
SECTION
  2
HEADER
  9
$ACADVER
  1
AC1015
  9
$ACADMAINTVER
 70
    20
  9
$DWGCODEPAGE
  3
ANSI_932
  9
$INSBASE
 10
0.0
 20
0.0
 30
0.0
  9
$EXTMIN
 10
23.25021052147713
 20
12.53997401690388
 30
0.0
  9
$EXTMAX
 10
627.4984065214769
 20
506.9806143664698
 30
0.0
  9
$LIMMIN
 10
0.0
 20
0.0
  9
$LIMMAX
 10
198.0
 20
284.0
  9
$ORTHOMODE
 70
     1
  9
$REGENMODE
 70
     1
  9
$FILLMODE
 70
     1
  9
$QTEXTMODE
 70
     0
  9
$MIRRTEXT
 70
     0
  9
$LTSCALE
 40
1.0
  9
$ATTMODE
 70
     1
  9
$TEXTSIZE
 40
2.5
  9
$TRACEWID
 40
1.0
  9
$TEXTSTYLE
  7
STANDARD
  9
$CLAYER
  8
0
  9
$CELTYPE
  6
ByLayer
  9
$CECOLOR
 62
   256
  9
$CELTSCALE
 40
1.0
  9
$DISPSILH
 70
     0
  9
$DIMSCALE
 40
1.0
  9
$DIMASZ
 40
2.0
  9
$DIMEXO
 40
1.0
  9
$DIMDLI
 40
8.0
  9
$DIMRND
 40
0.0
  9
$DIMDLE
 40
0.0
  9
$DIMEXE
 40
1.0
  9
$DIMTP
 40
0.1
  9
$DIMTM
 40
0.1
  9
$DIMTXT
 40
2.5
  9
$DIMCEN
 40
0.0
  9
$DIMTSZ
 40
0.0
  9
$DIMTOL
 70
     0
  9
$DIMLIM
 70
     0
  9
$DIMTIH
 70
     0
  9
$DIMTOH
 70
     0
  9
$DIMSE1
 70
     0
  9
$DIMSE2
 70
     0
  9
$DIMTAD
 70
     3
  9
$DIMZIN
 70
     8
  9
$DIMBLK
  1

  9
$DIMASO
 70
     1
  9
$DIMSHO
 70
     1
  9
$DIMPOST
  1

  9
$DIMAPOST
  1
"
  9
$DIMALT
 70
     0
  9
$DIMALTD
 70
     2
  9
$DIMALTF
 40
0.0393701
  9
$DIMLFAC
 40
1.0
  9
$DIMTOFL
 70
     1
  9
$DIMTVP
 40
0.0
  9
$DIMTIX
 70
     0
  9
$DIMSOXD
 70
     0
  9
$DIMSAH
 70
     0
  9
$DIMBLK1
  1

  9
$DIMBLK2
  1

  9
$DIMSTYLE
  2
AM_JIS
  9
$DIMCLRD
 70
     2
  9
$DIMCLRE
 70
     2
  9
$DIMCLRT
 70
     4
  9
$DIMTFAC
 40
0.71
  9
$DIMGAP
 40
1.5
  9
$DIMJUST
 70
     0
  9
$DIMSD1
 70
     0
  9
$DIMSD2
 70
     0
  9
$DIMTOLJ
 70
     0
  9
$DIMTZIN
 70
     8
  9
$DIMALTZ
 70
     0
  9
$DIMALTTZ
 70
     0
  9
$DIMUPT
 70
     0
  9
$DIMDEC
 70
     2
  9
$DIMTDEC
 70
     2
  9
$DIMALTU
 70
     2
  9
$DIMALTTD
 70
     2
  9
$DIMTXSTY
  7
STANDARD
  9
$DIMAUNIT
 70
     0
  9
$DIMADEC
 70
     0
  9
$DIMALTRND
 40
0.0
  9
$DIMAZIN
 70
     2
  9
$DIMDSEP
 70
    46
  9
$DIMATFIT
 70
     3
  9
$DIMFRAC
 70
     0
  9
$DIMLDRBLK
  1

  9
$DIMLUNIT
 70
     2
  9
$DIMLWD
 70
    35
  9
$DIMLWE
 70
    35
  9
$DIMTMOVE
 70
     0
  9
$LUNITS
 70
     2
  9
$LUPREC
 70
     2
  9
$SKETCHINC
 40
1.0
  9
$FILLETRAD
 40
2.5
  9
$AUNITS
 70
     0
  9
$AUPREC
 70
     0
  9
$MENU
  1
.
  9
$ELEVATION
 40
0.0
  9
$PELEVATION
 40
0.0
  9
$THICKNESS
 40
0.0
  9
$LIMCHECK
 70
     0
  9
$CHAMFERA
 40
2.5
  9
$CHAMFERB
 40
2.5
  9
$CHAMFERC
 40
0.0
  9
$CHAMFERD
 40
0.0
  9
$SKPOLY
 70
     0
  9
$TDCREATE
 40
2456267.704391817
  9
$TDUCREATE
 40
2456267.329391817
  9
$TDUPDATE
 40
2456349.569887060
  9
$TDUUPDATE
 40
2456349.194887060
  9
$TDINDWG
 40
0.0366800810
  9
$TDUSRTIMER
 40
0.0366799074
  9
$USRTIMER
 70
     1
  9
$ANGBASE
 50
0.0
  9
$ANGDIR
 70
     0
  9
$PDMODE
 70
     0
  9
$PDSIZE
 40
0.0
  9
$PLINEWID
 40
0.0
  9
$SPLFRAME
 70
     0
  9
$SPLINETYPE
 70
     6
  9
$SPLINESEGS
 70
     8
  9
$HANDSEED
  5
FF4
  9
$SURFTAB1
 70
     6
  9
$SURFTAB2
 70
     6
  9
$SURFTYPE
 70
     6
  9
$SURFU
 70
     6
  9
$SURFV
 70
     6
  9
$UCSBASE
  2

  9
$UCSNAME
  2

  9
$UCSORG
 10
0.0
 20
0.0
 30
0.0
  9
$UCSXDIR
 10
1.0
 20
0.0
 30
0.0
  9
$UCSYDIR
 10
0.0
 20
1.0
 30
0.0
  9
$UCSORTHOREF
  2

  9
$UCSORTHOVIEW
 70
     0
  9
$UCSORGTOP
 10
0.0
 20
0.0
 30
0.0
  9
$UCSORGBOTTOM
 10
0.0
 20
0.0
 30
0.0
  9
$UCSORGLEFT
 10
0.0
 20
0.0
 30
0.0
  9
$UCSORGRIGHT
 10
0.0
 20
0.0
 30
0.0
  9
$UCSORGFRONT
 10
0.0
 20
0.0
 30
0.0
  9
$UCSORGBACK
 10
0.0
 20
0.0
 30
0.0
  9
$PUCSBASE
  2

  9
$PUCSNAME
  2

  9
$PUCSORG
 10
0.0
 20
0.0
 30
0.0
  9
$PUCSXDIR
 10
1.0
 20
0.0
 30
0.0
  9
$PUCSYDIR
 10
0.0
 20
1.0
 30
0.0
  9
$PUCSORTHOREF
  2

  9
$PUCSORTHOVIEW
 70
     0
  9
$PUCSORGTOP
 10
0.0
 20
0.0
 30
0.0
  9
$PUCSORGBOTTOM
 10
0.0
 20
0.0
 30
0.0
  9
$PUCSORGLEFT
 10
0.0
 20
0.0
 30
0.0
  9
$PUCSORGRIGHT
 10
0.0
 20
0.0
 30
0.0
  9
$PUCSORGFRONT
 10
0.0
 20
0.0
 30
0.0
  9
$PUCSORGBACK
 10
0.0
 20
0.0
 30
0.0
  9
$USERI1
 70
     0
  9
$USERI2
 70
     0
  9
$USERI3
 70
     0
  9
$USERI4
 70
     0
  9
$USERI5
 70
     0
  9
$USERR1
 40
0.0
  9
$USERR2
 40
0.0
  9
$USERR3
 40
0.0
  9
$USERR4
 40
0.0
  9
$USERR5
 40
0.0
  9
$WORLDVIEW
 70
     1
  9
$SHADEDGE
 70
     3
  9
$SHADEDIF
 70
    70
  9
$TILEMODE
 70
     1
  9
$MAXACTVP
 70
    64
  9
$PINSBASE
 10
0.0
 20
0.0
 30
0.0
  9
$PLIMCHECK
 70
     0
  9
$PEXTMIN
 10
1.000000000000000E+20
 20
1.000000000000000E+20
 30
1.000000000000000E+20
  9
$PEXTMAX
 10
-1.000000000000000E+20
 20
-1.000000000000000E+20
 30
-1.000000000000000E+20
  9
$PLIMMIN
 10
0.0
 20
0.0
  9
$PLIMMAX
 10
420.0
 20
297.0
  9
$UNITMODE
 70
     0
  9
$VISRETAIN
 70
     1
  9
$PLINEGEN
 70
     0
  9
$PSLTSCALE
 70
     1
  9
$TREEDEPTH
 70
  3020
  9
$CMLSTYLE
  2
Standard
  9
$CMLJUST
 70
     0
  9
$CMLSCALE
 40
20.0
  9
$PROXYGRAPHICS
 70
     1
  9
$MEASUREMENT
 70
     1
  9
$CELWEIGHT
370
    -1
  9
$ENDCAPS
280
     0
  9
$JOINSTYLE
280
     0
  9
$LWDISPLAY
290
     0
  9
$INSUNITS
 70
     4
  9
$HYPERLINKBASE
  1

  9
$STYLESHEET
  1

  9
$XEDIT
290
     1
  9
$CEPSNTYPE
380
     0
  9
$PSTYLEMODE
290
     1
  9
$FINGERPRINTGUID
  2
{709A82F6-6BE9-4B8E-ACC2-1B5DBB2A10F6}
  9
$VERSIONGUID
  2
{C671CA1B-0822-4FA6-ABCF-3E130780B1AD}
  9
$EXTNAMES
290
     1
  9
$PSVPSCALE
 40
0.0
  9
$OLESTARTUP
290
     0
  0
ENDSEC
  0
SECTION
  2
CLASSES
  0
CLASS
  1
ACDBDICTIONARYWDFLT
  2
AcDbDictionaryWithDefault
  3
ObjectDBX Classes
 90
        0
280
     0
281
     0
  0
CLASS
  1
MATERIAL
  2
AcDbMaterial
  3
ObjectDBX Classes
 90
     1153
280
     0
281
     0
  0
CLASS
  1
VISUALSTYLE
  2
AcDbVisualStyle
  3
ObjectDBX Classes
 90
     4095
280
     0
281
     0
  0
CLASS
  1
SCALE
  2
AcDbScale
  3
ObjectDBX Classes
 90
     1153
280
     0
281
     0
  0
CLASS
  1
TABLESTYLE
  2
AcDbTableStyle
  3
ObjectDBX Classes
 90
     4095
280
     0
281
     0
  0
CLASS
  1
MLEADERSTYLE
  2
AcDbMLeaderStyle
  3
ACDB_MLEADERSTYLE_CLASS
 90
     4095
280
     0
281
     0
  0
CLASS
  1
AMGSETTINGSOBJ
  2
AmgSettingsObj
  3
"AcadM|Product Description: AutoCAD Mechanical|Company: Autodesk, Inc."
 90
     1024
280
     0
281
     0
  0
CLASS
  1
AMGOBJPROPCFG
  2
AmgObjPropCfg
  3
"AmgLay|Product Description: AutoCAD Mechanical|Company: Autodesk, Inc."
 90
     1025
280
     0
281
     0
  0
CLASS
  1
ACMESCOPE
  2
AcMeScope
  3
AcMeServices
 90
     1024
280
     0
281
     0
  0
CLASS
  1
ACGREFMASTER
  2
AcGrefMaster
  3
AcAttribServices
 90
     1024
280
     0
281
     0
  0
CLASS
  1
ACME_DOCUMENT
  2
AcMeDbDoc
  3
AcMeServices
 90
     1024
280
     0
281
     0
  0
CLASS
  1
ACMECOMMANDHISTORY
  2
AcMeCommandHistory
  3
AcMeServices
 90
     1024
280
     0
281
     0
  0
CLASS
  1
ACIMSYSVARMAN
  2
AcImSysVarManager
  3
AcMeServices
 90
     1024
280
     0
281
     0
  0
CLASS
  1
ACIMINTSYSVAR
  2
AcImIntSysVar
  3
AcMeServices
 90
     1024
280
     0
281
     0
  0
CLASS
  1
ACMEDRAWINGMAN
  2
AcMeDrawingMan
  3
AcMeServices
 90
    33792
280
     0
281
     0
  0
CLASS
  1
ACMEVIEW
  2
AcMeView
  3
AcMeServices
 90
    33792
280
     0
281
     0
  0
CLASS
  1
ACDBENTITYCACHE
  2
AcMeEntityCache
  3
AcMeServices
 90
     1024
280
     0
281
     0
  0
CLASS
  1
GSMANAGER
  2
AcMeGSManager
  3
AcMeServices
 90
    33792
280
     0
281
     0
  0
CLASS
  1
AMDTINTERNALREACTOR
  2
AmdtInternalReactor
  3
AcMeServices
 90
     1024
280
     0
281
     0
  0
CLASS
  1
ACMESTATEMGR
  2
AcMeStateMgr
  3
AcMeServices
 90
     1024
280
     0
281
     0
  0
CLASS
  1
AM_DRAWING_MGR
  2
AcDmDwgMgr
  3
AcMechDwgViewMgmt
 90
     1024
280
     0
281
     0
  0
CLASS
  1
AM_DWG_DOCUMENT
  2
AcDmDwgDocument
  3
AcMechDwgViewMgmt
 90
     1024
280
     0
281
     0
  0
CLASS
  1
AM_DWG_SHEET
  2
AcDmSheet
  3
AcMechDwgViewMgmt
 90
     1024
280
     0
281
     0
  0
CLASS
  1
AM_VIEWDIMPARMAP
  2
AcDmViewDimParMap
  3
AcMechDwgViewMgmt
 90
     1024
280
     0
281
     0
  0
CLASS
  1
ACIMREALSYSVAR
  2
AcImRealSysVar
  3
AcMeServices
 90
     1024
280
     0
281
     0
  0
CLASS
  1
AM_DWGMGR_NAME
  2
AcDmDwgMgrName
  3
AcMechDwgViewMgmt
 90
     1024
280
     0
281
     0
  0
CLASS
  1
ACME_DATABASE
  2
AcMeDbDatabase
  3
AcMeServices
 90
     1024
280
     0
281
     0
  0
CLASS
  1
ACRFINSADJUSTERMGR
  2
AcRfInsAdjusterMgr
  3
AcMeServices
 90
     1024
280
     0
281
     0
  0
CLASS
  1
ACGREFACADMASTER
  2
AcGrefacadMaster
  3
AcGrefServices
 90
     1024
280
     0
281
     0
  0
CLASS
  1
AMDTMENUSTATEMGR
  2
AmdtMenuStateMgr
  3
McadcomServices
 90
     1024
280
     0
281
     0
  0
CLASS
  1
AMDTMCOMMENUSTATE
  2
AmdtMcomMenuState
  3
McadcomServices
 90
     1024
280
     0
281
     0
  0
CLASS
  1
AMIMASTER
  2
AmiMaster
  3
AmiServices
 90
     1024
280
     0
281
     0
  0
CLASS
  1
MAPIAMMOUDLE
  2
MApiAmModule
  3
MApiAmServices
 90
     1024
280
     0
281
     0
  0
CLASS
  1
ACMSTANDARDANSI
  2
AcmStandardANSI
  3
"Amdt_StdImp|Product Description: AutoCAD Mechanical|Company: Autodesk, Inc."
 90
     1024
280
     0
281
     0
  0
CLASS
  1
ACMSURFSTANDARDANSI
  2
AcmSurfTextStdANSI
  3
"Amdt_StdImp|Product Description: AutoCAD Mechanical|Company: Autodesk, Inc."
 90
     1024
280
     0
281
     0
  0
CLASS
  1
ACMFCFSTANDARDANSI
  2
AcmFCFStdANSI
  3
"Amdt_StdImp|Product Description: AutoCAD Mechanical|Company: Autodesk, Inc."
 90
     1024
280
     0
281
     0
  0
CLASS
  1
ACMWELDSTANDARDANSI
  2
AcmWeldingStdANSI
  3
"Amdt_StdImp|Product Description: AutoCAD Mechanical|Company: Autodesk, Inc."
 90
     1024
280
     0
281
     0
  0
CLASS
  1
ACMIDSTANDARDANSI
  2
AcmIdStdANSI
  3
"Amdt_StdImp|Product Description: AutoCAD Mechanical|Company: Autodesk, Inc."
 90
     1024
280
     0
281
     0
  0
CLASS
  1
ACMDATUMSTANDARDANSI
  2
AcmDatumStdANSI
  3
"Amdt_StdImp|Product Description: AutoCAD Mechanical|Company: Autodesk, Inc."
 90
     1024
280
     0
281
     0
  0
CLASS
  1
ACMBOMSTANDARDANSI
  2
AcmBOMStdANSI
  3
"Amdt_StdImp|Product Description: AutoCAD Mechanical|Company: Autodesk, Inc."
 90
     1024
280
     0
281
     0
  0
CLASS
  1
ACAMGTITLESTD
  2
AcAmgTitleStd
  3
"AmgTitle|Product Description: AutoCAD Mechanical|Company: Autodesk, Inc."
 90
     4095
280
     0
281
     0
  0
CLASS
  1
ACMDETAILSTANDARDANSI
  2
AmdtDetailSymStdANSI
  3
"Amdt_StdImp|Product Description: AutoCAD Mechanical|Company: Autodesk, Inc."
 90
     1024
280
     0
281
     0
  0
CLASS
  1
ACMSECTIONSTANDARDANSI
  2
AmdtSectionSymStdANSI
  3
"Amdt_StdImp|Product Description: AutoCAD Mechanical|Company: Autodesk, Inc."
 90
     1024
280
     0
281
     0
  0
CLASS
  1
ACMCENTERLINESTANDARDANSI
  2
AmdtCenterLineStdANSI
  3
"Amdt_StdImp|Product Description: AutoCAD Mechanical|Company: Autodesk, Inc."
 90
     1024
280
     0
281
     0
  0
CLASS
  1
ACMTHREADLINESTANDARDANSI
  2
AmdtThreadLineStdANSI
  3
"Amdt_StdImp|Product Description: AutoCAD Mechanical|Company: Autodesk, Inc."
 90
     1024
280
     0
281
     0
  0
CLASS
  1
ACMNOTESTANDARDANSI
  2
AmdtNoteStdANSI
  3
"Amdt_StdImp|Product Description: AutoCAD Mechanical|Company: Autodesk, Inc."
 90
     1024
280
     0
281
     0
  0
CLASS
  1
AMDTNOTETEMPLATEDB
  2
AmdtNoteTemplateDB
  3
AcmSymBB|Product Description: AutoCAD Mechanical|Company: Autodesk, Inc.
 90
     1024
280
     0
281
     0
  0
CLASS
  1
ACAMGLAYSTD
  2
AcAmgLayStd
  3
"AmgLay|Product Description: AutoCAD Mechanical|Company: Autodesk, Inc."
 90
     1024
280
     0
281
     0
  0
CLASS
  1
ACAMGDIMSTD
  2
AcAmgDimStd
  3
"AmgDim|Product Description: AutoCAD Mechanical|Company: Autodesk, Inc."
 90
     1024
280
     0
281
     0
  0
CLASS
  1
ACAMGHOLECHARTSTDANSI
  2
AcAmgHoleChartStdANSI
  3
AmgDim|Product Description: AutoCAD Mechanical|Company: Autodesk, Inc.
 90
     1024
280
     0
281
     0
  0
CLASS
  1
ACMTAPERSTANDARDANSI
  2
AcmTaperStdANSI
  3
"Amdt_StdImp|Product Description: AutoCAD Mechanical|Company: Autodesk, Inc."
 90
     1024
280
     0
281
     0
  0
CLASS
  1
ACMANOOTATIONVIEWSTANDARDANSI
  2
AmdtAnViewStdANSI
  3
"Amdt_StdImp|Product Description: AutoCAD Mechanical|Company: Autodesk, Inc."
 90
     1024
280
     0
281
     0
  0
CLASS
  1
ACMSTANDARDISO
  2
AcmStandardISO
  3
"Amdt_StdImp|Product Description: AutoCAD Mechanical|Company: Autodesk, Inc."
 90
     1024
280
     0
281
     0
  0
CLASS
  1
AMDTEDGESTANDARDISO
  2
AmdtEdgeStdISO
  3
"Amdt_StdImp|Product Description: AutoCAD Mechanical|Company: Autodesk, Inc."
 90
     1024
280
     0
281
     0
  0
CLASS
  1
ACMSURFSTANDARDISO
  2
AcmSurfTextStdISO
  3
"Amdt_StdImp|Product Description: AutoCAD Mechanical|Company: Autodesk, Inc."
 90
     1024
280
     0
281
     0
  0
CLASS
  1
ACMFCFSTANDARDISO
  2
AcmFCFStdISO
  3
"Amdt_StdImp|Product Description: AutoCAD Mechanical|Company: Autodesk, Inc."
 90
     1024
280
     0
281
     0
  0
CLASS
  1
ACMWELDSTANDARDISO
  2
AcmWeldingStdISO
  3
"Amdt_StdImp|Product Description: AutoCAD Mechanical|Company: Autodesk, Inc."
 90
     1024
280
     0
281
     0
  0
CLASS
  1
ACMIDSTANDARDISO
  2
AcmIdStdISO
  3
"Amdt_StdImp|Product Description: AutoCAD Mechanical|Company: Autodesk, Inc."
 90
     1024
280
     0
281
     0
  0
CLASS
  1
ACMDATUMSTANDARDISO
  2
AcmDatumStdISO
  3
"Amdt_StdImp|Product Description: AutoCAD Mechanical|Company: Autodesk, Inc."
 90
     1024
280
     0
281
     0
  0
CLASS
  1
ACMBOMSTANDARDISO
  2
AcmBOMStdISO
  3
"Amdt_StdImp|Product Description: AutoCAD Mechanical|Company: Autodesk, Inc."
 90
     1024
280
     0
281
     0
  0
CLASS
  1
ACMDETAILSTANDARDISO
  2
AmdtDetailSymStdISO
  3
"Amdt_StdImp|Product Description: AutoCAD Mechanical|Company: Autodesk, Inc."
 90
     1024
280
     0
281
     0
  0
CLASS
  1
ACMSECTIONSTANDARDISO
  2
AmdtSectionSymStdISO
  3
"Amdt_StdImp|Product Description: AutoCAD Mechanical|Company: Autodesk, Inc."
 90
     1024
280
     0
281
     0
  0
CLASS
  1
ACMCENTERLINESTANDARDISO
  2
AmdtCenterLineStdISO
  3
"Amdt_StdImp|Product Description: AutoCAD Mechanical|Company: Autodesk, Inc."
 90
     1024
280
     0
281
     0
  0
CLASS
  1
ACMTHREADLINESTANDARDISO
  2
AmdtThreadLineStdISO
  3
"Amdt_StdImp|Product Description: AutoCAD Mechanical|Company: Autodesk, Inc."
 90
     1024
280
     0
281
     0
  0
CLASS
  1
ACMNOTESTANDARDISO
  2
AmdtNoteStdISO
  3
"Amdt_StdImp|Product Description: AutoCAD Mechanical|Company: Autodesk, Inc."
 90
     1024
280
     0
281
     0
  0
CLASS
  1
ACAMGHOLECHARTSTDISO
  2
AcAmgHoleChartStdISO
  3
AmgDim|Product Description: AutoCAD Mechanical|Company: Autodesk, Inc.
 90
     1024
280
     0
281
     0
  0
CLASS
  1
ACMTAPERSTANDARDISO
  2
AcmTaperStdISO
  3
"Amdt_StdImp|Product Description: AutoCAD Mechanical|Company: Autodesk, Inc."
 90
     1024
280
     0
281
     0
  0
CLASS
  1
ACMANOOTATIONVIEWSTANDARDISO
  2
AmdtAnViewStdISO
  3
"Amdt_StdImp|Product Description: AutoCAD Mechanical|Company: Autodesk, Inc."
 90
     1024
280
     0
281
     0
  0
CLASS
  1
ACMSTANDARDJIS
  2
AcmStandardJIS
  3
"Amdt_StdImp|Product Description: AutoCAD Mechanical|Company: Autodesk, Inc."
 90
     1024
280
     0
281
     0
  0
CLASS
  1
ACMSURFSTANDARDJIS
  2
AcmSurfTextStdJIS
  3
"Amdt_StdImp|Product Description: AutoCAD Mechanical|Company: Autodesk, Inc."
 90
     1024
280
     0
281
     0
  0
CLASS
  1
ACMFCFSTANDARDJIS98
  2
AcmFCFStdJIS98
  3
"Amdt_StdImp|Product Description: AutoCAD Mechanical|Company: Autodesk, Inc."
 90
     1024
280
     0
281
     0
  0
CLASS
  1
ACMWELDSTANDARDJIS
  2
AcmWeldingStdJIS
  3
"Amdt_StdImp|Product Description: AutoCAD Mechanical|Company: Autodesk, Inc."
 90
     1024
280
     0
281
     0
  0
CLASS
  1
ACMIDSTANDARDJIS
  2
AcmIdStdJIS
  3
"Amdt_StdImp|Product Description: AutoCAD Mechanical|Company: Autodesk, Inc."
 90
     1024
280
     0
281
     0
  0
CLASS
  1
ACMDATUMSTANDARDJIS
  2
AcmDatumStdJIS
  3
"Amdt_StdImp|Product Description: AutoCAD Mechanical|Company: Autodesk, Inc."
 90
     1024
280
     0
281
     0
  0
CLASS
  1
ACMBOMSTANDARDJIS
  2
AcmBOMStdJIS
  3
"Amdt_StdImp|Product Description: AutoCAD Mechanical|Company: Autodesk, Inc."
 90
     1024
280
     0
281
     0
  0
CLASS
  1
ACMDETAILSTANDARDJIS
  2
AmdtDetailSymStdJIS
  3
"Amdt_StdImp|Product Description: AutoCAD Mechanical|Company: Autodesk, Inc."
 90
     1024
280
     0
281
     0
  0
CLASS
  1
ACMSECTIONSTANDARDJIS
  2
AmdtSectionSymStdJIS
  3
"Amdt_StdImp|Product Description: AutoCAD Mechanical|Company: Autodesk, Inc."
 90
     1024
280
     0
281
     0
  0
CLASS
  1
ACMCENTERLINESTANDARDJIS
  2
AmdtCenterLineStdJIS
  3
"Amdt_StdImp|Product Description: AutoCAD Mechanical|Company: Autodesk, Inc."
 90
     1024
280
     0
281
     0
  0
CLASS
  1
ACMTHREADLINESTANDARDJIS
  2
AmdtThreadLineStdJIS
  3
"Amdt_StdImp|Product Description: AutoCAD Mechanical|Company: Autodesk, Inc."
 90
     1024
280
     0
281
     0
  0
CLASS
  1
ACMNOTESTANDARDJIS
  2
AmdtNoteStdJIS
  3
"Amdt_StdImp|Product Description: AutoCAD Mechanical|Company: Autodesk, Inc."
 90
     1024
280
     0
281
     0
  0
CLASS
  1
ACAMGHOLECHARTSTDJIS
  2
AcAmgHoleChartStdJIS
  3
AmgDim|Product Description: AutoCAD Mechanical|Company: Autodesk, Inc.
 90
     1024
280
     0
281
     0
  0
CLASS
  1
ACMTAPERSTANDARDJIS
  2
AcmTaperStdJIS
  3
"Amdt_StdImp|Product Description: AutoCAD Mechanical|Company: Autodesk, Inc."
 90
     1024
280
     0
281
     0
  0
CLASS
  1
ACMANOOTATIONVIEWSTANDARDJIS
  2
AmdtAnViewStdJIS
  3
"Amdt_StdImp|Product Description: AutoCAD Mechanical|Company: Autodesk, Inc."
 90
     1024
280
     0
281
     0
  0
CLASS
  1
AMDTEDGESTANDARDJIS
  2
AmdtEdgeStdJIS
  3
"Amdt_StdImp|Product Description: AutoCAD Mechanical|Company: Autodesk, Inc."
 90
     1024
280
     0
281
     0
  0
CLASS
  1
ACIMSTRSYSVAR
  2
AcImStrSysVar
  3
AcMeServices
 90
     1024
280
     0
281
     0
  0
CLASS
  1
AMDTADMENUSTATE
  2
AmdtAdMenuState
  3
DesignerServices
 90
    33792
280
     0
281
     0
  0
CLASS
  1
ADAPPL
  2
AcAdAppl
  3
DesignerAssemblies
 90
    33792
280
     0
281
     0
  0
CLASS
  1
DEPMGR
  2
AcAdDepMgr
  3
DesignerAssemblies
 90
    33792
280
     0
281
     0
  0
CLASS
  1
PARAMMGR
  2
AcAdParamMgr
  3
DesignerAssemblies
 90
    33792
280
     0
281
     0
  0
CLASS
  1
PARAMSCOPE
  2
AcAdParamScope
  3
DesignerAssemblies
 90
    33792
280
     0
281
     0
  0
CLASS
  1
NAMEDAPPL
  2
AcAdNamedAppl
  3
DesignerAssemblies
 90
    33792
280
     0
281
     0
  0
CLASS
  1
AMDTDMMENUSTATE
  2
AmdtDmMenuState
  3
AcMechDwgViewMgmt
 90
     1024
280
     0
281
     0
  0
CLASS
  1
AMDTAMMENUSTATE
  2
AmdtAmMenuState
  3
DesignerAssemblies
 90
     1024
280
     0
281
     0
  0
CLASS
  1
ACAMPROJECT
  2
AcAmProject
  3
DesignerAssemblies
 90
     1024
280
     0
281
     0
  0
CLASS
  1
ACAMGRCOMPDEF
  2
AcAmGrCompDef
  3
DesignerAssemblies
 90
     1024
280
     0
281
     0
  0
CLASS
  1
ACCMCONTEXT
  2
AcCmContext
  3
DesignerAssemblies
 90
    33792
280
     0
281
     0
  0
CLASS
  1
ACAMCOMPDEF
  2
AcAmCompDef
  3
DesignerAssemblies
 90
     1024
280
     0
281
     0
  0
CLASS
  1
ACAMCOMPDEFMGR
  2
AcAmCompDefMgr
  3
DesignerAssemblies
 90
     1024
280
     0
281
     0
  0
CLASS
  1
AMCONTEXTMGR
  2
AcAmContextMgr
  3
DesignerAssemblies
 90
     1024
280
     0
281
     0
  0
CLASS
  1
ACAMCONTEXTMODELER
  2
AcAmContextModeler
  3
DesignerAssemblies
 90
     1024
280
     0
281
     0
  0
CLASS
  1
ACMDATADICTIONARY
  2
AcmDataDictionary
  3
"AcmSymBB|Product Description: AutoCAD Mechanical|Company: Autodesk, Inc."
 90
     1024
280
     0
281
     0
  0
CLASS
  1
CATALOGSTATE
  2
AcAmCatalogState
  3
DesignerAssemblies
 90
    33792
280
     0
281
     0
  0
CLASS
  1
ACAMGRCOMPDEFSET
  2
AcAmGrCompDefSet
  3
DesignerAssemblies
 90
     1024
280
     0
281
     0
  0
CLASS
  1
AMDTBROWSERDBTAB
  2
AmdtBrowserDbTab
  3
McadcomServices
 90
     1024
280
     0
281
     0
  0
CLASS
  1
CBROWSERAPPOBJECT
  2
CBrowserAppObject
  3
McadcomServices
 90
     1024
280
     0
281
     0
  0
CLASS
  1
DM_PLACEHOLDER
  2
AcDmSelsetPlaceholder
  3
AcMechDwgViewMgmt
 90
     1024
280
     0
281
     0
  0
CLASS
  1
EXACXREFPANELOBJECT
  2
ExAcXREFPanelObject
  3
EXAC_ESW
 90
    33793
280
     0
281
     0
  0
CLASS
  1
NPOCOLLECTION
  2
AcDbImpNonPersistentObjectsCollection
  3
ObjectDBX Classes
 90
    33921
280
     0
281
     0
  0
CLASS
  1
CAMSSTRUCTBTNSTATE
  2
StructBtnState
  3
DesignerAssemblies
 90
    33792
280
     0
281
     0
  0
CLASS
  1
CELLSTYLEMAP
  2
AcDbCellStyleMap
  3
ObjectDBX Classes
 90
     1152
280
     0
281
     0
  0
CLASS
  1
DICTIONARYVAR
  2
AcDbDictionaryVar
  3
ObjectDBX Classes
 90
        0
280
     0
281
     0
  0
CLASS
  1
STDPART2D
  2
AmgStdPart
  3
AmgStdPart|Product Description: AutoCAD Mechanical|Company: Autodesk, Inc.
 90
    36863
280
     0
281
     1
  0
CLASS
  1
ACAMGFILTERDAT
  2
AcAmgFilterDat
  3
"AcadM|Product Description: AutoCAD Mechanical|Company: Autodesk, Inc."
 90
    33792
280
     0
281
     0
  0
CLASS
  1
DIMASSOC
  2
AcDbDimAssoc
  3
"AcDbDimAssoc|Product Desc:     AcDim ARX App For Dimension|Company:          Autodesk, Inc.|WEB Address:      www.autodesk.com"
 90
    32768
280
     0
281
     0
  0
CLASS
  1
SORTENTSTABLE
  2
AcDbSortentsTable
  3
ObjectDBX Classes
 90
        0
280
     0
281
     0
  0
CLASS
  1
ACDBPLACEHOLDER
  2
AcDbPlaceHolder
  3
ObjectDBX Classes
 90
        0
280
     0
281
     0
  0
CLASS
  1
LAYOUT
  2
AcDbLayout
  3
ObjectDBX Classes
 90
        0
280
     0
281
     0
  0
ENDSEC
  0
SECTION
  2
TABLES
  0
TABLE
  2
VPORT
  5
8
330
0
100
AcDbSymbolTable
 70
     1
  0
VPORT
  5
4F
330
8
100
AcDbSymbolTableRecord
100
AcDbViewportTableRecord
  2
*Active
 70
     0
 10
0.0
 20
0.0
 11
1.0
 21
1.0
 12
397.5166172246088
 22
259.7563956761856
 13
0.0
 23
0.0
 14
2.5
 24
2.5
 15
10.0
 25
10.0
 16
0.0
 26
0.0
 36
1.0
 17
0.0
 27
0.0
 37
0.0
 40
498.7739103970335
 41
2.140495867768595
 42
50.0
 43
0.0
 44
0.0
 50
0.0
 51
0.0
 71
     0
 72
  1000
 73
     1
 74
     3
 75
     0
 76
     0
 77
     0
 78
     0
281
     0
 65
     1
110
0.0
120
0.0
130
0.0
111
1.0
121
0.0
131
0.0
112
0.0
122
1.0
132
0.0
 79
     0
146
0.0
  0
ENDTAB
  0
TABLE
  2
LTYPE
  5
5
330
0
100
AcDbSymbolTable
 70
    24
  0
LTYPE
  5
53
330
5
100
AcDbSymbolTableRecord
100
AcDbLinetypeTableRecord
  2
ByBlock
 70
     0
  3

 72
    65
 73
     0
 40
0.0
  0
LTYPE
  5
54
330
5
100
AcDbSymbolTableRecord
100
AcDbLinetypeTableRecord
  2
ByLayer
 70
     0
  3

 72
    65
 73
     0
 40
0.0
  0
LTYPE
  5
55
330
5
100
AcDbSymbolTableRecord
100
AcDbLinetypeTableRecord
  2
Continuous
 70
     0
  3
Solid line
 72
    65
 73
     0
 40
0.0
  0
LTYPE
  5
A0
330
5
100
AcDbSymbolTableRecord
100
AcDbLinetypeTableRecord
  2
AM_ISO02W050
 70
     0
  3
__ __ __ __ __ __ __ __ __ __ __ __ __ __ __
 72
    65
 73
     2
 40
7.5
 49
6.0
 74
     0
 49
-1.5
 74
     0
  0
LTYPE
  5
A1
330
5
100
AcDbSymbolTableRecord
100
AcDbLinetypeTableRecord
  2
AM_ISO08W050
 70
     0
  3
____ . ____ . ____ . ____ . ____ . ____ . ____
 72
    65
 73
     4
 40
18.0
 49
12.0
 74
     0
 49
-1.5
 74
     0
 49
3.0
 74
     0
 49
-1.5
 74
     0
  0
LTYPE
  5
A2
330
5
100
AcDbSymbolTableRecord
100
AcDbLinetypeTableRecord
  2
AM_ISO09W050
 70
     0
  3
_____ . . _____ . . _____ . . ____ .. ____
 72
    65
 73
     6
 40
22.5
 49
12.0
 74
     0
 49
-1.5
 74
     0
 49
3.0
 74
     0
 49
-1.5
 74
     0
 49
3.0
 74
     0
 49
-1.5
 74
     0
  0
LTYPE
  5
A3
330
5
100
AcDbSymbolTableRecord
100
AcDbLinetypeTableRecord
  2
Amconstr
 70
     0
  3
_______________________
 72
    65
 73
     2
 40
9999.0
 49
9999.0
 74
     0
 49
0.0
 74
     0
  0
LTYPE
  5
A4
330
5
100
AcDbSymbolTableRecord
100
AcDbLinetypeTableRecord
  2
AM_ISO08W050x2
 70
     0
  3
__ . __ . __ . __ . __ . __
 72
    65
 73
     4
 40
9.0
 49
6.0
 74
     0
 49
-0.75
 74
     0
 49
1.5
 74
     0
 49
-0.75
 74
     0
  0
LTYPE
  5
A5
330
5
100
AcDbSymbolTableRecord
100
AcDbLinetypeTableRecord
  2
AM_ISO02W050x2
 70
     0
  3
 _ _ _ _ _ _ _ _ _ _ _ _
 72
    65
 73
     2
 40
3.75
 49
3.0
 74
     0
 49
-0.75
 74
     0
  0
LTYPE
  5
A6
330
5
100
AcDbSymbolTableRecord
100
AcDbLinetypeTableRecord
  2
Amzigzag
 70
     0
  3
/\/-/\/-/\/-/\/-/\/-/\/
 72
    65
 73
     2
 40
11.0001
 49
0.0001
 74
     4
 75
   135
340
A7
 46
0.04
 50
0.0
 44
0.0
 45
0.0
 49
-11.0
 74
     0
  0
LTYPE
  5
D7
330
5
100
AcDbSymbolTableRecord
100
AcDbLinetypeTableRecord
  2
HIDDEN
 70
     0
  3
Hidden __ __ __ __ __ __ __ __ __ __ __ __ __ _
 72
    65
 73
     2
 40
9.524999999999996
 49
6.349999999999998
 74
     0
 49
-3.174999999999998
 74
     0
  0
LTYPE
  5
D8
330
5
100
AcDbSymbolTableRecord
100
AcDbLinetypeTableRecord
  2
PHANTOM2
 70
     0
  3
Phantom (.5x) ___ _ _ ___ _ _ ___ _ _ ___ _ _
 72
    65
 73
     6
 40
31.75
 49
15.875
 74
     0
 49
-3.174999999999999
 74
     0
 49
3.174999999999999
 74
     0
 49
-3.174999999999999
 74
     0
 49
3.174999999999999
 74
     0
 49
-3.174999999999999
 74
     0
  0
LTYPE
  5
D9
330
5
100
AcDbSymbolTableRecord
100
AcDbLinetypeTableRecord
  2
CENTER
 70
     0
  3
Center ____ _ ____ _ ____ _ ____ _ ____ _ ____
 72
    65
 73
     4
 40
50.8
 49
31.75
 74
     0
 49
-6.349999999999999
 74
     0
 49
6.349999999999999
 74
     0
 49
-6.349999999999999
 74
     0
  0
LTYPE
  5
ED
330
5
100
AcDbSymbolTableRecord
100
AcDbLinetypeTableRecord
  2
ACANSTGBM
 70
     0
  3
__ . . __ . .
 72
    65
 73
     6
 40
9.0
 49
4.0
 74
     0
 49
-1.0
 74
     0
 49
1.0
 74
     0
 49
-1.0
 74
     0
 49
1.0
 74
     0
 49
-1.0
 74
     0
  0
LTYPE
  5
EE
330
5
100
AcDbSymbolTableRecord
100
AcDbLinetypeTableRecord
  2
ACANSTGLM
 70
     0
  3
_ _ _ _ _
 72
    65
 73
     2
 40
3.0
 49
2.0
 74
     0
 49
-1.0
 74
     0
  0
LTYPE
  5
119
330
5
100
AcDbSymbolTableRecord
100
AcDbLinetypeTableRecord
  2
ACISOWELD
 70
     0
  3
_ _ _ _ _
 72
    65
 73
     2
 40
2.0
 49
2.0
 74
     0
 49
-1.0
 74
     0
  0
LTYPE
  5
11C
330
5
100
AcDbSymbolTableRecord
100
AcDbLinetypeTableRecord
  2
ACISOTGB
 70
     0
  3
__ . . __ . .
 72
    65
 73
     6
 40
9.0
 49
4.0
 74
     0
 49
-1.0
 74
     0
 49
1.0
 74
     0
 49
-1.0
 74
     0
 49
1.0
 74
     0
 49
-1.0
 74
     0
  0
LTYPE
  5
11D
330
5
100
AcDbSymbolTableRecord
100
AcDbLinetypeTableRecord
  2
ACISOTGL
 70
     0
  3
_ _ _ _ _
 72
    65
 73
     2
 40
3.0
 49
2.0
 74
     0
 49
-1.0
 74
     0
  0
LTYPE
  5
13D
330
5
100
AcDbSymbolTableRecord
100
AcDbLinetypeTableRecord
  2
ACJISTGB
 70
     0
  3
__ . . __ . .
 72
    65
 73
     6
 40
9.0
 49
4.0
 74
     0
 49
-1.0
 74
     0
 49
1.0
 74
     0
 49
-1.0
 74
     0
 49
1.0
 74
     0
 49
-1.0
 74
     0
  0
LTYPE
  5
13E
330
5
100
AcDbSymbolTableRecord
100
AcDbLinetypeTableRecord
  2
ACJISTGL
 70
     0
  3
_ _ _ _ _
 72
    65
 73
     2
 40
3.0
 49
2.0
 74
     0
 49
-1.0
 74
     0
  0
LTYPE
  5
1BB
330
5
100
AcDbSymbolTableRecord
100
AcDbLinetypeTableRecord
  2
GEN3B
 70
     0
  3
 - - - - -
 72
    65
 73
     2
 40
1.0
 49
0.5
 74
     0
 49
-0.5
 74
     0
  0
ENDTAB
  0
TABLE
  2
LAYER
  5
2
102
{ACAD_XDICTIONARY
360
1CC
102
}
330
0
100
AcDbSymbolTable
 70
    10
  0
LAYER
  5
4C
330
2
100
AcDbSymbolTableRecord
100
AcDbLayerTableRecord
  2
0
 70
     0
 62
     7
  6
Continuous
370
    -3
390
F
  0
LAYER
  5
71
330
2
100
AcDbSymbolTableRecord
100
AcDbLayerTableRecord
  2
Defpoints
 70
     0
 62
     7
  6
Continuous
290
     0
370
    -3
390
F
  0
LAYER
  5
1BC
102
{ACAD_XDICTIONARY
360
1BD
102
}
330
2
100
AcDbSymbolTableRecord
100
AcDbLayerTableRecord
  2
AM_0
 70
     0
 62
     7
  6
Continuous
370
    50
390
F
  0
LAYER
  5
1BE
102
{ACAD_XDICTIONARY
360
1BF
102
}
330
2
100
AcDbSymbolTableRecord
100
AcDbLayerTableRecord
  2
AM_7
 70
     0
 62
     1
  6
AM_ISO08W050
370
    25
390
F
  0
LAYER
  5
1C0
102
{ACAD_XDICTIONARY
360
1C1
102
}
330
2
100
AcDbSymbolTableRecord
100
AcDbLayerTableRecord
  2
AM_0N
 70
     0
 62
     7
  6
Continuous
370
    50
390
F
  0
LAYER
  5
1C2
102
{ACAD_XDICTIONARY
360
1C3
102
}
330
2
100
AcDbSymbolTableRecord
100
AcDbLayerTableRecord
  2
ｶｸﾚｾﾝ2
 70
     0
 62
     3
  6
GEN3B
370
    -3
390
F
  0
ENDTAB
  0
TABLE
  2
STYLE
  5
3
330
0
100
AcDbSymbolTable
 70
    12
  0
STYLE
  5
4D
330
3
100
AcDbSymbolTableRecord
100
AcDbTextStyleTableRecord
  2
STANDARD
 70
     0
 40
0.0
 41
0.84
 50
0.0
 71
     0
 42
2.5
  3
txt.shx
  4
bigfont.shx
  0
STYLE
  5
A7
330
3
100
AcDbSymbolTableRecord
100
AcDbTextStyleTableRecord
  2

 70
     1
 40
0.0
 41
1.0
 50
0.0
 71
     0
 42
2.5
  3
ltypeshp.shx
  4

  0
STYLE
  5
E6
330
3
100
AcDbSymbolTableRecord
100
AcDbTextStyleTableRecord
  2
ACANSTS
 70
     0
 40
1.0
 41
1.0
 50
0.0
 71
     0
 42
2.5
  3
romans.shx
  4
bigfont.shx
  0
STYLE
  5
E9
330
3
100
AcDbSymbolTableRecord
100
AcDbTextStyleTableRecord
  2
ACANSGDT
 70
     0
 40
0.0
 41
1.0
 50
0.0
 71
     0
 42
2.5
  3
amgdtans.shx
  4

  0
STYLE
  5
113
330
3
100
AcDbSymbolTableRecord
100
AcDbTextStyleTableRecord
  2
ACISOTS
 70
     0
 40
1.0
 41
1.0
 50
0.0
 71
     0
 42
2.5
  3
isocp.shx
  4
extfont.shx
  0
STYLE
  5
117
330
3
100
AcDbSymbolTableRecord
100
AcDbTextStyleTableRecord
  2
ACISOGDT
 70
     0
 40
0.0
 41
1.0
 50
0.0
 71
     0
 42
2.5
  3
amgdt.shx
  4

  0
STYLE
  5
139
330
3
100
AcDbSymbolTableRecord
100
AcDbTextStyleTableRecord
  2
ACJISGDT
 70
     0
 40
0.0
 41
1.0
 50
0.0
 71
     0
 42
2.5
  3
amgdt.shx
  4

  0
STYLE
  5
141
330
3
100
AcDbSymbolTableRecord
100
AcDbTextStyleTableRecord
  2
ACJISTS
 70
     0
 40
1.0
 41
1.0
 50
0.0
 71
     0
 42
2.5
  3
isocp.shx
  4
extfont.shx
  0
ENDTAB
  0
TABLE
  2
VIEW
  5
6
330
0
100
AcDbSymbolTable
 70
     0
  0
ENDTAB
  0
TABLE
  2
UCS
  5
7
330
0
100
AcDbSymbolTable
 70
     0
  0
ENDTAB
  0
TABLE
  2
APPID
  5
9
330
0
100
AcDbSymbolTable
 70
    55
  0
APPID
  5
4E
330
9
100
AcDbSymbolTableRecord
100
AcDbRegAppTableRecord
  2
ACAD
 70
     0
  0
APPID
  5
56
330
9
100
AcDbSymbolTableRecord
100
AcDbRegAppTableRecord
  2
AcadAnnotative
 70
     0
  0
APPID
  5
60
330
9
100
AcDbSymbolTableRecord
100
AcDbRegAppTableRecord
  2
ACAD_MLEADERVER
 70
     0
  0
APPID
  5
72
330
9
100
AcDbSymbolTableRecord
100
AcDbRegAppTableRecord
  2
MCAD_NO_VIS
 70
     0
  0
APPID
  5
73
330
9
100
AcDbSymbolTableRecord
100
AcDbRegAppTableRecord
  2
ACAD_TEMP_GRAPHIC
 70
     0
  0
APPID
  5
74
330
9
100
AcDbSymbolTableRecord
100
AcDbRegAppTableRecord
  2
AD_DRAW
 70
     0
  0
APPID
  5
75
330
9
100
AcDbSymbolTableRecord
100
AcDbRegAppTableRecord
  2
ACATTRIBSERVICES
 70
     0
  0
APPID
  5
76
330
9
100
AcDbSymbolTableRecord
100
AcDbRegAppTableRecord
  2
DESIGNERASSEMBLIES
 70
     0
  0
APPID
  5
77
330
9
100
AcDbSymbolTableRecord
100
AcDbRegAppTableRecord
  2
ACADM_DIM_EDIT
 70
     0
  0
APPID
  5
78
330
9
100
AcDbSymbolTableRecord
100
AcDbRegAppTableRecord
  2
AMDT_DM_ADJ
 70
     0
  0
APPID
  5
79
330
9
100
AcDbSymbolTableRecord
100
AcDbRegAppTableRecord
  2
GENIUS_GENDIMSH_14
 70
     0
  0
APPID
  5
7A
330
9
100
AcDbSymbolTableRecord
100
AcDbRegAppTableRecord
  2
GEVID1057795304
 70
     0
  0
APPID
  5
7B
330
9
100
AcDbSymbolTableRecord
100
AcDbRegAppTableRecord
  2
GEVDC
 70
     0
  0
APPID
  5
7C
330
9
100
AcDbSymbolTableRecord
100
AcDbRegAppTableRecord
  2
GEVCON
 70
     0
  0
APPID
  5
7D
330
9
100
AcDbSymbolTableRecord
100
AcDbRegAppTableRecord
  2
GENIUS_GENBH_13
 70
     0
  0
APPID
  5
7E
330
9
100
AcDbSymbolTableRecord
100
AcDbRegAppTableRecord
  2
GENIUS_GENOENT_13
 70
     0
  0
APPID
  5
7F
330
9
100
AcDbSymbolTableRecord
100
AcDbRegAppTableRecord
  2
GENIUS_GENOBJ-NBEHI-BHF_13
 70
     0
  0
APPID
  5
80
330
9
100
AcDbSymbolTableRecord
100
AcDbRegAppTableRecord
  2
GENIUS_GENOLIS_13
 70
     0
  0
APPID
  5
81
330
9
100
AcDbSymbolTableRecord
100
AcDbRegAppTableRecord
  2
GENIUS_GENODEF_13
 70
     0
  0
APPID
  5
82
330
9
100
AcDbSymbolTableRecord
100
AcDbRegAppTableRecord
  2
GENIUS_GENOREF_13
 70
     0
  0
APPID
  5
83
330
9
100
AcDbSymbolTableRecord
100
AcDbRegAppTableRecord
  2
GENIUS_GENOBJ-NBEHI-BHB_13
 70
     0
  0
APPID
  5
84
330
9
100
AcDbSymbolTableRecord
100
AcDbRegAppTableRecord
  2
GENIUS_GENOBJ-F-SCPASSM_13
 70
     0
  0
APPID
  5
85
330
9
100
AcDbSymbolTableRecord
100
AcDbRegAppTableRecord
  2
GENIUS_GENDTOL_13
 70
     0
  0
APPID
  5
86
330
9
100
AcDbSymbolTableRecord
100
AcDbRegAppTableRecord
  2
GENIUS_GENTRA_14
 70
     0
  0
APPID
  5
87
330
9
100
AcDbSymbolTableRecord
100
AcDbRegAppTableRecord
  2
ASURF_PCURVE_APPNAME
 70
     0
  0
APPID
  5
88
330
9
100
AcDbSymbolTableRecord
100
AcDbRegAppTableRecord
  2
GENIUS_GENCFG_13
 70
     0
  0
APPID
  5
89
330
9
100
AcDbSymbolTableRecord
100
AcDbRegAppTableRecord
  2
GENIUS_GE3CFG0_13
 70
     0
  0
APPID
  5
8A
330
9
100
AcDbSymbolTableRecord
100
AcDbRegAppTableRecord
  2
GENIUS_GENCFG0_13
 70
     0
  0
APPID
  5
8B
330
9
100
AcDbSymbolTableRecord
100
AcDbRegAppTableRecord
  2
GENIUS_GENCFG1_13
 70
     0
  0
APPID
  5
8C
330
9
100
AcDbSymbolTableRecord
100
AcDbRegAppTableRecord
  2
GENIUS_GENCFG2_13
 70
     0
  0
APPID
  5
8D
330
9
100
AcDbSymbolTableRecord
100
AcDbRegAppTableRecord
  2
GENIUS_GENCFG3_13
 70
     0
  0
APPID
  5
8E
330
9
100
AcDbSymbolTableRecord
100
AcDbRegAppTableRecord
  2
GENIUS_GENCFG4_13
 70
     0
  0
APPID
  5
8F
330
9
100
AcDbSymbolTableRecord
100
AcDbRegAppTableRecord
  2
GENIUS_GEVCFG0_13
 70
     0
  0
APPID
  5
90
330
9
100
AcDbSymbolTableRecord
100
AcDbRegAppTableRecord
  2
GENIUS_GENOBJ-N-TIT_13
 70
     0
  0
APPID
  5
91
330
9
100
AcDbSymbolTableRecord
100
AcDbRegAppTableRecord
  2
GENIUS_GENTITLE_13
 70
     0
  0
APPID
  5
92
330
9
100
AcDbSymbolTableRecord
100
AcDbRegAppTableRecord
  2
GENIUS_GENSCREG_15
 70
     0
  0
APPID
  5
93
330
9
100
AcDbSymbolTableRecord
100
AcDbRegAppTableRecord
  2
GENIUS_GENOBJ-N-SDF_13
 70
     0
  0
APPID
  5
94
330
9
100
AcDbSymbolTableRecord
100
AcDbRegAppTableRecord
  2
GENIUS_GENFIL_13
 70
     0
  0
APPID
  5
95
330
9
100
AcDbSymbolTableRecord
100
AcDbRegAppTableRecord
  2
GENIUS_GENOBJ-N-CHA_13
 70
     0
  0
APPID
  5
96
330
9
100
AcDbSymbolTableRecord
100
AcDbRegAppTableRecord
  2
GENIUS_GEFSH_13
 70
     0
  0
APPID
  5
97
330
9
100
AcDbSymbolTableRecord
100
AcDbRegAppTableRecord
  2
GENIUS_GENOBJ-F-SHS_13
 70
     0
  0
APPID
  5
98
330
9
100
AcDbSymbolTableRecord
100
AcDbRegAppTableRecord
  2
GENIUS_GENOBJ-N-CEN_13
 70
     0
  0
APPID
  5
99
330
9
100
AcDbSymbolTableRecord
100
AcDbRegAppTableRecord
  2
GENIUS_GENREC_14
 70
     0
  0
APPID
  5
9A
330
9
100
AcDbSymbolTableRecord
100
AcDbRegAppTableRecord
  2
GENIUS_GENOBJ-N-REC_13
 70
     0
  0
APPID
  5
9B
330
9
100
AcDbSymbolTableRecord
100
AcDbRegAppTableRecord
  2
GENIUS_GENOBJ-N-HTC_13
 70
     0
  0
APPID
  5
9C
330
9
100
AcDbSymbolTableRecord
100
AcDbRegAppTableRecord
  2
GENIUS_GENHATCH_13
 70
     0
  0
APPID
  5
1C9
330
9
100
AcDbSymbolTableRecord
100
AcDbRegAppTableRecord
  2
GENIUS_GENCEN_19
 70
     0
  0
APPID
  5
1CA
330
9
100
AcDbSymbolTableRecord
100
AcDbRegAppTableRecord
  2
GENIUS_GENOBJ-N-FIL_13
 70
     0
  0
APPID
  5
1CB
330
9
100
AcDbSymbolTableRecord
100
AcDbRegAppTableRecord
  2
AcAecLayerStandard
 70
     0
  0
APPID
  5
958
330
9
100
AcDbSymbolTableRecord
100
AcDbRegAppTableRecord
  2
ACAD_DSTYLE_DIMBREAK
 70
     0
  0
APPID
  5
959
330
9
100
AcDbSymbolTableRecord
100
AcDbRegAppTableRecord
  2
ACAD_DSTYLE_DIMJAG
 70
     0
  0
APPID
  5
974
330
9
100
AcDbSymbolTableRecord
100
AcDbRegAppTableRecord
  2
ACAD_DSTYLE_DIMINSPECT
 70
     0
  0
APPID
  5
B92
330
9
100
AcDbSymbolTableRecord
100
AcDbRegAppTableRecord
  2
ACAD_DSTYLE_DIMRADIAL_EXTENSION
 70
     0
  0
APPID
  5
D51
330
9
100
AcDbSymbolTableRecord
100
AcDbRegAppTableRecord
  2
ACAD_EXEMPT_FROM_CAD_STANDARDS
 70
     0
  0
APPID
  5
EBF
330
9
100
AcDbSymbolTableRecord
100
AcDbRegAppTableRecord
  2
ACAD_DSTYLE_DIMJOGGED_JOGANGLE_SYMBOL
 70
     0
  0
ENDTAB
  0
TABLE
  2
DIMSTYLE
  5
A
330
0
100
AcDbSymbolTable
 70
    24
100
AcDbDimStyleTable
 71
     1
340
14D
  0
DIMSTYLE
105
105
330
A
100
AcDbSymbolTableRecord
100
AcDbDimStyleTableRecord
  2
AM_ANSI
 70
     0
  4
"
 41
2.5
 42
1.0
 43
10.0
 44
1.0
 47
0.1
 48
0.1
 78
     8
 79
     2
140
3.5
141
0.0
143
0.0393701
146
0.71
147
1.5
176
     2
177
     2
178
     4
271
     2
272
     3
274
     4
284
     8
340
4D
371
    35
372
    35
  0
DIMSTYLE
105
106
330
A
100
AcDbSymbolTableRecord
100
AcDbDimStyleTableRecord
  2
AM_ANSI$3
 70
     0
  4
"
 41
2.5
 42
1.0
 43
10.0
 44
1.0
 47
0.1
 48
0.1
 78
     8
 79
     2
140
3.5
141
0.0
143
0.0393701
146
0.71
147
1.5
176
     2
177
     2
178
     4
271
     2
272
     3
274
     4
284
     8
288
     1
289
     0
340
4D
371
    35
372
    35
  0
DIMSTYLE
105
107
330
A
100
AcDbSymbolTableRecord
100
AcDbDimStyleTableRecord
  2
AM_ANSI$4
 70
     0
  4
"
 41
2.5
 42
1.0
 43
10.0
 44
1.0
 47
0.1
 48
0.1
 78
     8
 79
     2
140
3.5
141
0.0
143
0.0393701
146
0.71
147
1.5
176
     2
177
     2
178
     4
271
     2
272
     3
274
     4
284
     8
288
     1
289
     0
340
4D
371
    35
372
    35
  0
DIMSTYLE
105
108
330
A
100
AcDbSymbolTableRecord
100
AcDbDimStyleTableRecord
  2
AM_ANSI$7
 70
     0
  4
"
 41
2.5
 42
1.0
 43
10.0
 44
1.0
 47
0.1
 48
0.1
 78
     8
 79
     2
140
5.0
141
0.0
143
0.0393701
146
0.71
147
1.5
176
     2
177
     2
178
     4
271
     2
272
     3
274
     4
284
     8
340
4D
371
    35
372
    35
  0
DIMSTYLE
105
109
330
A
100
AcDbSymbolTableRecord
100
AcDbDimStyleTableRecord
  2
AM_ANSI$SF
 70
     0
  4
"
 41
2.5
 42
1.0
 43
10.0
 44
1.0
 47
0.1
 48
0.1
 75
     1
 76
     1
 78
     8
 79
     2
140
3.5
141
0.0
143
0.0393701
146
0.71
147
1.5
176
     2
177
     2
178
     4
271
     2
272
     3
274
     4
284
     8
340
4D
371
    35
372
    35
  0
DIMSTYLE
105
10A
330
A
100
AcDbSymbolTableRecord
100
AcDbDimStyleTableRecord
  2
AM_ANSI$SH
 70
     0
  4
"
 41
2.5
 42
1.0
 43
10.0
 44
1.0
 47
0.1
 48
0.1
 75
     1
 76
     1
 78
     8
 79
     2
140
3.5
141
0.0
143
0.0393701
146
0.71
147
1.5
173
     1
176
     2
177
     2
178
     4
271
     2
272
     3
274
     4
284
     8
340
4D
343
10B
371
    35
372
    35
  0
DIMSTYLE
105
12B
330
A
100
AcDbSymbolTableRecord
100
AcDbDimStyleTableRecord
  2
AM_ISO
 70
     0
  4
"
 41
2.5
 42
1.0
 43
10.0
 44
1.0
 47
0.1
 48
0.1
 73
     0
 74
     0
 77
     1
 78
     8
 79
     2
140
3.5
141
0.0
143
0.0393701
146
0.71
147
1.5
172
     1
176
   256
177
   256
178
     2
271
     2
272
     3
274
     4
283
     0
284
     8
340
4D
371
    -1
372
    -1
  0
DIMSTYLE
105
12C
330
A
100
AcDbSymbolTableRecord
100
AcDbDimStyleTableRecord
  2
AM_ISO$3
 70
     0
  4
"
 41
2.5
 42
1.0
 43
10.0
 44
1.0
 47
0.1
 48
0.1
 73
     0
 77
     1
 78
     8
 79
     2
140
3.5
141
0.0
143
0.0393701
146
0.71
147
1.5
176
   256
177
   256
178
     2
271
     2
272
     3
274
     4
283
     0
284
     8
288
     1
289
     0
340
4D
371
    -1
372
    -1
  0
DIMSTYLE
105
12D
330
A
100
AcDbSymbolTableRecord
100
AcDbDimStyleTableRecord
  2
AM_ISO$4
 70
     0
  4
"
 41
2.5
 42
1.0
 43
10.0
 44
1.0
 47
0.1
 48
0.1
 73
     0
 77
     1
 78
     8
 79
     2
140
3.5
141
0.0
143
0.0393701
146
0.71
147
1.5
176
   256
177
   256
178
     2
271
     2
272
     3
274
     4
283
     0
284
     8
288
     1
289
     0
340
4D
371
    -1
372
    -1
  0
DIMSTYLE
105
12E
330
A
100
AcDbSymbolTableRecord
100
AcDbDimStyleTableRecord
  2
AM_ISO$6
 70
     0
  4
"
 41
2.5
 42
1.0
 43
10.0
 44
1.0
 47
0.1
 48
0.1
 73
     0
 74
     0
 78
     8
 79
     2
140
3.5
141
0.0
143
0.0393701
146
0.71
147
1.5
172
     1
176
   256
177
   256
178
     2
271
     2
272
     3
274
     4
283
     0
284
     8
340
4D
371
    -1
372
    -1
  0
DIMSTYLE
105
12F
330
A
100
AcDbSymbolTableRecord
100
AcDbDimStyleTableRecord
  2
AM_ISO$7
 70
     0
  4
"
 41
2.5
 42
1.0
 43
10.0
 44
1.0
 47
0.1
 48
0.1
 73
     0
 74
     0
 77
     1
 78
     8
 79
     2
140
5.0
141
0.0
143
0.0393701
146
0.71
147
1.5
172
     1
176
   256
177
   256
178
     2
271
     2
272
     3
274
     4
283
     0
284
     8
340
4D
371
    -1
372
    -1
  0
DIMSTYLE
105
130
330
A
100
AcDbSymbolTableRecord
100
AcDbDimStyleTableRecord
  2
AM_ISO$SF
 70
     0
  4
"
 41
2.5
 42
1.0
 43
10.0
 44
1.0
 47
0.1
 48
0.1
 73
     0
 74
     0
 75
     1
 76
     1
 77
     1
 78
     8
 79
     2
140
3.5
141
0.0
143
0.0393701
146
0.71
147
1.5
172
     1
176
   256
177
   256
178
     2
271
     2
272
     3
274
     4
283
     0
284
     8
340
4D
371
    -1
372
    -1
  0
DIMSTYLE
105
131
330
A
100
AcDbSymbolTableRecord
100
AcDbDimStyleTableRecord
  2
AM_ISO$SH
 70
     0
  4
"
 41
2.5
 42
1.0
 43
10.0
 44
1.0
 47
0.1
 48
0.1
 73
     0
 74
     0
 75
     1
 76
     1
 77
     1
 78
     8
 79
     2
140
3.5
141
0.0
143
0.0393701
144
2.0
146
0.71
147
1.5
172
     1
173
     1
176
   256
177
   256
178
     2
271
     2
272
     3
274
     4
283
     0
284
     8
340
4D
343
10B
371
    -1
372
    -1
  0
DIMSTYLE
105
14D
330
A
100
AcDbSymbolTableRecord
100
AcDbDimStyleTableRecord
  2
AM_JIS
 70
     0
  4
"
 41
2.0
 42
1.0
 43
8.0
 44
1.0
 47
0.1
 48
0.1
 73
     0
 74
     0
 77
     3
 78
     8
 79
     2
140
2.5
141
0.0
143
0.0393701
146
0.71
147
1.5
172
     1
176
     2
177
     2
178
     4
271
     2
272
     2
283
     0
284
     8
340
4D
371
    35
372
    35
  0
DIMSTYLE
105
14E
330
A
100
AcDbSymbolTableRecord
100
AcDbDimStyleTableRecord
  2
AM_JIS$3
 70
     0
  4
"
 41
2.0
 42
1.0
 43
10.0
 44
1.0
 47
0.1
 48
0.1
 73
     0
 77
     3
 78
     8
 79
     2
140
2.5
141
0.0
143
0.0393701
146
0.71
147
1.5
176
     2
177
     2
178
     4
271
     2
272
     3
274
     4
283
     0
284
     8
288
     1
289
     0
340
4D
371
    35
372
    35
  0
DIMSTYLE
105
14F
330
A
100
AcDbSymbolTableRecord
100
AcDbDimStyleTableRecord
  2
AM_JIS$4
 70
     0
  4
"
 41
2.0
 42
1.0
 43
10.0
 44
1.0
 47
0.1
 48
0.1
 73
     0
 74
     0
 77
     3
 78
     8
 79
     2
140
2.5
141
0.0
143
0.0393701
146
0.71
147
1.5
176
     2
177
     2
178
     4
271
     2
272
     2
283
     0
284
     8
288
     1
289
     0
340
4D
371
    35
372
    35
  0
DIMSTYLE
105
150
330
A
100
AcDbSymbolTableRecord
100
AcDbDimStyleTableRecord
  2
AM_JIS$6
 70
     0
  4
"
 41
2.0
 42
1.0
 43
10.0
 44
1.0
 47
0.1
 48
0.1
 73
     0
 74
     0
 78
     8
 79
     2
140
2.5
141
0.0
143
0.0393701
146
0.71
147
1.5
172
     1
176
     2
177
     2
178
     4
271
     2
272
     3
274
     4
283
     0
284
     8
340
4D
371
    35
372
    35
  0
DIMSTYLE
105
151
330
A
100
AcDbSymbolTableRecord
100
AcDbDimStyleTableRecord
  2
AM_JIS$7
 70
     0
  4
"
 41
2.0
 42
1.0
 43
10.0
 44
1.0
 47
0.1
 48
0.1
 73
     0
 74
     0
 77
     3
 78
     8
 79
     2
140
2.5
141
0.0
143
0.0393701
146
0.71
147
1.5
172
     1
176
     2
177
     2
178
     4
271
     2
272
     3
274
     4
283
     0
284
     8
340
4D
343
152
344
152
371
    35
372
    35
  0
DIMSTYLE
105
158
330
A
100
AcDbSymbolTableRecord
100
AcDbDimStyleTableRecord
  2
AM_JIS$SF
 70
     0
  4
"
 41
2.0
 42
1.0
 43
10.0
 44
1.0
 47
0.1
 48
0.1
 73
     0
 74
     0
 75
     1
 76
     1
 77
     3
 78
     8
 79
     2
140
2.5
141
0.0
143
0.0393701
146
0.71
147
1.5
172
     1
176
     2
177
     2
178
     4
271
     2
272
     3
274
     4
283
     0
284
     8
340
4D
371
    35
372
    35
  0
DIMSTYLE
105
159
330
A
100
AcDbSymbolTableRecord
100
AcDbDimStyleTableRecord
  2
AM_JIS$SH
 70
     0
  4
"
 41
2.0
 42
1.0
 43
10.0
 44
1.0
 47
0.1
 48
0.1
 73
     0
 74
     0
 75
     1
 76
     1
 77
     3
 78
     8
 79
     2
140
2.5
141
0.0
143
0.0393701
144
2.0
146
0.71
147
1.5
172
     1
173
     1
176
     2
177
     2
178
     4
271
     2
272
     3
274
     4
283
     0
284
     8
340
4D
343
10B
371
    35
372
    35
  0
DIMSTYLE
105
1C8
330
A
100
AcDbSymbolTableRecord
100
AcDbDimStyleTableRecord
  2
STANDARD
 70
     0
279
     2
340
4D
  0
ENDTAB
  0
TABLE
  2
BLOCK_RECORD
  5
1
330
0
100
AcDbSymbolTable
 70
    38
  0
BLOCK_RECORD
  5
65
102
{ACAD_XDICTIONARY
360
DB7
102
}
330
1
100
AcDbSymbolTableRecord
100
AcDbBlockTableRecord
  2
*Model_Space
340
68
  0
BLOCK_RECORD
  5
61
330
1
100
AcDbSymbolTableRecord
100
AcDbBlockTableRecord
  2
*Paper_Space
340
64
  0
BLOCK_RECORD
  5
69
330
1
100
AcDbSymbolTableRecord
100
AcDbBlockTableRecord
  2
*Paper_Space0
340
6C
  0
BLOCK_RECORD
  5
10B
330
1
100
AcDbSymbolTableRecord
100
AcDbBlockTableRecord
  2
GENAXEH
340
0
  0
BLOCK_RECORD
  5
152
330
1
100
AcDbSymbolTableRecord
100
AcDbBlockTableRecord
  2
_Open30
340
0
  0
BLOCK_RECORD
  5
E4C
330
1
100
AcDbSymbolTableRecord
100
AcDbBlockTableRecord
  2
*U33
340
0
102
{BLKREFS
331
7FD
102
}
  0
BLOCK_RECORD
  5
E5D
330
1
100
AcDbSymbolTableRecord
100
AcDbBlockTableRecord
  2
*U34
340
0
102
{BLKREFS
331
7FE
102
}
  0
BLOCK_RECORD
  5
E6E
330
1
100
AcDbSymbolTableRecord
100
AcDbBlockTableRecord
  2
*U35
340
0
102
{BLKREFS
331
7FF
102
}
  0
BLOCK_RECORD
  5
E7F
330
1
100
AcDbSymbolTableRecord
100
AcDbBlockTableRecord
  2
*U36
340
0
102
{BLKREFS
331
800
102
}
  0
ENDTAB
  0
ENDSEC
  0
SECTION
  2
BLOCKS
  0
BLOCK
  5
66
330
65
100
AcDbEntity
  8
0
100
AcDbBlockBegin
  2
*Model_Space
 70
     0
 10
0.0
 20
0.0
 30
0.0
  3
*Model_Space
  1

  0
ENDBLK
  5
67
330
65
100
AcDbEntity
  8
0
100
AcDbBlockEnd
  0
BLOCK
  5
62
330
61
100
AcDbEntity
 67
     1
  8
0
100
AcDbBlockBegin
  2
*Paper_Space
 70
     0
 10
0.0
 20
0.0
 30
0.0
  3
*Paper_Space
  1

  0
ENDBLK
  5
63
330
61
100
AcDbEntity
 67
     1
  8
0
100
AcDbBlockEnd
  0
BLOCK
  5
6A
330
69
100
AcDbEntity
 67
     1
  8
0
100
AcDbBlockBegin
  2
*Paper_Space0
 70
     0
 10
0.0
 20
0.0
 30
0.0
  3
*Paper_Space0
  1

  0
ENDBLK
  5
6B
330
69
100
AcDbEntity
 67
     1
  8
0
100
AcDbBlockEnd
  0
BLOCK
  5
F48
330
10B
100
AcDbEntity
  8
0
100
AcDbBlockBegin
  2
GENAXEH
 70
     0
 10
0.0
 20
0.0
 30
0.0
  3
GENAXEH
  1

  0
LINE
  5
F49
330
10B
100
AcDbEntity
  8
0
100
AcDbLine
 10
-1.0
 20
0.0
 30
0.0
 11
1.0
 21
0.0
 31
0.0
  0
ENDBLK
  5
F4A
330
10B
100
AcDbEntity
  8
0
100
AcDbBlockEnd
  0
BLOCK
  5
F8F
330
152
100
AcDbEntity
  8
0
100
AcDbBlockBegin
  2
_Open30
 70
     0
 10
0.0
 20
0.0
 30
0.0
  3
_Open30
  1

  0
LINE
  5
F90
330
152
100
AcDbEntity
  8
0
  6
ByBlock
 62
     0
370
    -2
100
AcDbLine
 10
-1.0
 20
0.26794919
 30
0.0
 11
0.0
 21
0.0
 31
0.0
  0
LINE
  5
F91
330
152
100
AcDbEntity
  8
0
  6
ByBlock
 62
     0
370
    -2
100
AcDbLine
 10
0.0
 20
0.0
 30
0.0
 11
-1.0
 21
-0.26794919
 31
0.0
  0
LINE
  5
F92
330
152
100
AcDbEntity
  8
0
  6
ByBlock
 62
     0
370
    -2
100
AcDbLine
 10
0.0
 20
0.0
 30
0.0
 11
-1.0
 21
0.0
 31
0.0
  0
ENDBLK
  5
F93
330
152
100
AcDbEntity
  8
0
100
AcDbBlockEnd
  0
BLOCK
  5
E5A
330
E4C
100
AcDbEntity
  8
0
100
AcDbBlockBegin
  2
*U33
 70
     1
 10
0.0
 20
0.0
 30
0.0
  3
*U33
  1

  0
CIRCLE
  5
E4D
330
E4C
100
AcDbEntity
  8
AM_0N
100
AcDbCircle
 10
61.3320580234831
 20
474.4806440690124
 30
0.0
 40
4.75
  0
LINE
  5
E4E
330
E4C
100
AcDbEntity
  8
AM_0N
100
AcDbLine
 10
63.86296057988329
 20
474.1691440690121
 30
0.0
 11
63.86296057988329
 21
474.7921440690121
 31
0.0
  0
LINE
  5
E4F
330
E4C
100
AcDbEntity
  8
AM_0N
100
AcDbLine
 10
58.80115546708111
 20
474.1691440690121
 30
0.0
 11
58.80115546708111
 21
474.7921440690121
 31
0.0
  0
LINE
  5
E50
330
E4C
100
AcDbEntity
  8
AM_0N
100
AcDbLine
 10
63.86296057988329
 20
474.1691440690121
 30
0.0
 11
61.6435580234829
 21
474.1691440690121
 31
0.0
  0
LINE
  5
E51
330
E4C
100
AcDbEntity
  8
AM_0N
100
AcDbLine
 10
61.0205580234815
 20
474.1691440690121
 30
0.0
 11
58.80115546708111
 21
474.1691440690121
 31
0.0
  0
LINE
  5
E52
330
E4C
100
AcDbEntity
  8
AM_0N
100
AcDbLine
 10
61.0205580234815
 20
474.1691440690121
 30
0.0
 11
61.0205580234815
 21
471.9497415126103
 31
0.0
  0
LINE
  5
E53
330
E4C
100
AcDbEntity
  8
AM_0N
100
AcDbLine
 10
61.6435580234829
 20
474.1691440690121
 30
0.0
 11
61.6435580234829
 21
471.9497415126103
 31
0.0
  0
LINE
  5
E54
330
E4C
100
AcDbEntity
  8
AM_0N
100
AcDbLine
 10
61.0205580234815
 20
471.9497415126103
 30
0.0
 11
61.6435580234829
 21
471.9497415126103
 31
0.0
  0
LINE
  5
E55
330
E4C
100
AcDbEntity
  8
AM_0N
100
AcDbLine
 10
63.86296057988329
 20
474.7921440690121
 30
0.0
 11
61.6435580234829
 21
474.7921440690121
 31
0.0
  0
LINE
  5
E56
330
E4C
100
AcDbEntity
  8
AM_0N
100
AcDbLine
 10
61.0205580234815
 20
474.7921440690121
 30
0.0
 11
58.80115546708111
 21
474.7921440690121
 31
0.0
  0
LINE
  5
E57
330
E4C
100
AcDbEntity
  8
AM_0N
100
AcDbLine
 10
61.6435580234829
 20
477.0115466254133
 30
0.0
 11
61.6435580234829
 21
474.7921440690121
 31
0.0
  0
LINE
  5
E58
330
E4C
100
AcDbEntity
  8
AM_0N
100
AcDbLine
 10
61.0205580234815
 20
477.0115466254133
 30
0.0
 11
61.0205580234815
 21
474.7921440690121
 31
0.0
  0
LINE
  5
E59
330
E4C
100
AcDbEntity
  8
AM_0N
100
AcDbLine
 10
61.0205580234815
 20
477.0115466254133
 30
0.0
 11
61.6435580234829
 21
477.0115466254133
 31
0.0
  0
ENDBLK
  5
E5B
330
E4C
100
AcDbEntity
  8
0
100
AcDbBlockEnd
  0
BLOCK
  5
E6B
330
E5D
100
AcDbEntity
  8
0
100
AcDbBlockBegin
  2
*U34
 70
     1
 10
0.0
 20
0.0
 30
0.0
  3
*U34
  1

  0
CIRCLE
  5
E5E
330
E5D
100
AcDbEntity
  8
AM_0N
100
AcDbCircle
 10
201.3324664334413
 20
474.4806440690124
 30
0.0
 40
4.75
  0
LINE
  5
E5F
330
E5D
100
AcDbEntity
  8
AM_0N
100
AcDbLine
 10
203.8633689898433
 20
474.1691440690121
 30
0.0
 11
203.8633689898433
 21
474.7921440690121
 31
0.0
  0
LINE
  5
E60
330
E5D
100
AcDbEntity
  8
AM_0N
100
AcDbLine
 10
198.8015638770411
 20
474.1691440690121
 30
0.0
 11
198.8015638770411
 21
474.7921440690121
 31
0.0
  0
LINE
  5
E61
330
E5D
100
AcDbEntity
  8
AM_0N
100
AcDbLine
 10
203.8633689898433
 20
474.1691440690121
 30
0.0
 11
201.6439664334411
 21
474.1691440690121
 31
0.0
  0
LINE
  5
E62
330
E5D
100
AcDbEntity
  8
AM_0N
100
AcDbLine
 10
201.0209664334415
 20
474.1691440690121
 30
0.0
 11
198.8015638770411
 21
474.1691440690121
 31
0.0
  0
LINE
  5
E63
330
E5D
100
AcDbEntity
  8
AM_0N
100
AcDbLine
 10
201.0209664334415
 20
474.1691440690121
 30
0.0
 11
201.0209664334415
 21
471.9497415126103
 31
0.0
  0
LINE
  5
E64
330
E5D
100
AcDbEntity
  8
AM_0N
100
AcDbLine
 10
201.6439664334411
 20
474.1691440690121
 30
0.0
 11
201.6439664334411
 21
471.9497415126103
 31
0.0
  0
LINE
  5
E65
330
E5D
100
AcDbEntity
  8
AM_0N
100
AcDbLine
 10
201.0209664334415
 20
471.9497415126103
 30
0.0
 11
201.6439664334411
 21
471.9497415126103
 31
0.0
  0
LINE
  5
E66
330
E5D
100
AcDbEntity
  8
AM_0N
100
AcDbLine
 10
203.8633689898433
 20
474.7921440690121
 30
0.0
 11
201.6439664334411
 21
474.7921440690121
 31
0.0
  0
LINE
  5
E67
330
E5D
100
AcDbEntity
  8
AM_0N
100
AcDbLine
 10
201.0209664334415
 20
474.7921440690121
 30
0.0
 11
198.8015638770411
 21
474.7921440690121
 31
0.0
  0
LINE
  5
E68
330
E5D
100
AcDbEntity
  8
AM_0N
100
AcDbLine
 10
201.6439664334411
 20
477.0115466254133
 30
0.0
 11
201.6439664334411
 21
474.7921440690121
 31
0.0
  0
LINE
  5
E69
330
E5D
100
AcDbEntity
  8
AM_0N
100
AcDbLine
 10
201.0209664334415
 20
477.0115466254133
 30
0.0
 11
201.0209664334415
 21
474.7921440690121
 31
0.0
  0
LINE
  5
E6A
330
E5D
100
AcDbEntity
  8
AM_0N
100
AcDbLine
 10
201.0209664334415
 20
477.0115466254133
 30
0.0
 11
201.6439664334411
 21
477.0115466254133
 31
0.0
  0
ENDBLK
  5
E6C
330
E5D
100
AcDbEntity
  8
0
100
AcDbBlockEnd
  0
BLOCK
  5
E7C
330
E6E
100
AcDbEntity
  8
0
100
AcDbBlockBegin
  2
*U35
 70
     1
 10
0.0
 20
0.0
 30
0.0
  3
*U35
  1

  0
CIRCLE
  5
E6F
330
E6E
100
AcDbEntity
  8
AM_0N
100
AcDbCircle
 10
201.3142198072036
 20
354.462805852733
 30
0.0
 40
4.75
  0
LINE
  5
E70
330
E6E
100
AcDbEntity
  8
AM_0N
100
AcDbLine
 10
203.8451223636057
 20
354.1513058527332
 30
0.0
 11
203.8451223636057
 21
354.7743058527331
 31
0.0
  0
LINE
  5
E71
330
E6E
100
AcDbEntity
  8
AM_0N
100
AcDbLine
 10
198.7833172508016
 20
354.1513058527332
 30
0.0
 11
198.7833172508016
 21
354.7743058527331
 31
0.0
  0
LINE
  5
E72
330
E6E
100
AcDbEntity
  8
AM_0N
100
AcDbLine
 10
203.8451223636057
 20
354.1513058527332
 30
0.0
 11
201.6257198072034
 21
354.1513058527332
 31
0.0
  0
LINE
  5
E73
330
E6E
100
AcDbEntity
  8
AM_0N
100
AcDbLine
 10
201.0027198072038
 20
354.1513058527332
 30
0.0
 11
198.7833172508016
 21
354.1513058527332
 31
0.0
  0
LINE
  5
E74
330
E6E
100
AcDbEntity
  8
AM_0N
100
AcDbLine
 10
201.0027198072038
 20
354.1513058527332
 30
0.0
 11
201.0027198072038
 21
351.9319032963314
 31
0.0
  0
LINE
  5
E75
330
E6E
100
AcDbEntity
  8
AM_0N
100
AcDbLine
 10
201.6257198072034
 20
354.1513058527332
 30
0.0
 11
201.6257198072034
 21
351.9319032963314
 31
0.0
  0
LINE
  5
E76
330
E6E
100
AcDbEntity
  8
AM_0N
100
AcDbLine
 10
201.0027198072038
 20
351.9319032963314
 30
0.0
 11
201.6257198072034
 21
351.9319032963314
 31
0.0
  0
LINE
  5
E77
330
E6E
100
AcDbEntity
  8
AM_0N
100
AcDbLine
 10
203.8451223636057
 20
354.7743058527331
 30
0.0
 11
201.6257198072034
 21
354.7743058527331
 31
0.0
  0
LINE
  5
E78
330
E6E
100
AcDbEntity
  8
AM_0N
100
AcDbLine
 10
201.0027198072038
 20
354.7743058527331
 30
0.0
 11
198.7833172508016
 21
354.7743058527331
 31
0.0
  0
LINE
  5
E79
330
E6E
100
AcDbEntity
  8
AM_0N
100
AcDbLine
 10
201.6257198072034
 20
356.9937084091345
 30
0.0
 11
201.6257198072034
 21
354.7743058527331
 31
0.0
  0
LINE
  5
E7A
330
E6E
100
AcDbEntity
  8
AM_0N
100
AcDbLine
 10
201.0027198072038
 20
356.9937084091345
 30
0.0
 11
201.0027198072038
 21
354.7743058527331
 31
0.0
  0
LINE
  5
E7B
330
E6E
100
AcDbEntity
  8
AM_0N
100
AcDbLine
 10
201.0027198072038
 20
356.9937084091345
 30
0.0
 11
201.6257198072034
 21
356.9937084091345
 31
0.0
  0
ENDBLK
  5
E7D
330
E6E
100
AcDbEntity
  8
0
100
AcDbBlockEnd
  0
BLOCK
  5
E8D
330
E7F
100
AcDbEntity
  8
0
100
AcDbBlockBegin
  2
*U36
 70
     1
 10
0.0
 20
0.0
 30
0.0
  3
*U36
  1

  0
CIRCLE
  5
E80
330
E7F
100
AcDbEntity
  8
AM_0N
100
AcDbCircle
 10
61.34989623976071
 20
354.4628058527333
 30
0.0
 40
4.75
  0
LINE
  5
E81
330
E7F
100
AcDbEntity
  8
AM_0N
100
AcDbLine
 10
63.8807987961627
 20
354.1513058527332
 30
0.0
 11
63.8807987961627
 21
354.7743058527331
 31
0.0
  0
LINE
  5
E82
330
E7F
100
AcDbEntity
  8
AM_0N
100
AcDbLine
 10
58.8189936833587
 20
354.1513058527332
 30
0.0
 11
58.8189936833587
 21
354.7743058527331
 31
0.0
  0
LINE
  5
E83
330
E7F
100
AcDbEntity
  8
AM_0N
100
AcDbLine
 10
63.8807987961627
 20
354.1513058527332
 30
0.0
 11
61.6613962397605
 21
354.1513058527332
 31
0.0
  0
LINE
  5
E84
330
E7F
100
AcDbEntity
  8
AM_0N
100
AcDbLine
 10
61.03839623976091
 20
354.1513058527332
 30
0.0
 11
58.8189936833587
 21
354.1513058527332
 31
0.0
  0
LINE
  5
E85
330
E7F
100
AcDbEntity
  8
AM_0N
100
AcDbLine
 10
61.03839623976091
 20
354.1513058527332
 30
0.0
 11
61.03839623976091
 21
351.9319032963319
 31
0.0
  0
LINE
  5
E86
330
E7F
100
AcDbEntity
  8
AM_0N
100
AcDbLine
 10
61.6613962397605
 20
354.1513058527332
 30
0.0
 11
61.6613962397605
 21
351.9319032963319
 31
0.0
  0
LINE
  5
E87
330
E7F
100
AcDbEntity
  8
AM_0N
100
AcDbLine
 10
61.03839623976091
 20
351.9319032963319
 30
0.0
 11
61.6613962397605
 21
351.9319032963319
 31
0.0
  0
LINE
  5
E88
330
E7F
100
AcDbEntity
  8
AM_0N
100
AcDbLine
 10
63.8807987961627
 20
354.7743058527331
 30
0.0
 11
61.6613962397605
 21
354.7743058527331
 31
0.0
  0
LINE
  5
E89
330
E7F
100
AcDbEntity
  8
AM_0N
100
AcDbLine
 10
61.03839623976091
 20
354.7743058527331
 30
0.0
 11
58.8189936833587
 21
354.7743058527331
 31
0.0
  0
LINE
  5
E8A
330
E7F
100
AcDbEntity
  8
AM_0N
100
AcDbLine
 10
61.6613962397605
 20
356.993708409135
 30
0.0
 11
61.6613962397605
 21
354.7743058527331
 31
0.0
  0
LINE
  5
E8B
330
E7F
100
AcDbEntity
  8
AM_0N
100
AcDbLine
 10
61.03839623976091
 20
356.993708409135
 30
0.0
 11
61.03839623976091
 21
354.7743058527331
 31
0.0
  0
LINE
  5
E8C
330
E7F
100
AcDbEntity
  8
AM_0N
100
AcDbLine
 10
61.03839623976091
 20
356.993708409135
 30
0.0
 11
61.6613962397605
 21
356.993708409135
 31
0.0
  0
ENDBLK
  5
E8E
330
E7F
100
AcDbEntity
  8
0
100
AcDbBlockEnd
  0
ENDSEC
  0
SECTION
  2
ENTITIES
  0
LINE
  5
55A
330
65
100
AcDbEntity
  8
0
  6
CENTER
 62
     1
100
AcDbLine
 10
28.5761405214771
 20
414.4806143664696
 30
0.0
 11
365.5389405214771
 21
414.4806143664696
 31
0.0
  0
LINE
  5
55B
330
65
100
AcDbEntity
  8
0
  6
Continuous
 62
     7
100
AcDbLine
 10
239.831940521477
 20
332.2296643664695
 30
0.0
 11
239.831940521477
 21
496.7315643664696
 31
0.0
  0
LINE
  5
55C
330
65
100
AcDbEntity
  8
0
  6
Continuous
 62
     7
100
AcDbLine
 10
239.831940521477
 20
332.2296643664695
 30
0.0
 11
227.6574405214769
 21
332.6548043664698
 31
0.0
  0
LINE
  5
55D
330
65
100
AcDbEntity
  8
0
  6
Continuous
 62
     7
100
AcDbLine
 10
239.831910521477
 20
496.7315643664696
 30
0.0
 11
227.6574105214769
 21
496.3064143664698
 31
0.0
  0
LINE
  5
55E
330
65
100
AcDbEntity
  8
0
  6
Continuous
 62
     7
100
AcDbLine
 10
222.831940521477
 20
337.6517543664699
 30
0.0
 11
222.831940521477
 21
491.3094743664698
 31
0.0
  0
LINE
  5
55F
330
65
100
AcDbEntity
  8
0
  6
Continuous
 62
     7
100
AcDbLine
 10
222.831940521477
 20
473.7891143664696
 30
0.0
 11
232.831910521477
 21
473.7891143664696
 31
0.0
  0
LINE
  5
560
330
65
100
AcDbEntity
  8
0
  6
Continuous
 62
     7
100
AcDbLine
 10
222.831940521477
 20
355.1721143664698
 30
0.0
 11
232.831910521477
 21
355.1721143664698
 31
0.0
  0
LINE
  5
561
330
65
100
AcDbEntity
  8
0
  6
Continuous
 62
     7
100
AcDbLine
 10
232.831910521477
 20
343.3904343664698
 30
0.0
 11
232.831910521477
 21
485.5707943664696
 31
0.0
  0
LINE
  5
562
330
65
100
AcDbEntity
  8
0
  6
CENTER
 62
     1
100
AcDbLine
 10
530.1848505214771
 20
36.33366736646981
 30
0.0
 11
530.1848505214771
 21
268.9935189208269
 31
0.0
  0
LINE
  5
563
330
65
100
AcDbEntity
  8
0
  6
CENTER
 62
     1
100
AcDbLine
 10
427.2948205214769
 20
148.7336843664698
 30
0.0
 11
627.4984065214769
 21
148.7336843664698
 31
0.0
  0
LINE
  5
564
330
65
100
AcDbEntity
  8
0
  6
Continuous
 62
     7
100
AcDbLine
 10
209.3322512384561
 20
466.5206243664696
 30
0.0
 11
222.831910521477
 21
466.5206243664696
 31
0.0
  0
LINE
  5
565
330
65
100
AcDbEntity
  8
0
  6
Continuous
 62
     7
100
AcDbLine
 10
209.3321959468391
 20
451.6285343664696
 30
0.0
 11
222.831910521477
 21
451.6285343664698
 31
0.0
  0
LINE
  5
566
330
65
100
AcDbEntity
  8
0
  6
Continuous
 62
     7
100
AcDbLine
 10
208.3070943904973
 20
478.3988037484096
 30
0.0
 11
219.936650521477
 21
478.8049243664696
 31
0.0
  0
LINE
  5
567
330
65
100
AcDbEntity
  8
0
  6
Continuous
 62
     7
100
AcDbLine
 10
208.3066165429344
 20
350.5624268753583
 30
0.0
 11
219.9366205214769
 21
350.1563043664698
 31
0.0
  0
LINE
  5
568
330
65
100
AcDbEntity
  8
0
  6
Continuous
 62
     7
100
AcDbLine
 10
209.3319200999215
 20
377.3326943664698
 30
0.0
 11
222.831910521477
 21
377.3326943664698
 31
0.0
  0
LINE
  5
569
330
65
100
AcDbEntity
  8
0
  6
Continuous
 62
     7
100
AcDbLine
 10
209.3318648083046
 20
362.4406043664698
 30
0.0
 11
222.831910521477
 21
362.4406043664698
 31
0.0
  0
LINE
  5
56A
330
65
100
AcDbEntity
  8
0
  6
Continuous
 62
     7
100
AcDbLine
 10
328.831910521477
 20
165.7336943664698
 30
0.0
 11
328.831910521477
 21
162.7336943664696
 31
0.0
  0
LINE
  5
56B
330
65
100
AcDbEntity
  8
0
  6
Continuous
 62
     7
100
AcDbLine
 10
328.831910521477
 20
165.7336943664698
 30
0.0
 11
360.831910521477
 21
165.7336943664698
 31
0.0
  0
LINE
  5
56C
330
65
100
AcDbEntity
  8
0
  6
CENTER
 62
     1
100
AcDbLine
 10
214.1909205214769
 20
148.7336843664698
 30
0.0
 11
365.779690521477
 21
148.7336843664698
 31
0.0
  0
LINE
  5
56D
330
65
100
AcDbEntity
  8
0
  6
Continuous
 62
     7
100
AcDbLine
 10
318.831910521477
 20
134.7336943664696
 30
0.0
 11
360.831910521477
 21
134.7336943664696
 31
0.0
  0
LINE
  5
56E
330
65
100
AcDbEntity
  8
0
  6
Continuous
 62
     7
100
AcDbLine
 10
318.831910521477
 20
233.7336643664698
 30
0.0
 11
318.831910521477
 21
63.73368836646982
 31
0.0
  0
LINE
  5
56F
330
65
100
AcDbEntity
  8
0
  6
Continuous
 62
     7
100
AcDbLine
 10
318.831910521477
 20
162.7336943664696
 30
0.0
 11
360.831910521477
 21
162.7336943664696
 31
0.0
  0
LINE
  5
570
330
65
100
AcDbEntity
  8
0
  6
Continuous
 62
     7
100
AcDbLine
 10
360.831910521477
 20
165.7336943664698
 30
0.0
 11
360.831910521477
 21
134.7336943664696
 31
0.0
  0
LINE
  5
571
330
65
100
AcDbEntity
  8
0
  6
Continuous
 62
     7
100
AcDbLine
 10
526.184850521477
 20
165.7336943664698
 30
0.0
 11
534.184830521477
 21
165.7336943664698
 31
0.0
  0
LINE
  5
572
330
65
100
AcDbEntity
  8
0
  6
Continuous
 62
     7
100
AcDbLine
 10
526.184850521477
 20
158.7336843664697
 30
0.0
 11
534.184830521477
 21
158.7336843664697
 31
0.0
  0
LINE
  5
573
330
65
100
AcDbEntity
  8
0
  6
Continuous
 62
     7
100
AcDbLine
 10
239.831940521477
 20
206.5336843664698
 30
0.0
 11
239.831940521477
 21
44.53368336646979
 31
0.0
  0
LINE
  5
574
330
65
100
AcDbEntity
  8
0
  6
Continuous
 62
     7
100
AcDbLine
 10
196.3319405214769
 20
74.0336983664698
 30
0.0
 11
222.831940521477
 21
74.0336983664698
 31
0.0
  0
LINE
  5
575
330
65
100
AcDbEntity
  8
0
  6
Continuous
 62
     7
100
AcDbLine
 10
196.3319405214769
 20
88.3857573664698
 30
0.0
 11
222.831940521477
 21
88.3857573664698
 31
0.0
  0
LINE
  5
576
330
65
100
AcDbEntity
  8
0
  6
Continuous
 62
     7
100
AcDbLine
 10
222.831940521477
 20
196.3560243664696
 30
0.0
 11
222.831940521477
 21
47.05871936646979
 31
0.0
  0
LINE
  5
577
330
65
100
AcDbEntity
  8
0
  6
Continuous
 62
     7
100
AcDbLine
 10
227.6574105214769
 20
201.3529843664698
 30
0.0
 11
228.302580521477
 21
201.3755143664698
 31
0.0
  0
LINE
  5
578
330
65
100
AcDbEntity
  8
0
  6
Continuous
 62
     7
100
AcDbLine
 10
196.3319405214769
 20
177.0336843664698
 30
0.0
 11
222.831940521477
 21
177.0336843664698
 31
0.0
  0
LINE
  5
579
330
65
100
AcDbEntity
  8
0
  6
Continuous
 62
     7
100
AcDbLine
 10
219.112790521477
 20
189.8778643664698
 30
0.0
 11
220.352870521477
 21
190.0965343664696
 31
0.0
  0
LINE
  5
57A
330
65
100
AcDbEntity
  8
0
  6
Continuous
 62
     7
100
AcDbLine
 10
218.975010521477
 20
61.21377536646981
 30
0.0
 11
220.352870521477
 21
60.9708173664698
 31
0.0
  0
LINE
  5
57B
330
65
100
AcDbEntity
  8
0
  6
Continuous
 62
     7
100
AcDbLine
 10
239.831940521477
 20
206.5336643664698
 30
0.0
 11
234.762120521477
 21
206.3566243664698
 31
0.0
  0
LINE
  5
57C
330
65
100
AcDbEntity
  8
0
  6
CENTER
 62
     1
100
AcDbLine
 10
23.25021052147713
 20
125.5336943664698
 30
0.0
 11
246.193480521477
 21
125.5336943664698
 31
0.0
  0
LINE
  5
57D
330
65
100
AcDbEntity
  8
0
  6
Continuous
 62
     7
100
AcDbLine
 10
232.831910521477
 20
204.3578743664698
 30
0.0
 11
232.831910521477
 21
181.8677643664698
 31
0.0
  0
LINE
  5
57E
330
65
100
AcDbEntity
  8
0
  6
Continuous
 62
     7
100
AcDbLine
 10
196.331910521477
 20
62.03369536646979
 30
0.0
 11
218.5587505214769
 21
61.25751436646982
 31
0.0
  0
LINE
  5
57F
330
65
100
AcDbEntity
  8
0
  6
Continuous
 62
     7
100
AcDbLine
 10
196.331910521477
 20
189.0336643664696
 30
0.0
 11
218.4190105214772
 21
189.8049743664698
 31
0.0
  0
LINE
  5
580
330
65
100
AcDbEntity
  8
0
  6
Continuous
 62
     7
100
AcDbLine
 10
196.3319405214769
 20
162.6816143664698
 30
0.0
 11
222.831940521477
 21
162.6816143664698
 31
0.0
  0
LINE
  5
581
330
65
100
AcDbEntity
  8
0
  6
Continuous
 62
     7
100
AcDbLine
 10
224.831940521477
 20
158.6828943664697
 30
0.0
 11
230.831940521477
 21
158.6828943664697
 31
0.0
  0
LINE
  5
582
330
65
100
AcDbEntity
  8
0
  6
Continuous
 62
     7
100
AcDbLine
 10
224.831940521477
 20
179.8677643664697
 30
0.0
 11
230.831940521477
 21
179.8677643664697
 31
0.0
  0
LINE
  5
583
330
65
100
AcDbEntity
  8
0
  6
Continuous
 62
     7
100
AcDbLine
 10
223.747380521477
 20
152.2057743664696
 30
0.0
 11
230.831940521477
 21
152.2057743664696
 31
0.0
  0
LINE
  5
584
330
65
100
AcDbEntity
  8
0
  6
Continuous
 62
     7
100
AcDbLine
 10
224.831940521477
 20
63.98971536646981
 30
0.0
 11
230.831940521477
 21
63.98971536646981
 31
0.0
  0
LINE
  5
585
330
65
100
AcDbEntity
  8
0
  6
Continuous
 62
     7
100
AcDbLine
 10
232.831910521477
 20
156.6828843664697
 30
0.0
 11
232.831910521477
 21
65.98971536646982
 31
0.0
  0
LINE
  5
586
330
65
100
AcDbEntity
  8
0
  6
Continuous
 62
     7
100
AcDbLine
 10
196.3319405214769
 20
189.0336543664698
 30
0.0
 11
196.3319405214769
 21
62.03363436646982
 31
0.0
  0
LINE
  5
587
330
65
100
AcDbEntity
  8
0
  6
Continuous
 62
     7
100
AcDbLine
 10
534.184830521477
 20
158.7336843664697
 30
0.0
 11
534.184830521477
 21
165.7336943664698
 31
0.0
  0
LINE
  5
588
330
65
100
AcDbEntity
  8
0
  6
Continuous
 62
     7
100
AcDbLine
 10
526.184850521477
 20
158.7336843664697
 30
0.0
 11
526.184850521477
 21
165.7336943664698
 31
0.0
  0
LINE
  5
589
330
65
100
AcDbEntity
  8
0
  6
Continuous
 62
     7
100
AcDbLine
 10
264.831910521477
 20
73.44890536646978
 30
0.0
 11
264.831910521477
 21
85.76890536646979
 31
0.0
  0
LINE
  5
58A
330
65
100
AcDbEntity
  8
0
  6
Continuous
 62
     7
100
AcDbLine
 10
264.831910521477
 20
86.92922236646978
 30
0.0
 11
304.831910521477
 21
86.92922236646978
 31
0.0
  0
LINE
  5
58B
330
65
100
AcDbEntity
  8
0
  6
Continuous
 62
     7
100
AcDbLine
 10
264.831910521477
 20
72.26590736646982
 30
0.0
 11
304.831910521477
 21
72.26590736646982
 31
0.0
  0
LINE
  5
58C
330
65
100
AcDbEntity
  8
0
  6
Continuous
 62
     7
100
AcDbLine
 10
530.1848505214771
 20
56.23368836646982
 30
0.0
 11
560.1848305214771
 21
56.23368836646982
 31
0.0
  0
LINE
  5
58D
330
65
100
AcDbEntity
  8
0
  6
Continuous
 62
     7
100
AcDbLine
 10
530.1848505214771
 20
56.23368836646982
 30
0.0
 11
500.1848505214769
 21
56.23368836646982
 31
0.0
  0
LINE
  5
58E
330
65
100
AcDbEntity
  8
0
  6
Continuous
 62
     7
100
AcDbLine
 10
437.6848305214769
 20
178.7336643664697
 30
0.0
 11
440.0903605214769
 21
224.6337643664696
 31
0.0
  0
LINE
  5
58F
330
65
100
AcDbEntity
  8
0
  6
Continuous
 62
     7
100
AcDbLine
 10
437.6848505214769
 20
148.7336843664698
 30
0.0
 11
437.6848505214769
 21
178.7336843664698
 31
0.0
  0
LINE
  5
590
330
65
100
AcDbEntity
  8
0
  6
Continuous
 62
     7
100
AcDbLine
 10
303.4066805214771
 20
167.2079743664697
 30
0.0
 11
299.0701905214768
 21
144.0771843664698
 31
0.0
  0
LINE
  5
591
330
65
100
AcDbEntity
  8
0
  6
Continuous
 62
     7
100
AcDbLine
 10
560.1848405214768
 20
241.2336943664697
 30
0.0
 11
606.0849155214769
 21
238.8281743664698
 31
0.0
  0
LINE
  5
592
330
65
100
AcDbEntity
  8
0
  6
Continuous
 62
     7
100
AcDbLine
 10
530.1848505214771
 20
241.2336643664698
 30
0.0
 11
560.1848305214771
 21
241.2336643664698
 31
0.0
  0
LINE
  5
593
330
65
100
AcDbEntity
  8
0
  6
Continuous
 62
     7
100
AcDbLine
 10
500.1848505214769
 20
56.23368036646981
 30
0.0
 11
454.2847605214769
 21
58.63920236646983
 31
0.0
  0
LINE
  5
594
330
65
100
AcDbEntity
  8
0
  6
Continuous
 62
     7
100
AcDbLine
 10
532.6848505214769
 20
209.3534143664698
 30
0.0
 11
532.6848505214769
 21
219.9215143664698
 31
0.0
  0
LINE
  5
595
330
65
100
AcDbEntity
  8
0
  6
Continuous
 62
     7
100
AcDbLine
 10
622.6848265214769
 20
148.7336843664698
 30
0.0
 11
622.6848265214769
 21
118.7336843664698
 31
0.0
  0
LINE
  5
596
330
65
100
AcDbEntity
  8
0
  6
Continuous
 62
     7
100
AcDbLine
 10
622.6848345214769
 20
118.7336843664698
 30
0.0
 11
620.2793125214768
 21
72.83360236646982
 31
0.0
  0
LINE
  5
597
330
65
100
AcDbEntity
  8
0
  6
Continuous
 62
     7
100
AcDbLine
 10
622.6848385214768
 20
178.7336843664698
 30
0.0
 11
620.2793165214768
 21
224.6337543664699
 31
0.0
  0
LINE
  5
598
330
65
100
AcDbEntity
  8
0
  6
Continuous
 62
     7
100
AcDbLine
 10
622.6848265214769
 20
148.7336843664698
 30
0.0
 11
622.6848265214769
 21
178.7336843664698
 31
0.0
  0
LINE
  5
599
330
65
100
AcDbEntity
  8
0
  6
Continuous
 62
     7
100
AcDbLine
 10
437.684810521477
 20
118.7336643664698
 30
0.0
 11
440.0903505214769
 21
72.83360236646982
 31
0.0
  0
LINE
  5
59A
330
65
100
AcDbEntity
  8
0
  6
Continuous
 62
     7
100
AcDbLine
 10
295.761990521477
 20
190.1048043664697
 30
0.0
 11
295.761990521477
 21
190.1048043664697
 31
0.0
  0
LINE
  5
59B
330
65
100
AcDbEntity
  8
0
  6
Continuous
 62
     7
100
AcDbLine
 10
276.4092405214769
 20
207.8109843664698
 30
0.0
 11
295.761990521477
 21
190.1047943664698
 31
0.0
  0
LINE
  5
59C
330
65
100
AcDbEntity
  8
0
  6
Continuous
 62
     7
100
AcDbLine
 10
306.7621505214769
 20
240.9518543664698
 30
0.0
 11
314.831910521477
 21
241.2336543664698
 31
0.0
  0
LINE
  5
59D
330
65
100
AcDbEntity
  8
0
  6
Continuous
 62
     7
100
AcDbLine
 10
285.1717929784343
 20
44.53369436646982
 30
0.0
 11
304.831910521477
 21
55.88447936646981
 31
0.0
  0
LINE
  5
59E
330
65
100
AcDbEntity
  8
0
  6
Continuous
 62
     7
100
AcDbLine
 10
304.831910521477
 20
124.8233143664698
 30
0.0
 11
304.831910521477
 21
199.8588943664698
 31
0.0
  0
LINE
  5
59F
330
65
100
AcDbEntity
  8
0
  6
Continuous
 62
     7
100
AcDbLine
 10
239.831940521477
 20
206.5336643664698
 30
0.0
 11
275.2282705214769
 21
207.7697343664698
 31
0.0
  0
LINE
  5
5A0
330
65
100
AcDbEntity
  8
0
  6
Continuous
 62
     7
100
AcDbLine
 10
239.831910521477
 20
44.53368336646979
 30
0.0
 11
285.1717929784343
 21
44.53369436646982
 31
0.0
  0
LINE
  5
5A1
330
65
100
AcDbEntity
  8
0
  6
CENTER
 62
     1
 48
0.5
100
AcDbLine
 10
301.7135605214769
 20
72.71970336646981
 30
0.0
 11
321.335850521477
 21
72.71970336646981
 31
0.0
  0
LINE
  5
5A2
330
65
100
AcDbEntity
  8
0
  6
Continuous
 62
     7
100
AcDbLine
 10
502.9122805214768
 20
180.2488643664698
 30
0.0
 11
478.024510521477
 21
205.1366543664698
 31
0.0
  0
LINE
  5
5A3
330
65
100
AcDbEntity
  8
0
  6
Continuous
 62
     7
100
AcDbLine
 10
498.6696505214769
 20
176.0062343664697
 30
0.0
 11
473.7818605214767
 21
200.8940043664698
 31
0.0
  0
LINE
  5
5A4
330
65
100
AcDbEntity
  8
0
  6
Continuous
 62
     7
100
AcDbLine
 10
239.831940521477
 20
171.7836843664698
 30
0.0
 11
301.777250521477
 21
171.7836843664698
 31
0.0
  0
LINE
  5
5A5
330
65
100
AcDbEntity
  8
0
  6
Continuous
 62
     7
100
AcDbLine
 10
304.831910521477
 20
58.99106236646982
 30
0.0
 11
304.831910521477
 21
94.36302936646979
 31
0.0
  0
LINE
  5
5A6
330
65
100
AcDbEntity
  8
0
  6
Continuous
 62
     7
100
AcDbLine
 10
277.244870521477
 20
208.6466143664698
 30
0.0
 11
304.831910521477
 21
236.2336643664698
 31
0.0
  0
LINE
  5
5A7
330
65
100
AcDbEntity
  8
0
  6
Continuous
 62
     7
100
AcDbLine
 10
455.3198905214768
 20
120.5336743664697
 30
0.0
 11
486.184830521477
 21
120.5336743664697
 31
0.0
  0
LINE
  5
5A8
330
65
100
AcDbEntity
  8
0
  6
Continuous
 62
     7
100
AcDbLine
 10
605.0497675214769
 20
120.5336743664697
 30
0.0
 11
574.184840521477
 21
120.5336743664697
 31
0.0
  0
LINE
  5
5A9
330
65
100
AcDbEntity
  8
0
  6
Continuous
 62
     7
100
AcDbLine
 10
306.460940521477
 20
122.8233143664698
 30
0.0
 11
308.8319405214769
 21
122.8233143664698
 31
0.0
  0
LINE
  5
5AA
330
65
100
AcDbEntity
  8
0
  6
Continuous
 62
     7
100
AcDbLine
 10
560.1848205214769
 20
56.23367636646982
 30
0.0
 11
606.0849085214769
 21
58.63919836646982
 31
0.0
  0
LINE
  5
5AB
330
65
100
AcDbEntity
  8
0
  6
CENTER
 62
     1
100
AcDbLine
 10
596.7473915214768
 20
215.2962243664697
 30
0.0
 11
614.0366375214767
 21
232.5854743664698
 31
0.0
  0
LINE
  5
5AC
330
65
100
AcDbEntity
  8
0
  6
CENTER
 62
     1
100
AcDbLine
 10
462.126940521477
 20
216.7915743664698
 30
0.0
 11
446.5582405214768
 21
232.3602643664698
 31
0.0
  0
LINE
  5
5AD
330
65
100
AcDbEntity
  8
0
  6
Continuous
 62
     7
100
AcDbLine
 10
437.6848505214769
 20
148.7336843664698
 30
0.0
 11
437.6848505214769
 21
118.7336843664698
 31
0.0
  0
LINE
  5
5AE
330
65
100
AcDbEntity
  8
0
  6
CENTER
 62
     1
100
AcDbLine
 10
462.0950505214769
 20
80.6438823664698
 30
0.0
 11
446.6204505214768
 21
65.16930036646982
 31
0.0
  0
LINE
  5
5AF
330
65
100
AcDbEntity
  8
0
  6
Continuous
 62
     7
100
AcDbLine
 10
314.831940521477
 20
56.23367636646982
 30
0.0
 11
314.831940521477
 21
148.7336843664698
 31
0.0
  0
LINE
  5
5B0
330
65
100
AcDbEntity
  8
0
  6
Continuous
 62
     7
100
AcDbLine
 10
304.8319405214769
 20
55.88445636646981
 30
0.0
 11
314.831940521477
 21
56.23366536646982
 31
0.0
  0
LINE
  5
5B1
330
65
100
AcDbEntity
  8
0
  6
CENTER
 62
     1
100
AcDbLine
 10
495.1817905214769
 20
125.5336943664698
 30
0.0
 11
564.8317705214773
 21
125.5336943664698
 31
0.0
  0
LINE
  5
5B2
330
65
100
AcDbEntity
  8
0
  6
Continuous
 62
     7
100
AcDbLine
 10
527.6848505214769
 20
209.3534143664698
 30
0.0
 11
527.6848505214769
 21
219.9215143664698
 31
0.0
  0
LINE
  5
5B3
330
65
100
AcDbEntity
  8
0
  6
Continuous
 62
     7
100
AcDbLine
 10
561.7000405214769
 20
176.0062343664697
 30
0.0
 11
586.5878305214769
 21
200.8940243664698
 31
0.0
  0
LINE
  5
5B4
330
65
100
AcDbEntity
  8
0
  6
Continuous
 62
     7
100
AcDbLine
 10
500.1848105214769
 20
241.2336843664698
 30
0.0
 11
454.284740521477
 21
238.8281443664698
 31
0.0
  0
LINE
  5
5B5
330
65
100
AcDbEntity
  8
0
  6
Continuous
 62
     7
100
AcDbLine
 10
491.1848305214769
 20
148.7336843664698
 30
0.0
 11
491.1848305214769
 21
125.5336943664698
 31
0.0
  0
LINE
  5
5B6
330
65
100
AcDbEntity
  8
0
  6
Continuous
 62
     7
100
AcDbLine
 10
314.831940521477
 20
233.7336643664698
 30
0.0
 11
318.831910521477
 21
233.7336643664698
 31
0.0
  0
LINE
  5
5B7
330
65
100
AcDbEntity
  8
0
  6
Continuous
 62
     7
100
AcDbLine
 10
569.1848505214769
 20
148.7336843664698
 30
0.0
 11
569.1848505214769
 21
125.5336943664698
 31
0.0
  0
LINE
  5
5B8
330
65
100
AcDbEntity
  8
0
  6
CENTER
 62
     1
100
AcDbLine
 10
302.077640521477
 20
224.7476443664698
 30
0.0
 11
321.3607205214771
 21
224.7476443664698
 31
0.0
  0
LINE
  5
5B9
330
65
100
AcDbEntity
  8
0
  6
Continuous
 62
     7
100
AcDbLine
 10
557.457400521477
 20
180.2488743664697
 30
0.0
 11
582.3451855214768
 21
205.1366643664697
 31
0.0
  0
LINE
  5
5BA
330
65
100
AcDbEntity
  8
0
  6
CENTER
 62
     1
100
AcDbLine
 10
598.0656215214769
 20
80.85288236646979
 30
0.0
 11
614.1644405214768
 21
64.75406636646983
 31
0.0
  0
LINE
  5
5BB
330
65
100
AcDbEntity
  8
0
  6
Continuous
 62
     7
100
AcDbLine
 10
308.8319405214769
 20
78.23367336646978
 30
0.0
 11
308.8319405214769
 21
218.9059643664697
 31
0.0
  0
LINE
  5
5BC
330
65
100
AcDbEntity
  8
0
  6
Continuous
 62
     7
100
AcDbLine
 10
239.831940521477
 20
59.42346536646982
 30
0.0
 11
304.831910521477
 21
59.42346536646982
 31
0.0
  0
LINE
  5
5BD
330
65
100
AcDbEntity
  8
0
  6
Continuous
 62
     7
100
AcDbLine
 10
530.1848505214771
 20
241.2336643664698
 30
0.0
 11
500.1848505214769
 21
241.2336643664698
 31
0.0
  0
LINE
  5
5BE
330
65
100
AcDbEntity
  8
0
  6
Continuous
 62
     7
100
AcDbLine
 10
314.831940521477
 20
63.73368836646982
 30
0.0
 11
318.831910521477
 21
63.73368836646982
 31
0.0
  0
LINE
  5
5BF
330
65
100
AcDbEntity
  8
0
  6
Continuous
 62
     7
100
AcDbLine
 10
314.831940521477
 20
148.7336843664698
 30
0.0
 11
314.831940521477
 21
241.2336643664698
 31
0.0
  0
LINE
  5
5C0
330
65
100
AcDbEntity
  8
0
  6
Continuous
 62
     7
100
AcDbLine
 10
304.831910521477
 20
199.8588943664698
 30
0.0
 11
304.831910521477
 21
238.9530843664697
 31
0.0
  0
LINE
  5
5C1
330
65
100
AcDbEntity
  8
0
  6
Continuous
 62
     7
100
AcDbLine
 10
239.831910521477
 20
44.53369536646979
 30
0.0
 11
224.762150521477
 21
45.05994036646979
 31
0.0
  0
LINE
  5
5C2
330
65
100
AcDbEntity
  8
0
  6
Continuous
 62
     7
100
AcDbLine
 10
314.831940521477
 20
329.4806143664696
 30
0.0
 11
318.831970521477
 21
329.4806143664696
 31
0.0
  0
LINE
  5
5C3
330
65
100
AcDbEntity
  8
0
  6
Continuous
 62
     7
100
AcDbLine
 10
328.831910521477
 20
418.4805843664696
 30
0.0
 11
360.831910521477
 21
418.4805843664696
 31
0.0
  0
LINE
  5
5C4
330
65
100
AcDbEntity
  8
0
  6
Continuous
 62
     7
100
AcDbLine
 10
306.7621805214769
 20
506.6987843664696
 30
0.0
 11
314.831940521477
 21
506.9805843664698
 31
0.0
  0
LINE
  5
5C5
330
65
100
AcDbEntity
  8
0
  6
Continuous
 62
     7
100
AcDbLine
 10
303.137700521477
 20
328.6749143664698
 30
0.0
 11
304.8319705214769
 21
326.9806443664699
 31
0.0
  0
LINE
  5
5C6
330
65
100
AcDbEntity
  8
0
  6
CENTER
 62
     1
100
AcDbLine
 10
300.8771105214772
 20
338.4666343664696
 30
0.0
 11
322.222050521477
 21
338.4666343664696
 31
0.0
  0
LINE
  5
5C7
330
65
100
AcDbEntity
  8
0
  6
Continuous
 62
     7
100
AcDbLine
 10
328.831910521477
 20
418.4805843664696
 30
0.0
 11
328.831910521477
 21
410.4806143664696
 31
0.0
  0
LINE
  5
5C8
330
65
100
AcDbEntity
  8
0
  6
Continuous
 62
     7
100
AcDbLine
 10
318.831940521477
 20
400.4806443664698
 30
0.0
 11
360.831910521477
 21
400.4806443664698
 31
0.0
  0
LINE
  5
5C9
330
65
100
AcDbEntity
  8
0
  6
Continuous
 62
     7
100
AcDbLine
 10
318.831940521477
 20
428.4806443664698
 30
0.0
 11
360.831910521477
 21
428.4806443664698
 31
0.0
  0
LINE
  5
5CA
330
65
100
AcDbEntity
  8
0
  6
Continuous
 62
     7
100
AcDbLine
 10
360.831910521477
 20
428.4806443664698
 30
0.0
 11
360.831910521477
 21
400.4806443664698
 31
0.0
  0
LINE
  5
5CB
330
65
100
AcDbEntity
  8
0
  6
Continuous
 62
     7
100
AcDbLine
 10
299.776640521477
 20
498.8248543664698
 30
0.0
 11
239.831940521477
 21
496.7315643664696
 31
0.0
  0
LINE
  5
5CC
330
65
100
AcDbEntity
  8
0
  6
Continuous
 62
     7
100
AcDbLine
 10
299.776640521477
 20
330.1363443664696
 30
0.0
 11
239.831940521477
 21
332.2296643664695
 31
0.0
  0
LINE
  5
5CD
330
65
100
AcDbEntity
  8
0
  6
Continuous
 62
     7
100
AcDbLine
 10
314.831940521477
 20
321.9806143664696
 30
0.0
 11
314.831940521477
 21
506.9806143664698
 31
0.0
  0
LINE
  5
5CE
330
65
100
AcDbEntity
  8
0
  6
Continuous
 62
     7
100
AcDbLine
 10
314.831940521477
 20
499.4806143664698
 30
0.0
 11
318.831970521477
 21
499.4806143664698
 31
0.0
  0
LINE
  5
5CF
330
65
100
AcDbEntity
  8
0
  6
CENTER
 62
     1
100
AcDbLine
 10
301.5164505214769
 20
490.4945943664698
 30
0.0
 11
321.740750521477
 21
490.4945943664698
 31
0.0
  0
LINE
  5
5D0
330
65
100
AcDbEntity
  8
0
  6
Continuous
 62
     7
100
AcDbLine
 10
308.8319405214769
 20
343.9806143664698
 30
0.0
 11
308.8319405214769
 21
484.6529143664696
 31
0.0
  0
LINE
  5
5D1
330
65
100
AcDbEntity
  8
0
  6
Continuous
 62
     7
100
AcDbLine
 10
303.137700521477
 20
500.2862743664696
 30
0.0
 11
304.8319705214769
 21
501.9805843664697
 31
0.0
  0
LINE
  5
5D2
330
65
100
AcDbEntity
  8
0
  6
Continuous
 62
     7
100
AcDbLine
 10
304.8319405214769
 20
324.2612243664698
 30
0.0
 11
304.8319405214769
 21
504.7000043664696
 31
0.0
  0
LINE
  5
5D3
330
65
100
AcDbEntity
  8
0
  6
Continuous
 62
     7
100
AcDbLine
 10
328.831910521477
 20
410.4806143664696
 30
0.0
 11
360.831910521477
 21
410.4806143664696
 31
0.0
  0
LINE
  5
5D4
330
65
100
AcDbEntity
  8
0
  6
Continuous
 62
     7
100
AcDbLine
 10
318.831970521477
 20
499.4806143664698
 30
0.0
 11
318.831970521477
 21
329.4806143664696
 31
0.0
  0
LINE
  5
5D5
330
65
100
AcDbEntity
  8
0
  6
Continuous
 62
     7
100
AcDbLine
 10
306.7621505214769
 20
322.2624143664697
 30
0.0
 11
314.831910521477
 21
321.9806143664696
 31
0.0
  0
ARC
  5
5D6
330
65
100
AcDbEntity
  8
0
  6
Continuous
 62
     7
100
AcDbCircle
 10
227.831940521477
 20
337.6517543664699
 30
0.0
 40
5.0
100
AcDbArc
 50
180.00001
 51
268.0000000000029
  0
ARC
  5
5D7
330
65
100
AcDbEntity
  8
0
  6
Continuous
 62
     7
100
AcDbCircle
 10
227.831940521477
 20
491.3094743664698
 30
0.0
 40
5.0
100
AcDbArc
 50
91.99999800000055
 51
180.00001
  0
ARC
  5
5D8
330
65
100
AcDbEntity
  8
0
  6
Continuous
 62
     7
100
AcDbCircle
 10
219.831940521477
 20
347.1581343664698
 30
0.0
 40
3.0
100
AcDbArc
 50
0.0
 51
88.00000000000286
  0
ARC
  5
5D9
330
65
100
AcDbEntity
  8
0
  6
Continuous
 62
     7
100
AcDbCircle
 10
219.831940521477
 20
481.8030943664695
 30
0.0
 40
3.0
100
AcDbArc
 50
271.9999999999971
 51
0.0
  0
ARC
  5
5DA
330
65
100
AcDbEntity
  8
0
  6
Continuous
 62
     7
100
AcDbCircle
 10
227.831940521477
 20
196.3560243664696
 30
0.0
 40
5.0
100
AcDbArc
 50
91.99999800000055
 51
180.00001
  0
ARC
  5
5DB
330
65
100
AcDbEntity
  8
0
  6
Continuous
 62
     7
100
AcDbCircle
 10
224.831940521477
 20
61.98971136646981
 30
0.0
 40
2.0
100
AcDbArc
 50
90.00000299999769
 51
180.00001
  0
ARC
  5
5DC
330
65
100
AcDbEntity
  8
0
  6
Continuous
 62
     7
100
AcDbCircle
 10
219.831940521477
 20
193.0509843664697
 30
0.0
 40
3.0
100
AcDbArc
 50
279.9999999999986
 51
0.0
  0
ARC
  5
5DD
330
65
100
AcDbEntity
  8
0
  6
Continuous
 62
     7
100
AcDbCircle
 10
230.831940521477
 20
65.98971536646982
 30
0.0
 40
2.0
100
AcDbArc
 50
270.0
 51
0.0
  0
ARC
  5
5DE
330
65
100
AcDbEntity
  8
0
  6
Continuous
 62
     7
100
AcDbCircle
 10
234.831940521477
 20
204.3578743664698
 30
0.0
 40
2.0
100
AcDbArc
 50
91.99999800000055
 51
163.2736499999997
  0
ARC
  5
5DF
330
65
100
AcDbEntity
  8
0
  6
Continuous
 62
     7
100
AcDbCircle
 10
230.831940521477
 20
150.2057543664698
 30
0.0
 40
2.0
100
AcDbArc
 50
0.0
 51
90.00000299999769
  0
ARC
  5
5E0
330
65
100
AcDbEntity
  8
0
  6
Continuous
 62
     7
100
AcDbCircle
 10
228.128110521477
 20
206.3724543664698
 30
0.0
 40
5.0
100
AcDbArc
 50
271.9999999999971
 51
343.2736599999993
  0
ARC
  5
5E1
330
65
100
AcDbEntity
  8
0
  6
Continuous
 62
     7
100
AcDbCircle
 10
219.831940521477
 20
58.01640336646983
 30
0.0
 40
3.0
100
AcDbArc
 50
0.0
 51
79.9999980000009
  0
ARC
  5
5E2
330
65
100
AcDbEntity
  8
0
  6
Continuous
 62
     7
100
AcDbCircle
 10
224.831940521477
 20
177.8677743664697
 30
0.0
 40
2.0
100
AcDbArc
 50
90.00000299999769
 51
180.00001
  0
ARC
  5
5E3
330
65
100
AcDbEntity
  8
0
  6
Continuous
 62
     7
100
AcDbCircle
 10
218.4540705214769
 20
58.25934936646982
 30
0.0
 40
3.0
100
AcDbArc
 50
79.9999980000009
 51
88.00000000000286
  0
ARC
  5
5E4
330
65
100
AcDbEntity
  8
0
  6
Continuous
 62
     7
100
AcDbCircle
 10
218.244540521477
 20
194.8019343664698
 30
0.0
 40
5.0
100
AcDbArc
 50
271.9999999999971
 51
279.9999999999986
  0
ARC
  5
5E5
330
65
100
AcDbEntity
  8
0
  6
Continuous
 62
     7
100
AcDbCircle
 10
230.831940521477
 20
156.6828843664697
 30
0.0
 40
2.0
100
AcDbArc
 50
0.0
 51
90.00000299999769
  0
ARC
  5
5E6
330
65
100
AcDbEntity
  8
0
  6
Continuous
 62
     7
100
AcDbCircle
 10
224.831940521477
 20
160.6828843664697
 30
0.0
 40
2.0
100
AcDbArc
 50
179.9999899999999
 51
270.0
  0
ARC
  5
5E7
330
65
100
AcDbEntity
  8
0
  6
Continuous
 62
     7
100
AcDbCircle
 10
230.831940521477
 20
181.8677643664698
 30
0.0
 40
2.0
100
AcDbArc
 50
270.0
 51
0.0
  0
CIRCLE
  5
5E8
330
65
100
AcDbEntity
  8
0
  6
Continuous
 62
     7
100
AcDbCircle
 10
530.1848505214771
 20
148.7336843664698
 30
0.0
 40
4.0
  0
ARC
  5
5E9
330
65
100
AcDbEntity
  8
0
  6
Continuous
 62
     7
100
AcDbCircle
 10
530.1848505214771
 20
148.7336843664698
 30
0.0
 40
14.00000099999999
100
AcDbArc
 50
106.6015400000017
 51
73.39845199999832
  0
CIRCLE
  5
5EA
330
65
100
AcDbEntity
  8
0
  6
Continuous
 62
     7
100
AcDbCircle
 10
530.1848505214771
 20
148.7336843664698
 30
0.0
 40
3.0
  0
ARC
  5
5EB
330
65
100
AcDbEntity
  8
0
  6
Continuous
 62
     7
100
AcDbCircle
 10
264.833560521477
 20
79.59757936646979
 30
0.0
 40
7.331658799999996
100
AcDbArc
 50
90.00000299999769
 51
270.0
  0
ARC
  5
5EC
330
65
100
AcDbEntity
  8
0
  6
Continuous
 62
     7
100
AcDbCircle
 10
530.1848505214771
 20
125.5336943664698
 30
0.0
 40
81.0
100
AcDbArc
 50
93.75419500000083
 51
121.1390600000001
  0
ARC
  5
5ED
330
65
100
AcDbEntity
  8
0
  6
Continuous
 62
     7
100
AcDbCircle
 10
530.1848505214771
 20
125.5336943664698
 30
0.0
 40
76.0
100
AcDbArc
 50
358.6064499999997
 51
12.76020200000028
  0
ARC
  5
5EE
330
65
100
AcDbEntity
  8
0
  6
Continuous
 62
     7
100
AcDbCircle
 10
530.1848505214771
 20
125.5336943664698
 30
0.0
 40
76.0
100
AcDbArc
 50
167.2398000000003
 51
181.3935399999999
  0
ARC
  5
5EF
330
65
100
AcDbEntity
  8
0
  6
Continuous
 62
     7
100
AcDbCircle
 10
530.1848505214771
 20
148.7336843664698
 30
0.0
 40
74.400002
100
AcDbArc
 50
171.8834499999997
 51
184.9454199999998
  0
ARC
  5
5F0
330
65
100
AcDbEntity
  8
0
  6
Continuous
 62
     7
100
AcDbCircle
 10
455.069810521477
 20
223.8487143664698
 30
0.0
 40
15.0
100
AcDbArc
 50
92.99999900000162
 51
176.99999
  0
ARC
  5
5F1
330
65
100
AcDbEntity
  8
0
  6
Continuous
 62
     7
100
AcDbCircle
 10
605.2998585214769
 20
223.8487143664698
 30
0.0
 40
15.0
100
AcDbArc
 50
3.000000100000046
 51
86.99999899999694
  0
ARC
  5
5F2
330
65
100
AcDbEntity
  8
0
  6
Continuous
 62
     7
100
AcDbCircle
 10
605.2998585214769
 20
73.61864436646981
 30
0.0
 40
15.0
100
AcDbArc
 50
272.9999999999991
 51
357.0000000000002
  0
ARC
  5
5F3
330
65
100
AcDbEntity
  8
0
  6
Continuous
 62
     7
100
AcDbCircle
 10
535.684850521477
 20
209.3534143664698
 30
0.0
 40
3.0
100
AcDbArc
 50
180.00001
 51
266.2457999999976
  0
ARC
  5
5F4
330
65
100
AcDbEntity
  8
0
  6
Continuous
 62
     7
100
AcDbCircle
 10
605.2998585214769
 20
223.8487143664698
 30
0.0
 40
15.0
100
AcDbArc
 50
3.000000100000046
 51
86.99999899999694
  0
ARC
  5
5F5
330
65
100
AcDbEntity
  8
0
  6
Continuous
 62
     7
100
AcDbCircle
 10
524.6848505214768
 20
219.9215143664698
 30
0.0
 40
3.0
100
AcDbArc
 50
0.0
 51
94.41791899999687
  0
ARC
  5
5F6
330
65
100
AcDbEntity
  8
0
  6
Continuous
 62
     7
100
AcDbCircle
 10
605.2998585214769
 20
73.61864436646981
 30
0.0
 40
15.0
100
AcDbArc
 50
272.9999999999991
 51
357.0000000000002
  0
ARC
  5
5F7
330
65
100
AcDbEntity
  8
0
  6
Continuous
 62
     7
100
AcDbCircle
 10
535.684850521477
 20
219.9215143664698
 30
0.0
 40
3.0
100
AcDbArc
 50
85.58208600000215
 51
180.00001
  0
ARC
  5
5F8
330
65
100
AcDbEntity
  8
0
  6
Continuous
 62
     7
100
AcDbCircle
 10
530.1848505214771
 20
148.7336843664698
 30
0.0
 40
74.400002
100
AcDbArc
 50
355.0545799999999
 51
8.116549400000321
  0
ARC
  5
5F9
330
65
100
AcDbEntity
  8
0
  6
Continuous
 62
     7
100
AcDbCircle
 10
455.069810521477
 20
73.61864436646981
 30
0.0
 40
15.0
100
AcDbArc
 50
183.0000099999999
 51
267.0000000000009
  0
ARC
  5
5FA
330
65
100
AcDbEntity
  8
0
  6
Continuous
 62
     7
100
AcDbCircle
 10
323.4772005214771
 20
139.5014543664696
 30
0.0
 40
24.83221099999999
100
AcDbArc
 50
169.3816799999995
 51
218.7932100000005
  0
ARC
  5
5FB
330
65
100
AcDbEntity
  8
0
  6
Continuous
 62
     7
100
AcDbCircle
 10
530.1848505214771
 20
125.5336943664698
 30
0.0
 40
81.0
100
AcDbArc
 50
125.4741700000012
 51
155.4112299999993
  0
ARC
  5
5FC
330
65
100
AcDbEntity
  8
0
  6
Continuous
 62
     7
100
AcDbCircle
 10
278.999700521477
 20
171.7836843664698
 30
0.0
 40
24.83221099999999
100
AcDbArc
 50
349.3816799999992
 51
47.54406600000157
  0
ARC
  5
5FD
330
65
100
AcDbEntity
  8
0
  6
Continuous
 62
     7
100
AcDbCircle
 10
574.184840521477
 20
125.5336943664698
 30
0.0
 40
5.0
100
AcDbArc
 50
179.9999899999999
 51
270.0
  0
ARC
  5
5FE
330
65
100
AcDbEntity
  8
0
  6
Continuous
 62
     7
100
AcDbCircle
 10
307.831910521477
 20
58.99106236646982
 30
0.0
 40
3.0
100
AcDbArc
 50
179.9999899999999
 51
271.9999900000013
  0
ARC
  5
5FF
330
65
100
AcDbEntity
  8
0
  6
Continuous
 62
     7
100
AcDbCircle
 10
307.831910521477
 20
94.36302936646979
 30
0.0
 40
3.0
100
AcDbArc
 50
90.00000299999769
 51
180.00001
  0
ARC
  5
600
330
65
100
AcDbEntity
  8
0
  6
Continuous
 62
     7
100
AcDbCircle
 10
530.1848505214771
 20
148.7336843664698
 30
0.0
 40
39.000011
100
AcDbArc
 50
0.0
 51
36.78679100000189
  0
ARC
  5
601
330
65
100
AcDbEntity
  8
0
  6
Continuous
 62
     7
100
AcDbCircle
 10
305.831940521477
 20
218.9059643664697
 30
0.0
 40
3.0
100
AcDbArc
 50
0.0
 51
91.99999800000055
  0
ARC
  5
602
330
65
100
AcDbEntity
  8
0
  6
Continuous
 62
     7
100
AcDbCircle
 10
305.831940521477
 20
78.23367336646978
 30
0.0
 40
3.0
100
AcDbArc
 50
270.0
 51
0.0
  0
ARC
  5
603
330
65
100
AcDbEntity
  8
0
  6
Continuous
 62
     7
100
AcDbCircle
 10
505.0336005214768
 20
182.3702043664698
 30
0.0
 40
3.0
100
AcDbArc
 50
224.9999999999998
 51
306.78679
  0
ARC
  5
604
330
65
100
AcDbEntity
  8
0
  6
Continuous
 62
     7
100
AcDbCircle
 10
496.5483205214769
 20
173.8849143664697
 30
0.0
 40
3.0
100
AcDbArc
 50
323.2132100000011
 51
45.00000100000163
  0
ARC
  5
605
330
65
100
AcDbEntity
  8
0
  6
Continuous
 62
     7
100
AcDbCircle
 10
530.1848505214771
 20
148.7336843664698
 30
0.0
 40
39.000011
100
AcDbArc
 50
53.21320800000107
 51
126.78679
  0
ARC
  5
606
330
65
100
AcDbEntity
  8
0
  6
Continuous
 62
     7
100
AcDbCircle
 10
480.1458105214769
 20
207.2579843664698
 30
0.0
 40
3.0
100
AcDbArc
 50
130.5308599999982
 51
224.9999999999998
  0
ARC
  5
607
330
65
100
AcDbEntity
  8
0
  6
Continuous
 62
     7
100
AcDbCircle
 10
530.1848505214771
 20
125.5336943664698
 30
0.0
 40
81.0
100
AcDbArc
 50
58.86094500000247
 51
86.24580299999719
  0
ARC
  5
608
330
65
100
AcDbEntity
  8
0
  6
Continuous
 62
     7
100
AcDbCircle
 10
530.1848505214771
 20
148.7336843664698
 30
0.0
 40
39.000011
100
AcDbArc
 50
143.2132100000011
 51
180.00001
  0
ARC
  5
609
330
65
100
AcDbEntity
  8
0
  6
Continuous
 62
     7
100
AcDbCircle
 10
486.184830521477
 20
125.5336943664698
 30
0.0
 40
5.0
100
AcDbArc
 50
270.0
 51
0.0
  0
ARC
  5
60A
330
65
100
AcDbEntity
  8
0
  6
Continuous
 62
     7
100
AcDbCircle
 10
498.8526905214769
 20
45.44439336646983
 30
0.0
 40
5.0
100
AcDbArc
 50
68.63379799999719
 51
143.2612600000003
  0
ARC
  5
60B
330
65
100
AcDbEntity
  8
0
  6
Continuous
 62
     7
100
AcDbCircle
 10
488.4348605214769
 20
53.22056136646981
 30
0.0
 40
8.0
100
AcDbArc
 50
156.73874
 51
323.2612700000013
  0
ARC
  5
60C
330
65
100
AcDbEntity
  8
0
  6
Continuous
 62
     7
100
AcDbCircle
 10
571.9348105214769
 20
53.22056136646981
 30
0.0
 40
8.0
100
AcDbArc
 50
216.7387399999995
 51
23.2612580000003
  0
ARC
  5
60D
330
65
100
AcDbEntity
  8
0
  6
CENTER
 62
     1
100
AcDbCircle
 10
530.1848505214771
 20
148.7336843664698
 30
0.0
 40
107.50001
100
AcDbArc
 50
38.07214000000035
 51
52.30429100000227
  0
ARC
  5
60E
330
65
100
AcDbEntity
  8
0
  6
Continuous
 62
     7
100
AcDbCircle
 10
530.1848505214771
 20
125.5336943664698
 30
0.0
 40
81.0
100
AcDbArc
 50
248.6337999999978
 51
270.0
  0
ARC
  5
60F
330
65
100
AcDbEntity
  8
0
  6
Continuous
 62
     7
100
AcDbCircle
 10
561.5169905214769
 20
45.44439336646983
 30
0.0
 40
5.0
100
AcDbArc
 50
36.73873700000053
 51
111.36621
  0
CIRCLE
  5
610
330
65
100
AcDbEntity
  8
0
  6
Continuous
 62
     7
100
AcDbCircle
 10
606.198799521477
 20
224.7476443664698
 30
0.0
 40
6.0
  0
CIRCLE
  5
611
330
65
100
AcDbEntity
  8
0
  6
Continuous
 62
     7
100
AcDbCircle
 10
454.1708505214772
 20
224.7476443664698
 30
0.0
 40
6.0
  0
ARC
  5
612
330
65
100
AcDbEntity
  8
0
  6
CENTER
 62
     1
100
AcDbCircle
 10
530.1848505214771
 20
148.7336843664698
 30
0.0
 40
107.50001
100
AcDbArc
 50
127.8744900000008
 51
141.5897500000014
  0
ARC
  5
613
330
65
100
AcDbEntity
  8
0
  6
Continuous
 62
     7
100
AcDbCircle
 10
471.6605405214768
 20
198.7726943664698
 30
0.0
 40
3.0
100
AcDbArc
 50
45.00000100000163
 51
139.4691400000008
  0
ARC
  5
614
330
65
100
AcDbEntity
  8
0
  6
Continuous
 62
     7
100
AcDbCircle
 10
455.069810521477
 20
73.61864436646981
 30
0.0
 40
15.0
100
AcDbArc
 50
183.0000099999999
 51
267.0000000000009
  0
ARC
  5
615
330
65
100
AcDbEntity
  8
0
  6
CENTER
 62
     1
100
AcDbCircle
 10
530.1848505214771
 20
148.7336843664698
 30
0.0
 40
107.50001
100
AcDbArc
 50
218.6571699999988
 51
231.0612100000009
  0
CIRCLE
  5
616
330
65
100
AcDbEntity
  8
0
  6
Continuous
 62
     7
100
AcDbCircle
 10
454.1708505214772
 20
72.71970336646981
 30
0.0
 40
6.0
  0
ARC
  5
617
330
65
100
AcDbEntity
  8
0
  6
Continuous
 62
     7
100
AcDbCircle
 10
306.831910521477
 20
238.9530843664697
 30
0.0
 40
2.0
100
AcDbArc
 50
91.99999800000055
 51
180.00001
  0
CIRCLE
  5
618
330
65
100
AcDbEntity
  8
0
  6
Continuous
 62
     7
100
AcDbCircle
 10
530.1848505214771
 20
148.7336843664698
 30
0.0
 40
29.0
  0
CIRCLE
  5
619
330
65
100
AcDbEntity
  8
0
  6
Continuous
 62
     7
100
AcDbCircle
 10
606.198799521477
 20
72.71970336646981
 30
0.0
 40
6.0
  0
CIRCLE
  5
61A
330
65
100
AcDbEntity
  8
0
  6
Continuous
 62
     7
100
AcDbCircle
 10
530.1848505214771
 20
148.7336843664698
 30
0.0
 40
80.0
  0
ARC
  5
61B
330
65
100
AcDbEntity
  8
0
  6
Continuous
 62
     7
100
AcDbCircle
 10
530.1848505214771
 20
125.5336943664698
 30
0.0
 40
81.0
100
AcDbArc
 50
24.58877500000063
 51
54.52582999999872
  0
CIRCLE
  5
61C
330
65
100
AcDbEntity
  8
0
  6
Continuous
 62
     7
100
AcDbCircle
 10
530.1848505214771
 20
148.7336843664698
 30
0.0
 40
85.0
  0
ARC
  5
61D
330
65
100
AcDbEntity
  8
0
  6
Continuous
 62
     7
100
AcDbCircle
 10
588.7091375214769
 20
198.7726943664698
 30
0.0
 40
3.0
100
AcDbArc
 50
40.53086499999817
 51
135.0000000000002
  0
ARC
  5
61E
330
65
100
AcDbEntity
  8
0
  6
Continuous
 62
     7
100
AcDbCircle
 10
555.3361005214768
 20
182.3702043664698
 30
0.0
 40
3.0
100
AcDbArc
 50
233.21321
 51
315.0000000000002
  0
ARC
  5
61F
330
65
100
AcDbEntity
  8
0
  6
CENTER
 62
     1
100
AcDbCircle
 10
530.1848505214771
 20
148.7336843664698
 30
0.0
 40
107.50001
100
AcDbArc
 50
307.4506299999988
 51
322.7153099999981
  0
ARC
  5
620
330
65
100
AcDbEntity
  8
0
  6
Continuous
 62
     7
100
AcDbCircle
 10
563.8213505214769
 20
173.8849143664697
 30
0.0
 40
3.0
100
AcDbArc
 50
135.0000000000002
 51
216.7867899999988
  0
ARC
  5
621
330
65
100
AcDbEntity
  8
0
  6
Continuous
 62
     7
100
AcDbCircle
 10
580.2238475214768
 20
207.2579843664698
 30
0.0
 40
3.0
100
AcDbArc
 50
315.0000000000002
 51
49.46913699999772
  0
ARC
  5
622
330
65
100
AcDbEntity
  8
0
  6
Continuous
 62
     7
100
AcDbCircle
 10
455.069810521477
 20
223.8487143664698
 30
0.0
 40
15.0
100
AcDbArc
 50
92.99999900000162
 51
176.99999
  0
ARC
  5
623
330
65
100
AcDbEntity
  8
0
  6
Continuous
 62
     7
100
AcDbCircle
 10
530.1848505214771
 20
125.5336943664698
 30
0.0
 40
81.0
100
AcDbArc
 50
270.0
 51
291.366200000002
  0
ARC
  5
624
330
65
100
AcDbEntity
  8
0
  6
Continuous
 62
     7
100
AcDbCircle
 10
524.6848505214768
 20
209.3534143664698
 30
0.0
 40
3.0
100
AcDbArc
 50
273.7542000000025
 51
0.0
  0
ARC
  5
625
330
65
100
AcDbEntity
  8
0
  6
Continuous
 62
     7
100
AcDbCircle
 10
275.123540521477
 20
210.7679043664697
 30
0.0
 40
3.0
100
AcDbArc
 50
271.9999999999971
 51
315.0000000000002
  0
ARC
  5
626
330
65
100
AcDbEntity
  8
0
  6
Continuous
 62
     7
100
AcDbCircle
 10
307.831910521477
 20
199.8588943664698
 30
0.0
 40
3.0
100
AcDbArc
 50
179.9999899999999
 51
270.0
  0
ARC
  5
627
330
65
100
AcDbEntity
  8
0
  6
Continuous
 62
     7
100
AcDbCircle
 10
306.460940521477
 20
125.8233143664698
 30
0.0
 40
3.0
100
AcDbArc
 50
218.7932199999988
 51
270.0
  0
ARC
  5
628
330
65
100
AcDbEntity
  8
0
  6
Continuous
 62
     7
100
AcDbCircle
 10
224.831940521477
 20
47.05871936646979
 30
0.0
 40
2.0
100
AcDbArc
 50
179.9999899999999
 51
268.0000099999987
  0
ARC
  5
629
330
65
100
AcDbEntity
  8
0
  6
Continuous
 62
     7
100
AcDbCircle
 10
307.831940521477
 20
363.3553743664697
 30
0.0
 40
3.0
100
AcDbArc
 50
90.00000299999769
 51
180.00001
  0
ARC
  5
62A
330
65
100
AcDbEntity
  8
0
  6
Continuous
 62
     7
100
AcDbCircle
 10
299.602140521477
 20
503.8218343664696
 30
0.0
 40
5.0
100
AcDbArc
 50
271.9999999999971
 51
315.0000000000002
  0
ARC
  5
62B
330
65
100
AcDbEntity
  8
0
  6
Continuous
 62
     7
100
AcDbCircle
 10
305.831940521477
 20
484.6529143664696
 30
0.0
 40
3.0
100
AcDbArc
 50
0.0
 51
91.99999800000055
  0
ARC
  5
62C
330
65
100
AcDbEntity
  8
0
  6
Continuous
 62
     7
100
AcDbCircle
 10
328.831910521477
 20
414.4805843664697
 30
0.0
 40
3.9999962
100
AcDbArc
 50
90.00000299999769
 51
270.0
  0
ARC
  5
62D
330
65
100
AcDbEntity
  8
0
  6
Continuous
 62
     7
100
AcDbCircle
 10
306.8319705214769
 20
504.7000043664696
 30
0.0
 40
2.0
100
AcDbArc
 50
91.99999800000055
 51
180.00001
  0
ARC
  5
62E
330
65
100
AcDbEntity
  8
0
  6
Continuous
 62
     7
100
AcDbCircle
 10
307.831940521477
 20
465.6058543664697
 30
0.0
 40
3.0
100
AcDbArc
 50
179.9999899999999
 51
270.0
  0
ARC
  5
62F
330
65
100
AcDbEntity
  8
0
  6
Continuous
 62
     7
100
AcDbCircle
 10
306.8319705214769
 20
324.2612243664698
 30
0.0
 40
2.0
100
AcDbArc
 50
179.9999899999999
 51
268.0000099999987
  0
ARC
  5
630
330
65
100
AcDbEntity
  8
0
  6
Continuous
 62
     7
100
AcDbCircle
 10
305.831940521477
 20
344.3083143664698
 30
0.0
 40
3.0
100
AcDbArc
 50
268.0000000000029
 51
0.0
  0
ARC
  5
631
330
65
100
AcDbEntity
  8
0
  6
Continuous
 62
     7
100
AcDbCircle
 10
299.602140521477
 20
325.1393943664699
 30
0.0
 40
5.0
100
AcDbArc
 50
45.00000100000163
 51
88.00000000000286
  0
POLYLINE
  5
632
330
65
100
AcDbEntity
  8
0
  6
Continuous
 62
     7
100
AcDb2dPolyline
 66
     1
 10
0.0
 20
0.0
 30
0.0
  0
VERTEX
  5
633
330
632
100
AcDbEntity
  8
0
  6
Continuous
 62
     7
100
AcDbVertex
100
AcDb2dVertex
 10
301.7450005214771
 20
498.8936043664698
 30
0.0
 42
0.081985852
  0
VERTEX
  5
634
330
632
100
AcDbEntity
  8
0
  6
Continuous
 62
     7
100
AcDbVertex
100
AcDb2dVertex
 10
279.6291105214769
 20
443.9819243664696
 30
0.0
 42
0.10914194
  0
VERTEX
  5
635
330
632
100
AcDbEntity
  8
0
  6
Continuous
 62
     7
100
AcDbVertex
100
AcDb2dVertex
 10
279.629200521477
 20
384.9789143664697
 30
0.0
 42
0.081985219
  0
VERTEX
  5
636
330
632
100
AcDbEntity
  8
0
  6
Continuous
 62
     7
100
AcDbVertex
100
AcDb2dVertex
 10
301.7450005214771
 20
330.0676143664698
 30
0.0
  0
SEQEND
  5
637
330
632
100
AcDbEntity
  8
0
 62
     7
  0
TEXT
  5
638
330
65
100
AcDbEntity
  8
0
  6
Continuous
 62
     7
100
AcDbText
 10
481.227109140324
 20
12.53997401690389
 30
0.0
 40
8.0
  1
VX04-060～100MFP
 41
0.92452828
100
AcDbText
  0
LINE
  5
639
330
65
100
AcDbEntity
  8
AM_0
100
AcDbLine
 10
196.3319405214769
 20
189.03366786647
 30
0.0
 11
196.3319405214769
 21
62.03362086646959
 31
0.0
  0
LINE
  5
63A
330
65
100
AcDbEntity
  8
0
100
AcDbLine
 10
175.5577105996034
 20
201.5336848664694
 30
0.0
 11
88.03187746971889
 21
201.5336848664694
 31
0.0
  0
LINE
  5
63B
330
65
100
AcDbEntity
  8
0
100
AcDbLine
 10
103.8318728920821
 20
201.0336848664694
 30
0.0
 11
103.8318728920821
 21
199.0336848664694
 31
0.0
  0
LINE
  5
63C
330
65
100
AcDbEntity
  8
0
100
AcDbLine
 10
103.8318728920821
 20
199.0336848664694
 30
0.0
 11
170.8318347451111
 21
199.0336848664694
 31
0.0
  0
LINE
  5
63D
330
65
100
AcDbEntity
  8
0
100
AcDbLine
 10
170.8318500039003
 20
201.0336848664694
 30
0.0
 11
170.8318347451111
 21
199.0336848664694
 31
0.0
  0
POINT
  5
63E
330
65
100
AcDbEntity
  8
0
100
AcDbPoint
 10
137.3318805214785
 20
199.0336848664694
 30
0.0
  0
ARC
  5
63F
330
65
100
AcDbEntity
  8
0
100
AcDbCircle
 10
61.07468052147851
 20
188.70373486647
 30
0.0
 40
1.5
100
AcDbArc
 50
269.9999969999632
 51
338.5382910000203
  0
ARC
  5
640
330
65
100
AcDbEntity
  8
0
100
AcDbCircle
 10
60.82883052147735
 20
185.296874866469
 30
0.0
 40
1.503128599999999
100
AcDbArc
 50
270.1191300000142
 51
359.8808703500629
  0
ARC
  5
641
330
65
100
AcDbEntity
  8
0
100
AcDbCircle
 10
60.82999052147716
 20
180.015624866469
 30
0.0
 40
1.501982699999999
100
AcDbArc
 50
270.0755870000017
 51
359.924412798019
  0
ARC
  5
642
330
65
100
AcDbEntity
  8
0
100
AcDbCircle
 10
60.93686052147678
 20
60.72851486646979
 30
0.0
 40
1.5052301
100
AcDbArc
 50
14.82822000000876
 51
89.80579000001304
  0
ARC
  5
643
330
65
100
AcDbEntity
  8
0
100
AcDbCircle
 10
60.82505052147826
 20
62.35680486646945
 30
0.0
 40
1.506942899999999
100
AcDbArc
 50
0.2633699999991482
 51
89.73663000000085
  0
ARC
  5
644
330
65
100
AcDbEntity
  8
0
100
AcDbCircle
 10
60.82706052147841
 20
65.75878486646999
 30
0.0
 40
1.5048913
100
AcDbArc
 50
0.1859300000168315
 51
89.81407000003526
  0
ARC
  5
645
330
65
100
AcDbEntity
  8
0
100
AcDbCircle
 10
60.82822052147822
 20
71.03991486646939
 30
0.0
 40
1.5037541
100
AcDbArc
 50
0.1428599999232856
 51
89.85713000004464
  0
LINE
  5
646
330
65
100
AcDbEntity
  8
0
100
AcDbLine
 10
82.331940521477
 20
171.8837248664697
 30
0.0
 11
51.331940521477
 21
169.8537248664699
 31
0.0
  0
LINE
  5
647
330
65
100
AcDbEntity
  8
0
100
AcDbLine
 10
82.331940521477
 20
79.18377486646952
 30
0.0
 11
51.331940521477
 21
81.21377486646926
 31
0.0
  0
LINE
  5
648
330
65
100
AcDbEntity
  8
0
100
AcDbLine
 10
149.3319405214769
 20
99.53368486646944
 30
0.0
 11
55.88193052147834
 21
99.53368486646944
 31
0.0
  0
LINE
  5
649
330
65
100
AcDbEntity
  8
0
100
AcDbLine
 10
149.3319405214769
 20
91.53368486646945
 30
0.0
 11
55.88193052147834
 21
91.53368486646945
 31
0.0
  0
LINE
  5
64A
330
65
100
AcDbEntity
  8
0
100
AcDbLine
 10
149.3319405214769
 20
151.5336848664694
 30
0.0
 11
55.86765052147711
 21
151.5336848664694
 31
0.0
  0
LINE
  5
64B
330
65
100
AcDbEntity
  8
0
100
AcDbLine
 10
45.60196052147693
 20
131.8037048664693
 30
0.0
 11
118.0670505214784
 21
131.8037048664693
 31
0.0
  0
LINE
  5
64C
330
65
100
AcDbEntity
  8
0
100
AcDbLine
 10
54.79196052147745
 20
149.0937448664692
 30
0.0
 11
185.3661805214778
 21
149.0937448664692
 31
0.0
  0
LINE
  5
64D
330
65
100
AcDbEntity
  8
0
100
AcDbLine
 10
181.6647705214781
 20
149.5336848664694
 30
0.0
 11
55.86765052147711
 21
149.5336848664694
 31
0.0
  0
LINE
  5
64E
330
65
100
AcDbEntity
  8
0
100
AcDbLine
 10
45.66196052147825
 20
141.8736548664694
 30
0.0
 11
118.0032105214777
 21
141.8736548664694
 31
0.0
  0
LINE
  5
64F
330
65
100
AcDbEntity
  8
0
100
AcDbLine
 10
116.7740205214777
 20
141.5336848664694
 30
0.0
 11
46.88193052147834
 21
141.5336848664694
 31
0.0
  0
LINE
  5
650
330
65
100
AcDbEntity
  8
0
100
AcDbLine
 10
45.66196052147825
 20
139.21374486647
 30
0.0
 11
118.0032105214777
 21
139.21374486647
 31
0.0
  0
LINE
  5
651
330
65
100
AcDbEntity
  8
0
100
AcDbLine
 10
116.7740205214777
 20
129.5336848664694
 30
0.0
 11
46.88193052147834
 21
129.5336848664694
 31
0.0
  0
LINE
  5
652
330
65
100
AcDbEntity
  8
0
100
AcDbLine
 10
116.7740205214777
 20
131.5336848664694
 30
0.0
 11
46.88193052147834
 21
131.5336848664694
 31
0.0
  0
LINE
  5
653
330
65
100
AcDbEntity
  8
0
100
AcDbLine
 10
45.60196052147693
 20
129.2636648664695
 30
0.0
 11
118.0670505214784
 21
129.2636648664695
 31
0.0
  0
LINE
  5
654
330
65
100
AcDbEntity
  8
0
100
AcDbLine
 10
45.60196052147693
 20
121.7936948664694
 30
0.0
 11
118.0670505214784
 21
121.7936948664694
 31
0.0
  0
LINE
  5
655
330
65
100
AcDbEntity
  8
0
100
AcDbLine
 10
45.60196052147693
 20
119.2536548664695
 30
0.0
 11
118.0670505214784
 21
119.2536548664695
 31
0.0
  0
LINE
  5
656
330
65
100
AcDbEntity
  8
0
100
AcDbLine
 10
45.66196052147825
 20
111.8536348664695
 30
0.0
 11
117.9906305214772
 21
111.8536348664695
 31
0.0
  0
LINE
  5
657
330
65
100
AcDbEntity
  8
0
100
AcDbLine
 10
45.66196052147825
 20
109.1837148664701
 30
0.0
 11
118.0032105214777
 21
109.1837148664701
 31
0.0
  0
LINE
  5
658
330
65
100
AcDbEntity
  8
0
100
AcDbLine
 10
54.79196052147745
 20
101.96374486647
 30
0.0
 11
185.3661805214778
 21
101.96374486647
 31
0.0
  0
LINE
  5
659
330
65
100
AcDbEntity
  8
0
100
AcDbLine
 10
54.79196052147745
 20
99.04369486646942
 30
0.0
 11
149.3319405214769
 21
99.04369486646942
 31
0.0
  0
LINE
  5
65A
330
65
100
AcDbEntity
  8
0
100
AcDbLine
 10
55.00193052147732
 20
92.16369486646929
 30
0.0
 11
149.3519005214784
 21
92.16369486646929
 31
0.0
  0
LINE
  5
65B
330
65
100
AcDbEntity
  8
0
100
AcDbLine
 10
55.00193052147732
 20
88.80370486646938
 30
0.0
 11
185.1519505214782
 21
88.80370486646938
 31
0.0
  0
LINE
  5
65C
330
65
100
AcDbEntity
  8
0
100
AcDbLine
 10
149.3319405214769
 20
159.5336848664694
 30
0.0
 11
55.86765052147711
 21
159.5336848664694
 31
0.0
  0
LINE
  5
65D
330
65
100
AcDbEntity
  8
0
100
AcDbLine
 10
54.79196052147745
 20
152.0136648664695
 30
0.0
 11
149.3319405214769
 21
152.0136648664695
 31
0.0
  0
LINE
  5
65E
330
65
100
AcDbEntity
  8
0
100
AcDbLine
 10
116.7740205214777
 20
121.5336848664694
 30
0.0
 11
46.88193052147834
 21
121.5336848664694
 31
0.0
  0
LINE
  5
65F
330
65
100
AcDbEntity
  8
0
100
AcDbLine
 10
116.7740205214777
 20
119.5336848664694
 30
0.0
 11
46.88193052147834
 21
119.5336848664694
 31
0.0
  0
LINE
  5
660
330
65
100
AcDbEntity
  8
0
100
AcDbLine
 10
116.7706605214771
 20
111.5336848664694
 30
0.0
 11
46.88193052147834
 21
111.5336848664694
 31
0.0
  0
LINE
  5
661
330
65
100
AcDbEntity
  8
0
100
AcDbLine
 10
116.7706605214771
 20
109.5336848664694
 30
0.0
 11
46.88193052147834
 21
109.5336848664694
 31
0.0
  0
LINE
  5
662
330
65
100
AcDbEntity
  8
0
100
AcDbLine
 10
181.6647705214781
 20
101.5336848664694
 30
0.0
 11
55.88193052147834
 21
101.5336848664694
 31
0.0
  0
LINE
  5
663
330
65
100
AcDbEntity
  8
0
100
AcDbLine
 10
181.6719105214778
 20
89.53368486646942
 30
0.0
 11
55.88193052147834
 21
89.53368486646942
 31
0.0
  0
LINE
  5
664
330
65
100
AcDbEntity
  8
0
100
AcDbLine
 10
116.7740205214777
 20
139.5336848664694
 30
0.0
 11
46.88193052147834
 21
139.5336848664694
 31
0.0
  0
LINE
  5
665
330
65
100
AcDbEntity
  8
0
100
AcDbLine
 10
55.00193052147732
 20
162.2536548664695
 30
0.0
 11
137.331940521477
 21
162.2536548664695
 31
0.0
  0
LINE
  5
666
330
65
100
AcDbEntity
  8
0
100
AcDbLine
 10
137.331940521477
 20
161.5336848664694
 30
0.0
 11
55.86765052147711
 21
161.5336848664694
 31
0.0
  0
LINE
  5
667
330
65
100
AcDbEntity
  8
0
100
AcDbLine
 10
55.00193052147732
 20
158.8936748664693
 30
0.0
 11
149.3519005214784
 21
158.8936748664693
 31
0.0
  0
LINE
  5
668
330
65
100
AcDbEntity
  8
0
100
AcDbLine
 10
41.33194052147699
 20
182.96374486647
 30
0.0
 11
41.33194052147699
 21
125.5336848664694
 31
0.0
  0
LINE
  5
669
330
65
100
AcDbEntity
  8
0
100
AcDbLine
 10
34.83194052147702
 20
105.5336848664694
 30
0.0
 11
34.83194052147702
 21
145.5336848664694
 31
0.0
  0
LINE
  5
66A
330
65
100
AcDbEntity
  8
0
100
AcDbLine
 10
36.33194052147701
 20
173.5537048664693
 30
0.0
 11
36.33194052147701
 21
130.5336848664694
 31
0.0
  0
ARC
  5
66B
330
65
100
AcDbEntity
  8
0
100
AcDbCircle
 10
50.95163052147835
 20
163.1883548664693
 30
0.0
 40
6.0073843
100
AcDbArc
 50
45.23614999995845
 51
86.37025999997003
  0
LINE
  5
66C
330
65
100
AcDbEntity
  8
0
100
AcDbLine
 10
51.331940521477
 20
173.8836648664694
 30
0.0
 11
51.331940521477
 21
159.8337348664692
 31
0.0
  0
ARC
  5
66D
330
65
100
AcDbEntity
  8
0
100
AcDbCircle
 10
43.15964052147683
 20
184.1519748664697
 30
0.0
 40
1.4982997
100
AcDbArc
 50
270.0890499999988
 51
345.7702600000394
  0
ARC
  5
66E
330
65
100
AcDbEntity
  8
0
100
AcDbCircle
 10
43.14518052147831
 20
182.1313448664698
 30
0.0
 40
1.4977158
100
AcDbArc
 50
269.8773550000151
 51
346.5756209999808
  0
LINE
  5
66F
330
65
100
AcDbEntity
  8
0
100
AcDbLine
 10
43.14194052147832
 20
180.6336648664694
 30
0.0
 11
52.93473052147783
 21
180.6336648664694
 31
0.0
  0
LINE
  5
670
330
65
100
AcDbEntity
  8
0
100
AcDbLine
 10
43.16196052147825
 20
182.6536848664693
 30
0.0
 11
44.81192052147707
 21
182.6536848664693
 31
0.0
  0
LINE
  5
671
330
65
100
AcDbEntity
  8
0
100
AcDbLine
 10
41.33194052147699
 20
173.8836648664694
 30
0.0
 11
51.331940521477
 21
173.8836648664694
 31
0.0
  0
LINE
  5
672
330
65
100
AcDbEntity
  8
0
100
AcDbLine
 10
41.33194052147699
 20
182.96374486647
 30
0.0
 11
44.15189052147796
 21
183.0237448664695
 31
0.0
  0
ARC
  5
673
330
65
100
AcDbEntity
  8
0
100
AcDbCircle
 10
37.32956052147711
 20
173.5490748664699
 30
0.0
 40
0.9976310099999999
100
AcDbArc
 50
119.920760000004
 51
179.7321900000014
  0
ARC
  5
674
330
65
100
AcDbEntity
  8
0
100
AcDbCircle
 10
37.32761052147726
 20
172.5032948664695
 30
0.0
 40
0.99568498
100
AcDbArc
 50
116.5908599999919
 51
179.9788700000521
  0
ARC
  5
675
330
65
100
AcDbEntity
  8
0
100
AcDbCircle
 10
38.61264052147817
 20
174.2825948664697
 30
0.0
 40
1.001123999999999
100
AcDbArc
 50
90.61231999997849
 51
120.6721800000384
  0
ARC
  5
676
330
65
100
AcDbEntity
  8
0
100
AcDbCircle
 10
38.57779052147817
 20
173.13439486647
 30
0.0
 40
0.99934202
100
AcDbArc
 50
90.33453999997556
 51
117.138000000005
  0
ARC
  5
677
330
65
100
AcDbEntity
  8
0
100
AcDbCircle
 10
38.60330052147765
 20
172.1700448664698
 30
0.0
 40
1.003743999999998
100
AcDbArc
 50
89.50810000003192
 51
120.6288699999977
  0
ARC
  5
678
330
65
100
AcDbEntity
  8
0
100
AcDbCircle
 10
38.58713052147687
 20
171.0330748664693
 30
0.0
 40
1.000682
100
AcDbArc
 50
90.29606999999137
 51
118.349379999991
  0
ARC
  5
679
330
65
100
AcDbEntity
  8
0
100
AcDbCircle
 10
37.32968052147771
 20
170.3724348664693
 30
0.0
 40
0.9977070099999998
100
AcDbArc
 50
117.9551899999543
 51
179.9259799999959
  0
ARC
  5
67A
330
65
100
AcDbEntity
  8
0
100
AcDbCircle
 10
37.33072052147691
 20
171.4101548664696
 30
0.0
 40
0.9987969999999998
100
AcDbArc
 50
121.2920500000331
 51
180.372719999999
  0
ARC
  5
67B
330
65
100
AcDbEntity
  8
0
100
AcDbCircle
 10
40.32785052147846
 20
171.0295348664697
 30
0.0
 40
1.00412
100
AcDbArc
 50
0.2346100000651212
 51
89.765389999987
  0
ARC
  5
67C
330
65
100
AcDbEntity
  8
0
100
AcDbCircle
 10
40.82859052147796
 20
173.6302448664694
 30
0.0
 40
0.5033929900000002
100
AcDbArc
 50
0.3849000000214238
 51
89.61509000001248
  0
ARC
  5
67D
330
65
100
AcDbEntity
  8
0
100
AcDbCircle
 10
40.83243052147736
 20
175.7832048664696
 30
0.0
 40
0.49952301
100
AcDbArc
 50
269.9452259999743
 51
0.0547699999400448
  0
LINE
  5
67E
330
65
100
AcDbEntity
  8
0
100
AcDbLine
 10
38.60196052147693
 20
175.2836848664694
 30
0.0
 11
40.83194052147701
 21
175.2836848664694
 31
0.0
  0
LINE
  5
67F
330
65
100
AcDbEntity
  8
0
100
AcDbLine
 10
38.10196052147693
 20
175.1437048664695
 30
0.0
 11
36.83200052147731
 21
174.4137248664694
 31
0.0
  0
LINE
  5
680
330
65
100
AcDbEntity
  8
0
100
AcDbLine
 10
38.09195052147698
 20
173.0337148664696
 30
0.0
 11
36.81192052147708
 21
172.2637048664694
 31
0.0
  0
LINE
  5
681
330
65
100
AcDbEntity
  8
0
100
AcDbLine
 10
38.61197052147691
 20
173.1737048664701
 30
0.0
 11
41.33194052147699
 21
173.1737048664701
 31
0.0
  0
LINE
  5
682
330
65
100
AcDbEntity
  8
0
100
AcDbLine
 10
38.58194052147701
 20
172.0336848664694
 30
0.0
 11
40.33194052147701
 21
172.0336848664694
 31
0.0
  0
LINE
  5
683
330
65
100
AcDbEntity
  8
0
100
AcDbLine
 10
38.57193052147705
 20
174.1336648664694
 30
0.0
 11
40.83194052147701
 21
174.1336648664694
 31
0.0
  0
LINE
  5
684
330
65
100
AcDbEntity
  8
0
100
AcDbLine
 10
38.12192052147839
 20
174.0237048664696
 30
0.0
 11
36.88193052147835
 21
173.3937048664695
 31
0.0
  0
LINE
  5
685
330
65
100
AcDbEntity
  8
0
100
AcDbLine
 10
38.11191052147842
 20
171.9136948664693
 30
0.0
 11
36.86191052147842
 21
171.2537248664696
 31
0.0
  0
LINE
  5
686
330
65
100
AcDbEntity
  8
0
100
AcDbLine
 10
38.33194052147701
 20
172.9337148664701
 30
0.0
 11
38.33194052147701
 21
172.3836648664694
 31
0.0
  0
LINE
  5
687
330
65
100
AcDbEntity
  8
0
100
AcDbLine
 10
38.33194052147701
 20
175.0336848664694
 30
0.0
 11
38.33194052147701
 21
174.5036548664695
 31
0.0
  0
LINE
  5
688
330
65
100
AcDbEntity
  8
0
100
AcDbLine
 10
53.27622052147853
 20
182.2236948664697
 30
0.0
 11
52.3162005214781
 21
177.7537248664696
 31
0.0
  0
LINE
  5
689
330
65
100
AcDbEntity
  8
0
100
AcDbLine
 10
47.03257052147818
 20
187.20373486647
 30
0.0
 11
61.07468052147851
 21
187.20373486647
 31
0.0
  0
ARC
  5
68A
330
65
100
AcDbEntity
  8
0
100
AcDbCircle
 10
47.03257052147818
 20
185.20373486647
 30
0.0
 40
2.0
100
AcDbArc
 50
90.00001000000102
 51
165.849249999963
  0
ARC
  5
68B
330
65
100
AcDbEntity
  8
0
100
AcDbCircle
 10
47.46878052147804
 20
185.203124866469
 30
0.0
 40
2.000567199999998
100
AcDbArc
 50
90.19569000000062
 51
166.690410000008
  0
LINE
  5
68C
330
65
100
AcDbEntity
  8
0
100
AcDbLine
 10
45.52195052147726
 20
185.6637548664696
 30
0.0
 11
44.60190052147845
 21
181.7836548664702
 31
0.0
  0
LINE
  5
68D
330
65
100
AcDbEntity
  8
0
100
AcDbLine
 10
45.09323052147736
 20
185.69268486647
 30
0.0
 11
44.6119705214769
 21
183.7836848664694
 31
0.0
  0
ARC
  5
68E
330
65
100
AcDbEntity
  8
0
100
AcDbCircle
 10
55.22928052147836
 20
181.8066348664699
 30
0.0
 40
1.997119399999999
100
AcDbArc
 50
89.80137000001422
 51
167.9447600000645
  0
LINE
  5
68F
330
65
100
AcDbEntity
  8
0
100
AcDbLine
 10
55.02957052147757
 20
183.7936948664694
 30
0.0
 11
60.831940521477
 21
183.7936948664694
 31
0.0
  0
ARC
  5
690
330
65
100
AcDbEntity
  8
0
100
AcDbCircle
 10
51.06510052147679
 20
172.7936948664694
 30
0.0
 40
1.5
100
AcDbArc
 50
280.2478900000313
 51
349.7626210000178
  0
LINE
  5
691
330
65
100
AcDbEntity
  8
0
100
AcDbLine
 10
50.84622052147825
 20
176.5737248664693
 30
0.0
 11
53.26621052147674
 21
176.5737248664693
 31
0.0
  0
LINE
  5
692
330
65
100
AcDbEntity
  8
0
100
AcDbLine
 10
52.5411705214774
 20
172.5270648664693
 30
0.0
 11
53.32621052147806
 21
176.8737448664698
 31
0.0
  0
ARC
  5
693
330
65
100
AcDbEntity
  8
0
100
AcDbCircle
 10
50.84879052147697
 20
178.0760448664698
 30
0.0
 40
1.5024163
100
AcDbArc
 50
269.9013829999911
 51
347.6081130000169
  0
ARC
  5
694
330
65
100
AcDbEntity
  8
0
100
AcDbCircle
 10
55.29142052147836
 20
176.5284448664699
 30
0.0
 40
1.9952743
100
AcDbArc
 50
90.14857999998056
 51
170.0352200000229
  0
LINE
  5
695
330
65
100
AcDbEntity
  8
0
100
AcDbLine
 10
55.09183052147818
 20
178.5136648664695
 30
0.0
 11
60.831940521477
 21
178.5136648664695
 31
0.0
  0
LINE
  5
696
330
65
100
AcDbEntity
  8
0
100
AcDbLine
 10
41.33194052147699
 20
168.2236348664694
 30
0.0
 11
51.331940521477
 21
168.2236348664694
 31
0.0
  0
LINE
  5
697
330
65
100
AcDbEntity
  8
0
100
AcDbLine
 10
41.33194052147699
 20
159.8337348664692
 30
0.0
 11
51.331940521477
 21
159.8337348664692
 31
0.0
  0
ARC
  5
698
330
65
100
AcDbEntity
  8
0
100
AcDbCircle
 10
40.32859052147796
 20
158.2703848664698
 30
0.0
 40
1.003352
100
AcDbArc
 50
0.1911000000184268
 51
89.80888999997706
  0
ARC
  5
699
330
65
100
AcDbEntity
  8
0
100
AcDbCircle
 10
40.63248052147719
 20
161.9230948664692
 30
0.0
 40
0.6994530000000001
100
AcDbArc
 50
269.9551709999764
 51
0.0448300000708963
  0
ARC
  5
69A
330
65
100
AcDbEntity
  8
0
100
AcDbCircle
 10
38.5349505214781
 20
160.2185048664698
 30
0.0
 40
1.005233
100
AcDbArc
 50
90.17075000000055
 51
113.0136100000246
  0
ARC
  5
69B
330
65
100
AcDbEntity
  8
0
100
AcDbCircle
 10
38.4725105214784
 20
158.2709948664698
 30
0.0
 40
1.002699
100
AcDbArc
 50
89.45935999997287
 51
106.247279999998
  0
ARC
  5
69C
330
65
100
AcDbEntity
  8
0
100
AcDbCircle
 10
37.328340521477
 20
157.9193048664694
 30
0.0
 40
0.99638802
100
AcDbArc
 50
106.7033599999589
 51
179.750089999988
  0
ARC
  5
69D
330
65
100
AcDbEntity
  8
0
100
AcDbCircle
 10
37.32846052147761
 20
159.7051948664695
 30
0.0
 40
0.9965090199999997
100
AcDbArc
 50
112.8215499999764
 51
180.0862499999318
  0
ARC
  5
69E
330
65
100
AcDbEntity
  8
0
100
AcDbCircle
 10
40.32871052147675
 20
166.5069548664698
 30
0.0
 40
1.003276
100
AcDbArc
 50
0.3818900000213131
 51
25.80189999993687
  0
ARC
  5
69F
330
65
100
AcDbEntity
  8
0
100
AcDbCircle
 10
37.33042052147722
 20
165.7744148664698
 30
0.0
 40
0.9984580299999999
100
AcDbArc
 50
120.6134300000143
 51
180.040420000021
  0
ARC
  5
6A0
330
65
100
AcDbEntity
  8
0
100
AcDbCircle
 10
38.62473052147834
 20
167.6531948664699
 30
0.0
 40
1.000521999999999
100
AcDbArc
 50
89.58656000002243
 51
122.8538200000049
  0
ARC
  5
6A1
330
65
100
AcDbEntity
  8
0
100
AcDbCircle
 10
38.59531052147758
 20
166.5126948664694
 30
0.0
 40
1.001044999999998
100
AcDbArc
 50
89.62029000003955
 51
119.5281299999823
  0
ARC
  5
6A2
330
65
100
AcDbEntity
  8
0
100
AcDbCircle
 10
37.33042052147722
 20
165.7744148664698
 30
0.0
 40
0.9984580299999999
100
AcDbArc
 50
120.6134300000143
 51
180.040420000021
  0
ARC
  5
6A3
330
65
100
AcDbEntity
  8
0
100
AcDbCircle
 10
37.33103052147817
 20
166.8089548664695
 30
0.0
 40
0.9990889999999998
100
AcDbArc
 50
123.3379099999905
 51
180.3049100000035
  0
ARC
  5
6A4
330
65
100
AcDbEntity
  8
0
100
AcDbCircle
 10
40.32950052147679
 20
166.5112248664693
 30
0.0
 40
1.002470999999999
100
AcDbArc
 50
0.141070000032644
 51
89.85892999996734
  0
LINE
  5
6A5
330
65
100
AcDbEntity
  8
0
100
AcDbLine
 10
38.5319505214775
 20
161.2236348664693
 30
0.0
 11
40.63193052147835
 21
161.2236348664693
 31
0.0
  0
LINE
  5
6A6
330
65
100
AcDbEntity
  8
0
100
AcDbLine
 10
38.14188052147802
 20
161.1437048664695
 30
0.0
 11
36.94193052147785
 21
160.6237148664697
 31
0.0
  0
LINE
  5
6A7
330
65
100
AcDbEntity
  8
0
100
AcDbLine
 10
38.48197052147771
 20
159.2736748664694
 30
0.0
 11
40.33194052147701
 21
159.2736748664694
 31
0.0
  0
LINE
  5
6A8
330
65
100
AcDbEntity
  8
0
100
AcDbLine
 10
38.19193052147785
 20
159.2336748664695
 30
0.0
 11
37.04196052147745
 21
158.8736848664695
 31
0.0
  0
LINE
  5
6A9
330
65
100
AcDbEntity
  8
0
100
AcDbLine
 10
38.33194052147701
 20
160.92370486647
 30
0.0
 11
38.33194052147701
 21
159.8636448664694
 31
0.0
  0
LINE
  5
6AA
330
65
100
AcDbEntity
  8
0
100
AcDbLine
 10
36.82193052147705
 20
166.6336948664695
 30
0.0
 11
36.80191052147711
 21
166.6237148664697
 31
0.0
  0
LINE
  5
6AB
330
65
100
AcDbEntity
  8
0
100
AcDbLine
 10
38.08194052147701
 20
168.4937148664696
 30
0.0
 11
36.78195052147748
 21
167.6437048664695
 31
0.0
  0
LINE
  5
6AC
330
65
100
AcDbEntity
  8
0
100
AcDbLine
 10
38.63193052147835
 20
168.6536848664693
 30
0.0
 11
41.33194052147699
 21
168.6536848664693
 31
0.0
  0
LINE
  5
6AD
330
65
100
AcDbEntity
  8
0
100
AcDbLine
 10
38.60196052147693
 20
167.5136648664695
 30
0.0
 11
40.33194052147701
 21
167.5136648664695
 31
0.0
  0
LINE
  5
6AE
330
65
100
AcDbEntity
  8
0
100
AcDbLine
 10
38.10190052147845
 20
167.3837248664697
 30
0.0
 11
36.82193052147705
 21
166.6337248664697
 31
0.0
  0
LINE
  5
6AF
330
65
100
AcDbEntity
  8
0
100
AcDbLine
 10
38.33194052147701
 20
168.3636448664694
 30
0.0
 11
38.33194052147701
 21
167.8936748664693
 31
0.0
  0
LINE
  5
6B0
330
65
100
AcDbEntity
  8
0
100
AcDbLine
 10
34.83194052147702
 20
145.5336548664702
 30
0.0
 11
36.33194052147701
 21
145.6636648664691
 31
0.0
  0
ARC
  5
6B1
330
65
100
AcDbEntity
  8
0
100
AcDbCircle
 10
40.32700052147811
 20
148.5288048664699
 30
0.0
 40
1.0049469
100
AcDbArc
 50
0.2813700000578922
 51
89.71862999999421
  0
ARC
  5
6B2
330
65
100
AcDbEntity
  8
0
100
AcDbCircle
 10
40.33213052147766
 20
152.5335648664696
 30
0.0
 40
0.9998239899999999
100
AcDbArc
 50
269.9899230000126
 51
0.0100800000242737
  0
ARC
  5
6B3
330
65
100
AcDbEntity
  8
0
100
AcDbCircle
 10
37.33213052147767
 20
150.53344486647
 30
0.0
 40
1.000195999999998
100
AcDbArc
 50
90.01125000000598
 51
179.988749999994
  0
ARC
  5
6B4
330
65
100
AcDbEntity
  8
0
100
AcDbCircle
 10
37.32700052147811
 20
150.5288048664699
 30
0.0
 40
0.9950849999999999
100
AcDbArc
 50
179.7162799999485
 51
270.2837170000299
  0
LINE
  5
6B5
330
65
100
AcDbEntity
  8
0
100
AcDbLine
 10
40.33194052147701
 20
151.5336848664694
 30
0.0
 11
37.33194052147701
 21
151.5336848664694
 31
0.0
  0
LINE
  5
6B6
330
65
100
AcDbEntity
  8
0
100
AcDbLine
 10
40.33194052147701
 20
149.5336848664694
 30
0.0
 11
37.33194052147701
 21
149.5336848664694
 31
0.0
  0
LINE
  5
6B7
330
65
100
AcDbEntity
  8
0
100
AcDbLine
 10
38.33194052147701
 20
151.1636948664692
 30
0.0
 11
38.33194052147701
 21
149.7936948664694
 31
0.0
  0
ARC
  5
6B8
330
65
100
AcDbEntity
  8
0
100
AcDbCircle
 10
50.49478052147787
 20
167.1221948664699
 30
0.0
 40
4.999142199999998
100
AcDbArc
 50
279.6399350000211
 51
354.6219730999874
  0
ARC
  5
6B9
330
65
100
AcDbEntity
  8
0
100
AcDbCircle
 10
55.87479052147682
 20
160.5336848664694
 30
0.0
 40
1.000025599999998
100
AcDbArc
 50
89.58947999998081
 51
270.4105259999862
  0
ARC
  5
6BA
330
65
100
AcDbEntity
  8
0
100
AcDbCircle
 10
55.00193052147732
 20
160.5837348664692
 30
0.0
 40
1.6800002
100
AcDbArc
 50
90.0
 51
269.9999969999632
  0
ARC
  5
6BB
330
65
100
AcDbEntity
  8
0
100
AcDbCircle
 10
54.47275052147778
 20
166.7440148664693
 30
0.0
 40
1.003249199999999
100
AcDbArc
 50
354.832356599966
 51
45.01881000001596
  0
ARC
  5
6BC
330
65
100
AcDbEntity
  8
0
100
AcDbCircle
 10
54.7862305214785
 20
150.5637148664693
 30
0.0
 40
1.460011199999999
100
AcDbArc
 50
89.77526000004202
 51
270.2247520000411
  0
ARC
  5
6BD
330
65
100
AcDbEntity
  8
0
100
AcDbCircle
 10
55.87479052147682
 20
150.5336848664694
 30
0.0
 40
1.000025599999998
100
AcDbArc
 50
89.58947999998081
 51
270.4105259999862
  0
LINE
  5
6BE
330
65
100
AcDbEntity
  8
0
100
AcDbLine
 10
41.33194052147699
 20
68.10363486646949
 30
0.0
 11
41.33194052147699
 21
125.5336848664694
 31
0.0
  0
LINE
  5
6BF
330
65
100
AcDbEntity
  8
0
100
AcDbLine
 10
36.33194052147701
 20
77.5136648664695
 30
0.0
 11
36.33194052147701
 21
120.5336848664694
 31
0.0
  0
ARC
  5
6C0
330
65
100
AcDbEntity
  8
0
100
AcDbCircle
 10
46.88193052147834
 20
120.5336848664694
 30
0.0
 40
1.000005699999998
100
AcDbArc
 50
90.0
 51
269.9999969999632
  0
ARC
  5
6C1
330
65
100
AcDbEntity
  8
0
100
AcDbCircle
 10
45.59372052147772
 20
120.5236748664694
 30
0.0
 40
1.2700266
100
AcDbArc
 50
89.62934000004272
 51
270.3706719999908
  0
ARC
  5
6C2
330
65
100
AcDbEntity
  8
0
100
AcDbCircle
 10
37.32700052147811
 20
120.5288048664699
 30
0.0
 40
0.9950849999999999
100
AcDbArc
 50
179.7163100000588
 51
270.283688999986
  0
ARC
  5
6C3
330
65
100
AcDbEntity
  8
0
100
AcDbCircle
 10
40.33213052147766
 20
132.5335648664697
 30
0.0
 40
0.9998279799999998
100
AcDbArc
 50
269.9901619999934
 51
0.0098399999964931
  0
LINE
  5
6C4
330
65
100
AcDbEntity
  8
0
100
AcDbLine
 10
34.83194052147702
 20
140.6837148664701
 30
0.0
 11
36.33194052147701
 21
140.6837148664701
 31
0.0
  0
LINE
  5
6C5
330
65
100
AcDbEntity
  8
0
100
AcDbLine
 10
34.83194052147702
 20
142.8137148664693
 30
0.0
 11
36.33194052147701
 21
142.8137148664693
 31
0.0
  0
ARC
  5
6C6
330
65
100
AcDbEntity
  8
0
100
AcDbCircle
 10
37.33213052147767
 20
140.53344486647
 30
0.0
 40
1.000199999999998
100
AcDbArc
 50
90.01145999997914
 51
179.9885400000208
  0
ARC
  5
6C7
330
65
100
AcDbEntity
  8
0
100
AcDbCircle
 10
37.32700052147811
 20
140.5288048664699
 30
0.0
 40
0.9950810099999999
100
AcDbArc
 50
179.716079999976
 51
270.2839279999771
  0
ARC
  5
6C8
330
65
100
AcDbEntity
  8
0
100
AcDbCircle
 10
40.32700052147811
 20
138.5288048664699
 30
0.0
 40
1.004939
100
AcDbArc
 50
0.2809299999273509
 51
89.71906000000355
  0
ARC
  5
6C9
330
65
100
AcDbEntity
  8
0
100
AcDbCircle
 10
40.33213052147766
 20
142.5335648664697
 30
0.0
 40
0.9998210099999999
100
AcDbArc
 50
269.9897180000148
 51
0.0102800000475592
  0
LINE
  5
6CA
330
65
100
AcDbEntity
  8
0
100
AcDbLine
 10
40.33194052147701
 20
141.5336848664694
 30
0.0
 11
37.33194052147701
 21
141.5336848664694
 31
0.0
  0
LINE
  5
6CB
330
65
100
AcDbEntity
  8
0
100
AcDbLine
 10
40.33194052147701
 20
139.5336848664694
 30
0.0
 11
37.33194052147701
 21
139.5336848664694
 31
0.0
  0
LINE
  5
6CC
330
65
100
AcDbEntity
  8
0
100
AcDbLine
 10
38.33194052147701
 20
141.1436748664693
 30
0.0
 11
38.33194052147701
 21
139.92370486647
 31
0.0
  0
ARC
  5
6CD
330
65
100
AcDbEntity
  8
0
100
AcDbCircle
 10
37.33213052147767
 20
120.53344486647
 30
0.0
 40
1.000195999999998
100
AcDbArc
 50
90.01122000000242
 51
179.9887800000497
  0
ARC
  5
6CE
330
65
100
AcDbEntity
  8
0
100
AcDbCircle
 10
40.33213052147766
 20
122.5335648664697
 30
0.0
 40
0.9998249999999998
100
AcDbArc
 50
269.9899500000313
 51
0.0100500000729018
  0
ARC
  5
6CF
330
65
100
AcDbEntity
  8
0
100
AcDbCircle
 10
37.33213052147767
 20
130.53344486647
 30
0.0
 40
1.000204
100
AcDbArc
 50
90.01168000000573
 51
179.9883399999967
  0
ARC
  5
6D0
330
65
100
AcDbEntity
  8
0
100
AcDbCircle
 10
37.32700052147811
 20
130.5288048664699
 30
0.0
 40
0.9950770099999999
100
AcDbArc
 50
179.7158599999604
 51
270.2841399999875
  0
ARC
  5
6D1
330
65
100
AcDbEntity
  8
0
100
AcDbCircle
 10
40.32700052147811
 20
128.5288048664699
 30
0.0
 40
1.004942999999999
100
AcDbArc
 50
0.2811299999562084
 51
89.71885999997452
  0
LINE
  5
6D2
330
65
100
AcDbEntity
  8
0
100
AcDbLine
 10
40.33194052147701
 20
121.5336848664694
 30
0.0
 11
37.33194052147701
 21
121.5336848664694
 31
0.0
  0
LINE
  5
6D3
330
65
100
AcDbEntity
  8
0
100
AcDbLine
 10
38.33194052147701
 20
119.9237048664701
 30
0.0
 11
38.33194052147701
 21
121.0837348664692
 31
0.0
  0
LINE
  5
6D4
330
65
100
AcDbEntity
  8
0
100
AcDbLine
 10
40.33194052147701
 20
131.5336848664694
 30
0.0
 11
37.33194052147701
 21
131.5336848664694
 31
0.0
  0
LINE
  5
6D5
330
65
100
AcDbEntity
  8
0
100
AcDbLine
 10
40.33194052147701
 20
129.5336848664694
 30
0.0
 11
37.33194052147701
 21
129.5336848664694
 31
0.0
  0
LINE
  5
6D6
330
65
100
AcDbEntity
  8
0
100
AcDbLine
 10
38.33194052147701
 20
131.1436748664693
 30
0.0
 11
38.33194052147701
 21
129.9836448664693
 31
0.0
  0
ARC
  5
6D7
330
65
100
AcDbEntity
  8
0
100
AcDbCircle
 10
46.88193052147834
 20
140.5336848664694
 30
0.0
 40
1.000005699999998
100
AcDbArc
 50
90.0
 51
269.9999969999632
  0
ARC
  5
6D8
330
65
100
AcDbEntity
  8
0
100
AcDbCircle
 10
45.65567052147708
 20
140.5436948664694
 30
0.0
 40
1.3300148
100
AcDbArc
 50
89.7294099999903
 51
270.2705820000135
  0
ARC
  5
6D9
330
65
100
AcDbEntity
  8
0
100
AcDbCircle
 10
45.59372052147772
 20
130.5336848664694
 30
0.0
 40
1.2700266
100
AcDbArc
 50
89.62930999998508
 51
270.3706789999973
  0
ARC
  5
6DA
330
65
100
AcDbEntity
  8
0
100
AcDbCircle
 10
46.88193052147834
 20
130.5336848664694
 30
0.0
 40
1.000005699999998
100
AcDbArc
 50
90.0
 51
269.9999969999632
  0
LINE
  5
6DB
330
65
100
AcDbEntity
  8
0
100
AcDbLine
 10
34.83194052147702
 20
110.3836648664694
 30
0.0
 11
36.33194052147701
 21
110.3836648664694
 31
0.0
  0
LINE
  5
6DC
330
65
100
AcDbEntity
  8
0
100
AcDbLine
 10
34.83194052147702
 20
108.2536548664695
 30
0.0
 11
36.33194052147701
 21
108.2536548664695
 31
0.0
  0
ARC
  5
6DD
330
65
100
AcDbEntity
  8
0
100
AcDbCircle
 10
37.32700052147811
 20
110.5288048664699
 30
0.0
 40
0.99508202
100
AcDbArc
 50
179.7160899999434
 51
270.283900999992
  0
ARC
  5
6DE
330
65
100
AcDbEntity
  8
0
100
AcDbCircle
 10
37.33213052147767
 20
110.53344486647
 30
0.0
 40
1.000199999999998
100
AcDbArc
 50
90.01143000002761
 51
179.9885699999723
  0
ARC
  5
6DF
330
65
100
AcDbEntity
  8
0
100
AcDbCircle
 10
40.32700052147811
 20
118.5288048664699
 30
0.0
 40
1.0049469
100
AcDbArc
 50
0.2813400000579404
 51
89.71865000002892
  0
ARC
  5
6E0
330
65
100
AcDbEntity
  8
0
100
AcDbCircle
 10
40.33213052147766
 20
112.5335648664697
 30
0.0
 40
0.9998210099999999
100
AcDbArc
 50
269.9897449999814
 51
0.0102499999919483
  0
ARC
  5
6E1
330
65
100
AcDbEntity
  8
0
100
AcDbCircle
 10
40.32700052147811
 20
108.5288048664699
 30
0.0
 40
1.004939
100
AcDbArc
 50
0.2808999999285287
 51
89.71909000000238
  0
LINE
  5
6E2
330
65
100
AcDbEntity
  8
0
100
AcDbLine
 10
40.33194052147701
 20
109.5336848664694
 30
0.0
 11
37.33194052147701
 21
109.5336848664694
 31
0.0
  0
LINE
  5
6E3
330
65
100
AcDbEntity
  8
0
100
AcDbLine
 10
40.33194052147701
 20
111.5336848664694
 30
0.0
 11
37.33194052147701
 21
111.5336848664694
 31
0.0
  0
LINE
  5
6E4
330
65
100
AcDbEntity
  8
0
100
AcDbLine
 10
40.33194052147701
 20
119.5336848664694
 30
0.0
 11
37.33194052147701
 21
119.5336848664694
 31
0.0
  0
LINE
  5
6E5
330
65
100
AcDbEntity
  8
0
100
AcDbLine
 10
38.33194052147701
 20
109.9237048664701
 30
0.0
 11
38.33194052147701
 21
111.1336648664694
 31
0.0
  0
LINE
  5
6E6
330
65
100
AcDbEntity
  8
0
100
AcDbLine
 10
34.83200052147731
 20
105.5336548664702
 30
0.0
 11
36.33194052147701
 21
105.4036548664691
 31
0.0
  0
ARC
  5
6E7
330
65
100
AcDbEntity
  8
0
100
AcDbCircle
 10
37.32700052147811
 20
100.5288048664699
 30
0.0
 40
0.9950780299999999
100
AcDbArc
 50
179.7158900000717
 51
270.2841130000019
  0
ARC
  5
6E8
330
65
100
AcDbEntity
  8
0
100
AcDbCircle
 10
37.33213052147767
 20
100.53344486647
 30
0.0
 40
1.000203
100
AcDbArc
 50
90.01165000000211
 51
179.98835000005
  0
ARC
  5
6E9
330
65
100
AcDbEntity
  8
0
100
AcDbCircle
 10
40.33213052147766
 20
102.5335648664697
 30
0.0
 40
0.9998289899999999
100
AcDbArc
 50
269.99018899996
 51
0.0098100000451429
  0
ARC
  5
6EA
330
65
100
AcDbEntity
  8
0
100
AcDbCircle
 10
40.32700052147811
 20
98.52880486646991
 30
0.0
 40
1.004942999999999
100
AcDbArc
 50
0.2811099999219017
 51
89.71889000002597
  0
LINE
  5
6EB
330
65
100
AcDbEntity
  8
0
100
AcDbLine
 10
40.33194052147701
 20
99.53368486646944
 30
0.0
 11
37.33194052147701
 21
99.53368486646944
 31
0.0
  0
LINE
  5
6EC
330
65
100
AcDbEntity
  8
0
100
AcDbLine
 10
40.33194052147701
 20
101.5336848664694
 30
0.0
 11
37.33194052147701
 21
101.5336848664694
 31
0.0
  0
LINE
  5
6ED
330
65
100
AcDbEntity
  8
0
100
AcDbLine
 10
38.33194052147701
 20
99.9036848664693
 30
0.0
 11
38.33194052147701
 21
101.2736748664694
 31
0.0
  0
ARC
  5
6EE
330
65
100
AcDbEntity
  8
0
100
AcDbCircle
 10
46.88193052147834
 20
110.5336848664694
 30
0.0
 40
1.000005699999998
100
AcDbArc
 50
90.0
 51
269.9999969999632
  0
ARC
  5
6EF
330
65
100
AcDbEntity
  8
0
100
AcDbCircle
 10
45.65567052147708
 20
110.5186748664693
 30
0.0
 40
1.3350148
100
AcDbArc
 50
89.73043000001293
 51
270.2695650000094
  0
ARC
  5
6F0
330
65
100
AcDbEntity
  8
0
100
AcDbCircle
 10
55.87479052147682
 20
100.5336848664694
 30
0.0
 40
1.000025599999998
100
AcDbArc
 50
89.58947999998081
 51
270.4105259999862
  0
ARC
  5
6F1
330
65
100
AcDbEntity
  8
0
100
AcDbCircle
 10
54.7862305214785
 20
100.5036548664695
 30
0.0
 40
1.460011199999999
100
AcDbArc
 50
89.77526000004202
 51
270.2247520000411
  0
ARC
  5
6F2
330
65
100
AcDbEntity
  8
0
100
AcDbCircle
 10
43.13718052147851
 20
68.92883486646971
 30
0.0
 40
1.5048382
100
AcDbArc
 50
13.24691999999123
 51
89.81735999997971
  0
LINE
  5
6F3
330
65
100
AcDbEntity
  8
0
100
AcDbLine
 10
53.27616052147822
 20
68.84365486646967
 30
0.0
 11
52.31613052147804
 21
73.31374486646947
 31
0.0
  0
LINE
  5
6F4
330
65
100
AcDbEntity
  8
0
100
AcDbLine
 10
41.33194052147699
 20
77.18371486647012
 30
0.0
 11
51.331940521477
 21
77.18371486647012
 31
0.0
  0
LINE
  5
6F5
330
65
100
AcDbEntity
  8
0
100
AcDbLine
 10
41.33194052147699
 20
82.84374486646923
 30
0.0
 11
51.331940521477
 21
82.84374486646923
 31
0.0
  0
LINE
  5
6F6
330
65
100
AcDbEntity
  8
0
100
AcDbLine
 10
41.33194052147699
 20
91.22363486646937
 30
0.0
 11
51.331940521477
 21
91.22363486646937
 31
0.0
  0
LINE
  5
6F7
330
65
100
AcDbEntity
  8
0
100
AcDbLine
 10
38.08194052147701
 20
82.57372486646929
 30
0.0
 11
36.78195052147748
 21
83.42370486646926
 31
0.0
  0
LINE
  5
6F8
330
65
100
AcDbEntity
  8
0
100
AcDbLine
 10
38.33194052147701
 20
82.70373486647006
 30
0.0
 11
38.33194052147701
 21
83.17370486646925
 31
0.0
  0
ARC
  5
6F9
330
65
100
AcDbEntity
  8
0
100
AcDbCircle
 10
38.61136052147776
 20
84.54015486646969
 30
0.0
 40
0.99648702
100
AcDbArc
 50
239.2562300000435
 51
269.4592790000111
  0
ARC
  5
6FA
330
65
100
AcDbEntity
  8
0
100
AcDbCircle
 10
37.3259605214771
 20
85.29052486646945
 30
0.0
 40
0.9940459699999999
100
AcDbArc
 50
179.8143600000257
 51
239.5318000000011
  0
ARC
  5
6FB
330
65
100
AcDbEntity
  8
0
100
AcDbCircle
 10
37.32675052147715
 20
84.25610486646949
 30
0.0
 40
0.9948369899999999
100
AcDbArc
 50
179.5621399999563
 51
236.795040000018
  0
ARC
  5
6FC
330
65
100
AcDbEntity
  8
0
100
AcDbCircle
 10
38.53293052147819
 20
90.83910486647004
 30
0.0
 40
0.9954450099999998
100
AcDbArc
 50
246.8725500000093
 51
269.9430950000036
  0
ARC
  5
6FD
330
65
100
AcDbEntity
  8
0
100
AcDbCircle
 10
38.47110052147765
 20
92.78637486646969
 30
0.0
 40
0.9927430199999999
100
AcDbArc
 50
253.6679300000126
 51
270.6254450000045
  0
ARC
  5
6FE
330
65
100
AcDbEntity
  8
0
100
AcDbCircle
 10
37.32822052147823
 20
93.13793486646977
 30
0.0
 40
0.9962710099999998
100
AcDbArc
 50
179.6699500000651
 51
253.3020800000273
  0
ARC
  5
6FF
330
65
100
AcDbEntity
  8
0
100
AcDbCircle
 10
37.328340521477
 20
91.35217486646908
 30
0.0
 40
0.9963999999999998
100
AcDbArc
 50
179.909580000059
 51
247.1826400000062
  0
ARC
  5
700
330
65
100
AcDbEntity
  8
0
100
AcDbCircle
 10
40.33365052147746
 20
92.79199486646959
 30
0.0
 40
0.9982839799999998
100
AcDbArc
 50
269.9014239999986
 51
0.0985799999868451
  0
ARC
  5
701
330
65
100
AcDbEntity
  8
0
100
AcDbCircle
 10
40.3296205214774
 20
84.54601486646991
 30
0.0
 40
1.002353
100
AcDbArc
 50
270.1343270000072
 51
359.865673179982
  0
ARC
  5
702
330
65
100
AcDbEntity
  8
0
100
AcDbCircle
 10
40.62741052147794
 20
89.13915486646983
 30
0.0
 40
0.704566
100
AcDbArc
 50
0.370089999976102
 51
89.62990000002269
  0
LINE
  5
703
330
65
100
AcDbEntity
  8
0
100
AcDbLine
 10
38.5319505214775
 20
89.8437448664692
 30
0.0
 11
40.63193052147835
 21
89.8437448664692
 31
0.0
  0
LINE
  5
704
330
65
100
AcDbEntity
  8
0
100
AcDbLine
 10
38.14200052147679
 20
89.9236748664691
 30
0.0
 11
36.94199052147815
 21
90.43368486646995
 31
0.0
  0
LINE
  5
705
330
65
100
AcDbEntity
  8
0
100
AcDbLine
 10
38.48197052147771
 20
91.7936948664694
 30
0.0
 11
40.33194052147701
 21
91.7936948664694
 31
0.0
  0
LINE
  5
706
330
65
100
AcDbEntity
  8
0
100
AcDbLine
 10
38.60196052147693
 20
83.54369486646939
 30
0.0
 11
40.33194052147701
 21
83.54369486646939
 31
0.0
  0
LINE
  5
707
330
65
100
AcDbEntity
  8
0
100
AcDbLine
 10
38.10196052147693
 20
83.68374486646937
 30
0.0
 11
36.82193052147705
 21
84.43374486646936
 31
0.0
  0
LINE
  5
708
330
65
100
AcDbEntity
  8
0
100
AcDbLine
 10
38.19193052147785
 20
91.83370486647
 30
0.0
 11
37.04190052147715
 21
92.18371486647013
 31
0.0
  0
LINE
  5
709
330
65
100
AcDbEntity
  8
0
100
AcDbLine
 10
38.33194052147701
 20
90.14367486646937
 30
0.0
 11
38.33194052147701
 21
91.20373486647007
 31
0.0
  0
ARC
  5
70A
330
65
100
AcDbEntity
  8
0
100
AcDbCircle
 10
37.32517052147705
 20
77.5157448664697
 30
0.0
 40
0.99319202
100
AcDbArc
 50
180.1204100000214
 51
240.2266200000107
  0
ARC
  5
70B
330
65
100
AcDbEntity
  8
0
100
AcDbCircle
 10
37.32755052147696
 20
78.5539548664694
 30
0.0
 40
0.995579
100
AcDbArc
 50
180.0173600000325
 51
243.4129099999875
  0
ARC
  5
70C
330
65
100
AcDbEntity
  8
0
100
AcDbCircle
 10
38.59397052147688
 20
76.77953486646967
 30
0.0
 40
0.9959030199999999
100
AcDbArc
 50
240.3928300000262
 51
270.4587329999879
  0
ARC
  5
70D
330
65
100
AcDbEntity
  8
0
100
AcDbCircle
 10
38.55674052147697
 20
77.9277348664702
 30
0.0
 40
0.99411702
100
AcDbArc
 50
244.0650199999895
 51
270.877356000021
  0
ARC
  5
70E
330
65
100
AcDbEntity
  8
0
100
AcDbCircle
 10
38.60080052147714
 20
78.88793486646973
 30
0.0
 40
0.99427301
100
AcDbArc
 50
239.2190899999649
 51
270.6439340000098
  0
ARC
  5
70F
330
65
100
AcDbEntity
  8
0
100
AcDbCircle
 10
38.56705052147845
 20
80.02905486646998
 30
0.0
 40
0.99545902
100
AcDbArc
 50
242.7961799999624
 51
270.8587090000131
  0
ARC
  5
710
330
65
100
AcDbEntity
  8
0
100
AcDbCircle
 10
38.63858052147771
 20
83.3999048664693
 30
0.0
 40
0.99617702
100
AcDbArc
 50
236.0295099999437
 51
269.6186819999975
  0
ARC
  5
711
330
65
100
AcDbEntity
  8
0
100
AcDbCircle
 10
37.32517052147705
 20
80.69225486646994
 30
0.0
 40
0.9932109699999999
100
AcDbArc
 50
179.9181300000129
 51
242.2006800000546
  0
ARC
  5
712
330
65
100
AcDbEntity
  8
0
100
AcDbCircle
 10
37.32639052147714
 20
79.65466486647001
 30
0.0
 40
0.9944329899999999
100
AcDbArc
 50
180.059490000053
 51
238.8478700000266
  0
ARC
  5
713
330
65
100
AcDbEntity
  8
0
100
AcDbCircle
 10
40.3329205214777
 20
80.03271486646937
 30
0.0
 40
0.9990100299999999
100
AcDbArc
 50
269.9431909999771
 51
0.0568099999661311
  0
ARC
  5
714
330
65
100
AcDbEntity
  8
0
100
AcDbCircle
 10
40.83365052147747
 20
77.43200486646967
 30
0.0
 40
0.4983060100000002
100
AcDbArc
 50
269.8048929999934
 51
0.1951100000086416
  0
ARC
  5
715
330
65
100
AcDbEntity
  8
0
100
AcDbCircle
 10
40.82736052147811
 20
75.27905486646996
 30
0.0
 40
0.50463498
100
AcDbArc
 50
0.5238300000004227
 51
89.47616999999958
  0
LINE
  5
716
330
65
100
AcDbEntity
  8
0
100
AcDbLine
 10
38.60196052147693
 20
75.78368486646944
 30
0.0
 11
40.83194052147701
 21
75.78368486646944
 31
0.0
  0
LINE
  5
717
330
65
100
AcDbEntity
  8
0
100
AcDbLine
 10
38.10190052147845
 20
75.9136948664693
 30
0.0
 11
36.83188052147853
 21
76.65368486646932
 31
0.0
  0
LINE
  5
718
330
65
100
AcDbEntity
  8
0
100
AcDbLine
 10
38.09189052147849
 20
78.03371486646958
 30
0.0
 11
36.81192052147708
 21
78.80367486647013
 31
0.0
  0
LINE
  5
719
330
65
100
AcDbEntity
  8
0
100
AcDbLine
 10
38.61197052147691
 20
77.89367486646934
 30
0.0
 11
41.33194052147699
 21
77.89367486646934
 31
0.0
  0
LINE
  5
71A
330
65
100
AcDbEntity
  8
0
100
AcDbLine
 10
38.63193052147835
 20
82.40368486646932
 30
0.0
 11
41.33194052147699
 21
82.40368486646932
 31
0.0
  0
LINE
  5
71B
330
65
100
AcDbEntity
  8
0
100
AcDbLine
 10
38.58194052147701
 20
79.03368486646944
 30
0.0
 11
40.33194052147701
 21
79.03368486646944
 31
0.0
  0
LINE
  5
71C
330
65
100
AcDbEntity
  8
0
100
AcDbLine
 10
38.57193052147705
 20
76.93371486647013
 30
0.0
 11
40.83194052147701
 21
76.93371486647013
 31
0.0
  0
LINE
  5
71D
330
65
100
AcDbEntity
  8
0
100
AcDbLine
 10
38.12198052147687
 20
77.03371486646958
 30
0.0
 11
36.88193052147835
 21
77.66372486646943
 31
0.0
  0
LINE
  5
71E
330
65
100
AcDbEntity
  8
0
100
AcDbLine
 10
38.11191052147842
 20
79.14367486646934
 30
0.0
 11
36.86197052147691
 21
79.81365486646993
 31
0.0
  0
LINE
  5
71F
330
65
100
AcDbEntity
  8
0
100
AcDbLine
 10
38.33194052147701
 20
78.13366486646939
 30
0.0
 11
38.33194052147701
 21
78.68371486647013
 31
0.0
  0
LINE
  5
720
330
65
100
AcDbEntity
  8
0
100
AcDbLine
 10
38.33194052147701
 20
76.03368486646941
 30
0.0
 11
38.33194052147701
 21
76.56371486646931
 31
0.0
  0
ARC
  5
721
330
65
100
AcDbEntity
  8
0
100
AcDbCircle
 10
50.95291052147696
 20
87.86620486646938
 30
0.0
 40
6.004434099999999
100
AcDbArc
 50
273.6191779999779
 51
314.7744220000031
  0
LINE
  5
722
330
65
100
AcDbEntity
  8
0
100
AcDbLine
 10
51.331940521477
 20
77.18371486647012
 30
0.0
 11
51.331940521477
 21
91.22363486646937
 31
0.0
  0
ARC
  5
723
330
65
100
AcDbEntity
  8
0
100
AcDbCircle
 10
50.48752052147756
 20
83.93945486646973
 30
0.0
 40
5.0059714
100
AcDbArc
 50
5.321119999988797
 51
80.28902000000217
  0
ARC
  5
724
330
65
100
AcDbEntity
  8
0
100
AcDbCircle
 10
55.87479052147682
 20
90.53368486646943
 30
0.0
 40
1.000025599999998
100
AcDbArc
 50
89.58947999998081
 51
270.4105259999862
  0
ARC
  5
725
330
65
100
AcDbEntity
  8
0
100
AcDbCircle
 10
55.00193052147732
 20
90.48364486646937
 30
0.0
 40
1.6800002
100
AcDbArc
 50
90.0
 51
269.9999969999632
  0
ARC
  5
726
330
65
100
AcDbEntity
  8
0
100
AcDbCircle
 10
54.47391052147759
 20
84.31298486646957
 30
0.0
 40
1.002184699999999
100
AcDbArc
 50
314.9526929999351
 51
5.196139999983818
  0
ARC
  5
727
330
65
100
AcDbEntity
  8
0
100
AcDbCircle
 10
51.06510052147679
 20
78.27367486646945
 30
0.0
 40
1.5
100
AcDbArc
 50
10.23738000005677
 51
79.75210999996869
  0
LINE
  5
728
330
65
100
AcDbEntity
  8
0
100
AcDbLine
 10
50.84622052147825
 20
74.49365486646931
 30
0.0
 11
53.26621052147674
 21
74.49365486646931
 31
0.0
  0
LINE
  5
729
330
65
100
AcDbEntity
  8
0
100
AcDbLine
 10
52.5412305214777
 20
78.54037486646959
 30
0.0
 11
53.32621052147806
 21
74.19369486646994
 31
0.0
  0
ARC
  5
72A
330
65
100
AcDbEntity
  8
0
100
AcDbCircle
 10
50.84879052147697
 20
72.99133486646971
 30
0.0
 40
1.5024163
100
AcDbArc
 50
12.39186999995236
 51
90.09861999999797
  0
ARC
  5
72B
330
65
100
AcDbEntity
  8
0
100
AcDbCircle
 10
55.29142052147836
 20
74.53893486646959
 30
0.0
 40
1.9952743
100
AcDbArc
 50
189.9647799999771
 51
269.8514200000194
  0
LINE
  5
72C
330
65
100
AcDbEntity
  8
0
100
AcDbLine
 10
55.2862305214785
 20
72.54369486646941
 30
0.0
 11
60.831940521477
 21
72.54369486646941
 31
0.0
  0
ARC
  5
72D
330
65
100
AcDbEntity
  8
0
100
AcDbCircle
 10
43.15152052147822
 20
66.90832486646943
 30
0.0
 40
1.505448699999999
100
AcDbArc
 50
14.04753000001285
 51
89.60313000002619
  0
LINE
  5
72E
330
65
100
AcDbEntity
  8
0
100
AcDbLine
 10
43.16196052147825
 20
68.41369486646929
 30
0.0
 11
44.81192052147707
 21
68.41369486646929
 31
0.0
  0
LINE
  5
72F
330
65
100
AcDbEntity
  8
0
100
AcDbLine
 10
43.14194052147832
 20
70.43371486647012
 30
0.0
 11
52.93473052147783
 21
70.43371486647012
 31
0.0
  0
LINE
  5
730
330
65
100
AcDbEntity
  8
0
100
AcDbLine
 10
41.33194052147699
 20
68.1036948664698
 30
0.0
 11
44.15195052147828
 21
68.03368486646943
 31
0.0
  0
LINE
  5
731
330
65
100
AcDbEntity
  8
0
100
AcDbLine
 10
47.44193052147784
 20
62.23364486646936
 30
0.0
 11
60.94193052147784
 21
62.23364486646936
 31
0.0
  0
LINE
  5
732
330
65
100
AcDbEntity
  8
0
100
AcDbLine
 10
47.46195052147777
 20
63.86364486646946
 30
0.0
 11
60.831940521477
 21
63.86364486646946
 31
0.0
  0
ARC
  5
733
330
65
100
AcDbEntity
  8
0
100
AcDbCircle
 10
47.43680052147829
 20
64.22826486646974
 30
0.0
 40
1.994612099999999
100
AcDbArc
 50
194.0611399999693
 51
270.1480079999977
  0
ARC
  5
734
330
65
100
AcDbEntity
  8
0
100
AcDbCircle
 10
47.46219052147718
 20
65.85595486647
 30
0.0
 40
1.9922863
100
AcDbArc
 50
193.1216099999466
 51
269.9922789999864
  0
LINE
  5
735
330
65
100
AcDbEntity
  8
0
100
AcDbLine
 10
45.50193052147732
 20
63.74374486646978
 30
0.0
 11
44.6119705214769
 21
67.27364486646931
 31
0.0
  0
LINE
  5
736
330
65
100
AcDbEntity
  8
0
100
AcDbLine
 10
45.52195052147726
 20
65.40365486646916
 30
0.0
 11
44.60190052147845
 21
69.27370486646961
 31
0.0
  0
ARC
  5
737
330
65
100
AcDbEntity
  8
0
100
AcDbCircle
 10
55.22928052147836
 20
69.26074486646959
 30
0.0
 40
1.997119399999999
100
AcDbArc
 50
192.0552399999355
 51
270.1986329999884
  0
LINE
  5
738
330
65
100
AcDbEntity
  8
0
100
AcDbLine
 10
55.22238052147804
 20
67.26366486646949
 30
0.0
 11
60.831940521477
 21
67.26366486646949
 31
0.0
  0
LINE
  5
739
330
65
100
AcDbEntity
  8
0
100
AcDbLine
 10
188.3319405214769
 20
188.0336848664694
 30
0.0
 11
188.3319405214769
 21
63.03368486646943
 31
0.0
  0
LINE
  5
73A
330
65
100
AcDbEntity
  8
0
100
AcDbLine
 10
167.3581288129589
 20
199.0336848664694
 30
0.0
 11
107.3057561749083
 21
199.0336848664694
 31
0.0
  0
LINE
  5
73B
330
65
100
AcDbEntity
  8
0
100
AcDbLine
 10
64.33194052147701
 20
187.3936748664693
 30
0.0
 11
181.1419405214783
 21
187.3936748664693
 31
0.0
  0
LINE
  5
73C
330
65
100
AcDbEntity
  8
0
100
AcDbLine
 10
82.331940521477
 20
171.8836648664694
 30
0.0
 11
188.3319405214769
 21
171.8836648664694
 31
0.0
  0
LINE
  5
73D
330
65
100
AcDbEntity
  8
0
100
AcDbLine
 10
107.3057561749083
 20
199.0336848664694
 30
0.0
 11
107.0009792623004
 21
187.3936748664693
 31
0.0
  0
LINE
  5
73E
330
65
100
AcDbEntity
  8
0
100
AcDbLine
 10
64.33194052147701
 20
189.4237048664701
 30
0.0
 11
105.5928939223049
 21
189.4237048664701
 31
0.0
  0
LINE
  5
73F
330
65
100
AcDbEntity
  8
0
100
AcDbLine
 10
62.331940521477
 20
187.4227248664694
 30
0.0
 11
62.331940521477
 21
180.0136648664695
 31
0.0
  0
ARC
  5
740
330
65
100
AcDbEntity
  8
0
100
AcDbCircle
 10
64.3328605214774
 20
187.4227248664694
 30
0.0
 40
2.000910999999998
100
AcDbArc
 50
90.0260899999839
 51
179.999990000051
  0
ARC
  5
741
330
65
100
AcDbEntity
  8
0
100
AcDbCircle
 10
64.33200052147731
 20
185.3936748664693
 30
0.0
 40
2.000037199999999
100
AcDbArc
 50
90.00107000000353
 51
179.9989399999974
  0
ARC
  5
742
330
65
100
AcDbEntity
  8
0
100
AcDbCircle
 10
63.32474052147699
 20
160.5336848664694
 30
0.0
 40
1.0000259
100
AcDbArc
 50
89.58754000004036
 51
270.4124659999802
  0
ARC
  5
743
330
65
100
AcDbEntity
  8
0
100
AcDbCircle
 10
63.32474052147699
 20
150.5336848664694
 30
0.0
 40
1.0000259
100
AcDbArc
 50
89.58754000004036
 51
270.4124659999802
  0
ARC
  5
744
330
65
100
AcDbEntity
  8
0
100
AcDbCircle
 10
105.5928939223049
 20
190.9237048664701
 30
0.0
 40
1.5
100
AcDbArc
 50
270.0
 51
358.5001351543323
1001
GENIUS_GENODEF_13
1002
{
1000
HIER
1070
     0
1002
}
1002
{
1000
MANEDIT
1070
     0
1002
}
1002
{
1000
NOSEL
1070
     0
1002
}
1002
{
1000
BEHIND
1070
     0
1002
}
1002
{
1000
REACTOR
1002
}
1001
GENIUS_GENOBJ-N-FIL_13
1002
{
1000
OWNER
1000
GEN
1002
}
  0
LINE
  5
745
330
65
100
AcDbEntity
  8
0
100
AcDbLine
 10
187.331970521478
 20
186.0337148664696
 30
0.0
 11
181.6061705214778
 21
194.8506748664697
 31
0.0
  0
LINE
  5
746
330
65
100
AcDbEntity
  8
0
100
AcDbLine
 10
167.3581288129589
 20
199.0336848664694
 30
0.0
 11
167.6629516429929
 21
187.3936748664693
 31
0.0
  0
LINE
  5
747
330
65
100
AcDbEntity
  8
0
100
AcDbLine
 10
168.911018075616
 20
195.5336848664694
 30
0.0
 11
180.3481205214774
 21
195.5336848664694
 31
0.0
  0
ARC
  5
748
330
65
100
AcDbEntity
  8
0
100
AcDbCircle
 10
168.911018075616
 20
197.0336848664694
 30
0.0
 40
1.5
100
AcDbArc
 50
181.5000907107581
 51
270.0
1001
GENIUS_GENODEF_13
1002
{
1000
HIER
1070
     0
1002
}
1002
{
1000
MANEDIT
1070
     0
1002
}
1002
{
1000
NOSEL
1070
     0
1002
}
1002
{
1000
BEHIND
1070
     0
1002
}
1002
{
1000
REACTOR
1002
}
1001
GENIUS_GENOBJ-N-FIL_13
1002
{
1000
OWNER
1000
GEN
1002
}
  0
ARC
  5
749
330
65
100
AcDbEntity
  8
0
100
AcDbCircle
 10
180.3481205214774
 20
194.0336848664694
 30
0.0
 40
1.5
100
AcDbArc
 50
33.00000000002428
 51
90.00001000000102
  0
ARC
  5
74A
330
65
100
AcDbEntity
  8
0
100
AcDbCircle
 10
167.3319405214769
 20
158.0336848664694
 30
0.0
 40
1.5
100
AcDbArc
 50
90.0
 51
180.0000100000531
  0
ARC
  5
74B
330
65
100
AcDbEntity
  8
0
100
AcDbCircle
 10
167.3319405214769
 20
153.0336848664694
 30
0.0
 40
1.5
100
AcDbArc
 50
179.999990000051
 51
269.9999969999632
  0
LINE
  5
74C
330
65
100
AcDbEntity
  8
0
100
AcDbLine
 10
181.6719105214778
 20
161.5336848664694
 30
0.0
 11
137.331940521477
 21
161.5336848664694
 31
0.0
  0
LINE
  5
74D
330
65
100
AcDbEntity
  8
0
100
AcDbLine
 10
137.331940521477
 20
162.2536548664695
 30
0.0
 11
185.1519505214782
 21
162.2536548664695
 31
0.0
  0
LINE
  5
74E
330
65
100
AcDbEntity
  8
0
100
AcDbLine
 10
150.3519005214784
 20
153.0336848664694
 30
0.0
 11
150.3519005214784
 21
157.8936748664693
 31
0.0
  0
LINE
  5
74F
330
65
100
AcDbEntity
  8
0
100
AcDbLine
 10
165.8319405214769
 20
153.0336848664694
 30
0.0
 11
165.8319405214769
 21
158.0336848664694
 31
0.0
  0
LINE
  5
750
330
65
100
AcDbEntity
  8
0
100
AcDbLine
 10
150.831940521477
 20
153.0336848664694
 30
0.0
 11
150.831940521477
 21
158.0336848664694
 31
0.0
  0
ARC
  5
751
330
65
100
AcDbEntity
  8
0
100
AcDbCircle
 10
149.3519005214784
 20
157.8936748664693
 30
0.0
 40
1.0
100
AcDbArc
 50
359.999999316731
 51
90.00001000000102
  0
ARC
  5
752
330
65
100
AcDbEntity
  8
0
100
AcDbCircle
 10
149.3319405214769
 20
158.0336848664694
 30
0.0
 40
1.5
100
AcDbArc
 50
359.999999316731
 51
90.00001000000102
  0
CIRCLE
  5
753
330
65
100
AcDbEntity
  8
0
100
AcDbCircle
 10
155.831940521477
 20
154.0336848664694
 30
0.0
 40
1.149999999999999
  0
CIRCLE
  5
754
330
65
100
AcDbEntity
  8
0
100
AcDbCircle
 10
155.831940521477
 20
154.0336848664694
 30
0.0
 40
1.1
  0
ARC
  5
755
330
65
100
AcDbEntity
  8
0
100
AcDbCircle
 10
149.3319405214769
 20
153.0336848664694
 30
0.0
 40
1.02
100
AcDbArc
 50
269.9999969999632
 51
0.0
  0
ARC
  5
756
330
65
100
AcDbEntity
  8
0
100
AcDbCircle
 10
149.3319405214769
 20
153.0336848664694
 30
0.0
 40
1.5
100
AcDbArc
 50
269.9999969999632
 51
0.0
  0
CIRCLE
  5
757
330
65
100
AcDbEntity
  8
0
100
AcDbCircle
 10
160.831940521477
 20
154.0336848664694
 30
0.0
 40
1.0
  0
LINE
  5
758
330
65
100
AcDbEntity
  8
0
100
AcDbLine
 10
183.071930521477
 20
185.9037748664698
 30
0.0
 11
186.5319505214774
 21
172.9936548664693
 31
0.0
  0
LINE
  5
759
330
65
100
AcDbEntity
  8
0
100
AcDbLine
 10
183.0419005214771
 20
186.0336848664694
 30
0.0
 11
188.3319405214769
 21
186.0336848664694
 31
0.0
  0
ARC
  5
75A
330
65
100
AcDbEntity
  8
0
100
AcDbCircle
 10
181.1332105214768
 20
185.3874448664694
 30
0.0
 40
2.006294299999999
100
AcDbArc
 50
14.91155999997874
 51
89.75067000002715
  0
LINE
  5
75B
330
65
100
AcDbEntity
  8
0
100
AcDbLine
 10
189.3319405214769
 20
189.0336848664694
 30
0.0
 11
196.3319405214769
 21
189.0336848664694
 31
0.0
  0
ARC
  5
75C
330
65
100
AcDbEntity
  8
0
100
AcDbCircle
 10
189.3249205214778
 20
188.04064486647
 30
0.0
 40
0.99304521
100
AcDbArc
 50
89.59732000001293
 51
180.4026900000265
  0
LINE
  5
75D
330
65
100
AcDbEntity
  8
0
100
AcDbLine
 10
189.3319405214769
 20
177.5737248664693
 30
0.0
 11
196.3319405214769
 21
177.5737248664693
 31
0.0
  0
ARC
  5
75E
330
65
100
AcDbEntity
  8
0
100
AcDbCircle
 10
187.9755605214777
 20
173.3774348664694
 30
0.0
 40
1.4937901
100
AcDbArc
 50
194.8870800000086
 51
270.2435759999592
  0
ARC
  5
75F
330
65
100
AcDbEntity
  8
0
100
AcDbCircle
 10
189.3242505214784
 20
176.5812948664699
 30
0.0
 40
0.9923744799999999
100
AcDbArc
 50
89.55803000002298
 51
180.4419800000671
  0
LINE
  5
760
330
65
100
AcDbEntity
  8
0
100
AcDbLine
 10
167.311920521477
 20
158.8936748664693
 30
0.0
 11
185.1519505214782
 21
158.8936748664693
 31
0.0
  0
LINE
  5
761
330
65
100
AcDbEntity
  8
0
100
AcDbLine
 10
167.3319405214769
 20
152.0136648664695
 30
0.0
 11
185.3661805214778
 21
152.0136648664695
 31
0.0
  0
LINE
  5
762
330
65
100
AcDbEntity
  8
0
100
AcDbLine
 10
166.311920521477
 20
153.0336848664694
 30
0.0
 11
166.311920521477
 21
157.8936748664693
 31
0.0
  0
LINE
  5
763
330
65
100
AcDbEntity
  8
0
100
AcDbLine
 10
181.6719105214778
 20
159.5336848664694
 30
0.0
 11
167.3319405214769
 21
159.5336848664694
 31
0.0
  0
ARC
  5
764
330
65
100
AcDbEntity
  8
0
100
AcDbCircle
 10
167.311920521477
 20
157.8936748664693
 30
0.0
 40
1.0
100
AcDbArc
 50
90.0
 51
180.0000100000531
  0
ARC
  5
765
330
65
100
AcDbEntity
  8
0
100
AcDbCircle
 10
181.6719105214778
 20
160.5336848664694
 30
0.0
 40
1.000004099999999
100
AcDbArc
 50
269.9999969999632
 51
90.00001000000102
  0
LINE
  5
766
330
65
100
AcDbEntity
  8
0
100
AcDbLine
 10
181.6647705214781
 20
151.5336848664694
 30
0.0
 11
167.3319405214769
 21
151.5336848664694
 31
0.0
  0
ARC
  5
767
330
65
100
AcDbEntity
  8
0
100
AcDbCircle
 10
167.3319405214769
 20
153.0336848664694
 30
0.0
 40
1.02
100
AcDbArc
 50
179.999990000051
 51
269.9999969999632
  0
ARC
  5
768
330
65
100
AcDbEntity
  8
0
100
AcDbCircle
 10
181.6719105214778
 20
150.5336848664694
 30
0.0
 40
1.000025599999998
100
AcDbArc
 50
269.5894690000153
 51
90.4105300000163
  0
LINE
  5
769
330
65
100
AcDbEntity
  8
0
100
AcDbLine
 10
188.3319405214769
 20
162.6837148664701
 30
0.0
 11
196.3319405214769
 21
162.6837148664701
 31
0.0
  0
ARC
  5
76A
330
65
100
AcDbEntity
  8
0
100
AcDbCircle
 10
185.1519505214782
 20
160.5737248664693
 30
0.0
 40
1.6800077
100
AcDbArc
 50
269.9999969999632
 51
90.00001000000102
  0
ARC
  5
76B
330
65
100
AcDbEntity
  8
0
100
AcDbCircle
 10
185.3719205214783
 20
150.5637148664693
 30
0.0
 40
1.460011199999999
100
AcDbArc
 50
269.7752500000162
 51
90.22474999998385
  0
LINE
  5
76C
330
65
100
AcDbEntity
  8
0
100
AcDbLine
 10
64.33194052147701
 20
61.64367486646935
 30
0.0
 11
182.8519005214784
 21
61.64367486646935
 31
0.0
  0
LINE
  5
76D
330
65
100
AcDbEntity
  8
0
100
AcDbLine
 10
64.33194052147701
 20
60.28368486646943
 30
0.0
 11
182.5596005214774
 21
60.28368486646943
 31
0.0
  0
LINE
  5
76E
330
65
100
AcDbEntity
  8
0
100
AcDbLine
 10
64.33194052147701
 20
59.61364486646946
 30
0.0
 11
182.4155605214782
 21
59.61364486646946
 31
0.0
  0
LINE
  5
76F
330
65
100
AcDbEntity
  8
0
100
AcDbLine
 10
64.33194052147701
 20
63.67370486646925
 30
0.0
 11
181.1419405214783
 21
63.67370486646925
 31
0.0
  0
LINE
  5
770
330
65
100
AcDbEntity
  8
0
100
AcDbLine
 10
82.331940521477
 20
79.18371486647012
 30
0.0
 11
188.3319405214769
 21
79.18371486647012
 31
0.0
  0
ARC
  5
771
330
65
100
AcDbEntity
  8
0
100
AcDbCircle
 10
63.32474052147699
 20
120.5336848664694
 30
0.0
 40
1.0000259
100
AcDbArc
 50
89.58754000004036
 51
270.4124659999802
  0
ARC
  5
772
330
65
100
AcDbEntity
  8
0
100
AcDbCircle
 10
63.32474052147699
 20
140.5336848664694
 30
0.0
 40
1.0000259
100
AcDbArc
 50
89.58754000004036
 51
270.4124659999802
  0
ARC
  5
773
330
65
100
AcDbEntity
  8
0
100
AcDbCircle
 10
63.32474052147699
 20
130.5336848664694
 30
0.0
 40
1.0000259
100
AcDbArc
 50
89.58754000004036
 51
270.4124659999802
  0
ARC
  5
774
330
65
100
AcDbEntity
  8
0
100
AcDbCircle
 10
63.32474052147699
 20
110.5336848664694
 30
0.0
 40
1.0000259
100
AcDbArc
 50
89.58754000004036
 51
270.4124659999802
  0
ARC
  5
775
330
65
100
AcDbEntity
  8
0
100
AcDbCircle
 10
63.32474052147699
 20
100.5336848664694
 30
0.0
 40
1.0000259
100
AcDbArc
 50
89.58754000004036
 51
270.4124659999802
  0
ARC
  5
776
330
65
100
AcDbEntity
  8
0
100
AcDbCircle
 10
118.0588705214777
 20
120.5236748664694
 30
0.0
 40
1.2700266
100
AcDbArc
 50
269.6293299999888
 51
90.37068000001305
  0
ARC
  5
777
330
65
100
AcDbEntity
  8
0
100
AcDbCircle
 10
116.7706605214771
 20
120.5336848664694
 30
0.0
 40
1.000005699999998
100
AcDbArc
 50
269.9999969999632
 51
90.00001000000102
  0
ARC
  5
778
330
65
100
AcDbEntity
  8
0
100
AcDbCircle
 10
117.9969205214784
 20
140.5436948664694
 30
0.0
 40
1.3300148
100
AcDbArc
 50
269.7294329999729
 51
90.27058000000137
  0
ARC
  5
779
330
65
100
AcDbEntity
  8
0
100
AcDbCircle
 10
116.7706605214771
 20
140.5336848664694
 30
0.0
 40
1.000005699999998
100
AcDbArc
 50
269.9999969999632
 51
90.00001000000102
  0
ARC
  5
77A
330
65
100
AcDbEntity
  8
0
100
AcDbCircle
 10
118.0588705214777
 20
130.5336848664694
 30
0.0
 40
1.2700266
100
AcDbArc
 50
269.6293299999888
 51
90.37068000001305
  0
ARC
  5
77B
330
65
100
AcDbEntity
  8
0
100
AcDbCircle
 10
116.7706605214771
 20
130.5336848664694
 30
0.0
 40
1.000005699999998
100
AcDbArc
 50
269.9999969999632
 51
90.00001000000102
  0
ARC
  5
77C
330
65
100
AcDbEntity
  8
0
100
AcDbCircle
 10
116.7706605214771
 20
110.5336848664694
 30
0.0
 40
1.000005699999998
100
AcDbArc
 50
269.9999969999632
 51
90.00001000000102
  0
ARC
  5
77D
330
65
100
AcDbEntity
  8
0
100
AcDbCircle
 10
117.9969205214784
 20
110.5186748664693
 30
0.0
 40
1.3350148
100
AcDbArc
 50
269.7304439999921
 51
90.26956999998708
  0
LINE
  5
77E
330
65
100
AcDbEntity
  8
0
100
AcDbLine
 10
62.331940521477
 20
63.64367486646935
 30
0.0
 11
62.331940521477
 21
71.04369486646939
 31
0.0
  0
ARC
  5
77F
330
65
100
AcDbEntity
  8
0
100
AcDbCircle
 10
63.32474052147699
 20
90.53368486646943
 30
0.0
 40
1.0000259
100
AcDbArc
 50
89.58754000004036
 51
270.4124659999802
  0
ARC
  5
780
330
65
100
AcDbEntity
  8
0
100
AcDbCircle
 10
64.3257205214777
 20
61.61022486646945
 30
0.0
 40
1.996497899999999
100
AcDbArc
 50
194.3993899999428
 51
270.1785179999868
  0
ARC
  5
781
330
65
100
AcDbEntity
  8
0
100
AcDbCircle
 10
64.32846052147761
 20
62.28014486646973
 30
0.0
 40
1.996488899999999
100
AcDbArc
 50
179.8991500000465
 51
270.1008519999983
  0
ARC
  5
782
330
65
100
AcDbEntity
  8
0
100
AcDbCircle
 10
64.32608052147769
 20
63.63781486646914
 30
0.0
 40
1.994130499999999
100
AcDbArc
 50
179.831110000071
 51
270.1688940000301
  0
ARC
  5
783
330
65
100
AcDbEntity
  8
0
100
AcDbCircle
 10
64.32523052147735
 20
65.66699486646959
 30
0.0
 40
1.993308199999999
100
AcDbArc
 50
179.807330000034
 51
270.1926769999697
  0
LINE
  5
784
330
65
100
AcDbEntity
  8
0
100
AcDbLine
 10
150.831940521477
 20
98.03368486646945
 30
0.0
 11
150.831940521477
 21
93.03368486646943
 31
0.0
  0
LINE
  5
785
330
65
100
AcDbEntity
  8
0
100
AcDbLine
 10
165.8319405214769
 20
98.03368486646945
 30
0.0
 11
165.8319405214769
 21
93.03368486646943
 31
0.0
  0
LINE
  5
786
330
65
100
AcDbEntity
  8
0
100
AcDbLine
 10
150.3519005214784
 20
98.03368486646945
 30
0.0
 11
150.3519005214784
 21
93.17370486647016
 31
0.0
  0
LINE
  5
787
330
65
100
AcDbEntity
  8
0
100
AcDbLine
 10
166.311920521477
 20
98.03368486646945
 30
0.0
 11
166.311920521477
 21
93.17370486647016
 31
0.0
  0
ARC
  5
788
330
65
100
AcDbEntity
  8
0
100
AcDbCircle
 10
167.3319405214769
 20
98.03368486646945
 30
0.0
 40
1.5
100
AcDbArc
 50
90.0
 51
180.0000100000531
  0
CIRCLE
  5
789
330
65
100
AcDbEntity
  8
0
100
AcDbCircle
 10
155.831940521477
 20
97.03368486646944
 30
0.0
 40
1.1
  0
CIRCLE
  5
78A
330
65
100
AcDbEntity
  8
0
100
AcDbCircle
 10
155.831940521477
 20
97.03368486646944
 30
0.0
 40
1.149999999999999
  0
ARC
  5
78B
330
65
100
AcDbEntity
  8
0
100
AcDbCircle
 10
149.3319405214769
 20
98.03368486646945
 30
0.0
 40
1.02
100
AcDbArc
 50
359.999999316731
 51
90.00001000000102
  0
ARC
  5
78C
330
65
100
AcDbEntity
  8
0
100
AcDbCircle
 10
149.3319405214769
 20
98.03368486646945
 30
0.0
 40
1.5
100
AcDbArc
 50
359.999999316731
 51
90.00001000000102
  0
CIRCLE
  5
78D
330
65
100
AcDbEntity
  8
0
100
AcDbCircle
 10
160.831940521477
 20
97.03368486646944
 30
0.0
 40
1.0
  0
LINE
  5
78E
330
65
100
AcDbEntity
  8
0
100
AcDbLine
 10
167.3319405214769
 20
99.04369486646942
 30
0.0
 11
185.377660521477
 21
99.04369486646942
 31
0.0
  0
LINE
  5
78F
330
65
100
AcDbEntity
  8
0
100
AcDbLine
 10
181.6790505214775
 20
99.53368486646944
 30
0.0
 11
167.3319405214769
 21
99.53368486646944
 31
0.0
  0
ARC
  5
790
330
65
100
AcDbEntity
  8
0
100
AcDbCircle
 10
167.3319405214769
 20
98.03368486646945
 30
0.0
 40
1.02
100
AcDbArc
 50
90.0
 51
180.0000100000531
  0
ARC
  5
791
330
65
100
AcDbEntity
  8
0
100
AcDbCircle
 10
181.6719105214778
 20
100.5336848664694
 30
0.0
 40
1.000025599999998
100
AcDbArc
 50
269.5894690000153
 51
90.4105300000163
  0
ARC
  5
792
330
65
100
AcDbEntity
  8
0
100
AcDbCircle
 10
185.3719205214783
 20
100.5036548664695
 30
0.0
 40
1.460011199999999
100
AcDbArc
 50
269.7752500000162
 51
90.22474999998385
  0
ARC
  5
793
330
65
100
AcDbEntity
  8
0
100
AcDbCircle
 10
167.3319405214769
 20
93.03368486646943
 30
0.0
 40
1.5
100
AcDbArc
 50
179.999990000051
 51
269.9999969999632
  0
ARC
  5
794
330
65
100
AcDbEntity
  8
0
100
AcDbCircle
 10
149.3519005214784
 20
93.17370486647016
 30
0.0
 40
1.0
100
AcDbArc
 50
269.9999969999632
 51
0.0
  0
ARC
  5
795
330
65
100
AcDbEntity
  8
0
100
AcDbCircle
 10
149.3319405214769
 20
93.03368486646943
 30
0.0
 40
1.5
100
AcDbArc
 50
269.9999969999632
 51
0.0
  0
LINE
  5
796
330
65
100
AcDbEntity
  8
0
100
AcDbLine
 10
183.8821405214784
 20
60.79852486646925
 30
0.0
 11
186.571960521478
 21
73.31374486646947
 31
0.0
  0
LINE
  5
797
330
65
100
AcDbEntity
  8
0
100
AcDbLine
 10
183.071930521477
 20
65.15365486646917
 30
0.0
 11
186.5319505214774
 21
78.07372486646929
 31
0.0
  0
LINE
  5
798
330
65
100
AcDbEntity
  8
0
100
AcDbLine
 10
167.311920521477
 20
92.16369486646929
 30
0.0
 11
185.1519505214782
 21
92.16369486646929
 31
0.0
  0
LINE
  5
799
330
65
100
AcDbEntity
  8
0
100
AcDbLine
 10
181.6719105214778
 20
91.53368486646945
 30
0.0
 11
167.3319405214769
 21
91.53368486646945
 31
0.0
  0
ARC
  5
79A
330
65
100
AcDbEntity
  8
0
100
AcDbCircle
 10
167.311920521477
 20
93.17370486647016
 30
0.0
 40
1.0
100
AcDbArc
 50
179.999990000051
 51
269.9999969999632
  0
ARC
  5
79B
330
65
100
AcDbEntity
  8
0
100
AcDbCircle
 10
181.6719105214778
 20
90.53368486646943
 30
0.0
 40
1.000004099999999
100
AcDbArc
 50
269.9999969999632
 51
90.00001000000102
  0
LINE
  5
79C
330
65
100
AcDbEntity
  8
0
100
AcDbLine
 10
188.3319405214769
 20
88.38366486646938
 30
0.0
 11
196.3319405214769
 21
88.38366486646938
 31
0.0
  0
ARC
  5
79D
330
65
100
AcDbEntity
  8
0
100
AcDbCircle
 10
185.1519505214782
 20
90.48364486646937
 30
0.0
 40
1.6800077
100
AcDbArc
 50
269.9999969999632
 51
90.00001000000102
  0
LINE
  5
79E
330
65
100
AcDbEntity
  8
0
100
AcDbLine
 10
189.3319405214769
 20
73.49365486646931
 30
0.0
 11
196.3319405214769
 21
73.49365486646931
 31
0.0
  0
ARC
  5
79F
330
65
100
AcDbEntity
  8
0
100
AcDbCircle
 10
188.0376305214776
 20
72.99340486646926
 30
0.0
 40
1.500286
100
AcDbArc
 50
89.83583000000475
 51
167.6736900000476
  0
ARC
  5
7A0
330
65
100
AcDbEntity
  8
0
100
AcDbCircle
 10
187.9820905214782
 20
77.68139486646962
 30
0.0
 40
1.502273399999999
100
AcDbArc
 50
90.00588000002888
 51
164.8634900000135
  0
ARC
  5
7A1
330
65
100
AcDbEntity
  8
0
100
AcDbCircle
 10
189.3310305214781
 20
74.49279486646919
 30
0.0
 40
0.9990923399999999
100
AcDbArc
 50
179.9479199999891
 51
270.0520779999681
  0
LINE
  5
7A2
330
65
100
AcDbEntity
  8
0
100
AcDbLine
 10
188.0419005214771
 20
74.49365486646931
 30
0.0
 11
185.6219205214783
 21
74.49365486646931
 31
0.0
  0
ARC
  5
7A3
330
65
100
AcDbEntity
  8
0
100
AcDbCircle
 10
182.4155605214782
 20
61.11364486646944
 30
0.0
 40
1.5
100
AcDbArc
 50
269.9999969999632
 51
347.8702079999613
  0
ARC
  5
7A4
330
65
100
AcDbEntity
  8
0
100
AcDbCircle
 10
182.5596005214774
 20
61.78368486646943
 30
0.0
 40
1.5
100
AcDbArc
 50
269.9999969999632
 51
347.8702079999613
  0
ARC
  5
7A5
330
65
100
AcDbEntity
  8
0
100
AcDbCircle
 10
182.8519005214784
 20
63.14367486646935
 30
0.0
 40
1.5
100
AcDbArc
 50
269.9999969999632
 51
347.8702079999613
  0
ARC
  5
7A6
330
65
100
AcDbEntity
  8
0
100
AcDbCircle
 10
181.1413905214775
 20
65.67284486647006
 30
0.0
 40
1.9991226
100
AcDbArc
 50
270.0156110000395
 51
344.9492089999553
  0
LINE
  5
7A7
330
65
100
AcDbEntity
  8
0
100
AcDbLine
 10
189.3319405214769
 20
62.03368486646943
 30
0.0
 11
196.3319405214769
 21
62.03368486646943
 31
0.0
  0
ARC
  5
7A8
330
65
100
AcDbEntity
  8
0
100
AcDbCircle
 10
189.3317605214778
 20
63.03344486647003
 30
0.0
 40
0.99980682
100
AcDbArc
 50
179.9889300000155
 51
270.0110689999895
  0
LINE
  5
7A9
330
65
100
AcDbEntity
  8
0
100
AcDbLine
 10
184.792330521477
 20
65.03368486646943
 30
0.0
 11
188.3319405214769
 21
65.03368486646943
 31
0.0
  0
LINE
  5
7AA
330
65
100
AcDbEntity
  8
0
100
AcDbLine
 10
103.8318538185958
 20
199.0336848664694
 30
0.0
 11
170.8318538185958
 21
199.0336848664694
 31
0.0
1001
GENIUS_GENODEF_13
1002
{
1000
HIER
1070
     0
1002
}
1002
{
1000
MANEDIT
1070
     0
1002
}
1002
{
1000
NOSEL
1070
     0
1002
}
1002
{
1000
BEHIND
1070
     0
1002
}
1002
{
1000
REACTOR
1002
}
1001
GENIUS_GENOBJ-N-CEN_13
1002
{
1000
OWNER
1000
GEN
1002
}
  0
LINE
  5
7AB
330
65
100
AcDbEntity
  8
0
100
AcDbLine
 10
111.8318538185976
 20
201.5336848664694
 30
0.0
 11
178.8318538185976
 21
201.5336848664694
 31
0.0
1001
GENIUS_GENODEF_13
1002
{
1000
HIER
1070
     0
1002
}
1002
{
1000
MANEDIT
1070
     0
1002
}
1002
{
1000
NOSEL
1070
     0
1002
}
1002
{
1000
BEHIND
1070
     0
1002
}
1002
{
1000
REACTOR
1002
}
1001
GENIUS_GENOBJ-N-CEN_13
1002
{
1000
OWNER
1000
GEN
1002
}
  0
LINE
  5
7AC
330
65
100
AcDbEntity
  8
0
100
AcDbLine
 10
103.8318538185958
 20
199.0336848664694
 30
0.0
 11
103.8318538185958
 21
201.0336848664694
 31
0.0
  0
LINE
  5
7AD
330
65
100
AcDbEntity
  8
0
100
AcDbLine
 10
170.8318538185958
 20
201.0336848664694
 30
0.0
 11
170.8318538185958
 21
199.0336848664694
 31
0.0
  0
LINE
  5
7AE
330
65
100
AcDbEntity
  8
0
100
AcDbLine
 10
70.00350477749816
 20
201.5336848664694
 30
0.0
 11
192.6602028596953
 21
201.5336848664694
 31
0.0
  0
LINE
  5
7AF
330
65
100
AcDbEntity
  8
0
100
AcDbLine
 10
204.3318538185976
 20
250.8336848664687
 30
0.0
 11
199.4208388093811
 21
250.8336848664687
 31
0.0
  0
LINE
  5
7B0
330
65
100
AcDbEntity
  8
0
100
AcDbLine
 10
204.3318538185976
 20
252.0331381310363
 30
0.0
 11
204.3318538185976
 21
250.8336848664687
 31
0.0
  0
LINE
  5
7B1
330
65
100
AcDbEntity
  8
AM_7
 62
     1
 48
0.5
370
    25
100
AcDbLine
 10
201.3318538185976
 20
265.7920592661933
 30
0.0
 11
201.3318538185976
 21
248.0396848664689
 31
0.0
1001
GENIUS_GENOBJ-N-CEN_13
1002
{
1000
OWNER
1000
GEN
1002
}
1001
GENIUS_GENODEF_13
1002
{
1000
HIER
1070
     0
1002
}
1002
{
1000
MANEDIT
1070
     0
1002
}
1002
{
1000
NOSEL
1070
     0
1002
}
1002
{
1000
BEHIND
1070
     0
1002
}
1002
{
1000
OTHER
1070
     0
1002
}
1002
{
1000
REACTOR
1002
}
1001
GENIUS_GENCEN_19
1002
{
1040
2.793999999999999
1002
}
  0
LINE
  5
7B2
330
65
100
AcDbEntity
  8
AM_7
 62
     1
 48
0.5
370
    25
100
AcDbLine
 10
61.33185381859767
 20
261.7186269440793
 30
0.0
 11
61.33185381859767
 21
248.0396848664689
 31
0.0
1001
GENIUS_GENOBJ-N-CEN_13
1002
{
1000
OWNER
1000
GEN
1002
}
1001
GENIUS_GENODEF_13
1002
{
1000
HIER
1070
     0
1002
}
1002
{
1000
MANEDIT
1070
     0
1002
}
1002
{
1000
NOSEL
1070
     0
1002
}
1002
{
1000
BEHIND
1070
     0
1002
}
1002
{
1000
OTHER
1070
     0
1002
}
1002
{
1000
REACTOR
1002
}
1001
GENIUS_GENCEN_19
1002
{
1040
2.793999999999999
1002
}
  0
LINE
  5
7B3
330
65
100
AcDbEntity
  8
0
100
AcDbLine
 10
61.13185381859692
 20
257.2336848664694
 30
0.0
 11
55.33205802358498
 21
257.2336848664694
 31
0.0
  0
ARC
  5
7B4
330
65
100
AcDbEntity
  8
0
100
AcDbCircle
 10
61.13185381859692
 20
259.2336848664693
 30
0.0
 40
2.0
100
AcDbArc
 50
270.0
 51
0.0
1001
GENIUS_GENODEF_13
1002
{
1000
HIER
1070
     0
1002
}
1002
{
1000
MANEDIT
1070
     0
1002
}
1002
{
1000
NOSEL
1070
     0
1002
}
1002
{
1000
BEHIND
1070
     0
1002
}
1002
{
1000
OTHER
1070
     0
1002
}
1002
{
1000
REACTOR
1002
}
1001
GENIUS_GENOBJ-N-FIL_13
1002
{
1000
OWNER
1000
GEN
1002
}
  0
ARC
  5
7B5
330
65
100
AcDbEntity
  8
0
100
AcDbCircle
 10
55.53205802358569
 20
255.0336848664694
 30
0.0
 40
2.2
100
AcDbArc
 50
90.0
 51
180.0
1001
GENIUS_GENODEF_13
1002
{
1000
HIER
1070
     0
1002
}
1002
{
1000
MANEDIT
1070
     0
1002
}
1002
{
1000
NOSEL
1070
     0
1002
}
1002
{
1000
BEHIND
1070
     0
1002
}
1002
{
1000
OTHER
1070
     0
1002
}
1002
{
1000
REACTOR
1002
}
1001
GENIUS_GENOBJ-N-FIL_13
1002
{
1000
OWNER
1000
GEN
1002
}
  0
ARC
  5
7B6
330
65
100
AcDbEntity
  8
0
100
AcDbCircle
 10
67.33185381859766
 20
259.8336848664687
 30
0.0
 40
4.2
100
AcDbArc
 50
90.0
 51
180.0
1001
GENIUS_GENODEF_13
1002
{
1000
HIER
1070
     0
1002
}
1002
{
1000
MANEDIT
1070
     0
1002
}
1002
{
1000
NOSEL
1070
     0
1002
}
1002
{
1000
BEHIND
1070
     0
1002
}
1002
{
1000
OTHER
1070
     0
1002
}
1002
{
1000
REACTOR
1002
}
1001
GENIUS_GENOBJ-N-FIL_13
1002
{
1000
OWNER
1000
GEN
1002
}
  0
LINE
  5
7B7
330
65
100
AcDbEntity
  8
0
100
AcDbLine
 10
53.33205802358498
 20
255.0336848664694
 30
0.0
 11
53.33205802358498
 21
252.0336848664694
 31
0.0
  0
LINE
  5
7B8
330
65
100
AcDbEntity
  8
0
100
AcDbLine
 10
195.3319113016804
 20
264.0336848664694
 30
0.0
 11
67.33185381859766
 21
264.0336848664694
 31
0.0
  0
LINE
  5
7B9
330
65
100
AcDbEntity
  8
0
100
AcDbLine
 10
63.13185381859693
 20
259.2336848664693
 30
0.0
 11
63.13185381859693
 21
259.8336848664687
 31
0.0
  0
LINE
  5
7BA
330
65
100
AcDbEntity
  8
0
100
AcDbLine
 10
61.13185382325537
 20
257.2342728045398
 30
0.0
 11
209.3315941454147
 21
257.2330985147557
 31
0.0
  0
ARC
  5
7BB
330
65
100
AcDbEntity
  8
0
100
AcDbCircle
 10
195.3318205371869
 20
259.8332094448026
 30
0.0
 40
4.2
100
AcDbArc
 50
13.9002432243223
 51
89.99954600560306
1001
GENIUS_GENODEF_13
1002
{
1000
HIER
1070
     0
1002
}
1002
{
1000
MANEDIT
1070
     0
1002
}
1002
{
1000
NOSEL
1070
     0
1002
}
1002
{
1000
BEHIND
1070
     0
1002
}
1002
{
1000
OTHER
1070
     0
1002
}
1002
{
1000
REACTOR
1002
}
1001
GENIUS_GENOBJ-N-FIL_13
1002
{
1000
OWNER
1000
GEN
1002
}
  0
LINE
  5
7BC
330
65
100
AcDbEntity
  8
0
100
AcDbLine
 10
209.331594145402
 20
257.2330969300166
 30
0.0
 11
209.3315529421797
 21
252.033096930186
 31
0.0
  0
LINE
  5
7BD
330
65
100
AcDbEntity
  8
0
100
AcDbLine
 10
53.33205802873272
 20
252.0343346075944
 30
0.0
 11
209.3315529421925
 21
252.0330985149251
 31
0.0
  0
LINE
  5
7BE
330
65
100
AcDbEntity
  8
AM_0N
100
AcDbLine
 10
205.1318538185969
 20
257.2331619022719
 30
0.0
 11
201.1678835843304
 21
257.2331619022719
 31
0.0
  0
LINE
  5
7BF
330
65
100
AcDbEntity
  8
AM_0N
100
AcDbLine
 10
205.1318538185969
 20
257.2331619022719
 30
0.0
 11
197.5318538185965
 21
257.2331619022719
 31
0.0
  0
LINE
  5
7C0
330
65
100
AcDbEntity
  8
AM_0N
100
AcDbLine
 10
200.7678835894785
 20
257.2338116433978
 30
0.0
 11
197.5318538237442
 21
257.2338116433978
 31
0.0
  0
LINE
  5
7C1
330
65
100
AcDbEntity
  8
AM_0N
100
AcDbLine
 10
197.4244988514382
 20
258.2927491555249
 30
0.0
 11
197.3318538237453
 21
257.2338116433978
 31
0.0
  0
LINE
  5
7C2
330
65
100
AcDbEntity
  8
AM_0N
100
AcDbLine
 10
205.2392087909029
 20
258.2920994143999
 30
0.0
 11
205.3318538185976
 21
257.2331619022719
 31
0.0
  0
ARC
  5
7C3
330
65
100
AcDbEntity
  8
AM_0N
100
AcDbCircle
 10
201.3318538185976
 20
253.8331619022712
 30
0.0
 40
6.5
100
AcDbArc
 50
61.82726586813451
 51
118.1727341318654
  0
ARC
  5
7C4
330
65
100
AcDbEntity
  8
AM_0N
100
AcDbCircle
 10
203.645297273957
 20
258.1526502260033
 30
0.0
 40
1.6
100
AcDbArc
 50
4.999999999973439
 51
61.82726586813451
  0
ARC
  5
7C5
330
65
100
AcDbEntity
  8
AM_0N
100
AcDbCircle
 10
199.0184103683859
 20
258.1532999671292
 30
0.0
 40
1.6
100
AcDbArc
 50
118.1727341318654
 51
175.0000000000266
  0
LINE
  5
7C6
330
65
100
AcDbEntity
  8
AM_0N
100
AcDbLine
 10
199.5466038237445
 20
257.2338116433978
 30
0.0
 11
197.3318538237453
 21
257.2338116433978
 31
0.0
  0
LINE
  5
7C7
330
65
100
AcDbEntity
  8
AM_0N
100
AcDbLine
 10
205.3318538185976
 20
257.2331619022719
 30
0.0
 11
203.1171038185966
 21
257.2331619022719
 31
0.0
  0
LINE
  5
7C8
330
65
100
AcDbEntity
  8
AM_0N
100
AcDbLine
 10
203.1171038185966
 20
257.2331619022719
 30
0.0
 11
199.5466038185968
 21
257.2331619022719
 31
0.0
  0
LINE
  5
7C9
330
65
100
AcDbEntity
  8
AM_0N
100
AcDbLine
 10
203.8318538185976
 20
249.2331619022718
 30
0.0
 11
199.3642980213989
 21
249.2331619022718
 31
0.0
  0
LINE
  5
7CA
330
65
100
AcDbEntity
  8
0
100
AcDbLine
 10
203.8318538185976
 20
249.2331619022718
 30
0.0
 11
203.8318538185976
 21
250.8336848664687
 31
0.0
  0
LINE
  5
7CB
330
65
100
AcDbEntity
  8
0
100
AcDbLine
 10
63.13181758582685
 20
206.7336848664702
 30
0.0
 11
63.13181758582685
 21
252.0342569573051
 31
0.0
  0
ARC
  5
7CC
330
65
100
AcDbEntity
  8
0
100
AcDbCircle
 10
68.33181758582759
 20
206.7336848664702
 30
0.0
 40
5.2
100
AcDbArc
 50
180.0
 51
270.0
1001
GENIUS_GENODEF_13
1002
{
1000
HIER
1070
     0
1002
}
1002
{
1000
MANEDIT
1070
     0
1002
}
1002
{
1000
NOSEL
1070
     0
1002
}
1002
{
1000
BEHIND
1070
     0
1002
}
1002
{
1000
OTHER
1070
     0
1002
}
1002
{
1000
REACTOR
1002
}
1001
GENIUS_GENOBJ-N-FIL_13
1002
{
1000
OWNER
1000
GEN
1002
}
  0
LINE
  5
7CD
330
65
100
AcDbEntity
  8
0
100
AcDbLine
 10
194.3319475344487
 20
201.5336848664694
 30
0.0
 11
68.33181758582759
 21
201.5336848664694
 31
0.0
  0
LINE
  5
7CE
330
65
100
AcDbEntity
  8
0
100
AcDbLine
 10
199.5319475344494
 20
206.7336848664702
 30
0.0
 11
199.5319475344494
 21
252.0331761640566
 31
0.0
  0
ARC
  5
7CF
330
65
100
AcDbEntity
  8
0
100
AcDbCircle
 10
194.3319475344505
 20
206.7336848664702
 30
0.0
 40
5.2
100
AcDbArc
 50
270.0
 51
0.0
1001
GENIUS_GENODEF_13
1002
{
1000
HIER
1070
     0
1002
}
1002
{
1000
MANEDIT
1070
     0
1002
}
1002
{
1000
NOSEL
1070
     0
1002
}
1002
{
1000
BEHIND
1070
     0
1002
}
1002
{
1000
OTHER
1070
     0
1002
}
1002
{
1000
REACTOR
1002
}
1001
GENIUS_GENOBJ-N-FIL_13
1002
{
1000
OWNER
1000
GEN
1002
}
  0
LINE
  5
7D0
330
65
100
AcDbEntity
  8
AM_7
 62
     1
370
    25
100
AcDbLine
 10
52.85163398329679
 20
234.5336848664694
 30
0.0
 11
76.60307035037476
 21
234.5336848664694
 31
0.0
1001
GENIUS_GENODEF_13
1002
{
1000
HIER
1070
     0
1002
}
1002
{
1000
MANEDIT
1070
     0
1002
}
1002
{
1000
NOSEL
1070
     0
1002
}
1002
{
1000
BEHIND
1070
     0
1002
}
1002
{
1000
OTHER
1070
     0
1002
}
1002
{
1000
REACTOR
1002
}
1001
GENIUS_GENOBJ-N-CEN_13
1002
{
1000
OWNER
1000
GEN
1002
}
1001
GENIUS_GENCEN_19
1002
{
1040
8.381999999999999
1002
}
  0
LINE
  5
7D1
330
65
100
AcDbEntity
  8
0
100
AcDbLine
 10
196.3319405214769
 20
189.0336618664698
 30
0.0
 11
196.3319405214769
 21
62.03362686646979
 31
0.0
  0
CIRCLE
  5
7D2
330
65
100
AcDbEntity
  8
ｶｸﾚｾﾝ2
 48
10.0
100
AcDbCircle
 10
548.1848505214769
 20
234.3336088664702
 30
0.0
 40
11.0
  0
CIRCLE
  5
7D3
330
65
100
AcDbEntity
  8
ｶｸﾚｾﾝ2
 48
10.0
100
AcDbCircle
 10
512.1848505214769
 20
234.3336088664702
 30
0.0
 40
11.0
  0
LINE
  5
7D4
330
65
100
AcDbEntity
  8
AM_7
 62
     1
370
    25
100
AcDbLine
 10
561.9788505214769
 20
234.3336088664702
 30
0.0
 11
498.3908505214771
 21
234.3336088664702
 31
0.0
1001
GENIUS_GENOBJ-N-CEN_13
1002
{
1000
OWNER
1000
GEN
1002
}
1001
GENIUS_GENODEF_13
1002
{
1000
HIER
1070
     0
1002
}
1002
{
1000
MANEDIT
1070
     0
1002
}
1002
{
1000
NOSEL
1070
     0
1002
}
1002
{
1000
BEHIND
1070
     0
1002
}
1002
{
1000
OTHER
1070
     0
1002
}
1002
{
1000
REACTOR
1002
}
1001
GENIUS_GENCEN_19
1002
{
1040
2.793999999999999
1002
}
  0
LINE
  5
7D5
330
65
100
AcDbEntity
  8
AM_7
 62
     1
370
    25
100
AcDbLine
 10
548.1848505214769
 20
248.1276088664701
 30
0.0
 11
548.1848505214769
 21
220.5396088664704
 31
0.0
1001
GENIUS_GENOBJ-N-CEN_13
1002
{
1000
OWNER
1000
GEN
1002
}
1001
GENIUS_GENODEF_13
1002
{
1000
HIER
1070
     0
1002
}
1002
{
1000
MANEDIT
1070
     0
1002
}
1002
{
1000
NOSEL
1070
     0
1002
}
1002
{
1000
BEHIND
1070
     0
1002
}
1002
{
1000
OTHER
1070
     0
1002
}
1002
{
1000
REACTOR
1002
}
1001
GENIUS_GENCEN_19
1002
{
1040
2.793999999999999
1002
}
  0
LINE
  5
7D6
330
65
100
AcDbEntity
  8
AM_7
 62
     1
370
    25
100
AcDbLine
 10
512.1848505214769
 20
248.1276088664701
 30
0.0
 11
512.1848505214769
 21
220.5396088664704
 31
0.0
1001
GENIUS_GENOBJ-N-CEN_13
1002
{
1000
OWNER
1000
GEN
1002
}
1001
GENIUS_GENODEF_13
1002
{
1000
HIER
1070
     0
1002
}
1002
{
1000
MANEDIT
1070
     0
1002
}
1002
{
1000
NOSEL
1070
     0
1002
}
1002
{
1000
BEHIND
1070
     0
1002
}
1002
{
1000
OTHER
1070
     0
1002
}
1002
{
1000
REACTOR
1002
}
1001
GENIUS_GENCEN_19
1002
{
1040
2.793999999999999
1002
}
  0
LINE
  5
7D7
330
65
100
AcDbEntity
  8
0
100
AcDbLine
 10
585.3850068878752
 20
257.0336088664697
 30
0.0
 11
591.1848026828869
 21
257.0336088664697
 31
0.0
  0
LINE
  5
7D8
330
65
100
AcDbEntity
  8
0
100
AcDbLine
 10
462.1852453924454
 20
252.0336088664696
 30
0.0
 11
598.1844479966585
 21
252.0336088664696
 31
0.0
  0
LINE
  5
7D9
330
65
100
AcDbEntity
  8
0
100
AcDbLine
 10
595.7751141527377
 20
257.0336088664697
 30
0.0
 11
464.3852461349831
 21
257.0301230404946
 31
0.0
  0
LINE
  5
7DA
330
65
100
AcDbEntity
  8
0
100
AcDbLine
 10
476.1857188572015
 20
264.0336088664696
 30
0.0
 11
584.1839821857525
 21
264.0336088664696
 31
0.0
  0
LINE
  5
7DB
330
65
100
AcDbEntity
  8
0
100
AcDbLine
 10
466.9850061453367
 20
252.0336088664696
 30
0.0
 11
468.1850068878743
 21
252.0336088664696
 31
0.0
  0
ARC
  5
7DC
330
65
100
AcDbEntity
  8
0
100
AcDbCircle
 10
464.3852461349831
 20
254.8301230404946
 30
0.0
 40
2.2
100
AcDbArc
 50
90.0
 51
180.0
1001
GENIUS_GENODEF_13
1002
{
1000
HIER
1070
     0
1002
}
1002
{
1000
MANEDIT
1070
     0
1002
}
1002
{
1000
NOSEL
1070
     0
1002
}
1002
{
1000
BEHIND
1070
     0
1002
}
1002
{
1000
OTHER
1070
     0
1002
}
1002
{
1000
REACTOR
1002
}
1001
GENIUS_GENOBJ-N-FIL_13
1002
{
1000
OWNER
1000
GEN
1002
}
  0
ARC
  5
7DD
330
65
100
AcDbEntity
  8
0
100
AcDbCircle
 10
469.9852765147475
 20
259.0336088664697
 30
0.0
 40
2.0
100
AcDbArc
 50
270.0
 51
0.0
1001
GENIUS_GENOBJ-N-FIL_13
1002
{
1000
OWNER
1000
GEN
1002
}
1001
GENIUS_GENODEF_13
1002
{
1000
HIER
1070
     0
1002
}
1002
{
1000
MANEDIT
1070
     0
1002
}
1002
{
1000
NOSEL
1070
     0
1002
}
1002
{
1000
BEHIND
1070
     0
1002
}
1002
{
1000
OTHER
1070
     0
1002
}
1002
{
1000
REACTOR
1002
}
  0
LINE
  5
7DE
330
65
100
AcDbEntity
  8
0
100
AcDbLine
 10
462.1852453924454
 20
252.0336088664696
 30
0.0
 11
462.1852453924454
 21
254.830128485728
 31
0.0
  0
ARC
  5
7DF
330
65
100
AcDbEntity
  8
0
100
AcDbCircle
 10
476.1854923362521
 20
259.8368448742338
 30
0.0
 40
4.199999999999998
100
AcDbArc
 50
89.99690983465463
 51
179.9969098346701
1001
GENIUS_GENODEF_13
1002
{
1000
HIER
1070
     0
1002
}
1002
{
1000
MANEDIT
1070
     0
1002
}
1002
{
1000
NOSEL
1070
     0
1002
}
1002
{
1000
BEHIND
1070
     0
1002
}
1002
{
1000
OTHER
1070
     0
1002
}
1002
{
1000
REACTOR
1002
}
1001
GENIUS_GENOBJ-N-FIL_13
1002
{
1000
OWNER
1000
GEN
1002
}
  0
LINE
  5
7E0
330
65
100
AcDbEntity
  8
0
100
AcDbLine
 10
471.9854491955124
 20
259.0370713963478
 30
0.0
 11
471.9854923423605
 21
259.8370713951833
 31
0.0
  0
ARC
  5
7E1
330
65
100
AcDbEntity
  8
0
100
AcDbCircle
 10
595.984447254119
 20
254.8435906810049
 30
0.0
 40
2.2
100
AcDbArc
 50
0.0
 51
95.46003442709872
1001
GENIUS_GENODEF_13
1002
{
1000
HIER
1070
     0
1002
}
1002
{
1000
MANEDIT
1070
     0
1002
}
1002
{
1000
NOSEL
1070
     0
1002
}
1002
{
1000
BEHIND
1070
     0
1002
}
1002
{
1000
OTHER
1070
     0
1002
}
1002
{
1000
REACTOR
1002
}
1001
GENIUS_GENOBJ-N-FIL_13
1002
{
1000
OWNER
1000
GEN
1002
}
  0
ARC
  5
7E2
330
65
100
AcDbEntity
  8
0
100
AcDbCircle
 10
590.384198007256
 20
259.0336088664697
 30
0.0
 40
2.0
100
AcDbArc
 50
180.0
 51
270.0
1001
GENIUS_GENOBJ-N-FIL_13
1002
{
1000
OWNER
1000
GEN
1002
}
1001
GENIUS_GENODEF_13
1002
{
1000
HIER
1070
     0
1002
}
1002
{
1000
MANEDIT
1070
     0
1002
}
1002
{
1000
NOSEL
1070
     0
1002
}
1002
{
1000
BEHIND
1070
     0
1002
}
1002
{
1000
OTHER
1070
     0
1002
}
1002
{
1000
REACTOR
1002
}
  0
LINE
  5
7E3
330
65
100
AcDbEntity
  8
0
100
AcDbLine
 10
598.1844479966585
 20
252.0336088664696
 30
0.0
 11
598.1844479966585
 21
254.8435961262384
 31
0.0
  0
ARC
  5
7E4
330
65
100
AcDbEntity
  8
0
100
AcDbCircle
 10
584.1839821857525
 20
259.8368448742338
 30
0.0
 40
4.199999999999998
100
AcDbArc
 50
0.0030901653771532
 51
90.00309016534616
1001
GENIUS_GENODEF_13
1002
{
1000
HIER
1070
     0
1002
}
1002
{
1000
MANEDIT
1070
     0
1002
}
1002
{
1000
NOSEL
1070
     0
1002
}
1002
{
1000
BEHIND
1070
     0
1002
}
1002
{
1000
OTHER
1070
     0
1002
}
1002
{
1000
REACTOR
1002
}
1001
GENIUS_GENOBJ-N-FIL_13
1002
{
1000
OWNER
1000
GEN
1002
}
  0
LINE
  5
7E5
330
65
100
AcDbEntity
  8
0
100
AcDbLine
 10
588.3840253264919
 20
259.0370713963478
 30
0.0
 11
588.3839821796438
 21
259.8370713951867
 31
0.0
  0
LINE
  5
7E6
330
65
100
AcDbEntity
  8
AM_7
  6
AM_ISO08W050x2
 62
     1
370
    25
100
AcDbLine
 10
590.1844029547832
 20
247.2396088664698
 30
0.0
 11
590.1844029547832
 21
258.0376339922566
 31
0.0
1001
GENIUS_GENODEF_13
1002
{
1000
HIER
1070
     0
1002
}
1002
{
1000
MANEDIT
1070
     0
1002
}
1002
{
1000
NOSEL
1070
     0
1002
}
1002
{
1000
BEHIND
1070
     0
1002
}
1002
{
1000
OTHER
1070
     0
1002
}
1002
{
1000
REACTOR
1002
}
1001
GENIUS_GENOBJ-N-CEN_13
1002
{
1000
OWNER
1000
GEN
1002
}
1001
GENIUS_GENCEN_19
1002
{
1040
2.793999999999999
1002
}
  0
LINE
  5
7E7
330
65
100
AcDbEntity
  8
AM_7
  6
AM_ISO08W050x2
 62
     1
370
    25
100
AcDbLine
 10
470.1852765147473
 20
247.2396088664698
 30
0.0
 11
470.1852765147473
 21
258.0376339922566
 31
0.0
1001
GENIUS_GENODEF_13
1002
{
1000
HIER
1070
     0
1002
}
1002
{
1000
MANEDIT
1070
     0
1002
}
1002
{
1000
NOSEL
1070
     0
1002
}
1002
{
1000
BEHIND
1070
     0
1002
}
1002
{
1000
OTHER
1070
     0
1002
}
1002
{
1000
REACTOR
1002
}
1001
GENIUS_GENOBJ-N-CEN_13
1002
{
1000
OWNER
1000
GEN
1002
}
1001
GENIUS_GENCEN_19
1002
{
1040
2.793999999999999
1002
}
  0
LINE
  5
7E8
330
65
100
AcDbEntity
  8
0
100
AcDbLine
 10
588.5842828211557
 20
239.7453432811889
 30
0.0
 11
588.5842828211557
 21
252.0336088664696
 31
0.0
  0
LINE
  5
7E9
330
65
100
AcDbEntity
  8
0
100
AcDbLine
 10
471.7848789680523
 20
239.745295103686
 30
0.0
 11
471.7848789680523
 21
252.0336088664696
 31
0.0
  0
LINE
  5
7EA
330
65
100
AcDbEntity
  8
0
100
AcDbLine
 10
209.3322807924486
 20
474.4806143664687
 30
0.0
 11
209.3318352543119
 21
354.4806143664694
 31
0.0
  0
ARC
  5
7EB
330
65
100
AcDbEntity
  8
0
100
AcDbCircle
 10
201.332280792505
 20
474.4806440690115
 30
0.0
 40
8.0
100
AcDbArc
 50
359.9997872712018
 51
90.0
1001
GENIUS_GENODEF_13
1002
{
1000
HIER
1070
     0
1002
}
1002
{
1000
MANEDIT
1070
     0
1002
}
1002
{
1000
NOSEL
1070
     0
1002
}
1002
{
1000
BEHIND
1070
     0
1002
}
1002
{
1000
OTHER
1070
     0
1002
}
1002
{
1000
REACTOR
1002
}
1001
GENIUS_GENOBJ-N-FIL_13
1002
{
1000
OWNER
1000
GEN
1002
}
  0
LINE
  5
7EC
330
65
100
AcDbEntity
  8
0
100
AcDbLine
 10
53.33183525451567
 20
474.4806143664696
 30
0.0
 11
53.33228079265428
 21
354.4806143664696
 31
0.0
  0
LINE
  5
7ED
330
65
100
AcDbEntity
  8
0
100
AcDbLine
 10
61.33183525445929
 20
482.4806440690124
 30
0.0
 11
201.332280792505
 21
482.4806440690115
 31
0.0
  0
ARC
  5
7EE
330
65
100
AcDbEntity
  8
0
100
AcDbCircle
 10
61.33183525445929
 20
474.4806440690124
 30
0.0
 40
8.0
100
AcDbArc
 50
90.0
 51
180.0002127287721
1001
GENIUS_GENODEF_13
1002
{
1000
HIER
1070
     0
1002
}
1002
{
1000
MANEDIT
1070
     0
1002
}
1002
{
1000
NOSEL
1070
     0
1002
}
1002
{
1000
BEHIND
1070
     0
1002
}
1002
{
1000
OTHER
1070
     0
1002
}
1002
{
1000
REACTOR
1002
}
1001
GENIUS_GENOBJ-N-FIL_13
1002
{
1000
OWNER
1000
GEN
1002
}
  0
LINE
  5
7EF
330
65
100
AcDbEntity
  8
0
100
AcDbLine
 10
61.33228079259788
 20
346.4806440690124
 30
0.0
 11
201.3318352543665
 21
346.4806440690118
 31
0.0
  0
ARC
  5
7F0
330
65
100
AcDbEntity
  8
0
100
AcDbCircle
 10
61.33228079259788
 20
354.4806440690124
 30
0.0
 40
8.0
100
AcDbArc
 50
180.0002127287721
 51
270.0
1001
GENIUS_GENODEF_13
1002
{
1000
HIER
1070
     0
1002
}
1002
{
1000
MANEDIT
1070
     0
1002
}
1002
{
1000
NOSEL
1070
     0
1002
}
1002
{
1000
BEHIND
1070
     0
1002
}
1002
{
1000
OTHER
1070
     0
1002
}
1002
{
1000
REACTOR
1002
}
1001
GENIUS_GENOBJ-N-FIL_13
1002
{
1000
OWNER
1000
GEN
1002
}
  0
ARC
  5
7F1
330
65
100
AcDbEntity
  8
0
100
AcDbCircle
 10
201.3318352543665
 20
354.4806440690118
 30
0.0
 40
8.0
100
AcDbArc
 50
270.0
 51
359.9997872712018
1001
GENIUS_GENODEF_13
1002
{
1000
HIER
1070
     0
1002
}
1002
{
1000
MANEDIT
1070
     0
1002
}
1002
{
1000
NOSEL
1070
     0
1002
}
1002
{
1000
BEHIND
1070
     0
1002
}
1002
{
1000
OTHER
1070
     0
1002
}
1002
{
1000
REACTOR
1002
}
1001
GENIUS_GENOBJ-N-FIL_13
1002
{
1000
OWNER
1000
GEN
1002
}
  0
LINE
  5
7F2
330
65
100
AcDbEntity
  8
0
100
AcDbLine
 10
135.3320580234831
 20
471.4806440690122
 30
0.0
 11
182.3323958897308
 21
471.4806440690122
 31
0.0
  0
LINE
  5
7F3
330
65
100
AcDbEntity
  8
0
100
AcDbLine
 10
198.332058023483
 20
455.4806440690122
 30
0.0
 11
198.332058023483
 21
414.4806440690122
 31
0.0
  0
ARC
  5
7F4
330
65
100
AcDbEntity
  8
0
100
AcDbCircle
 10
182.3323958897308
 20
455.4806440690122
 30
0.0
 40
16.00000000000009
100
AcDbArc
 50
0.0
 51
90.0
  0
LINE
  5
7F5
330
65
100
AcDbEntity
  8
0
100
AcDbLine
 10
80.33172015723357
 20
357.4806440690118
 30
0.0
 11
182.3323958897308
 21
357.4806440690118
 31
0.0
  0
LINE
  5
7F6
330
65
100
AcDbEntity
  8
0
100
AcDbLine
 10
198.332058023483
 20
373.4806440690124
 30
0.0
 11
198.332058023483
 21
414.4806440690122
 31
0.0
  0
ARC
  5
7F7
330
65
100
AcDbEntity
  8
0
100
AcDbCircle
 10
182.3323958897308
 20
373.4806440690124
 30
0.0
 40
16.00000000000009
100
AcDbArc
 50
270.0
 51
0.0
  0
LINE
  5
7F8
330
65
100
AcDbEntity
  8
0
100
AcDbLine
 10
135.3320580234831
 20
471.4806440690122
 30
0.0
 11
80.33172015723357
 21
471.4806440690122
 31
0.0
  0
LINE
  5
7F9
330
65
100
AcDbEntity
  8
0
100
AcDbLine
 10
64.3320580234831
 20
455.4806440690122
 30
0.0
 11
64.3320580234831
 21
414.4806440690122
 31
0.0
  0
ARC
  5
7FA
330
65
100
AcDbEntity
  8
0
100
AcDbCircle
 10
80.33172015723357
 20
455.4806440690122
 30
0.0
 40
16.00000000000009
100
AcDbArc
 50
90.0
 51
180.0
  0
LINE
  5
7FB
330
65
100
AcDbEntity
  8
0
100
AcDbLine
 10
64.3320580234831
 20
373.4806440690124
 30
0.0
 11
64.3320580234831
 21
414.4806440690122
 31
0.0
  0
ARC
  5
7FC
330
65
100
AcDbEntity
  8
0
100
AcDbCircle
 10
80.33172015723357
 20
373.4806440690124
 30
0.0
 40
16.00000000000009
100
AcDbArc
 50
180.0
 51
270.0
  0
INSERT
  5
7FD
330
65
100
AcDbEntity
  8
AM_0N
100
AcDbBlockReference
  2
*U33
 10
0.0
 20
0.0
 30
0.0
1001
GENIUS_GENOREF_13
1005
8DA
  0
INSERT
  5
7FE
330
65
100
AcDbEntity
  8
AM_0N
100
AcDbBlockReference
  2
*U34
 10
0.0
 20
0.0
 30
0.0
1001
GENIUS_GENOREF_13
1005
8D9
  0
INSERT
  5
7FF
330
65
100
AcDbEntity
  8
AM_0N
100
AcDbBlockReference
  2
*U35
 10
0.0
 20
0.0
 30
0.0
1001
GENIUS_GENOREF_13
1005
8D8
  0
INSERT
  5
800
330
65
100
AcDbEntity
  8
AM_0N
100
AcDbBlockReference
  2
*U36
 10
0.0
 20
0.0
 30
0.0
1001
GENIUS_GENOREF_13
1005
8D7
  0
LINE
  5
801
330
65
100
AcDbEntity
  8
0
  6
CENTER
 62
     1
100
AcDbLine
 10
131.3320580234576
 20
485.4806440690124
 30
0.0
 11
131.3320580245836
 21
343.4806440690119
 31
0.0
1001
GENIUS_GENOBJ-N-CEN_13
1002
{
1000
OWNER
1000
GEN
1002
}
1001
GENIUS_GENODEF_13
1002
{
1000
HIER
1070
     0
1002
}
1002
{
1000
MANEDIT
1070
     0
1002
}
1002
{
1000
NOSEL
1070
     0
1002
}
1002
{
1000
BEHIND
1070
     0
1002
}
1002
{
1000
OTHER
1070
     0
1002
}
1002
{
1000
REACTOR
1002
}
1001
GENIUS_GENCEN_19
1002
{
1040
3.0
1002
}
  0
LINE
  5
802
330
65
100
AcDbEntity
  8
0
100
AcDbLine
 10
34.83197052147625
 20
399.3306393664695
 30
0.0
 11
39.41193052147719
 21
399.3306393664695
 31
0.0
  0
LINE
  5
803
330
65
100
AcDbEntity
  8
0
100
AcDbLine
 10
45.60193052147588
 20
408.21065936647
 30
0.0
 11
53.332081302784
 21
408.21065936647
 31
0.0
  0
LINE
  5
804
330
65
100
AcDbEntity
  8
0
100
AcDbLine
 10
45.66193052147718
 20
398.1406393664699
 30
0.0
 11
53.33211869093428
 21
398.1406393664699
 31
0.0
  0
LINE
  5
805
330
65
100
AcDbEntity
  8
0
100
AcDbLine
 10
53.33211742857749
 20
398.48063936647
 30
0.0
 11
46.88196052147759
 21
398.48063936647
 31
0.0
  0
LINE
  5
806
330
65
100
AcDbEntity
  8
0
100
AcDbLine
 10
34.83197052147625
 20
429.6306593664696
 30
0.0
 11
39.11194052147584
 21
429.6306593664696
 31
0.0
  0
LINE
  5
807
330
65
100
AcDbEntity
  8
0
100
AcDbLine
 10
45.66193052147718
 20
400.8006593664696
 30
0.0
 11
53.33210881476407
 21
400.8006593664696
 31
0.0
  0
LINE
  5
808
330
65
100
AcDbEntity
  8
0
100
AcDbLine
 10
53.33207287476215
 20
410.48063936647
 30
0.0
 11
46.88196052147759
 21
410.48063936647
 31
0.0
  0
LINE
  5
809
330
65
100
AcDbEntity
  8
0
100
AcDbLine
 10
53.33208030036074
 20
408.4806493664697
 30
0.0
 11
46.88196052147759
 21
408.4806493664697
 31
0.0
  0
LINE
  5
80A
330
65
100
AcDbEntity
  8
0
100
AcDbLine
 10
45.60193052147588
 20
410.7506593664699
 30
0.0
 11
53.33207187222797
 21
410.7506593664699
 31
0.0
  0
LINE
  5
80B
330
65
100
AcDbEntity
  8
0
100
AcDbLine
 10
45.60193052147588
 20
418.2206393664698
 30
0.0
 11
53.33204413755264
 21
418.2206393664698
 31
0.0
  0
LINE
  5
80C
330
65
100
AcDbEntity
  8
0
100
AcDbLine
 10
45.60193052147588
 20
420.7506393664695
 30
0.0
 11
53.33203474412403
 21
420.75063936647
 31
0.0
  0
LINE
  5
80D
330
65
100
AcDbEntity
  8
0
100
AcDbLine
 10
45.66193052147718
 20
428.1606393664699
 30
0.0
 11
53.33200723214396
 21
428.1606393664699
 31
0.0
  0
LINE
  5
80E
330
65
100
AcDbEntity
  8
0
100
AcDbLine
 10
45.66193052147718
 20
430.8206593664697
 30
0.0
 11
53.33199735597371
 21
430.8206593664697
 31
0.0
  0
LINE
  5
80F
330
65
100
AcDbEntity
  8
0
100
AcDbLine
 10
45.54193052147637
 20
357.8006503664698
 30
0.0
 11
44.58191052147593
 21
362.2606493664695
 31
0.0
  0
LINE
  5
810
330
65
100
AcDbEntity
  8
0
100
AcDbLine
 10
43.12189052147732
 20
363.4506443664696
 30
0.0
 11
45.53192052147642
 21
363.4506443664696
 31
0.0
  0
LINE
  5
811
330
65
100
AcDbEntity
  8
0
100
AcDbLine
 10
43.14191052147726
 20
359.3806443664695
 30
0.0
 11
45.20197052147705
 21
359.3806443664695
 31
0.0
  0
LINE
  5
812
330
65
100
AcDbEntity
  8
0
100
AcDbLine
 10
41.33191052147593
 20
371.7906403664699
 30
0.0
 11
51.33197052147625
 21
371.7906403664699
 31
0.0
  0
LINE
  5
813
330
65
100
AcDbEntity
  8
0
100
AcDbLine
 10
47.47193052147667
 20
352.8106603664698
 30
0.0
 11
53.50852501718873
 21
352.8106603664698
 31
0.0
  0
LINE
  5
814
330
65
100
AcDbEntity
  8
0
100
AcDbLine
 10
34.83197052147625
 20
397.20064936647
 30
0.0
 11
36.33197052147625
 21
397.20064936647
 31
0.0
  0
LINE
  5
815
330
65
100
AcDbEntity
  8
0
100
AcDbLine
 10
34.83197052147625
 20
394.4806493664698
 30
0.0
 11
36.33191052147596
 21
394.3506493664697
 31
0.0
  0
LINE
  5
816
330
65
100
AcDbEntity
  8
0
100
AcDbLine
 10
38.33191052147596
 20
379.0906433664696
 30
0.0
 11
38.33191052147596
 21
380.1506413664699
 31
0.0
  0
LINE
  5
817
330
65
100
AcDbEntity
  8
0
100
AcDbLine
 10
38.33191052147596
 20
388.8506493664697
 30
0.0
 11
38.33191052147596
 21
390.2206393664698
 31
0.0
  0
LINE
  5
818
330
65
100
AcDbEntity
  8
0
100
AcDbLine
 10
38.33191052147596
 20
408.8706393664699
 30
0.0
 11
38.33191052147596
 21
410.0306593664696
 31
0.0
  0
LINE
  5
819
330
65
100
AcDbEntity
  8
0
100
AcDbLine
 10
38.33191052147596
 20
398.8706593664699
 30
0.0
 11
38.33191052147596
 21
400.0906393664696
 31
0.0
  0
LINE
  5
81A
330
65
100
AcDbEntity
  8
0
100
AcDbLine
 10
40.33191052147595
 20
410.48063936647
 30
0.0
 11
37.33191052147596
 21
410.48063936647
 31
0.0
  0
LINE
  5
81B
330
65
100
AcDbEntity
  8
0
100
AcDbLine
 10
40.33191052147595
 20
408.4806493664697
 30
0.0
 11
37.33191052147596
 21
408.4806493664697
 31
0.0
  0
LINE
  5
81C
330
65
100
AcDbEntity
  8
0
100
AcDbLine
 10
40.33191052147595
 20
400.4806593664695
 30
0.0
 11
37.33191052147596
 21
400.4806593664695
 31
0.0
  0
LINE
  5
81D
330
65
100
AcDbEntity
  8
0
100
AcDbLine
 10
40.33191052147595
 20
398.48063936647
 30
0.0
 11
37.33191052147596
 21
398.48063936647
 31
0.0
  0
LINE
  5
81E
330
65
100
AcDbEntity
  8
0
100
AcDbLine
 10
40.33191052147595
 20
390.4806493664698
 30
0.0
 11
37.33191052147596
 21
390.4806493664698
 31
0.0
  0
LINE
  5
81F
330
65
100
AcDbEntity
  8
0
100
AcDbLine
 10
40.33191052147595
 20
388.4806593664695
 30
0.0
 11
37.33191052147596
 21
388.4806593664695
 31
0.0
  0
LINE
  5
820
330
65
100
AcDbEntity
  8
0
100
AcDbLine
 10
38.19196052147709
 20
380.7806693664698
 30
0.0
 11
37.0419305214764
 21
381.1406693664697
 31
0.0
  0
LINE
  5
821
330
65
100
AcDbEntity
  8
0
100
AcDbLine
 10
38.48194052147665
 20
380.7406533664695
 30
0.0
 11
40.33191052147595
 21
380.7406533664695
 31
0.0
  0
LINE
  5
822
330
65
100
AcDbEntity
  8
0
100
AcDbLine
 10
38.14191052147726
 20
378.8706733664696
 30
0.0
 11
36.94196052147709
 21
379.3906393664699
 31
0.0
  0
LINE
  5
823
330
65
100
AcDbEntity
  8
0
100
AcDbLine
 10
38.53192052147642
 20
378.7906483664698
 30
0.0
 11
40.63190052147729
 21
378.7906483664698
 31
0.0
  0
LINE
  5
824
330
65
100
AcDbEntity
  8
0
100
AcDbLine
 10
36.33197052147625
 20
365.8906393664699
 30
0.0
 11
36.33197052147625
 21
409.4806593664695
 31
0.0
  0
LINE
  5
825
330
65
100
AcDbEntity
  8
0
100
AcDbLine
 10
41.33191052147593
 20
357.0506503664698
 30
0.0
 11
41.33191052147593
 21
414.4806493664696
 31
0.0
  0
LINE
  5
826
330
65
100
AcDbEntity
  8
0
100
AcDbLine
 10
53.33204317218225
 20
418.4806493664696
 30
0.0
 11
46.88196052147759
 21
418.4806493664696
 31
0.0
  0
LINE
  5
827
330
65
100
AcDbEntity
  8
0
100
AcDbLine
 10
53.33203574654726
 20
420.4806493664698
 30
0.0
 11
46.88196052147759
 21
420.4806493664698
 31
0.0
  0
LINE
  5
828
330
65
100
AcDbEntity
  8
0
100
AcDbLine
 10
53.33200604404192
 20
428.48063936647
 30
0.0
 11
46.88196052147759
 21
428.48063936647
 31
0.0
  0
LINE
  5
829
330
65
100
AcDbEntity
  8
0
100
AcDbLine
 10
53.33199861836874
 20
430.4806493664696
 30
0.0
 11
46.88196052147759
 21
430.4806493664696
 31
0.0
  0
LINE
  5
82A
330
65
100
AcDbEntity
  8
0
100
AcDbLine
 10
45.50189052147652
 20
476.2706593664693
 30
0.0
 11
44.61194052147583
 21
472.7406593664696
 31
0.0
  0
LINE
  5
82B
330
65
100
AcDbEntity
  8
0
100
AcDbLine
 10
43.16193052147718
 20
471.6006493664696
 30
0.0
 11
44.81195052147632
 21
471.6006493664696
 31
0.0
  0
LINE
  5
82C
330
65
100
AcDbEntity
  8
0
100
AcDbLine
 10
45.52191052147644
 20
474.6106693664698
 30
0.0
 11
44.60193052147586
 21
470.7306693664697
 31
0.0
  0
LINE
  5
82D
330
65
100
AcDbEntity
  8
0
100
AcDbLine
 10
43.14191052147726
 20
469.5806593664697
 30
0.0
 11
45.20197052147705
 21
469.5806593664697
 31
0.0
  0
LINE
  5
82E
330
65
100
AcDbEntity
  8
0
100
AcDbLine
 10
45.54187052147607
 20
471.1706693664696
 30
0.0
 11
44.58185052147746
 21
466.7006693664695
 31
0.0
  0
LINE
  5
82F
330
65
100
AcDbEntity
  8
0
100
AcDbLine
 10
43.12189052147732
 20
465.5206593664693
 30
0.0
 11
45.53192052147642
 21
465.5206593664693
 31
0.0
  0
LINE
  5
830
330
65
100
AcDbEntity
  8
0
100
AcDbLine
 10
47.44190052147678
 20
477.7806393664696
 30
0.0
 11
54.04417232065497
 21
477.7806393664696
 31
0.0
  0
LINE
  5
831
330
65
100
AcDbEntity
  8
0
100
AcDbLine
 10
47.47193052147667
 20
476.1506293664699
 30
0.0
 11
53.50807981948674
 21
476.1506293664699
 31
0.0
  0
LINE
  5
832
330
65
100
AcDbEntity
  8
0
100
AcDbLine
 10
47.50196052147657
 20
472.7506393664695
 30
0.0
 11
53.33184167759647
 21
472.7506393664695
 31
0.0
  0
LINE
  5
833
330
65
100
AcDbEntity
  8
0
100
AcDbLine
 10
45.05200052147666
 20
462.8306693664696
 30
0.0
 11
45.5919805214762
 21
465.8206593664696
 31
0.0
  0
LINE
  5
834
330
65
100
AcDbEntity
  8
0
100
AcDbLine
 10
47.56195052147631
 20
467.46065936647
 30
0.0
 11
53.33186131832917
 21
467.46065936647
 31
0.0
  0
LINE
  5
835
330
65
100
AcDbEntity
  8
0
100
AcDbLine
 10
53.33211000286611
 20
400.4806593664695
 30
0.0
 11
46.88196052147759
 21
400.4806593664695
 31
0.0
  0
LINE
  5
836
330
65
100
AcDbEntity
  8
0
100
AcDbLine
 10
41.33191052147593
 20
462.8306593664698
 30
0.0
 11
51.33197052147625
 21
462.8306593664698
 31
0.0
  0
LINE
  5
837
330
65
100
AcDbEntity
  8
0
100
AcDbLine
 10
41.33191052147593
 20
457.1706493664698
 30
0.0
 11
51.33197052147625
 21
457.1706493664698
 31
0.0
  0
LINE
  5
838
330
65
100
AcDbEntity
  8
0
100
AcDbLine
 10
41.33191052147593
 20
448.7906493664696
 30
0.0
 11
51.33197052147625
 21
448.7906493664696
 31
0.0
  0
LINE
  5
839
330
65
100
AcDbEntity
  8
0
100
AcDbLine
 10
51.33197052147625
 20
462.8306593664698
 30
0.0
 11
51.33197052147625
 21
448.7906493664696
 31
0.0
  0
LINE
  5
83A
330
65
100
AcDbEntity
  8
0
100
AcDbLine
 10
34.83197052147625
 20
431.7606493664695
 30
0.0
 11
36.33197052147625
 21
431.7606493664695
 31
0.0
  0
LINE
  5
83B
330
65
100
AcDbEntity
  8
0
100
AcDbLine
 10
34.83191052147595
 20
434.4806693664696
 30
0.0
 11
36.33191052147596
 21
434.6106693664697
 31
0.0
  0
LINE
  5
83C
330
65
100
AcDbEntity
  8
0
100
AcDbLine
 10
34.83197052147625
 20
434.48063936647
 30
0.0
 11
34.83197052147625
 21
394.4806593664695
 31
0.0
  0
LINE
  5
83D
330
65
100
AcDbEntity
  8
0
100
AcDbLine
 10
38.33191052147596
 20
463.9806493664696
 30
0.0
 11
38.33191052147596
 21
463.45064936647
 31
0.0
  0
LINE
  5
83E
330
65
100
AcDbEntity
  8
0
100
AcDbLine
 10
38.33191052147596
 20
461.8806593664697
 30
0.0
 11
38.33191052147596
 21
461.3306593664699
 31
0.0
  0
LINE
  5
83F
330
65
100
AcDbEntity
  8
0
100
AcDbLine
 10
38.33191052147596
 20
457.31063936647
 30
0.0
 11
38.33191052147596
 21
456.8406493664697
 31
0.0
  0
LINE
  5
840
330
65
100
AcDbEntity
  8
0
100
AcDbLine
 10
38.33191052147596
 20
449.8706493664696
 30
0.0
 11
38.33191052147596
 21
448.8106493664696
 31
0.0
  0
LINE
  5
841
330
65
100
AcDbEntity
  8
0
100
AcDbLine
 10
38.33191052147596
 20
440.1106593664696
 30
0.0
 11
38.33191052147596
 21
438.7406593664696
 31
0.0
  0
LINE
  5
842
330
65
100
AcDbEntity
  8
0
100
AcDbLine
 10
38.33191052147596
 20
420.0906493664699
 30
0.0
 11
38.33191052147596
 21
418.9306293664696
 31
0.0
  0
LINE
  5
843
330
65
100
AcDbEntity
  8
0
100
AcDbLine
 10
38.33191052147596
 20
430.0906393664696
 30
0.0
 11
38.33191052147596
 21
428.8806593664697
 31
0.0
  0
LINE
  5
844
330
65
100
AcDbEntity
  8
0
100
AcDbLine
 10
40.33191052147595
 20
418.4806493664696
 30
0.0
 11
37.33191052147596
 21
418.4806493664696
 31
0.0
  0
LINE
  5
845
330
65
100
AcDbEntity
  8
0
100
AcDbLine
 10
40.33191052147595
 20
420.4806493664698
 30
0.0
 11
37.33191052147596
 21
420.4806493664698
 31
0.0
  0
LINE
  5
846
330
65
100
AcDbEntity
  8
0
100
AcDbLine
 10
40.33191052147595
 20
428.48063936647
 30
0.0
 11
37.33191052147596
 21
428.48063936647
 31
0.0
  0
LINE
  5
847
330
65
100
AcDbEntity
  8
0
100
AcDbLine
 10
40.33191052147595
 20
430.4806493664696
 30
0.0
 11
37.33191052147596
 21
430.4806493664696
 31
0.0
  0
LINE
  5
848
330
65
100
AcDbEntity
  8
0
100
AcDbLine
 10
40.33191052147595
 20
438.4806493664696
 30
0.0
 11
37.33191052147596
 21
438.4806493664696
 31
0.0
  0
LINE
  5
849
330
65
100
AcDbEntity
  8
0
100
AcDbLine
 10
40.33191052147595
 20
440.48063936647
 30
0.0
 11
37.33191052147596
 21
440.48063936647
 31
0.0
  0
LINE
  5
84A
330
65
100
AcDbEntity
  8
0
100
AcDbLine
 10
38.11194052147584
 20
460.8706693664696
 30
0.0
 11
36.86188052147736
 21
460.2006693664694
 31
0.0
  0
LINE
  5
84B
330
65
100
AcDbEntity
  8
0
100
AcDbLine
 10
38.12195052147763
 20
462.9806793664698
 30
0.0
 11
36.88196052147759
 21
462.3506793664698
 31
0.0
  0
LINE
  5
84C
330
65
100
AcDbEntity
  8
0
100
AcDbLine
 10
38.19196052147709
 20
448.1806493664696
 30
0.0
 11
37.0419305214764
 21
447.8306393664693
 31
0.0
  0
LINE
  5
84D
330
65
100
AcDbEntity
  8
0
100
AcDbLine
 10
38.10193052147589
 20
456.3306293664695
 30
0.0
 11
36.82190052147598
 21
455.5806293664696
 31
0.0
  0
LINE
  5
84E
330
65
100
AcDbEntity
  8
0
100
AcDbLine
 10
38.57190052147597
 20
463.0806393664695
 30
0.0
 11
40.83197052147625
 21
463.0806393664695
 31
0.0
  0
LINE
  5
84F
330
65
100
AcDbEntity
  8
0
100
AcDbLine
 10
38.58197052147625
 20
460.9806493664698
 30
0.0
 11
40.33191052147595
 21
460.9806493664698
 31
0.0
  0
LINE
  5
850
330
65
100
AcDbEntity
  8
0
100
AcDbLine
 10
38.60193052147589
 20
456.4706393664698
 30
0.0
 11
40.33191052147595
 21
456.4706393664698
 31
0.0
  0
LINE
  5
851
330
65
100
AcDbEntity
  8
0
100
AcDbLine
 10
38.48194052147665
 20
448.2206393664696
 30
0.0
 11
40.33191052147595
 21
448.2206393664696
 31
0.0
  0
LINE
  5
852
330
65
100
AcDbEntity
  8
0
100
AcDbLine
 10
38.6319605214776
 20
457.6106593664696
 30
0.0
 11
41.33191052147593
 21
457.6106593664696
 31
0.0
  0
LINE
  5
853
330
65
100
AcDbEntity
  8
0
100
AcDbLine
 10
38.61194052147585
 20
462.1206393664698
 30
0.0
 11
41.33191052147593
 21
462.1206393664698
 31
0.0
  0
LINE
  5
854
330
65
100
AcDbEntity
  8
0
100
AcDbLine
 10
38.14191052147726
 20
450.0906693664697
 30
0.0
 11
36.94190052147678
 21
449.5806693664696
 31
0.0
  0
LINE
  5
855
330
65
100
AcDbEntity
  8
0
100
AcDbLine
 10
38.08191052147595
 20
457.4406093664697
 30
0.0
 11
36.78192052147642
 21
456.5906193664696
 31
0.0
  0
LINE
  5
856
330
65
100
AcDbEntity
  8
0
100
AcDbLine
 10
38.09192052147592
 20
461.9806493664698
 30
0.0
 11
36.81189052147602
 21
461.21065936647
 31
0.0
  0
LINE
  5
857
330
65
100
AcDbEntity
  8
0
100
AcDbLine
 10
38.10193052147589
 20
464.1006493664696
 30
0.0
 11
36.83191052147595
 21
463.3606393664696
 31
0.0
  0
LINE
  5
858
330
65
100
AcDbEntity
  8
0
100
AcDbLine
 10
38.53192052147642
 20
450.1706493664697
 30
0.0
 11
40.63190052147729
 21
450.1706493664697
 31
0.0
  0
LINE
  5
859
330
65
100
AcDbEntity
  8
0
100
AcDbLine
 10
38.60193052147589
 20
464.2306493664698
 30
0.0
 11
40.83197052147625
 21
464.2306493664698
 31
0.0
  0
LINE
  5
85A
330
65
100
AcDbEntity
  8
0
100
AcDbLine
 10
36.33197052147625
 20
462.5006593664699
 30
0.0
 11
36.33197052147625
 21
419.48063936647
 31
0.0
  0
LINE
  5
85B
330
65
100
AcDbEntity
  8
0
100
AcDbLine
 10
41.33191052147593
 20
471.9106393664699
 30
0.0
 11
41.33191052147593
 21
414.4806493664696
 31
0.0
  0
LINE
  5
85C
330
65
100
AcDbEntity
  8
0
100
AcDbLine
 10
41.33191052147593
 20
471.9106693664695
 30
0.0
 11
44.1518605214769
 21
471.9806693664696
 31
0.0
  0
LINE
  5
85D
330
65
100
AcDbEntity
  8
0
100
AcDbLine
 10
43.16193052147718
 20
357.3606483664697
 30
0.0
 11
44.81195052147632
 21
357.3606483664697
 31
0.0
  0
LINE
  5
85E
330
65
100
AcDbEntity
  8
0
100
AcDbLine
 10
45.52185052147614
 20
354.3506533664697
 30
0.0
 11
44.60187052147739
 21
358.2306503664697
 31
0.0
  0
LINE
  5
85F
330
65
100
AcDbEntity
  8
0
100
AcDbLine
 10
45.50189052147652
 20
352.6906503664696
 30
0.0
 11
44.61188052147735
 21
356.2306433664697
 31
0.0
  0
LINE
  5
860
330
65
100
AcDbEntity
  8
0
100
AcDbLine
 10
38.33191052147596
 20
364.9806503664696
 30
0.0
 11
38.33191052147596
 21
365.5106493664695
 31
0.0
  0
LINE
  5
861
330
65
100
AcDbEntity
  8
0
100
AcDbLine
 10
51.33197052147625
 20
366.1306443664695
 30
0.0
 11
51.33197052147625
 21
380.1806473664698
 31
0.0
  0
LINE
  5
862
330
65
100
AcDbEntity
  8
0
100
AcDbLine
 10
38.11194052147584
 20
368.1006463664695
 30
0.0
 11
36.86194052147584
 21
368.7606343664699
 31
0.0
  0
LINE
  5
863
330
65
100
AcDbEntity
  8
0
100
AcDbLine
 10
38.33191052147596
 20
367.0806413664696
 30
0.0
 11
38.33191052147596
 21
367.6306443664695
 31
0.0
  0
LINE
  5
864
330
65
100
AcDbEntity
  8
0
100
AcDbLine
 10
41.33191052147593
 20
366.1306443664695
 30
0.0
 11
51.33197052147625
 21
366.1306443664695
 31
0.0
  0
LINE
  5
865
330
65
100
AcDbEntity
  8
0
100
AcDbLine
 10
38.33191052147596
 20
371.6506563664701
 30
0.0
 11
38.33191052147596
 21
372.1206423664697
 31
0.0
  0
LINE
  5
866
330
65
100
AcDbEntity
  8
0
100
AcDbLine
 10
45.05188052147604
 20
366.13066036647
 30
0.0
 11
45.5919205214759
 21
363.14065436647
 31
0.0
  0
LINE
  5
867
330
65
100
AcDbEntity
  8
0
100
AcDbLine
 10
47.56195052147631
 20
361.5006393664697
 30
0.0
 11
53.33225472857884
 21
361.5006393664697
 31
0.0
  0
LINE
  5
868
330
65
100
AcDbEntity
  8
0
100
AcDbLine
 10
47.44190052147678
 20
351.1806553664698
 30
0.0
 11
54.04461487249136
 21
351.1806553664698
 31
0.0
  0
LINE
  5
869
330
65
100
AcDbEntity
  8
0
100
AcDbLine
 10
47.50196052147657
 20
356.2206563664696
 30
0.0
 11
53.33227433219509
 21
356.2206563664696
 31
0.0
  0
LINE
  5
86A
330
65
100
AcDbEntity
  8
0
100
AcDbLine
 10
41.33191052147593
 20
380.1806473664698
 30
0.0
 11
51.33197052147625
 21
380.1806473664698
 31
0.0
  0
LINE
  5
86B
330
65
100
AcDbEntity
  8
0
100
AcDbLine
 10
38.10193052147589
 20
372.6306673664697
 30
0.0
 11
36.82196052147629
 21
373.3806523664695
 31
0.0
  0
LINE
  5
86C
330
65
100
AcDbEntity
  8
0
100
AcDbLine
 10
38.58197052147625
 20
367.9806503664697
 30
0.0
 11
40.33191052147595
 21
367.9806503664697
 31
0.0
  0
LINE
  5
86D
330
65
100
AcDbEntity
  8
0
100
AcDbLine
 10
38.6319605214776
 20
371.3606403664696
 30
0.0
 11
41.33191052147593
 21
371.3606403664696
 31
0.0
  0
LINE
  5
86E
330
65
100
AcDbEntity
  8
0
100
AcDbLine
 10
38.60193052147589
 20
372.50065536647
 30
0.0
 11
40.33191052147595
 21
372.50065536647
 31
0.0
  0
LINE
  5
86F
330
65
100
AcDbEntity
  8
0
100
AcDbLine
 10
38.12189052147733
 20
365.9906753664696
 30
0.0
 11
36.88190052147729
 21
366.6206733664696
 31
0.0
  0
LINE
  5
870
330
65
100
AcDbEntity
  8
0
100
AcDbLine
 10
38.57190052147597
 20
365.88066036647
 30
0.0
 11
40.83197052147625
 21
365.88066036647
 31
0.0
  0
LINE
  5
871
330
65
100
AcDbEntity
  8
0
100
AcDbLine
 10
38.60193052147589
 20
364.7306433664697
 30
0.0
 11
40.83197052147625
 21
364.7306433664697
 31
0.0
  0
LINE
  5
872
330
65
100
AcDbEntity
  8
0
100
AcDbLine
 10
38.09192052147592
 20
366.9806813664696
 30
0.0
 11
36.81189052147602
 21
367.7506933664696
 31
0.0
  0
LINE
  5
873
330
65
100
AcDbEntity
  8
0
100
AcDbLine
 10
38.08191052147595
 20
371.5206593664699
 30
0.0
 11
36.78192052147642
 21
372.3706653664696
 31
0.0
  0
LINE
  5
874
330
65
100
AcDbEntity
  8
0
100
AcDbLine
 10
41.33191052147593
 20
357.0506583664698
 30
0.0
 11
44.1518605214769
 21
356.9806583664696
 31
0.0
  0
LINE
  5
875
330
65
100
AcDbEntity
  8
0
100
AcDbLine
 10
38.10193052147589
 20
364.8706803664696
 30
0.0
 11
36.83191052147595
 21
365.6006763664696
 31
0.0
  0
LINE
  5
876
330
65
100
AcDbEntity
  8
0
100
AcDbLine
 10
38.61194052147585
 20
366.8406593664697
 30
0.0
 11
41.33191052147593
 21
366.8406593664697
 31
0.0
  0
LINE
  5
877
330
65
100
AcDbEntity
  8
0
100
AcDbLine
 10
53.33189304064763
 20
458.9166583525818
 30
0.0
 11
51.33191052147593
 21
458.8006593664696
 31
0.0
  0
LINE
  5
878
330
65
100
AcDbEntity
  8
0
100
AcDbLine
 10
53.33222300626039
 20
370.0446405555437
 30
0.0
 11
51.33191052147593
 21
370.1606583664699
 31
0.0
  0
ARC
  5
879
330
65
100
AcDbEntity
  8
0
100
AcDbCircle
 10
46.88196052147759
 20
399.4806493664698
 30
0.0
 40
1.0
100
AcDbArc
 50
90.00000299998466
 51
270.0
  0
ARC
  5
87A
330
65
100
AcDbEntity
  8
0
100
AcDbCircle
 10
45.59613052147688
 20
409.4806593664695
 30
0.0
 40
1.270012
100
AcDbArc
 50
89.73874800001359
 51
270.2612399999751
  0
ARC
  5
87B
330
65
100
AcDbEntity
  8
0
100
AcDbCircle
 10
45.66193052147718
 20
399.4706493664697
 30
0.0
 40
1.330008
100
AcDbArc
 50
90.00000299998466
 51
270.0
  0
ARC
  5
87C
330
65
100
AcDbEntity
  8
0
100
AcDbCircle
 10
46.88196052147759
 20
409.4806593664695
 30
0.0
 40
1.0
100
AcDbArc
 50
90.00000299998466
 51
270.0
  0
ARC
  5
87D
330
65
100
AcDbEntity
  8
0
100
AcDbCircle
 10
46.88196052147759
 20
429.4806493664697
 30
0.0
 40
1.0
100
AcDbArc
 50
90.00000299998466
 51
270.0
  0
ARC
  5
87E
330
65
100
AcDbEntity
  8
0
100
AcDbCircle
 10
46.88196052147759
 20
419.48063936647
 30
0.0
 40
1.0
100
AcDbArc
 50
90.00000299998466
 51
270.0
  0
ARC
  5
87F
330
65
100
AcDbEntity
  8
0
100
AcDbCircle
 10
45.66193052147718
 20
429.49064936647
 30
0.0
 40
1.330008
100
AcDbArc
 50
90.00000299998466
 51
270.0
  0
ARC
  5
880
330
65
100
AcDbEntity
  8
0
100
AcDbCircle
 10
45.59613052147688
 20
419.4856593664696
 30
0.0
 40
1.265012
100
AcDbArc
 50
89.73771599998853
 51
270.26227999999
  0
ARC
  5
881
330
65
100
AcDbEntity
  8
0
100
AcDbCircle
 10
47.44342052147657
 20
353.1837833664696
 30
0.0
 40
2.0031319
100
AcDbArc
 50
194.2515899999959
 51
269.9575499999733
  0
ARC
  5
882
330
65
100
AcDbEntity
  8
0
100
AcDbCircle
 10
43.15973052147636
 20
355.8625253664696
 30
0.0
 40
1.4981281
100
AcDbArc
 50
14.22457499999793
 51
89.91611400002499
  0
ARC
  5
883
330
65
100
AcDbEntity
  8
0
100
AcDbCircle
 10
43.14533052147635
 20
357.8831393664696
 30
0.0
 40
1.497512
100
AcDbArc
 50
13.41823299999111
 51
90.1287929999923
  0
ARC
  5
884
330
65
100
AcDbEntity
  8
0
100
AcDbCircle
 10
47.46894052147763
 20
354.8114083664696
 30
0.0
 40
2.000755999999999
100
AcDbArc
 50
193.3141600000166
 51
270.0864499999706
  0
ARC
  5
885
330
65
100
AcDbEntity
  8
0
100
AcDbCircle
 10
43.1150505214773
 20
361.9515603664697
 30
0.0
 40
1.4991
100
AcDbArc
 50
11.89856000000028
 51
89.7366579999972
  0
ARC
  5
886
330
65
100
AcDbEntity
  8
0
100
AcDbCircle
 10
47.49683052147702
 20
358.2200303664696
 30
0.0
 40
1.999391999999999
100
AcDbArc
 50
192.1080399999843
 51
270.1458199999738
  0
ARC
  5
887
330
65
100
AcDbEntity
  8
0
100
AcDbCircle
 10
47.55799052147631
 20
363.4990753664699
 30
0.0
 40
1.998443999999999
100
AcDbArc
 50
190.3323999999907
 51
270.1136900000135
  0
ARC
  5
888
330
65
100
AcDbEntity
  8
0
100
AcDbCircle
 10
40.832340521476
 20
364.2310853664696
 30
0.0
 40
0.49955601
100
AcDbArc
 50
359.9491099999902
 51
90.05089400001711
  0
ARC
  5
889
330
65
100
AcDbEntity
  8
0
100
AcDbCircle
 10
40.82849052147685
 20
366.3840393664697
 30
0.0
 40
0.50340396
100
AcDbArc
 50
270.3861300000047
 51
359.6138699999954
  0
ARC
  5
88A
330
65
100
AcDbEntity
  8
0
100
AcDbCircle
 10
40.32788052147589
 20
368.9847323664697
 30
0.0
 40
1.004083999999998
100
AcDbArc
 50
270.2326299999776
 51
359.7673699999963
  0
ARC
  5
88B
330
65
100
AcDbEntity
  8
0
100
AcDbCircle
 10
37.33039052147615
 20
374.2399513664697
 30
0.0
 40
0.9984599899999999
100
AcDbArc
 50
179.9596199999929
 51
239.386550000017
  0
ARC
  5
88C
330
65
100
AcDbEntity
  8
0
100
AcDbCircle
 10
40.32947052147756
 20
373.5031113664696
 30
0.0
 40
1.00246
100
AcDbArc
 50
270.1403800000185
 51
359.8596200000076
  0
ARC
  5
88D
330
65
100
AcDbEntity
  8
0
100
AcDbCircle
 10
37.33069052147584
 20
368.6041473664697
 30
0.0
 40
0.9987800700000001
100
AcDbArc
 50
179.6266699999871
 51
238.7085500000132
  0
ARC
  5
88E
330
65
100
AcDbEntity
  8
0
100
AcDbCircle
 10
37.32965052147665
 20
369.6419433664698
 30
0.0
 40
0.9977079599999999
100
AcDbArc
 50
180.074050000006
 51
242.044760000008
  0
ARC
  5
88F
330
65
100
AcDbEntity
  8
0
100
AcDbCircle
 10
37.33100052147711
 20
373.2053363664696
 30
0.0
 40
0.9991000299999999
100
AcDbArc
 50
179.6954200000075
 51
236.6617699999889
  0
ARC
  5
890
330
65
100
AcDbEntity
  8
0
100
AcDbCircle
 10
38.59528052147652
 20
373.5016473664698
 30
0.0
 40
1.001012
100
AcDbArc
 50
240.471360000024
 51
270.3801999999971
  0
ARC
  5
891
330
65
100
AcDbEntity
  8
0
100
AcDbCircle
 10
38.62470052147728
 20
372.3611513664697
 30
0.0
 40
1.000536
100
AcDbArc
 50
237.1464000000003
 51
270.4132200000151
  0
ARC
  5
892
330
65
100
AcDbEntity
  8
0
100
AcDbCircle
 10
38.58710052147762
 20
368.9812763664697
 30
0.0
 40
1.000628
100
AcDbArc
 50
241.6498600000027
 51
269.7047099999994
  0
ARC
  5
893
330
65
100
AcDbEntity
  8
0
100
AcDbCircle
 10
38.6032705214766
 20
367.8443063664697
 30
0.0
 40
1.003687999999999
100
AcDbArc
 50
239.3702699999781
 51
270.4927500000105
  0
ARC
  5
894
330
65
100
AcDbEntity
  8
0
100
AcDbCircle
 10
38.5777605214771
 20
366.8799123664696
 30
0.0
 40
0.99928796
100
AcDbArc
 50
242.8612699999917
 51
269.6661900000078
  0
ARC
  5
895
330
65
100
AcDbEntity
  8
0
100
AcDbCircle
 10
38.61261052147711
 20
365.7317263664697
 30
0.0
 40
1.001135899999998
100
AcDbArc
 50
239.3279999999797
 51
269.3875099999863
  0
ARC
  5
896
330
65
100
AcDbEntity
  8
0
100
AcDbCircle
 10
37.3275805214762
 20
367.5110083664697
 30
0.0
 40
0.9956679899999999
100
AcDbArc
 50
180.0204299999876
 51
243.4098299999791
  0
ARC
  5
897
330
65
100
AcDbEntity
  8
0
100
AcDbCircle
 10
37.32953052147605
 20
366.4653153664697
 30
0.0
 40
0.99762404
100
AcDbArc
 50
180.2675100000039
 51
240.0795400000285
  0
ARC
  5
898
330
65
100
AcDbEntity
  8
0
100
AcDbCircle
 10
50.49530052147748
 20
372.8925693664698
 30
0.0
 40
4.998583799999998
100
AcDbArc
 50
55.42113469021918
 51
80.36497600001673
  0
ARC
  5
899
330
65
100
AcDbEntity
  8
0
100
AcDbCircle
 10
50.96192052147671
 20
376.8278263664699
 30
0.0
 40
6.008592099999998
100
AcDbArc
 50
273.5309500000091
 51
293.233841530616
  0
ARC
  5
89A
330
65
100
AcDbEntity
  8
0
100
AcDbCircle
 10
50.95270052147679
 20
452.1477393664696
 30
0.0
 40
6.004915699999998
100
AcDbArc
 50
66.65864874170376
 51
86.37909399999323
  0
ARC
  5
89B
330
65
100
AcDbEntity
  8
0
100
AcDbCircle
 10
50.49024052147615
 20
456.0734693664696
 30
0.0
 40
5.0041122
100
AcDbArc
 50
279.6835699999867
 51
304.601732580503
  0
ARC
  5
89C
330
65
100
AcDbEntity
  8
0
100
AcDbCircle
 10
40.33209052147685
 20
397.4807993664697
 30
0.0
 40
0.9998440099999999
100
AcDbArc
 50
359.9909799999929
 51
90.00901800001726
  0
ARC
  5
89D
330
65
100
AcDbEntity
  8
0
100
AcDbCircle
 10
40.32703052147735
 20
401.4855593664698
 30
0.0
 40
1.004928
100
AcDbArc
 50
270.2802399999739
 51
359.71976
  0
ARC
  5
89E
330
65
100
AcDbEntity
  8
0
100
AcDbCircle
 10
40.33209052147685
 20
407.4807993664696
 30
0.0
 40
0.99985206
100
AcDbArc
 50
359.9914299999914
 51
90.00857399998819
  0
ARC
  5
89F
330
65
100
AcDbEntity
  8
0
100
AcDbCircle
 10
40.32697052147704
 20
411.4855693664696
 30
0.0
 40
1.004931899999998
100
AcDbArc
 50
270.2804500000075
 51
359.7195499999923
  0
ARC
  5
8A0
330
65
100
AcDbEntity
  8
0
100
AcDbCircle
 10
37.32697052147705
 20
409.4855793664697
 30
0.0
 40
0.9950800499999999
100
AcDbArc
 50
89.71589399999627
 51
180.2840999999867
  0
ARC
  5
8A1
330
65
100
AcDbEntity
  8
0
100
AcDbCircle
 10
37.33209052147686
 20
409.4808693664696
 30
0.0
 40
1.000204
100
AcDbArc
 50
180.0117000000082
 51
269.9882999999918
  0
ARC
  5
8A2
330
65
100
AcDbEntity
  8
0
100
AcDbCircle
 10
37.32697052147705
 20
399.4855693664696
 30
0.0
 40
0.99508399
100
AcDbArc
 50
89.716106000006
 51
180.2838899999914
  0
ARC
  5
8A3
330
65
100
AcDbEntity
  8
0
100
AcDbCircle
 10
37.33209052147686
 20
399.48085936647
 30
0.0
 40
1.000199999999998
100
AcDbArc
 50
180.01150000001
 51
269.9885100000173
  0
ARC
  5
8A4
330
65
100
AcDbEntity
  8
0
100
AcDbCircle
 10
37.32697052147705
 20
389.4855893664697
 30
0.0
 40
0.99508399
100
AcDbArc
 50
89.71632400000261
 51
180.2836799999999
  0
ARC
  5
8A5
330
65
100
AcDbEntity
  8
0
100
AcDbCircle
 10
37.33209052147686
 20
389.4808493664697
 30
0.0
 40
1.000195999999998
100
AcDbArc
 50
180.0112799999835
 51
269.9887199999905
  0
ARC
  5
8A6
330
65
100
AcDbEntity
  8
0
100
AcDbCircle
 10
37.32843052147655
 20
380.3091193664696
 30
0.0
 40
0.9964760499999998
100
AcDbArc
 50
179.9125800000137
 51
247.1796599999712
  0
ARC
  5
8A7
330
65
100
AcDbEntity
  8
0
100
AcDbCircle
 10
37.32831052147594
 20
382.0949923664699
 30
0.0
 40
0.9963800299999999
100
AcDbArc
 50
180.2494899999937
 51
253.2970699999812
  0
ARC
  5
8A8
330
65
100
AcDbEntity
  8
0
100
AcDbCircle
 10
38.47248052147735
 20
381.7433383664699
 30
0.0
 40
1.002728
100
AcDbArc
 50
253.7529699999885
 51
270.540400000006
  0
ARC
  5
8A9
330
65
100
AcDbEntity
  8
0
100
AcDbCircle
 10
38.53491052147729
 20
379.7958743664697
 30
0.0
 40
1.005223999999999
100
AcDbArc
 50
246.9862899999706
 51
269.8293600000297
  0
ARC
  5
8AA
330
65
100
AcDbEntity
  8
0
100
AcDbCircle
 10
40.63251052147643
 20
378.0912083664695
 30
0.0
 40
0.69944
100
AcDbArc
 50
359.9541600000063
 51
90.04583999996762
  0
ARC
  5
8AB
330
65
100
AcDbEntity
  8
0
100
AcDbCircle
 10
40.33209052147685
 20
387.4808093664698
 30
0.0
 40
0.99984801
100
AcDbArc
 50
359.9911899999906
 51
90.0088069999987
  0
ARC
  5
8AC
330
65
100
AcDbEntity
  8
0
100
AcDbCircle
 10
40.32703052147735
 20
391.4855593664699
 30
0.0
 40
1.004923899999998
100
AcDbArc
 50
270.2800400000124
 51
359.7199700000039
  0
ARC
  5
8AD
330
65
100
AcDbEntity
  8
0
100
AcDbCircle
 10
40.3286205214772
 20
381.7440023664697
 30
0.0
 40
1.003363999999999
100
AcDbArc
 50
270.1917099999922
 51
359.8082800000029
  0
ARC
  5
8AE
330
65
100
AcDbEntity
  8
0
100
AcDbCircle
 10
47.43848052147767
 20
475.7838293664696
 30
0.0
 40
1.996815999999999
100
AcDbArc
 50
89.90143600000719
 51
165.8894100000008
  0
ARC
  5
8AF
330
65
100
AcDbEntity
  8
0
100
AcDbCircle
 10
43.15320052147763
 20
473.1038493664696
 30
0.0
 40
1.503231999999998
100
AcDbArc
 50
270.3313200000061
 51
346.0180300000081
  0
ARC
  5
8B0
330
65
100
AcDbEntity
  8
0
100
AcDbCircle
 10
43.14038052147589
 20
471.0844293664696
 30
0.0
 40
1.503776
100
AcDbArc
 50
270.0598400000175
 51
346.3931299999785
  0
ARC
  5
8B1
330
65
100
AcDbEntity
  8
0
100
AcDbCircle
 10
47.46399052147717
 20
474.1561393664698
 30
0.0
 40
1.994515999999999
100
AcDbArc
 50
89.77133500000606
 51
166.8280399999925
  0
ARC
  5
8B2
330
65
100
AcDbEntity
  8
0
100
AcDbCircle
 10
43.1162105214771
 20
467.02088936647
 30
0.0
 40
1.500248
100
AcDbArc
 50
270.2166199999781
 51
347.6749999999923
  0
ARC
  5
8B3
330
65
100
AcDbEntity
  8
0
100
AcDbCircle
 10
47.49677052147672
 20
470.7513593664694
 30
0.0
 40
1.999288
100
AcDbArc
 50
89.8518150000029
 51
167.894329999994
  0
ARC
  5
8B4
330
65
100
AcDbEntity
  8
0
100
AcDbCircle
 10
47.55298052147735
 20
465.46821936647
 30
0.0
 40
1.992447999999999
100
AcDbArc
 50
89.74210799997145
 51
169.8117900000184
  0
ARC
  5
8B5
330
65
100
AcDbEntity
  8
0
100
AcDbCircle
 10
40.82733052147704
 20
464.7352693664698
 30
0.0
 40
0.5046359900000002
100
AcDbArc
 50
270.5237599999865
 51
359.4762399999875
  0
ARC
  5
8B6
330
65
100
AcDbEntity
  8
0
100
AcDbCircle
 10
40.83356052147609
 20
462.5822893664696
 30
0.0
 40
0.4983640000000002
100
AcDbArc
 50
359.8114099999951
 51
90.18859800000738
  0
ARC
  5
8B7
330
65
100
AcDbEntity
  8
0
100
AcDbCircle
 10
40.33295052147695
 20
459.9816393664696
 30
0.0
 40
0.9990080599999997
100
AcDbArc
 50
359.9431499999842
 51
90.05684299997003
  0
ARC
  5
8B8
330
65
100
AcDbEntity
  8
0
100
AcDbCircle
 10
40.62738052147689
 20
450.8751993664696
 30
0.0
 40
0.7045519900000002
100
AcDbArc
 50
270.3691100000191
 51
359.630890000007
  0
ARC
  5
8B9
330
65
100
AcDbEntity
  8
0
100
AcDbCircle
 10
40.32953052147603
 20
455.4682793664698
 30
0.0
 40
1.002375999999999
100
AcDbArc
 50
0.135591989990894
 51
89.86441000002534
  0
ARC
  5
8BA
330
65
100
AcDbEntity
  8
0
100
AcDbCircle
 10
40.3336205214764
 20
447.2223493664698
 30
0.0
 40
0.9982960199999999
100
AcDbArc
 50
359.9020399999974
 51
90.09796099999894
  0
ARC
  5
8BB
330
65
100
AcDbEntity
  8
0
100
AcDbCircle
 10
40.32703052147735
 20
441.4855593664698
 30
0.0
 40
1.004931899999998
100
AcDbArc
 50
270.28042000001
 51
359.7195799999902
  0
ARC
  5
8BC
330
65
100
AcDbEntity
  8
0
100
AcDbCircle
 10
40.33209052147685
 20
437.4807993664695
 30
0.0
 40
0.99985206
100
AcDbArc
 50
359.9914499999936
 51
90.00854699996954
  0
ARC
  5
8BD
330
65
100
AcDbEntity
  8
0
100
AcDbCircle
 10
40.32703052147735
 20
431.4855593664699
 30
0.0
 40
1.004928
100
AcDbArc
 50
270.2802199999932
 51
359.7197800000068
  0
ARC
  5
8BE
330
65
100
AcDbEntity
  8
0
100
AcDbCircle
 10
40.33209052147685
 20
427.4807893664698
 30
0.0
 40
0.9998440099999999
100
AcDbArc
 50
359.9910099999963
 51
90.00899099999857
  0
ARC
  5
8BF
330
65
100
AcDbEntity
  8
0
100
AcDbCircle
 10
40.32703052147735
 20
421.4855493664696
 30
0.0
 40
1.004923899999998
100
AcDbArc
 50
270.2800100000159
 51
359.7199899999842
  0
ARC
  5
8C0
330
65
100
AcDbEntity
  8
0
100
AcDbCircle
 10
40.33209052147685
 20
417.4807993664696
 30
0.0
 40
0.99984801
100
AcDbArc
 50
359.9912199999939
 51
90.00877899998512
  0
ARC
  5
8C1
330
65
100
AcDbEntity
  8
0
100
AcDbCircle
 10
37.33209052147686
 20
419.4808493664696
 30
0.0
 40
1.000195999999998
100
AcDbArc
 50
180.011250000006
 51
269.9887399999929
  0
ARC
  5
8C2
330
65
100
AcDbEntity
  8
0
100
AcDbCircle
 10
37.32697052147705
 20
419.4855793664697
 30
0.0
 40
0.9950879799999999
100
AcDbArc
 50
89.71634499999632
 51
180.283649999994
  0
ARC
  5
8C3
330
65
100
AcDbEntity
  8
0
100
AcDbCircle
 10
37.33209052147686
 20
429.4808493664696
 30
0.0
 40
1.000199999999998
100
AcDbArc
 50
180.0114700000064
 51
269.9885299999676
  0
ARC
  5
8C4
330
65
100
AcDbEntity
  8
0
100
AcDbCircle
 10
37.32697052147705
 20
429.4855593664698
 30
0.0
 40
0.99508399
100
AcDbArc
 50
89.71613299999097
 51
180.2838700000044
  0
ARC
  5
8C5
330
65
100
AcDbEntity
  8
0
100
AcDbCircle
 10
37.33209052147686
 20
439.4808693664696
 30
0.0
 40
1.000204
100
AcDbArc
 50
180.0116700000045
 51
269.9883199999943
  0
ARC
  5
8C6
330
65
100
AcDbEntity
  8
0
100
AcDbCircle
 10
37.32697052147705
 20
439.4855793664698
 30
0.0
 40
0.9950800499999999
100
AcDbArc
 50
89.71592099998174
 51
180.2840700000056
  0
ARC
  5
8C7
330
65
100
AcDbEntity
  8
0
100
AcDbCircle
 10
37.32831052147594
 20
448.6622293664696
 30
0.0
 40
0.99640006
100
AcDbArc
 50
112.8173900000065
 51
180.0903999999921
  0
ARC
  5
8C8
330
65
100
AcDbEntity
  8
0
100
AcDbCircle
 10
37.32819052147716
 20
446.8763993664699
 30
0.0
 40
0.9962600499999998
100
AcDbArc
 50
106.6974899999862
 51
180.3304899999936
  0
ARC
  5
8C9
330
65
100
AcDbEntity
  8
0
100
AcDbCircle
 10
38.47107052147658
 20
447.22793936647
 30
0.0
 40
0.99277198
100
AcDbArc
 50
89.37480800001306
 51
106.3318199999858
  0
ARC
  5
8CA
330
65
100
AcDbEntity
  8
0
100
AcDbCircle
 10
38.53290052147713
 20
449.1751693664697
 30
0.0
 40
0.99548006
100
AcDbArc
 50
90.05732100000527
 51
113.1270299999954
  0
ARC
  5
8CB
330
65
100
AcDbEntity
  8
0
100
AcDbCircle
 10
37.32636052147609
 20
460.3596193664694
 30
0.0
 40
0.9944360299999999
100
AcDbArc
 50
121.1521699999924
 51
179.9404899999862
  0
ARC
  5
8CC
330
65
100
AcDbEntity
  8
0
100
AcDbCircle
 10
37.325140521476
 20
459.3220793664697
 30
0.0
 40
0.9932120399999998
100
AcDbArc
 50
117.7993400000037
 51
180.0818299999943
  0
ARC
  5
8CD
330
65
100
AcDbEntity
  8
0
100
AcDbCircle
 10
37.32672052147609
 20
455.7582493664696
 30
0.0
 40
0.9948279899999999
100
AcDbArc
 50
123.2046900000065
 51
180.4381299999871
  0
ARC
  5
8CE
330
65
100
AcDbEntity
  8
0
100
AcDbCircle
 10
37.32599052147634
 20
454.7238493664696
 30
0.0
 40
0.99407601
100
AcDbArc
 50
120.4691999999793
 51
180.1846399999942
  0
ARC
  5
8CF
330
65
100
AcDbEntity
  8
0
100
AcDbCircle
 10
38.6113305214767
 20
455.4741693664698
 30
0.0
 40
0.99652004
100
AcDbArc
 50
90.541213000019
 51
120.7432800000094
  0
ARC
  5
8D0
330
65
100
AcDbEntity
  8
0
100
AcDbCircle
 10
38.63855052147665
 20
456.6144593664694
 30
0.0
 40
0.9962120099999999
100
AcDbArc
 50
90.38190599998229
 51
123.9698999999629
  0
ARC
  5
8D1
330
65
100
AcDbEntity
  8
0
100
AcDbCircle
 10
38.56702052147739
 20
459.9852893664698
 30
0.0
 40
0.99546796
100
AcDbArc
 50
89.14144799998203
 51
117.203660000008
  0
ARC
  5
8D2
330
65
100
AcDbEntity
  8
0
100
AcDbCircle
 10
38.60077052147608
 20
461.12644936647
 30
0.0
 40
0.9942600099999999
100
AcDbArc
 50
89.35588199998944
 51
120.78108999998
  0
ARC
  5
8D3
330
65
100
AcDbEntity
  8
0
100
AcDbCircle
 10
38.55670052147615
 20
462.0866193664697
 30
0.0
 40
0.9941280500000001
100
AcDbArc
 50
89.12280800002148
 51
115.9348100000133
  0
ARC
  5
8D4
330
65
100
AcDbEntity
  8
0
100
AcDbCircle
 10
38.59394052147763
 20
463.2347693664697
 30
0.0
 40
0.9959119600000001
100
AcDbArc
 50
89.54144399998432
 51
119.6069900000196
  0
ARC
  5
8D5
330
65
100
AcDbEntity
  8
0
100
AcDbCircle
 10
37.32752052147589
 20
461.4603393664697
 30
0.0
 40
0.99558806
100
AcDbArc
 50
116.5874899999963
 51
179.982250000014
  0
ARC
  5
8D6
330
65
100
AcDbEntity
  8
0
100
AcDbCircle
 10
37.325140521476
 20
462.49856936647
 30
0.0
 40
0.99319202
100
AcDbArc
 50
119.773400000005
 51
179.8795599999874
  0
POINT
  5
8D7
330
65
100
AcDbEntity
  8
0
 60
     1
100
AcDbPoint
 10
1542.039963417234
 20
765.421376771668
 30
0.0
1001
GENIUS_GENODEF_13
1002
{
1000
HIER
1070
     1
1002
}
1002
{
1000
MANEDIT
1070
     0
1002
}
1002
{
1000
NOSEL
1070
     1
1002
}
1002
{
1000
BEHIND
1070
     0
1002
}
1002
{
1000
OTHER
1070
     0
1002
}
1002
{
1000
REACTOR
1002
}
1001
GENIUS_GENOENT_13
1002
{
1000
MYREF
1005
8D7
1002
}
1002
{
1000
GRP
1005
0
1002
}
1001
GENIUS_GENOLIS_13
1002
{
1000
ENT
1005
800
1002
}
1001
GENIUS_GENOBJ-NBEHI-BHF_13
1002
{
1000
OWNER
1000
genbehi
1002
}
1001
GENIUS_GENBH_13
1002
{
1000
BGZLEVEL
1070
    -1
1002
}
1002
{
1000
FGZLEVEL
1070
    -1
1002
}
1002
{
1000
OIUMAP
1000
OIU
1002
}
1002
{
1000
FLAGS
1070
    32
1002
}
1002
{
1000
BGO
1005
0
1002
}
  0
POINT
  5
8D8
330
65
100
AcDbEntity
  8
0
 60
     1
100
AcDbPoint
 10
1682.004286984675
 20
765.421376771668
 30
0.0
1001
GENIUS_GENODEF_13
1002
{
1000
HIER
1070
     1
1002
}
1002
{
1000
MANEDIT
1070
     0
1002
}
1002
{
1000
NOSEL
1070
     1
1002
}
1002
{
1000
BEHIND
1070
     0
1002
}
1002
{
1000
OTHER
1070
     0
1002
}
1002
{
1000
REACTOR
1002
}
1001
GENIUS_GENOENT_13
1002
{
1000
MYREF
1005
8D8
1002
}
1002
{
1000
GRP
1005
0
1002
}
1001
GENIUS_GENOLIS_13
1002
{
1000
ENT
1005
7FF
1002
}
1001
GENIUS_GENOBJ-NBEHI-BHF_13
1002
{
1000
OWNER
1000
genbehi
1002
}
1001
GENIUS_GENBH_13
1002
{
1000
BGZLEVEL
1070
    -1
1002
}
1002
{
1000
FGZLEVEL
1070
    -1
1002
}
1002
{
1000
OIUMAP
1000
OIU
1002
}
1002
{
1000
FLAGS
1070
    32
1002
}
1002
{
1000
BGO
1005
0
1002
}
  0
POINT
  5
8D9
330
65
100
AcDbEntity
  8
0
 60
     1
100
AcDbPoint
 10
1682.022533610915
 20
885.4392149879471
 30
0.0
1001
GENIUS_GENODEF_13
1002
{
1000
HIER
1070
     1
1002
}
1002
{
1000
MANEDIT
1070
     0
1002
}
1002
{
1000
NOSEL
1070
     1
1002
}
1002
{
1000
BEHIND
1070
     0
1002
}
1002
{
1000
OTHER
1070
     0
1002
}
1002
{
1000
REACTOR
1002
}
1001
GENIUS_GENOENT_13
1002
{
1000
MYREF
1005
8D9
1002
}
1002
{
1000
GRP
1005
0
1002
}
1001
GENIUS_GENOLIS_13
1002
{
1000
ENT
1005
7FE
1002
}
1001
GENIUS_GENOBJ-NBEHI-BHF_13
1002
{
1000
OWNER
1000
genbehi
1002
}
1001
GENIUS_GENBH_13
1002
{
1000
BGZLEVEL
1070
    -1
1002
}
1002
{
1000
FGZLEVEL
1070
    -1
1002
}
1002
{
1000
OIUMAP
1000
OIU
1002
}
1002
{
1000
FLAGS
1070
    32
1002
}
1002
{
1000
BGO
1005
0
1002
}
  0
POINT
  5
8DA
330
65
100
AcDbEntity
  8
0
 60
     1
100
AcDbPoint
 10
1542.022125200955
 20
885.4392149879471
 30
0.0
1001
GENIUS_GENODEF_13
1002
{
1000
HIER
1070
     1
1002
}
1002
{
1000
MANEDIT
1070
     0
1002
}
1002
{
1000
NOSEL
1070
     1
1002
}
1002
{
1000
BEHIND
1070
     0
1002
}
1002
{
1000
OTHER
1070
     0
1002
}
1002
{
1000
REACTOR
1002
}
1001
GENIUS_GENOENT_13
1002
{
1000
MYREF
1005
8DA
1002
}
1002
{
1000
GRP
1005
0
1002
}
1001
GENIUS_GENOLIS_13
1002
{
1000
ENT
1005
7FD
1002
}
1001
GENIUS_GENOBJ-NBEHI-BHF_13
1002
{
1000
OWNER
1000
genbehi
1002
}
1001
GENIUS_GENBH_13
1002
{
1000
BGZLEVEL
1070
    -1
1002
}
1002
{
1000
FGZLEVEL
1070
    -1
1002
}
1002
{
1000
OIUMAP
1000
OIU
1002
}
1002
{
1000
FLAGS
1070
    32
1002
}
1002
{
1000
BGO
1005
0
1002
}
  0
ENDSEC
  0
SECTION
  2
OBJECTS
  0
DICTIONARY
  5
C
330
0
100
AcDbDictionary
281
     1
  3
ACAD_2007HEADERVARS_RT
350
FB7
  3
ACAD_COLOR
350
5B
  3
ACAD_GROUP
350
D
  3
ACAD_LAYOUT
350
5A
  3
ACAD_MATERIAL
350
10
  3
ACAD_MLEADERSTYLE
350
5E
  3
ACAD_MLINESTYLE
350
57
  3
ACAD_PLOTSETTINGS
350
59
  3
ACAD_PLOTSTYLENAME
350
E
  3
ACAD_SCALELIST
350
3A
  3
ACAD_TABLESTYLE
350
5C
  3
ACAD_VISUALSTYLE
350
29
  3
ACDB_RECOMPOSE_DATA
350
FB5
  3
AcDbVariableDictionary
350
18C
  3
AcmDictionary
350
E3
  3
AMG
350
6F
  3
AMGSNAPSETTINGS
350
552
  3
DWGPROPS
350
FB6
  0
DICTIONARY
  5
1CC
330
2
100
AcDbDictionary
280
     1
281
     1
  3
ACAD_LAYERSTATES
360
1CD
  0
DICTIONARY
  5
1BD
330
1BC
100
AcDbDictionary
280
     1
281
     1
  0
DICTIONARY
  5
1BF
330
1BE
100
AcDbDictionary
280
     1
281
     1
  0
DICTIONARY
  5
1C1
330
1C0
100
AcDbDictionary
280
     1
281
     1
  0
DICTIONARY
  5
1C3
330
1C2
100
AcDbDictionary
280
     1
281
     1
  0
DICTIONARY
  5
DB7
330
65
100
AcDbDictionary
280
     1
281
     1
  3
ACAD_SORTENTS
360
DB8
  0
DICTIONARY
  5
FB7
102
{ACAD_REACTORS
330
C
102
}
330
C
100
AcDbDictionary
281
     1
  3
DIMJOGANG
350
FB8
  0
DICTIONARY
  5
5B
102
{ACAD_REACTORS
330
C
102
}
330
C
100
AcDbDictionary
281
     1
  0
DICTIONARY
  5
D
102
{ACAD_REACTORS
330
C
102
}
330
C
100
AcDbDictionary
281
     1
  0
DICTIONARY
  5
5A
102
{ACAD_REACTORS
330
C
102
}
330
C
100
AcDbDictionary
281
     1
  3
Model
350
68
  3
レイアウト1
350
64
  3
レイアウト2
350
6C
  0
DICTIONARY
  5
10
102
{ACAD_REACTORS
330
C
102
}
330
C
100
AcDbDictionary
281
     1
  3
ByBlock
350
19
  3
ByLayer
350
11
  3
Global
350
21
  0
DICTIONARY
  5
5E
102
{ACAD_REACTORS
330
C
102
}
330
C
100
AcDbDictionary
281
     1
  3
Standard
350
5F
  0
DICTIONARY
  5
57
102
{ACAD_REACTORS
330
C
102
}
330
C
100
AcDbDictionary
281
     1
  3
Standard
350
58
  0
DICTIONARY
  5
59
102
{ACAD_REACTORS
330
C
102
}
330
C
100
AcDbDictionary
281
     1
  0
ACDBDICTIONARYWDFLT
  5
E
102
{ACAD_REACTORS
330
C
102
}
330
C
100
AcDbDictionary
281
     1
  3
Normal
350
F
100
AcDbDictionaryWithDefault
340
F
  0
DICTIONARY
  5
3A
102
{ACAD_REACTORS
330
C
102
}
330
C
100
AcDbDictionary
281
     1
  3
A0
350
3B
  3
A1
350
3C
  3
A2
350
3D
  3
A3
350
3E
  3
A4
350
3F
  3
A5
350
40
  3
A6
350
41
  3
A7
350
42
  3
A8
350
43
  3
A9
350
44
  3
B0
350
45
  3
B1
350
46
  3
B2
350
47
  3
B3
350
48
  3
B4
350
49
  3
B5
350
4A
  3
B6
350
4B
  0
DICTIONARY
  5
5C
102
{ACAD_REACTORS
330
C
102
}
330
C
100
AcDbDictionary
281
     1
  3
Standard
350
5D
  0
DICTIONARY
  5
29
102
{ACAD_REACTORS
330
C
102
}
330
C
100
AcDbDictionary
281
     1
  3
2dWireframe
350
2F
  3
3D Hidden
350
31
  3
3dWireframe
350
30
  3
Basic
350
2E
  3
Brighten
350
35
  3
ColorChange
350
39
  3
Conceptual
350
32
  3
Dim
350
34
  3
EdgeColorOff
350
19A
  3
Facepattern
350
38
  3
Flat
350
2A
  3
FlatWithEdges
350
2B
  3
Gouraud
350
2C
  3
GouraudWithEdges
350
2D
  3
Hidden
350
192
  3
JitterOff
350
198
  3
Linepattern
350
37
  3
OverhangOff
350
199
  3
Realistic
350
33
  3
Shaded
350
197
  3
Shaded with edges
350
196
  3
Shades of Gray
350
193
  3
Sketchy
350
194
  3
Thicken
350
36
  3
Wireframe
350
191
  3
X-Ray
350
195
  0
XRECORD
  5
FB5
102
{ACAD_REACTORS
330
C
102
}
330
C
100
AcDbXrecord
280
     1
 90
        1
330
5D
  0
DICTIONARY
  5
18C
102
{ACAD_REACTORS
330
C
102
}
330
C
100
AcDbDictionary
281
     1
  3
CANNOSCALE
350
18F
  3
CMLEADERSTYLE
350
18E
  3
CTABLESTYLE
350
18D
  3
DIMASSOC
350
E98
  3
HIDETEXT
350
E96
  3
INDEXCTL
350
E95
  3
LAYEREVAL
350
E92
  3
LAYERNOTIFY
350
E93
  3
LIGHTINGUNITS
350
E91
  3
MSLTSCALE
350
E90
  3
SORTENTS
350
E94
  3
XCLIPFRAME
350
FB3
  0
DICTIONARY
  5
E3
102
{ACAD_REACTORS
330
C
102
}
330
C
100
AcDbDictionary
281
     1
  3
AcmStdDictionary
350
E4
  3
AMDTSECTSYM_ARROWCOLOR
350
8DB
  0
DICTIONARY
  5
6F
102
{ACAD_REACTORS
330
C
102
}
330
C
100
AcDbDictionary
281
     1
  0
DICTIONARY
  5
552
102
{ACAD_REACTORS
330
C
102
}
330
C
100
AcDbDictionary
281
     1
  0
XRECORD
  5
FB6
102
{ACAD_REACTORS
330
C
102
}
330
C
100
AcDbXrecord
280
     1
  1
DWGPROPS COOKIE
  2

  3

  4

  6

  7

  8
ANDO
  9

300
=
301
=
302
=
303
=
304
=
305
=
306
=
307
=
308
=
309
=
 40
0.036679537037037
 41
2456267.704391817
 42
2456349.56988706
  1

 90
        0
  0
DICTIONARY
  5
1CD
102
{ACAD_REACTORS
330
1CC
102
}
330
1CC
100
AcDbDictionary
281
     1
  0
SORTENTSTABLE
  5
DB8
102
{ACAD_REACTORS
330
DB7
102
}
330
DB7
100
AcDbSortentsTable
330
65
331
89D
  5
89F
331
598
  5
59A
331
827
  5
829
331
866
  5
868
331
616
  5
618
331
561
  5
563
331
8A5
  5
8A7
331
5A0
  5
5A2
331
5D7
  5
5D9
331
82F
  5
831
331
86E
  5
870
331
5DF
  5
5E1
331
61E
  5
620
331
569
  5
56B
331
876
  5
878
331
8AD
  5
8AF
331
5A8
  5
5AA
331
837
  5
839
331
6B9
  5
6BB
331
6F8
  5
6FA
331
643
  5
645
331
5B0
  5
5B2
331
5E7
  5
5E9
331
571
  5
573
331
626
  5
628
331
83F
  5
841
331
87E
  5
880
331
8B5
  5
8B7
331
682
  5
684
331
7EC
  5
7EE
331
737
  5
739
331
776
  5
778
331
68A
  5
68C
331
6C1
  5
6C3
331
64B
  5
64D
331
700
  5
702
331
5EF
  5
5F1
331
62E
  5
630
331
7AD
  5
7AF
331
7B5
  5
7B7
331
7F4
  5
7F6
331
708
  5
70A
331
73F
  5
741
331
653
  5
655
331
692
  5
694
331
6C9
  5
6CB
331
77E
  5
780
331
786
  5
788
331
7BD
  5
7BF
331
6D1
  5
6D3
331
710
  5
712
331
65B
  5
65D
331
69A
  5
69C
331
747
  5
749
331
7FC
  5
7FE
331
804
  5
806
331
78E
  5
790
331
7C5
  5
7C7
331
74F
  5
751
331
5B8
  5
5BA
331
8BD
  5
8BF
331
847
  5
849
331
886
  5
888
331
579
  5
57B
331
581
  5
583
331
8C5
  5
8C7
331
5C0
  5
5C2
331
5F7
  5
5F9
331
84F
  5
851
331
88E
  5
890
331
5FF
  5
601
331
63E
  5
640
331
589
  5
58B
331
896
  5
898
331
8CD
  5
8CF
331
5C8
  5
5CA
331
857
  5
859
331
6D9
  5
6DB
331
718
  5
71A
331
607
  5
609
331
663
  5
665
331
591
  5
593
331
85F
  5
861
331
8D5
  5
DB6
331
6A2
  5
6A4
331
80C
  5
80E
331
757
  5
759
331
796
  5
798
331
6AA
  5
6AC
331
6E1
  5
6E3
331
60F
  5
611
331
66B
  5
66D
331
720
  5
722
331
7CD
  5
7CF
331
7D5
  5
7D7
331
814
  5
816
331
728
  5
72A
331
75F
  5
761
331
673
  5
675
331
6B2
  5
6B4
331
6E9
  5
6EB
331
79E
  5
7A0
331
7A6
  5
7A8
331
7DD
  5
7DF
331
767
  5
769
331
81C
  5
81E
331
67B
  5
67D
331
6F1
  5
6F3
331
7E5
  5
7E7
331
76F
  5
771
331
820
  5
822
331
5D0
  5
5D2
331
55A
  5
55C
331
867
  5
869
331
89E
  5
8A0
331
599
  5
59B
331
828
  5
82A
331
5A1
  5
5A3
331
5D8
  5
5DA
331
562
  5
564
331
617
  5
619
331
830
  5
832
331
86F
  5
871
331
8A6
  5
8A8
331
61F
  5
621
331
5A9
  5
5AB
331
5E0
  5
5E2
331
8AE
  5
8B0
331
838
  5
83A
331
877
  5
879
331
56A
  5
56C
331
6F9
  5
6FB
331
730
  5
732
331
644
  5
646
331
627
  5
629
331
683
  5
685
331
6BA
  5
6BC
331
572
  5
574
331
8B6
  5
8B8
331
5B1
  5
5B3
331
5E8
  5
5EA
331
87F
  5
881
331
777
  5
779
331
7AE
  5
7B0
331
6C2
  5
6C4
331
701
  5
703
331
64C
  5
64E
331
62F
  5
631
331
68B
  5
68D
331
738
  5
73A
331
7ED
  5
7EF
331
7F5
  5
7F7
331
740
  5
742
331
77F
  5
781
331
6CA
  5
6CC
331
709
  5
70B
331
7B6
  5
7B8
331
654
  5
656
331
693
  5
695
331
7FD
  5
7FF
331
748
  5
74A
331
787
  5
789
331
69B
  5
69D
331
6D2
  5
6D4
331
65C
  5
65E
331
711
  5
713
331
7BE
  5
7C0
331
7C6
  5
7C8
331
805
  5
807
331
78F
  5
791
331
840
  5
842
331
5F0
  5
5F2
331
57A
  5
57C
331
887
  5
889
331
8BE
  5
8C0
331
5B9
  5
5BB
331
848
  5
84A
331
5C1
  5
5C3
331
5F8
  5
5FA
331
582
  5
584
331
850
  5
852
331
88F
  5
891
331
8C6
  5
8C8
331
5C9
  5
5CB
331
600
  5
602
331
8CE
  5
8D0
331
858
  5
85A
331
897
  5
899
331
58A
  5
58C
331
63F
  5
641
331
719
  5
71B
331
750
  5
752
331
664
  5
666
331
6A3
  5
6A5
331
6DA
  5
6DC
331
592
  5
594
331
8D6
  5
DB9
331
608
  5
60A
331
797
  5
799
331
7CE
  5
7D0
331
6E2
  5
6E4
331
721
  5
723
331
66C
  5
66E
331
6AB
  5
6AD
331
758
  5
75A
331
80D
  5
80F
331
815
  5
817
331
79F
  5
7A1
331
7D6
  5
7D8
331
6EA
  5
6EC
331
729
  5
72B
331
674
  5
676
331
6B3
  5
6B5
331
760
  5
762
331
81D
  5
81F
331
768
  5
76A
331
6F2
  5
6F4
331
7A7
  5
7A9
331
67C
  5
67E
331
7DE
  5
7E0
331
7E6
  5
7E8
331
821
  5
823
331
860
  5
862
331
610
  5
612
331
55B
  5
55D
331
89F
  5
8A1
331
59A
  5
59C
331
5D1
  5
5D3
331
829
  5
82B
331
868
  5
86A
331
618
  5
61A
331
563
  5
565
331
870
  5
872
331
8A7
  5
8A9
331
5A2
  5
5A4
331
831
  5
833
331
5D9
  5
5DB
331
5E1
  5
5E3
331
620
  5
622
331
56B
  5
56D
331
878
  5
87A
331
8AF
  5
8B1
331
5AA
  5
5AC
331
839
  5
83B
331
731
  5
733
331
770
  5
772
331
684
  5
686
331
6BB
  5
6BD
331
645
  5
647
331
6FA
  5
6FC
331
5B2
  5
5B4
331
5E9
  5
5EB
331
573
  5
575
331
628
  5
62A
331
8B7
  5
8B9
331
7AF
  5
7B1
331
7EE
  5
7F0
331
739
  5
73B
331
778
  5
77A
331
68C
  5
68E
331
6C3
  5
6C5
331
64D
  5
64F
331
702
  5
704
331
7B7
  5
7B9
331
7F6
  5
7F8
331
70A
  5
70C
331
741
  5
743
331
655
  5
657
331
694
  5
696
331
6CB
  5
6CD
331
780
  5
782
331
788
  5
78A
331
7BF
  5
7C1
331
6D3
  5
6D5
331
712
  5
714
331
65D
  5
65F
331
69C
  5
69E
331
749
  5
74B
331
7FE
  5
800
331
806
  5
808
331
7C7
  5
7C9
331
841
  5
843
331
880
  5
882
331
630
  5
632
331
5BA
  5
5BC
331
5F1
  5
5F3
331
8BF
  5
8C1
331
849
  5
84B
331
888
  5
88A
331
57B
  5
57D
331
638
  5
63A
331
583
  5
585
331
8C7
  5
8C9
331
5C2
  5
5C4
331
5F9
  5
5FB
331
851
  5
853
331
890
  5
892
331
601
  5
603
331
58B
  5
58D
331
8CF
  5
8D1
331
5CA
  5
5CC
331
859
  5
85B
331
751
  5
753
331
790
  5
792
331
6DB
  5
6DD
331
71A
  5
71C
331
609
  5
60B
331
665
  5
667
331
593
  5
595
331
6A4
  5
6A6
331
80E
  5
810
331
759
  5
75B
331
798
  5
79A
331
6AC
  5
6AE
331
6E3
  5
6E5
331
66D
  5
66F
331
722
  5
724
331
7CF
  5
7D1
331
7D7
  5
7D9
331
816
  5
818
331
72A
  5
72C
331
761
  5
763
331
675
  5
677
331
6B4
  5
6B6
331
6EB
  5
6ED
331
7A0
  5
7A2
331
7DF
  5
7E1
331
6F3
  5
6F5
331
67D
  5
67F
331
769
  5
76B
331
81E
  5
820
331
7E7
  5
7E9
331
861
  5
863
331
898
  5
89A
331
822
  5
824
331
5D2
  5
5D4
331
611
  5
613
331
55C
  5
55E
331
869
  5
86B
331
8A0
  5
8A2
331
59B
  5
59D
331
82A
  5
82C
331
5A3
  5
5A5
331
5DA
  5
5DC
331
564
  5
566
331
619
  5
61B
331
832
  5
834
331
871
  5
873
331
8A8
  5
8AA
331
621
  5
623
331
56C
  5
56E
331
8B0
  5
8B2
331
5AB
  5
5AD
331
5E2
  5
5E4
331
83A
  5
83C
331
879
  5
87B
331
7A8
  5
7AA
331
6FB
  5
6FD
331
732
  5
734
331
646
  5
648
331
629
  5
62B
331
685
  5
687
331
6BC
  5
6BE
331
574
  5
576
331
5B3
  5
5B5
331
5EA
  5
5EC
331
771
  5
773
331
779
  5
77B
331
7B0
  5
7B2
331
6C4
  5
6C6
331
703
  5
705
331
64E
  5
650
331
68D
  5
68F
331
73A
  5
73C
331
7EF
  5
7F1
331
7F7
  5
7F9
331
742
  5
744
331
781
  5
783
331
695
  5
697
331
6CC
  5
6CE
331
656
  5
658
331
70B
  5
70D
331
7B8
  5
7BA
331
7C0
  5
7C2
331
7FF
  5
801
331
74A
  5
74C
331
789
  5
78B
331
69D
  5
69F
331
6D4
  5
6D6
331
65E
  5
660
331
713
  5
715
331
807
  5
809
331
881
  5
883
331
8B8
  5
8BA
331
842
  5
844
331
5F2
  5
5F4
331
631
  5
638
331
57C
  5
57E
331
889
  5
88B
331
8C0
  5
8C2
331
5BB
  5
5BD
331
84A
  5
84C
331
5C3
  5
5C5
331
5FA
  5
5FC
331
584
  5
586
331
639
  5
63B
331
852
  5
854
331
891
  5
893
331
8C8
  5
8CA
331
5CB
  5
5CD
331
602
  5
604
331
8D0
  5
8D2
331
85A
  5
85C
331
58C
  5
58E
331
7C8
  5
7CA
331
71B
  5
71D
331
752
  5
754
331
666
  5
668
331
6A5
  5
6A7
331
6DC
  5
6DE
331
594
  5
596
331
60A
  5
60C
331
791
  5
793
331
799
  5
79B
331
7D0
  5
7D2
331
6E4
  5
6E6
331
723
  5
725
331
66E
  5
670
331
6AD
  5
6AF
331
75A
  5
75C
331
80F
  5
811
331
817
  5
819
331
762
  5
764
331
7A1
  5
7A3
331
6EC
  5
6EE
331
72B
  5
72D
331
7D8
  5
7DA
331
676
  5
678
331
6B5
  5
6B7
331
81F
  5
821
331
76A
  5
76C
331
6F4
  5
6F6
331
67E
  5
680
331
7E0
  5
7E2
331
823
  5
825
331
862
  5
864
331
899
  5
89B
331
612
  5
614
331
55D
  5
55F
331
8A1
  5
8A3
331
59C
  5
59E
331
5D3
  5
5D5
331
82B
  5
82D
331
86A
  5
86C
331
5DB
  5
5DD
331
61A
  5
61C
331
565
  5
567
331
872
  5
874
331
8A9
  5
8AB
331
5A4
  5
5A6
331
833
  5
835
331
5E3
  5
5E5
331
622
  5
624
331
56D
  5
56F
331
87A
  5
87C
331
8B1
  5
8B3
331
5AC
  5
5AE
331
83B
  5
83D
331
7E8
  5
7EA
331
733
  5
735
331
772
  5
774
331
686
  5
688
331
6BD
  5
6BF
331
647
  5
649
331
6FC
  5
6FE
331
5B4
  5
5B6
331
5EB
  5
5ED
331
575
  5
577
331
62A
  5
62C
331
7A9
  5
7AB
331
7B1
  5
7B3
331
7F0
  5
7F2
331
704
  5
706
331
73B
  5
73D
331
68E
  5
690
331
6C5
  5
6C7
331
77A
  5
77C
331
64F
  5
651
331
7B9
  5
7BB
331
7F8
  5
7FA
331
70C
  5
70E
331
743
  5
745
331
657
  5
659
331
696
  5
698
331
6CD
  5
6CF
331
782
  5
784
331
78A
  5
78C
331
7C1
  5
7C3
331
6D5
  5
6D7
331
714
  5
716
331
65F
  5
661
331
69E
  5
6A0
331
74B
  5
74D
331
800
  5
802
331
843
  5
845
331
882
  5
884
331
8B9
  5
8BB
331
632
  5
639
331
57D
  5
57F
331
8C1
  5
8C3
331
5BC
  5
5BE
331
5F3
  5
5F5
331
84B
  5
84D
331
88A
  5
88C
331
63A
  5
63C
331
585
  5
587
331
892
  5
894
331
8C9
  5
8CB
331
5C4
  5
5C6
331
853
  5
855
331
5FB
  5
5FD
331
603
  5
605
331
58D
  5
58F
331
8D1
  5
8D3
331
5CC
  5
5CE
331
85B
  5
85D
331
808
  5
80A
331
753
  5
755
331
792
  5
794
331
6A6
  5
6A8
331
6DD
  5
6DF
331
60B
  5
60D
331
667
  5
669
331
595
  5
597
331
71C
  5
71E
331
7C9
  5
7CB
331
7D1
  5
7D3
331
810
  5
812
331
75B
  5
75D
331
79A
  5
79C
331
6AE
  5
6B0
331
6E5
  5
6E7
331
66F
  5
671
331
724
  5
726
331
7D9
  5
7DB
331
818
  5
81A
331
72C
  5
72E
331
763
  5
765
331
677
  5
679
331
6B6
  5
6B8
331
6ED
  5
6EF
331
7A2
  5
7A4
331
7E1
  5
7E3
331
6F5
  5
6F7
331
67F
  5
681
331
76B
  5
76D
331
863
  5
865
331
89A
  5
89C
331
824
  5
826
331
5D4
  5
5D6
331
613
  5
615
331
55E
  5
560
331
82C
  5
82E
331
86B
  5
86D
331
8A2
  5
8A4
331
59D
  5
59F
331
5A5
  5
5A7
331
5DC
  5
5DE
331
566
  5
568
331
61B
  5
61D
331
834
  5
836
331
873
  5
875
331
8AA
  5
8AC
331
640
  5
642
331
623
  5
625
331
56E
  5
570
331
8B2
  5
8B4
331
5AD
  5
5AF
331
5E4
  5
5E6
331
83C
  5
83E
331
87B
  5
87D
331
773
  5
775
331
7AA
  5
7AC
331
6FD
  5
6FF
331
734
  5
736
331
7E9
  5
7EB
331
648
  5
64A
331
5EC
  5
5EE
331
62B
  5
62D
331
687
  5
689
331
576
  5
578
331
5B5
  5
5B7
331
6BE
  5
6C0
331
77B
  5
77D
331
7B2
  5
7B4
331
6C6
  5
6C8
331
705
  5
707
331
650
  5
652
331
68F
  5
691
331
73C
  5
73E
331
7F1
  5
7F3
331
7F9
  5
7FB
331
744
  5
746
331
783
  5
785
331
697
  5
699
331
6CE
  5
6D0
331
658
  5
65A
331
70D
  5
70F
331
7BA
  5
7BC
331
7C2
  5
7C4
331
801
  5
803
331
715
  5
717
331
74C
  5
74E
331
69F
  5
6A1
331
6D6
  5
6D8
331
78B
  5
78D
331
883
  5
885
331
8BA
  5
8BC
331
844
  5
846
331
5F4
  5
5F6
331
57E
  5
580
331
88B
  5
88D
331
8C2
  5
8C4
331
5BD
  5
5BF
331
84C
  5
84E
331
5C5
  5
5C7
331
5FC
  5
5FE
331
586
  5
588
331
63B
  5
63D
331
854
  5
856
331
893
  5
895
331
8CA
  5
8CC
331
58E
  5
590
331
8D2
  5
8D4
331
5CD
  5
5CF
331
85C
  5
85E
331
604
  5
606
331
660
  5
662
331
7CA
  5
7CC
331
809
  5
80B
331
71D
  5
71F
331
754
  5
756
331
668
  5
66A
331
6A7
  5
6A9
331
6DE
  5
6E0
331
596
  5
598
331
60C
  5
60E
331
793
  5
795
331
79B
  5
79D
331
7D2
  5
7D4
331
6E6
  5
6E8
331
725
  5
727
331
670
  5
672
331
6AF
  5
6B1
331
75C
  5
75E
331
811
  5
813
331
819
  5
81B
331
764
  5
766
331
7A3
  5
7A5
331
6B7
  5
6B9
331
6EE
  5
6F0
331
678
  5
67A
331
72D
  5
72F
331
7DA
  5
7DC
331
7E2
  5
7E4
331
76C
  5
76E
331
6F6
  5
6F8
331
89B
  5
89D
331
825
  5
827
331
864
  5
866
331
614
  5
616
331
55F
  5
561
331
8A3
  5
8A5
331
59E
  5
5A0
331
5D5
  5
5D7
331
82D
  5
82F
331
86C
  5
86E
331
5DD
  5
5DF
331
61C
  5
61E
331
567
  5
569
331
874
  5
876
331
8AB
  5
8AD
331
5A6
  5
5A8
331
835
  5
837
331
641
  5
643
331
5E5
  5
5E7
331
624
  5
626
331
680
  5
682
331
56F
  5
571
331
83D
  5
83F
331
87C
  5
87E
331
8B3
  5
8B5
331
5AE
  5
5B0
331
7EA
  5
7EC
331
735
  5
737
331
774
  5
776
331
688
  5
68A
331
6BF
  5
6C1
331
649
  5
64B
331
6FE
  5
700
331
5B6
  5
5B8
331
5ED
  5
5EF
331
577
  5
579
331
62C
  5
62E
331
7AB
  5
7AD
331
7B3
  5
7B5
331
7F2
  5
7F4
331
706
  5
708
331
73D
  5
73F
331
651
  5
653
331
690
  5
692
331
6C7
  5
6C9
331
77C
  5
77E
331
784
  5
786
331
7BB
  5
7BD
331
70E
  5
710
331
745
  5
747
331
7FA
  5
7FC
331
659
  5
65B
331
698
  5
69A
331
6CF
  5
6D1
331
78C
  5
78E
331
7C3
  5
7C5
331
6D7
  5
6D9
331
716
  5
718
331
74D
  5
74F
331
802
  5
804
331
845
  5
847
331
884
  5
886
331
8BB
  5
8BD
331
57F
  5
581
331
8C3
  5
8C5
331
5BE
  5
5C0
331
5F5
  5
5F7
331
84D
  5
84F
331
88C
  5
88E
331
5FD
  5
5FF
331
63C
  5
63E
331
587
  5
589
331
894
  5
896
331
8CB
  5
8CD
331
5C6
  5
5C8
331
855
  5
857
331
605
  5
607
331
661
  5
663
331
6A0
  5
6A2
331
58F
  5
591
331
8D3
  5
8D5
331
5CE
  5
5D0
331
85D
  5
85F
331
80A
  5
80C
331
755
  5
757
331
794
  5
796
331
6A8
  5
6AA
331
6DF
  5
6E1
331
60D
  5
60F
331
669
  5
66B
331
597
  5
599
331
71E
  5
720
331
7CB
  5
7CD
331
7D3
  5
7D5
331
812
  5
814
331
726
  5
728
331
75D
  5
75F
331
6B0
  5
6B2
331
6E7
  5
6E9
331
79C
  5
79E
331
671
  5
673
331
7DB
  5
7DD
331
81A
  5
81C
331
72E
  5
730
331
765
  5
767
331
679
  5
67B
331
6EF
  5
6F1
331
7A4
  5
7A6
331
7E3
  5
7E5
331
6F7
  5
6F9
331
76D
  5
76F
331
865
  5
867
331
89C
  5
89E
331
826
  5
828
331
59F
  5
5A1
331
5D6
  5
5D8
331
560
  5
562
331
615
  5
617
331
82E
  5
830
331
86D
  5
86F
331
8A4
  5
8A6
331
5A7
  5
5A9
331
5DE
  5
5E0
331
8AC
  5
8AE
331
836
  5
838
331
875
  5
877
331
568
  5
56A
331
61D
  5
61F
331
642
  5
644
331
625
  5
627
331
681
  5
683
331
6B8
  5
6BA
331
570
  5
572
331
8B4
  5
8B6
331
5AF
  5
5B1
331
5E6
  5
5E8
331
83E
  5
840
331
87D
  5
87F
331
775
  5
777
331
7AC
  5
7AE
331
6C0
  5
6C2
331
6FF
  5
701
331
64A
  5
64C
331
5EE
  5
5F0
331
62D
  5
62F
331
689
  5
68B
331
5B7
  5
5B9
331
736
  5
738
331
7EB
  5
7ED
331
7F3
  5
7F5
331
77D
  5
77F
331
7B4
  5
7B6
331
6C8
  5
6CA
331
707
  5
709
331
652
  5
654
331
691
  5
693
331
73E
  5
740
331
7FB
  5
7FD
331
746
  5
748
331
785
  5
787
331
699
  5
69B
331
6D0
  5
6D2
331
65A
  5
65C
331
70F
  5
711
331
7BC
  5
7BE
331
7C4
  5
7C6
331
803
  5
805
331
717
  5
719
331
74E
  5
750
331
78D
  5
78F
331
578
  5
57A
331
885
  5
887
331
8BC
  5
8BE
331
846
  5
848
331
5F6
  5
5F8
331
580
  5
582
331
84E
  5
850
331
88D
  5
88F
331
8C4
  5
8C6
331
5BF
  5
5C1
331
5C7
  5
5C9
331
5FE
  5
600
331
588
  5
58A
331
63D
  5
63F
331
856
  5
858
331
895
  5
897
331
8CC
  5
8CE
331
662
  5
664
331
6A1
  5
6A3
331
6D8
  5
6DA
331
590
  5
592
331
8D4
  5
8D6
331
5CF
  5
5D1
331
85E
  5
860
331
606
  5
608
331
795
  5
797
331
7CC
  5
7CE
331
71F
  5
721
331
756
  5
758
331
80B
  5
80D
331
60E
  5
610
331
66A
  5
66C
331
6A9
  5
6AB
331
6E0
  5
6E2
331
79D
  5
79F
331
7D4
  5
7D6
331
6E8
  5
6EA
331
727
  5
729
331
672
  5
674
331
6B1
  5
6B3
331
75E
  5
760
331
813
  5
815
331
81B
  5
81D
331
766
  5
768
331
7A5
  5
7A7
331
6F0
  5
6F2
331
67A
  5
67C
331
72F
  5
731
331
7DC
  5
7DE
331
7E4
  5
7E6
331
76E
  5
770
  0
XRECORD
  5
FB8
102
{ACAD_REACTORS
330
FB7
102
}
330
FB7
100
AcDbXrecord
280
     1
 40
1.570796326794896
  0
LAYOUT
  5
68
102
{ACAD_XDICTIONARY
360
FDC
102
}
102
{ACAD_REACTORS
330
5A
102
}
330
5A
100
AcDbPlotSettings
  1

  2
DocuCentre-III C4400 - 富士変速機株式会社美濃工場
  4

  6

 40
0.0
 41
0.0
 42
0.0
 43
0.0
 44
0.0
 45
0.0
 46
0.0
 47
0.0
 48
0.0
 49
0.0
140
0.0
141
0.0
142
1.0
143
1.0
 70
  1712
 72
     0
 73
     0
 74
     0
  7
acad1.ctb
 75
     0
147
1.0
148
0.0
149
0.0
100
AcDbLayout
  1
Model
 70
     1
 71
     0
 10
0.0
 20
0.0
 11
12.0
 21
9.0
 12
0.0
 22
0.0
 32
0.0
 14
0.0
 24
0.0
 34
0.0
 15
0.0
 25
0.0
 35
0.0
146
0.0
 13
0.0
 23
0.0
 33
0.0
 16
1.0
 26
0.0
 36
0.0
 17
0.0
 27
1.0
 37
0.0
 76
     0
330
65
331
4F
  0
LAYOUT
  5
64
102
{ACAD_XDICTIONARY
360
FDA
102
}
102
{ACAD_REACTORS
330
5A
102
}
330
5A
100
AcDbPlotSettings
  1

  2
DocuCentre-III C4400 - 富士変速機株式会社美濃工場
  4

  6

 40
0.0
 41
0.0
 42
0.0
 43
0.0
 44
0.0
 45
0.0
 46
0.0
 47
0.0
 48
0.0
 49
0.0
140
0.0
141
0.0
142
1.0
143
1.0
 70
   688
 72
     0
 73
     0
 74
     5
  7
acad1.ctb
 75
    16
147
1.0
148
0.0
149
0.0
100
AcDbLayout
  1
レイアウト1
 70
     1
 71
     1
 10
0.0
 20
0.0
 11
420.0
 21
297.0
 12
0.0
 22
0.0
 32
0.0
 14
1.000000000000000E+20
 24
1.000000000000000E+20
 34
1.000000000000000E+20
 15
-1.000000000000000E+20
 25
-1.000000000000000E+20
 35
-1.000000000000000E+20
146
0.0
 13
0.0
 23
0.0
 33
0.0
 16
1.0
 26
0.0
 36
0.0
 17
0.0
 27
1.0
 37
0.0
 76
     0
330
61
  0
LAYOUT
  5
6C
102
{ACAD_XDICTIONARY
360
FDE
102
}
102
{ACAD_REACTORS
330
5A
102
}
330
5A
100
AcDbPlotSettings
  1

  2
DocuCentre-III C4400 - 富士変速機株式会社美濃工場
  4

  6

 40
0.0
 41
0.0
 42
0.0
 43
0.0
 44
0.0
 45
0.0
 46
0.0
 47
0.0
 48
0.0
 49
0.0
140
0.0
141
0.0
142
1.0
143
1.0
 70
   688
 72
     0
 73
     0
 74
     5
  7
acad1.ctb
 75
    16
147
1.0
148
0.0
149
0.0
100
AcDbLayout
  1
レイアウト2
 70
     1
 71
     2
 10
0.0
 20
0.0
 11
12.0
 21
9.0
 12
0.0
 22
0.0
 32
0.0
 14
0.0
 24
0.0
 34
0.0
 15
0.0
 25
0.0
 35
0.0
146
0.0
 13
0.0
 23
0.0
 33
0.0
 16
1.0
 26
0.0
 36
0.0
 17
0.0
 27
1.0
 37
0.0
 76
     0
330
69
  0
MATERIAL
  5
19
102
{ACAD_XDICTIONARY
360
1A
102
}
102
{ACAD_REACTORS
330
10
102
}
330
10
100
AcDbMaterial
  1
ByBlock
 72
     0
 43
0.0208333333333333
 43
0.0
 43
0.0
 43
0.0
 43
0.0
 43
0.0208333333333333
 43
0.0
 43
0.0
 43
0.0
 43
0.0
 43
1.0
 43
0.0
 43
0.0
 43
0.0
 43
0.0
 43
1.0
 77
     0
 47
0.0208333333333333
 47
0.0
 47
0.0
 47
0.0
 47
0.0
 47
0.0208333333333333
 47
0.0
 47
0.0
 47
0.0
 47
0.0
 47
1.0
 47
0.0
 47
0.0
 47
0.0
 47
0.0
 47
1.0
171
     0
 49
0.0208333333333333
 49
0.0
 49
0.0
 49
0.0
 49
0.0
 49
0.0208333333333333
 49
0.0
 49
0.0
 49
0.0
 49
0.0
 49
1.0
 49
0.0
 49
0.0
 49
0.0
 49
0.0
 49
1.0
175
     0
142
0.0208333333333333
142
0.0
142
0.0
142
0.0
142
0.0
142
0.0208333333333333
142
0.0
142
0.0
142
0.0
142
0.0
142
1.0
142
0.0
142
0.0
142
0.0
142
0.0
142
1.0
179
     0
144
0.0208333333333333
144
0.0
144
0.0
144
0.0
144
0.0
144
0.0208333333333333
144
0.0
144
0.0
144
0.0
144
0.0
144
1.0
144
0.0
144
0.0
144
0.0
144
0.0
144
1.0
147
0.0208333333333333
147
0.0
147
0.0
147
0.0
147
0.0
147
0.0208333333333333
147
0.0
147
0.0
147
0.0
147
0.0
147
1.0
147
0.0
147
0.0
147
0.0
147
0.0
147
1.0
  0
MATERIAL
  5
11
102
{ACAD_XDICTIONARY
360
12
102
}
102
{ACAD_REACTORS
330
10
102
}
330
10
100
AcDbMaterial
  1
ByLayer
 72
     0
 43
0.0208333333333333
 43
0.0
 43
0.0
 43
0.0
 43
0.0
 43
0.0208333333333333
 43
0.0
 43
0.0
 43
0.0
 43
0.0
 43
1.0
 43
0.0
 43
0.0
 43
0.0
 43
0.0
 43
1.0
 77
     0
 47
0.0208333333333333
 47
0.0
 47
0.0
 47
0.0
 47
0.0
 47
0.0208333333333333
 47
0.0
 47
0.0
 47
0.0
 47
0.0
 47
1.0
 47
0.0
 47
0.0
 47
0.0
 47
0.0
 47
1.0
171
     0
 49
0.0208333333333333
 49
0.0
 49
0.0
 49
0.0
 49
0.0
 49
0.0208333333333333
 49
0.0
 49
0.0
 49
0.0
 49
0.0
 49
1.0
 49
0.0
 49
0.0
 49
0.0
 49
0.0
 49
1.0
175
     0
142
0.0208333333333333
142
0.0
142
0.0
142
0.0
142
0.0
142
0.0208333333333333
142
0.0
142
0.0
142
0.0
142
0.0
142
1.0
142
0.0
142
0.0
142
0.0
142
0.0
142
1.0
179
     0
144
0.0208333333333333
144
0.0
144
0.0
144
0.0
144
0.0
144
0.0208333333333333
144
0.0
144
0.0
144
0.0
144
0.0
144
1.0
144
0.0
144
0.0
144
0.0
144
0.0
144
1.0
147
0.0208333333333333
147
0.0
147
0.0
147
0.0
147
0.0
147
0.0208333333333333
147
0.0
147
0.0
147
0.0
147
0.0
147
1.0
147
0.0
147
0.0
147
0.0
147
0.0
147
1.0
  0
MATERIAL
  5
21
102
{ACAD_XDICTIONARY
360
22
102
}
102
{ACAD_REACTORS
330
10
102
}
330
10
100
AcDbMaterial
  1
Global
 72
     0
 43
0.0208333333333333
 43
0.0
 43
0.0
 43
0.0
 43
0.0
 43
0.0208333333333333
 43
0.0
 43
0.0
 43
0.0
 43
0.0
 43
1.0
 43
0.0
 43
0.0
 43
0.0
 43
0.0
 43
1.0
 77
     0
 47
0.0208333333333333
 47
0.0
 47
0.0
 47
0.0
 47
0.0
 47
0.0208333333333333
 47
0.0
 47
0.0
 47
0.0
 47
0.0
 47
1.0
 47
0.0
 47
0.0
 47
0.0
 47
0.0
 47
1.0
171
     0
 49
0.0208333333333333
 49
0.0
 49
0.0
 49
0.0
 49
0.0
 49
0.0208333333333333
 49
0.0
 49
0.0
 49
0.0
 49
0.0
 49
1.0
 49
0.0
 49
0.0
 49
0.0
 49
0.0
 49
1.0
175
     0
142
0.0208333333333333
142
0.0
142
0.0
142
0.0
142
0.0
142
0.0208333333333333
142
0.0
142
0.0
142
0.0
142
0.0
142
1.0
142
0.0
142
0.0
142
0.0
142
0.0
142
1.0
179
     0
144
0.0208333333333333
144
0.0
144
0.0
144
0.0
144
0.0
144
0.0208333333333333
144
0.0
144
0.0
144
0.0
144
0.0
144
1.0
144
0.0
144
0.0
144
0.0
144
0.0
144
1.0
147
0.0208333333333333
147
0.0
147
0.0
147
0.0
147
0.0
147
0.0208333333333333
147
0.0
147
0.0
147
0.0
147
0.0
147
1.0
147
0.0
147
0.0
147
0.0
147
0.0
147
1.0
  0
MLEADERSTYLE
  5
5F
102
{ACAD_REACTORS
330
5E
102
}
330
5E
100
AcDbMLeaderStyle
170
     2
171
     1
172
     0
 90
        2
 40
0.0
 41
0.0
173
     1
 91
-1056964608
340
53
 92
       -2
290
     1
 42
0.09
291
     1
 43
0.36
  3
Standard
 44
0.18
300

342
4D
174
     1
178
     6
175
     1
176
     0
 93
-1056964608
 45
0.18
292
     0
297
     0
 46
0.18
 94
-1056964608
 47
1.0
 49
1.0
140
1.0
293
     1
141
0.0
294
     1
177
     0
142
1.0
295
     0
296
     0
143
0.125
1001
ACAD_MLEADERVER
1070
     2
  0
MLINESTYLE
  5
58
102
{ACAD_REACTORS
330
57
102
}
330
57
100
AcDbMlineStyle
  2
STANDARD
 70
     0
  3

 62
   256
 51
90.0
 52
90.0
 71
     2
 49
0.5
 62
   256
  6
BYLAYER
 49
-0.5
 62
   256
  6
BYLAYER
  0
ACDBPLACEHOLDER
  5
F
102
{ACAD_REACTORS
330
E
102
}
330
E
  0
SCALE
  5
3B
102
{ACAD_REACTORS
330
3A
102
}
330
3A
100
AcDbScale
 70
     0
300
1:1
140
1.0
141
1.0
290
     1
  0
SCALE
  5
3C
102
{ACAD_REACTORS
330
3A
102
}
330
3A
100
AcDbScale
 70
     0
300
1:2
140
1.0
141
2.0
290
     0
  0
SCALE
  5
3D
102
{ACAD_REACTORS
330
3A
102
}
330
3A
100
AcDbScale
 70
     0
300
1:4
140
1.0
141
4.0
290
     0
  0
SCALE
  5
3E
102
{ACAD_REACTORS
330
3A
102
}
330
3A
100
AcDbScale
 70
     0
300
1:5
140
1.0
141
5.0
290
     0
  0
SCALE
  5
3F
102
{ACAD_REACTORS
330
3A
102
}
330
3A
100
AcDbScale
 70
     0
300
1:8
140
1.0
141
8.0
290
     0
  0
SCALE
  5
40
102
{ACAD_REACTORS
330
3A
102
}
330
3A
100
AcDbScale
 70
     0
300
1:10
140
1.0
141
10.0
290
     0
  0
SCALE
  5
41
102
{ACAD_REACTORS
330
3A
102
}
330
3A
100
AcDbScale
 70
     0
300
1:16
140
1.0
141
16.0
290
     0
  0
SCALE
  5
42
102
{ACAD_REACTORS
330
3A
102
}
330
3A
100
AcDbScale
 70
     0
300
1:20
140
1.0
141
20.0
290
     0
  0
SCALE
  5
43
102
{ACAD_REACTORS
330
3A
102
}
330
3A
100
AcDbScale
 70
     0
300
1:30
140
1.0
141
30.0
290
     0
  0
SCALE
  5
44
102
{ACAD_REACTORS
330
3A
102
}
330
3A
100
AcDbScale
 70
     0
300
1:40
140
1.0
141
40.0
290
     0
  0
SCALE
  5
45
102
{ACAD_REACTORS
330
3A
102
}
330
3A
100
AcDbScale
 70
     0
300
1:50
140
1.0
141
50.0
290
     0
  0
SCALE
  5
46
102
{ACAD_REACTORS
330
3A
102
}
330
3A
100
AcDbScale
 70
     0
300
1:100
140
1.0
141
100.0
290
     0
  0
SCALE
  5
47
102
{ACAD_REACTORS
330
3A
102
}
330
3A
100
AcDbScale
 70
     0
300
2:1
140
2.0
141
1.0
290
     0
  0
SCALE
  5
48
102
{ACAD_REACTORS
330
3A
102
}
330
3A
100
AcDbScale
 70
     0
300
4:1
140
4.0
141
1.0
290
     0
  0
SCALE
  5
49
102
{ACAD_REACTORS
330
3A
102
}
330
3A
100
AcDbScale
 70
     0
300
8:1
140
8.0
141
1.0
290
     0
  0
SCALE
  5
4A
102
{ACAD_REACTORS
330
3A
102
}
330
3A
100
AcDbScale
 70
     0
300
10:1
140
10.0
141
1.0
290
     0
  0
SCALE
  5
4B
102
{ACAD_REACTORS
330
3A
102
}
330
3A
100
AcDbScale
 70
     0
300
100:1
140
100.0
141
1.0
290
     0
  0
TABLESTYLE
  5
5D
102
{ACAD_XDICTIONARY
360
189
102
}
102
{ACAD_REACTORS
330
5C
102
}
330
5C
100
AcDbTableStyle
  3
Standard
 70
     0
 71
     0
 40
1.5
 41
1.5
280
     0
281
     0
  7
STANDARD
140
4.5
170
     2
 62
     0
 63
     7
283
     0
274
    -2
284
     1
 64
     0
275
    -2
285
     1
 65
     0
276
    -2
286
     1
 66
     0
277
    -2
287
     1
 67
     0
278
    -2
288
     1
 68
     0
279
    -2
289
     1
 69
     0
  7
STANDARD
140
6.0
170
     5
 62
     0
 63
     7
283
     0
274
    -2
284
     1
 64
     0
275
    -2
285
     1
 65
     0
276
    -2
286
     1
 66
     0
277
    -2
287
     1
 67
     0
278
    -2
288
     1
 68
     0
279
    -2
289
     1
 69
     0
  7
STANDARD
140
4.5
170
     5
 62
     0
 63
     7
283
     0
274
    -2
284
     1
 64
     0
275
    -2
285
     1
 65
     0
276
    -2
286
     1
 66
     0
277
    -2
287
     1
 67
     0
278
    -2
288
     1
 68
     0
279
    -2
289
     1
 69
     0
  0
VISUALSTYLE
  5
2F
102
{ACAD_XDICTIONARY
360
FC3
102
}
102
{ACAD_REACTORS
330
29
102
}
330
29
100
AcDbVisualStyle
  2

 70
     4
 71
     0
 72
     2
 73
     0
 90
        0
 40
-0.6
 41
-30.0
 62
     5
 63
     7
 74
     1
 91
        4
 64
     7
 65
   257
 75
     1
175
     1
 42
1.0
 92
        0
 66
   257
 43
1.0
 76
     1
 77
     6
 78
     2
 67
     7
 79
     5
170
     0
171
     0
290
     0
174
     0
 93
        1
 44
0.0
173
     0
291
     0
 45
0.0
1001
ACAD
1000
AcDbSavedByObjectVersion
1070
     0
  0
VISUALSTYLE
  5
31
102
{ACAD_XDICTIONARY
360
FC7
102
}
102
{ACAD_REACTORS
330
29
102
}
330
29
100
AcDbVisualStyle
  2

 70
     6
 71
     1
 72
     2
 73
     2
 90
        0
 40
-0.6
 41
-30.0
 62
     5
 63
     7
 74
     2
 91
        2
 64
     7
 65
   257
 75
     2
175
     1
 42
40.0
 92
        0
 66
   257
 43
1.0
 76
     1
 77
     6
 78
     2
 67
     7
 79
     3
170
     0
171
     0
290
     0
174
     0
 93
        1
 44
0.0
173
     0
291
     0
 45
0.0
1001
ACAD
1000
AcDbSavedByObjectVersion
1070
     0
  0
VISUALSTYLE
  5
30
102
{ACAD_XDICTIONARY
360
FC5
102
}
102
{ACAD_REACTORS
330
29
102
}
330
29
100
AcDbVisualStyle
  2

 70
     5
 71
     0
 72
     2
 73
     0
 90
        0
 40
-0.6
 41
-30.0
 62
     5
 63
     7
 74
     1
 91
        4
 64
     7
 65
   257
 75
     1
175
     1
 42
1.0
 92
        0
 66
   257
 43
1.0
 76
     1
 77
     6
 78
     2
 67
     7
 79
     5
170
     0
171
     0
290
     0
174
     0
 93
        1
 44
0.0
173
     0
291
     0
 45
0.0
1001
ACAD
1000
AcDbSavedByObjectVersion
1070
     0
  0
VISUALSTYLE
  5
2E
102
{ACAD_XDICTIONARY
360
FC1
102
}
102
{ACAD_REACTORS
330
29
102
}
330
29
100
AcDbVisualStyle
  2

 70
     7
 71
     1
 72
     0
 73
     1
 90
        0
 40
-0.6
 41
-30.0
 62
     5
 63
     7
 74
     0
 91
        4
 64
     7
 65
   257
 75
     1
175
     1
 42
1.0
 92
        8
 66
     7
 43
1.0
 76
     1
 77
     6
 78
     2
 67
     7
 79
     5
170
     0
171
     0
290
     0
174
     0
 93
        1
 44
0.0
173
     0
291
     1
 45
0.0
1001
ACAD
1000
AcDbSavedByObjectVersion
1070
     0
  0
VISUALSTYLE
  5
35
102
{ACAD_XDICTIONARY
360
FCF
102
}
102
{ACAD_REACTORS
330
29
102
}
330
29
100
AcDbVisualStyle
  2

 70
    12
 71
     2
 72
     2
 73
     0
 90
        0
 40
-0.6
 41
-30.0
 62
     5
 63
     7
 74
     1
 91
        4
 64
     7
 65
   257
 75
     1
175
     1
 42
1.0
 92
        8
 66
     7
 43
1.0
 76
     1
 77
     6
 78
     2
 67
     7
 79
     5
170
     0
171
     0
290
     0
174
     0
 93
        1
 44
50.0
173
     0
291
     1
 45
0.0
1001
ACAD
1000
AcDbSavedByObjectVersion
1070
     0
  0
VISUALSTYLE
  5
39
102
{ACAD_XDICTIONARY
360
FD7
102
}
102
{ACAD_REACTORS
330
29
102
}
330
29
100
AcDbVisualStyle
  2

 70
    16
 71
     2
 72
     2
 73
     3
 90
        0
 40
-0.6
 41
-30.0
 62
     5
 63
     8
 74
     1
 91
        4
 64
     7
 65
   257
 75
     1
175
     1
 42
1.0
 92
        8
 66
     8
 43
1.0
 76
     1
 77
     6
 78
     2
 67
     7
 79
     5
170
     0
171
     0
290
     0
174
     0
 93
        1
 44
0.0
173
     0
291
     1
 45
0.0
1001
ACAD
1000
AcDbSavedByObjectVersion
1070
     0
  0
VISUALSTYLE
  5
32
102
{ACAD_XDICTIONARY
360
FC9
102
}
102
{ACAD_REACTORS
330
29
102
}
330
29
100
AcDbVisualStyle
  2

 70
     9
 71
     3
 72
     2
 73
     0
 90
        0
 40
-0.6
 41
-30.0
 62
     5
 63
     7
 74
     2
 91
        2
 64
     7
 65
   257
 75
     1
175
     1
 42
40.0
 92
        8
 66
     7
 43
1.0
 76
     1
 77
     6
 78
     2
 67
     7
 79
     3
170
     0
171
     0
290
     0
174
     0
 93
        1
 44
0.0
173
     0
291
     0
 45
0.0
1001
ACAD
1000
AcDbSavedByObjectVersion
1070
     0
  0
VISUALSTYLE
  5
34
102
{ACAD_XDICTIONARY
360
FCD
102
}
102
{ACAD_REACTORS
330
29
102
}
330
29
100
AcDbVisualStyle
  2

 70
    11
 71
     2
 72
     2
 73
     0
 90
        0
 40
-0.6
 41
-30.0
 62
     5
 63
     7
 74
     1
 91
        4
 64
     7
 65
   257
 75
     1
175
     1
 42
1.0
 92
        8
 66
     7
 43
1.0
 76
     1
 77
     6
 78
     2
 67
     7
 79
     5
170
     0
171
     0
290
     0
174
     0
 93
        1
 44
-50.0
173
     0
291
     1
 45
0.0
1001
ACAD
1000
AcDbSavedByObjectVersion
1070
     0
  0
VISUALSTYLE
  5
19A
102
{ACAD_XDICTIONARY
360
FF2
102
}
102
{ACAD_REACTORS
330
29
102
}
330
29
100
AcDbVisualStyle
  2

 70
    22
 71
     2
 72
     2
 73
     0
 90
        0
 40
-0.6
 41
-30.0
 62
     5
 63
     7
 74
     1
 91
        4
 64
     7
 65
   257
 75
     1
175
     1
 42
1.0
 92
        8
 66
     7
 43
1.0
 76
     1
 77
     6
 78
     2
 67
     7
 79
     5
170
     0
171
     0
290
     0
174
     0
 93
        1
 44
0.0
173
     0
291
     1
 45
0.0
1001
ACAD
1000
AcDbSavedByObjectVersion
1070
     0
  0
VISUALSTYLE
  5
38
102
{ACAD_XDICTIONARY
360
FD5
102
}
102
{ACAD_REACTORS
330
29
102
}
330
29
100
AcDbVisualStyle
  2

 70
    15
 71
     2
 72
     2
 73
     0
 90
        0
 40
-0.6
 41
-30.0
 62
     5
 63
     7
 74
     1
 91
        4
 64
     7
 65
   257
 75
     1
175
     1
 42
1.0
 92
        8
 66
     7
 43
1.0
 76
     1
 77
     6
 78
     2
 67
     7
 79
     5
170
     0
171
     0
290
     0
174
     0
 93
        1
 44
0.0
173
     0
291
     1
 45
0.0
1001
ACAD
1000
AcDbSavedByObjectVersion
1070
     0
  0
VISUALSTYLE
  5
2A
102
{ACAD_XDICTIONARY
360
FB9
102
}
102
{ACAD_REACTORS
330
29
102
}
330
29
100
AcDbVisualStyle
  2

 70
     0
 71
     2
 72
     1
 73
     1
 90
        2
 40
-0.6
 41
30.0
 62
     5
 63
     7
 74
     0
 91
        4
 64
     7
 65
   257
 75
     1
175
     1
 42
1.0
 92
        8
 66
     7
 43
1.0
 76
     1
 77
     6
 78
     2
 67
     7
 79
     5
170
     0
171
     0
290
     0
174
     0
 93
       13
 44
0.0
173
     0
291
     1
 45
0.0
1001
ACAD
1000
AcDbSavedByObjectVersion
1070
     0
  0
VISUALSTYLE
  5
2B
102
{ACAD_XDICTIONARY
360
FBB
102
}
102
{ACAD_REACTORS
330
29
102
}
330
29
100
AcDbVisualStyle
  2

 70
     1
 71
     2
 72
     1
 73
     1
 90
        2
 40
-0.6
 41
30.0
 62
     5
 63
     7
 74
     1
 91
        4
 64
     7
 65
   257
 75
     1
175
     1
 42
1.0
 92
        0
 66
   257
 43
1.0
 76
     1
 77
     6
 78
     2
 67
     7
 79
     5
170
     0
171
     0
290
     0
174
     0
 93
       13
 44
0.0
173
     0
291
     1
 45
0.0
1001
ACAD
1000
AcDbSavedByObjectVersion
1070
     0
  0
VISUALSTYLE
  5
2C
102
{ACAD_XDICTIONARY
360
FBD
102
}
102
{ACAD_REACTORS
330
29
102
}
330
29
100
AcDbVisualStyle
  2

 70
     2
 71
     2
 72
     2
 73
     1
 90
        2
 40
-0.6
 41
30.0
 62
     5
 63
     7
 74
     0
 91
        4
 64
     7
 65
   257
 75
     1
175
     1
 42
1.0
 92
        0
 66
     7
 43
1.0
 76
     1
 77
     6
 78
     2
 67
     7
 79
     5
170
     0
171
     0
290
     0
174
     0
 93
       13
 44
0.0
173
     0
291
     1
 45
0.0
1001
ACAD
1000
AcDbSavedByObjectVersion
1070
     0
  0
VISUALSTYLE
  5
2D
102
{ACAD_XDICTIONARY
360
FBF
102
}
102
{ACAD_REACTORS
330
29
102
}
330
29
100
AcDbVisualStyle
  2

 70
     3
 71
     2
 72
     2
 73
     1
 90
        2
 40
-0.6
 41
30.0
 62
     5
 63
     7
 74
     1
 91
        4
 64
     7
 65
   257
 75
     1
175
     1
 42
1.0
 92
        0
 66
   257
 43
1.0
 76
     1
 77
     6
 78
     2
 67
     7
 79
     5
170
     0
171
     0
290
     0
174
     0
 93
       13
 44
0.0
173
     0
291
     1
 45
0.0
1001
ACAD
1000
AcDbSavedByObjectVersion
1070
     0
  0
VISUALSTYLE
  5
192
102
{ACAD_XDICTIONARY
360
FE2
102
}
102
{ACAD_REACTORS
330
29
102
}
330
29
100
AcDbVisualStyle
  2

 70
     6
 71
     1
 72
     2
 73
     2
 90
        0
 40
-0.6
 41
-30.0
 62
     5
 63
     7
 74
     2
 91
        2
 64
     7
 65
   257
 75
     2
175
     1
 42
40.0
 92
        0
 66
   257
 43
1.0
 76
     1
 77
     6
 78
     2
 67
     7
 79
     3
170
     0
171
     0
290
     0
174
     0
 93
        1
 44
0.0
173
     0
291
     0
 45
0.0
1001
ACAD
1000
AcDbSavedByObjectVersion
1070
     0
  0
VISUALSTYLE
  5
198
102
{ACAD_XDICTIONARY
360
FEE
102
}
102
{ACAD_REACTORS
330
29
102
}
330
29
100
AcDbVisualStyle
  2

 70
    20
 71
     2
 72
     2
 73
     0
 90
        0
 40
-0.6
 41
-30.0
 62
     5
 63
     7
 74
     1
 91
        4
 64
     7
 65
   257
 75
     1
175
     1
 42
1.0
 92
       10
 66
     7
 43
1.0
 76
     1
 77
     6
 78
     2
 67
     7
 79
     5
170
     0
171
     0
290
     0
174
     0
 93
        1
 44
0.0
173
     0
291
     1
 45
0.0
1001
ACAD
1000
AcDbSavedByObjectVersion
1070
     0
  0
VISUALSTYLE
  5
37
102
{ACAD_XDICTIONARY
360
FD3
102
}
102
{ACAD_REACTORS
330
29
102
}
330
29
100
AcDbVisualStyle
  2

 70
    14
 71
     2
 72
     2
 73
     0
 90
        0
 40
-0.6
 41
-30.0
 62
     5
 63
     7
 74
     1
 91
        4
 64
     7
 65
   257
 75
     7
175
     7
 42
1.0
 92
        8
 66
     7
 43
1.0
 76
     1
 77
     6
 78
     2
 67
     7
 79
     5
170
     0
171
     0
290
     0
174
     0
 93
        1
 44
0.0
173
     0
291
     1
 45
0.0
1001
ACAD
1000
AcDbSavedByObjectVersion
1070
     0
  0
VISUALSTYLE
  5
199
102
{ACAD_XDICTIONARY
360
FF0
102
}
102
{ACAD_REACTORS
330
29
102
}
330
29
100
AcDbVisualStyle
  2

 70
    21
 71
     2
 72
     2
 73
     0
 90
        0
 40
-0.6
 41
-30.0
 62
     5
 63
     7
 74
     1
 91
        4
 64
     7
 65
   257
 75
     1
175
     1
 42
1.0
 92
        9
 66
     7
 43
1.0
 76
     1
 77
     6
 78
     2
 67
     7
 79
     5
170
     0
171
     0
290
     0
174
     0
 93
        1
 44
0.0
173
     0
291
     1
 45
0.0
1001
ACAD
1000
AcDbSavedByObjectVersion
1070
     0
  0
VISUALSTYLE
  5
33
102
{ACAD_XDICTIONARY
360
FCB
102
}
102
{ACAD_REACTORS
330
29
102
}
330
29
100
AcDbVisualStyle
  2

 70
     8
 71
     2
 72
     2
 73
     0
 90
        0
 40
-0.6
 41
-30.0
 62
     5
 63
     7
 74
     1
 91
        0
 64
     7
 65
   257
 75
     1
175
     1
 42
1.0
 92
        8
 66
     8
 43
1.0
 76
     1
 77
     6
 78
     2
 67
     7
 79
     5
170
     0
171
     0
290
     0
174
     0
 93
       13
 44
0.0
173
     0
291
     0
 45
0.0
1001
ACAD
1000
AcDbSavedByObjectVersion
1070
     0
  0
VISUALSTYLE
  5
197
102
{ACAD_XDICTIONARY
360
FEC
102
}
102
{ACAD_REACTORS
330
29
102
}
330
29
100
AcDbVisualStyle
  2

 70
    27
 71
     2
 72
     2
 73
     1
 90
        2
 40
-0.6
 41
30.0
 62
     5
 63
     7
 74
     0
 91
        4
 64
     7
 65
   257
 75
     1
175
     1
 42
1.0
 92
        8
 66
   257
 43
1.0
 76
     1
 77
     6
 78
     2
 67
     8
 79
     3
170
     0
171
     0
290
     0
174
     0
 93
        5
 44
0.0
173
     0
291
     0
 45
0.0
1001
ACAD
1000
AcDbSavedByObjectVersion
1070
     0
  0
VISUALSTYLE
  5
196
102
{ACAD_XDICTIONARY
360
FEA
102
}
102
{ACAD_REACTORS
330
29
102
}
330
29
100
AcDbVisualStyle
  2

 70
    26
 71
     2
 72
     2
 73
     1
 90
        2
 40
-0.6
 41
30.0
 62
     5
 63
     7
 74
     1
 91
       10
 64
     7
 65
   257
 75
     2
175
     1
 42
1.0
 92
        8
 66
   257
 43
1.0
 76
     1
 77
     6
 78
     2
 67
     7
 79
     3
170
     0
171
     0
290
     0
174
     0
 93
        5
 44
0.0
173
     0
291
     0
 45
0.0
1001
ACAD
1000
AcDbSavedByObjectVersion
1070
     0
  0
VISUALSTYLE
  5
193
102
{ACAD_XDICTIONARY
360
FE4
102
}
102
{ACAD_REACTORS
330
29
102
}
330
29
100
AcDbVisualStyle
  2

 70
    23
 71
     2
 72
     2
 73
     3
 90
        0
 40
-0.6
 41
-30.0
 62
     5
 63
     7
 74
     2
 91
        2
 64
     7
 65
     7
 75
     1
175
     1
 42
40.0
 92
        8
 66
     7
 43
1.0
 76
     1
 77
     6
 78
     2
 67
     7
 79
     3
170
     0
171
     0
290
     0
174
     0
 93
        1
 44
0.0
173
     0
291
     0
 45
0.0
1001
ACAD
1000
AcDbSavedByObjectVersion
1070
     0
  0
VISUALSTYLE
  5
194
102
{ACAD_XDICTIONARY
360
FE6
102
}
102
{ACAD_REACTORS
330
29
102
}
330
29
100
AcDbVisualStyle
  2

 70
    24
 71
     1
 72
     2
 73
     2
 90
        0
 40
-0.6
 41
-30.0
 62
     5
 63
     7
 74
     2
 91
        2
 64
     7
 65
     7
 75
     1
175
     1
 42
40.0
 92
       11
 66
     7
 43
1.0
 76
     1
 77
     6
 78
     2
 67
     7
 79
     6
170
     0
171
     0
290
     0
174
     0
 93
        1
 44
0.0
173
     0
291
     0
 45
0.0
1001
ACAD
1000
AcDbSavedByObjectVersion
1070
     0
  0
VISUALSTYLE
  5
36
102
{ACAD_XDICTIONARY
360
FD1
102
}
102
{ACAD_REACTORS
330
29
102
}
330
29
100
AcDbVisualStyle
  2

 70
    13
 71
     2
 72
     2
 73
     0
 90
        0
 40
-0.6
 41
-30.0
 62
     5
 63
     7
 74
     1
 91
        4
 64
     7
 65
   257
 75
     1
175
     1
 42
1.0
 92
       12
 66
     7
 43
1.0
 76
     1
 77
     6
 78
     2
 67
     7
 79
     5
170
     0
171
     0
290
     0
174
     0
 93
        1
 44
0.0
173
     0
291
     1
 45
0.0
1001
ACAD
1000
AcDbSavedByObjectVersion
1070
     0
  0
VISUALSTYLE
  5
191
102
{ACAD_XDICTIONARY
360
FE0
102
}
102
{ACAD_REACTORS
330
29
102
}
330
29
100
AcDbVisualStyle
  2

 70
     5
 71
     0
 72
     2
 73
     0
 90
        0
 40
-0.6
 41
-30.0
 62
     5
 63
     7
 74
     1
 91
        4
 64
     7
 65
   257
 75
     1
175
     1
 42
1.0
 92
        0
 66
   257
 43
1.0
 76
     1
 77
     6
 78
     2
 67
     7
 79
     3
170
     0
171
     0
290
     0
174
     0
 93
        1
 44
0.0
173
     0
291
     0
 45
0.0
1001
ACAD
1000
AcDbSavedByObjectVersion
1070
     0
  0
VISUALSTYLE
  5
195
102
{ACAD_XDICTIONARY
360
FE8
102
}
102
{ACAD_REACTORS
330
29
102
}
330
29
100
AcDbVisualStyle
  2

 70
    25
 71
     2
 72
     2
 73
     1
 90
        1
 40
0.5
 41
-30.0
 62
     5
 63
     7
 74
     1
 91
        0
 64
     7
 65
   257
 75
     1
175
     1
 42
1.0
 92
        8
 66
     7
 43
1.0
 76
     1
 77
     6
 78
     2
 67
     7
 79
     3
170
     0
171
     0
290
     0
174
     0
 93
       13
 44
0.0
173
     0
291
     0
 45
0.0
1001
ACAD
1000
AcDbSavedByObjectVersion
1070
     0
  0
DICTIONARYVAR
  5
18F
102
{ACAD_REACTORS
330
18C
102
}
330
18C
100
DictionaryVariables
280
     0
  1
1:1
  0
DICTIONARYVAR
  5
18E
102
{ACAD_REACTORS
330
18C
102
}
330
18C
100
DictionaryVariables
280
     0
  1
STANDARD
  0
DICTIONARYVAR
  5
18D
102
{ACAD_REACTORS
330
18C
102
}
330
18C
100
DictionaryVariables
280
     0
  1
STANDARD
  0
DICTIONARYVAR
  5
E98
102
{ACAD_REACTORS
330
18C
102
}
330
18C
100
DictionaryVariables
280
     0
  1
2
  0
DICTIONARYVAR
  5
E96
102
{ACAD_REACTORS
330
18C
102
}
330
18C
100
DictionaryVariables
280
     0
  1
1
  0
DICTIONARYVAR
  5
E95
102
{ACAD_REACTORS
330
18C
102
}
330
18C
100
DictionaryVariables
280
     0
  1
0
  0
DICTIONARYVAR
  5
E92
102
{ACAD_REACTORS
330
18C
102
}
330
18C
100
DictionaryVariables
280
     0
  1
0
  0
DICTIONARYVAR
  5
E93
102
{ACAD_REACTORS
330
18C
102
}
330
18C
100
DictionaryVariables
280
     0
  1
0
  0
DICTIONARYVAR
  5
E91
102
{ACAD_REACTORS
330
18C
102
}
330
18C
100
DictionaryVariables
280
     0
  1
2
  0
DICTIONARYVAR
  5
E90
102
{ACAD_REACTORS
330
18C
102
}
330
18C
100
DictionaryVariables
280
     0
  1
1
  0
DICTIONARYVAR
  5
E94
102
{ACAD_REACTORS
330
18C
102
}
330
18C
100
DictionaryVariables
280
     0
  1
127
  0
DICTIONARYVAR
  5
FB3
102
{ACAD_REACTORS
330
18C
102
}
330
18C
100
DictionaryVariables
280
     0
  1
2
  0
DICTIONARY
  5
E4
102
{ACAD_REACTORS
330
E3
102
}
330
E3
100
AcDbDictionary
281
     1
  0
XRECORD
  5
8DB
102
{ACAD_REACTORS
330
E3
102
}
330
E3
100
AcDbXrecord
280
     1
 90
-1023410174
  0
DICTIONARY
  5
FDC
330
68
100
AcDbDictionary
280
     1
281
     1
  3
ACAD_XREC_ROUNDTRIP
360
FDD
  0
DICTIONARY
  5
FDA
330
64
100
AcDbDictionary
280
     1
281
     1
  3
ACAD_XREC_ROUNDTRIP
360
FDB
  0
DICTIONARY
  5
FDE
330
6C
100
AcDbDictionary
280
     1
281
     1
  3
ACAD_XREC_ROUNDTRIP
360
FDF
  0
DICTIONARY
  5
1A
330
19
100
AcDbDictionary
280
     1
281
     1
  3
ACAD_XREC_ROUNDTRIP
360
E9D
  3
BUMPTILE
360
1C
  3
DIFFUSETILE
360
1B
  3
OPACITYTILE
360
1F
  3
REFLECTIONTILE
360
1E
  3
REFRACTIONTILE
360
20
  3
SPECULARTILE
360
1D
  0
DICTIONARY
  5
12
330
11
100
AcDbDictionary
280
     1
281
     1
  3
ACAD_XREC_ROUNDTRIP
360
E9C
  3
BUMPTILE
360
14
  3
DIFFUSETILE
360
13
  3
OPACITYTILE
360
17
  3
REFLECTIONTILE
360
16
  3
REFRACTIONTILE
360
18
  3
SPECULARTILE
360
15
  0
DICTIONARY
  5
22
330
21
100
AcDbDictionary
280
     1
281
     1
  3
ACAD_XREC_ROUNDTRIP
360
E9E
  3
BUMPTILE
360
24
  3
DIFFUSETILE
360
23
  3
OPACITYTILE
360
27
  3
REFLECTIONTILE
360
26
  3
REFRACTIONTILE
360
28
  3
SPECULARTILE
360
25
  0
DICTIONARY
  5
189
330
5D
100
AcDbDictionary
280
     1
281
     1
  3
ACAD_ROUNDTRIP_2008_TABLESTYLE_CELLSTYLEMAP
360
FB4
  3
ACAD_XREC_ROUNDTRIP
360
FD9
  0
DICTIONARY
  5
FC3
330
2F
100
AcDbDictionary
280
     1
281
     1
  3
ACAD_XREC_ROUNDTRIP
360
FC4
  0
DICTIONARY
  5
FC7
330
31
100
AcDbDictionary
280
     1
281
     1
  3
ACAD_XREC_ROUNDTRIP
360
FC8
  0
DICTIONARY
  5
FC5
330
30
100
AcDbDictionary
280
     1
281
     1
  3
ACAD_XREC_ROUNDTRIP
360
FC6
  0
DICTIONARY
  5
FC1
330
2E
100
AcDbDictionary
280
     1
281
     1
  3
ACAD_XREC_ROUNDTRIP
360
FC2
  0
DICTIONARY
  5
FCF
330
35
100
AcDbDictionary
280
     1
281
     1
  3
ACAD_XREC_ROUNDTRIP
360
FD0
  0
DICTIONARY
  5
FD7
330
39
100
AcDbDictionary
280
     1
281
     1
  3
ACAD_XREC_ROUNDTRIP
360
FD8
  0
DICTIONARY
  5
FC9
330
32
100
AcDbDictionary
280
     1
281
     1
  3
ACAD_XREC_ROUNDTRIP
360
FCA
  0
DICTIONARY
  5
FCD
330
34
100
AcDbDictionary
280
     1
281
     1
  3
ACAD_XREC_ROUNDTRIP
360
FCE
  0
DICTIONARY
  5
FF2
330
19A
100
AcDbDictionary
280
     1
281
     1
  3
ACAD_XREC_ROUNDTRIP
360
FF3
  0
DICTIONARY
  5
FD5
330
38
100
AcDbDictionary
280
     1
281
     1
  3
ACAD_XREC_ROUNDTRIP
360
FD6
  0
DICTIONARY
  5
FB9
330
2A
100
AcDbDictionary
280
     1
281
     1
  3
ACAD_XREC_ROUNDTRIP
360
FBA
  0
DICTIONARY
  5
FBB
330
2B
100
AcDbDictionary
280
     1
281
     1
  3
ACAD_XREC_ROUNDTRIP
360
FBC
  0
DICTIONARY
  5
FBD
330
2C
100
AcDbDictionary
280
     1
281
     1
  3
ACAD_XREC_ROUNDTRIP
360
FBE
  0
DICTIONARY
  5
FBF
330
2D
100
AcDbDictionary
280
     1
281
     1
  3
ACAD_XREC_ROUNDTRIP
360
FC0
  0
DICTIONARY
  5
FE2
330
192
100
AcDbDictionary
280
     1
281
     1
  3
ACAD_XREC_ROUNDTRIP
360
FE3
  0
DICTIONARY
  5
FEE
330
198
100
AcDbDictionary
280
     1
281
     1
  3
ACAD_XREC_ROUNDTRIP
360
FEF
  0
DICTIONARY
  5
FD3
330
37
100
AcDbDictionary
280
     1
281
     1
  3
ACAD_XREC_ROUNDTRIP
360
FD4
  0
DICTIONARY
  5
FF0
330
199
100
AcDbDictionary
280
     1
281
     1
  3
ACAD_XREC_ROUNDTRIP
360
FF1
  0
DICTIONARY
  5
FCB
330
33
100
AcDbDictionary
280
     1
281
     1
  3
ACAD_XREC_ROUNDTRIP
360
FCC
  0
DICTIONARY
  5
FEC
330
197
100
AcDbDictionary
280
     1
281
     1
  3
ACAD_XREC_ROUNDTRIP
360
FED
  0
DICTIONARY
  5
FEA
330
196
100
AcDbDictionary
280
     1
281
     1
  3
ACAD_XREC_ROUNDTRIP
360
FEB
  0
DICTIONARY
  5
FE4
330
193
100
AcDbDictionary
280
     1
281
     1
  3
ACAD_XREC_ROUNDTRIP
360
FE5
  0
DICTIONARY
  5
FE6
330
194
100
AcDbDictionary
280
     1
281
     1
  3
ACAD_XREC_ROUNDTRIP
360
FE7
  0
DICTIONARY
  5
FD1
330
36
100
AcDbDictionary
280
     1
281
     1
  3
ACAD_XREC_ROUNDTRIP
360
FD2
  0
DICTIONARY
  5
FE0
330
191
100
AcDbDictionary
280
     1
281
     1
  3
ACAD_XREC_ROUNDTRIP
360
FE1
  0
DICTIONARY
  5
FE8
330
195
100
AcDbDictionary
280
     1
281
     1
  3
ACAD_XREC_ROUNDTRIP
360
FE9
  0
XRECORD
  5
FDD
102
{ACAD_REACTORS
330
FDC
102
}
330
FDC
100
AcDbXrecord
280
     1
102
SHADEPLOT
 70
     0
102
SHADEPLOTRESLEVEL
 70
     2
102
SHADEPLOTCUSTOMDPI
 70
   300
  0
XRECORD
  5
FDB
102
{ACAD_REACTORS
330
FDA
102
}
330
FDA
100
AcDbXrecord
280
     1
102
SHADEPLOT
 70
     0
102
SHADEPLOTRESLEVEL
 70
     2
102
SHADEPLOTCUSTOMDPI
 70
   300
  0
XRECORD
  5
FDF
102
{ACAD_REACTORS
330
FDE
102
}
330
FDE
100
AcDbXrecord
280
     1
102
SHADEPLOT
 70
     0
102
SHADEPLOTRESLEVEL
 70
     2
102
SHADEPLOTCUSTOMDPI
 70
   300
  0
XRECORD
  5
E9D
102
{ACAD_REACTORS
330
1A
102
}
330
1A
100
AcDbXrecord
280
     1
102
MATERIAL
148
0.0
149
0.0
149
0.0
 93
        0
 94
      127
282
     0
 72
     0
 77
     0
171
     0
175
     0
179
     0
273
     0
  0
XRECORD
  5
1C
102
{ACAD_REACTORS
330
1A
102
}
330
1A
100
AcDbXrecord
280
     1
270
     1
271
     1
  0
XRECORD
  5
1B
102
{ACAD_REACTORS
330
1A
102
}
330
1A
100
AcDbXrecord
280
     1
270
     1
271
     1
  0
XRECORD
  5
1F
102
{ACAD_REACTORS
330
1A
102
}
330
1A
100
AcDbXrecord
280
     1
270
     1
271
     1
  0
XRECORD
  5
1E
102
{ACAD_REACTORS
330
1A
102
}
330
1A
100
AcDbXrecord
280
     1
270
     1
271
     1
  0
XRECORD
  5
20
102
{ACAD_REACTORS
330
1A
102
}
330
1A
100
AcDbXrecord
280
     1
270
     1
271
     1
  0
XRECORD
  5
1D
102
{ACAD_REACTORS
330
1A
102
}
330
1A
100
AcDbXrecord
280
     1
270
     1
271
     1
  0
XRECORD
  5
E9C
102
{ACAD_REACTORS
330
12
102
}
330
12
100
AcDbXrecord
280
     1
102
MATERIAL
148
0.0
149
0.0
149
0.0
 93
        0
 94
      127
282
     0
 72
     0
 77
     0
171
     0
175
     0
179
     0
273
     0
  0
XRECORD
  5
14
102
{ACAD_REACTORS
330
12
102
}
330
12
100
AcDbXrecord
280
     1
270
     1
271
     1
  0
XRECORD
  5
13
102
{ACAD_REACTORS
330
12
102
}
330
12
100
AcDbXrecord
280
     1
270
     1
271
     1
  0
XRECORD
  5
17
102
{ACAD_REACTORS
330
12
102
}
330
12
100
AcDbXrecord
280
     1
270
     1
271
     1
  0
XRECORD
  5
16
102
{ACAD_REACTORS
330
12
102
}
330
12
100
AcDbXrecord
280
     1
270
     1
271
     1
  0
XRECORD
  5
18
102
{ACAD_REACTORS
330
12
102
}
330
12
100
AcDbXrecord
280
     1
270
     1
271
     1
  0
XRECORD
  5
15
102
{ACAD_REACTORS
330
12
102
}
330
12
100
AcDbXrecord
280
     1
270
     1
271
     1
  0
XRECORD
  5
E9E
102
{ACAD_REACTORS
330
22
102
}
330
22
100
AcDbXrecord
280
     1
102
MATERIAL
148
0.0
149
0.0
149
0.0
 93
        0
 94
      127
282
     0
 72
     0
 77
     0
171
     0
175
     0
179
     0
273
     0
  0
XRECORD
  5
24
102
{ACAD_REACTORS
330
22
102
}
330
22
100
AcDbXrecord
280
     1
270
     1
271
     1
  0
XRECORD
  5
23
102
{ACAD_REACTORS
330
22
102
}
330
22
100
AcDbXrecord
280
     1
270
     1
271
     1
  0
XRECORD
  5
27
102
{ACAD_REACTORS
330
22
102
}
330
22
100
AcDbXrecord
280
     1
270
     1
271
     1
  0
XRECORD
  5
26
102
{ACAD_REACTORS
330
22
102
}
330
22
100
AcDbXrecord
280
     1
270
     1
271
     1
  0
XRECORD
  5
28
102
{ACAD_REACTORS
330
22
102
}
330
22
100
AcDbXrecord
280
     1
270
     1
271
     1
  0
XRECORD
  5
25
102
{ACAD_REACTORS
330
22
102
}
330
22
100
AcDbXrecord
280
     1
270
     1
271
     1
  0
CELLSTYLEMAP
  5
FB4
102
{ACAD_REACTORS
330
189
102
}
330
189
100
AcDbCellStyleMap
 90
        3
300
CELLSTYLE
  1
TABLEFORMAT_BEGIN
 90
        5
170
     1
 91
        0
 92
    32768
 62
   257
 93
        1
300
CONTENTFORMAT
  1
CONTENTFORMAT_BEGIN
 90
        0
 91
        0
 92
      512
 93
        0
300

 40
0.0
140
1.0
 94
        5
 62
     0
340
4D
144
6.0
309
CONTENTFORMAT_END
171
     1
301
MARGIN
  1
CELLMARGIN_BEGIN
 40
1.5
 40
1.5
 40
1.5
 40
1.5
 40
0.18
 40
0.18
309
CELLMARGIN_END
 94
        6
 95
        1
302
GRIDFORMAT
  1
GRIDFORMAT_BEGIN
 90
        0
 91
        1
 62
     0
 92
       -2
340
0
 93
        0
 40
1.125
309
GRIDFORMAT_END
 95
        2
302
GRIDFORMAT
  1
GRIDFORMAT_BEGIN
 90
        0
 91
        1
 62
     0
 92
       -2
340
0
 93
        0
 40
1.125
309
GRIDFORMAT_END
 95
        4
302
GRIDFORMAT
  1
GRIDFORMAT_BEGIN
 90
        0
 91
        1
 62
     0
 92
       -2
340
0
 93
        0
 40
1.125
309
GRIDFORMAT_END
 95
        8
302
GRIDFORMAT
  1
GRIDFORMAT_BEGIN
 90
        0
 91
        1
 62
     0
 92
       -2
340
0
 93
        0
 40
1.125
309
GRIDFORMAT_END
 95
       16
302
GRIDFORMAT
  1
GRIDFORMAT_BEGIN
 90
        0
 91
        1
 62
     0
 92
       -2
340
0
 93
        0
 40
1.125
309
GRIDFORMAT_END
 95
       32
302
GRIDFORMAT
  1
GRIDFORMAT_BEGIN
 90
        0
 91
        1
 62
     0
 92
       -2
340
0
 93
        0
 40
1.125
309
GRIDFORMAT_END
309
TABLEFORMAT_END
  1
CELLSTYLE_BEGIN
 90
        1
 91
        1
300
_TITLE
309
CELLSTYLE_END
300
CELLSTYLE
  1
TABLEFORMAT_BEGIN
 90
        5
170
     1
 91
        0
 92
        0
 62
   257
 93
        1
300
CONTENTFORMAT
  1
CONTENTFORMAT_BEGIN
 90
        0
 91
        0
 92
      512
 93
        0
300

 40
0.0
140
1.0
 94
        5
 62
     0
340
4D
144
4.5
309
CONTENTFORMAT_END
171
     1
301
MARGIN
  1
CELLMARGIN_BEGIN
 40
1.5
 40
1.5
 40
1.5
 40
1.5
 40
0.18
 40
0.18
309
CELLMARGIN_END
 94
        6
 95
        1
302
GRIDFORMAT
  1
GRIDFORMAT_BEGIN
 90
        0
 91
        1
 62
     0
 92
       -2
340
0
 93
        0
 40
1.125
309
GRIDFORMAT_END
 95
        2
302
GRIDFORMAT
  1
GRIDFORMAT_BEGIN
 90
        0
 91
        1
 62
     0
 92
       -2
340
0
 93
        0
 40
1.125
309
GRIDFORMAT_END
 95
        4
302
GRIDFORMAT
  1
GRIDFORMAT_BEGIN
 90
        0
 91
        1
 62
     0
 92
       -2
340
0
 93
        0
 40
1.125
309
GRIDFORMAT_END
 95
        8
302
GRIDFORMAT
  1
GRIDFORMAT_BEGIN
 90
        0
 91
        1
 62
     0
 92
       -2
340
0
 93
        0
 40
1.125
309
GRIDFORMAT_END
 95
       16
302
GRIDFORMAT
  1
GRIDFORMAT_BEGIN
 90
        0
 91
        1
 62
     0
 92
       -2
340
0
 93
        0
 40
1.125
309
GRIDFORMAT_END
 95
       32
302
GRIDFORMAT
  1
GRIDFORMAT_BEGIN
 90
        0
 91
        1
 62
     0
 92
       -2
340
0
 93
        0
 40
1.125
309
GRIDFORMAT_END
309
TABLEFORMAT_END
  1
CELLSTYLE_BEGIN
 90
        2
 91
        1
300
_HEADER
309
CELLSTYLE_END
300
CELLSTYLE
  1
TABLEFORMAT_BEGIN
 90
        5
170
     1
 91
        0
 92
        0
 62
   257
 93
        1
300
CONTENTFORMAT
  1
CONTENTFORMAT_BEGIN
 90
        0
 91
        0
 92
      512
 93
        0
300

 40
0.0
140
1.0
 94
        2
 62
     0
340
4D
144
4.5
309
CONTENTFORMAT_END
171
     1
301
MARGIN
  1
CELLMARGIN_BEGIN
 40
1.5
 40
1.5
 40
1.5
 40
1.5
 40
0.18
 40
0.18
309
CELLMARGIN_END
 94
        6
 95
        1
302
GRIDFORMAT
  1
GRIDFORMAT_BEGIN
 90
        0
 91
        1
 62
     0
 92
       -2
340
0
 93
        0
 40
1.125
309
GRIDFORMAT_END
 95
        2
302
GRIDFORMAT
  1
GRIDFORMAT_BEGIN
 90
        0
 91
        1
 62
     0
 92
       -2
340
0
 93
        0
 40
1.125
309
GRIDFORMAT_END
 95
        4
302
GRIDFORMAT
  1
GRIDFORMAT_BEGIN
 90
        0
 91
        1
 62
     0
 92
       -2
340
0
 93
        0
 40
1.125
309
GRIDFORMAT_END
 95
        8
302
GRIDFORMAT
  1
GRIDFORMAT_BEGIN
 90
        0
 91
        1
 62
     0
 92
       -2
340
0
 93
        0
 40
1.125
309
GRIDFORMAT_END
 95
       16
302
GRIDFORMAT
  1
GRIDFORMAT_BEGIN
 90
        0
 91
        1
 62
     0
 92
       -2
340
0
 93
        0
 40
1.125
309
GRIDFORMAT_END
 95
       32
302
GRIDFORMAT
  1
GRIDFORMAT_BEGIN
 90
        0
 91
        1
 62
     0
 92
       -2
340
0
 93
        0
 40
1.125
309
GRIDFORMAT_END
309
TABLEFORMAT_END
  1
CELLSTYLE_BEGIN
 90
        3
 91
        2
300
_DATA
309
CELLSTYLE_END
  0
XRECORD
  5
FD9
102
{ACAD_REACTORS
330
189
102
}
330
189
100
AcDbXrecord
280
     1
102
ACAD_ROUNDTRIP_PRE2007_TABLESTYLE
 90
      512
 91
        0
  1

 92
      512
 93
        0
  2

 94
      512
 95
        0
  3

  0
XRECORD
  5
FC4
102
{ACAD_REACTORS
330
FC3
102
}
330
FC3
100
AcDbXrecord
280
     1
102
RTVSPropertyOp0
 70
     1
102
RTVSPropertyOp1
 70
     1
102
RTVSPropertyOp2
 70
     1
102
RTVSPropertyOp3
 70
     1
102
RTVSPropertyOp4
 70
     1
102
RTVSPropertyOp5
 70
     1
102
RTVSPropertyOp6
 70
     1
102
RTVSPropertyOp7
 70
     1
102
RTVSPropertyOp8
 70
     1
102
RTVSPropertyOp9
 70
     1
102
RTVSPropertyOp10
 70
     1
102
RTVSPropertyOp11
 70
     1
102
RTVSPropertyOp12
 70
     1
102
RTVSPropertyOp13
 70
     1
102
RTVSPropertyOp14
 70
     1
102
RTVSPropertyOp15
 70
     1
102
RTVSPropertyOp16
 70
     1
102
RTVSPropertyOp17
 70
     1
102
RTVSPropertyOp18
 70
     1
102
RTVSPropertyOp19
 70
     1
102
RTVSPropertyOp20
 70
     1
102
RTVSPropertyOp21
 70
     1
102
RTVSPropertyOp22
 70
     1
102
RTVSPropertyOp23
 70
     1
102
RTVSPropertyOp24
 70
     1
102
RTVSPropertyOp25
 70
     1
102
RTVSPropertyOp26
 70
     1
102
RTVSPropertyOp27
 70
     1
102
RTVSPropertyOp28
 70
     1
102
RTVSPropertyOp29
 70
     1
102
RTVSPropertyOp30
 70
     1
102
RTVSPropertyOp31
 70
     1
102
RTVSPropertyOp32
 70
     1
  0
XRECORD
  5
FC8
102
{ACAD_REACTORS
330
FC7
102
}
330
FC7
100
AcDbXrecord
280
     1
102
RTVSPropertyOp0
 70
     1
102
RTVSPropertyOp1
 70
     1
102
RTVSPropertyOp2
 70
     1
102
RTVSPropertyOp3
 70
     1
102
RTVSPropertyOp4
 70
     1
102
RTVSPropertyOp5
 70
     1
102
RTVSPropertyOp6
 70
     1
102
RTVSPropertyOp7
 70
     1
102
RTVSPropertyOp8
 70
     1
102
RTVSPropertyOp9
 70
     1
102
RTVSPropertyOp10
 70
     1
102
RTVSPropertyOp11
 70
     1
102
RTVSPropertyOp12
 70
     1
102
RTVSPropertyOp13
 70
     1
102
RTVSPropertyOp14
 70
     1
102
RTVSPropertyOp15
 70
     1
102
RTVSPropertyOp16
 70
     1
102
RTVSPropertyOp17
 70
     1
102
RTVSPropertyOp18
 70
     1
102
RTVSPropertyOp19
 70
     1
102
RTVSPropertyOp20
 70
     1
102
RTVSPropertyOp21
 70
     1
102
RTVSPropertyOp22
 70
     1
102
RTVSPropertyOp23
 70
     1
102
RTVSPropertyOp24
 70
     1
102
RTVSPropertyOp25
 70
     1
102
RTVSPropertyOp26
 70
     1
102
RTVSPropertyOp27
 70
     1
102
RTVSPropertyOp28
 70
     1
102
RTVSPropertyOp29
 70
     1
102
RTVSPropertyOp30
 70
     1
102
RTVSPropertyOp31
 70
     1
102
RTVSPropertyOp32
 70
     1
  0
XRECORD
  5
FC6
102
{ACAD_REACTORS
330
FC5
102
}
330
FC5
100
AcDbXrecord
280
     1
102
RTVSPropertyOp0
 70
     1
102
RTVSPropertyOp1
 70
     1
102
RTVSPropertyOp2
 70
     1
102
RTVSPropertyOp3
 70
     1
102
RTVSPropertyOp4
 70
     1
102
RTVSPropertyOp5
 70
     1
102
RTVSPropertyOp6
 70
     1
102
RTVSPropertyOp7
 70
     1
102
RTVSPropertyOp8
 70
     1
102
RTVSPropertyOp9
 70
     1
102
RTVSPropertyOp10
 70
     1
102
RTVSPropertyOp11
 70
     1
102
RTVSPropertyOp12
 70
     1
102
RTVSPropertyOp13
 70
     1
102
RTVSPropertyOp14
 70
     1
102
RTVSPropertyOp15
 70
     1
102
RTVSPropertyOp16
 70
     1
102
RTVSPropertyOp17
 70
     1
102
RTVSPropertyOp18
 70
     1
102
RTVSPropertyOp19
 70
     1
102
RTVSPropertyOp20
 70
     1
102
RTVSPropertyOp21
 70
     1
102
RTVSPropertyOp22
 70
     1
102
RTVSPropertyOp23
 70
     1
102
RTVSPropertyOp24
 70
     1
102
RTVSPropertyOp25
 70
     1
102
RTVSPropertyOp26
 70
     1
102
RTVSPropertyOp27
 70
     1
102
RTVSPropertyOp28
 70
     1
102
RTVSPropertyOp29
 70
     1
102
RTVSPropertyOp30
 70
     1
102
RTVSPropertyOp31
 70
     1
102
RTVSPropertyOp32
 70
     1
  0
XRECORD
  5
FC2
102
{ACAD_REACTORS
330
FC1
102
}
330
FC1
100
AcDbXrecord
280
     1
102
RTVSPropertyOp0
 70
     1
102
RTVSPropertyOp1
 70
     1
102
RTVSPropertyOp2
 70
     1
102
RTVSPropertyOp3
 70
     1
102
RTVSPropertyOp4
 70
     1
102
RTVSPropertyOp5
 70
     1
102
RTVSPropertyOp6
 70
     1
102
RTVSPropertyOp7
 70
     1
102
RTVSPropertyOp8
 70
     1
102
RTVSPropertyOp9
 70
     1
102
RTVSPropertyOp10
 70
     1
102
RTVSPropertyOp11
 70
     1
102
RTVSPropertyOp12
 70
     1
102
RTVSPropertyOp13
 70
     1
102
RTVSPropertyOp14
 70
     1
102
RTVSPropertyOp15
 70
     1
102
RTVSPropertyOp16
 70
     1
102
RTVSPropertyOp17
 70
     1
102
RTVSPropertyOp18
 70
     1
102
RTVSPropertyOp19
 70
     1
102
RTVSPropertyOp20
 70
     1
102
RTVSPropertyOp21
 70
     1
102
RTVSPropertyOp22
 70
     1
102
RTVSPropertyOp23
 70
     1
102
RTVSPropertyOp24
 70
     1
102
RTVSPropertyOp25
 70
     1
102
RTVSPropertyOp26
 70
     1
102
RTVSPropertyOp27
 70
     1
102
RTVSPropertyOp28
 70
     1
102
RTVSPropertyOp29
 70
     1
102
RTVSPropertyOp30
 70
     1
102
RTVSPropertyOp31
 70
     1
102
RTVSPropertyOp32
 70
     1
  0
XRECORD
  5
FD0
102
{ACAD_REACTORS
330
FCF
102
}
330
FCF
100
AcDbXrecord
280
     1
102
RTVSPropertyOp0
 70
     1
102
RTVSPropertyOp1
 70
     1
102
RTVSPropertyOp2
 70
     1
102
RTVSPropertyOp3
 70
     1
102
RTVSPropertyOp4
 70
     1
102
RTVSPropertyOp5
 70
     1
102
RTVSPropertyOp6
 70
     1
102
RTVSPropertyOp7
 70
     1
102
RTVSPropertyOp8
 70
     1
102
RTVSPropertyOp9
 70
     1
102
RTVSPropertyOp10
 70
     1
102
RTVSPropertyOp11
 70
     1
102
RTVSPropertyOp12
 70
     1
102
RTVSPropertyOp13
 70
     1
102
RTVSPropertyOp14
 70
     1
102
RTVSPropertyOp15
 70
     1
102
RTVSPropertyOp16
 70
     1
102
RTVSPropertyOp17
 70
     1
102
RTVSPropertyOp18
 70
     1
102
RTVSPropertyOp19
 70
     1
102
RTVSPropertyOp20
 70
     1
102
RTVSPropertyOp21
 70
     1
102
RTVSPropertyOp22
 70
     1
102
RTVSPropertyOp23
 70
     1
102
RTVSPropertyOp24
 70
     1
102
RTVSPropertyOp25
 70
     1
102
RTVSPropertyOp26
 70
     1
102
RTVSPropertyOp27
 70
     1
102
RTVSPropertyOp28
 70
     1
102
RTVSPropertyOp29
 70
     1
102
RTVSPropertyOp30
 70
     1
102
RTVSPropertyOp31
 70
     1
102
RTVSPropertyOp32
 70
     1
  0
XRECORD
  5
FD8
102
{ACAD_REACTORS
330
FD7
102
}
330
FD7
100
AcDbXrecord
280
     1
102
RTVSPropertyOp0
 70
     1
102
RTVSPropertyOp1
 70
     1
102
RTVSPropertyOp2
 70
     1
102
RTVSPropertyOp3
 70
     1
102
RTVSPropertyOp4
 70
     1
102
RTVSPropertyOp5
 70
     1
102
RTVSPropertyOp6
 70
     1
102
RTVSPropertyOp7
 70
     1
102
RTVSPropertyOp8
 70
     1
102
RTVSPropertyOp9
 70
     1
102
RTVSPropertyOp10
 70
     1
102
RTVSPropertyOp11
 70
     1
102
RTVSPropertyOp12
 70
     1
102
RTVSPropertyOp13
 70
     1
102
RTVSPropertyOp14
 70
     1
102
RTVSPropertyOp15
 70
     1
102
RTVSPropertyOp16
 70
     1
102
RTVSPropertyOp17
 70
     1
102
RTVSPropertyOp18
 70
     1
102
RTVSPropertyOp19
 70
     1
102
RTVSPropertyOp20
 70
     1
102
RTVSPropertyOp21
 70
     1
102
RTVSPropertyOp22
 70
     1
102
RTVSPropertyOp23
 70
     1
102
RTVSPropertyOp24
 70
     1
102
RTVSPropertyOp25
 70
     1
102
RTVSPropertyOp26
 70
     1
102
RTVSPropertyOp27
 70
     1
102
RTVSPropertyOp28
 70
     1
102
RTVSPropertyOp29
 70
     1
102
RTVSPropertyOp30
 70
     1
102
RTVSPropertyOp31
 70
     1
102
RTVSPropertyOp32
 70
     1
  0
XRECORD
  5
FCA
102
{ACAD_REACTORS
330
FC9
102
}
330
FC9
100
AcDbXrecord
280
     1
102
RTVSPropertyOp0
 70
     1
102
RTVSPropertyOp1
 70
     1
102
RTVSPropertyOp2
 70
     1
102
RTVSPropertyOp3
 70
     1
102
RTVSPropertyOp4
 70
     1
102
RTVSPropertyOp5
 70
     1
102
RTVSPropertyOp6
 70
     1
102
RTVSPropertyOp7
 70
     1
102
RTVSPropertyOp8
 70
     1
102
RTVSPropertyOp9
 70
     1
102
RTVSPropertyOp10
 70
     1
102
RTVSPropertyOp11
 70
     1
102
RTVSPropertyOp12
 70
     1
102
RTVSPropertyOp13
 70
     1
102
RTVSPropertyOp14
 70
     1
102
RTVSPropertyOp15
 70
     1
102
RTVSPropertyOp16
 70
     1
102
RTVSPropertyOp17
 70
     1
102
RTVSPropertyOp18
 70
     1
102
RTVSPropertyOp19
 70
     1
102
RTVSPropertyOp20
 70
     1
102
RTVSPropertyOp21
 70
     1
102
RTVSPropertyOp22
 70
     1
102
RTVSPropertyOp23
 70
     1
102
RTVSPropertyOp24
 70
     1
102
RTVSPropertyOp25
 70
     1
102
RTVSPropertyOp26
 70
     1
102
RTVSPropertyOp27
 70
     1
102
RTVSPropertyOp28
 70
     1
102
RTVSPropertyOp29
 70
     1
102
RTVSPropertyOp30
 70
     1
102
RTVSPropertyOp31
 70
     1
102
RTVSPropertyOp32
 70
     1
  0
XRECORD
  5
FCE
102
{ACAD_REACTORS
330
FCD
102
}
330
FCD
100
AcDbXrecord
280
     1
102
RTVSPropertyOp0
 70
     1
102
RTVSPropertyOp1
 70
     1
102
RTVSPropertyOp2
 70
     1
102
RTVSPropertyOp3
 70
     1
102
RTVSPropertyOp4
 70
     1
102
RTVSPropertyOp5
 70
     1
102
RTVSPropertyOp6
 70
     1
102
RTVSPropertyOp7
 70
     1
102
RTVSPropertyOp8
 70
     1
102
RTVSPropertyOp9
 70
     1
102
RTVSPropertyOp10
 70
     1
102
RTVSPropertyOp11
 70
     1
102
RTVSPropertyOp12
 70
     1
102
RTVSPropertyOp13
 70
     1
102
RTVSPropertyOp14
 70
     1
102
RTVSPropertyOp15
 70
     1
102
RTVSPropertyOp16
 70
     1
102
RTVSPropertyOp17
 70
     1
102
RTVSPropertyOp18
 70
     1
102
RTVSPropertyOp19
 70
     1
102
RTVSPropertyOp20
 70
     1
102
RTVSPropertyOp21
 70
     1
102
RTVSPropertyOp22
 70
     1
102
RTVSPropertyOp23
 70
     1
102
RTVSPropertyOp24
 70
     1
102
RTVSPropertyOp25
 70
     1
102
RTVSPropertyOp26
 70
     1
102
RTVSPropertyOp27
 70
     1
102
RTVSPropertyOp28
 70
     1
102
RTVSPropertyOp29
 70
     1
102
RTVSPropertyOp30
 70
     1
102
RTVSPropertyOp31
 70
     1
102
RTVSPropertyOp32
 70
     1
  0
XRECORD
  5
FF3
102
{ACAD_REACTORS
330
FF2
102
}
330
FF2
100
AcDbXrecord
280
     1
102
RTVSPropertyOp0
 70
     0
102
RTVSPropertyOp1
 70
     0
102
RTVSPropertyOp2
 70
     0
102
RTVSPropertyOp3
 70
     0
102
RTVSPropertyOp4
 70
     0
102
RTVSPropertyOp5
 70
     0
102
RTVSPropertyOp6
 70
     0
102
RTVSPropertyOp7
 70
     0
102
RTVSPropertyOp8
 70
     0
102
RTVSPropertyOp9
 70
     0
102
RTVSPropertyOp10
 70
     0
102
RTVSPropertyOp11
 70
     0
102
RTVSPropertyOp12
 70
     0
102
RTVSPropertyOp13
 70
     0
102
RTVSPropertyOp14
 70
     2
102
RTVSPropertyOp15
 70
     0
102
RTVSPropertyOp16
 70
     0
102
RTVSPropertyOp17
 70
     0
102
RTVSPropertyOp18
 70
     0
102
RTVSPropertyOp19
 70
     0
102
RTVSPropertyOp20
 70
     0
102
RTVSPropertyOp21
 70
     0
102
RTVSPropertyOp22
 70
     0
102
RTVSPropertyOp23
 70
     0
102
RTVSPropertyOp24
 70
     0
102
RTVSPropertyOp25
 70
     0
102
RTVSPropertyOp26
 70
     0
102
RTVSPropertyOp27
 70
     0
102
RTVSPropertyOp28
 70
     0
102
RTVSPropertyOp29
 70
     0
102
RTVSPropertyOp30
 70
     0
102
RTVSPropertyOp31
 70
     0
102
RTVSPropertyOp32
 70
     0
  0
XRECORD
  5
FD6
102
{ACAD_REACTORS
330
FD5
102
}
330
FD5
100
AcDbXrecord
280
     1
102
RTVSPropertyOp0
 70
     1
102
RTVSPropertyOp1
 70
     1
102
RTVSPropertyOp2
 70
     1
102
RTVSPropertyOp3
 70
     1
102
RTVSPropertyOp4
 70
     1
102
RTVSPropertyOp5
 70
     1
102
RTVSPropertyOp6
 70
     1
102
RTVSPropertyOp7
 70
     1
102
RTVSPropertyOp8
 70
     1
102
RTVSPropertyOp9
 70
     1
102
RTVSPropertyOp10
 70
     1
102
RTVSPropertyOp11
 70
     1
102
RTVSPropertyOp12
 70
     1
102
RTVSPropertyOp13
 70
     1
102
RTVSPropertyOp14
 70
     1
102
RTVSPropertyOp15
 70
     1
102
RTVSPropertyOp16
 70
     1
102
RTVSPropertyOp17
 70
     1
102
RTVSPropertyOp18
 70
     1
102
RTVSPropertyOp19
 70
     1
102
RTVSPropertyOp20
 70
     1
102
RTVSPropertyOp21
 70
     1
102
RTVSPropertyOp22
 70
     1
102
RTVSPropertyOp23
 70
     1
102
RTVSPropertyOp24
 70
     1
102
RTVSPropertyOp25
 70
     1
102
RTVSPropertyOp26
 70
     1
102
RTVSPropertyOp27
 70
     1
102
RTVSPropertyOp28
 70
     1
102
RTVSPropertyOp29
 70
     1
102
RTVSPropertyOp30
 70
     1
102
RTVSPropertyOp31
 70
     1
102
RTVSPropertyOp32
 70
     1
  0
XRECORD
  5
FBA
102
{ACAD_REACTORS
330
FB9
102
}
330
FB9
100
AcDbXrecord
280
     1
102
RTVSPropertyOp0
 70
     1
102
RTVSPropertyOp1
 70
     1
102
RTVSPropertyOp2
 70
     1
102
RTVSPropertyOp3
 70
     1
102
RTVSPropertyOp4
 70
     1
102
RTVSPropertyOp5
 70
     1
102
RTVSPropertyOp6
 70
     1
102
RTVSPropertyOp7
 70
     1
102
RTVSPropertyOp8
 70
     1
102
RTVSPropertyOp9
 70
     1
102
RTVSPropertyOp10
 70
     1
102
RTVSPropertyOp11
 70
     1
102
RTVSPropertyOp12
 70
     1
102
RTVSPropertyOp13
 70
     1
102
RTVSPropertyOp14
 70
     1
102
RTVSPropertyOp15
 70
     1
102
RTVSPropertyOp16
 70
     1
102
RTVSPropertyOp17
 70
     1
102
RTVSPropertyOp18
 70
     1
102
RTVSPropertyOp19
 70
     1
102
RTVSPropertyOp20
 70
     1
102
RTVSPropertyOp21
 70
     1
102
RTVSPropertyOp22
 70
     1
102
RTVSPropertyOp23
 70
     1
102
RTVSPropertyOp24
 70
     1
102
RTVSPropertyOp25
 70
     1
102
RTVSPropertyOp26
 70
     1
102
RTVSPropertyOp27
 70
     1
102
RTVSPropertyOp28
 70
     1
102
RTVSPropertyOp29
 70
     1
102
RTVSPropertyOp30
 70
     1
102
RTVSPropertyOp31
 70
     1
102
RTVSPropertyOp32
 70
     1
  0
XRECORD
  5
FBC
102
{ACAD_REACTORS
330
FBB
102
}
330
FBB
100
AcDbXrecord
280
     1
102
RTVSPropertyOp0
 70
     1
102
RTVSPropertyOp1
 70
     1
102
RTVSPropertyOp2
 70
     1
102
RTVSPropertyOp3
 70
     1
102
RTVSPropertyOp4
 70
     1
102
RTVSPropertyOp5
 70
     1
102
RTVSPropertyOp6
 70
     1
102
RTVSPropertyOp7
 70
     1
102
RTVSPropertyOp8
 70
     1
102
RTVSPropertyOp9
 70
     1
102
RTVSPropertyOp10
 70
     1
102
RTVSPropertyOp11
 70
     1
102
RTVSPropertyOp12
 70
     1
102
RTVSPropertyOp13
 70
     1
102
RTVSPropertyOp14
 70
     1
102
RTVSPropertyOp15
 70
     1
102
RTVSPropertyOp16
 70
     1
102
RTVSPropertyOp17
 70
     1
102
RTVSPropertyOp18
 70
     1
102
RTVSPropertyOp19
 70
     1
102
RTVSPropertyOp20
 70
     1
102
RTVSPropertyOp21
 70
     1
102
RTVSPropertyOp22
 70
     1
102
RTVSPropertyOp23
 70
     1
102
RTVSPropertyOp24
 70
     1
102
RTVSPropertyOp25
 70
     1
102
RTVSPropertyOp26
 70
     1
102
RTVSPropertyOp27
 70
     1
102
RTVSPropertyOp28
 70
     1
102
RTVSPropertyOp29
 70
     1
102
RTVSPropertyOp30
 70
     1
102
RTVSPropertyOp31
 70
     1
102
RTVSPropertyOp32
 70
     1
  0
XRECORD
  5
FBE
102
{ACAD_REACTORS
330
FBD
102
}
330
FBD
100
AcDbXrecord
280
     1
102
RTVSPropertyOp0
 70
     1
102
RTVSPropertyOp1
 70
     1
102
RTVSPropertyOp2
 70
     1
102
RTVSPropertyOp3
 70
     1
102
RTVSPropertyOp4
 70
     1
102
RTVSPropertyOp5
 70
     1
102
RTVSPropertyOp6
 70
     1
102
RTVSPropertyOp7
 70
     1
102
RTVSPropertyOp8
 70
     1
102
RTVSPropertyOp9
 70
     1
102
RTVSPropertyOp10
 70
     1
102
RTVSPropertyOp11
 70
     1
102
RTVSPropertyOp12
 70
     1
102
RTVSPropertyOp13
 70
     1
102
RTVSPropertyOp14
 70
     1
102
RTVSPropertyOp15
 70
     1
102
RTVSPropertyOp16
 70
     1
102
RTVSPropertyOp17
 70
     1
102
RTVSPropertyOp18
 70
     1
102
RTVSPropertyOp19
 70
     1
102
RTVSPropertyOp20
 70
     1
102
RTVSPropertyOp21
 70
     1
102
RTVSPropertyOp22
 70
     1
102
RTVSPropertyOp23
 70
     1
102
RTVSPropertyOp24
 70
     1
102
RTVSPropertyOp25
 70
     1
102
RTVSPropertyOp26
 70
     1
102
RTVSPropertyOp27
 70
     1
102
RTVSPropertyOp28
 70
     1
102
RTVSPropertyOp29
 70
     1
102
RTVSPropertyOp30
 70
     1
102
RTVSPropertyOp31
 70
     1
102
RTVSPropertyOp32
 70
     1
  0
XRECORD
  5
FC0
102
{ACAD_REACTORS
330
FBF
102
}
330
FBF
100
AcDbXrecord
280
     1
102
RTVSPropertyOp0
 70
     1
102
RTVSPropertyOp1
 70
     1
102
RTVSPropertyOp2
 70
     1
102
RTVSPropertyOp3
 70
     1
102
RTVSPropertyOp4
 70
     1
102
RTVSPropertyOp5
 70
     1
102
RTVSPropertyOp6
 70
     1
102
RTVSPropertyOp7
 70
     1
102
RTVSPropertyOp8
 70
     1
102
RTVSPropertyOp9
 70
     1
102
RTVSPropertyOp10
 70
     1
102
RTVSPropertyOp11
 70
     1
102
RTVSPropertyOp12
 70
     1
102
RTVSPropertyOp13
 70
     1
102
RTVSPropertyOp14
 70
     1
102
RTVSPropertyOp15
 70
     1
102
RTVSPropertyOp16
 70
     1
102
RTVSPropertyOp17
 70
     1
102
RTVSPropertyOp18
 70
     1
102
RTVSPropertyOp19
 70
     1
102
RTVSPropertyOp20
 70
     1
102
RTVSPropertyOp21
 70
     1
102
RTVSPropertyOp22
 70
     1
102
RTVSPropertyOp23
 70
     1
102
RTVSPropertyOp24
 70
     1
102
RTVSPropertyOp25
 70
     1
102
RTVSPropertyOp26
 70
     1
102
RTVSPropertyOp27
 70
     1
102
RTVSPropertyOp28
 70
     1
102
RTVSPropertyOp29
 70
     1
102
RTVSPropertyOp30
 70
     1
102
RTVSPropertyOp31
 70
     1
102
RTVSPropertyOp32
 70
     1
  0
XRECORD
  5
FE3
102
{ACAD_REACTORS
330
FE2
102
}
330
FE2
100
AcDbXrecord
280
     1
102
RTVSPropertyOp0
 70
     1
102
RTVSPropertyOp1
 70
     1
102
RTVSPropertyOp2
 70
     1
102
RTVSPropertyOp3
 70
     1
102
RTVSPropertyOp4
 70
     1
102
RTVSPropertyOp5
 70
     1
102
RTVSPropertyOp6
 70
     1
102
RTVSPropertyOp7
 70
     1
102
RTVSPropertyOp8
 70
     1
102
RTVSPropertyOp9
 70
     1
102
RTVSPropertyOp10
 70
     1
102
RTVSPropertyOp11
 70
     1
102
RTVSPropertyOp12
 70
     1
102
RTVSPropertyOp13
 70
     1
102
RTVSPropertyOp14
 70
     1
102
RTVSPropertyOp15
 70
     1
102
RTVSPropertyOp16
 70
     1
102
RTVSPropertyOp17
 70
     1
102
RTVSPropertyOp18
 70
     1
102
RTVSPropertyOp19
 70
     1
102
RTVSPropertyOp20
 70
     1
102
RTVSPropertyOp21
 70
     1
102
RTVSPropertyOp22
 70
     1
102
RTVSPropertyOp23
 70
     1
102
RTVSPropertyOp24
 70
     1
102
RTVSPropertyOp25
 70
     1
102
RTVSPropertyOp26
 70
     1
102
RTVSPropertyOp27
 70
     1
102
RTVSPropertyOp28
 70
     1
102
RTVSPropertyOp29
 70
     1
102
RTVSPropertyOp30
 70
     1
102
RTVSPropertyOp31
 70
     1
102
RTVSPropertyOp32
 70
     1
  0
XRECORD
  5
FEF
102
{ACAD_REACTORS
330
FEE
102
}
330
FEE
100
AcDbXrecord
280
     1
102
RTVSPropertyOp0
 70
     0
102
RTVSPropertyOp1
 70
     0
102
RTVSPropertyOp2
 70
     0
102
RTVSPropertyOp3
 70
     0
102
RTVSPropertyOp4
 70
     0
102
RTVSPropertyOp5
 70
     0
102
RTVSPropertyOp6
 70
     0
102
RTVSPropertyOp7
 70
     0
102
RTVSPropertyOp8
 70
     0
102
RTVSPropertyOp9
 70
     0
102
RTVSPropertyOp10
 70
     0
102
RTVSPropertyOp11
 70
     0
102
RTVSPropertyOp12
 70
     0
102
RTVSPropertyOp13
 70
     0
102
RTVSPropertyOp14
 70
     2
102
RTVSPropertyOp15
 70
     0
102
RTVSPropertyOp16
 70
     0
102
RTVSPropertyOp17
 70
     0
102
RTVSPropertyOp18
 70
     0
102
RTVSPropertyOp19
 70
     0
102
RTVSPropertyOp20
 70
     0
102
RTVSPropertyOp21
 70
     0
102
RTVSPropertyOp22
 70
     0
102
RTVSPropertyOp23
 70
     0
102
RTVSPropertyOp24
 70
     0
102
RTVSPropertyOp25
 70
     0
102
RTVSPropertyOp26
 70
     0
102
RTVSPropertyOp27
 70
     0
102
RTVSPropertyOp28
 70
     0
102
RTVSPropertyOp29
 70
     0
102
RTVSPropertyOp30
 70
     0
102
RTVSPropertyOp31
 70
     0
102
RTVSPropertyOp32
 70
     0
  0
XRECORD
  5
FD4
102
{ACAD_REACTORS
330
FD3
102
}
330
FD3
100
AcDbXrecord
280
     1
102
RTVSPropertyOp0
 70
     1
102
RTVSPropertyOp1
 70
     1
102
RTVSPropertyOp2
 70
     1
102
RTVSPropertyOp3
 70
     1
102
RTVSPropertyOp4
 70
     1
102
RTVSPropertyOp5
 70
     1
102
RTVSPropertyOp6
 70
     1
102
RTVSPropertyOp7
 70
     1
102
RTVSPropertyOp8
 70
     1
102
RTVSPropertyOp9
 70
     1
102
RTVSPropertyOp10
 70
     1
102
RTVSPropertyOp11
 70
     1
102
RTVSPropertyOp12
 70
     1
102
RTVSPropertyOp13
 70
     1
102
RTVSPropertyOp14
 70
     1
102
RTVSPropertyOp15
 70
     1
102
RTVSPropertyOp16
 70
     1
102
RTVSPropertyOp17
 70
     1
102
RTVSPropertyOp18
 70
     1
102
RTVSPropertyOp19
 70
     1
102
RTVSPropertyOp20
 70
     1
102
RTVSPropertyOp21
 70
     1
102
RTVSPropertyOp22
 70
     1
102
RTVSPropertyOp23
 70
     1
102
RTVSPropertyOp24
 70
     1
102
RTVSPropertyOp25
 70
     1
102
RTVSPropertyOp26
 70
     1
102
RTVSPropertyOp27
 70
     1
102
RTVSPropertyOp28
 70
     1
102
RTVSPropertyOp29
 70
     1
102
RTVSPropertyOp30
 70
     1
102
RTVSPropertyOp31
 70
     1
102
RTVSPropertyOp32
 70
     1
  0
XRECORD
  5
FF1
102
{ACAD_REACTORS
330
FF0
102
}
330
FF0
100
AcDbXrecord
280
     1
102
RTVSPropertyOp0
 70
     0
102
RTVSPropertyOp1
 70
     0
102
RTVSPropertyOp2
 70
     0
102
RTVSPropertyOp3
 70
     0
102
RTVSPropertyOp4
 70
     0
102
RTVSPropertyOp5
 70
     0
102
RTVSPropertyOp6
 70
     0
102
RTVSPropertyOp7
 70
     0
102
RTVSPropertyOp8
 70
     0
102
RTVSPropertyOp9
 70
     0
102
RTVSPropertyOp10
 70
     0
102
RTVSPropertyOp11
 70
     0
102
RTVSPropertyOp12
 70
     0
102
RTVSPropertyOp13
 70
     0
102
RTVSPropertyOp14
 70
     2
102
RTVSPropertyOp15
 70
     0
102
RTVSPropertyOp16
 70
     0
102
RTVSPropertyOp17
 70
     0
102
RTVSPropertyOp18
 70
     0
102
RTVSPropertyOp19
 70
     0
102
RTVSPropertyOp20
 70
     0
102
RTVSPropertyOp21
 70
     0
102
RTVSPropertyOp22
 70
     0
102
RTVSPropertyOp23
 70
     0
102
RTVSPropertyOp24
 70
     0
102
RTVSPropertyOp25
 70
     0
102
RTVSPropertyOp26
 70
     0
102
RTVSPropertyOp27
 70
     0
102
RTVSPropertyOp28
 70
     0
102
RTVSPropertyOp29
 70
     0
102
RTVSPropertyOp30
 70
     0
102
RTVSPropertyOp31
 70
     0
102
RTVSPropertyOp32
 70
     0
  0
XRECORD
  5
FCC
102
{ACAD_REACTORS
330
FCB
102
}
330
FCB
100
AcDbXrecord
280
     1
102
RTVSPropertyOp0
 70
     1
102
RTVSPropertyOp1
 70
     1
102
RTVSPropertyOp2
 70
     1
102
RTVSPropertyOp3
 70
     1
102
RTVSPropertyOp4
 70
     1
102
RTVSPropertyOp5
 70
     1
102
RTVSPropertyOp6
 70
     1
102
RTVSPropertyOp7
 70
     1
102
RTVSPropertyOp8
 70
     1
102
RTVSPropertyOp9
 70
     1
102
RTVSPropertyOp10
 70
     1
102
RTVSPropertyOp11
 70
     1
102
RTVSPropertyOp12
 70
     1
102
RTVSPropertyOp13
 70
     1
102
RTVSPropertyOp14
 70
     1
102
RTVSPropertyOp15
 70
     1
102
RTVSPropertyOp16
 70
     1
102
RTVSPropertyOp17
 70
     1
102
RTVSPropertyOp18
 70
     1
102
RTVSPropertyOp19
 70
     1
102
RTVSPropertyOp20
 70
     1
102
RTVSPropertyOp21
 70
     1
102
RTVSPropertyOp22
 70
     1
102
RTVSPropertyOp23
 70
     1
102
RTVSPropertyOp24
 70
     1
102
RTVSPropertyOp25
 70
     1
102
RTVSPropertyOp26
 70
     1
102
RTVSPropertyOp27
 70
     1
102
RTVSPropertyOp28
 70
     1
102
RTVSPropertyOp29
 70
     1
102
RTVSPropertyOp30
 70
     1
102
RTVSPropertyOp31
 70
     1
102
RTVSPropertyOp32
 70
     1
  0
XRECORD
  5
FED
102
{ACAD_REACTORS
330
FEC
102
}
330
FEC
100
AcDbXrecord
280
     1
102
RTVSPropertyOp0
 70
     1
102
RTVSPropertyOp1
 70
     1
102
RTVSPropertyOp2
 70
     1
102
RTVSPropertyOp3
 70
     1
102
RTVSPropertyOp4
 70
     1
102
RTVSPropertyOp5
 70
     1
102
RTVSPropertyOp6
 70
     1
102
RTVSPropertyOp7
 70
     1
102
RTVSPropertyOp8
 70
     1
102
RTVSPropertyOp9
 70
     1
102
RTVSPropertyOp10
 70
     1
102
RTVSPropertyOp11
 70
     1
102
RTVSPropertyOp12
 70
     1
102
RTVSPropertyOp13
 70
     1
102
RTVSPropertyOp14
 70
     1
102
RTVSPropertyOp15
 70
     1
102
RTVSPropertyOp16
 70
     1
102
RTVSPropertyOp17
 70
     1
102
RTVSPropertyOp18
 70
     1
102
RTVSPropertyOp19
 70
     1
102
RTVSPropertyOp20
 70
     1
102
RTVSPropertyOp21
 70
     1
102
RTVSPropertyOp22
 70
     1
102
RTVSPropertyOp23
 70
     1
102
RTVSPropertyOp24
 70
     1
102
RTVSPropertyOp25
 70
     1
102
RTVSPropertyOp26
 70
     1
102
RTVSPropertyOp27
 70
     1
102
RTVSPropertyOp28
 70
     1
102
RTVSPropertyOp29
 70
     1
102
RTVSPropertyOp30
 70
     1
102
RTVSPropertyOp31
 70
     1
102
RTVSPropertyOp32
 70
     1
  0
XRECORD
  5
FEB
102
{ACAD_REACTORS
330
FEA
102
}
330
FEA
100
AcDbXrecord
280
     1
102
RTVSPropertyOp0
 70
     1
102
RTVSPropertyOp1
 70
     1
102
RTVSPropertyOp2
 70
     1
102
RTVSPropertyOp3
 70
     1
102
RTVSPropertyOp4
 70
     1
102
RTVSPropertyOp5
 70
     1
102
RTVSPropertyOp6
 70
     1
102
RTVSPropertyOp7
 70
     1
102
RTVSPropertyOp8
 70
     1
102
RTVSPropertyOp9
 70
     1
102
RTVSPropertyOp10
 70
     1
102
RTVSPropertyOp11
 70
     1
102
RTVSPropertyOp12
 70
     1
102
RTVSPropertyOp13
 70
     1
102
RTVSPropertyOp14
 70
     1
102
RTVSPropertyOp15
 70
     1
102
RTVSPropertyOp16
 70
     1
102
RTVSPropertyOp17
 70
     1
102
RTVSPropertyOp18
 70
     1
102
RTVSPropertyOp19
 70
     1
102
RTVSPropertyOp20
 70
     1
102
RTVSPropertyOp21
 70
     1
102
RTVSPropertyOp22
 70
     1
102
RTVSPropertyOp23
 70
     1
102
RTVSPropertyOp24
 70
     1
102
RTVSPropertyOp25
 70
     1
102
RTVSPropertyOp26
 70
     1
102
RTVSPropertyOp27
 70
     1
102
RTVSPropertyOp28
 70
     1
102
RTVSPropertyOp29
 70
     1
102
RTVSPropertyOp30
 70
     1
102
RTVSPropertyOp31
 70
     1
102
RTVSPropertyOp32
 70
     1
  0
XRECORD
  5
FE5
102
{ACAD_REACTORS
330
FE4
102
}
330
FE4
100
AcDbXrecord
280
     1
102
RTVSPropertyOp0
 70
     1
102
RTVSPropertyOp1
 70
     1
102
RTVSPropertyOp2
 70
     1
102
RTVSPropertyOp3
 70
     1
102
RTVSPropertyOp4
 70
     1
102
RTVSPropertyOp5
 70
     1
102
RTVSPropertyOp6
 70
     1
102
RTVSPropertyOp7
 70
     1
102
RTVSPropertyOp8
 70
     1
102
RTVSPropertyOp9
 70
     1
102
RTVSPropertyOp10
 70
     1
102
RTVSPropertyOp11
 70
     1
102
RTVSPropertyOp12
 70
     1
102
RTVSPropertyOp13
 70
     1
102
RTVSPropertyOp14
 70
     1
102
RTVSPropertyOp15
 70
     1
102
RTVSPropertyOp16
 70
     1
102
RTVSPropertyOp17
 70
     1
102
RTVSPropertyOp18
 70
     1
102
RTVSPropertyOp19
 70
     1
102
RTVSPropertyOp20
 70
     1
102
RTVSPropertyOp21
 70
     1
102
RTVSPropertyOp22
 70
     1
102
RTVSPropertyOp23
 70
     1
102
RTVSPropertyOp24
 70
     1
102
RTVSPropertyOp25
 70
     1
102
RTVSPropertyOp26
 70
     1
102
RTVSPropertyOp27
 70
     1
102
RTVSPropertyOp28
 70
     1
102
RTVSPropertyOp29
 70
     1
102
RTVSPropertyOp30
 70
     1
102
RTVSPropertyOp31
 70
     1
102
RTVSPropertyOp32
 70
     1
  0
XRECORD
  5
FE7
102
{ACAD_REACTORS
330
FE6
102
}
330
FE6
100
AcDbXrecord
280
     1
102
RTVSPropertyOp0
 70
     1
102
RTVSPropertyOp1
 70
     1
102
RTVSPropertyOp2
 70
     1
102
RTVSPropertyOp3
 70
     1
102
RTVSPropertyOp4
 70
     1
102
RTVSPropertyOp5
 70
     1
102
RTVSPropertyOp6
 70
     1
102
RTVSPropertyOp7
 70
     1
102
RTVSPropertyOp8
 70
     1
102
RTVSPropertyOp9
 70
     1
102
RTVSPropertyOp10
 70
     1
102
RTVSPropertyOp11
 70
     1
102
RTVSPropertyOp12
 70
     1
102
RTVSPropertyOp13
 70
     1
102
RTVSPropertyOp14
 70
     1
102
RTVSPropertyOp15
 70
     1
102
RTVSPropertyOp16
 70
     1
102
RTVSPropertyOp17
 70
     1
102
RTVSPropertyOp18
 70
     1
102
RTVSPropertyOp19
 70
     1
102
RTVSPropertyOp20
 70
     1
102
RTVSPropertyOp21
 70
     1
102
RTVSPropertyOp22
 70
     1
102
RTVSPropertyOp23
 70
     1
102
RTVSPropertyOp24
 70
     1
102
RTVSPropertyOp25
 70
     1
102
RTVSPropertyOp26
 70
     1
102
RTVSPropertyOp27
 70
     1
102
RTVSPropertyOp28
 70
     1
102
RTVSPropertyOp29
 70
     1
102
RTVSPropertyOp30
 70
     1
102
RTVSPropertyOp31
 70
     1
102
RTVSPropertyOp32
 70
     1
  0
XRECORD
  5
FD2
102
{ACAD_REACTORS
330
FD1
102
}
330
FD1
100
AcDbXrecord
280
     1
102
RTVSPropertyOp0
 70
     1
102
RTVSPropertyOp1
 70
     1
102
RTVSPropertyOp2
 70
     1
102
RTVSPropertyOp3
 70
     1
102
RTVSPropertyOp4
 70
     1
102
RTVSPropertyOp5
 70
     1
102
RTVSPropertyOp6
 70
     1
102
RTVSPropertyOp7
 70
     1
102
RTVSPropertyOp8
 70
     1
102
RTVSPropertyOp9
 70
     1
102
RTVSPropertyOp10
 70
     1
102
RTVSPropertyOp11
 70
     1
102
RTVSPropertyOp12
 70
     1
102
RTVSPropertyOp13
 70
     1
102
RTVSPropertyOp14
 70
     1
102
RTVSPropertyOp15
 70
     1
102
RTVSPropertyOp16
 70
     1
102
RTVSPropertyOp17
 70
     1
102
RTVSPropertyOp18
 70
     1
102
RTVSPropertyOp19
 70
     1
102
RTVSPropertyOp20
 70
     1
102
RTVSPropertyOp21
 70
     1
102
RTVSPropertyOp22
 70
     1
102
RTVSPropertyOp23
 70
     1
102
RTVSPropertyOp24
 70
     1
102
RTVSPropertyOp25
 70
     1
102
RTVSPropertyOp26
 70
     1
102
RTVSPropertyOp27
 70
     1
102
RTVSPropertyOp28
 70
     1
102
RTVSPropertyOp29
 70
     1
102
RTVSPropertyOp30
 70
     1
102
RTVSPropertyOp31
 70
     1
102
RTVSPropertyOp32
 70
     1
  0
XRECORD
  5
FE1
102
{ACAD_REACTORS
330
FE0
102
}
330
FE0
100
AcDbXrecord
280
     1
102
RTVSPropertyOp0
 70
     1
102
RTVSPropertyOp1
 70
     1
102
RTVSPropertyOp2
 70
     1
102
RTVSPropertyOp3
 70
     1
102
RTVSPropertyOp4
 70
     1
102
RTVSPropertyOp5
 70
     1
102
RTVSPropertyOp6
 70
     1
102
RTVSPropertyOp7
 70
     1
102
RTVSPropertyOp8
 70
     1
102
RTVSPropertyOp9
 70
     1
102
RTVSPropertyOp10
 70
     1
102
RTVSPropertyOp11
 70
     1
102
RTVSPropertyOp12
 70
     1
102
RTVSPropertyOp13
 70
     1
102
RTVSPropertyOp14
 70
     1
102
RTVSPropertyOp15
 70
     1
102
RTVSPropertyOp16
 70
     1
102
RTVSPropertyOp17
 70
     1
102
RTVSPropertyOp18
 70
     1
102
RTVSPropertyOp19
 70
     1
102
RTVSPropertyOp20
 70
     1
102
RTVSPropertyOp21
 70
     1
102
RTVSPropertyOp22
 70
     1
102
RTVSPropertyOp23
 70
     1
102
RTVSPropertyOp24
 70
     1
102
RTVSPropertyOp25
 70
     1
102
RTVSPropertyOp26
 70
     1
102
RTVSPropertyOp27
 70
     1
102
RTVSPropertyOp28
 70
     1
102
RTVSPropertyOp29
 70
     1
102
RTVSPropertyOp30
 70
     1
102
RTVSPropertyOp31
 70
     1
102
RTVSPropertyOp32
 70
     1
  0
XRECORD
  5
FE9
102
{ACAD_REACTORS
330
FE8
102
}
330
FE8
100
AcDbXrecord
280
     1
102
RTVSPropertyOp0
 70
     1
102
RTVSPropertyOp1
 70
     1
102
RTVSPropertyOp2
 70
     1
102
RTVSPropertyOp3
 70
     1
102
RTVSPropertyOp4
 70
     1
102
RTVSPropertyOp5
 70
     1
102
RTVSPropertyOp6
 70
     1
102
RTVSPropertyOp7
 70
     1
102
RTVSPropertyOp8
 70
     1
102
RTVSPropertyOp9
 70
     1
102
RTVSPropertyOp10
 70
     1
102
RTVSPropertyOp11
 70
     1
102
RTVSPropertyOp12
 70
     1
102
RTVSPropertyOp13
 70
     1
102
RTVSPropertyOp14
 70
     1
102
RTVSPropertyOp15
 70
     1
102
RTVSPropertyOp16
 70
     1
102
RTVSPropertyOp17
 70
     1
102
RTVSPropertyOp18
 70
     1
102
RTVSPropertyOp19
 70
     1
102
RTVSPropertyOp20
 70
     1
102
RTVSPropertyOp21
 70
     1
102
RTVSPropertyOp22
 70
     1
102
RTVSPropertyOp23
 70
     1
102
RTVSPropertyOp24
 70
     1
102
RTVSPropertyOp25
 70
     1
102
RTVSPropertyOp26
 70
     1
102
RTVSPropertyOp27
 70
     1
102
RTVSPropertyOp28
 70
     1
102
RTVSPropertyOp29
 70
     1
102
RTVSPropertyOp30
 70
     1
102
RTVSPropertyOp31
 70
     1
102
RTVSPropertyOp32
 70
     1
  0
ENDSEC
  0
EOF
