  0
SECTION
  2
HEADER
  9
$ACADVER
  1
AC1009
  9
$INSBASE
 10
0.0
 20
0.0
 30
0.0
  9
$EXTMIN
 10
85.472421825482115
 20
154.676499704658
 30
-0.0015258207003583
  9
$EXTMAX
 10
726.41789429532116
 20
569.72901492221717
 30
0.0000000349246037
  9
$LIMMIN
 10
0.0
 20
0.0
  9
$LIMMAX
 10
853.5
 20
555.00000000000011
  9
$ORTHOMODE
 70
     0
  9
$REGENMODE
 70
     1
  9
$FILLMODE
 70
     1
  9
$QTEXTMODE
 70
     0
  9
$MIRRTEXT
 70
     1
  9
$DRAGMODE
 70
     2
  9
$LTSCALE
 40
3.0
  9
$OSMODE
 70
   551
  9
$ATTMODE
 70
     1
  9
$TEXTSIZE
 40
2.5
  9
$TRACEWID
 40
1.0
  9
$TEXTSTYLE
  7
STANDARD
  9
$CLAYER
  8
AM_0
  9
$CELTYPE
  6
BYLAYER
  9
$CECOLOR
 62
   256
  9
$DIMSCALE
 40
1.0
  9
$DIMASZ
 40
2.5
  9
$DIMEXO
 40
1.0
  9
$DIMDLI
 40
7.0
  9
$DIMRND
 40
0.0
  9
$DIMDLE
 40
0.0
  9
$DIMEXE
 40
1.0
  9
$DIMTP
 40
0.1
  9
$DIMTM
 40
0.1000000001
  9
$DIMTXT
 40
2.5
  9
$DIMCEN
 40
0.0
  9
$DIMTSZ
 40
0.0
  9
$DIMTOL
 70
     0
  9
$DIMLIM
 70
     0
  9
$DIMTIH
 70
     0
  9
$DIMTOH
 70
     0
  9
$DIMSE1
 70
     0
  9
$DIMSE2
 70
     0
  9
$DIMTAD
 70
     3
  9
$DIMZIN
 70
     8
  9
$DIMBLK
  1

  9
$DIMASO
 70
     1
  9
$DIMSHO
 70
     1
  9
$DIMPOST
  1

  9
$DIMAPOST
  1
"
  9
$DIMALT
 70
     0
  9
$DIMALTD
 70
     2
  9
$DIMALTF
 40
0.0393701
  9
$DIMLFAC
 40
1.0
  9
$DIMTOFL
 70
     1
  9
$DIMTVP
 40
0.0
  9
$DIMTIX
 70
     0
  9
$DIMSOXD
 70
     0
  9
$DIMSAH
 70
     0
  9
$DIMBLK1
  1

  9
$DIMBLK2
  1

  9
$DIMSTYLE
  2
AM_JIS
  9
$DIMCLRD
 70
   256
  9
$DIMCLRE
 70
   256
  9
$DIMCLRT
 70
     4
  9
$DIMTFAC
 40
0.71
  9
$DIMGAP
 40
1.0
  9
$LUNITS
 70
     2
  9
$LUPREC
 70
     2
  9
$SKETCHINC
 40
1.0
  9
$FILLETRAD
 40
7.5
  9
$AUNITS
 70
     0
  9
$AUPREC
 70
     3
  9
$MENU
  1
.
  9
$ELEVATION
 40
0.0
  9
$PELEVATION
 40
0.0
  9
$THICKNESS
 40
0.0
  9
$LIMCHECK
 70
     0
  9
$BLIPMODE
 70
     0
  9
$CHAMFERA
 40
0.5
  9
$CHAMFERB
 40
0.5
  9
$SKPOLY
 70
     0
  9
$TDCREATE
 40
2453455.36471191
  9
$TDUPDATE
 40
2458543.568054074
  9
$TDINDWG
 40
0.3207104398
  9
$TDUSRTIMER
 40
0.3207102546
  9
$USRTIMER
 70
     1
  9
$ANGBASE
 50
0.0
  9
$ANGDIR
 70
     0
  9
$PDMODE
 70
     0
  9
$PDSIZE
 40
0.0
  9
$PLINEWID
 40
0.0
  9
$COORDS
 70
     1
  9
$SPLFRAME
 70
     0
  9
$SPLINETYPE
 70
     6
  9
$SPLINESEGS
 70
     8
  9
$ATTDIA
 70
     1
  9
$ATTREQ
 70
     1
  9
$HANDLING
 70
     1
  9
$HANDSEED
  5
C7BA
  9
$SURFTAB1
 70
     6
  9
$SURFTAB2
 70
     6
  9
$SURFTYPE
 70
     6
  9
$SURFU
 70
     6
  9
$SURFV
 70
     6
  9
$UCSNAME
  2

  9
$UCSORG
 10
0.0
 20
0.0
 30
0.0
  9
$UCSXDIR
 10
1.0
 20
0.0
 30
0.0
  9
$UCSYDIR
 10
0.0
 20
1.0
 30
0.0
  9
$PUCSNAME
  2

  9
$PUCSORG
 10
0.0
 20
0.0
 30
0.0
  9
$PUCSXDIR
 10
1.0
 20
0.0
 30
0.0
  9
$PUCSYDIR
 10
0.0
 20
1.0
 30
0.0
  9
$USERI1
 70
     0
  9
$USERI2
 70
     0
  9
$USERI3
 70
     0
  9
$USERI4
 70
     0
  9
$USERI5
 70
     0
  9
$USERR1
 40
0.0
  9
$USERR2
 40
0.0
  9
$USERR3
 40
0.0
  9
$USERR4
 40
0.0
  9
$USERR5
 40
0.0
  9
$WORLDVIEW
 70
     1
  9
$SHADEDGE
 70
     3
  9
$SHADEDIF
 70
    70
  9
$TILEMODE
 70
     1
  9
$MAXACTVP
 70
    48
  9
$PLIMCHECK
 70
     0
  9
$PEXTMIN
 10
1.0000000000000000E+020
 20
1.0000000000000000E+020
 30
1.0000000000000000E+020
  9
$PEXTMAX
 10
-1.0000000000000000E+020
 20
-1.0000000000000000E+020
 30
-1.0000000000000000E+020
  9
$PLIMMIN
 10
0.0
 20
0.0
  9
$PLIMMAX
 10
420.0
 20
297.0
  9
$UNITMODE
 70
     0
  9
$VISRETAIN
 70
     1
  9
$PLINEGEN
 70
     0
  9
$PSLTSCALE
 70
     1
  0
ENDSEC
  0
SECTION
  2
TABLES
  0
TABLE
  2
VPORT
 70
     1
  0
VPORT
  2
*ACTIVE
 70
     0
 10
0.0
 20
0.0
 11
1.0
 21
1.0
 12
405.9451580604017
 22
362.20275731343759
 13
0.0
 23
0.0
 14
7.5
 24
7.5
 15
30.0
 25
30.0
 16
0.0
 26
0.0
 36
1.0
 17
0.0
 27
0.0
 37
0.0
 40
417.90184598564309
 41
1.7571592210767459
 42
50.0
 43
0.0
 44
0.0
 50
0.0
 51
0.0
 71
    16
 72
   100
 73
     1
 74
     1
 75
     0
 76
     0
 77
     0
 78
     0
  0
ENDTAB
  0
TABLE
  2
LTYPE
 70
    23
  0
LTYPE
  2
CONTINUOUS
 70
     0
  3
Solid line
 72
    65
 73
     0
 40
0.0
  0
LTYPE
  2
HIDDEN
 70
     0
  3
Hidden __ __ __ __ __ __ __ __ __ __ __ __ __ _
 72
    65
 73
     2
 40
9.5249999999999968
 49
6.349999999999997
 49
-3.174999999999998
  0
LTYPE
  2
PHANTOM2
 70
     0
  3
Phantom (.5x) ___ _ _ ___ _ _ ___ _ _ ___ _ _
 72
    65
 73
     6
 40
31.75
 49
15.875
 49
-3.174999999999998
 49
3.174999999999998
 49
-3.174999999999998
 49
3.174999999999998
 49
-3.174999999999998
  0
LTYPE
  2
CENTER
 70
     0
  3
Center ____ _ ____ _ ____ _ ____ _ ____ _ ____
 72
    65
 73
     4
 40
50.799999999999997
 49
31.75
 49
-6.349999999999997
 49
6.349999999999997
 49
-6.349999999999997
  0
LTYPE
  2
GEN7
 70
     0
  3
____ . ____ . ____ . ____ . ____ . ____ . ____
 72
    65
 73
     4
 40
14.25
 49
9.75
 49
-1.5
 49
1.5
 49
-1.5
  0
LTYPE
  2
GEN3B
 70
     0
  3
 - - - - -
 72
    65
 73
     2
 40
1.0
 49
0.5
 49
-0.5
  0
LTYPE
  2
GEN7A
 70
     0
  3
__ . __ . __
 72
    65
 73
     4
 40
7.375
 49
4.75
 49
-0.875
 49
0.875
 49
-0.875
  0
LTYPE
  2
AMCONSTR
 70
     0
  3
_______________________
 72
    65
 73
     2
 40
9999.0
 49
9999.0
 49
0.0
  0
LTYPE
  2
CENTER2
 70
     0
  3
Center (.5x) ___ _ ___ _ ___ _ ___ _ ___ _ ___
 72
    65
 73
     4
 40
1.125
 49
0.75
 49
-0.125
 49
0.125
 49
-0.125
  0
LTYPE
  2
HIDDEN2
 70
     0
  3
Hidden (.5x) _ _ _ _ _ _ _ _ _ _ _ _ _ _ _ _ _
 72
    65
 73
     2
 40
0.1875
 49
0.125
 49
-0.0625
  0
LTYPE
  2
ACANSTGB
 70
     0
  3
__ . . __ . .
 72
    65
 73
     6
 40
0.35433070866
 49
0.15748031496
 49
-0.03937007874
 49
0.03937007874
 49
-0.03937007874
 49
0.03937007874
 49
-0.03937007874
  0
LTYPE
  2
ACANSTGL
 70
     0
  3
_ _ _ _ _
 72
    65
 73
     2
 40
0.11811023622
 49
0.07874015748
 49
-0.03937007874
  0
LTYPE
  2
AM_ISO02W050
 70
     0
  3
__ __ __ __ __ __ __ __ __ __ __ __ __ __ __
 72
    65
 73
     2
 40
7.5
 49
6.0
 49
-1.5
  0
LTYPE
  2
AM_ISO08W050
 70
     0
  3
____ . ____ . ____ . ____ . ____ . ____ . ____
 72
    65
 73
     4
 40
18.0
 49
12.0
 49
-1.5
 49
3.0
 49
-1.5
  0
LTYPE
  2
AM_ISO09W050
 70
     0
  3
_____ . . _____ . . _____ . . ____ .. ____
 72
    65
 73
     6
 40
22.5
 49
12.0
 49
-1.5
 49
3.0
 49
-1.5
 49
3.0
 49
-1.5
  0
LTYPE
  2
AM_ISO08W050X2
 70
     0
  3
__ . __ . __ . __ . __ . __
 72
    65
 73
     4
 40
9.0
 49
6.0
 49
-0.75
 49
1.5
 49
-0.75
  0
LTYPE
  2
AM_ISO02W050X2
 70
     0
  3
 _ _ _ _ _ _ _ _ _ _ _ _
 72
    65
 73
     2
 40
3.75
 49
3.0
 49
-0.75
  0
LTYPE
  2
AMZIGZAG
 70
     0
  3
/\/-/\/-/\/-/\/-/\/-/\/
 72
    65
 73
     2
 40
11.0001
 49
0.0001
 49
-11.0
  0
LTYPE
  2
AMZIGZAG2
 70
     0
  3
/\/-/\/-/\/-/\/-/\/-/\/
 72
    65
 73
     2
 40
0.4401
 49
0.0001
 49
-0.4400000000000001
  0
LTYPE
  2
ACISOWELD
 70
     0
  3
_ _ _ _ _
 72
    65
 73
     2
 40
2.0
 49
2.0
 49
-1.0
  0
LTYPE
  2
ACISOTGB
 70
     0
  3
__ . . __ . .
 72
    65
 73
     6
 40
9.0
 49
4.0
 49
-1.0
 49
1.0
 49
-1.0
 49
1.0
 49
-1.0
  0
LTYPE
  2
ACISOTGL
 70
     0
  3
_ _ _ _ _
 72
    65
 73
     2
 40
3.0
 49
2.0
 49
-1.0
  0
ENDTAB
  0
TABLE
  2
LAYER
 70
     7
  0
LAYER
  2
0
 70
     0
 62
     7
  6
CONTINUOUS
  0
LAYER
  2
AM_0
 70
     0
 62
     7
  6
CONTINUOUS
  0
LAYER
  2
DEFPOINTS
 70
     0
 62
     7
  6
CONTINUOUS
  0
LAYER
  2
ｶｸﾚｾﾝ2
 70
     0
 62
     3
  6
GEN3B
  0
LAYER
  2
ﾁｭｳｼﾝｾﾝ
 70
     0
 62
     1
  6
GEN7
  0
LAYER
  2
ﾁｭｳｼﾝｾﾝ1
 70
     0
 62
     1
  6
GEN7A
  0
LAYER
  2
AM_0N
 70
     0
 62
     7
  6
CONTINUOUS
  0
ENDTAB
  0
TABLE
  2
STYLE
 70
     6
  0
STYLE
  2
STANDARD
 70
     0
 40
0.0
 41
0.8299999999999999
 50
0.0
 71
     0
 42
2.5
  3
txt.shx
  4
bigfont.shx
  0
STYLE
  2
ACANSTS
 70
     0
 40
1.0
 41
1.0
 50
0.0
 71
     0
 42
2.5
  3
romans.shx
  4
extfont.shx
  0
STYLE
  2
ACANSGDT
 70
     0
 40
0.0
 41
1.0
 50
0.0
 71
     0
 42
2.5
  3
amgdt.shx
  4

  0
STYLE
  2

 70
     1
 40
0.0
 41
1.0
 50
0.0
 71
     0
 42
2.5
  3
genltshp.shx
  4

  0
STYLE
  2

 70
     1
 40
0.0
 41
1.0
 50
0.0
 71
     0
 42
2.5
  3
ltypeshp.shx
  4

  0
STYLE
  2
ACISOGDT
 70
     0
 40
0.0
 41
1.0
 50
0.0
 71
     0
 42
2.5
  3
amgdt.shx
  4

  0
ENDTAB
  0
TABLE
  2
VIEW
 70
    12
  0
VIEW
  2
GEN1
 70
     0
 40
95.824742268041234
 10
71.5
 20
137.08762886597941
 41
143.0
 11
0.0
 21
0.0
 31
1.0
 12
0.0
 22
0.0
 32
0.0
 42
50.0
 43
0.0
 44
0.0
 50
0.0
 71
     0
  0
VIEW
  2
GEN2
 70
     0
 40
95.824742268041234
 10
214.5
 20
137.08762886597941
 41
143.0
 11
0.0
 21
0.0
 31
1.0
 12
0.0
 22
0.0
 32
0.0
 42
50.0
 43
0.0
 44
0.0
 50
0.0
 71
     0
  0
VIEW
  2
GEN3
 70
     0
 40
95.824742268041234
 10
71.5
 20
47.912371134020603
 41
143.0
 11
0.0
 21
0.0
 31
1.0
 12
0.0
 22
0.0
 32
0.0
 42
50.0
 43
0.0
 44
0.0
 50
0.0
 71
     0
  0
VIEW
  2
GEN4
 70
     0
 40
95.824742268041234
 10
214.5
 20
47.912371134020603
 41
143.0
 11
0.0
 21
0.0
 31
1.0
 12
0.0
 22
0.0
 32
0.0
 42
50.0
 43
0.0
 44
0.0
 50
0.0
 71
     0
  0
VIEW
  2
GEN5
 70
     0
 40
95.824742268041234
 10
143.0
 20
92.500000000000057
 41
143.0
 11
0.0
 21
0.0
 31
1.0
 12
0.0
 22
0.0
 32
0.0
 42
50.0
 43
0.0
 44
0.0
 50
0.0
 71
     0
  0
VIEW
  2
GEN6
 70
     0
 40
191.64756804123709
 10
143.0
 20
92.5
 41
285.99714
 11
0.0
 21
0.0
 31
1.0
 12
0.0
 22
0.0
 32
0.0
 42
50.0
 43
0.0
 44
0.0
 50
0.0
 71
     0
  0
VIEW
  2
AM_VIEW1
 70
     0
 40
277.50000000000011
 10
219.35382685069021
 20
416.24999999999977
 41
438.70765370138031
 11
0.0
 21
0.0
 31
1.0
 12
0.0
 22
0.0
 32
0.0
 42
50.0
 43
0.0
 44
0.0
 50
0.0
 71
    16
  0
VIEW
  2
AM_VIEW2
 70
     0
 40
277.50000000000011
 10
634.14617314930956
 20
416.24999999999977
 41
438.70765370138031
 11
0.0
 21
0.0
 31
1.0
 12
0.0
 22
0.0
 32
0.0
 42
50.0
 43
0.0
 44
0.0
 50
0.0
 71
    16
  0
VIEW
  2
AM_VIEW3
 70
     0
 40
277.50000000000011
 10
219.35382685069021
 20
138.75
 41
438.70765370138031
 11
0.0
 21
0.0
 31
1.0
 12
0.0
 22
0.0
 32
0.0
 42
50.0
 43
0.0
 44
0.0
 50
0.0
 71
    16
  0
VIEW
  2
AM_VIEW4
 70
     0
 40
277.50000000000011
 10
634.14617314930956
 20
138.75
 41
438.70765370138031
 11
0.0
 21
0.0
 31
1.0
 12
0.0
 22
0.0
 32
0.0
 42
50.0
 43
0.0
 44
0.0
 50
0.0
 71
    16
  0
VIEW
  2
AM_VIEW5
 70
     0
 40
277.50000000000011
 10
426.75
 20
277.50000000000011
 41
438.70765370138031
 11
0.0
 21
0.0
 31
1.0
 12
0.0
 22
0.0
 32
0.0
 42
50.0
 43
0.0
 44
0.0
 50
0.0
 71
    16
  0
VIEW
  2
AM_VIEW6
 70
     0
 40
554.99445000000014
 10
426.75
 20
277.5
 41
877.40653324968639
 11
0.0
 21
0.0
 31
1.0
 12
0.0
 22
0.0
 32
0.0
 42
50.0
 43
0.0
 44
0.0
 50
0.0
 71
    16
  0
ENDTAB
  0
TABLE
  2
UCS
 70
     0
  0
ENDTAB
  0
TABLE
  2
APPID
 70
    98
  0
APPID
  2
ACAD
 70
     0
  0
APPID
  2
ACADANNOTATIVE
 70
     0
  0
APPID
  2
ACAD_MLEADERVER
 70
     0
  0
APPID
  2
MCAD_NO_VIS
 70
     0
  0
APPID
  2
ACAD_TEMP_GRAPHIC
 70
     0
  0
APPID
  2
AD_DRAW
 70
     0
  0
APPID
  2
DESIGNERASSEMBLIES
 70
     0
  0
APPID
  2
ASURF_PCURVE_APPNAME
 70
     0
  0
APPID
  2
GENIUS_GE3SECT_13
 70
     0
  0
APPID
  2
GENIUS_GENCFG_13
 70
     0
  0
APPID
  2
GENIUS_GE3CFG0_13
 70
     0
  0
APPID
  2
GENIUS_GENCFG0_13
 70
     0
  0
APPID
  2
GENIUS_GENCFG1_13
 70
     0
  0
APPID
  2
GENIUS_GENCFG2_13
 70
     0
  0
APPID
  2
GENIUS_GENCFG3_13
 70
     0
  0
APPID
  2
GENIUS_GENCFG4_13
 70
     0
  0
APPID
  2
GENIUS_GEVCFG0_13
 70
     0
  0
APPID
  2
GENIUS_GENOENT_13
 70
     0
  0
APPID
  2
GENIUS_GENREC_14
 70
     0
  0
APPID
  2
GENIUS_GENODEF_13
 70
     0
  0
APPID
  2
GENIUS_GENOBJ-N-REC_13
 70
     0
  0
APPID
  2
GENIUS_GENHINW_13
 70
     0
  0
APPID
  2
GENIUS_FIRSTVISTXT_14
 70
     0
  0
APPID
  2
GENIUS_GENOBJ-N-LEADER_13
 70
     0
  0
APPID
  2
GENIUS_GENOREF_13
 70
     0
  0
APPID
  2
GENIUS_GENOLIS_13
 70
     0
  0
APPID
  2
GEV_VCCNULL_SWITCH_OFF
 70
     0
  0
APPID
  2
GENIUS_GENDTOL_13
 70
     0
  0
APPID
  2
GENIUS_GEFCFG0_13
 70
     0
  0
APPID
  2
GENIUS_GENOBJ-N-TIT_13
 70
     0
  0
APPID
  2
GENIUS_GENTITLE_13
 70
     0
  0
APPID
  2
GENIUS_GENZVEED_13
 70
     0
  0
APPID
  2
GENIUS_GENOBJ-N-SDF_13
 70
     0
  0
APPID
  2
GENIUS_GENSCREG_13
 70
     0
  0
APPID
  2
GENIUS_DUMCFG0_13
 70
     0
  0
APPID
  2
GEVID936201362
 70
     0
  0
APPID
  2
GEVDC
 70
     0
  0
APPID
  2
GEVCON
 70
     0
  0
APPID
  2
VCC
 70
     0
  0
APPID
  2
GEVPT
 70
     0
  0
APPID
  2
GEVIT
 70
     0
  0
APPID
  2
GENBH
 70
     0
  0
APPID
  2
GEVMK
 70
     0
  0
APPID
  2
GENIUS_GENBH_13
 70
     0
  0
APPID
  2
GENIUS_GENOBJ-NBEHI-BHF_13
 70
     0
  0
APPID
  2
GENIUS_GENOBJ-NBEHI-BHB_13
 70
     0
  0
APPID
  2
GENIUS_GENOBJ-F-DESC_13
 70
     0
  0
APPID
  2
GENIUS_GEFDESC_14
 70
     0
  0
APPID
  2
GENIUS_GENOBJ-F-PART_13
 70
     0
  0
APPID
  2
GENIUS_GEFSTDP_13
 70
     0
  0
APPID
  2
GENIUS_GEFPARTINS_13
 70
     0
  0
APPID
  2
GENIUS_GENTRA_14
 70
     0
  0
APPID
  2
GENIUS_GENINF13_13
 70
     0
  0
APPID
  2
GENIUS_GENOBJ-N-INFOPT_13
 70
     0
  0
APPID
  2
GENIUS_GENOBJ-N-RSSYM_13
 70
     0
  0
APPID
  2
GENIUS_GENSYMENT_13
 70
     0
  0
APPID
  2
GENIUS_GENSCSYM_13
 70
     0
  0
APPID
  2
GENIUS_GEFINFNAM_13
 70
     0
  0
APPID
  2
GENIUS_GENSCREG_15
 70
     0
  0
APPID
  2
GENIUS_GENOBJ-N-CEN_13
 70
     0
  0
APPID
  2
GENIUS_GENOBJ-N-CRS_13
 70
     0
  0
APPID
  2
GENIUS_GENOBJ-N-CRC_13
 70
     0
  0
APPID
  2
GENIUS_GENCRC_14
 70
     0
  0
APPID
  2
GEVID942827039
 70
     0
  0
APPID
  2
GEVID942827040
 70
     0
  0
APPID
  2
GEVID942827041
 70
     0
  0
APPID
  2
GENIUS_GENOBJ-F-SCPASSM_13
 70
     0
  0
APPID
  2
GENIUS_GENDIMSH_14
 70
     0
  0
APPID
  2
GENIUS_GENFIL_13
 70
     0
  0
APPID
  2
GENIUS_GENOBJ-N-CHA_13
 70
     0
  0
APPID
  2
GENIUS_GENOBJ-N-FIL_13
 70
     0
  0
APPID
  2
GEVID942827042
 70
     0
  0
APPID
  2
GEVID946020473
 70
     0
  0
APPID
  2
GEVID946020474
 70
     0
  0
APPID
  2
GEVID946020475
 70
     0
  0
APPID
  2
GENIUS_GENOBJ-N-HTC_13
 70
     0
  0
APPID
  2
GENIUS_GENHATCH_13
 70
     0
  0
APPID
  2
GEVID948854295
 70
     0
  0
APPID
  2
GEVID939402019
 70
     0
  0
APPID
  2
GEVID952919491
 70
     0
  0
APPID
  2
GEVID952919492
 70
     0
  0
APPID
  2
GENIUS_GEFWELD_13
 70
     0
  0
APPID
  2
GENIUS_GENOBJ-F-WELS_13
 70
     0
  0
APPID
  2
GEVID952919493
 70
     0
  0
APPID
  2
GENIUS_GENOBJ-N-RSBK_13
 70
     0
  0
APPID
  2
GENIUS_GENOBJ-N-LIB_13
 70
     0
  0
APPID
  2
GENIUS_GENSCALE_13
 70
     0
  0
APPID
  2
GEVID986376691
 70
     0
  0
APPID
  2
ACATTRIBSERVICES
 70
     0
  0
APPID
  2
ACADM_DIM_EDIT
 70
     0
  0
APPID
  2
AMDT_DM_ADJ
 70
     0
  0
APPID
  2
ACAD_PSEXT
 70
     0
  0
APPID
  2
ACAD_DSTYLE_DIMARC_LENGTH_
 70
     0
  0
APPID
  2
ACAD_DSTYLE_DIMBREAK
 70
     0
  0
APPID
  2
ACAD_DSTYLE_DIMJAG
 70
     0
  0
APPID
  2
ACAD_NAV_VCDISPLAY
 70
     0
  0
APPID
  2
ACADANNOPO
 70
     0
  0
APPID
  2
ACAD_EXEMPT_FROM_CAD_STANDARDS
 70
     0
  0
ENDTAB
  0
TABLE
  2
DIMSTYLE
 70
    18
  0
DIMSTYLE
  2
STANDARD
 70
     0
  3

  4

  5

  6

  7

 40
1.0
 41
0.18
 42
0.0625
 43
0.38
 44
0.18
 45
0.0
 46
0.0
 47
0.0
 48
0.0
140
0.18
141
0.09
142
0.0
143
25.399999999999999
144
1.0
145
0.0
146
1.0
147
0.09
 71
     0
 72
     0
 73
     1
 74
     1
 75
     0
 76
     0
 77
     0
 78
     0
170
     0
171
     2
172
     0
173
     0
174
     0
175
     0
176
     0
177
     0
178
     0
  0
DIMSTYLE
  2
AM_JIS
 70
     0
  3

  4
"
  5

  6

  7

 40
1.0
 41
2.5
 42
1.0
 43
7.0
 44
1.0
 45
0.0
 46
0.0
 47
0.1
 48
0.1000000001
140
2.5
141
0.0
142
0.0
143
0.0393701
144
1.0
145
0.0
146
0.71
147
1.0
 71
     0
 72
     0
 73
     0
 74
     0
 75
     0
 76
     0
 77
     3
 78
     8
170
     0
171
     2
172
     1
173
     0
174
     0
175
     0
176
   256
177
   256
178
     4
  0
DIMSTYLE
  2
AM_ANSI
 70
     0
  3

  4
mm
  5

  6

  7

 40
1.0
 41
0.1
 42
0.05
 43
0.5
 44
0.1
 45
0.0
 46
0.0
 47
0.1
 48
0.1
140
0.12
141
0.0
142
0.0
143
25.399999999999999
144
1.0
145
0.0
146
0.71
147
0.06
 71
     0
 72
     0
 73
     1
 74
     1
 75
     0
 76
     0
 77
     0
 78
     7
170
     0
171
     2
172
     0
173
     0
174
     0
175
     0
176
   256
177
   256
178
     2
  0
DIMSTYLE
  2
AM_ANSI$3
 70
     0
  3

  4
mm
  5

  6

  7

 40
1.0
 41
0.1
 42
0.05
 43
0.5
 44
0.1
 45
0.0
 46
0.0
 47
0.1
 48
0.1
140
0.12
141
0.0
142
0.0
143
25.399999999999999
144
1.0
145
0.0
146
0.71
147
0.06
 71
     0
 72
     0
 73
     1
 74
     1
 75
     0
 76
     0
 77
     0
 78
     7
170
     0
171
     2
172
     0
173
     0
174
     0
175
     0
176
   256
177
   256
178
     2
  0
DIMSTYLE
  2
AM_ANSI$4
 70
     0
  3

  4
mm
  5

  6

  7

 40
1.0
 41
0.1
 42
0.05
 43
0.5
 44
0.1
 45
0.0
 46
0.0
 47
0.1
 48
0.1
140
0.12
141
0.0
142
0.0
143
25.399999999999999
144
1.0
145
0.0
146
0.71
147
0.06
 71
     0
 72
     0
 73
     1
 74
     1
 75
     0
 76
     0
 77
     0
 78
     7
170
     0
171
     2
172
     0
173
     0
174
     0
175
     0
176
   256
177
   256
178
     2
  0
DIMSTYLE
  2
AM_ANSI$7
 70
     0
  3

  4
mm
  5

  6

  7

 40
1.0
 41
0.1
 42
0.05
 43
0.5
 44
0.1
 45
0.0
 46
0.0
 47
0.1
 48
0.1
140
0.24
141
0.0
142
0.0
143
25.399999999999999
144
1.0
145
0.0
146
0.71
147
0.06
 71
     0
 72
     0
 73
     1
 74
     1
 75
     0
 76
     0
 77
     0
 78
     7
170
     0
171
     2
172
     0
173
     0
174
     0
175
     0
176
   256
177
   256
178
     2
  0
DIMSTYLE
  2
AM_ANSI$SF
 70
     0
  3

  4
mm
  5

  6

  7

 40
1.0
 41
0.1
 42
0.05
 43
0.5
 44
0.1
 45
0.0
 46
0.0
 47
0.1
 48
0.1
140
0.12
141
0.0
142
0.0
143
25.399999999999999
144
1.0
145
0.0
146
0.71
147
0.06
 71
     0
 72
     0
 73
     1
 74
     1
 75
     1
 76
     1
 77
     0
 78
     7
170
     0
171
     2
172
     0
173
     0
174
     0
175
     0
176
   256
177
   256
178
     2
  0
DIMSTYLE
  2
AM_ANSI$SH
 70
     0
  3

  4
mm
  5

  6
GENAXEH
  7

 40
1.0
 41
0.1
 42
0.05
 43
0.5
 44
0.1
 45
0.0
 46
0.0
 47
0.1
 48
0.1
140
0.12
141
0.0
142
0.0
143
25.399999999999999
144
1.0
145
0.0
146
0.71
147
0.06
 71
     0
 72
     0
 73
     1
 74
     1
 75
     1
 76
     1
 77
     0
 78
     7
170
     0
171
     2
172
     0
173
     1
174
     0
175
     0
176
   256
177
   256
178
     2
  0
DIMSTYLE
  2
AM_JIS$SF
 70
     0
  3

  4
"
  5
OPEN30
  6
OPEN30
  7
OPEN30
 40
1.0
 41
2.5
 42
1.0
 43
10.0
 44
1.0
 45
0.0
 46
0.0
 47
0.1
 48
0.1
140
3.5
141
0.0
142
0.0
143
0.0393701
144
1.0
145
0.0
146
0.71
147
1.5
 71
     0
 72
     0
 73
     0
 74
     0
 75
     1
 76
     1
 77
     3
 78
     8
170
     0
171
     2
172
     1
173
     0
174
     0
175
     0
176
   256
177
   256
178
     4
  0
DIMSTYLE
  2
AM_JIS$SH
 70
     0
  3

  4
"
  5

  6
NONE
  7

 40
1.0
 41
2.5
 42
1.0
 43
10.0
 44
1.0
 45
0.0
 46
0.0
 47
0.1
 48
0.1
140
3.5
141
0.0
142
0.0
143
0.0393701
144
1.0
145
0.0
146
0.71
147
1.5
 71
     0
 72
     0
 73
     0
 74
     0
 75
     1
 76
     0
 77
     3
 78
     8
170
     0
171
     2
172
     1
173
     1
174
     0
175
     0
176
   256
177
   256
178
     4
  0
DIMSTYLE
  2
AM_ISO
 70
     0
  3

  4
"
  5

  6

  7

 40
1.0
 41
2.5
 42
1.0
 43
8.0
 44
0.6
 45
0.0
 46
0.0
 47
0.1
 48
0.1
140
2.5
141
0.0
142
0.0
143
0.0393701
144
1.0
145
0.0
146
0.71
147
0.8
 71
     0
 72
     0
 73
     0
 74
     0
 75
     0
 76
     0
 77
     1
 78
     8
170
     0
171
     2
172
     1
173
     0
174
     0
175
     0
176
   256
177
   256
178
     4
  0
DIMSTYLE
  2
AM_ISO$3
 70
     0
  3

  4
"
  5

  6

  7

 40
1.0
 41
2.5
 42
1.0
 43
8.0
 44
0.6
 45
0.0
 46
0.0
 47
0.1
 48
0.1
140
2.5
141
0.0
142
0.0
143
0.0393701
144
1.0
145
0.0
146
0.71
147
0.8
 71
     0
 72
     0
 73
     0
 74
     1
 75
     0
 76
     0
 77
     1
 78
     8
170
     0
171
     2
172
     0
173
     0
174
     0
175
     0
176
   256
177
   256
178
     4
  0
DIMSTYLE
  2
AM_ISO$4
 70
     0
  3

  4
"
  5

  6

  7

 40
1.0
 41
2.5
 42
1.0
 43
8.0
 44
0.6
 45
0.0
 46
0.0
 47
0.1
 48
0.1
140
2.5
141
0.0
142
0.0
143
0.0393701
144
1.0
145
0.0
146
0.71
147
0.8
 71
     0
 72
     0
 73
     0
 74
     1
 75
     0
 76
     0
 77
     1
 78
     8
170
     0
171
     2
172
     0
173
     0
174
     0
175
     0
176
   256
177
   256
178
     4
  0
DIMSTYLE
  2
AM_ISO$6
 70
     0
  3

  4
"
  5

  6

  7

 40
1.0
 41
2.5
 42
1.0
 43
8.0
 44
0.6
 45
0.0
 46
0.0
 47
0.1
 48
0.1
140
2.5
141
0.0
142
0.0
143
0.0393701
144
1.0
145
0.0
146
0.71
147
0.8
 71
     0
 72
     0
 73
     0
 74
     0
 75
     0
 76
     0
 77
     0
 78
     8
170
     0
171
     2
172
     1
173
     0
174
     0
175
     0
176
   256
177
   256
178
     4
  0
DIMSTYLE
  2
AM_ISO$7
 70
     0
  3

  4
"
  5

  6

  7

 40
1.0
 41
2.5
 42
1.0
 43
8.0
 44
0.6
 45
0.0
 46
0.0
 47
0.1
 48
0.1
140
2.5
141
0.0
142
0.0
143
0.0393701
144
1.0
145
0.0
146
0.71
147
0.8
 71
     0
 72
     0
 73
     0
 74
     0
 75
     0
 76
     0
 77
     1
 78
     8
170
     0
171
     2
172
     1
173
     0
174
     0
175
     0
176
   256
177
   256
178
     4
  0
DIMSTYLE
  2
AM_ISO$SF
 70
     0
  3

  4
"
  5

  6

  7

 40
1.0
 41
2.5
 42
1.0
 43
10.0
 44
1.0
 45
0.0
 46
0.0
 47
0.1
 48
0.1
140
3.5
141
0.0
142
0.0
143
0.0393701
144
1.0
145
0.0
146
0.71
147
1.5
 71
     0
 72
     0
 73
     0
 74
     0
 75
     1
 76
     1
 77
     1
 78
     8
170
     0
171
     2
172
     1
173
     0
174
     0
175
     0
176
   256
177
   256
178
     2
  0
DIMSTYLE
  2
AM_ISO$SH
 70
     0
  3

  4
"
  5

  6
GENAXEH
  7

 40
1.0
 41
2.5
 42
1.0
 43
10.0
 44
1.0
 45
0.0
 46
0.0
 47
0.1
 48
0.1
140
3.5
141
0.0
142
0.0
143
0.0393701
144
2.0
145
0.0
146
0.71
147
1.5
 71
     0
 72
     0
 73
     0
 74
     0
 75
     1
 76
     1
 77
     1
 78
     8
170
     0
171
     2
172
     1
173
     1
174
     0
175
     0
176
   256
177
   256
178
     2
  0
DIMSTYLE
  2
AM_ISO$0
 70
     0
  3

  4
"
  5

  6

  7

 40
1.0
 41
2.5
 42
1.0
 43
8.0
 44
0.6
 45
0.0
 46
0.0
 47
0.1
 48
0.1
140
2.5
141
0.0
142
0.0
143
0.0393701
144
1.0
145
0.0
146
0.71
147
0.8
 71
     0
 72
     0
 73
     0
 74
     0
 75
     0
 76
     0
 77
     1
 78
     8
170
     0
171
     2
172
     1
173
     0
174
     0
175
     0
176
   256
177
   256
178
     4
  0
ENDTAB
  0
ENDSEC
  0
SECTION
  2
BLOCKS
  0
BLOCK
  8
0
  2
$MODEL_SPACE
 70
     0
 10
0.0
 20
0.0
 30
0.0
  3
$MODEL_SPACE
  1

  0
ENDBLK
  5
C564
  8
0
  0
BLOCK
 67
     1
  8
0
  2
$PAPER_SPACE
 70
     0
 10
0.0
 20
0.0
 30
0.0
  3
$PAPER_SPACE
  1

  0
ENDBLK
  5
C560
 67
     1
  8
0
  0
BLOCK
  8
0
  2
*U0
 70
     1
 10
0.0
 20
0.0
 30
0.0
  3
*U0
  1

  0
TEXT
  5
C289
  8
AM_0
 10
537.84634095126751
 20
491.27946318881237
 30
0.0
 40
9.0
  1
ＶＣ０１－０１０～０６０ＢＨＷ
 41
0.8299999999999999
  0
ENDBLK
  5
C28B
  8
0
  0
BLOCK
  8
0
  2
GENAXEH
 70
     0
 10
0.0
 20
0.0
 30
0.0
  3
GENAXEH
  1

  0
LINE
  5
C66D
  8
0
 10
-1.0
 20
0.0
 30
0.0
 11
1.0
 21
0.0
 31
0.0
  0
ENDBLK
  5
C66F
  8
0
  0
BLOCK
  8
0
  2
_ACMFILLEDHALF
 70
     0
 10
0.0
 20
0.0
 30
0.0
  3
_ACMFILLEDHALF
  1

  0
TRACE
  5
C704
  8
AM_0
 62
     0
 10
-0.8
 20
0.0
 30
0.0
 11
-1.0
 21
0.166666666
 31
0.0
 12
0.0
 22
0.0
 32
0.0
 13
0.0
 23
0.0
 33
0.0
  0
LINE
  5
C705
  8
AM_0
 62
     0
 10
-1.0
 20
0.0
 30
0.0
 11
-0.8
 21
0.0
 31
0.0
  0
ENDBLK
  5
C703
  8
0
  0
BLOCK
  8
0
  2
_OPEN30
 70
     0
 10
0.0
 20
0.0
 30
0.0
  3
_OPEN30
  1

  0
LINE
  5
C71F
  8
0
 62
     0
 10
-1.0
 20
0.26794919
 30
0.0
 11
0.0
 21
0.0
 31
0.0
  0
LINE
  5
C720
  8
0
 62
     0
 10
0.0
 20
0.0
 30
0.0
 11
-1.0
 21
-0.26794919
 31
0.0
  0
LINE
  5
C721
  8
0
 62
     0
 10
0.0
 20
0.0
 30
0.0
 11
-1.0
 21
0.0
 31
0.0
  0
ENDBLK
  5
C722
  8
0
  0
BLOCK
  8
0
  2
_NONE
 70
     0
 10
0.0
 20
0.0
 30
0.0
  3
_NONE
  1

  0
ENDBLK
  5
C725
  8
0
  0
ENDSEC
  0
SECTION
  2
ENTITIES
  0
POINT
  5
1B94
  8
0
 10
0.0
 20
0.0
 30
0.0
1001
GENIUS_GENODEF_13
1002
{
1000
HIER
1070
     1
1002
}
1002
{
1000
MANEDIT
1070
     0
1002
}
1002
{
1000
NOSEL
1070
     0
1002
}
1002
{
1000
BEHIND
1070
     0
1002
}
1002
{
1000
REACTOR
1002
}
1001
GENIUS_GENOBJ-N-SDF_13
1002
{
1000
OWNER
1000
GEN
1002
}
1001
GENIUS_GENOENT_13
1002
{
1000
MYREF
1005
1B94
1002
}
1002
{
1000
GRP
1005
0
1002
}
1001
GENIUS_GENOLIS_13
1002
{
1000
ENT
1005
89
1002
}
  0
LINE
  5
8B4C
  8
AM_0
 10
309.65043861427603
 20
223.14064018978729
 30
0.0
 11
424.6504420415431
 21
223.14064018978729
 31
0.0
  0
LINE
  5
8B4D
  8
AM_0
 10
309.65043861427603
 20
325.14064322962417
 30
0.0
 11
424.6504420415431
 21
325.14064322962417
 31
0.0
  0
LINE
  5
8B4E
  8
AM_0
 10
325.65043861427603
 20
229.1406403686012
 30
0.0
 11
408.6504420415431
 21
229.1406403686012
 31
0.0
  0
LINE
  5
8B4F
  8
AM_0
 10
325.65043861427603
 20
319.14064305081041
 30
0.0
 11
408.6504420415431
 21
319.14064305081041
 31
0.0
  0
LINE
  5
8B50
  8
ﾁｭｳｼﾝｾﾝ
 10
440.65044236936859
 20
274.14064170970562
 30
0.0
 11
85.516516866619028
 21
274.14064170970562
 31
0.0
  0
ARC
  5
8BF2
  8
AM_0
 10
325.65043861427603
 20
314.14064305081041
 30
0.0
 40
5.0
 50
90.0
 51
180.0000005336085
1001
GENIUS_GENODEF_13
1002
{
1000
HIER
1070
     0
1002
}
1002
{
1000
MANEDIT
1070
     0
1002
}
1002
{
1000
NOSEL
1070
     0
1002
}
1002
{
1000
BEHIND
1070
     0
1002
}
1002
{
1000
OTHER
1070
     0
1002
}
1002
{
1000
REACTOR
1002
}
1001
GENIUS_GENOBJ-N-FIL_13
1002
{
1000
OWNER
1000
GEN
1002
}
  0
CIRCLE
  5
8BF3
  8
AM_0
 10
309.65043861427603
 20
314.14064290179851
 30
0.0
 40
4.5000001341104481
  0
ARC
  5
8BF4
  8
AM_0
 10
309.65043861427603
 20
314.14064290179851
 30
0.0
 40
11.00000032782555
 50
90.000002504475205
 51
180.0000050089568
  0
LINE
  5
8BF5
  8
ﾁｭｳｼﾝｾﾝ1
 10
309.65043861427603
 20
306.6406426782811
 30
0.0
 11
309.65043861427603
 21
321.64064312531622
 31
0.0
  0
LINE
  5
8BFA
  8
AM_0
 10
285.65043828645048
 20
223.5003600324595
 30
0.0
 11
285.65043828645048
 21
324.7809310163463
 31
0.0
  0
ARC
  5
8BFB
  8
AM_0
 10
517.6504230276613
 20
274.14064170970562
 30
0.0
 40
236.0
 50
169.43603828764111
 51
180.00000500895041
  0
LINE
  5
8BFC
  8
AM_0
 10
274.14433477082548
 20
330.14064170970562
 30
0.0
 11
274.14433477082548
 21
218.14064170970559
 31
0.0
  0
ARC
  5
8CF9
  8
AM_0
 10
517.6504230276613
 20
274.14064170970562
 30
0.0
 40
236.0
 50
180.00000500895041
 51
190.5639717302744
  0
LINE
  5
8CFA
  8
AM_0
 10
304.65043846526441
 20
298.14064290179851
 30
0.0
 11
304.65043846526441
 21
250.1406405176127
 31
0.0
  0
LINE
  5
8CFB
  8
AM_0
 10
298.65043828645048
 20
314.14064290179851
 30
0.0
 11
298.65043828645048
 21
234.14064051761281
 31
0.0
  0
LINE
  5
8CFC
  8
AM_0
 10
286.84422486383272
 20
225.14064170970559
 30
0.0
 11
303.3258829661138
 21
225.14064170970559
 31
0.0
  0
LINE
  5
8CFD
  8
AM_0
 10
286.15043828645048
 20
230.87403251781109
 30
0.0
 11
298.65043828645059
 21
230.87403251781109
 31
0.0
  0
ARC
  5
8CFE
  8
AM_0
 10
283.70156334962849
 20
220.14064170970559
 30
0.0
 40
2.0
 50
270.0
 51
357.99953469735499
1001
GENIUS_GENOBJ-N-FIL_13
1002
{
1000
OWNER
1000
GEN
1002
}
1001
GENIUS_GENODEF_13
1002
{
1000
HIER
1070
     0
1002
}
1002
{
1000
MANEDIT
1070
     0
1002
}
1002
{
1000
NOSEL
1070
     0
1002
}
1002
{
1000
BEHIND
1070
     0
1002
}
1002
{
1000
OTHER
1070
     0
1002
}
1002
{
1000
REACTOR
1002
}
  0
LINE
  5
8D04
  8
AM_0
 10
274.14433477082548
 20
218.14064170970559
 30
0.0
 11
283.70156334962849
 21
218.14064170970559
 31
0.0
  0
LINE
  5
8D05
  8
AM_0
 10
274.14433477082548
 20
228.14064170970559
 30
0.0
 11
285.65043828645048
 21
228.14064170970559
 31
0.0
  0
LINE
  5
8D06
  8
AM_0
 10
274.14433477082548
 20
242.2007017097057
 30
0.0
 11
283.82508513181909
 21
242.20070170970561
 31
0.0
  0
LINE
  5
8D17
  8
AM_0
 10
285.70034443675883
 20
220.07082648407089
 30
0.0
 11
285.84504888215361
 21
224.21365501536971
 31
0.0
  0
ARC
  5
8D18
  8
AM_0
 10
286.8454921680584
 20
224.1372888541068
 30
0.0
 40
1.003353655944897
 50
90.072368503728555
 51
175.63494469419581
  0
ARC
  5
8D19
  8
AM_0
 10
325.65043861427603
 20
234.14064036860091
 30
0.0
 40
5.0
 50
179.99999946639139
 51
270.0
1001
GENIUS_GENODEF_13
1002
{
1000
HIER
1070
     0
1002
}
1002
{
1000
MANEDIT
1070
     0
1002
}
1002
{
1000
NOSEL
1070
     0
1002
}
1002
{
1000
BEHIND
1070
     0
1002
}
1002
{
1000
OTHER
1070
     0
1002
}
1002
{
1000
REACTOR
1002
}
1001
GENIUS_GENOBJ-N-FIL_13
1002
{
1000
OWNER
1000
GEN
1002
}
  0
ARC
  5
8D1A
  8
AM_0
 10
309.65043861427603
 20
234.1406405176127
 30
0.0
 40
11.0
 50
359.99999946639139
 51
90.000000533608556
  0
CIRCLE
  5
8D1B
  8
AM_0
 10
309.65043861427603
 20
234.14064051761281
 30
0.0
 40
4.5000001341104481
  0
LINE
  5
8D1C
  8
ﾁｭｳｼﾝｾﾝ1
 10
309.65043861427603
 20
241.64064074113031
 30
0.0
 11
309.65043861427603
 21
226.64064029409531
 31
0.0
  0
ARC
  5
8D1D
  8
AM_0
 10
309.65043861427603
 20
234.14064051761281
 30
0.0
 40
11.000000327825591
 50
180.0000050089568
 51
270.000000683243
  0
LINE
  5
8D1E
  8
ﾁｭｳｼﾝｾﾝ1
 10
302.15043839075861
 20
234.14064051761281
 30
0.0
 11
317.15043883779339
 21
234.14064051761281
 31
0.0
  0
ARC
  5
8D1F
  8
AM_0
 10
309.6504384652643
 20
250.1406405176127
 30
0.0
 40
5.0
 50
180.0
 51
270.0000005336085
1001
GENIUS_GENOBJ-N-FIL_13
1002
{
1000
OWNER
1000
GEN
1002
}
1001
GENIUS_GENODEF_13
1002
{
1000
HIER
1070
     0
1002
}
1002
{
1000
MANEDIT
1070
     0
1002
}
1002
{
1000
NOSEL
1070
     0
1002
}
1002
{
1000
BEHIND
1070
     0
1002
}
1002
{
1000
OTHER
1070
     0
1002
}
1002
{
1000
REACTOR
1002
}
  0
LINE
  5
8D20
  8
AM_0
 10
274.14433477082548
 20
306.08059170970557
 30
0.0
 11
283.75035090678841
 21
306.08059170970557
 31
0.0
  0
ARC
  5
8D28
  8
AM_0
 10
309.65043861427603
 20
314.14064290179851
 30
0.0
 40
11.0
 50
269.99999946639139
 51
0.0000005336085289
  0
ARC
  5
8D29
  8
AM_0
 10
309.6504384652643
 20
298.14064290179851
 30
0.0
 40
5.0
 50
89.999999466391486
 51
180.0
1001
GENIUS_GENOBJ-N-FIL_13
1002
{
1000
OWNER
1000
GEN
1002
}
1001
GENIUS_GENODEF_13
1002
{
1000
HIER
1070
     0
1002
}
1002
{
1000
MANEDIT
1070
     0
1002
}
1002
{
1000
NOSEL
1070
     0
1002
}
1002
{
1000
BEHIND
1070
     0
1002
}
1002
{
1000
OTHER
1070
     0
1002
}
1002
{
1000
REACTOR
1002
}
  0
LINE
  5
8D2A
  8
ﾁｭｳｼﾝｾﾝ1
 10
302.15043839075861
 20
314.14064290179851
 30
0.0
 11
317.15043883779339
 21
314.14064290179851
 31
0.0
  0
LINE
  5
8D37
  8
AM_0
 10
286.84422486383272
 20
323.14064170970562
 30
0.0
 11
303.3258829661138
 21
323.14064170970562
 31
0.0
  0
LINE
  5
8D38
  8
AM_0
 10
286.15043828645048
 20
317.40725853099468
 30
0.0
 11
298.65043828645048
 21
317.40725853099468
 31
0.0
  0
LINE
  5
8D3A
  8
AM_0
 10
274.14433477082548
 20
320.14064170970551
 30
0.0
 11
285.65043828645048
 21
320.14064170970562
 31
0.0
  0
ARC
  5
8D48
  8
AM_0
 10
283.70156388260131
 20
328.14064170970562
 30
0.0
 40
2.0
 50
2.0004653026450021
 51
90.0
1001
GENIUS_GENODEF_13
1002
{
1000
HIER
1070
     0
1002
}
1002
{
1000
MANEDIT
1070
     0
1002
}
1002
{
1000
NOSEL
1070
     0
1002
}
1002
{
1000
BEHIND
1070
     0
1002
}
1002
{
1000
OTHER
1070
     0
1002
}
1002
{
1000
REACTOR
1002
}
1001
GENIUS_GENOBJ-N-FIL_13
1002
{
1000
OWNER
1000
GEN
1002
}
  0
LINE
  5
8D49
  8
AM_0
 10
274.14433477082548
 20
330.14064170970562
 30
0.0
 11
283.70156388260131
 21
330.14064170970562
 31
0.0
  0
ARC
  5
8D4A
  8
AM_0
 10
286.84422490754417
 20
324.14064170970562
 30
0.0
 40
1.0000000000000091
 50
187.1807504503941
 51
269.99999749551807
  0
LINE
  5
8D4B
  8
AM_0
 10
285.70034496973142
 20
328.2104569353404
 30
0.0
 11
285.84504888215361
 21
324.06764366283062
 31
0.0
  0
LINE
  5
8D4E
  8
ﾁｭｳｼﾝｾﾝ
 10
618.30168816899516
 20
155.82651655431511
 30
0.0
 11
618.30168816899516
 21
340.64064170970562
 31
0.0
  0
LINE
  5
8D55
  8
ﾁｭｳｼﾝｾﾝ
 10
684.80168816899493
 20
274.14064170970562
 30
0.0
 11
508.80168816899487
 21
274.14064170970562
 31
0.0
  0
ARC
  5
8D56
  8
AM_0
 10
618.30168816899493
 20
274.14064170970562
 30
0.0
 40
56.5
 50
144.98137173791559
 51
215.01862826208421
  0
LINE
  5
8D57
  8
AM_0
 10
562.99181679616504
 20
238.11654188699671
 30
0.0
 11
572.30168816899493
 21
237.79143401478811
 31
0.0
  0
LINE
  5
8D58
  8
AM_0
 10
562.96773289182465
 20
240.18710757610239
 30
0.0
 11
572.30168816899493
 21
240.51305647678299
 31
0.0
  0
LINE
  5
8D59
  8
AM_0
 10
562.96773289182465
 20
308.09417584330919
 30
0.0
 11
572.30168816899493
 21
307.76822694262881
 31
0.0
  0
LINE
  5
8D5A
  8
AM_0
 10
562.99181679616504
 20
310.16474153241472
 30
0.0
 11
572.30168816899493
 21
310.48984940462321
 31
0.0
  0
ARC
  5
8D5B
  8
AM_0
 10
424.6504420415431
 20
314.14064290179851
 30
0.0
 40
11.000000327825539
 50
0.0
 51
90.000002504475205
  0
LINE
  5
8D5C
  8
ﾁｭｳｼﾝｾﾝ1
 10
424.6504420415431
 20
306.6406426782811
 30
0.0
 11
424.6504420415431
 21
321.64064312531622
 31
0.0
  0
ARC
  5
8D5D
  8
AM_0
 10
408.6504420415431
 20
314.14064305081041
 30
0.0
 40
5.0
 50
359.99999946639139
 51
90.0
1001
GENIUS_GENODEF_13
1002
{
1000
HIER
1070
     0
1002
}
1002
{
1000
MANEDIT
1070
     0
1002
}
1002
{
1000
NOSEL
1070
     0
1002
}
1002
{
1000
BEHIND
1070
     0
1002
}
1002
{
1000
OTHER
1070
     0
1002
}
1002
{
1000
REACTOR
1002
}
1001
GENIUS_GENOBJ-N-FIL_13
1002
{
1000
OWNER
1000
GEN
1002
}
  0
CIRCLE
  5
8D5E
  8
AM_0
 10
424.6504420415431
 20
314.14064290179851
 30
0.0
 40
4.5000001341104481
  0
LINE
  5
8D5F
  8
ﾁｭｳｼﾝｾﾝ
 10
384.65044084945021
 20
330.14064322962417
 30
0.0
 11
384.65044084945021
 21
218.14064018978729
 31
0.0
  0
LINE
  5
8D60
  8
AM_0
 10
429.6504421905546
 20
298.14064290179851
 30
0.0
 11
429.6504421905546
 21
249.85099865183349
 31
0.0
  0
LINE
  5
8D61
  8
AM_0
 10
435.65044236936848
 20
314.14064290179851
 30
0.0
 11
435.65044236936848
 21
234.14064051761281
 31
0.0
  0
ARC
  5
8D63
  8
AM_0
 10
424.6504420415431
 20
234.1406405176127
 30
0.0
 40
11.0
 50
89.999999466391486
 51
180.0000005336085
  0
ARC
  5
8D64
  8
AM_0
 10
408.6504420415431
 20
234.14064036860091
 30
0.0
 40
5.0
 50
270.0
 51
0.0000005336085289
1001
GENIUS_GENODEF_13
1002
{
1000
HIER
1070
     0
1002
}
1002
{
1000
MANEDIT
1070
     0
1002
}
1002
{
1000
NOSEL
1070
     0
1002
}
1002
{
1000
BEHIND
1070
     0
1002
}
1002
{
1000
OTHER
1070
     0
1002
}
1002
{
1000
REACTOR
1002
}
1001
GENIUS_GENOBJ-N-FIL_13
1002
{
1000
OWNER
1000
GEN
1002
}
  0
LINE
  5
8D65
  8
ﾁｭｳｼﾝｾﾝ1
 10
424.6504420415431
 20
241.64064074113031
 30
0.0
 11
424.6504420415431
 21
226.64064029409531
 31
0.0
  0
CIRCLE
  5
8D66
  8
AM_0
 10
424.6504420415431
 20
234.14064051761281
 30
0.0
 40
4.5000001341104481
  0
ARC
  5
8D67
  8
AM_0
 10
424.6504420415431
 20
234.14064051761281
 30
0.0
 40
11.00000032782555
 50
269.99999749551807
 51
0.0
  0
LINE
  5
8D68
  8
ﾁｭｳｼﾝｾﾝ1
 10
417.1504418180258
 20
234.14064051761281
 30
0.0
 11
432.15044226506052
 21
234.14064051761281
 31
0.0
  0
ARC
  5
8D69
  8
AM_0
 10
424.6504421905546
 20
250.1406405176127
 30
0.0
 40
5.0
 50
269.99999946639139
 51
0.0
1001
GENIUS_GENOBJ-N-FIL_13
1002
{
1000
OWNER
1000
GEN
1002
}
1001
GENIUS_GENODEF_13
1002
{
1000
HIER
1070
     0
1002
}
1002
{
1000
MANEDIT
1070
     0
1002
}
1002
{
1000
NOSEL
1070
     0
1002
}
1002
{
1000
BEHIND
1070
     0
1002
}
1002
{
1000
OTHER
1070
     0
1002
}
1002
{
1000
REACTOR
1002
}
  0
ARC
  5
8D6A
  8
AM_0
 10
384.65044084945021
 20
274.14064170970562
 30
0.0
 40
10.00000029802324
 50
107.45760402299859
 51
72.542383683110586
  0
LINE
  5
8D6C
  8
AM_0
 10
381.6504407600433
 20
286.94066040172288
 30
0.0
 11
387.65044093885689
 21
286.94066040172288
 31
0.0
  0
LINE
  5
8D6D
  8
AM_0
 10
381.6504407600433
 20
283.6800401873615
 30
0.0
 11
381.6504407600433
 21
286.94066040172288
 31
0.0
  0
LINE
  5
8D6E
  8
AM_0
 10
387.65044093885689
 20
283.6800401873615
 30
0.0
 11
387.65044093885689
 21
286.94066040172288
 31
0.0
  0
ARC
  5
8D6F
  8
AM_0
 10
424.6504420415431
 20
314.14064290179851
 30
0.0
 40
11.0
 50
179.99999946639139
 51
270.0000005336085
  0
ARC
  5
8D70
  8
AM_0
 10
424.6504421905546
 20
298.14064290179851
 30
0.0
 40
5.0
 50
0.0
 51
90.000000533608556
1001
GENIUS_GENOBJ-N-FIL_13
1002
{
1000
OWNER
1000
GEN
1002
}
1001
GENIUS_GENODEF_13
1002
{
1000
HIER
1070
     0
1002
}
1002
{
1000
MANEDIT
1070
     0
1002
}
1002
{
1000
NOSEL
1070
     0
1002
}
1002
{
1000
BEHIND
1070
     0
1002
}
1002
{
1000
OTHER
1070
     0
1002
}
1002
{
1000
REACTOR
1002
}
  0
LINE
  5
8D71
  8
ﾁｭｳｼﾝｾﾝ1
 10
417.1504418180258
 20
314.14064290179851
 30
0.0
 11
432.15044226506052
 21
314.14064290179851
 31
0.0
  0
LINE
  5
8D72
  8
AM_0
 10
564.30168816899516
 20
240.2336903208485
 30
0.0
 11
564.30168816899493
 21
247.96911084854079
 31
0.0
  0
ARC
  5
8D73
  8
AM_0
 10
563.00263238852745
 20
239.18771674908351
 30
0.0
 40
1.0
 50
92.000000000003624
 51
198.52714231446811
1001
GENIUS_GENODEF_13
1002
{
1000
HIER
1070
     0
1002
}
1002
{
1000
MANEDIT
1070
     0
1002
}
1002
{
1000
NOSEL
1070
     0
1002
}
1002
{
1000
BEHIND
1070
     0
1002
}
1002
{
1000
REACTOR
1002
}
1001
GENIUS_GENOBJ-N-FIL_13
1002
{
1000
OWNER
1000
GEN
1002
}
  0
ARC
  5
8D74
  8
AM_0
 10
563.02671629286738
 20
239.11593271401591
 30
0.0
 40
1.0
 50
198.56658080190269
 51
267.99999999999642
1001
GENIUS_GENODEF_13
1002
{
1000
HIER
1070
     0
1002
}
1002
{
1000
MANEDIT
1070
     0
1002
}
1002
{
1000
NOSEL
1070
     0
1002
}
1002
{
1000
BEHIND
1070
     0
1002
}
1002
{
1000
REACTOR
1002
}
1001
GENIUS_GENOBJ-N-FIL_13
1002
{
1000
OWNER
1000
GEN
1002
}
  0
ARC
  5
8D75
  8
AM_0
 10
667.30168816899493
 20
274.14064170970562
 30
0.0
 40
111.0
 50
198.52714231446811
 51
198.56658080189669
  0
LINE
  5
8D76
  8
AM_0
 10
560.13538373713345
 20
250.18282763274999
 30
0.0
 11
567.02073411087474
 21
250.4232693660214
 31
0.0
  0
LINE
  5
8D77
  8
AM_0
 10
560.15171847145621
 20
248.1140309837464
 30
0.0
 11
568.30199357156175
 21
247.8294171056813
 31
0.0
  0
ARC
  5
8D78
  8
AM_0
 10
667.30168816899493
 20
274.14064170970562
 30
0.0
 40
111.0
 50
193.11367014329761
 51
193.151118260647
  0
ARC
  5
8D79
  8
AM_0
 10
560.17028323383602
 20
249.18343680573079
 30
0.0
 40
1.0
 50
92.000000000003624
 51
193.11367014329761
1001
GENIUS_GENODEF_13
1002
{
1000
HIER
1070
     0
1002
}
1002
{
1000
MANEDIT
1070
     0
1002
}
1002
{
1000
NOSEL
1070
     0
1002
}
1002
{
1000
BEHIND
1070
     0
1002
}
1002
{
1000
REACTOR
1002
}
1001
GENIUS_GENOBJ-N-FIL_13
1002
{
1000
OWNER
1000
GEN
1002
}
  0
ARC
  5
8D7A
  8
AM_0
 10
560.18661796815877
 20
249.1134218107656
 30
0.0
 40
1.0
 50
193.151118260647
 51
268.0000000000029
1001
GENIUS_GENODEF_13
1002
{
1000
HIER
1070
     0
1002
}
1002
{
1000
MANEDIT
1070
     0
1002
}
1002
{
1000
NOSEL
1070
     0
1002
}
1002
{
1000
BEHIND
1070
     0
1002
}
1002
{
1000
REACTOR
1002
}
1001
GENIUS_GENOBJ-N-FIL_13
1002
{
1000
OWNER
1000
GEN
1002
}
  0
ARC
  5
8D7B
  8
AM_0
 10
558.32384633035167
 20
259.17969293659309
 30
0.0
 40
1.0
 50
91.999999999997158
 51
187.8169478316955
1001
GENIUS_GENODEF_13
1002
{
1000
HIER
1070
     0
1002
}
1002
{
1000
MANEDIT
1070
     0
1002
}
1002
{
1000
NOSEL
1070
     0
1002
}
1002
{
1000
BEHIND
1070
     0
1002
}
1002
{
1000
REACTOR
1002
}
1001
GENIUS_GENOBJ-N-FIL_13
1002
{
1000
OWNER
1000
GEN
1002
}
  0
LINE
  5
8D7C
  8
AM_0
 10
558.29842898602271
 20
258.11139435363941
 30
0.0
 11
564.18439332297169
 21
257.90585194979218
 31
0.0
  0
ARC
  5
8D7D
  8
AM_0
 10
558.33332848272516
 20
259.11078518065858
 30
0.0
 40
1.0
 50
187.85317808880549
 51
268.0000000000029
1001
GENIUS_GENODEF_13
1002
{
1000
HIER
1070
     0
1002
}
1002
{
1000
MANEDIT
1070
     0
1002
}
1002
{
1000
NOSEL
1070
     0
1002
}
1002
{
1000
BEHIND
1070
     0
1002
}
1002
{
1000
REACTOR
1002
}
1001
GENIUS_GENOBJ-N-FIL_13
1002
{
1000
OWNER
1000
GEN
1002
}
  0
ARC
  5
8D7E
  8
AM_0
 10
667.30168816899493
 20
274.14064170970562
 30
0.0
 40
111.0
 50
187.8169478316955
 51
187.853178088813
  0
LINE
  5
8D7F
  8
AM_0
 10
558.28894683364922
 20
260.17908376361231
 30
0.0
 11
563.50770599957525
 21
260.3613268494783
 31
0.0
  0
ARC
  5
8D80
  8
AM_0
 10
557.4137643611208
 20
269.17634909194243
 30
0.0
 40
1.0
 50
92.000000000003624
 51
182.58663322877331
1001
GENIUS_GENODEF_13
1002
{
1000
HIER
1070
     0
1002
}
1002
{
1000
MANEDIT
1070
     0
1002
}
1002
{
1000
NOSEL
1070
     0
1002
}
1002
{
1000
BEHIND
1070
     0
1002
}
1002
{
1000
REACTOR
1002
}
1001
GENIUS_GENOBJ-N-FIL_13
1002
{
1000
OWNER
1000
GEN
1002
}
  0
ARC
  5
8D81
  8
AM_0
 10
557.41687453958082
 20
279.1733083615851
 30
0.0
 40
1.0
 50
91.999999999997158
 51
177.37771591204699
1001
GENIUS_GENODEF_13
1002
{
1000
HIER
1070
     0
1002
}
1002
{
1000
MANEDIT
1070
     0
1002
}
1002
{
1000
NOSEL
1070
     0
1002
}
1002
{
1000
BEHIND
1070
     0
1002
}
1002
{
1000
REACTOR
1002
}
1001
GENIUS_GENOBJ-N-FIL_13
1002
{
1000
OWNER
1000
GEN
1002
}
  0
ARC
  5
8D82
  8
AM_0
 10
557.4137643611208
 20
279.1049343274691
 30
0.0
 40
1.0
 50
177.41336677122669
 51
267.99999999999642
1001
GENIUS_GENODEF_13
1002
{
1000
HIER
1070
     0
1002
}
1002
{
1000
MANEDIT
1070
     0
1002
}
1002
{
1000
NOSEL
1070
     0
1002
}
1002
{
1000
BEHIND
1070
     0
1002
}
1002
{
1000
REACTOR
1002
}
1001
GENIUS_GENOBJ-N-FIL_13
1002
{
1000
OWNER
1000
GEN
1002
}
  0
ARC
  5
8D83
  8
AM_0
 10
557.41687453958082
 20
269.10797505782608
 30
0.0
 40
1.0
 50
182.62228408795301
 51
268.0000000000029
1001
GENIUS_GENODEF_13
1002
{
1000
HIER
1070
     0
1002
}
1002
{
1000
MANEDIT
1070
     0
1002
}
1002
{
1000
NOSEL
1070
     0
1002
}
1002
{
1000
BEHIND
1070
     0
1002
}
1002
{
1000
REACTOR
1002
}
1001
GENIUS_GENOBJ-N-FIL_13
1002
{
1000
OWNER
1000
GEN
1002
}
  0
ARC
  5
8D84
  8
AM_0
 10
667.30168816899493
 20
274.14064170970562
 30
0.0
 40
111.0
 50
182.58663322877331
 51
182.62228408795301
  0
ARC
  5
8D85
  8
AM_0
 10
667.30168816899493
 20
274.14064170970562
 30
0.0
 40
111.0
 50
177.37771591204699
 51
177.41336677122669
  0
LINE
  5
8D86
  8
AM_0
 10
557.37886486441766
 20
270.17573991896148
 30
0.0
 11
561.93002349219182
 21
270.33466988032228
 31
0.0
  0
LINE
  5
8D87
  8
AM_0
 10
557.38197504287825
 20
268.1085842308072
 30
0.0
 11
562.14270844788393
 21
267.94233575695932
 31
0.0
  0
LINE
  5
8D88
  8
AM_0
 10
557.38197504287825
 20
280.17269918860438
 30
0.0
 11
562.14270844788393
 21
280.33894766245209
 31
0.0
  0
LINE
  5
8D89
  8
AM_0
 10
557.37886486441766
 20
278.10554350045021
 30
0.0
 11
561.93002349219182
 21
277.94661353908918
 31
0.0
  0
ARC
  5
8D8A
  8
AM_0
 10
560.18661796815877
 20
299.16786160864581
 30
0.0
 40
1.0
 50
91.999999999997158
 51
166.84888173935281
1001
GENIUS_GENODEF_13
1002
{
1000
HIER
1070
     0
1002
}
1002
{
1000
MANEDIT
1070
     0
1002
}
1002
{
1000
NOSEL
1070
     0
1002
}
1002
{
1000
BEHIND
1070
     0
1002
}
1002
{
1000
REACTOR
1002
}
1001
GENIUS_GENOBJ-N-FIL_13
1002
{
1000
OWNER
1000
GEN
1002
}
  0
ARC
  5
8D8B
  8
AM_0
 10
558.32384633035167
 20
289.10159048281832
 30
0.0
 40
1.0
 50
172.18305216830419
 51
268.0000000000029
1001
GENIUS_GENODEF_13
1002
{
1000
HIER
1070
     0
1002
}
1002
{
1000
MANEDIT
1070
     0
1002
}
1002
{
1000
NOSEL
1070
     0
1002
}
1002
{
1000
BEHIND
1070
     0
1002
}
1002
{
1000
REACTOR
1002
}
1001
GENIUS_GENOBJ-N-FIL_13
1002
{
1000
OWNER
1000
GEN
1002
}
  0
LINE
  5
8D8C
  8
AM_0
 10
558.28894683364922
 20
288.10219965579938
 30
0.0
 11
563.50770599957525
 21
287.91995656993288
 31
0.0
  0
LINE
  5
8D8D
  8
AM_0
 10
558.29842898602271
 20
290.16988906577183
 30
0.0
 11
564.18439332297169
 21
290.37543146961917
 31
0.0
  0
ARC
  5
8D8E
  8
AM_0
 10
558.33332848272516
 20
289.17049823875288
 30
0.0
 40
1.0
 50
91.999999999997158
 51
172.14682191119419
1001
GENIUS_GENODEF_13
1002
{
1000
HIER
1070
     0
1002
}
1002
{
1000
MANEDIT
1070
     0
1002
}
1002
{
1000
NOSEL
1070
     0
1002
}
1002
{
1000
BEHIND
1070
     0
1002
}
1002
{
1000
REACTOR
1002
}
1001
GENIUS_GENOBJ-N-FIL_13
1002
{
1000
OWNER
1000
GEN
1002
}
  0
ARC
  5
8D8F
  8
AM_0
 10
667.30168816899493
 20
274.14064170970562
 30
0.0
 40
111.0
 50
172.14682191118681
 51
172.18305216830419
  0
LINE
  5
8D90
  8
AM_0
 10
560.13538373713345
 20
298.09845578666148
 30
0.0
 11
567.02073411087474
 21
297.85801405338998
 31
0.0
  0
ARC
  5
8D91
  8
AM_0
 10
667.30168816899493
 20
274.14064170970562
 30
0.0
 40
111.0
 50
166.84888173935281
 51
166.88632985669301
  0
ARC
  5
8D92
  8
AM_0
 10
560.17028323383602
 20
299.0978466136807
 30
0.0
 40
1.0
 50
166.88632985670239
 51
267.99999999999642
1001
GENIUS_GENODEF_13
1002
{
1000
HIER
1070
     0
1002
}
1002
{
1000
MANEDIT
1070
     0
1002
}
1002
{
1000
NOSEL
1070
     0
1002
}
1002
{
1000
BEHIND
1070
     0
1002
}
1002
{
1000
REACTOR
1002
}
1001
GENIUS_GENOBJ-N-FIL_13
1002
{
1000
OWNER
1000
GEN
1002
}
  0
LINE
  5
8D93
  8
AM_0
 10
564.30168816899516
 20
308.04759309856269
 30
0.0
 11
564.30168816899493
 21
300.3121725708703
 31
0.0
  0
LINE
  5
8D94
  8
AM_0
 10
560.15171847145621
 20
300.16725243566492
 30
0.0
 11
568.30199357156175
 21
300.45186631373019
 31
0.0
  0
ARC
  5
8D95
  8
AM_0
 10
563.00263238852745
 20
309.09356667032819
 30
0.0
 40
1.0
 50
161.47285768553169
 51
267.99999999999642
1001
GENIUS_GENODEF_13
1002
{
1000
HIER
1070
     0
1002
}
1002
{
1000
MANEDIT
1070
     0
1002
}
1002
{
1000
NOSEL
1070
     0
1002
}
1002
{
1000
BEHIND
1070
     0
1002
}
1002
{
1000
REACTOR
1002
}
1001
GENIUS_GENOBJ-N-FIL_13
1002
{
1000
OWNER
1000
GEN
1002
}
  0
ARC
  5
8D96
  8
AM_0
 10
667.30168816899493
 20
274.14064170970562
 30
0.0
 40
111.0
 50
161.43341919810169
 51
161.47285768553169
  0
ARC
  5
8D97
  8
AM_0
 10
563.02671629286738
 20
309.16535070539561
 30
0.0
 40
1.0
 50
92.000000000003624
 51
161.43341919809711
1001
GENIUS_GENODEF_13
1002
{
1000
HIER
1070
     0
1002
}
1002
{
1000
MANEDIT
1070
     0
1002
}
1002
{
1000
NOSEL
1070
     0
1002
}
1002
{
1000
BEHIND
1070
     0
1002
}
1002
{
1000
REACTOR
1002
}
1001
GENIUS_GENOBJ-N-FIL_13
1002
{
1000
OWNER
1000
GEN
1002
}
  0
ARC
  5
8D98
  8
AM_0
 10
659.30168816899493
 20
315.14064170970562
 30
0.0
 40
5.0
 50
0.0
 51
90.0
1001
GENIUS_GENODEF_13
1002
{
1000
HIER
1070
     0
1002
}
1002
{
1000
MANEDIT
1070
     0
1002
}
1002
{
1000
NOSEL
1070
     0
1002
}
1002
{
1000
BEHIND
1070
     0
1002
}
1002
{
1000
REACTOR
1002
}
1001
GENIUS_GENOBJ-N-FIL_13
1002
{
1000
OWNER
1000
GEN
1002
}
  0
LINE
  5
8D99
  8
AM_0
 10
643.3016889140531
 20
325.14064322962417
 30
0.0
 11
643.3016889140531
 21
223.14064018978729
 31
0.0
  0
LINE
  5
8D9A
  8
AM_0
 10
656.30168930148318
 20
324.91372737879448
 30
0.0
 11
656.30168930148318
 21
223.36755604061671
 31
0.0
  0
ARC
  5
8D9B
  8
AM_0
 10
577.30168816899493
 20
315.14064170970562
 30
0.0
 40
5.0
 50
90.0
 51
180.0
1001
GENIUS_GENOBJ-N-CEN_13
1002
{
1000
OWNER
1000
GEN
1002
}
1001
GENIUS_GENODEF_13
1002
{
1000
HIER
1070
     0
1002
}
1002
{
1000
MANEDIT
1070
     0
1002
}
1002
{
1000
NOSEL
1070
     0
1002
}
1002
{
1000
BEHIND
1070
     0
1002
}
1002
{
1000
REACTOR
1002
}
1001
GENIUS_GENOBJ-N-FIL_13
1002
{
1000
OWNER
1000
GEN
1002
}
  0
LINE
  5
8D9C
  8
AM_0
 10
580.30168703650634
 20
324.04097410637371
 30
0.0
 11
580.30168703650634
 21
224.24030931303781
 31
0.0
  0
LINE
  5
8D9D
  8
AM_0
 10
673.63564344616543
 20
308.09417584330919
 30
0.0
 11
664.30168816899493
 21
307.76822694262881
 31
0.0
  0
LINE
  5
8D9E
  8
AM_0
 10
673.61155954182527
 20
310.16474153241472
 30
0.0
 11
664.30168816899493
 21
310.48984940462321
 31
0.0
  0
LINE
  5
8D9F
  8
AM_0
 10
673.61155954182505
 20
238.11654188699671
 30
0.0
 11
664.30168816899493
 21
237.79143401478811
 31
0.0
  0
LINE
  5
8DA0
  8
AM_0
 10
673.63564344616543
 20
240.18710757610239
 30
0.0
 11
664.30168816899493
 21
240.51305647678299
 31
0.0
  0
ARC
  5
8DA1
  8
AM_0
 10
618.30168816899493
 20
274.14064170970562
 30
0.0
 40
56.5
 50
324.98137173791588
 51
35.018628262084228
  0
LINE
  5
8DA2
  8
AM_0
 10
660.30168942069224
 20
301.64064252926948
 30
0.0
 11
660.30168942069224
 21
246.6406408901419
 31
0.0
  0
LINE
  5
8DA3
  8
AM_0
 10
576.30168691729727
 20
301.64064252926948
 30
0.0
 11
576.30168691729727
 21
246.6406408901419
 31
0.0
  0
LINE
  5
8DA4
  8
AM_0
 10
643.30168891405435
 20
223.14064018978721
 30
0.0
 11
580.30168703650634
 21
224.24030931303781
 31
0.0
  0
LINE
  5
8DA5
  8
ｶｸﾚｾﾝ2
 10
580.30168703650634
 20
229.64064051761281
 30
0.0
 11
656.30168930148318
 21
229.64064051761289
 31
0.0
  0
LINE
  5
8DA6
  8
ｶｸﾚｾﾝ2
 10
580.30168703650634
 20
238.64064051761281
 30
0.0
 11
656.30168930148318
 21
238.64064051761281
 31
0.0
  0
LINE
  5
8DA7
  8
ﾁｭｳｼﾝｾﾝ
 10
577.30168703650691
 20
234.14064051761281
 30
0.0
 11
659.30168930148341
 21
234.14064051761281
 31
0.0
  0
ARC
  5
8DAC
  8
AM_0
 10
618.30168816899493
 20
274.14064170970562
 30
0.0
 40
56.5
 50
242.4821246347974
 51
295.51787536519993
  0
ARC
  5
8DAE
  8
AM_0
 10
586.33913722501711
 20
218.18127758771479
 30
0.0
 40
1.965536666759129
 50
3.1584702260749462
 51
179.35044678892791
  0
LINE
  5
8DAF
  8
AM_0
 10
582.26798611678316
 20
217.10574221300311
 30
0.0
 11
582.01988886378729
 21
224.2103179885828
 31
0.0
  0
LINE
  5
8DB0
  8
AM_0
 10
584.33539022120692
 20
217.10574221300331
 30
0.0
 11
584.58192579919535
 21
224.16559746752679
 31
0.0
  0
ARC
  5
8DB5
  8
AM_0
 10
583.33599939418821
 20
217.14064170970559
 30
0.0
 40
1.0
 50
269.99999999999352
 51
357.99999999999642
1001
GENIUS_GENODEF_13
1002
{
1000
HIER
1070
     0
1002
}
1002
{
1000
MANEDIT
1070
     0
1002
}
1002
{
1000
NOSEL
1070
     0
1002
}
1002
{
1000
BEHIND
1070
     0
1002
}
1002
{
1000
REACTOR
1002
}
1001
GENIUS_GENOBJ-N-FIL_13
1002
{
1000
OWNER
1000
GEN
1002
}
  0
LINE
  5
8DB6
  8
AM_0
 10
583.33599939418821
 20
216.14064170970559
 30
0.0
 11
583.26737694380165
 21
216.14064170970559
 31
0.0
  0
ARC
  5
8DB7
  8
AM_0
 10
583.26737694380165
 20
217.14064170970559
 30
0.0
 40
1.0
 50
181.99999999999719
 51
270.0
1001
GENIUS_GENODEF_13
1002
{
1000
HIER
1070
     0
1002
}
1002
{
1000
MANEDIT
1070
     0
1002
}
1002
{
1000
NOSEL
1070
     0
1002
}
1002
{
1000
BEHIND
1070
     0
1002
}
1002
{
1000
REACTOR
1002
}
1001
GENIUS_GENOBJ-N-FIL_13
1002
{
1000
OWNER
1000
GEN
1002
}
  0
LINE
  5
8DB8
  8
AM_0
 10
572.30168816899493
 20
240.85776322842059
 30
0.0
 11
572.30168816899493
 21
233.14064170970559
 31
0.0
1001
GENIUS_GENODEF_13
1002
{
1000
HIER
1070
     0
1002
}
1002
{
1000
MANEDIT
1070
     0
1002
}
1002
{
1000
NOSEL
1070
     0
1002
}
1002
{
1000
BEHIND
1070
     0
1002
}
1002
{
1000
REACTOR
1002
}
1001
GENIUS_GENOBJ-N-CEN_13
1002
{
1000
OWNER
1000
GEN
1002
}
  0
ARC
  5
8DB9
  8
AM_0
 10
577.30168816899493
 20
233.14064170970559
 30
0.0
 40
5.0
 50
180.0
 51
270.0
1001
GENIUS_GENOBJ-N-CEN_13
1002
{
1000
OWNER
1000
GEN
1002
}
1001
GENIUS_GENODEF_13
1002
{
1000
HIER
1070
     0
1002
}
1002
{
1000
MANEDIT
1070
     0
1002
}
1002
{
1000
NOSEL
1070
     0
1002
}
1002
{
1000
BEHIND
1070
     0
1002
}
1002
{
1000
REACTOR
1002
}
1001
GENIUS_GENOBJ-N-FIL_13
1002
{
1000
OWNER
1000
GEN
1002
}
  0
LINE
  5
8DBA
  8
AM_0
 10
577.30168816899493
 20
228.14064170970559
 30
0.0
 11
580.30168816899493
 21
228.14064170970559
 31
0.0
  0
ARC
  5
8DBB
  8
AM_0
 10
570.80168816899493
 20
240.85776322842059
 30
0.0
 40
1.5
 50
0.0
 51
35.018628262086253
1001
GENIUS_GENODEF_13
1002
{
1000
HIER
1070
     0
1002
}
1002
{
1000
MANEDIT
1070
     0
1002
}
1002
{
1000
NOSEL
1070
     0
1002
}
1002
{
1000
BEHIND
1070
     0
1002
}
1002
{
1000
REACTOR
1002
}
1001
GENIUS_GENOBJ-N-FIL_13
1002
{
1000
OWNER
1000
GEN
1002
}
  0
LINE
  5
8DBC
  8
AM_0
 10
576.30168691729727
 20
246.6406408901419
 30
0.0
 11
580.30168703650634
 21
246.6406408901419
 31
0.0
  0
ARC
  5
8DBE
  8
AM_0
 10
650.26423911297297
 20
218.18127758771479
 30
0.0
 40
1.965536666759129
 50
0.6495532110655594
 51
176.841529773925
  0
LINE
  5
8DBF
  8
AM_0
 10
652.26798611678305
 20
217.10574221300331
 30
0.0
 11
652.05190918874735
 21
223.2933758528182
 31
0.0
  0
LINE
  5
8DC0
  8
AM_0
 10
654.33539022120692
 20
217.10574221300311
 30
0.0
 11
654.55299166980967
 21
223.33703240991599
 31
0.0
  0
ARC
  5
8DC5
  8
AM_0
 10
653.33599939418775
 20
217.14064170970559
 30
0.0
 40
1.0
 50
269.99999999999352
 51
357.99999999999642
1001
GENIUS_GENODEF_13
1002
{
1000
HIER
1070
     0
1002
}
1002
{
1000
MANEDIT
1070
     0
1002
}
1002
{
1000
NOSEL
1070
     0
1002
}
1002
{
1000
BEHIND
1070
     0
1002
}
1002
{
1000
REACTOR
1002
}
1001
GENIUS_GENOBJ-N-FIL_13
1002
{
1000
OWNER
1000
GEN
1002
}
  0
ARC
  5
8DC6
  8
AM_0
 10
653.26737694380188
 20
217.14064170970559
 30
0.0
 40
1.0
 50
181.99999999999719
 51
270.0
1001
GENIUS_GENODEF_13
1002
{
1000
HIER
1070
     0
1002
}
1002
{
1000
MANEDIT
1070
     0
1002
}
1002
{
1000
NOSEL
1070
     0
1002
}
1002
{
1000
BEHIND
1070
     0
1002
}
1002
{
1000
REACTOR
1002
}
1001
GENIUS_GENOBJ-N-FIL_13
1002
{
1000
OWNER
1000
GEN
1002
}
  0
LINE
  5
8DC7
  8
AM_0
 10
653.26737694380188
 20
216.14064170970559
 30
0.0
 11
653.33599939418775
 21
216.14064170970559
 31
0.0
  0
LINE
  5
8DC8
  8
AM_0
 10
664.30168816899493
 20
240.85776322842059
 30
0.0
 11
664.30168816899493
 21
233.14064170970559
 31
0.0
1001
GENIUS_GENODEF_13
1002
{
1000
HIER
1070
     0
1002
}
1002
{
1000
MANEDIT
1070
     0
1002
}
1002
{
1000
NOSEL
1070
     0
1002
}
1002
{
1000
BEHIND
1070
     0
1002
}
1002
{
1000
REACTOR
1002
}
1001
GENIUS_GENOBJ-N-CEN_13
1002
{
1000
OWNER
1000
GEN
1002
}
  0
LINE
  5
8DC9
  8
AM_0
 10
643.30168891405299
 20
223.14064018978721
 30
0.0
 11
656.30168930148318
 21
223.36755604061671
 31
0.0
  0
ARC
  5
8DCA
  8
AM_0
 10
659.30168816899493
 20
233.14064170970559
 30
0.0
 40
5.0
 50
270.0
 51
0.0
1001
GENIUS_GENODEF_13
1002
{
1000
HIER
1070
     0
1002
}
1002
{
1000
MANEDIT
1070
     0
1002
}
1002
{
1000
NOSEL
1070
     0
1002
}
1002
{
1000
BEHIND
1070
     0
1002
}
1002
{
1000
REACTOR
1002
}
1001
GENIUS_GENOBJ-N-FIL_13
1002
{
1000
OWNER
1000
GEN
1002
}
  0
LINE
  5
8DCB
  8
AM_0
 10
656.30168816899493
 20
228.14064170970559
 30
0.0
 11
659.30168816899493
 21
228.14064170970559
 31
0.0
  0
ARC
  5
8DCC
  8
AM_0
 10
665.80168816899493
 20
240.85776322842059
 30
0.0
 40
1.5
 50
144.98137173791559
 51
180.0
1001
GENIUS_GENODEF_13
1002
{
1000
HIER
1070
     0
1002
}
1002
{
1000
MANEDIT
1070
     0
1002
}
1002
{
1000
NOSEL
1070
     0
1002
}
1002
{
1000
BEHIND
1070
     0
1002
}
1002
{
1000
REACTOR
1002
}
1001
GENIUS_GENOBJ-N-FIL_13
1002
{
1000
OWNER
1000
GEN
1002
}
  0
LINE
  5
8DCD
  8
AM_0
 10
660.30168942069224
 20
246.6406408901419
 30
0.0
 11
656.30168930148318
 21
246.6406408901419
 31
0.0
  0
LINE
  5
8DCE
  8
ｶｸﾚｾﾝ2
 10
580.30168703650634
 20
309.64064290179863
 30
0.0
 11
656.30168930148318
 21
309.64064290179851
 31
0.0
  0
LINE
  5
8DCF
  8
ﾁｭｳｼﾝｾﾝ
 10
577.30168703650691
 20
314.14064290179863
 30
0.0
 11
659.30168930148341
 21
314.14064290179851
 31
0.0
  0
LINE
  5
8DD1
  8
AM_0
 10
576.30168691729727
 20
259.1406412626709
 30
0.0
 11
575.30168816899516
 21
259.14064126267101
 31
0.0
  0
LINE
  5
8DD2
  8
AM_0
 10
576.30168691729727
 20
289.1406421567404
 30
0.0
 11
575.30168816899516
 21
289.1406421567404
 31
0.0
  0
ARC
  5
8DD3
  8
AM_0
 10
570.80168816899493
 20
307.42352019099121
 30
0.0
 40
1.5
 50
324.98137173791588
 51
0.0
1001
GENIUS_GENODEF_13
1002
{
1000
HIER
1070
     0
1002
}
1002
{
1000
MANEDIT
1070
     0
1002
}
1002
{
1000
NOSEL
1070
     0
1002
}
1002
{
1000
BEHIND
1070
     0
1002
}
1002
{
1000
REACTOR
1002
}
1001
GENIUS_GENOBJ-N-FIL_13
1002
{
1000
OWNER
1000
GEN
1002
}
  0
LINE
  5
8DD4
  8
AM_0
 10
576.30168691729727
 20
301.64064252926948
 30
0.0
 11
580.30168703650634
 21
301.64064252926948
 31
0.0
  0
LINE
  5
8DD5
  8
AM_0
 10
572.30168816899493
 20
315.14064170970562
 30
0.0
 11
572.30168816899493
 21
307.42352019099121
 31
0.0
1001
GENIUS_GENODEF_13
1002
{
1000
HIER
1070
     0
1002
}
1002
{
1000
MANEDIT
1070
     0
1002
}
1002
{
1000
NOSEL
1070
     0
1002
}
1002
{
1000
BEHIND
1070
     0
1002
}
1002
{
1000
REACTOR
1002
}
1001
GENIUS_GENOBJ-N-CEN_13
1002
{
1000
OWNER
1000
GEN
1002
}
  0
LINE
  5
8DD7
  8
AM_0
 10
661.30168816899527
 20
259.1406412626709
 30
0.0
 11
660.30168942069224
 21
259.1406412626709
 31
0.0
  0
LINE
  5
8DD8
  8
AM_0
 10
661.30168816899527
 20
289.1406421567404
 30
0.0
 11
660.30168942069224
 21
289.1406421567404
 31
0.0
  0
ARC
  5
8DD9
  8
AM_0
 10
665.80168816899493
 20
307.42352019099121
 30
0.0
 40
1.5
 50
179.99999999999341
 51
215.01862826208421
1001
GENIUS_GENODEF_13
1002
{
1000
HIER
1070
     0
1002
}
1002
{
1000
MANEDIT
1070
     0
1002
}
1002
{
1000
NOSEL
1070
     0
1002
}
1002
{
1000
BEHIND
1070
     0
1002
}
1002
{
1000
REACTOR
1002
}
1001
GENIUS_GENOBJ-N-FIL_13
1002
{
1000
OWNER
1000
GEN
1002
}
  0
LINE
  5
8DDA
  8
AM_0
 10
660.30168942069224
 20
301.64064252926948
 30
0.0
 11
656.30168930148318
 21
301.64064252926948
 31
0.0
  0
LINE
  5
8DDB
  8
AM_0
 10
664.30168816899493
 20
315.14064170970562
 30
0.0
 11
664.30168816899493
 21
307.42352019099121
 31
0.0
1001
GENIUS_GENODEF_13
1002
{
1000
HIER
1070
     0
1002
}
1002
{
1000
MANEDIT
1070
     0
1002
}
1002
{
1000
NOSEL
1070
     0
1002
}
1002
{
1000
BEHIND
1070
     0
1002
}
1002
{
1000
REACTOR
1002
}
1001
GENIUS_GENOBJ-N-CEN_13
1002
{
1000
OWNER
1000
GEN
1002
}
  0
ARC
  5
8DDC
  8
AM_0
 10
676.43309310415395
 20
249.18343680573079
 30
0.0
 40
1.0
 50
346.88632985670228
 51
87.999999999996334
1001
GENIUS_GENODEF_13
1002
{
1000
HIER
1070
     0
1002
}
1002
{
1000
MANEDIT
1070
     0
1002
}
1002
{
1000
NOSEL
1070
     0
1002
}
1002
{
1000
BEHIND
1070
     0
1002
}
1002
{
1000
REACTOR
1002
}
1001
GENIUS_GENOBJ-N-FIL_13
1002
{
1000
OWNER
1000
GEN
1002
}
  0
LINE
  5
8DDD
  8
AM_0
 10
672.30168816899493
 20
240.2336903208485
 30
0.0
 11
672.30168816899493
 21
247.96911084854079
 31
0.0
  0
ARC
  5
8DDE
  8
AM_0
 10
569.30168816899493
 20
274.14064170970562
 30
0.0
 40
111.0
 50
341.43341919810172
 51
341.47285768553172
  0
ARC
  5
8DDF
  8
AM_0
 10
673.60074394946253
 20
239.18771674908351
 30
0.0
 40
1.0
 50
341.47285768553172
 51
87.999999999996334
1001
GENIUS_GENODEF_13
1002
{
1000
HIER
1070
     0
1002
}
1002
{
1000
MANEDIT
1070
     0
1002
}
1002
{
1000
NOSEL
1070
     0
1002
}
1002
{
1000
BEHIND
1070
     0
1002
}
1002
{
1000
REACTOR
1002
}
1001
GENIUS_GENOBJ-N-FIL_13
1002
{
1000
OWNER
1000
GEN
1002
}
  0
ARC
  5
8DE0
  8
AM_0
 10
673.57666004512271
 20
239.11593271401591
 30
0.0
 40
1.0
 50
272.00000000000369
 51
341.433419198097
1001
GENIUS_GENODEF_13
1002
{
1000
HIER
1070
     0
1002
}
1002
{
1000
MANEDIT
1070
     0
1002
}
1002
{
1000
NOSEL
1070
     0
1002
}
1002
{
1000
BEHIND
1070
     0
1002
}
1002
{
1000
REACTOR
1002
}
1001
GENIUS_GENOBJ-N-FIL_13
1002
{
1000
OWNER
1000
GEN
1002
}
  0
LINE
  5
8DE1
  8
AM_0
 10
676.46799260085663
 20
250.18282763274999
 30
0.0
 11
669.58264222711523
 21
250.4232693660214
 31
0.0
  0
LINE
  5
8DE2
  8
AM_0
 10
676.45165786653388
 20
248.1140309837464
 30
0.0
 11
668.30138276642799
 21
247.8294171056813
 31
0.0
  0
ARC
  5
8DE3
  8
AM_0
 10
569.30168816899493
 20
274.14064170970562
 30
0.0
 40
111.0
 50
346.84888173935292
 51
346.88632985669301
  0
ARC
  5
8DE4
  8
AM_0
 10
676.4167583698312
 20
249.1134218107656
 30
0.0
 40
1.0
 50
271.9999999999971
 51
346.84888173935292
1001
GENIUS_GENODEF_13
1002
{
1000
HIER
1070
     0
1002
}
1002
{
1000
MANEDIT
1070
     0
1002
}
1002
{
1000
NOSEL
1070
     0
1002
}
1002
{
1000
BEHIND
1070
     0
1002
}
1002
{
1000
REACTOR
1002
}
1001
GENIUS_GENOBJ-N-FIL_13
1002
{
1000
OWNER
1000
GEN
1002
}
  0
LINE
  5
8DE5
  8
AM_0
 10
678.31442950434075
 20
260.17908376361231
 30
0.0
 11
673.09567033841483
 21
260.3613268494783
 31
0.0
  0
LINE
  5
8DE6
  8
AM_0
 10
678.30494735196714
 20
258.11139435363941
 30
0.0
 11
672.4189830150184
 21
257.90585194979218
 31
0.0
  0
ARC
  5
8DE7
  8
AM_0
 10
678.27953000763773
 20
259.17969293659309
 30
0.0
 40
1.0
 50
352.1830521683043
 51
88.000000000002842
1001
GENIUS_GENODEF_13
1002
{
1000
HIER
1070
     0
1002
}
1002
{
1000
MANEDIT
1070
     0
1002
}
1002
{
1000
NOSEL
1070
     0
1002
}
1002
{
1000
BEHIND
1070
     0
1002
}
1002
{
1000
REACTOR
1002
}
1001
GENIUS_GENOBJ-N-FIL_13
1002
{
1000
OWNER
1000
GEN
1002
}
  0
ARC
  5
8DE8
  8
AM_0
 10
678.27004785526469
 20
259.11078518065858
 30
0.0
 40
1.0
 50
271.9999999999971
 51
352.14682191119408
1001
GENIUS_GENODEF_13
1002
{
1000
HIER
1070
     0
1002
}
1002
{
1000
MANEDIT
1070
     0
1002
}
1002
{
1000
NOSEL
1070
     0
1002
}
1002
{
1000
BEHIND
1070
     0
1002
}
1002
{
1000
REACTOR
1002
}
1001
GENIUS_GENOBJ-N-FIL_13
1002
{
1000
OWNER
1000
GEN
1002
}
  0
ARC
  5
8DE9
  8
AM_0
 10
569.30168816899493
 20
274.14064170970562
 30
0.0
 40
111.0
 50
352.14682191118692
 51
352.1830521683043
  0
LINE
  5
8DEA
  8
AM_0
 10
679.22451147357208
 20
270.17573991896148
 30
0.0
 11
674.67335284579826
 21
270.33466988032228
 31
0.0
  0
LINE
  5
8DEB
  8
AM_0
 10
679.2214012951116
 20
280.17269918860438
 30
0.0
 11
674.46066789010592
 21
280.33894766245209
 31
0.0
  0
LINE
  5
8DEC
  8
AM_0
 10
679.22451147357208
 20
278.10554350045021
 30
0.0
 11
674.67335284579826
 21
277.94661353908918
 31
0.0
  0
LINE
  5
8DED
  8
AM_0
 10
679.2214012951116
 20
268.1085842308072
 30
0.0
 11
674.46066789010592
 21
267.94233575695932
 31
0.0
  0
ARC
  5
8DEE
  8
AM_0
 10
679.1896119768694
 20
269.17634909194243
 30
0.0
 40
1.0
 50
357.41336677122672
 51
87.999999999996334
1001
GENIUS_GENODEF_13
1002
{
1000
HIER
1070
     0
1002
}
1002
{
1000
MANEDIT
1070
     0
1002
}
1002
{
1000
NOSEL
1070
     0
1002
}
1002
{
1000
BEHIND
1070
     0
1002
}
1002
{
1000
REACTOR
1002
}
1001
GENIUS_GENOBJ-N-FIL_13
1002
{
1000
OWNER
1000
GEN
1002
}
  0
ARC
  5
8DEF
  8
AM_0
 10
679.18650179840915
 20
269.10797505782608
 30
0.0
 40
1.0
 50
271.9999999999971
 51
357.37771591204699
1001
GENIUS_GENODEF_13
1002
{
1000
HIER
1070
     0
1002
}
1002
{
1000
MANEDIT
1070
     0
1002
}
1002
{
1000
NOSEL
1070
     0
1002
}
1002
{
1000
BEHIND
1070
     0
1002
}
1002
{
1000
REACTOR
1002
}
1001
GENIUS_GENOBJ-N-FIL_13
1002
{
1000
OWNER
1000
GEN
1002
}
  0
ARC
  5
8DF0
  8
AM_0
 10
569.30168816899493
 20
274.14064170970562
 30
0.0
 40
111.0
 50
357.37771591204699
 51
357.41336677122672
  0
ARC
  5
8DF1
  8
AM_0
 10
569.30168816899493
 20
274.14064170970562
 30
0.0
 40
111.0
 50
2.5866332287732861
 51
2.6222840879530001
  0
ARC
  5
8DF2
  8
AM_0
 10
679.18650179840915
 20
279.1733083615851
 30
0.0
 40
1.0
 50
2.6222840879530001
 51
88.000000000002842
1001
GENIUS_GENODEF_13
1002
{
1000
HIER
1070
     0
1002
}
1002
{
1000
MANEDIT
1070
     0
1002
}
1002
{
1000
NOSEL
1070
     0
1002
}
1002
{
1000
BEHIND
1070
     0
1002
}
1002
{
1000
REACTOR
1002
}
1001
GENIUS_GENOBJ-N-FIL_13
1002
{
1000
OWNER
1000
GEN
1002
}
  0
ARC
  5
8DF3
  8
AM_0
 10
679.1896119768694
 20
279.1049343274691
 30
0.0
 40
1.0
 50
272.00000000000369
 51
2.5866332287732861
1001
GENIUS_GENODEF_13
1002
{
1000
HIER
1070
     0
1002
}
1002
{
1000
MANEDIT
1070
     0
1002
}
1002
{
1000
NOSEL
1070
     0
1002
}
1002
{
1000
BEHIND
1070
     0
1002
}
1002
{
1000
REACTOR
1002
}
1001
GENIUS_GENOBJ-N-FIL_13
1002
{
1000
OWNER
1000
GEN
1002
}
  0
ARC
  5
8DF4
  8
AM_0
 10
676.4167583698312
 20
299.16786160864581
 30
0.0
 40
1.0
 50
13.151118260647079
 51
88.000000000002842
1001
GENIUS_GENODEF_13
1002
{
1000
HIER
1070
     0
1002
}
1002
{
1000
MANEDIT
1070
     0
1002
}
1002
{
1000
NOSEL
1070
     0
1002
}
1002
{
1000
BEHIND
1070
     0
1002
}
1002
{
1000
REACTOR
1002
}
1001
GENIUS_GENOBJ-N-FIL_13
1002
{
1000
OWNER
1000
GEN
1002
}
  0
ARC
  5
8DF5
  8
AM_0
 10
676.43309310415395
 20
299.0978466136807
 30
0.0
 40
1.0
 50
272.00000000000369
 51
13.113670143297609
1001
GENIUS_GENODEF_13
1002
{
1000
HIER
1070
     0
1002
}
1002
{
1000
MANEDIT
1070
     0
1002
}
1002
{
1000
NOSEL
1070
     0
1002
}
1002
{
1000
BEHIND
1070
     0
1002
}
1002
{
1000
REACTOR
1002
}
1001
GENIUS_GENOBJ-N-FIL_13
1002
{
1000
OWNER
1000
GEN
1002
}
  0
LINE
  5
8DF6
  8
AM_0
 10
678.31442950434075
 20
288.10219965579938
 30
0.0
 11
673.09567033841483
 21
287.91995656993288
 31
0.0
  0
LINE
  5
8DF7
  8
AM_0
 10
678.30494735196714
 20
290.16988906577183
 30
0.0
 11
672.4189830150184
 21
290.37543146961917
 31
0.0
  0
LINE
  5
8DF8
  8
AM_0
 10
676.46799260085675
 20
298.09845578666148
 30
0.0
 11
669.58264222711523
 21
297.85801405338998
 31
0.0
  0
ARC
  5
8DF9
  8
AM_0
 10
569.30168816899493
 20
274.14064170970562
 30
0.0
 40
111.0
 50
13.11367014330702
 51
13.151118260647079
  0
ARC
  5
8DFA
  8
AM_0
 10
678.27953000763773
 20
289.10159048281832
 30
0.0
 40
1.0
 50
271.9999999999971
 51
7.8169478316957584
1001
GENIUS_GENODEF_13
1002
{
1000
HIER
1070
     0
1002
}
1002
{
1000
MANEDIT
1070
     0
1002
}
1002
{
1000
NOSEL
1070
     0
1002
}
1002
{
1000
BEHIND
1070
     0
1002
}
1002
{
1000
REACTOR
1002
}
1001
GENIUS_GENOBJ-N-FIL_13
1002
{
1000
OWNER
1000
GEN
1002
}
  0
ARC
  5
8DFB
  8
AM_0
 10
569.30168816899493
 20
274.14064170970562
 30
0.0
 40
111.0
 50
7.8169478316957584
 51
7.8531780888131122
  0
ARC
  5
8DFC
  8
AM_0
 10
678.27004785526469
 20
289.17049823875288
 30
0.0
 40
1.0
 50
7.8531780888057723
 51
88.000000000002842
1001
GENIUS_GENODEF_13
1002
{
1000
HIER
1070
     0
1002
}
1002
{
1000
MANEDIT
1070
     0
1002
}
1002
{
1000
NOSEL
1070
     0
1002
}
1002
{
1000
BEHIND
1070
     0
1002
}
1002
{
1000
REACTOR
1002
}
1001
GENIUS_GENOBJ-N-FIL_13
1002
{
1000
OWNER
1000
GEN
1002
}
  0
LINE
  5
8DFD
  8
AM_0
 10
672.30168816899493
 20
308.04759309856269
 30
0.0
 11
672.30168816899493
 21
300.3121725708703
 31
0.0
  0
LINE
  5
8DFE
  8
AM_0
 10
676.45165786653388
 20
300.16725243566492
 30
0.0
 11
668.30138276642799
 21
300.45186631373019
 31
0.0
  0
ARC
  5
8DFF
  8
AM_0
 10
569.30168816899493
 20
274.14064170970562
 30
0.0
 40
111.0
 50
18.52714231446825
 51
18.566580801896752
  0
ARC
  5
8E00
  8
AM_0
 10
673.60074394946253
 20
309.09356667032819
 30
0.0
 40
1.0
 50
271.9999999999971
 51
18.52714231446825
1001
GENIUS_GENODEF_13
1002
{
1000
HIER
1070
     0
1002
}
1002
{
1000
MANEDIT
1070
     0
1002
}
1002
{
1000
NOSEL
1070
     0
1002
}
1002
{
1000
BEHIND
1070
     0
1002
}
1002
{
1000
REACTOR
1002
}
1001
GENIUS_GENOBJ-N-FIL_13
1002
{
1000
OWNER
1000
GEN
1002
}
  0
ARC
  5
8E01
  8
AM_0
 10
673.57666004512271
 20
309.16535070539561
 30
0.0
 40
1.0
 50
18.56658080190293
 51
87.999999999996334
1001
GENIUS_GENODEF_13
1002
{
1000
HIER
1070
     0
1002
}
1002
{
1000
MANEDIT
1070
     0
1002
}
1002
{
1000
NOSEL
1070
     0
1002
}
1002
{
1000
BEHIND
1070
     0
1002
}
1002
{
1000
REACTOR
1002
}
1001
GENIUS_GENOBJ-N-FIL_13
1002
{
1000
OWNER
1000
GEN
1002
}
  0
LINE
  5
8E02
  8
ｶｸﾚｾﾝ2
 10
580.30168703650634
 20
318.64064290179851
 30
0.0
 11
656.30168930148318
 21
318.64064290179851
 31
0.0
  0
LINE
  5
8E03
  8
AM_0
 10
643.30168891405435
 20
325.140643229624
 30
0.0
 11
580.30168703650634
 21
324.04097410637371
 31
0.0
  0
ARC
  5
8E04
  8
AM_0
 10
618.30168816899493
 20
274.14064170970562
 30
0.0
 40
56.5
 50
64.482124634800144
 51
117.5178753652025
  0
ARC
  5
8E05
  8
AM_0
 10
593.34448326502013
 20
332.27204664486442
 30
0.0
 40
1.0
 50
2.000000000003725
 51
103.11367014329871
1001
GENIUS_GENODEF_13
1002
{
1000
HIER
1070
     0
1002
}
1002
{
1000
MANEDIT
1070
     0
1002
}
1002
{
1000
NOSEL
1070
     0
1002
}
1002
{
1000
BEHIND
1070
     0
1002
}
1002
{
1000
REACTOR
1002
}
1001
GENIUS_GENOBJ-N-FIL_13
1002
{
1000
OWNER
1000
GEN
1002
}
  0
LINE
  5
8E06
  8
AM_0
 10
592.27507744303557
 20
332.2906114072444
 30
0.0
 11
591.99412081681123
 21
324.24506629717769
 31
0.0
  0
LINE
  5
8E07
  8
AM_0
 10
577.30168816899493
 20
320.14064170970562
 30
0.0
 11
580.30168816899516
 21
320.14064170970562
 31
0.0
  0
LINE
  5
8E08
  8
AM_0
 10
584.34815403539164
 20
329.47459698687578
 30
0.0
 11
584.53531974082875
 21
324.11487244010959
 31
0.0
  0
LINE
  5
8E09
  8
AM_0
 10
582.27758834628582
 20
329.45051308253562
 30
0.0
 11
582.08977300024765
 21
324.07218526296788
 31
0.0
  0
ARC
  5
8E0A
  8
AM_0
 10
583.3487632083727
 20
329.43969749017288
 30
0.0
 40
1.0
 50
1.9999999999972149
 51
108.52714231446819
1001
GENIUS_GENODEF_13
1002
{
1000
HIER
1070
     0
1002
}
1002
{
1000
MANEDIT
1070
     0
1002
}
1002
{
1000
NOSEL
1070
     0
1002
}
1002
{
1000
BEHIND
1070
     0
1002
}
1002
{
1000
REACTOR
1002
}
1001
GENIUS_GENOBJ-N-FIL_13
1002
{
1000
OWNER
1000
GEN
1002
}
  0
ARC
  5
8E0B
  8
AM_0
 10
583.27697917330534
 20
329.415613585833
 30
0.0
 40
1.0
 50
108.5665808019031
 51
177.99999999999619
1001
GENIUS_GENODEF_13
1002
{
1000
HIER
1070
     0
1002
}
1002
{
1000
MANEDIT
1070
     0
1002
}
1002
{
1000
NOSEL
1070
     0
1002
}
1002
{
1000
BEHIND
1070
     0
1002
}
1002
{
1000
REACTOR
1002
}
1001
GENIUS_GENOBJ-N-FIL_13
1002
{
1000
OWNER
1000
GEN
1002
}
  0
ARC
  5
8E0C
  8
AM_0
 10
618.30168816899493
 20
225.14064170970559
 30
0.0
 40
111.0
 50
108.52714231446819
 51
108.56658080189619
  0
ARC
  5
8E0D
  8
AM_0
 10
618.30168816899493
 20
225.14064170970559
 30
0.0
 40
111.0
 50
103.11367014329871
 51
103.1511182606551
  0
ARC
  5
8E0E
  8
AM_0
 10
593.27446827005474
 20
332.25571191054189
 30
0.0
 40
1.0
 50
103.1511182606551
 51
178.00000000000259
1001
GENIUS_GENODEF_13
1002
{
1000
HIER
1070
     0
1002
}
1002
{
1000
MANEDIT
1070
     0
1002
}
1002
{
1000
NOSEL
1070
     0
1002
}
1002
{
1000
BEHIND
1070
     0
1002
}
1002
{
1000
REACTOR
1002
}
1001
GENIUS_GENOBJ-N-FIL_13
1002
{
1000
OWNER
1000
GEN
1002
}
  0
LINE
  5
8E0F
  8
AM_0
 10
604.34013022290151
 20
334.15338304505133
 30
0.0
 11
604.52237330876756
 21
328.93462387912552
 31
0.0
  0
LINE
  5
8E10
  8
AM_0
 10
612.26963069009662
 20
335.06035483582212
 30
0.0
 11
612.10338221624852
 21
330.2996214308165
 31
0.0
  0
LINE
  5
8E11
  8
AM_0
 10
614.33678637825074
 20
335.0634650142826
 30
0.0
 11
614.49571633961148
 21
330.51230638650861
 31
0.0
  0
LINE
  5
8E12
  8
AM_0
 10
602.27244081292861
 20
334.14390089267778
 30
0.0
 11
602.06689840908155
 21
328.25793655572858
 31
0.0
  0
LINE
  5
8E13
  8
AM_0
 10
594.3438740920393
 20
332.30694614156721
 30
0.0
 11
594.58431582531045
 21
325.42159576782581
 31
0.0
  0
ARC
  5
8E14
  8
AM_0
 10
618.30168816899493
 20
225.14064170970559
 30
0.0
 40
111.0
 50
97.816947831694506
 51
97.853178088806075
  0
ARC
  5
8E15
  8
AM_0
 10
603.27183163994778
 20
334.10900139597533
 30
0.0
 40
1.0
 50
97.853178088806075
 51
178.00000000000259
1001
GENIUS_GENODEF_13
1002
{
1000
HIER
1070
     0
1002
}
1002
{
1000
MANEDIT
1070
     0
1002
}
1002
{
1000
NOSEL
1070
     0
1002
}
1002
{
1000
BEHIND
1070
     0
1002
}
1002
{
1000
REACTOR
1002
}
1001
GENIUS_GENOBJ-N-FIL_13
1002
{
1000
OWNER
1000
GEN
1002
}
  0
ARC
  5
8E16
  8
AM_0
 10
603.34073939588222
 20
334.11848354834848
 30
0.0
 40
1.0
 50
1.9999999999972149
 51
97.816947831694506
1001
GENIUS_GENODEF_13
1002
{
1000
HIER
1070
     0
1002
}
1002
{
1000
MANEDIT
1070
     0
1002
}
1002
{
1000
NOSEL
1070
     0
1002
}
1002
{
1000
BEHIND
1070
     0
1002
}
1002
{
1000
REACTOR
1002
}
1001
GENIUS_GENOBJ-N-FIL_13
1002
{
1000
OWNER
1000
GEN
1002
}
  0
ARC
  5
8E17
  8
AM_0
 10
618.30168816899493
 20
225.14064170970559
 30
0.0
 40
111.0
 50
92.586633228773294
 51
92.622284087952863
  0
ARC
  5
8E18
  8
AM_0
 10
613.33739555123157
 20
335.02856551757998
 30
0.0
 40
1.0
 50
2.000000000003725
 51
92.586633228773294
1001
GENIUS_GENODEF_13
1002
{
1000
HIER
1070
     0
1002
}
1002
{
1000
MANEDIT
1070
     0
1002
}
1002
{
1000
NOSEL
1070
     0
1002
}
1002
{
1000
BEHIND
1070
     0
1002
}
1002
{
1000
REACTOR
1002
}
1001
GENIUS_GENOBJ-N-FIL_13
1002
{
1000
OWNER
1000
GEN
1002
}
  0
ARC
  5
8E19
  8
AM_0
 10
613.26902151711545
 20
335.0254553391195
 30
0.0
 40
1.0
 50
92.622284087952863
 51
178.00000000000259
1001
GENIUS_GENODEF_13
1002
{
1000
HIER
1070
     0
1002
}
1002
{
1000
MANEDIT
1070
     0
1002
}
1002
{
1000
NOSEL
1070
     0
1002
}
1002
{
1000
BEHIND
1070
     0
1002
}
1002
{
1000
REACTOR
1002
}
1001
GENIUS_GENOBJ-N-FIL_13
1002
{
1000
OWNER
1000
GEN
1002
}
  0
LINE
  5
8E1A
  8
AM_0
 10
634.33093552506125
 20
334.14390089267778
 30
0.0
 11
634.53647792890865
 21
328.25793655572858
 31
0.0
  0
LINE
  5
8E1B
  8
AM_0
 10
632.26324611508846
 20
334.15338304505133
 30
0.0
 11
632.08100302922196
 21
328.93462387912552
 31
0.0
  0
LINE
  5
8E1C
  8
AM_0
 10
622.26658995973935
 20
335.0634650142826
 30
0.0
 11
622.10765999837849
 21
330.51230638650861
 31
0.0
  0
LINE
  5
8E1D
  8
AM_0
 10
624.33374564789347
 20
335.06035483582212
 30
0.0
 11
624.49999412174145
 21
330.2996214308165
 31
0.0
  0
ARC
  5
8E1E
  8
AM_0
 10
623.33435482087452
 20
335.0254553391195
 30
0.0
 40
1.0
 50
1.9999999999972149
 51
87.377715912047094
1001
GENIUS_GENODEF_13
1002
{
1000
HIER
1070
     0
1002
}
1002
{
1000
MANEDIT
1070
     0
1002
}
1002
{
1000
NOSEL
1070
     0
1002
}
1002
{
1000
BEHIND
1070
     0
1002
}
1002
{
1000
REACTOR
1002
}
1001
GENIUS_GENOBJ-N-FIL_13
1002
{
1000
OWNER
1000
GEN
1002
}
  0
ARC
  5
8E1F
  8
AM_0
 10
618.30168816899493
 20
225.14064170970559
 30
0.0
 40
111.0
 50
87.377715912047094
 51
87.413366771226691
  0
ARC
  5
8E20
  8
AM_0
 10
623.26598078675852
 20
335.02856551757998
 30
0.0
 40
1.0
 50
87.413366771226691
 51
177.99999999999619
1001
GENIUS_GENODEF_13
1002
{
1000
HIER
1070
     0
1002
}
1002
{
1000
MANEDIT
1070
     0
1002
}
1002
{
1000
NOSEL
1070
     0
1002
}
1002
{
1000
BEHIND
1070
     0
1002
}
1002
{
1000
REACTOR
1002
}
1001
GENIUS_GENOBJ-N-FIL_13
1002
{
1000
OWNER
1000
GEN
1002
}
  0
ARC
  5
8E21
  8
AM_0
 10
618.30168816899493
 20
225.14064170970559
 30
0.0
 40
111.0
 50
82.146821911193925
 51
82.183052168305494
  0
ARC
  5
8E22
  8
AM_0
 10
633.33154469804242
 20
334.10900139597533
 30
0.0
 40
1.0
 50
1.9999999999972149
 51
82.146821911193925
1001
GENIUS_GENODEF_13
1002
{
1000
HIER
1070
     0
1002
}
1002
{
1000
MANEDIT
1070
     0
1002
}
1002
{
1000
NOSEL
1070
     0
1002
}
1002
{
1000
BEHIND
1070
     0
1002
}
1002
{
1000
REACTOR
1002
}
1001
GENIUS_GENOBJ-N-FIL_13
1002
{
1000
OWNER
1000
GEN
1002
}
  0
ARC
  5
8E23
  8
AM_0
 10
633.26263694210775
 20
334.11848354834848
 30
0.0
 40
1.0
 50
82.183052168305494
 51
178.00000000000259
1001
GENIUS_GENODEF_13
1002
{
1000
HIER
1070
     0
1002
}
1002
{
1000
MANEDIT
1070
     0
1002
}
1002
{
1000
NOSEL
1070
     0
1002
}
1002
{
1000
BEHIND
1070
     0
1002
}
1002
{
1000
REACTOR
1002
}
1001
GENIUS_GENOBJ-N-FIL_13
1002
{
1000
OWNER
1000
GEN
1002
}
  0
LINE
  5
8E24
  8
AM_0
 10
644.32829889495406
 20
332.2906114072444
 30
0.0
 11
644.57875971678561
 21
325.11835187584438
 31
0.0
  0
LINE
  5
8E25
  8
AM_0
 10
642.2595022459509
 20
332.30694614156721
 30
0.0
 11
642.01906051267952
 21
325.42159576782581
 31
0.0
  0
LINE
  5
8E26
  8
AM_0
 10
643.3016889140531
 20
325.14064322962389
 30
0.0
 11
656.30168930148318
 21
324.91372737879448
 31
0.0
  0
ARC
  5
8E27
  8
AM_0
 10
653.25461312961727
 20
329.43969749017288
 30
0.0
 40
1.0
 50
71.472857685531736
 51
178.00000000000259
1001
GENIUS_GENODEF_13
1002
{
1000
HIER
1070
     0
1002
}
1002
{
1000
MANEDIT
1070
     0
1002
}
1002
{
1000
NOSEL
1070
     0
1002
}
1002
{
1000
BEHIND
1070
     0
1002
}
1002
{
1000
REACTOR
1002
}
1001
GENIUS_GENOBJ-N-FIL_13
1002
{
1000
OWNER
1000
GEN
1002
}
  0
LINE
  5
8E28
  8
AM_0
 10
652.25522230259821
 20
329.47459698687578
 30
0.0
 11
652.09851524711451
 21
324.98709405481821
 31
0.0
  0
LINE
  5
8E29
  8
AM_0
 10
656.30168816899493
 20
320.14064170970562
 30
0.0
 11
659.30168816899493
 21
320.14064170970562
 31
0.0
  0
LINE
  5
8E2A
  8
AM_0
 10
654.32578799170415
 20
329.45051308253562
 30
0.0
 11
654.48310753334886
 21
324.94547084163457
 31
0.0
  0
ARC
  5
8E2B
  8
AM_0
 10
653.32639716468475
 20
329.415613585833
 30
0.0
 40
1.0
 50
2.000000000003725
 51
71.433419198096814
1001
GENIUS_GENODEF_13
1002
{
1000
HIER
1070
     0
1002
}
1002
{
1000
MANEDIT
1070
     0
1002
}
1002
{
1000
NOSEL
1070
     0
1002
}
1002
{
1000
BEHIND
1070
     0
1002
}
1002
{
1000
REACTOR
1002
}
1001
GENIUS_GENOBJ-N-FIL_13
1002
{
1000
OWNER
1000
GEN
1002
}
  0
ARC
  5
8E2C
  8
AM_0
 10
618.30168816899493
 20
225.14064170970559
 30
0.0
 40
111.0
 50
71.433419198103763
 51
71.472857685531736
  0
ARC
  5
8E2D
  8
AM_0
 10
643.2588930729695
 20
332.27204664486442
 30
0.0
 40
1.0
 50
76.886329856701266
 51
177.99999999999619
1001
GENIUS_GENODEF_13
1002
{
1000
HIER
1070
     0
1002
}
1002
{
1000
MANEDIT
1070
     0
1002
}
1002
{
1000
NOSEL
1070
     0
1002
}
1002
{
1000
BEHIND
1070
     0
1002
}
1002
{
1000
REACTOR
1002
}
1001
GENIUS_GENOBJ-N-FIL_13
1002
{
1000
OWNER
1000
GEN
1002
}
  0
ARC
  5
8E2E
  8
AM_0
 10
618.30168816899493
 20
225.14064170970559
 30
0.0
 40
111.0
 50
76.848881739344861
 51
76.886329856701266
  0
ARC
  5
8E2F
  8
AM_0
 10
643.32890806793546
 20
332.25571191054189
 30
0.0
 40
1.0
 50
1.9999999999972149
 51
76.848881739344861
1001
GENIUS_GENODEF_13
1002
{
1000
HIER
1070
     0
1002
}
1002
{
1000
MANEDIT
1070
     0
1002
}
1002
{
1000
NOSEL
1070
     0
1002
}
1002
{
1000
BEHIND
1070
     0
1002
}
1002
{
1000
REACTOR
1002
}
1001
GENIUS_GENOBJ-N-FIL_13
1002
{
1000
OWNER
1000
GEN
1002
}
  0
LINE
  5
9821
  8
AM_0
 10
648.30168816899527
 20
208.1406417097057
 30
0.0
 11
588.30168816899516
 21
208.14064170970559
 31
0.0
  0
LINE
  5
9822
  8
AM_0
 10
588.30168816899516
 20
224.10066877384429
 30
0.0
 11
588.30168816899516
 21
206.14064170970559
 31
0.0
  0
LINE
  5
9823
  8
AM_0
 10
651.80168816899516
 20
206.14064170970559
 30
0.0
 11
584.80168816899516
 21
206.14064170970559
 31
0.0
  0
LINE
  5
9824
  8
AM_0
 10
651.80168816899516
 20
205.14064170970559
 30
0.0
 11
651.80168816899516
 21
206.14064170970559
 31
0.0
  0
LINE
  5
9825
  8
AM_0
 10
584.80168816899516
 20
205.14064170970559
 30
0.0
 11
584.80168816899516
 21
206.14064170970559
 31
0.0
  0
LINE
  5
9826
  8
AM_0
 10
664.30168816899516
 20
167.14064170970551
 30
0.0
 11
663.04210303273283
 21
203.21044070311049
 31
0.0
  0
LINE
  5
9827
  8
AM_0
 10
661.04332137869449
 20
205.14064170970559
 30
0.0
 11
575.5600549592956
 21
205.14064170970559
 31
0.0
  0
ARC
  5
9828
  8
AM_0
 10
661.04332137869449
 20
203.14064170970559
 30
0.0
 40
2.0
 50
1.999999999997115
 51
90.0
1001
GENIUS_GENODEF_13
1002
{
1000
HIER
1070
     0
1002
}
1002
{
1000
MANEDIT
1070
     0
1002
}
1002
{
1000
NOSEL
1070
     0
1002
}
1002
{
1000
BEHIND
1070
     0
1002
}
1002
{
1000
OTHER
1070
     0
1002
}
1002
{
1000
REACTOR
1002
}
1001
GENIUS_GENOBJ-N-FIL_13
1002
{
1000
OWNER
1000
GEN
1002
}
  0
LINE
  5
9829
  8
AM_0
 10
573.56127330525726
 20
203.21044070311049
 30
0.0
 11
572.30168816899516
 21
167.14064170970559
 31
0.0
  0
ARC
  5
982A
  8
AM_0
 10
575.5600549592956
 20
203.1406417097057
 30
0.0
 40
2.0
 50
90.0
 51
178.0000000000029
1001
GENIUS_GENOBJ-N-FIL_13
1002
{
1000
OWNER
1000
GEN
1002
}
1001
GENIUS_GENODEF_13
1002
{
1000
HIER
1070
     0
1002
}
1002
{
1000
MANEDIT
1070
     0
1002
}
1002
{
1000
NOSEL
1070
     0
1002
}
1002
{
1000
BEHIND
1070
     0
1002
}
1002
{
1000
OTHER
1070
     0
1002
}
1002
{
1000
REACTOR
1002
}
  0
LINE
  5
982B
  8
AM_0
 10
572.30168816899516
 20
167.14064170970559
 30
0.0
 11
664.30168816899538
 21
167.14064170970551
 31
0.0
  0
LINE
  5
982C
  8
ﾁｭｳｼﾝｾﾝ1
 10
659.30168816899425
 20
156.14064170970551
 30
0.0
 11
659.30168816899425
 21
171.96816472224219
 31
0.0
  0
LINE
  5
982D
  8
AM_0
 10
572.30168816899516
 20
163.14064170970559
 30
0.0
 11
593.11619306852765
 21
163.14064170970559
 31
0.0
  0
LINE
  5
982E
  8
AM_0
 10
643.48718326946278
 20
163.14064170970551
 30
0.0
 11
664.30168816899447
 21
163.14064170970551
 31
0.0
  0
LINE
  5
982F
  8
AM_0
 10
578.43746983815595
 20
159.14064170970559
 30
0.0
 11
658.16590649983425
 21
159.14064170970551
 31
0.0
  0
LINE
  5
9830
  8
AM_0
 10
655.39433319668797
 20
161.08170419757761
 30
0.0
 11
655.30168816899425
 21
162.14064170970551
 31
0.0
  0
LINE
  5
9831
  8
AM_0
 10
663.20904314130098
 20
161.08170419757761
 30
0.0
 11
663.30168816899425
 21
162.14064170970551
 31
0.0
  0
ARC
  5
9832
  8
AM_0
 10
659.30168816899425
 20
165.54064170970571
 30
0.0
 40
6.5
 50
241.82726586813479
 51
298.17273413186518
  0
ARC
  5
9833
  8
AM_0
 10
661.61513162435415
 20
161.22115338597411
 30
0.0
 40
1.6000000000000001
 50
298.17273413186518
 51
355.00000000000023
  0
LINE
  5
9834
  8
AM_0
 10
657.00168816899441
 20
159.46116804827719
 30
0.0
 11
659.30168816899425
 21
161.75072772707281
 31
0.0
  0
LINE
  5
9835
  8
AM_0
 10
658.99018816899456
 20
161.4406417097054
 30
0.0
 11
659.61318816899427
 21
161.4406417097054
 31
0.0
  0
LINE
  5
9836
  8
AM_0
 10
661.60168816899454
 20
159.46116804827719
 30
0.0
 11
659.30168816899425
 21
161.75072772707281
 31
0.0
  0
LINE
  5
9837
  8
AM_0
 10
658.99018816899456
 20
159.0481100193708
 30
0.0
 11
658.99018816899456
 21
161.4406417097054
 31
0.0
  0
LINE
  5
9838
  8
AM_0
 10
659.61318816899427
 20
159.0481100193708
 30
0.0
 11
659.61318816899427
 21
161.4406417097054
 31
0.0
  0
ARC
  5
9839
  8
AM_0
 10
656.98824471363491
 20
161.22115338597419
 30
0.0
 40
1.6000000000000001
 50
184.99999999999969
 51
241.82726586813479
  0
LINE
  5
983A
  8
AM_0
 10
572.30168816899516
 20
163.14064170970559
 30
0.0
 11
572.30168816899516
 21
167.14064170970559
 31
0.0
  0
LINE
  5
983B
  8
AM_0
 10
573.30168816899538
 20
162.14064170970539
 30
0.0
 11
572.30168816899516
 21
163.1406417097057
 31
0.0
  0
LINE
  5
983C
  8
AM_0
 10
664.30168816899538
 20
167.14064170970551
 30
0.0
 11
664.30168816899425
 21
163.14064170970551
 31
0.0
  0
LINE
  5
983D
  8
AM_0N
 10
655.50168816899452
 20
163.14064170970551
 30
0.0
 11
655.50168816899452
 21
162.14064170970551
 31
0.0
  0
LINE
  5
983E
  8
AM_0N
 10
659.10168816899454
 20
162.14064170970551
 30
0.0
 11
658.73771793472804
 21
163.14064170970551
 31
0.0
  0
LINE
  5
983F
  8
AM_0N
 10
659.50168816899452
 20
162.14064170970551
 30
0.0
 11
659.13771793472813
 21
163.14064170970551
 31
0.0
  0
LINE
  5
9840
  8
AM_0N
 10
663.30168816899425
 20
162.14064170970551
 30
0.0
 11
655.30168816899425
 21
162.14064170970551
 31
0.0
  0
LINE
  5
9841
  8
AM_0N
 10
663.10168816899454
 20
162.14064170970551
 30
0.0
 11
663.10168816899454
 21
163.14064170970551
 31
0.0
  0
LINE
  5
9842
  8
AM_0
 10
643.48718326946289
 20
159.14064170970551
 30
0.0
 11
643.48718326946289
 21
163.14064170970551
 31
0.0
  0
LINE
  5
9843
  8
AM_0
 10
645.1440375189552
 20
163.14064170970551
 30
0.0
 11
643.48718326946289
 21
159.14064170970551
 31
0.0
  0
LINE
  5
9844
  8
AM_0
 10
593.11619306852765
 20
159.14064170970559
 30
0.0
 11
593.11619306852765
 21
163.14064170970559
 31
0.0
  0
LINE
  5
9845
  8
AM_0
 10
591.459338819035
 20
163.14064170970559
 30
0.0
 11
593.11619306852765
 21
159.14064170970559
 31
0.0
  0
LINE
  5
9846
  8
ﾁｭｳｼﾝｾﾝ1
 10
577.30168816899595
 20
156.14064170970559
 30
0.0
 11
577.30168816899595
 21
171.96816472224219
 31
0.0
  0
LINE
  5
9847
  8
AM_0
 10
581.20904314130223
 20
161.08170419757761
 30
0.0
 11
581.30168816899595
 21
162.14064170970551
 31
0.0
  0
LINE
  5
9848
  8
AM_0
 10
573.39433319668922
 20
161.08170419757761
 30
0.0
 11
573.30168816899595
 21
162.14064170970551
 31
0.0
  0
ARC
  5
9849
  8
AM_0
 10
577.30168816899538
 20
165.54064170970571
 30
0.0
 40
6.5
 50
241.82726586813479
 51
298.17273413186518
  0
ARC
  5
984A
  8
AM_0
 10
574.98824471363605
 20
161.22115338597419
 30
0.0
 40
1.6000000000000001
 50
184.99999999999969
 51
241.82726586813479
  0
LINE
  5
984B
  8
AM_0
 10
579.60168816899579
 20
159.46116804827719
 30
0.0
 11
577.30168816899595
 21
161.75072772707281
 31
0.0
  0
LINE
  5
984C
  8
AM_0
 10
577.61318816899575
 20
161.4406417097054
 30
0.0
 11
576.99018816899593
 21
161.4406417097054
 31
0.0
  0
LINE
  5
984D
  8
AM_0
 10
575.00168816899554
 20
159.46116804827719
 30
0.0
 11
577.30168816899595
 21
161.75072772707281
 31
0.0
  0
LINE
  5
984E
  8
AM_0
 10
577.61318816899575
 20
159.0481100193708
 30
0.0
 11
577.61318816899575
 21
161.4406417097054
 31
0.0
  0
LINE
  5
984F
  8
AM_0
 10
576.99018816899593
 20
159.0481100193708
 30
0.0
 11
576.99018816899593
 21
161.4406417097054
 31
0.0
  0
ARC
  5
9850
  8
AM_0
 10
579.6151316243554
 20
161.22115338597419
 30
0.0
 40
1.6000000000000001
 50
298.17273413186518
 51
355.00000000000023
  0
LINE
  5
9851
  8
AM_0N
 10
581.10168816899557
 20
163.14064170970551
 30
0.0
 11
581.10168816899557
 21
162.14064170970551
 31
0.0
  0
LINE
  5
9852
  8
AM_0N
 10
577.50168816899588
 20
162.14064170970551
 30
0.0
 11
577.86565840326205
 21
163.14064170970551
 31
0.0
  0
LINE
  5
9853
  8
AM_0N
 10
577.10168816899557
 20
162.14064170970551
 30
0.0
 11
577.46565840326195
 21
163.14064170970551
 31
0.0
  0
LINE
  5
9854
  8
AM_0N
 10
573.30168816899595
 20
162.14064170970551
 30
0.0
 11
581.30168816899595
 21
162.14064170970551
 31
0.0
  0
LINE
  5
9855
  8
AM_0N
 10
573.50168816899588
 20
162.14064170970551
 30
0.0
 11
573.50168816899588
 21
163.14064170970551
 31
0.0
  0
LINE
  5
9856
  8
AM_0
 10
648.30168816899527
 20
223.2279155014233
 30
0.0
 11
648.30168816899527
 21
206.14064170970559
 31
0.0
  0
LINE
  5
987E
  8
AM_0
 10
569.30168816899527
 20
248.64064170970551
 30
0.0
 11
569.30168816899527
 21
299.64064170970568
 31
0.0
  0
LINE
  5
987F
  8
AM_0
 10
568.80168816899527
 20
260.14064170970562
 30
0.0
 11
568.80168816899527
 21
288.14064170970562
 31
0.0
  0
LINE
  5
9883
  8
AM_0
 10
570.30168816899516
 20
247.64064170970551
 30
0.0
 11
575.30168816899561
 21
247.64064170970559
 31
0.0
  0
LINE
  5
9884
  8
AM_0
 10
575.30168816899516
 20
247.64064170970559
 30
0.0
 11
575.30168816899516
 21
300.64064170970562
 31
0.0
  0
LINE
  5
9886
  8
AM_0
 10
570.30168816899516
 20
300.64064170970568
 30
0.0
 11
575.30168816899516
 21
300.64064170970562
 31
0.0
  0
LINE
  5
9887
  8
AM_0
 10
667.30168816899516
 20
248.64064170970551
 30
0.0
 11
667.30168816899516
 21
299.64064170970568
 31
0.0
  0
LINE
  5
9889
  8
AM_0
 10
667.80168816899516
 20
260.14064170970568
 30
0.0
 11
667.80168816899516
 21
288.14064170970562
 31
0.0
  0
LINE
  5
988C
  8
AM_0
 10
666.30168816899516
 20
247.64064170970551
 30
0.0
 11
661.30168816899447
 21
247.64064170970559
 31
0.0
  0
LINE
  5
988E
  8
AM_0
 10
661.30168816899527
 20
247.6406417097057
 30
0.0
 11
661.30168816899527
 21
300.64064170970562
 31
0.0
  0
LINE
  5
988F
  8
AM_0
 10
666.30168816899516
 20
300.64064170970568
 30
0.0
 11
661.30168816899527
 21
300.64064170970562
 31
0.0
  0
LINE
  5
9893
  8
AM_0
 10
569.30168816899527
 20
299.64064170970568
 30
0.0
 11
570.30168816899516
 21
300.64064170970568
 31
0.0
1001
GENIUS_GENFIL_13
1070
     0
1040
1.0
1040
1.0
1040
20.0
1040
0.0
1002
{
1002
}
1001
GENIUS_GENOBJ-N-CHA_13
1002
{
1000
OWNER
1000
GEN
1002
}
1001
GENIUS_GENODEF_13
1002
{
1000
HIER
1070
     0
1002
}
1002
{
1000
MANEDIT
1070
     0
1002
}
1002
{
1000
NOSEL
1070
     0
1002
}
1002
{
1000
BEHIND
1070
     0
1002
}
1002
{
1000
OTHER
1070
     0
1002
}
1002
{
1000
REACTOR
1002
}
  0
LINE
  5
9896
  8
AM_0
 10
569.30168816899527
 20
248.64064170970551
 30
0.0
 11
570.30168816899516
 21
247.64064170970551
 31
0.0
1001
GENIUS_GENFIL_13
1070
     0
1040
1.0
1040
1.0
1040
20.0
1040
0.0
1002
{
1002
}
1001
GENIUS_GENOBJ-N-CHA_13
1002
{
1000
OWNER
1000
GEN
1002
}
1001
GENIUS_GENODEF_13
1002
{
1000
HIER
1070
     0
1002
}
1002
{
1000
MANEDIT
1070
     0
1002
}
1002
{
1000
NOSEL
1070
     0
1002
}
1002
{
1000
BEHIND
1070
     0
1002
}
1002
{
1000
OTHER
1070
     0
1002
}
1002
{
1000
REACTOR
1002
}
  0
LINE
  5
9898
  8
AM_0
 10
666.30168816899516
 20
300.64064170970568
 30
0.0
 11
667.30168816899516
 21
299.64064170970568
 31
0.0
1001
GENIUS_GENFIL_13
1070
     0
1040
1.0
1040
1.0
1040
20.0
1040
0.0
1002
{
1002
}
1001
GENIUS_GENODEF_13
1002
{
1000
HIER
1070
     0
1002
}
1002
{
1000
MANEDIT
1070
     0
1002
}
1002
{
1000
NOSEL
1070
     0
1002
}
1002
{
1000
BEHIND
1070
     0
1002
}
1002
{
1000
OTHER
1070
     0
1002
}
1002
{
1000
REACTOR
1002
}
1001
GENIUS_GENOBJ-N-CHA_13
1002
{
1000
OWNER
1000
GEN
1002
}
  0
LINE
  5
989A
  8
AM_0
 10
667.30168816899516
 20
248.64064170970551
 30
0.0
 11
666.30168816899516
 21
247.64064170970551
 31
0.0
1001
GENIUS_GENFIL_13
1070
     0
1040
1.0
1040
1.0
1040
20.0
1040
0.0
1002
{
1002
}
1001
GENIUS_GENODEF_13
1002
{
1000
HIER
1070
     0
1002
}
1002
{
1000
MANEDIT
1070
     0
1002
}
1002
{
1000
NOSEL
1070
     0
1002
}
1002
{
1000
BEHIND
1070
     0
1002
}
1002
{
1000
OTHER
1070
     0
1002
}
1002
{
1000
REACTOR
1002
}
1001
GENIUS_GENOBJ-N-CHA_13
1002
{
1000
OWNER
1000
GEN
1002
}
  0
CIRCLE
  5
98DE
  8
AM_0
 10
384.65044084945021
 20
274.14064170970562
 30
0.0
 40
14.500000447034839
  0
CIRCLE
  5
98E8
  8
AM_0
 10
384.65044084945021
 20
274.14064170970562
 30
0.0
 40
26.500000819563869
  0
LINE
  5
98EB
  8
AM_0
 10
667.30168816899516
 20
288.64064170970562
 30
0.0
 11
667.80168816899516
 21
288.14064170970562
 31
0.0
1001
GENIUS_GENFIL_13
1070
     0
1040
0.5
1040
0.5
1040
20.0
1040
0.0
1002
{
1002
}
1001
GENIUS_GENOBJ-N-CHA_13
1002
{
1000
OWNER
1000
GEN
1002
}
1001
GENIUS_GENODEF_13
1002
{
1000
HIER
1070
     0
1002
}
1002
{
1000
MANEDIT
1070
     0
1002
}
1002
{
1000
NOSEL
1070
     0
1002
}
1002
{
1000
BEHIND
1070
     0
1002
}
1002
{
1000
OTHER
1070
     0
1002
}
1002
{
1000
REACTOR
1002
}
  0
LINE
  5
98ED
  8
AM_0
 10
667.30168816899516
 20
259.64064170970568
 30
0.0
 11
667.80168816899516
 21
260.14064170970568
 31
0.0
1001
GENIUS_GENFIL_13
1070
     0
1040
0.5
1040
0.5
1040
20.0
1040
0.0
1002
{
1002
}
1001
GENIUS_GENOBJ-N-CHA_13
1002
{
1000
OWNER
1000
GEN
1002
}
1001
GENIUS_GENODEF_13
1002
{
1000
HIER
1070
     0
1002
}
1002
{
1000
MANEDIT
1070
     0
1002
}
1002
{
1000
NOSEL
1070
     0
1002
}
1002
{
1000
BEHIND
1070
     0
1002
}
1002
{
1000
OTHER
1070
     0
1002
}
1002
{
1000
REACTOR
1002
}
  0
LINE
  5
9904
  8
AM_0
 10
568.80168816899527
 20
288.14064170970562
 30
0.0
 11
569.30168816899527
 21
288.64064170970562
 31
0.0
1001
GENIUS_GENFIL_13
1070
     0
1040
0.5
1040
0.5
1040
20.0
1040
0.0
1002
{
1002
}
1001
GENIUS_GENODEF_13
1002
{
1000
HIER
1070
     0
1002
}
1002
{
1000
MANEDIT
1070
     0
1002
}
1002
{
1000
NOSEL
1070
     0
1002
}
1002
{
1000
BEHIND
1070
     0
1002
}
1002
{
1000
OTHER
1070
     0
1002
}
1002
{
1000
REACTOR
1002
}
1001
GENIUS_GENOBJ-N-CHA_13
1002
{
1000
OWNER
1000
GEN
1002
}
  0
LINE
  5
9906
  8
AM_0
 10
569.30168816899527
 20
259.64064170970551
 30
0.0
 11
568.80168816899527
 21
260.14064170970562
 31
0.0
1001
GENIUS_GENFIL_13
1070
     0
1040
0.5
1040
0.5
1040
20.0
1040
0.0
1002
{
1002
}
1001
GENIUS_GENOBJ-N-CHA_13
1002
{
1000
OWNER
1000
GEN
1002
}
1001
GENIUS_GENODEF_13
1002
{
1000
HIER
1070
     0
1002
}
1002
{
1000
MANEDIT
1070
     0
1002
}
1002
{
1000
NOSEL
1070
     0
1002
}
1002
{
1000
BEHIND
1070
     0
1002
}
1002
{
1000
OTHER
1070
     0
1002
}
1002
{
1000
REACTOR
1002
}
  0
CIRCLE
  5
9924
  8
AM_0
 10
384.65044084945021
 20
274.14064170970562
 30
0.0
 40
27.500000819563869
  0
LINE
  5
A904
  8
AM_0
 10
245.17052461986589
 20
208.1406417097057
 30
0.0
 11
245.42507389388871
 21
217.86061170970541
 31
0.0
  0
LINE
  5
A905
  8
AM_0
 10
185.11809262462529
 20
208.1406417097057
 30
0.0
 11
184.86361058348649
 21
217.86061170970541
 31
0.0
  0
LINE
  5
A906
  8
AM_0
 10
181.64433477082531
 20
206.1406417097057
 30
0.0
 11
248.6443347708254
 21
206.1406417097057
 31
0.0
  0
LINE
  5
A907
  8
AM_0
 10
181.64433477082531
 20
205.1406417097057
 30
0.0
 11
181.64433477082531
 21
206.1406417097057
 31
0.0
  0
LINE
  5
A908
  8
AM_0
 10
248.6443347708254
 20
205.1406417097057
 30
0.0
 11
248.6443347708254
 21
206.1406417097057
 31
0.0
  0
LINE
  5
A909
  8
AM_0
 10
167.1443347708254
 20
167.14064170970551
 30
0.0
 11
168.4039199070877
 21
203.21044070311061
 31
0.0
  0
LINE
  5
A90A
  8
AM_0
 10
170.40270156112581
 20
205.1406417097057
 30
0.0
 11
259.88596798052492
 21
205.1406417097057
 31
0.0
  0
ARC
  5
A90B
  8
AM_0
 10
170.40270156112581
 20
203.1406417097057
 30
0.0
 40
2.0
 50
90.0
 51
178.00000000000281
1001
GENIUS_GENODEF_13
1002
{
1000
HIER
1070
     0
1002
}
1002
{
1000
MANEDIT
1070
     0
1002
}
1002
{
1000
NOSEL
1070
     0
1002
}
1002
{
1000
BEHIND
1070
     0
1002
}
1002
{
1000
OTHER
1070
     0
1002
}
1002
{
1000
REACTOR
1002
}
1001
GENIUS_GENOBJ-N-FIL_13
1002
{
1000
OWNER
1000
GEN
1002
}
  0
LINE
  5
A90C
  8
AM_0
 10
261.88474963456309
 20
203.21044070311061
 30
0.0
 11
263.14433477082548
 21
167.1406417097057
 31
0.0
  0
ARC
  5
A90D
  8
AM_0
 10
259.88596798052498
 20
203.1406417097057
 30
0.0
 40
2.0
 50
1.9999999999971581
 51
90.0
1001
GENIUS_GENOBJ-N-FIL_13
1002
{
1000
OWNER
1000
GEN
1002
}
1001
GENIUS_GENODEF_13
1002
{
1000
HIER
1070
     0
1002
}
1002
{
1000
MANEDIT
1070
     0
1002
}
1002
{
1000
NOSEL
1070
     0
1002
}
1002
{
1000
BEHIND
1070
     0
1002
}
1002
{
1000
OTHER
1070
     0
1002
}
1002
{
1000
REACTOR
1002
}
  0
LINE
  5
A90E
  8
AM_0
 10
263.14433477082548
 20
167.1406417097057
 30
0.0
 11
167.14433477082511
 21
167.14064170970551
 31
0.0
  0
LINE
  5
A90F
  8
AM_0
 10
167.2490970793005
 20
170.14064170970539
 30
0.0
 11
166.14433477082531
 21
170.14064170970539
 31
0.0
  0
LINE
  5
A910
  8
AM_0
 10
168.3665617030365
 20
202.14064170970539
 30
0.0
 11
166.1443347708252
 21
202.14064170970539
 31
0.0
  0
LINE
  5
A911
  8
ﾁｭｳｼﾝｾﾝ1
 10
172.14433477082599
 20
156.8759342097056
 30
0.0
 11
172.14433477082599
 21
169.8759342097056
 31
0.0
  0
LINE
  5
A912
  8
ﾁｭｳｼﾝｾﾝ
 10
215.1443347708254
 20
212.4326723829347
 30
0.0
 11
215.1443347708254
 21
154.69011906889631
 31
0.0
  0
LINE
  5
A913
  8
AM_0
 10
163.64433477082531
 20
172.64064170970539
 30
0.0
 11
166.1443347708252
 21
172.64064170970519
 31
0.0
  0
LINE
  5
A914
  8
AM_0
 10
166.1443347708252
 20
199.64064170970519
 30
0.0
 11
163.64433477082531
 21
199.64064170970539
 31
0.0
  0
LINE
  5
A915
  8
AM_0
 10
152.74566367447909
 20
196.64064170970539
 30
0.0
 11
152.74566367447909
 21
175.64064170970539
 31
0.0
  0
LINE
  5
A916
  8
AM_0
 10
137.7456636744794
 20
178.1090166556902
 30
0.0
 11
137.7456636744794
 21
194.1722667637213
 31
0.0
  0
LINE
  5
A917
  8
AM_0
 10
150.74566367447929
 20
198.14064170970539
 30
0.0
 11
150.74566367447929
 21
174.14064170970539
 31
0.0
  0
LINE
  5
A918
  8
AM_0
 10
141.24566367447929
 20
186.14064170970539
 30
0.0
 11
141.7456636744794
 21
186.64064170970539
 31
0.0
  0
LINE
  5
A919
  8
AM_0
 10
148.24566367447929
 20
174.4406417097054
 30
0.0
 11
148.24566367447929
 21
197.8406417097053
 31
0.0
  0
LINE
  5
A91A
  8
AM_0
 10
158.14433477082531
 20
174.64064170970539
 30
0.0
 11
158.14433477082531
 21
197.64064170970539
 31
0.0
  0
LINE
  5
A91B
  8
AM_0
 10
152.24566367447929
 20
186.84064170970731
 30
0.0
 11
152.24566367447929
 21
185.44064170970421
 31
0.0
  0
LINE
  5
A91C
  8
AM_0
 10
154.34529940105031
 20
195.2406417097053
 30
0.0
 11
153.59529940105131
 21
177.04064170970531
 31
0.0
  0
LINE
  5
A91D
  8
AM_0
 10
153.3943347708254
 20
195.2406417097053
 30
0.0
 11
152.74566367447909
 21
179.49955643838931
 31
0.0
  0
LINE
  5
A91E
  8
AM_0
 10
154.14302736139729
 20
195.9563004220694
 30
0.0
 11
153.39576731798931
 21
176.32826994853841
 31
0.0
  0
LINE
  5
A91F
  8
AM_0
 10
153.59386685388731
 20
195.95301347087329
 30
0.0
 11
152.84529940105131
 21
176.29064170970531
 31
0.0
  0
LINE
  5
A920
  8
AM_0
 10
150.74566367447929
 20
174.14064170970539
 30
0.0
 11
148.5456636744793
 21
174.14064170970539
 31
0.0
  0
ARC
  5
A921
  8
AM_0
 10
162.6443347708254
 20
173.64064170970539
 30
0.0
 40
0.5
 50
0.0
 51
90.000000000013003
  0
ARC
  5
A922
  8
AM_0
 10
163.6443347708254
 20
173.14064170970539
 30
0.0
 40
0.5
 50
180.0
 51
270.0
  0
LINE
  5
A923
  8
AM_0
 10
163.14433477082531
 20
173.64064170970539
 30
0.0
 11
163.14433477082531
 21
173.14064170970539
 31
0.0
  0
LINE
  5
A924
  8
AM_0
 10
154.14433477082531
 20
177.04064170970531
 30
0.0
 11
157.6443347708254
 21
177.04064170970531
 31
0.0
  0
LINE
  5
A925
  8
AM_0
 10
163.14433477082531
 20
175.2845703882985
 30
0.0
 11
163.14433477082531
 21
184.9967130311133
 31
0.0
  0
LINE
  5
A926
  8
AM_0
 10
158.6443347708254
 20
174.14064170970539
 30
0.0
 11
162.6443347708252
 21
174.14064170970539
 31
0.0
  0
LINE
  5
A927
  8
AM_0
 10
162.64433477082531
 20
174.7845703882985
 30
0.0
 11
158.14433477082531
 21
174.7845703882985
 31
0.0
  0
ARC
  5
A928
  8
AM_0
 10
162.6443347708254
 20
175.2845703882985
 30
0.0
 40
0.5
 50
270.0
 51
0.0
  0
ARC
  5
A929
  8
AM_0
 10
157.64433477082531
 20
176.54064170970551
 30
0.0
 40
0.5
 50
0.0
 51
90.0
  0
ARC
  5
A92A
  8
AM_0
 10
158.64433477082531
 20
174.64064170970539
 30
0.0
 40
0.5
 50
180.0
 51
270.0
  0
LINE
  5
A92B
  8
AM_0
 10
162.64433477082531
 20
185.4967130311133
 30
0.0
 11
158.14433477082531
 21
185.4967130311133
 31
0.0
  0
ARC
  5
A92C
  8
AM_0
 10
162.64433477082531
 20
184.9967130311135
 30
0.0
 40
0.5
 50
0.0
 51
90.0
  0
LINE
  5
A92D
  8
AM_0
 10
152.24566367447929
 20
179.99547095741309
 30
0.0
 11
152.24566367447929
 21
181.1677141438461
 31
0.0
  0
LINE
  5
A92E
  8
AM_0
 10
153.67203182947631
 20
177.04064170970531
 30
0.0
 11
154.14433477082531
 21
177.04064170970531
 31
0.0
  0
LINE
  5
A92F
  8
AM_0
 10
153.5754393349369
 20
176.96652394296859
 30
0.0
 11
153.59529940105131
 21
177.04064170970531
 31
0.0
  0
ARC
  5
A930
  8
AM_0
 10
153.67203182947631
 20
176.9406417097054
 30
0.0
 40
0.1000000000000346
 50
90.0
 51
164.99980499355539
  0
ARC
  5
A931
  8
AM_0
 10
151.94566367447931
 20
176.8538087291974
 30
0.0
 40
0.3000000000000043
 50
0.0
 51
90.0
  0
LINE
  5
A932
  8
AM_0
 10
150.74566367447929
 20
174.7406417097053
 30
0.0
 11
151.9656193776365
 21
174.82197208991639
 31
0.0
  0
LINE
  5
A933
  8
AM_0
 10
150.74566367447929
 20
175.8968937455453
 30
0.0
 11
151.94566367447931
 21
175.8968937455453
 31
0.0
  0
LINE
  5
A934
  8
AM_0
 10
152.24566367447929
 20
175.14064170970539
 30
0.0
 11
150.74566367447929
 21
175.14064170970539
 31
0.0
  0
ARC
  5
A935
  8
AM_0
 10
152.2456636744794
 20
175.64064170970539
 30
0.0
 40
0.5
 50
270.0
 51
0.0
  0
LINE
  5
A936
  8
AM_0
 10
152.24566367447929
 20
175.12130763727339
 30
0.0
 11
152.24566367447929
 21
175.14064170970539
 31
0.0
  0
LINE
  5
A937
  8
AM_0
 10
152.24566367447929
 20
174.84064170970541
 30
0.0
 11
152.24566367447929
 21
175.12130763727339
 31
0.0
  0
LINE
  5
A938
  8
AM_0
 10
151.9656193776365
 20
174.82197208991639
 30
0.0
 11
152.24566367447929
 21
174.84064170970541
 31
0.0
  0
ARC
  5
A939
  8
AM_0
 10
151.94566367447931
 20
175.12130763727339
 30
0.0
 40
0.3000000000000007
 50
273.81407483428148
 51
0.0
  0
LINE
  5
A93A
  8
AM_0
 10
153.31760234240031
 20
176.29064170970531
 30
0.0
 11
153.3943347708263
 21
176.29064170970531
 31
0.0
  0
LINE
  5
A93B
  8
AM_0
 10
153.3943347708263
 20
176.29064170970531
 30
0.0
 11
153.41419483693929
 21
176.36475947644169
 31
0.0
  0
LINE
  5
A93C
  8
AM_0
 10
152.82543933493719
 20
176.36475947644169
 30
0.0
 11
152.84529940105131
 21
176.29064170970531
 31
0.0
  0
LINE
  5
A93D
  8
AM_0
 10
152.84529940105131
 20
176.29064170970531
 30
0.0
 11
152.92203182947631
 21
176.29064170970531
 31
0.0
  0
LINE
  5
A93E
  8
AM_0
 10
153.41419483693929
 20
176.36475947644169
 30
0.0
 11
153.5754393349369
 21
176.96652394296859
 31
0.0
  0
LINE
  5
A93F
  8
AM_0
 10
152.92203182947631
 20
176.29064170970531
 30
0.0
 11
153.31760234240031
 21
176.29064170970531
 31
0.0
  0
LINE
  5
A940
  8
AM_0
 10
152.74566367448031
 20
176.6624822412663
 30
0.0
 11
152.82543933493719
 21
176.36475947644169
 31
0.0
  0
ARC
  5
A941
  8
AM_0
 10
153.31760234240031
 20
176.39064170970539
 30
0.0
 40
0.0999999999999866
 50
270.0
 51
344.99980499343371
  0
ARC
  5
A942
  8
AM_0
 10
152.92203182947631
 20
176.39064170970539
 30
0.0
 40
0.1000000000000014
 50
195.00019500656629
 51
270.0
  0
LINE
  5
A943
  8
AM_0
 10
152.24566367447929
 20
176.19689374554531
 30
0.0
 11
152.24566367447929
 21
176.8538087291974
 31
0.0
  0
ARC
  5
A944
  8
AM_0
 10
151.94566367447931
 20
176.19689374554551
 30
0.0
 40
0.3000000000000007
 50
270.0
 51
0.0
  0
LINE
  5
A945
  8
AM_0
 10
150.74566367447929
 20
179.69547095741331
 30
0.0
 11
151.94566367447931
 21
179.69547095741331
 31
0.0
  0
LINE
  5
A946
  8
AM_0
 10
151.94566367447931
 20
177.15380872919721
 30
0.0
 11
150.74566367447929
 21
177.15380872919721
 31
0.0
  0
LINE
  5
A947
  8
AM_0
 10
153.59529940105131
 20
177.04064170970531
 30
0.0
 11
153.67203182947631
 21
177.04064170970531
 31
0.0
  0
ARC
  5
A948
  8
AM_0
 10
151.94566367447931
 20
179.99547095741349
 30
0.0
 40
0.3000000000000007
 50
270.0
 51
0.0
  0
LINE
  5
A949
  8
AM_0
 10
151.94566367447931
 20
181.46771414384639
 30
0.0
 11
150.74566367447929
 21
181.46771414384639
 31
0.0
  0
ARC
  5
A94A
  8
AM_0
 10
151.94566367447931
 20
181.16771414384641
 30
0.0
 40
0.3000000000000043
 50
0.0
 51
90.0
  0
LINE
  5
A94B
  8
AM_0
 10
151.94566367447931
 20
185.14064170970431
 30
0.0
 11
150.74566367447929
 21
185.14064170970431
 31
0.0
  0
ARC
  5
A94C
  8
AM_0
 10
151.94566367447931
 20
185.44064170970441
 30
0.0
 40
0.3000000000000007
 50
270.0
 51
0.0
  0
LINE
  5
A94D
  8
AM_0
 10
141.7456636744794
 20
176.0073618810583
 30
0.0
 11
148.24566367447929
 21
176.0073618810583
 31
0.0
  0
LINE
  5
A94E
  8
AM_0
 10
141.7456636744794
 20
175.5073618810583
 30
0.0
 11
148.24566367447929
 21
175.5073618810583
 31
0.0
  0
LINE
  5
A94F
  8
AM_0
 10
148.24566367447929
 20
185.64064170970539
 30
0.0
 11
141.7456636744794
 21
185.64064170970539
 31
0.0
  0
LINE
  5
A950
  8
AM_0
 10
141.24566367447929
 20
185.14064170970539
 30
0.0
 11
148.24566367447929
 21
185.14064170970539
 31
0.0
  0
LINE
  5
A951
  8
AM_0
 10
147.94566367447931
 20
175.14064170970539
 30
0.0
 11
141.10771360966109
 21
175.14064170970539
 31
0.0
  0
LINE
  5
A952
  8
AM_0
 10
148.24566367447929
 20
184.79395364116419
 30
0.0
 11
141.7456636744794
 21
184.79395364116419
 31
0.0
  0
LINE
  5
A953
  8
AM_0
 10
148.24566367447929
 20
176.48732977824639
 30
0.0
 11
141.7456636744794
 21
176.48732977824639
 31
0.0
  0
ARC
  5
A954
  8
AM_0
 10
148.54566367447941
 20
174.4406417097054
 30
0.0
 40
0.2999999999999971
 50
180.0
 51
270.0
  0
ARC
  5
A955
  8
AM_0
 10
147.94566367447931
 20
174.84064170970541
 30
0.0
 40
0.2999999999999971
 50
0.0
 51
90.0
  0
ARC
  5
A956
  8
AM_0
 10
149.8706636744794
 20
180.64064170970539
 30
0.0
 40
9.124999999999984
 50
152.92493329271841
 51
207.07506670728151
  0
LINE
  5
A957
  8
AM_0
 10
140.46752920999691
 20
175.37242043010789
 30
0.0
 11
138.1054792748148
 21
177.3407953760929
 31
0.0
  0
LINE
  5
A958
  8
AM_0
 10
141.24566367447929
 20
175.7190742932134
 30
0.0
 11
141.7456636744794
 21
175.14064170970539
 31
0.0
  0
ARC
  5
A959
  8
AM_0
 10
141.10771360966109
 20
176.14064170970539
 30
0.0
 40
1.0
 50
230.19442890774391
 51
270.0
  0
LINE
  5
A95A
  8
AM_0
 10
141.7456636744794
 20
175.5073618810583
 30
0.0
 11
141.24566367447929
 21
175.7190742932134
 31
0.0
  0
LINE
  5
A95B
  8
AM_0
 10
141.24566367447929
 20
176.18134956618439
 30
0.0
 11
141.7456636744794
 21
175.5073618810583
 31
0.0
  0
LINE
  5
A95C
  8
AM_0
 10
141.7456636744794
 20
176.0073618810583
 30
0.0
 11
141.24566367447929
 21
176.18134956618439
 31
0.0
  0
LINE
  5
A95D
  8
AM_0
 10
141.24566367447929
 20
176.7190742932134
 30
0.0
 11
141.7456636744794
 21
176.0073618810583
 31
0.0
  0
LINE
  5
A95E
  8
AM_0
 10
141.7456636744794
 20
176.48732977824639
 30
0.0
 11
141.24566367447929
 21
176.7190742932134
 31
0.0
  0
ARC
  5
A95F
  8
AM_0
 10
138.7456636744794
 20
178.1090166556904
 30
0.0
 40
1.0000000000000291
 50
180.0
 51
230.1944289077336
  0
LINE
  5
A960
  8
AM_0
 10
141.7456636744794
 20
185.64064170970539
 30
0.0
 11
141.24566367447929
 21
186.14064170970539
 31
0.0
  0
LINE
  5
A961
  8
AM_0
 10
141.24566367447929
 20
185.14064170970539
 30
0.0
 11
141.7456636744794
 21
185.64064170970539
 31
0.0
  0
LINE
  5
A962
  8
AM_0
 10
141.7456636744794
 20
184.79395364116419
 30
0.0
 11
141.24566367447929
 21
185.14064170970539
 31
0.0
  0
LINE
  5
A963
  8
AM_0
 10
148.5456636744793
 20
198.14064170970539
 30
0.0
 11
150.74566367447929
 21
198.14064170970539
 31
0.0
  0
ARC
  5
A964
  8
AM_0
 10
162.64433477082531
 20
198.64064170970539
 30
0.0
 40
0.5
 50
269.99999999998693
 51
0.0
  0
LINE
  5
A965
  8
AM_0
 10
157.6443347708254
 20
195.2406417097053
 30
0.0
 11
154.42203182947631
 21
195.2406417097053
 31
0.0
  0
LINE
  5
A966
  8
AM_0
 10
163.14433477082531
 20
187.2845703882985
 30
0.0
 11
163.14433477082531
 21
196.9967130311135
 31
0.0
  0
LINE
  5
A967
  8
AM_0
 10
158.14433477082531
 20
186.7845703882985
 30
0.0
 11
162.64433477082531
 21
186.7845703882985
 31
0.0
  0
ARC
  5
A968
  8
AM_0
 10
162.64433477082531
 20
187.2845703882985
 30
0.0
 40
0.5
 50
270.0
 51
0.0
  0
LINE
  5
A969
  8
AM_0
 10
158.14433477082531
 20
197.4967130311135
 30
0.0
 11
162.64433477082531
 21
197.4967130311135
 31
0.0
  0
LINE
  5
A96A
  8
AM_0
 10
162.6443347708252
 20
198.14064170970539
 30
0.0
 11
158.6443347708254
 21
198.14064170970539
 31
0.0
  0
ARC
  5
A96B
  8
AM_0
 10
162.64433477082531
 20
196.9967130311135
 30
0.0
 40
0.5
 50
0.0
 51
90.0
  0
ARC
  5
A96C
  8
AM_0
 10
157.64433477082531
 20
195.7406417097053
 30
0.0
 40
0.5
 50
270.0
 51
0.0
  0
ARC
  5
A96D
  8
AM_0
 10
158.64433477082531
 20
197.64064170970539
 30
0.0
 40
0.5
 50
90.0
 51
180.0
  0
ARC
  5
A96E
  8
AM_0
 10
151.94566367447931
 20
192.28581246199741
 30
0.0
 40
0.3000000000000114
 50
0.0
 51
90.0
  0
LINE
  5
A96F
  8
AM_0
 10
150.74566367447929
 20
187.14064170970721
 30
0.0
 11
151.94566367447931
 21
187.14064170970721
 31
0.0
  0
ARC
  5
A970
  8
AM_0
 10
151.94566367447931
 20
186.84064170970751
 30
0.0
 40
0.2999999999999971
 50
0.0
 51
90.0
  0
LINE
  5
A971
  8
AM_0
 10
150.74566367447929
 20
190.81356927556399
 30
0.0
 11
151.94566367447931
 21
190.81356927556399
 31
0.0
  0
ARC
  5
A972
  8
AM_0
 10
151.94566367447931
 20
191.1135692755644
 30
0.0
 40
0.3000000000000007
 50
270.0
 51
0.0
  0
LINE
  5
A973
  8
AM_0
 10
152.24566367447929
 20
191.1135692755644
 30
0.0
 11
152.24566367447929
 21
192.28581246199741
 31
0.0
  0
LINE
  5
A974
  8
AM_0
 10
153.67203182947631
 20
195.9906417097053
 30
0.0
 11
154.06760234240031
 21
195.9906417097053
 31
0.0
  0
LINE
  5
A975
  8
AM_0
 10
153.67203182947631
 20
195.9906417097053
 30
0.0
 11
154.06760234240031
 21
195.9906417097053
 31
0.0
  0
LINE
  5
A976
  8
AM_0
 10
154.16419483693929
 20
195.91652394296889
 30
0.0
 11
154.32543933493719
 21
195.31475947644159
 31
0.0
  0
LINE
  5
A977
  8
AM_0
 10
154.16419483693929
 20
195.91652394296889
 30
0.0
 11
154.32543933493719
 21
195.31475947644159
 31
0.0
  0
ARC
  5
A978
  8
AM_0
 10
154.42203182947631
 20
195.3406417097053
 30
0.0
 40
0.0999999999999943
 50
195.00019500651879
 51
270.0
  0
ARC
  5
A979
  8
AM_0
 10
154.06760234240031
 20
195.89064170970539
 30
0.0
 40
0.0999999999999943
 50
15.000195006505431
 51
90.0
  0
LINE
  5
A97A
  8
AM_0
 10
152.74481708593831
 20
195.6156417097055
 30
0.0
 11
152.82543933493719
 21
195.31475947644159
 31
0.0
  0
LINE
  5
A97B
  8
AM_0
 10
153.39704542303119
 20
195.27990624280341
 30
0.0
 11
153.57543933493719
 21
195.91652394296889
 31
0.0
  0
LINE
  5
A97C
  8
AM_0
 10
153.41419483693929
 20
195.31475947644159
 30
0.0
 11
153.57543933493719
 21
195.91652394296889
 31
0.0
  0
LINE
  5
A97D
  8
AM_0
 10
152.24566367447929
 20
195.42747469021441
 30
0.0
 11
152.24566367447929
 21
196.0843896738653
 31
0.0
  0
LINE
  5
A97E
  8
AM_0
 10
152.74566367447909
 20
195.61248224126729
 30
0.0
 11
152.82543933493719
 21
195.31475947644159
 31
0.0
  0
LINE
  5
A97F
  8
AM_0
 10
150.74566367447929
 20
195.1274746902144
 30
0.0
 11
151.94566367447931
 21
195.1274746902144
 31
0.0
  0
LINE
  5
A980
  8
AM_0
 10
151.94566367447931
 20
192.58581246199731
 30
0.0
 11
150.74566367447929
 21
192.5858124619983
 31
0.0
  0
LINE
  5
A981
  8
AM_0
 10
153.3502346079153
 20
195.2406417097053
 30
0.0
 11
153.39704542303119
 21
195.27990624280341
 31
0.0
  0
LINE
  5
A982
  8
AM_0
 10
152.92203182947631
 20
195.2406417097053
 30
0.0
 11
153.3502346079153
 21
195.2406417097053
 31
0.0
  0
LINE
  5
A983
  8
AM_0
 10
152.92203182947631
 20
195.2406417097053
 30
0.0
 11
153.31760234240031
 21
195.2406417097053
 31
0.0
  0
ARC
  5
A984
  8
AM_0
 10
152.92203182947631
 20
195.3406417097053
 30
0.0
 40
0.0999999999999943
 50
195.00019500651879
 51
270.0
  0
ARC
  5
A985
  8
AM_0
 10
153.31760234240031
 20
195.3406417097053
 30
0.0
 40
0.0999999999999608
 50
270.0
 51
344.99980499348112
  0
ARC
  5
A986
  8
AM_0
 10
151.94566367447931
 20
195.42747469021441
 30
0.0
 40
0.3000000000000007
 50
270.0
 51
0.0
  0
LINE
  5
A987
  8
AM_0
 10
150.74566367447929
 20
197.14064170970539
 30
0.0
 11
152.24566367447929
 21
197.14064170970539
 31
0.0
  0
LINE
  5
A988
  8
AM_0
 10
151.94566367447931
 20
196.38438967386529
 30
0.0
 11
150.74566367447929
 21
196.38438967386529
 31
0.0
  0
LINE
  5
A989
  8
AM_0
 10
151.9656193776365
 20
197.45931132949539
 30
0.0
 11
150.74566367447929
 21
197.54064170970531
 31
0.0
  0
ARC
  5
A98A
  8
AM_0
 10
152.2456636744794
 20
196.64064170970539
 30
0.0
 40
0.5
 50
0.0
 51
90.0
  0
ARC
  5
A98B
  8
AM_0
 10
153.67203182947631
 20
195.89064170970539
 30
0.0
 40
0.0999999999999606
 50
90.0
 51
164.99980499349451
  0
ARC
  5
A98C
  8
AM_0
 10
151.94566367447931
 20
196.0843896738653
 30
0.0
 40
0.2999999999999971
 50
0.0
 51
90.0
  0
LINE
  5
A98D
  8
AM_0
 10
152.24566367447929
 20
197.14064170970539
 30
0.0
 11
152.24566367447929
 21
197.1599757821383
 31
0.0
  0
ARC
  5
A98E
  8
AM_0
 10
151.94566367447931
 20
197.1599757821383
 30
0.0
 40
0.3000000000000043
 50
0.0
 51
86.18592516571853
  0
ARC
  5
A98F
  8
AM_0
 10
163.64433477082531
 20
199.14064170970539
 30
0.0
 40
0.5
 50
90.0
 51
180.0
  0
LINE
  5
A990
  8
AM_0
 10
163.14433477082531
 20
199.14064170970539
 30
0.0
 11
163.14433477082531
 21
198.64064170970539
 31
0.0
  0
LINE
  5
A991
  8
AM_0
 10
141.7456636744794
 20
195.79395364116399
 30
0.0
 11
148.24566367447929
 21
195.79395364116399
 31
0.0
  0
LINE
  5
A992
  8
AM_0
 10
141.7456636744794
 20
187.48732977824639
 30
0.0
 11
148.24566367447929
 21
187.48732977824639
 31
0.0
  0
LINE
  5
A993
  8
AM_0
 10
141.10771360966109
 20
197.14064170970539
 30
0.0
 11
147.94566367447931
 21
197.14064170970539
 31
0.0
  0
LINE
  5
A994
  8
AM_0
 10
148.24566367447929
 20
187.14064170970539
 30
0.0
 11
141.24566367447929
 21
187.14064170970539
 31
0.0
  0
LINE
  5
A995
  8
AM_0
 10
141.7456636744794
 20
186.64064170970539
 30
0.0
 11
148.24566367447929
 21
186.64064170970539
 31
0.0
  0
LINE
  5
A996
  8
AM_0
 10
148.24566367447929
 20
196.77392153835319
 30
0.0
 11
141.7456636744794
 21
196.77392153835319
 31
0.0
  0
LINE
  5
A997
  8
AM_0
 10
148.24566367447929
 20
196.27392153835319
 30
0.0
 11
141.7456636744794
 21
196.27392153835319
 31
0.0
  0
ARC
  5
A998
  8
AM_0
 10
147.94566367447931
 20
197.4406417097054
 30
0.0
 40
0.3000000000000043
 50
270.0
 51
0.0
  0
ARC
  5
A999
  8
AM_0
 10
148.54566367447941
 20
197.84064170970549
 30
0.0
 40
0.2999999999999971
 50
90.0
 51
180.0
  0
ARC
  5
A99A
  8
AM_0
 10
149.8706636744794
 20
191.64064170970539
 30
0.0
 40
9.124999999999984
 50
152.92493329271841
 51
207.07506670728151
  0
LINE
  5
A99B
  8
AM_0
 10
141.24566367447929
 20
187.14064170970539
 30
0.0
 11
141.7456636744794
 21
187.48732977824639
 31
0.0
  0
LINE
  5
A99C
  8
AM_0
 10
141.7456636744794
 20
186.64064170970539
 30
0.0
 11
141.24566367447929
 21
187.14064170970539
 31
0.0
  0
LINE
  5
A99D
  8
AM_0
 10
138.1054792748148
 20
194.94048804331871
 30
0.0
 11
140.46752920999691
 21
196.9088629893028
 31
0.0
  0
LINE
  5
A99E
  8
AM_0
 10
141.7456636744794
 20
197.14064170970539
 30
0.0
 11
141.24566367447929
 21
196.56220912619841
 31
0.0
  0
ARC
  5
A99F
  8
AM_0
 10
141.10771360966109
 20
196.14064170970539
 30
0.0
 40
1.00000000000004
 50
90.0
 51
129.805571092256
  0
LINE
  5
A9A0
  8
AM_0
 10
141.24566367447929
 20
195.56220912619841
 30
0.0
 11
141.7456636744794
 21
195.79395364116399
 31
0.0
  0
LINE
  5
A9A1
  8
AM_0
 10
141.7456636744794
 20
196.27392153835319
 30
0.0
 11
141.24566367447929
 21
195.56220912619841
 31
0.0
  0
LINE
  5
A9A2
  8
AM_0
 10
141.24566367447929
 20
196.09993385322639
 30
0.0
 11
141.7456636744794
 21
196.27392153835319
 31
0.0
  0
LINE
  5
A9A3
  8
AM_0
 10
141.7456636744794
 20
196.77392153835319
 30
0.0
 11
141.24566367447929
 21
196.09993385322639
 31
0.0
  0
LINE
  5
A9A4
  8
AM_0
 10
141.24566367447929
 20
196.56220912619841
 30
0.0
 11
141.7456636744794
 21
196.77392153835319
 31
0.0
  0
ARC
  5
A9A5
  8
AM_0
 10
138.7456636744794
 20
194.1722667637213
 30
0.0
 40
1.0
 50
129.8055710922664
 51
180.0
  0
LINE
  5
A9A6
  8
AM_0
 10
263.14433477082542
 20
163.1406417097057
 30
0.0
 11
242.3298298712929
 21
163.1406417097057
 31
0.0
  0
LINE
  5
A9A7
  8
AM_0
 10
187.95883967035769
 20
163.1406417097057
 30
0.0
 11
167.14433477082599
 21
163.1406417097057
 31
0.0
  0
LINE
  5
A9A8
  8
AM_0
 10
257.0085531016644
 20
159.14064170970559
 30
0.0
 11
173.2801164399863
 21
159.14064170970559
 31
0.0
  0
LINE
  5
A9A9
  8
AM_0
 10
176.05168974313241
 20
161.08170419757781
 30
0.0
 11
176.14433477082591
 21
162.14064170970559
 31
0.0
  0
LINE
  5
A9AA
  8
AM_0
 10
168.2369797985194
 20
161.08170419757781
 30
0.0
 11
168.14433477082599
 21
162.14064170970559
 31
0.0
  0
ARC
  5
A9AB
  8
AM_0
 10
172.14433477082599
 20
165.5406417097056
 30
0.0
 40
6.5
 50
241.82726586813479
 51
298.17273413186518
  0
ARC
  5
A9AC
  8
AM_0
 10
169.83089131546629
 20
161.22115338597411
 30
0.0
 40
1.6000000000000001
 50
184.99999999999969
 51
241.82726586813479
  0
LINE
  5
A9AD
  8
AM_0
 10
174.44433477082589
 20
159.4611680482773
 30
0.0
 11
172.14433477082591
 21
161.75072772707281
 31
0.0
  0
LINE
  5
A9AE
  8
AM_0
 10
172.4558347708259
 20
161.4406417097056
 30
0.0
 11
171.83283477082591
 21
161.4406417097056
 31
0.0
  0
LINE
  5
A9AF
  8
AM_0
 10
169.84433477082601
 20
159.4611680482773
 30
0.0
 11
172.14433477082591
 21
161.75072772707281
 31
0.0
  0
LINE
  5
A9B0
  8
AM_0
 10
172.4558347708259
 20
159.04811001937099
 30
0.0
 11
172.4558347708259
 21
161.4406417097056
 31
0.0
  0
LINE
  5
A9B1
  8
AM_0
 10
171.83283477082591
 20
159.04811001937099
 30
0.0
 11
171.83283477082591
 21
161.4406417097056
 31
0.0
  0
ARC
  5
A9B2
  8
AM_0
 10
174.45777822618561
 20
161.22115338597411
 30
0.0
 40
1.6000000000000001
 50
298.17273413186518
 51
355.00000000000023
  0
LINE
  5
A9B3
  8
AM_0
 10
263.14433477082548
 20
163.1406417097057
 30
0.0
 11
263.14433477082548
 21
167.1406417097057
 31
0.0
  0
LINE
  5
A9B4
  8
AM_0
 10
167.14433477082511
 20
167.14064170970551
 30
0.0
 11
167.14433477082619
 21
163.1406417097057
 31
0.0
  0
LINE
  5
A9B5
  8
AM_0N
 10
175.944334770826
 20
163.1406417097057
 30
0.0
 11
175.944334770826
 21
162.14064170970559
 31
0.0
  0
LINE
  5
A9B6
  8
AM_0N
 10
172.34433477082601
 20
162.14064170970559
 30
0.0
 11
172.70830500509209
 21
163.1406417097057
 31
0.0
  0
LINE
  5
A9B7
  8
AM_0N
 10
171.944334770826
 20
162.14064170970559
 30
0.0
 11
172.30830500509211
 21
163.1406417097057
 31
0.0
  0
LINE
  5
A9B8
  8
AM_0N
 10
168.14433477082591
 20
162.14064170970559
 30
0.0
 11
176.14433477082591
 21
162.14064170970559
 31
0.0
  0
LINE
  5
A9B9
  8
AM_0N
 10
168.3443347708259
 20
162.14064170970559
 30
0.0
 11
168.3443347708259
 21
163.1406417097057
 31
0.0
  0
LINE
  5
A9BA
  8
AM_0
 10
187.95883967035741
 20
159.14064170970559
 30
0.0
 11
187.95883967035741
 21
163.1406417097057
 31
0.0
  0
LINE
  5
A9BB
  8
AM_0
 10
186.30198542086509
 20
163.1406417097057
 30
0.0
 11
187.95883967035741
 21
159.14064170970559
 31
0.0
  0
LINE
  5
A9BC
  8
AM_0
 10
242.3298298712929
 20
159.14064170970559
 30
0.0
 11
242.3298298712929
 21
163.1406417097057
 31
0.0
  0
LINE
  5
A9BD
  8
AM_0
 10
243.9866841207855
 20
163.1406417097057
 30
0.0
 11
242.3298298712929
 21
159.14064170970559
 31
0.0
  0
LINE
  5
A9BE
  8
AM_0
 10
181.64433477082531
 20
208.1406417097057
 30
0.0
 11
248.6443347708254
 21
208.1406417097057
 31
0.0
  0
LINE
  5
A9BF
  8
AM_0
 10
181.64433477082531
 20
208.1406417097057
 30
0.0
 11
181.64433477082531
 21
206.1406417097057
 31
0.0
  0
LINE
  5
A9C0
  8
AM_0
 10
248.6443347708254
 20
208.1406417097057
 30
0.0
 11
248.6443347708254
 21
206.1406417097057
 31
0.0
  0
LINE
  5
A9C1
  8
ﾁｭｳｼﾝｾﾝ1
 10
258.14433477082468
 20
156.8759342097056
 30
0.0
 11
258.14433477082468
 21
169.8759342097056
 31
0.0
  0
LINE
  5
A9C2
  8
AM_0
 10
254.23697979851829
 20
161.08170419757781
 30
0.0
 11
254.1443347708248
 21
162.14064170970559
 31
0.0
  0
LINE
  5
A9C3
  8
AM_0
 10
262.05168974313131
 20
161.08170419757781
 30
0.0
 11
262.14433477082468
 21
162.14064170970559
 31
0.0
  0
ARC
  5
A9C4
  8
AM_0
 10
258.14433477082503
 20
165.54064170970551
 30
0.0
 40
6.5
 50
241.82726586813479
 51
298.17273413186518
  0
ARC
  5
A9C5
  8
AM_0
 10
260.45777822618459
 20
161.22115338597399
 30
0.0
 40
1.6000000000000001
 50
298.17273413186518
 51
355.00000000000023
  0
LINE
  5
A9C6
  8
AM_0
 10
255.84433477082479
 20
159.4611680482773
 30
0.0
 11
258.1443347708248
 21
161.75072772707281
 31
0.0
  0
LINE
  5
A9C7
  8
AM_0
 10
257.83283477082477
 20
161.4406417097056
 30
0.0
 11
258.45583477082482
 21
161.4406417097056
 31
0.0
  0
LINE
  5
A9C8
  8
AM_0
 10
260.4443347708247
 20
159.4611680482773
 30
0.0
 11
258.1443347708248
 21
161.75072772707281
 31
0.0
  0
LINE
  5
A9C9
  8
AM_0
 10
257.83283477082477
 20
159.04811001937099
 30
0.0
 11
257.83283477082477
 21
161.4406417097056
 31
0.0
  0
LINE
  5
A9CA
  8
AM_0
 10
258.45583477082482
 20
159.04811001937099
 30
0.0
 11
258.45583477082482
 21
161.4406417097056
 31
0.0
  0
ARC
  5
A9CB
  8
AM_0
 10
255.83089131546529
 20
161.22115338597399
 30
0.0
 40
1.6000000000000001
 50
184.99999999999969
 51
241.82726586813479
  0
LINE
  5
A9CC
  8
AM_0N
 10
254.3443347708247
 20
163.1406417097057
 30
0.0
 11
254.3443347708247
 21
162.14064170970559
 31
0.0
  0
LINE
  5
A9CD
  8
AM_0N
 10
257.9443347708247
 20
162.14064170970559
 30
0.0
 11
257.58036453655859
 21
163.1406417097057
 31
0.0
  0
LINE
  5
A9CE
  8
AM_0N
 10
258.34433477082467
 20
162.14064170970559
 30
0.0
 11
257.98036453655862
 21
163.1406417097057
 31
0.0
  0
LINE
  5
A9CF
  8
AM_0N
 10
262.1443347708248
 20
162.14064170970559
 30
0.0
 11
254.1443347708248
 21
162.14064170970559
 31
0.0
  0
LINE
  5
A9D0
  8
AM_0N
 10
261.9443347708247
 20
162.14064170970559
 30
0.0
 11
261.9443347708247
 21
163.1406417097057
 31
0.0
  0
LINE
  5
A9D1
  8
AM_0
 10
166.14433477082531
 20
170.14064170970539
 30
0.0
 11
166.1443347708252
 21
202.14064170970539
 31
0.0
  0
LINE
  5
A9D2
  8
AM_0
 10
264.3500847708255
 20
319.06953170970559
 30
0.0
 11
260.20436477082558
 21
334.55064170970547
 31
0.0
  0
LINE
  5
A9D3
  8
AM_0
 10
264.35005477082558
 20
318.15953170970567
 30
0.0
 11
260.20433477082548
 21
333.64064170970562
 31
0.0
  0
LINE
  5
A9D4
  8
AM_0
 10
264.35005477082558
 20
316.30955170970572
 30
0.0
 11
260.20433477082548
 21
331.79069170970558
 31
0.0
  0
LINE
  5
A9D5
  8
AM_0
 10
266.14433477082548
 20
330.14064170970562
 30
0.0
 11
266.14433477082548
 21
218.14064170970551
 31
0.0
  0
LINE
  5
A9D6
  8
AM_0
 10
259.48436477082549
 20
310.14064170970562
 30
0.0
 11
160.5043247708256
 21
310.14064170970562
 31
0.0
  0
LINE
  5
A9D7
  8
AM_0
 10
259.48436477082549
 20
308.14064170970562
 30
0.0
 11
160.5043247708256
 21
308.14064170970562
 31
0.0
  0
LINE
  5
A9D8
  8
AM_0
 10
227.14433477082571
 20
300.14064170970562
 30
0.0
 11
160.5043247708256
 21
300.14064170970562
 31
0.0
  0
LINE
  5
A9D9
  8
AM_0
 10
259.47716477082571
 20
298.14064170970562
 30
0.0
 11
160.5043247708256
 21
298.14064170970562
 31
0.0
  0
LINE
  5
A9DA
  8
AM_0
 10
194.5830547708255
 20
290.14064170970562
 30
0.0
 11
160.5043247708256
 21
290.14064170970562
 31
0.0
  0
LINE
  5
A9DB
  8
AM_0
 10
194.5830547708255
 20
288.14064170970562
 30
0.0
 11
160.5043247708256
 21
288.14064170970562
 31
0.0
  0
LINE
  5
A9DC
  8
AM_0
 10
194.5830547708255
 20
280.14064170970551
 30
0.0
 11
160.5043247708256
 21
280.14064170970551
 31
0.0
  0
LINE
  5
A9DD
  8
AM_0
 10
194.5830547708255
 20
278.14064170970562
 30
0.0
 11
160.5043247708256
 21
278.14064170970562
 31
0.0
  0
LINE
  5
A9DE
  8
AM_0
 10
159.82432477082571
 20
310.86061170970549
 30
0.0
 11
262.96434477082551
 21
310.86061170970549
 31
0.0
  0
LINE
  5
A9DF
  8
AM_0
 10
159.82432477082571
 20
307.51063170970559
 30
0.0
 11
227.1643547708257
 21
307.51063170970559
 31
0.0
  0
LINE
  5
A9E0
  8
AM_0
 10
159.60435477082541
 20
300.6306317097056
 30
0.0
 11
227.14433477082571
 21
300.6306317097056
 31
0.0
  0
LINE
  5
A9E1
  8
AM_0
 10
159.60435477082541
 20
297.7006917097055
 30
0.0
 11
263.17857477082561
 21
297.7006917097055
 31
0.0
  0
LINE
  5
A9E2
  8
AM_0
 10
159.4743547708255
 20
290.48060170970558
 30
0.0
 11
195.8030247708256
 21
290.48060170970558
 31
0.0
  0
LINE
  5
A9E3
  8
AM_0
 10
159.4743547708255
 20
287.82069170970561
 30
0.0
 11
195.8030247708256
 21
287.82069170970561
 31
0.0
  0
LINE
  5
A9E4
  8
AM_0
 10
159.41435477082541
 20
280.41066170970561
 30
0.0
 11
195.8630247708256
 21
280.41066170970561
 31
0.0
  0
LINE
  5
A9E5
  8
AM_0
 10
159.41435477082541
 20
277.8806317097056
 30
0.0
 11
195.8630247708256
 21
277.8806317097056
 31
0.0
  0
LINE
  5
A9E6
  8
AM_0
 10
159.41435477082541
 20
270.41066170970561
 30
0.0
 11
195.8630247708256
 21
270.41066170970561
 31
0.0
  0
LINE
  5
A9E7
  8
AM_0
 10
194.5830547708255
 20
270.14064170970551
 30
0.0
 11
160.5043247708256
 21
270.14064170970551
 31
0.0
  0
LINE
  5
A9E8
  8
AM_0
 10
194.5830547708255
 20
268.14064170970551
 30
0.0
 11
160.5043247708256
 21
268.14064170970551
 31
0.0
  0
LINE
  5
A9E9
  8
AM_0
 10
159.41435477082541
 20
267.87062170970569
 30
0.0
 11
195.8630247708256
 21
267.87062170970569
 31
0.0
  0
LINE
  5
A9EA
  8
AM_0
 10
159.4743547708255
 20
260.46058170970571
 30
0.0
 11
195.8030247708256
 21
260.46058170970571
 31
0.0
  0
LINE
  5
A9EB
  8
AM_0
 10
194.5830547708255
 20
260.14064170970562
 30
0.0
 11
160.5043247708256
 21
260.14064170970562
 31
0.0
  0
LINE
  5
A9EC
  8
AM_0
 10
194.5830547708255
 20
258.14064170970562
 30
0.0
 11
160.5043247708256
 21
258.14064170970562
 31
0.0
  0
LINE
  5
A9ED
  8
AM_0
 10
159.4743547708255
 20
257.80067170970563
 30
0.0
 11
195.81560477082539
 21
257.80067170970563
 31
0.0
  0
LINE
  5
A9EE
  8
AM_0
 10
259.47716477082571
 20
250.14064170970559
 30
0.0
 11
160.5043247708256
 21
250.14064170970559
 31
0.0
  0
LINE
  5
A9EF
  8
AM_0
 10
159.60435477082541
 20
250.58058170970571
 30
0.0
 11
263.17857477082561
 21
250.58058170970571
 31
0.0
  0
LINE
  5
A9F0
  8
AM_0
 10
227.14433477082571
 20
248.14064170970559
 30
0.0
 11
160.5043247708256
 21
248.14064170970559
 31
0.0
  0
LINE
  5
A9F1
  8
AM_0
 10
159.60435477082541
 20
247.6506517097057
 30
0.0
 11
227.14433477082571
 21
247.6506517097057
 31
0.0
  0
LINE
  5
A9F2
  8
AM_0
 10
259.48436477082549
 20
240.14064170970551
 30
0.0
 11
215.14433477082551
 21
240.14064170970551
 31
0.0
  0
LINE
  5
A9F3
  8
AM_0
 10
259.48436477082549
 20
238.14064170970551
 30
0.0
 11
215.14433477082551
 21
238.14064170970551
 31
0.0
  0
LINE
  5
A9F4
  8
AM_0
 10
159.82432477082571
 20
237.42067170970549
 30
0.0
 11
215.14433477082551
 21
237.42067170970549
 31
0.0
  0
LINE
  5
A9F5
  8
AM_0
 10
262.96434477082551
 20
240.77064170970559
 30
0.0
 11
245.1243747708256
 21
240.77064170970559
 31
0.0
  0
LINE
  5
A9F6
  8
AM_0
 10
159.82432477082571
 20
240.77064170970559
 30
0.0
 11
227.1643547708257
 21
240.77064170970559
 31
0.0
  0
LINE
  5
A9F7
  8
AM_0
 10
215.14433477082551
 20
240.14064170970551
 30
0.0
 11
160.5043247708256
 21
240.14064170970551
 31
0.0
  0
LINE
  5
A9F8
  8
AM_0
 10
215.14433477082551
 20
238.14064170970551
 30
0.0
 11
160.5043247708256
 21
238.14064170970551
 31
0.0
  0
LINE
  5
A9F9
  8
AM_0
 10
215.14433477082551
 20
237.42067170970549
 30
0.0
 11
262.96434477082551
 21
237.42067170970549
 31
0.0
  0
LINE
  5
A9FA
  8
AM_0
 10
158.14433477082551
 20
327.14064170970562
 30
0.0
 11
158.14433477082551
 21
221.14064170970559
 31
0.0
  0
LINE
  5
A9FB
  8
AM_0
 10
266.14433477082548
 20
320.14064170970562
 30
0.0
 11
274.14433477082548
 21
320.14064170970562
 31
0.0
  0
LINE
  5
A9FC
  8
AM_0
 10
266.14433477082548
 20
306.0805817097056
 30
0.0
 11
274.14433477082548
 21
306.0805817097056
 31
0.0
  0
LINE
  5
A9FD
  8
AM_0
 10
266.14433477082548
 20
330.14064170970562
 30
0.0
 11
274.14433477082548
 21
330.14064170970562
 31
0.0
  0
LINE
  5
A9FE
  8
AM_0
 10
161.35435477082541
 20
330.42067170970569
 30
0.0
 11
258.27434477082562
 21
330.42067170970569
 31
0.0
  0
LINE
  5
A9FF
  8
AM_0
 10
158.14433477082551
 20
322.2407017097056
 30
0.0
 11
159.3843247708256
 21
328.80070170970561
 31
0.0
  0
LINE
  5
AA00
  8
AM_0
 10
163.50438477082551
 20
310.79066170970549
 30
0.0
 11
158.1443947708255
 21
322.24064170970553
 31
0.0
  0
LINE
  5
AA01
  8
AM_0
 10
163.50432477082541
 20
237.49061170970541
 30
0.0
 11
158.1443947708255
 21
226.05070170970541
 31
0.0
  0
LINE
  5
AA02
  8
AM_0
 10
161.39433477082551
 20
333.2706417097055
 30
0.0
 11
258.27434477082562
 21
333.2706417097055
 31
0.0
  0
LINE
  5
AA03
  8
AM_0
 10
161.41435477082541
 20
335.12062170970569
 30
0.0
 11
258.27434477082562
 21
335.12062170970569
 31
0.0
  0
LINE
  5
AA04
  8
AM_0
 10
161.43437477082551
 20
336.03065170970569
 30
0.0
 11
258.27440477082558
 21
336.03065170970569
 31
0.0
  0
LINE
  5
AA05
  8
AM_0
 10
158.1443947708255
 20
323.5806717097056
 30
0.0
 11
159.42436477082541
 21
331.59062170970572
 31
0.0
  0
LINE
  5
AA06
  8
AM_0
 10
158.1443947708255
 20
324.93061170970537
 30
0.0
 11
159.4343747708256
 21
333.4207017097055
 31
0.0
  0
LINE
  5
AA07
  8
AM_0
 10
158.14433477082551
 20
324.93064170970558
 30
0.0
 11
159.45433477082551
 21
334.31068170970559
 31
0.0
  0
LINE
  5
AA08
  8
AM_0
 10
264.34440477082569
 20
313.48060170970558
 30
0.0
 11
260.2043947708255
 21
328.94062170970562
 31
0.0
  0
LINE
  5
AA09
  8
AM_0
 10
260.68437477082563
 20
327.14064170970562
 30
0.0
 11
266.14433477082548
 21
327.14064170970562
 31
0.0
  0
LINE
  5
AA0A
  8
AM_0
 10
266.14433477082548
 20
228.14064170970559
 30
0.0
 11
274.14433477082548
 21
228.14064170970559
 31
0.0
  0
LINE
  5
AA0B
  8
AM_0
 10
266.14433477082548
 20
218.14064170970551
 30
0.0
 11
274.14433477082548
 21
218.14064170970551
 31
0.0
  0
LINE
  5
AA0C
  8
AM_0
 10
161.35435477082541
 20
217.86061170970541
 30
0.0
 11
258.27434477082562
 21
217.86061170970541
 31
0.0
  0
LINE
  5
AA0D
  8
AM_0
 10
158.14433477082551
 20
226.05061170970549
 30
0.0
 11
159.38438477082551
 21
219.4906117097056
 31
0.0
  0
LINE
  5
AA0E
  8
AM_0
 10
161.05058477082551
 20
215.01063170970571
 30
0.0
 11
183.5424647708254
 21
215.01063170970571
 31
0.0
  0
LINE
  5
AA0F
  8
AM_0
 10
158.14433477082551
 20
224.70060170970561
 30
0.0
 11
159.42436477082541
 21
216.7006917097055
 31
0.0
  0
LINE
  5
AA10
  8
AM_0
 10
158.14433477082551
 20
223.36070170970549
 30
0.0
 11
159.1536147708255
 21
216.71052170970549
 31
0.0
  0
LINE
  5
AA11
  8
AM_0
 10
158.1443947708255
 20
223.3606717097056
 30
0.0
 11
159.0698147708255
 21
216.73408170970561
 31
0.0
  0
LINE
  5
AA12
  8
AM_0
 10
264.35005477082558
 20
234.82179170970559
 30
0.0
 11
260.20433477082548
 21
219.34065170970561
 31
0.0
  0
LINE
  5
AA13
  8
AM_0
 10
260.6863847708255
 20
221.14064170970559
 30
0.0
 11
266.14433477082548
 21
221.14064170970559
 31
0.0
  0
LINE
  5
AA14
  8
AM_0
 10
266.14433477082548
 20
242.20069170970561
 30
0.0
 11
274.14433477082548
 21
242.20069170970561
 31
0.0
  0
LINE
  5
AA15
  8
AM_0
 10
265.14433477082548
 20
221.14064170970559
 30
0.0
 11
259.41859477082562
 21
212.32374170970559
 31
0.0
  0
LINE
  5
AA16
  8
AM_0
 10
246.65794477082559
 20
211.64064170970559
 30
0.0
 11
258.16057477082558
 21
211.64064170970559
 31
0.0
  0
LINE
  5
AA17
  8
AM_0
 10
244.12437477082551
 20
301.64064170970562
 30
0.0
 11
244.12437477082551
 21
306.50062170970563
 31
0.0
  0
LINE
  5
AA18
  8
AM_0
 10
228.1643547708255
 20
301.64064170970562
 30
0.0
 11
228.1643547708255
 21
306.50062170970563
 31
0.0
  0
LINE
  5
AA19
  8
AM_0
 10
243.64433477082559
 20
301.64064170970562
 30
0.0
 11
243.64433477082559
 21
306.64064170970562
 31
0.0
  0
LINE
  5
AA1A
  8
AM_0
 10
228.64433477082551
 20
301.64064170970562
 30
0.0
 11
228.64433477082551
 21
306.64064170970562
 31
0.0
  0
LINE
  5
AA1B
  8
AM_0
 10
200.14433477082559
 20
287.14064170970562
 30
0.0
 11
263.14433477082548
 21
287.14064170970562
 31
0.0
  0
LINE
  5
AA1C
  8
AM_0
 10
200.14433477082559
 20
253.64064170970559
 30
0.0
 11
263.14433477082548
 21
253.64064170970559
 31
0.0
  0
LINE
  5
AA1D
  8
AM_0
 10
200.14433477082559
 20
294.64064170970562
 30
0.0
 11
263.14433477082548
 21
294.64064170970562
 31
0.0
  0
LINE
  5
AA1E
  8
AM_0
 10
263.14433477082548
 20
294.64064170970562
 30
0.0
 11
263.14433477082548
 21
253.64064170970559
 31
0.0
  0
LINE
  5
AA1F
  8
AM_0
 10
200.14433477082559
 20
294.64064170970562
 30
0.0
 11
200.14433477082559
 21
253.64064170970559
 31
0.0
  0
LINE
  5
AA20
  8
AM_0
 10
245.14433477082551
 20
300.6306317097056
 30
0.0
 11
263.1900547708255
 21
300.6306317097056
 31
0.0
  0
LINE
  5
AA21
  8
AM_0
 10
245.14433477082551
 20
247.66066170970549
 30
0.0
 11
263.17857477082561
 21
247.66066170970549
 31
0.0
  0
LINE
  5
AA22
  8
AM_0
 10
244.12437477082551
 20
246.64064170970551
 30
0.0
 11
244.12437477082551
 21
241.78065170970561
 31
0.0
  0
LINE
  5
AA23
  8
AM_0
 10
228.1643547708255
 20
246.64064170970551
 30
0.0
 11
228.1643547708255
 21
241.78065170970561
 31
0.0
  0
LINE
  5
AA24
  8
AM_0
 10
243.64433477082559
 20
246.64064170970551
 30
0.0
 11
243.64433477082559
 21
241.64064170970559
 31
0.0
  0
LINE
  5
AA25
  8
AM_0
 10
228.64433477082551
 20
246.64064170970551
 30
0.0
 11
228.64433477082551
 21
241.64064170970559
 31
0.0
  0
LINE
  5
AA26
  8
AM_0
 10
259.47716477082571
 20
248.14064170970559
 30
0.0
 11
245.14433477082551
 21
248.14064170970559
 31
0.0
  0
LINE
  5
AA27
  8
AM_0
 10
259.49150477082571
 20
300.14064170970562
 30
0.0
 11
245.14433477082551
 21
300.14064170970562
 31
0.0
  0
LINE
  5
AA28
  8
AM_0
 10
245.1243747708256
 20
307.50062170970563
 30
0.0
 11
262.96434477082551
 21
307.50062170970563
 31
0.0
  0
ARC
  5
AA29
  8
AM_0
 10
265.79753477082551
 20
319.47340170970563
 30
0.0
 40
1.502775999999999
 50
194.7564299999992
 51
269.87757999999872
  0
ARC
  5
AA2A
  8
AM_0
 10
265.79753477082551
 20
318.56337170970562
 30
0.0
 40
1.502775999999999
 50
194.7564299999992
 51
269.87757999999872
  0
ARC
  5
AA2B
  8
AM_0
 10
265.79753477082551
 20
316.71339170970572
 30
0.0
 40
1.502775999999999
 50
194.7564299999992
 51
269.87757999999872
  0
ARC
  5
AA2C
  8
AM_0
 10
258.26951477082571
 20
334.02589170970538
 30
0.0
 40
2.0047290000000002
 50
15.173495999996319
 51
89.861678000000211
  0
ARC
  5
AA2D
  8
AM_0
 10
258.26951477082571
 20
333.11586170970543
 30
0.0
 40
2.0047290000000002
 50
15.173495999996319
 51
89.861678000000211
  0
ARC
  5
AA2E
  8
AM_0
 10
258.26951477082571
 20
331.2658817097057
 30
0.0
 40
2.0047290000000002
 50
15.173495999996319
 51
89.861678000000211
  0
ARC
  5
AA2F
  8
AM_0
 10
265.79753477082551
 20
234.41786170970551
 30
0.0
 40
1.502775999999999
 50
90.122413000001615
 51
165.24357000000069
  0
ARC
  5
AA30
  8
AM_0
 10
160.6889547708254
 20
239.14064170970551
 30
0.0
 40
1.000013899999999
 50
89.691659999999231
 51
270.30834000000078
  0
ARC
  5
AA31
  8
AM_0
 10
262.96434477082551
 20
309.18568170970531
 30
0.0
 40
1.6750020000000001
 50
269.999989999999
 51
90.00000299999769
  0
ARC
  5
AA32
  8
AM_0
 10
259.48436477082549
 20
309.14064170970562
 30
0.0
 40
1.0
 50
269.999989999999
 51
90.00000299999769
  0
ARC
  5
AA33
  8
AM_0
 10
259.48436477082549
 20
239.14064170970551
 30
0.0
 40
1.0
 50
269.999989999999
 51
90.00000299999769
  0
ARC
  5
AA34
  8
AM_0
 10
262.96434477082551
 20
239.09559170970559
 30
0.0
 40
1.6750020000000001
 50
269.999989999999
 51
90.00000299999769
  0
ARC
  5
AA35
  8
AM_0
 10
159.8169447708257
 20
309.18568170970531
 30
0.0
 40
1.6750160000000001
 50
89.746145000004447
 51
270.25387000000092
  0
ARC
  5
AA36
  8
AM_0
 10
160.6889547708254
 20
309.14064170970562
 30
0.0
 40
1.000013899999999
 50
89.691659999999231
 51
270.30834000000078
  0
ARC
  5
AA37
  8
AM_0
 10
160.6889547708254
 20
299.14064170970562
 30
0.0
 40
1.000013899999999
 50
89.691659999999231
 51
270.30834000000078
  0
ARC
  5
AA38
  8
AM_0
 10
160.6889547708254
 20
289.14064170970562
 30
0.0
 40
1.000013899999999
 50
89.691659999999231
 51
270.30834000000078
  0
ARC
  5
AA39
  8
AM_0
 10
160.6889547708254
 20
279.14064170970562
 30
0.0
 40
1.000013899999999
 50
89.691659999999231
 51
270.30834000000078
  0
ARC
  5
AA3A
  8
AM_0
 10
160.6889547708254
 20
269.14064170970562
 30
0.0
 40
1.000013899999999
 50
89.691659999999231
 51
270.30834000000078
  0
ARC
  5
AA3B
  8
AM_0
 10
160.6889547708254
 20
259.14064170970562
 30
0.0
 40
1.000013899999999
 50
89.691659999999231
 51
270.30834000000078
  0
ARC
  5
AA3C
  8
AM_0
 10
160.6889547708254
 20
249.14064170970559
 30
0.0
 40
1.000013899999999
 50
89.691659999999231
 51
270.30834000000078
  0
ARC
  5
AA3D
  8
AM_0
 10
159.60435477082541
 20
299.16566170970549
 30
0.0
 40
1.465004
 50
90.00000299999769
 51
270.0
  0
ARC
  5
AA3E
  8
AM_0
 10
159.4743547708255
 20
289.15065170970558
 30
0.0
 40
1.3300049999999981
 50
90.00000299999769
 51
270.0
  0
ARC
  5
AA3F
  8
AM_0
 10
159.40849477082551
 20
279.1456417097055
 30
0.0
 40
1.2650129999999991
 50
89.735579000001735
 51
270.2644100000025
  0
ARC
  5
AA40
  8
AM_0
 10
159.40849477082551
 20
269.14064170970562
 30
0.0
 40
1.2700129999999981
 50
89.736617000001601
 51
270.26336999999921
  0
ARC
  5
AA41
  8
AM_0
 10
159.4743547708255
 20
259.1306317097056
 30
0.0
 40
1.3300049999999981
 50
90.00000299999769
 51
270.0
  0
ARC
  5
AA42
  8
AM_0
 10
159.60435477082541
 20
249.11561170970549
 30
0.0
 40
1.465004
 50
90.00000299999769
 51
270.0
  0
ARC
  5
AA43
  8
AM_0
 10
159.8174947708255
 20
239.09559170970559
 30
0.0
 40
1.675014
 50
89.766498999996756
 51
270.2335099999994
  0
ARC
  5
AA44
  8
AM_0
 10
161.34306477082541
 20
328.42652170970558
 30
0.0
 40
1.994108999999999
 50
89.675548000002749
 51
169.18776999999869
  0
ARC
  5
AA45
  8
AM_0
 10
161.3945847708255
 20
331.2754017097057
 30
0.0
 40
1.995282999999995
 50
90.006203999996856
 51
170.90835000000069
  0
ARC
  5
AA46
  8
AM_0
 10
161.40892477082551
 20
333.12391170970562
 30
0.0
 40
1.9967330000000001
 50
89.843966999998912
 51
171.4538799999973
  0
ARC
  5
AA47
  8
AM_0
 10
161.43083477082541
 20
334.03504170970552
 30
0.0
 40
1.995633
 50
89.899707999995798
 51
172.06112999999971
  0
ARC
  5
AA48
  8
AM_0
 10
258.27446477082549
 20
328.42237170970571
 30
0.0
 40
1.9982919999999991
 50
15.032547999996
 51
90.002632000001341
  0
ARC
  5
AA49
  8
AM_0
 10
265.79753477082551
 20
313.86341170970547
 30
0.0
 40
1.502775999999999
 50
194.7564299999992
 51
269.87757999999872
  0
ARC
  5
AA4A
  8
AM_0
 10
258.26951477082571
 20
219.8653717097055
 30
0.0
 40
2.0047290000000002
 50
270.13832000000423
 51
344.82650000000189
  0
ARC
  5
AA4B
  8
AM_0
 10
161.3492347708254
 20
219.8598717097056
 30
0.0
 40
1.9992490000000001
 50
190.643100000001
 51
270.14743000000129
  0
ARC
  5
AA4C
  8
AM_0
 10
161.40056477082561
 20
217.01100170970551
 30
0.0
 40
2.000420099999999
 50
188.9268200000015
 51
269.82270999999599
  0
ARC
  5
AA4D
  8
AM_0
 10
246.65794477082559
 20
210.14064170970551
 30
0.0
 40
1.5
 50
90.00000299999769
 51
178.50000000000381
  0
ARC
  5
AA4E
  8
AM_0
 10
258.16057477082558
 20
213.14064170970539
 30
0.0
 40
1.5
 50
269.999989999999
 51
326.99999999999801
  0
ARC
  5
AA4F
  8
AM_0
 10
161.1309647708255
 20
217.01063170970571
 30
0.0
 40
2.0
 50
188.62962000000411
 51
269.999989999999
  0
ARC
  5
AA50
  8
AM_0
 10
161.05058477082551
 20
217.01063170970571
 30
0.0
 40
2.0
 50
187.95044000000351
 51
269.999989999999
  0
ARC
  5
AA51
  8
AM_0
 10
183.5424647708254
 20
213.51063170970571
 30
0.0
 40
1.5
 50
1.5000027000022329
 51
90.00000299999769
  0
ARC
  5
AA52
  8
AM_0
 10
194.5830547708255
 20
289.14064170970562
 30
0.0
 40
1.000005699999998
 50
269.999989999999
 51
90.00000299999769
  0
ARC
  5
AA53
  8
AM_0
 10
194.5830547708255
 20
279.14064170970562
 30
0.0
 40
1.000005699999998
 50
269.999989999999
 51
90.00000299999769
  0
ARC
  5
AA54
  8
AM_0
 10
194.5830547708255
 20
269.14064170970562
 30
0.0
 40
1.000005699999998
 50
269.999989999999
 51
90.00000299999769
  0
ARC
  5
AA55
  8
AM_0
 10
194.5830547708255
 20
259.14064170970562
 30
0.0
 40
1.000005699999998
 50
269.999989999999
 51
90.00000299999769
  0
ARC
  5
AA56
  8
AM_0
 10
245.14433477082551
 20
241.64064170970559
 30
0.0
 40
1.5
 50
179.999989999999
 51
270.0
  0
ARC
  5
AA57
  8
AM_0
 10
227.14433477082571
 20
241.64064170970559
 30
0.0
 40
1.5
 50
269.999989999999
 51
0.0000006832495047
  0
ARC
  5
AA58
  8
AM_0
 10
227.1643547708257
 20
241.78065170970561
 30
0.0
 40
1.0
 50
269.999989999999
 51
0.0000006832495047
  0
ARC
  5
AA59
  8
AM_0
 10
245.1243747708256
 20
241.78065170970561
 30
0.0
 40
1.0
 50
179.999989999999
 51
270.0
  0
CIRCLE
  5
AA5A
  8
AM_0
 10
233.64433477082559
 20
302.64064170970562
 30
0.0
 40
1.1000000000000001
  0
CIRCLE
  5
AA5B
  8
AM_0
 10
233.64433477082559
 20
302.64064170970562
 30
0.0
 40
1.149999999999999
  0
CIRCLE
  5
AA5C
  8
AM_0
 10
238.64433477082551
 20
302.64064170970562
 30
0.0
 40
1.0
  0
ARC
  5
AA5D
  8
AM_0
 10
227.14433477082571
 20
301.64064170970562
 30
0.0
 40
1.02
 50
269.999989999999
 51
0.0000006832429909
  0
ARC
  5
AA5E
  8
AM_0
 10
245.14433477082551
 20
301.64064170970562
 30
0.0
 40
1.02
 50
179.999989999999
 51
270.0
  0
ARC
  5
AA5F
  8
AM_0
 10
227.14433477082571
 20
301.64064170970562
 30
0.0
 40
1.5
 50
269.999989999999
 51
0.0000006832495047
  0
ARC
  5
AA60
  8
AM_0
 10
245.14433477082551
 20
301.64064170970562
 30
0.0
 40
1.5
 50
179.999989999999
 51
270.0
  0
CIRCLE
  5
AA61
  8
AM_0
 10
238.64433477082551
 20
245.64064170970559
 30
0.0
 40
1.0
  0
CIRCLE
  5
AA62
  8
AM_0
 10
233.64433477082559
 20
245.64064170970559
 30
0.0
 40
1.149999999999999
  0
CIRCLE
  5
AA63
  8
AM_0
 10
233.64433477082559
 20
245.64064170970559
 30
0.0
 40
1.1000000000000001
  0
ARC
  5
AA64
  8
AM_0
 10
227.14433477082571
 20
246.64064170970551
 30
0.0
 40
1.02
 50
0.0
 51
90.00000299999769
  0
ARC
  5
AA65
  8
AM_0
 10
245.14433477082551
 20
246.64064170970551
 30
0.0
 40
1.02
 50
90.00000299999769
 51
180.00001000000091
  0
ARC
  5
AA66
  8
AM_0
 10
227.14433477082571
 20
246.64064170970551
 30
0.0
 40
1.5
 50
0.0
 51
90.00000299999769
  0
ARC
  5
AA67
  8
AM_0
 10
245.14433477082551
 20
246.64064170970551
 30
0.0
 40
1.5
 50
90.00000299999769
 51
180.00001000000091
  0
ARC
  5
AA68
  8
AM_0
 10
195.80931477082541
 20
259.1306317097056
 30
0.0
 40
1.3300148000000001
 50
269.7294199999987
 51
90.270567000000995
  0
ARC
  5
AA69
  8
AM_0
 10
195.87126477082541
 20
269.14064170970562
 30
0.0
 40
1.2700266
 50
269.62932000000001
 51
90.370669999998199
  0
ARC
  5
AA6A
  8
AM_0
 10
195.87126477082541
 20
279.15065170970558
 30
0.0
 40
1.2700266
 50
269.62932000000001
 51
90.370669999998199
  0
ARC
  5
AA6B
  8
AM_0
 10
195.80931477082541
 20
289.15565170970569
 30
0.0
 40
1.3350147999999991
 50
269.7304299999999
 51
90.269556000001316
  0
ARC
  5
AA6C
  8
AM_0
 10
259.48430477082559
 20
299.14064170970562
 30
0.0
 40
1.000025599999997
 50
269.5894700000033
 51
90.410530999997775
  0
ARC
  5
AA6D
  8
AM_0
 10
263.18431477082538
 20
299.17067170970557
 30
0.0
 40
1.460011199999999
 50
269.77524999999667
 51
90.224750000003354
  0
ARC
  5
AA6E
  8
AM_0
 10
259.48430477082559
 20
249.14064170970559
 30
0.0
 40
1.000025599999997
 50
269.5894700000033
 51
90.410530999997775
  0
ARC
  5
AA6F
  8
AM_0
 10
263.18431477082538
 20
249.11061170970561
 30
0.0
 40
1.460011199999999
 50
269.77524999999667
 51
90.224750000003354
  0
ARC
  5
AA70
  8
AM_0
 10
245.1243747708256
 20
306.50062170970563
 30
0.0
 40
1.0
 50
90.00000299999769
 51
180.00001000000091
  0
ARC
  5
AA71
  8
AM_0
 10
245.14433477082551
 20
306.64064170970562
 30
0.0
 40
1.5
 50
90.00000299999769
 51
180.00001000000091
  0
ARC
  5
AA72
  8
AM_0
 10
227.14433477082571
 20
306.64064170970562
 30
0.0
 40
1.5
 50
0.0
 51
90.00000299999769
  0
ARC
  5
AA73
  8
AM_0
 10
227.1643547708257
 20
306.50062170970563
 30
0.0
 40
1.0
 50
0.0
 51
90.00000299999769
  0
POLYLINE
  5
AA74
  8
AM_0
 66
     1
 10
0.0
 20
0.0
 30
0.0
  0
VERTEX
  5
AA75
  8
AM_0
 10
160.5043247708256
 20
274.14064170970562
 30
0.0
 42
0.00039106593
  0
VERTEX
  5
AA76
  8
AM_0
 10
160.50196477082551
 20
273.8295017097056
 30
0.0
 42
0.00040574899
  0
VERTEX
  5
AA77
  8
AM_0
 10
160.5000947708254
 20
273.51839170970561
 30
0.0
 42
0.0003534546
  0
VERTEX
  5
AA78
  8
AM_0
 10
160.4987047708255
 20
273.2072917097056
 30
0.0
 42
0.00034407327
  0
VERTEX
  5
AA79
  8
AM_0
 10
160.4977247708255
 20
272.89615170970558
 30
0.0
 42
0.00045699408
  0
VERTEX
  5
AA7A
  8
AM_0
 10
160.4972647708255
 20
272.58504170970571
 30
0.0
 42
0.00035571853
  0
VERTEX
  5
AA7B
  8
AM_0
 10
160.49730477082559
 20
272.27394170970558
 30
0.0
 42
0.00038547362
  0
VERTEX
  5
AA7C
  8
AM_0
 10
160.49779477082541
 20
271.9628017097055
 30
0.0
 42
0.00035501498
  0
VERTEX
  5
AA7D
  8
AM_0
 10
160.49875477082551
 20
271.65170170970549
 30
0.0
 42
0.00040118614
  0
VERTEX
  5
AA7E
  8
AM_0
 10
160.5001747708254
 20
271.34046170970549
 30
0.0
 42
0.00038319871
  0
VERTEX
  5
AA7F
  8
AM_0
 10
160.50208477082541
 20
271.02933170970562
 30
0.0
 42
0.00040742136
  0
VERTEX
  5
AA80
  8
AM_0
 10
160.50448477082571
 20
270.71810170970559
 30
0.0
 42
0.0003578071
  0
VERTEX
  5
AA81
  8
AM_0
 10
160.50737477082541
 20
270.40699170970549
 30
0.0
  0
SEQEND
  5
AA82
  8
AM_0
  0
POLYLINE
  5
AA83
  8
AM_0
 66
     1
 10
0.0
 20
0.0
 30
0.0
  0
VERTEX
  5
AA84
  8
AM_0
 10
160.54838477082541
 20
267.87025170970571
 30
0.0
 42
0.00076695232
  0
VERTEX
  5
AA85
  8
AM_0
 10
160.56318477082539
 20
267.25249170970562
 30
0.0
 42
0.00073263044
  0
VERTEX
  5
AA86
  8
AM_0
 10
160.5798247708257
 20
266.63489170970558
 30
0.0
 42
0.0007652599
  0
VERTEX
  5
AA87
  8
AM_0
 10
160.59831477082551
 20
266.0172217097055
 30
0.0
 42
0.00075144485
  0
VERTEX
  5
AA88
  8
AM_0
 10
160.61868477082569
 20
265.39962170970563
 30
0.0
 42
0.00078594403
  0
VERTEX
  5
AA89
  8
AM_0
 10
160.64093477082551
 20
264.78219170970561
 30
0.0
 42
0.00073349202
  0
VERTEX
  5
AA8A
  8
AM_0
 10
160.66508477082539
 20
264.16481170970542
 30
0.0
 42
0.0007358075
  0
VERTEX
  5
AA8B
  8
AM_0
 10
160.69102477082541
 20
263.5474117097055
 30
0.0
 42
0.00078592699
  0
VERTEX
  5
AA8C
  8
AM_0
 10
160.7188547708254
 20
262.93002170970561
 30
0.0
 42
0.00074823144
  0
VERTEX
  5
AA8D
  8
AM_0
 10
160.7485847708254
 20
262.31263170970573
 30
0.0
 42
0.00074896603
  0
VERTEX
  5
AA8E
  8
AM_0
 10
160.7801447708255
 20
261.69550170970558
 30
0.0
 42
0.00076039765
  0
VERTEX
  5
AA8F
  8
AM_0
 10
160.81356477082571
 20
261.07847170970558
 30
0.0
 42
0.00075616128
  0
VERTEX
  5
AA90
  8
AM_0
 10
160.8488647708254
 20
260.46144170970558
 30
0.0
  0
SEQEND
  5
AA91
  8
AM_0
  0
POLYLINE
  5
AA92
  8
AM_0
 66
     1
 10
0.0
 20
0.0
 30
0.0
  0
VERTEX
  5
AA93
  8
AM_0
 10
161.02257477082551
 20
257.80006170970557
 30
0.0
 42
0.00073721992
  0
VERTEX
  5
AA94
  8
AM_0
 10
161.0667247708254
 20
257.19765170970561
 30
0.0
 42
0.00074398496
  0
VERTEX
  5
AA95
  8
AM_0
 10
161.1126547708254
 20
256.59538170970552
 30
0.0
 42
0.00073322625
  0
VERTEX
  5
AA96
  8
AM_0
 10
161.1603847708254
 20
255.99305170970561
 30
0.0
 42
0.00073594289
  0
VERTEX
  5
AA97
  8
AM_0
 10
161.2098647708255
 20
255.3910617097057
 30
0.0
 42
0.00074742568
  0
VERTEX
  5
AA98
  8
AM_0
 10
161.26113477082541
 20
254.78920170970571
 30
0.0
 42
0.00073216749
  0
VERTEX
  5
AA99
  8
AM_0
 10
161.31419477082559
 20
254.18739170970559
 30
0.0
 42
0.00074184065
  0
VERTEX
  5
AA9A
  8
AM_0
 10
161.3690147708254
 20
253.58586170970571
 30
0.0
 42
0.00072077528
  0
VERTEX
  5
AA9B
  8
AM_0
 10
161.4255947708256
 20
252.9846317097057
 30
0.0
 42
0.00074978179
  0
VERTEX
  5
AA9C
  8
AM_0
 10
161.48393477082541
 20
252.38343170970549
 30
0.0
 42
0.00074288888
  0
VERTEX
  5
AA9D
  8
AM_0
 10
161.54408477082541
 20
251.7824117097056
 30
0.0
 42
0.00072503679
  0
VERTEX
  5
AA9E
  8
AM_0
 10
161.6059947708255
 20
251.1816717097054
 30
0.0
 42
0.00074640584
  0
VERTEX
  5
AA9F
  8
AM_0
 10
161.66966477082539
 20
250.58107170970561
 30
0.0
  0
SEQEND
  5
AAA0
  8
AM_0
  0
POLYLINE
  5
AAA1
  8
AM_0
 66
     1
 10
0.0
 20
0.0
 30
0.0
  0
VERTEX
  5
AAA2
  8
AM_0
 10
162.0052347708255
 20
247.65760170970569
 30
0.0
 42
0.0006890001
  0
VERTEX
  5
AAA3
  8
AM_0
 10
162.0761147708254
 20
247.08285170970541
 30
0.0
 42
0.00070644651
  0
VERTEX
  5
AAA4
  8
AM_0
 10
162.1486147708255
 20
246.50817170970549
 30
0.0
 42
0.0006924559
  0
VERTEX
  5
AAA5
  8
AM_0
 10
162.2227047708256
 20
245.93385170970561
 30
0.0
 42
0.00069587797
  0
VERTEX
  5
AAA6
  8
AM_0
 10
162.29838477082549
 20
245.35971170970561
 30
0.0
 42
0.00071687041
  0
VERTEX
  5
AAA7
  8
AM_0
 10
162.37569477082539
 20
244.7857117097054
 30
0.0
 42
0.00069759113
  0
VERTEX
  5
AAA8
  8
AM_0
 10
162.45463477082541
 20
244.21192170970559
 30
0.0
 42
0.00071003142
  0
VERTEX
  5
AAA9
  8
AM_0
 10
162.53517477082551
 20
243.63845170970529
 30
0.0
 42
0.00069954544
  0
VERTEX
  5
AAAA
  8
AM_0
 10
162.6173147708254
 20
243.0653517097056
 30
0.0
 42
0.0007188852
  0
VERTEX
  5
AAAB
  8
AM_0
 10
162.70109477082551
 20
242.49232170970549
 30
0.0
 42
0.00071266165
  0
VERTEX
  5
AAAC
  8
AM_0
 10
162.78652477082551
 20
241.9195617097055
 30
0.0
 42
0.00071614577
  0
VERTEX
  5
AAAD
  8
AM_0
 10
162.87355477082551
 20
241.34721170970559
 30
0.0
 42
0.00072290806
  0
VERTEX
  5
AAAE
  8
AM_0
 10
162.96226477082541
 20
240.77491170970561
 30
0.0
  0
SEQEND
  5
AAAF
  8
AM_0
  0
POLYLINE
  5
AAB0
  8
AM_0
 66
     1
 10
0.0
 20
0.0
 30
0.0
  0
VERTEX
  5
AAB1
  8
AM_0
 10
160.5043247708256
 20
274.14064170970562
 30
0.0
 42
-0.00039106653
  0
VERTEX
  5
AAB2
  8
AM_0
 10
160.50196477082551
 20
274.45177170970561
 30
0.0
 42
-0.00040574511
  0
VERTEX
  5
AAB3
  8
AM_0
 10
160.5000947708254
 20
274.7628817097056
 30
0.0
 42
-0.00035346331
  0
VERTEX
  5
AAB4
  8
AM_0
 10
160.4987047708255
 20
275.07399170970558
 30
0.0
 42
-0.00034406545
  0
VERTEX
  5
AAB5
  8
AM_0
 10
160.4977247708255
 20
275.38513170970572
 30
0.0
 42
-0.00045699059
  0
VERTEX
  5
AAB6
  8
AM_0
 10
160.4972647708255
 20
275.6962317097055
 30
0.0
 42
-0.00035573431
  0
VERTEX
  5
AAB7
  8
AM_0
 10
160.49730477082559
 20
276.00733170970562
 30
0.0
 42
-0.00038545888
  0
VERTEX
  5
AAB8
  8
AM_0
 10
160.49779477082541
 20
276.31847170970548
 30
0.0
 42
-0.00035501203
  0
VERTEX
  5
AAB9
  8
AM_0
 10
160.49875477082551
 20
276.62958170970558
 30
0.0
 42
-0.00040120778
  0
VERTEX
  5
AABA
  8
AM_0
 10
160.5001747708254
 20
276.9408117097056
 30
0.0
 42
-0.00038317821
  0
VERTEX
  5
AABB
  8
AM_0
 10
160.50208477082541
 20
277.25194170970559
 30
0.0
 42
-0.00040741862
  0
VERTEX
  5
AABC
  8
AM_0
 10
160.50448477082571
 20
277.56317170970561
 30
0.0
 42
-0.00035783324
  0
VERTEX
  5
AABD
  8
AM_0
 10
160.50737477082541
 20
277.8742817097056
 30
0.0
  0
SEQEND
  5
AABE
  8
AM_0
  0
POLYLINE
  5
AABF
  8
AM_0
 66
     1
 10
0.0
 20
0.0
 30
0.0
  0
VERTEX
  5
AAC0
  8
AM_0
 10
160.54838477082541
 20
280.41102170970561
 30
0.0
 42
-0.00076691987
  0
VERTEX
  5
AAC1
  8
AM_0
 10
160.56318477082539
 20
281.02878170970558
 30
0.0
 42
-0.00073262795
  0
VERTEX
  5
AAC2
  8
AM_0
 10
160.5798247708257
 20
281.64638170970551
 30
0.0
 42
-0.0007652954
  0
VERTEX
  5
AAC3
  8
AM_0
 10
160.59831477082551
 20
282.2640517097056
 30
0.0
 42
-0.00077334627
  0
VERTEX
  5
AAC4
  8
AM_0
 10
160.61872477082571
 20
282.88165170970558
 30
0.0
 42
-0.00073282897
  0
VERTEX
  5
AAC5
  8
AM_0
 10
160.64098477082541
 20
283.49907170970562
 30
0.0
 42
-0.0007571179
  0
VERTEX
  5
AAC6
  8
AM_0
 10
160.66508477082539
 20
284.11659170970557
 30
0.0
 42
-0.00073783152
  0
VERTEX
  5
AAC7
  8
AM_0
 10
160.69102477082541
 20
284.73398170970552
 30
0.0
 42
-0.0007835518
  0
VERTEX
  5
AAC8
  8
AM_0
 10
160.7188547708254
 20
285.35125170970571
 30
0.0
 42
-0.00074826133
  0
VERTEX
  5
AAC9
  8
AM_0
 10
160.7485847708254
 20
285.96864170970559
 30
0.0
 42
-0.00074893555
  0
VERTEX
  5
AACA
  8
AM_0
 10
160.7801447708255
 20
286.58577170970551
 30
0.0
 42
-0.00076039841
  0
VERTEX
  5
AACB
  8
AM_0
 10
160.81356477082571
 20
287.20280170970562
 30
0.0
 42
-0.00075618789
  0
VERTEX
  5
AACC
  8
AM_0
 10
160.8488647708254
 20
287.81983170970551
 30
0.0
  0
SEQEND
  5
AACD
  8
AM_0
  0
POLYLINE
  5
AACE
  8
AM_0
 66
     1
 10
0.0
 20
0.0
 30
0.0
  0
VERTEX
  5
AACF
  8
AM_0
 10
161.02257477082551
 20
290.48121170970569
 30
0.0
 42
-0.0007337051
  0
VERTEX
  5
AAD0
  8
AM_0
 10
161.06671477082571
 20
291.0836217097056
 30
0.0
 42
-0.00075211323
  0
VERTEX
  5
AAD1
  8
AM_0
 10
161.1126547708254
 20
291.68602170970559
 30
0.0
 42
-0.0007297491
  0
VERTEX
  5
AAD2
  8
AM_0
 10
161.1603847708254
 20
292.28822170970562
 30
0.0
 42
-0.00073593041
  0
VERTEX
  5
AAD3
  8
AM_0
 10
161.2098647708255
 20
292.89021170970562
 30
0.0
 42
-0.00074742739
  0
VERTEX
  5
AAD4
  8
AM_0
 10
161.26113477082541
 20
293.4920717097055
 30
0.0
 42
-0.00073217363
  0
VERTEX
  5
AAD5
  8
AM_0
 10
161.31419477082559
 20
294.09388170970573
 30
0.0
 42
-0.00073754168
  0
VERTEX
  5
AAD6
  8
AM_0
 10
161.3690147708254
 20
294.69542170970561
 30
0.0
 42
-0.00073075073
  0
VERTEX
  5
AAD7
  8
AM_0
 10
161.4255947708256
 20
295.29677170970558
 30
0.0
 42
-0.00074550816
  0
VERTEX
  5
AAD8
  8
AM_0
 10
161.48393477082541
 20
295.89784170970569
 30
0.0
 42
-0.00074288416
  0
VERTEX
  5
AAD9
  8
AM_0
 10
161.54408477082541
 20
296.49886170970569
 30
0.0
 42
-0.00072504001
  0
VERTEX
  5
AADA
  8
AM_0
 10
161.6059947708255
 20
297.09960170970561
 30
0.0
 42
-0.00074640667
  0
VERTEX
  5
AADB
  8
AM_0
 10
161.66966477082539
 20
297.70021170970551
 30
0.0
  0
SEQEND
  5
AADC
  8
AM_0
  0
POLYLINE
  5
AADD
  8
AM_0
 66
     1
 10
0.0
 20
0.0
 30
0.0
  0
VERTEX
  5
AADE
  8
AM_0
 10
162.0052347708255
 20
300.62367170970572
 30
0.0
 42
-0.00068898283
  0
VERTEX
  5
AADF
  8
AM_0
 10
162.0761147708254
 20
301.19842170970571
 30
0.0
 42
-0.00070644357
  0
VERTEX
  5
AAE0
  8
AM_0
 10
162.1486147708255
 20
301.77311170970557
 30
0.0
 42
-0.00069248074
  0
VERTEX
  5
AAE1
  8
AM_0
 10
162.2227047708256
 20
302.3474217097056
 30
0.0
 42
-0.0006958566
  0
VERTEX
  5
AAE2
  8
AM_0
 10
162.29838477082549
 20
302.92156170970571
 30
0.0
 42
-0.00071687219
  0
VERTEX
  5
AAE3
  8
AM_0
 10
162.37569477082539
 20
303.49556170970561
 30
0.0
 42
-0.00069760022
  0
VERTEX
  5
AAE4
  8
AM_0
 10
162.45463477082541
 20
304.06935170970559
 30
0.0
 42
-0.00071002302
  0
VERTEX
  5
AAE5
  8
AM_0
 10
162.53517477082551
 20
304.64282170970557
 30
0.0
 42
-0.00069954889
  0
VERTEX
  5
AAE6
  8
AM_0
 10
162.6173147708254
 20
305.21592170970558
 30
0.0
 42
-0.00071887947
  0
VERTEX
  5
AAE7
  8
AM_0
 10
162.70109477082551
 20
305.78895170970571
 30
0.0
 42
-0.00071266929
  0
VERTEX
  5
AAE8
  8
AM_0
 10
162.78652477082551
 20
306.36172170970542
 30
0.0
 42
-0.00071614429
  0
VERTEX
  5
AAE9
  8
AM_0
 10
162.87355477082551
 20
306.93406170970542
 30
0.0
 42
-0.00072288978
  0
VERTEX
  5
AAEA
  8
AM_0
 10
162.96226477082541
 20
307.50636170970557
 30
0.0
  0
SEQEND
  5
AAEB
  8
AM_0
  0
LINE
  5
AAEC
  8
AM_0
 10
150.64433477082559
 20
327.14064170970579
 30
0.0
 11
150.64433477082531
 21
221.1406417097057
 31
0.0
  0
LINE
  5
AAED
  8
AM_0
 10
150.64433477082531
 20
221.1406417097057
 30
0.0
 11
158.14433477082551
 21
221.1406417097057
 31
0.0
  0
LINE
  5
AAEE
  8
AM_0
 10
150.84434477082539
 20
230.9507017097057
 30
0.0
 11
157.0743247708254
 21
230.9507017097057
 31
0.0
  0
LINE
  5
AAEF
  8
AM_0
 10
150.84434477082539
 20
317.33058170970571
 30
0.0
 11
157.0743247708254
 21
317.33058170970571
 31
0.0
  0
LINE
  5
AAF0
  8
AM_0
 10
150.64433477082559
 20
327.14064170970579
 30
0.0
 11
158.14433477082559
 21
327.14064170970579
 31
0.0
  0
LINE
  5
AAF1
  8
AM_0
 10
142.64433477082639
 20
222.07923820093379
 30
0.0
 11
142.64433477082599
 21
259.80152511569111
 31
0.0
  0
LINE
  5
AAF2
  8
AM_0
 10
133.64433477082559
 20
220.1406417097059
 30
0.0
 11
133.64433477082559
 21
328.1406417097059
 31
0.0
  0
LINE
  5
AAF3
  8
AM_0
 10
133.64433477082559
 20
220.1406417097057
 30
0.0
 11
150.64433477082551
 21
221.1406417097057
 31
0.0
  0
LINE
  5
AAF4
  8
AM_0
 10
133.64433477082559
 20
328.14064170970568
 30
0.0
 11
150.64433477082551
 21
327.14064170970579
 31
0.0
  0
LINE
  5
AAF5
  8
AM_0
 10
142.64433477082619
 20
230.54673851161431
 30
0.0
 11
150.64433477082551
 21
230.54673851161439
 31
0.0
  0
LINE
  5
AAF6
  8
AM_0
 10
142.64433477082639
 20
222.07923820093379
 30
0.0
 11
150.64433477082551
 21
222.07923820093379
 31
0.0
  0
LINE
  5
AAF7
  8
AM_0
 10
139.1443347708263
 20
239.49976874444559
 30
0.0
 11
142.64433477082619
 21
239.49976874444559
 31
0.0
  0
LINE
  5
AAF8
  8
AM_0
 10
139.1443347708263
 20
230.99976874444559
 30
0.0
 11
142.64433477082639
 21
230.99976874444559
 31
0.0
  0
LINE
  5
AAF9
  8
AM_0
 10
138.64433477082619
 20
231.49976874444559
 30
0.0
 11
138.64433477082619
 21
238.9997687444457
 31
0.0
  0
ARC
  5
AAFA
  8
AM_0
 10
139.1443347708263
 20
231.49976874444559
 30
0.0
 40
0.5
 50
180.0
 51
270.0
  0
ARC
  5
AAFB
  8
AM_0
 10
139.1443347708263
 20
238.9997687444457
 30
0.0
 40
0.5
 50
90.0
 51
180.0
  0
LINE
  5
AAFC
  8
AM_0
 10
133.64433477082559
 20
231.86844721656561
 30
0.0
 11
138.64433477082619
 21
231.8684472165655
 31
0.0
  0
LINE
  5
AAFD
  8
AM_0
 10
133.64433477082559
 20
241.60352971486159
 30
0.0
 11
142.64433477082611
 21
241.60352971486171
 31
0.0
  0
LINE
  5
AAFE
  8
AM_0
 10
142.64433477082639
 20
326.20204521847791
 30
0.0
 11
142.64433477082599
 21
288.47975830372508
 31
0.0
  0
LINE
  5
AAFF
  8
AM_0
 10
142.64433477082619
 20
317.73454490779721
 30
0.0
 11
150.64433477082551
 21
317.73454490779721
 31
0.0
  0
LINE
  5
AB00
  8
AM_0
 10
142.64433477082639
 20
326.20204521847791
 30
0.0
 11
150.64433477082551
 21
326.20204521847791
 31
0.0
  0
LINE
  5
AB01
  8
AM_0
 10
139.1443347708263
 20
308.78151467496588
 30
0.0
 11
142.64433477082619
 21
308.78151467496588
 31
0.0
  0
LINE
  5
AB02
  8
AM_0
 10
139.1443347708263
 20
317.28151467496588
 30
0.0
 11
142.64433477082639
 21
317.28151467496588
 31
0.0
  0
LINE
  5
AB03
  8
AM_0
 10
138.64433477082619
 20
316.78151467496599
 30
0.0
 11
138.64433477082619
 21
309.28151467496588
 31
0.0
  0
ARC
  5
AB04
  8
AM_0
 10
139.1443347708263
 20
316.78151467496582
 30
0.0
 40
0.5
 50
90.0
 51
180.0
  0
ARC
  5
AB05
  8
AM_0
 10
139.1443347708263
 20
309.28151467496582
 30
0.0
 40
0.5
 50
180.0
 51
270.0
  0
LINE
  5
AB06
  8
AM_0
 10
133.64433477082559
 20
316.41283620284588
 30
0.0
 11
138.64433477082619
 21
316.41283620284599
 31
0.0
  0
LINE
  5
AB07
  8
AM_0
 10
133.64433477082559
 20
306.67775370455001
 30
0.0
 11
142.64433477082611
 21
306.67775370455001
 31
0.0
  0
LINE
  5
AB08
  8
AM_0
 10
127.64433477082549
 20
328.14064170970602
 30
0.0
 11
127.64433477082549
 21
220.1406417097057
 31
0.0
  0
LINE
  5
AB09
  8
AM_0
 10
133.64433477082559
 20
220.1406417097057
 30
0.0
 11
127.64433477082549
 21
220.1406417097057
 31
0.0
  0
LINE
  5
AB0A
  8
AM_0
 10
127.64433477082549
 20
328.14064170970602
 30
0.0
 11
133.6443347708254
 21
328.14064170970602
 31
0.0
  0
LINE
  5
AB0B
  8
AM_0
 10
126.64433477082549
 20
270.34064170970572
 30
0.0
 11
126.64433477082549
 21
277.94064170970569
 31
0.0
  0
LINE
  5
AB0C
  8
AM_0
 10
126.64433477082549
 20
277.94064170970569
 30
0.0
 11
127.64433477082549
 21
277.94064170970569
 31
0.0
  0
LINE
  5
AB0D
  8
AM_0
 10
127.64433477082549
 20
274.34064170970572
 30
0.0
 11
126.64433477082549
 21
274.70461194397188
 31
0.0
  0
LINE
  5
AB0E
  8
AM_0
 10
127.64433477082549
 20
273.94064170970569
 30
0.0
 11
126.64433477082549
 21
274.30461194397208
 31
0.0
  0
LINE
  5
AB0F
  8
AM_0
 10
127.64433477082549
 20
270.34064170970572
 30
0.0
 11
126.64433477082549
 21
270.34064170970572
 31
0.0
  0
LINE
  5
AB10
  8
AM_0
 10
125.5853972586974
 20
278.04799668201241
 30
0.0
 11
126.64433477082549
 21
278.14064170970568
 31
0.0
  0
LINE
  5
AB11
  8
AM_0
 10
125.5853972586974
 20
270.23328673739928
 30
0.0
 11
126.64433477082549
 21
270.14064170970568
 31
0.0
  0
ARC
  5
AB12
  8
AM_0
 10
130.04433477082549
 20
274.14064170970568
 30
0.0
 40
6.5
 50
151.82726586813479
 51
208.1727341318651
  0
ARC
  5
AB13
  8
AM_0
 10
125.724846447094
 20
271.827198254346
 30
0.0
 40
1.6000000000000001
 50
208.1727341318651
 51
265.00000000000028
  0
ARC
  5
AB14
  8
AM_0
 10
125.724846447094
 20
276.45408516506541
 30
0.0
 40
1.6000000000000001
 50
94.999999999999716
 51
151.82726586813479
  0
LINE
  5
AB15
  8
AM_0
 10
126.64433477082549
 20
270.14064170970568
 30
0.0
 11
126.64433477082549
 21
278.14064170970568
 31
0.0
  0
LINE
  5
AB16
  8
AM_0
 10
150.64433477082551
 20
259.80152511569122
 30
0.0
 11
142.64433477082611
 21
259.80152511569122
 31
0.0
  0
LINE
  5
AB17
  8
AM_0
 10
150.64433477082531
 20
288.47975830372508
 30
0.0
 11
142.64433477082591
 21
288.47975830372508
 31
0.0
  0
LINE
  5
AB18
  8
AM_0
 10
113.144334770825
 20
240.1406417097069
 30
0.0
 11
113.144334770825
 21
229.1406417097057
 31
0.0
  0
LINE
  5
AB19
  8
AM_0
 10
127.644334770825
 20
229.1406417097057
 30
0.0
 11
113.144334770825
 21
229.14064170970599
 31
0.0
  0
LINE
  5
AB1A
  8
AM_0
 10
101.1443347708254
 20
234.14064170970681
 30
0.0
 11
101.1443347708252
 21
231.1406417097069
 31
0.0
  0
LINE
  5
AB1B
  8
AM_0
 10
101.1443347708252
 20
231.1406417097069
 30
0.0
 11
113.144334770825
 21
231.1406417097069
 31
0.0
  0
LINE
  5
AB1C
  8
AM_0
 10
101.144334770825
 20
232.14064170970701
 30
0.0
 11
101.144334770825
 21
234.31831011585359
 31
0.0
  0
LINE
  5
AB1D
  8
AM_0
 10
95.644334770825026
 20
234.14064170970701
 30
0.0
 11
96.544334770825131
 21
234.14064170970701
 31
0.0
  0
LINE
  5
AB1E
  8
AM_0
 10
95.444334770824753
 20
237.14064170970701
 30
0.0
 11
95.444334770824753
 21
234.14064170970701
 31
0.0
  0
LINE
  5
AB1F
  8
AM_0
 10
96.544334770825131
 20
233.8682899751233
 30
0.0
 11
96.544334770825131
 21
237.41299344429069
 31
0.0
  0
LINE
  5
AB20
  8
AM_0
 10
95.144334770825026
 20
236.840641709707
 30
0.0
 11
96.544334770823284
 21
236.840641709707
 31
0.0
  0
LINE
  5
AB21
  8
AM_0
 10
100.5443347708251
 20
233.25907184929989
 30
0.0
 11
100.5443347708251
 21
232.14064170970701
 31
0.0
  0
LINE
  5
AB22
  8
AM_0
 10
100.5443347708251
 20
234.14064170970701
 30
0.0
 11
100.5443347708251
 21
234.0406417097069
 31
0.0
  0
LINE
  5
AB23
  8
AM_0
 10
100.5443347708251
 20
234.0406417097069
 30
0.0
 11
100.5443347708251
 21
233.25907184929989
 31
0.0
  0
LINE
  5
AB24
  8
AM_0
 10
100.5443347708251
 20
234.14064170970701
 30
0.0
 11
100.5443347708251
 21
234.0406417097069
 31
0.0
  0
LINE
  5
AB25
  8
AM_0
 10
100.5443347708251
 20
234.52440438603659
 30
0.0
 11
100.5443347708251
 21
233.25907184929989
 31
0.0
  0
LINE
  5
AB26
  8
AM_0
 10
100.5443347708251
 20
232.14064170970701
 30
0.0
 11
101.144334770825
 21
232.14064170970701
 31
0.0
  0
LINE
  5
AB27
  8
AM_0
 10
97.844334770825284
 20
233.25907184929989
 30
0.0
 11
97.844334770825284
 21
236.69060304170009
 31
0.0
  0
LINE
  5
AB28
  8
AM_0
 10
97.683290541567644
 20
232.97238022095681
 30
0.0
 11
96.75073749206058
 21
233.5107899751234
 31
0.0
  0
LINE
  5
AB29
  8
AM_0
 10
98.116786362855706
 20
232.4652152291641
 30
0.0
 11
100.2718831787947
 21
232.4652152291641
 31
0.0
  0
LINE
  5
AB2A
  8
AM_0
 10
98.116786362855706
 20
234.0529284694355
 30
0.0
 11
100.2718831787947
 21
234.0529284694357
 31
0.0
  0
LINE
  5
AB2B
  8
AM_0
 10
96.544334770823781
 20
237.14064170970701
 30
0.0
 11
95.444334770824753
 21
237.14064170970701
 31
0.0
  0
LINE
  5
AB2C
  8
AM_0
 10
95.444334770824753
 20
237.14064170970701
 30
0.0
 11
95.144334770825026
 21
236.840641709707
 31
0.0
  0
LINE
  5
AB2D
  8
AM_0
 10
95.144334770825026
 20
236.840641709707
 30
0.0
 11
95.144334770825026
 21
234.44064170970691
 31
0.0
  0
LINE
  5
AB2E
  8
AM_0
 10
95.444334770824753
 20
234.14064170970701
 30
0.0
 11
96.544334770823284
 21
234.14064170970701
 31
0.0
  0
LINE
  5
AB2F
  8
AM_0
 10
95.144334770825026
 20
234.44064170970691
 30
0.0
 11
95.444334770824753
 21
234.14064170970701
 31
0.0
  0
LINE
  5
AB30
  8
AM_0
 10
96.544334770823284
 20
234.44064170970691
 30
0.0
 11
95.144334770825026
 21
234.44064170970691
 31
0.0
  0
ARC
  5
AB31
  8
AM_0
 10
99.251557954798585
 20
233.25907184929989
 30
0.0
 40
1.292776816026465
 50
322.11555894629771
 51
0.0
  0
ARC
  5
AB32
  8
AM_0
 10
102.6067646468848
 20
235.64064170970701
 30
0.0
 40
4.762429876059711
 50
168.45024695876941
 51
199.47424000541329
  0
ARC
  5
AB33
  8
AM_0
 10
99.137111586851745
 20
233.25907184929989
 30
0.0
 40
1.292776816026554
 50
142.1155589462976
 51
217.88444105370229
  0
ARC
  5
AB34
  8
AM_0
 10
95.781904894765674
 20
235.64064170970701
 30
0.0
 40
4.762429876059584
 50
340.52575999458668
 51
347.08714779821958
  0
ARC
  5
AB35
  8
AM_0
 10
99.251557954798585
 20
233.25907184929989
 30
0.0
 40
1.292776816026501
 50
0.0
 51
37.884441053702282
  0
ARC
  5
AB36
  8
AM_0
 10
96.957140213295645
 20
233.8682899751233
 30
0.0
 40
0.4128054424705855
 50
180.0
 51
239.99999999999949
  0
ARC
  5
AB37
  8
AM_0
 10
97.270485099097229
 20
232.25738022095689
 30
0.0
 40
0.8256108849411369
 50
28.217424594175291
 51
59.999999999999439
  0
LINE
  5
AB38
  8
AM_0
 10
96.759427303348275
 20
237.77551050917691
 30
0.0
 11
96.75073749206058
 21
237.77049344429071
 31
0.0
  0
ARC
  5
AB39
  8
AM_0
 10
96.957140213295872
 20
237.41299344429081
 30
0.0
 40
0.4128054424705855
 50
119.9999999999916
 51
179.99999999999341
  0
CIRCLE
  5
AB3A
  8
AM_0
 10
99.144296102819297
 20
274.14064170970607
 30
0.0
 40
5.5
  0
LINE
  5
AB3B
  8
AM_0
 10
93.644296102819226
 20
270.96521522916311
 30
0.0
 11
99.144296102819695
 21
267.78978874862003
 31
0.0
  0
LINE
  5
AB3C
  8
AM_0
 10
99.144296102819695
 20
267.78978874862003
 30
0.0
 11
104.6442961028192
 21
270.96521522916328
 31
0.0
  0
LINE
  5
AB3D
  8
AM_0
 10
104.6442961028192
 20
270.96521522916328
 30
0.0
 11
104.6442961028192
 21
277.31606819024898
 31
0.0
  0
LINE
  5
AB3E
  8
AM_0
 10
104.6442961028192
 20
277.31606819024898
 30
0.0
 11
99.144296102819212
 21
280.49149467079201
 31
0.0
  0
LINE
  5
AB3F
  8
AM_0
 10
99.144296102819212
 20
280.49149467079201
 30
0.0
 11
93.644296102819226
 21
277.31606819024859
 31
0.0
  0
LINE
  5
AB40
  8
AM_0
 10
93.644296102819226
 20
277.31606819024859
 30
0.0
 11
93.644296102819226
 21
270.96521522916311
 31
0.0
  0
CIRCLE
  5
AB41
  8
AM_0
 10
99.144296102819297
 20
274.14064170970607
 30
0.0
 40
6.4999856554771771
  0
LINE
  5
AB42
  8
AM_0
 10
110.2095883331903
 20
240.14064170970681
 30
0.0
 11
113.144334770825
 21
240.14064170970681
 31
0.0
  0
LINE
  5
AB43
  8
AM_0
 10
111.1637568849783
 20
238.64064170970681
 30
0.0
 11
113.144334770825
 21
238.64064170970681
 31
0.0
  0
LINE
  5
AB44
  8
AM_0
 10
102.4653639146841
 20
234.14064170970681
 30
0.0
 11
113.144334770825
 21
234.14064170970681
 31
0.0
  0
ARC
  5
AB45
  8
AM_0
 10
102.46536391468391
 20
239.1406417097067
 30
0.0
 40
5.0
 50
225.0
 51
270.0
1001
GENIUS_GENODEF_13
1002
{
1000
HIER
1070
     0
1002
}
1002
{
1000
MANEDIT
1070
     0
1002
}
1002
{
1000
NOSEL
1070
     0
1002
}
1002
{
1000
BEHIND
1070
     0
1002
}
1002
{
1000
OTHER
1070
     0
1002
}
1002
{
1000
REACTOR
1002
}
1001
GENIUS_GENOBJ-N-FIL_13
1002
{
1000
OWNER
1000
GEN
1002
}
  0
LINE
  5
AB46
  8
AM_0
 10
111.163756884978
 20
234.14064170970681
 30
0.0
 11
111.1637568849783
 21
238.64064170970681
 31
0.0
  0
LINE
  5
AB47
  8
AM_0
 10
97.644296102819226
 20
267.81610113181353
 30
0.0
 11
97.644296102819425
 21
246.92866685599731
 31
0.0
  0
LINE
  5
AB48
  8
AM_0
 10
100.6442961028192
 20
267.81610113181353
 30
0.0
 11
100.6442961028192
 21
246.92866685599731
 31
0.0
  0
LINE
  5
AB49
  8
AM_0
 10
95.394296102819183
 20
268.83146912620413
 30
0.0
 11
95.394296102819183
 21
241.21170952157149
 31
0.0
  0
ARC
  5
AB4A
  8
AM_0
 10
100.3942961028193
 20
241.21170952157149
 30
0.0
 40
5.0
 50
180.0
 51
225.0
1001
GENIUS_GENOBJ-N-FIL_13
1002
{
1000
OWNER
1000
GEN
1002
}
1001
GENIUS_GENODEF_13
1002
{
1000
HIER
1070
     0
1002
}
1002
{
1000
MANEDIT
1070
     0
1002
}
1002
{
1000
NOSEL
1070
     0
1002
}
1002
{
1000
BEHIND
1070
     0
1002
}
1002
{
1000
OTHER
1070
     0
1002
}
1002
{
1000
REACTOR
1002
}
  0
LINE
  5
AB4B
  8
AM_0
 10
102.8942961028192
 20
268.83146912620413
 30
0.0
 11
102.8942961028192
 21
244.6715600529584
 31
0.0
  0
ARC
  5
AB4C
  8
AM_0
 10
107.8942961028193
 20
253.09616007903131
 30
0.0
 40
5.0
 50
180.0
 51
212.46094411514611
1001
GENIUS_GENODEF_13
1002
{
1000
HIER
1070
     0
1002
}
1002
{
1000
MANEDIT
1070
     0
1002
}
1002
{
1000
NOSEL
1070
     0
1002
}
1002
{
1000
BEHIND
1070
     0
1002
}
1002
{
1000
OTHER
1070
     0
1002
}
1002
{
1000
REACTOR
1002
}
1001
GENIUS_GENOBJ-N-FIL_13
1002
{
1000
OWNER
1000
GEN
1002
}
  0
ARC
  5
AB4D
  8
AM_0
 10
107.8942961028193
 20
244.6715600529584
 30
0.0
 40
5.0
 50
180.0
 51
224.2123722808945
1001
GENIUS_GENOBJ-N-FIL_13
1002
{
1000
OWNER
1000
GEN
1002
}
1001
GENIUS_GENODEF_13
1002
{
1000
HIER
1070
     0
1002
}
1002
{
1000
MANEDIT
1070
     0
1002
}
1002
{
1000
NOSEL
1070
     0
1002
}
1002
{
1000
BEHIND
1070
     0
1002
}
1002
{
1000
OTHER
1070
     0
1002
}
1002
{
1000
REACTOR
1002
}
  0
LINE
  5
AB4E
  8
AM_0
 10
111.163756884978
 20
238.64064170970681
 30
0.0
 11
103.6755085920522
 21
250.4125371660657
 31
0.0
  0
LINE
  5
AB4F
  8
AM_0
 10
111.163756884978
 20
234.14064170970681
 30
0.0
 11
104.3104958669678
 21
241.18496058219739
 31
0.0
  0
LINE
  5
AB50
  8
AM_0
 10
96.858762196886559
 20
237.6761756156387
 30
0.0
 11
98.929830008751196
 21
235.6051078037741
 31
0.0
  0
ARC
  5
AB51
  8
AM_0
 10
99.144296102819297
 20
246.92866685599731
 30
0.0
 40
1.5
 50
180.0
 51
0.0
  0
LINE
  5
AB52
  8
AM_0
 10
113.14433477082549
 20
308.14064170970522
 30
0.0
 11
113.14433477082591
 21
319.14064170970607
 31
0.0
  0
LINE
  5
AB53
  8
AM_0
 10
127.64433477082591
 20
319.14064170970568
 30
0.0
 11
113.14433477082591
 21
319.14064170970607
 31
0.0
  0
LINE
  5
AB54
  8
AM_0
 10
101.14433477082611
 20
314.14064170970539
 30
0.0
 11
101.14433477082611
 21
317.14064170970539
 31
0.0
  0
LINE
  5
AB55
  8
AM_0
 10
101.14433477082611
 20
317.14064170970539
 30
0.0
 11
113.14433477082591
 21
317.14064170970522
 31
0.0
  0
LINE
  5
AB56
  8
AM_0
 10
101.14433477082591
 20
316.14064170970522
 30
0.0
 11
101.14433477082591
 21
313.96297330355878
 31
0.0
  0
LINE
  5
AB57
  8
AM_0
 10
95.644334770825935
 20
314.14064170970539
 30
0.0
 11
96.544334770825998
 21
314.14064170970539
 31
0.0
  0
LINE
  5
AB58
  8
AM_0
 10
95.444334770825634
 20
311.14064170970551
 30
0.0
 11
95.444334770825634
 21
314.14064170970551
 31
0.0
  0
LINE
  5
AB59
  8
AM_0
 10
96.544334770825998
 20
314.4129934442891
 30
0.0
 11
96.544334770825998
 21
310.86828997512168
 31
0.0
  0
LINE
  5
AB5A
  8
AM_0
 10
95.144334770825921
 20
311.4406417097054
 30
0.0
 11
96.544334770825799
 21
311.4406417097054
 31
0.0
  0
LINE
  5
AB5B
  8
AM_0
 10
100.544334770826
 20
315.02221157011252
 30
0.0
 11
100.544334770826
 21
316.14064170970539
 31
0.0
  0
LINE
  5
AB5C
  8
AM_0
 10
100.544334770826
 20
314.14064170970539
 30
0.0
 11
100.544334770826
 21
314.2406417097053
 31
0.0
  0
LINE
  5
AB5D
  8
AM_0
 10
100.544334770826
 20
314.2406417097053
 30
0.0
 11
100.544334770826
 21
315.02221157011252
 31
0.0
  0
LINE
  5
AB5E
  8
AM_0
 10
100.544334770826
 20
314.14064170970539
 30
0.0
 11
100.544334770826
 21
314.2406417097053
 31
0.0
  0
LINE
  5
AB5F
  8
AM_0
 10
100.544334770826
 20
313.7568790333757
 30
0.0
 11
100.544334770826
 21
315.02221157011252
 31
0.0
  0
LINE
  5
AB60
  8
AM_0
 10
100.544334770826
 20
316.14064170970539
 30
0.0
 11
101.14433477082591
 21
316.14064170970522
 31
0.0
  0
LINE
  5
AB61
  8
AM_0
 10
97.844334770826222
 20
315.02221157011252
 30
0.0
 11
97.844334770825995
 21
311.5906803777122
 31
0.0
  0
LINE
  5
AB62
  8
AM_0
 10
97.683290541568581
 20
315.3089031984556
 30
0.0
 11
96.750737492061475
 21
314.77049344428889
 31
0.0
  0
LINE
  5
AB63
  8
AM_0
 10
98.116786362856615
 20
315.8160681902483
 30
0.0
 11
100.2718831787956
 21
315.8160681902483
 31
0.0
  0
LINE
  5
AB64
  8
AM_0
 10
98.116786362856615
 20
314.2283549499769
 30
0.0
 11
100.2718831787956
 21
314.22835494997668
 31
0.0
  0
LINE
  5
AB65
  8
AM_0
 10
96.544334770825998
 20
311.14064170970551
 30
0.0
 11
95.444334770825634
 21
311.14064170970551
 31
0.0
  0
LINE
  5
AB66
  8
AM_0
 10
95.444334770825634
 20
311.14064170970551
 30
0.0
 11
95.144334770825921
 21
311.4406417097054
 31
0.0
  0
LINE
  5
AB67
  8
AM_0
 10
95.144334770825921
 20
311.4406417097054
 30
0.0
 11
95.144334770825921
 21
313.84064170970549
 31
0.0
  0
LINE
  5
AB68
  8
AM_0
 10
95.444334770825634
 20
314.14064170970551
 30
0.0
 11
96.544334770825998
 21
314.14064170970539
 31
0.0
  0
LINE
  5
AB69
  8
AM_0
 10
95.144334770825921
 20
313.84064170970549
 30
0.0
 11
95.444334770825634
 21
314.14064170970551
 31
0.0
  0
LINE
  5
AB6A
  8
AM_0
 10
96.544334770825998
 20
313.84064170970538
 30
0.0
 11
95.144334770825921
 21
313.84064170970549
 31
0.0
  0
ARC
  5
AB6B
  8
AM_0
 10
99.251557954799466
 20
315.02221157011252
 30
0.0
 40
1.292776816026465
 50
0.0
 51
37.884441053702282
  0
ARC
  5
AB6C
  8
AM_0
 10
102.60676464688549
 20
312.64064170970522
 30
0.0
 40
4.762429876059711
 50
160.52575999458671
 51
191.54975304123039
  0
ARC
  5
AB6D
  8
AM_0
 10
99.137111586852654
 20
315.02221157011252
 30
0.0
 40
1.292776816026554
 50
142.1155589462976
 51
217.88444105370229
  0
ARC
  5
AB6E
  8
AM_0
 10
95.781904894766384
 20
312.64064170970539
 30
0.0
 40
4.762429876059584
 50
12.912852201780369
 51
19.474240005413272
  0
ARC
  5
AB6F
  8
AM_0
 10
99.251557954799466
 20
315.02221157011252
 30
0.0
 40
1.292776816026501
 50
322.11555894629771
 51
0.0
  0
ARC
  5
AB70
  8
AM_0
 10
96.957140213296555
 20
314.41299344428887
 30
0.0
 40
0.4128054424705855
 50
120.0000000000005
 51
180.0
  0
ARC
  5
AB71
  8
AM_0
 10
97.270485099097925
 20
316.02390319845551
 30
0.0
 40
0.8256108849411369
 50
300.00000000000051
 51
331.78257540582467
  0
LINE
  5
AB72
  8
AM_0
 10
96.759427303349185
 20
310.50577291023552
 30
0.0
 11
96.750737492061475
 21
310.51078997512161
 31
0.0
  0
ARC
  5
AB73
  8
AM_0
 10
96.957140213296555
 20
310.86828997512163
 30
0.0
 40
0.4128054424705855
 50
180.00000000000659
 51
240.00000000000841
  0
LINE
  5
AB74
  8
AM_0
 10
110.20958833319121
 20
308.14064170970522
 30
0.0
 11
113.14433477082549
 21
308.14064170970522
 31
0.0
  0
LINE
  5
AB75
  8
AM_0
 10
111.1637568849788
 20
309.64064170970522
 30
0.0
 11
113.14433477082569
 21
309.64064170970511
 31
0.0
  0
LINE
  5
AB76
  8
AM_0
 10
102.465363914685
 20
314.14064170970539
 30
0.0
 11
113.14433477082569
 21
314.14064170970522
 31
0.0
  0
ARC
  5
AB77
  8
AM_0
 10
102.4653639146846
 20
309.14064170970539
 30
0.0
 40
5.0
 50
90.0
 51
135.0
1001
GENIUS_GENODEF_13
1002
{
1000
HIER
1070
     0
1002
}
1002
{
1000
MANEDIT
1070
     0
1002
}
1002
{
1000
NOSEL
1070
     0
1002
}
1002
{
1000
BEHIND
1070
     0
1002
}
1002
{
1000
OTHER
1070
     0
1002
}
1002
{
1000
REACTOR
1002
}
1001
GENIUS_GENOBJ-N-FIL_13
1002
{
1000
OWNER
1000
GEN
1002
}
  0
LINE
  5
AB78
  8
AM_0
 10
111.1637568849788
 20
314.14064170970522
 30
0.0
 11
111.1637568849788
 21
309.64064170970522
 31
0.0
  0
LINE
  5
AB79
  8
AM_0
 10
97.644296102819723
 20
280.46518228759879
 30
0.0
 11
97.644296102820135
 21
301.35261656341498
 31
0.0
  0
LINE
  5
AB7A
  8
AM_0
 10
100.6442961028194
 20
280.46518228759868
 30
0.0
 11
100.64429610282011
 21
301.35261656341498
 31
0.0
  0
LINE
  5
AB7B
  8
AM_0
 10
95.394296102819695
 20
279.44981429320831
 30
0.0
 11
95.394296102820135
 21
307.06957389784088
 31
0.0
  0
ARC
  5
AB7C
  8
AM_0
 10
100.39429610281989
 20
307.06957389784083
 30
0.0
 40
5.0
 50
135.0
 51
180.0
1001
GENIUS_GENOBJ-N-FIL_13
1002
{
1000
OWNER
1000
GEN
1002
}
1001
GENIUS_GENODEF_13
1002
{
1000
HIER
1070
     0
1002
}
1002
{
1000
MANEDIT
1070
     0
1002
}
1002
{
1000
NOSEL
1070
     0
1002
}
1002
{
1000
BEHIND
1070
     0
1002
}
1002
{
1000
OTHER
1070
     0
1002
}
1002
{
1000
REACTOR
1002
}
  0
LINE
  5
AB7D
  8
AM_0
 10
102.89429610281969
 20
279.44981429320808
 30
0.0
 11
102.89429610282011
 21
303.60972336645392
 31
0.0
  0
ARC
  5
AB7E
  8
AM_0
 10
107.89429610281969
 20
295.18512334038053
 30
0.0
 40
5.0
 50
147.53905588485381
 51
180.0
1001
GENIUS_GENODEF_13
1002
{
1000
HIER
1070
     0
1002
}
1002
{
1000
MANEDIT
1070
     0
1002
}
1002
{
1000
NOSEL
1070
     0
1002
}
1002
{
1000
BEHIND
1070
     0
1002
}
1002
{
1000
OTHER
1070
     0
1002
}
1002
{
1000
REACTOR
1002
}
1001
GENIUS_GENOBJ-N-FIL_13
1002
{
1000
OWNER
1000
GEN
1002
}
  0
ARC
  5
AB7F
  8
AM_0
 10
107.89429610281989
 20
303.60972336645381
 30
0.0
 40
5.0
 50
135.7876277191055
 51
180.0
1001
GENIUS_GENOBJ-N-FIL_13
1002
{
1000
OWNER
1000
GEN
1002
}
1001
GENIUS_GENODEF_13
1002
{
1000
HIER
1070
     0
1002
}
1002
{
1000
MANEDIT
1070
     0
1002
}
1002
{
1000
NOSEL
1070
     0
1002
}
1002
{
1000
BEHIND
1070
     0
1002
}
1002
{
1000
OTHER
1070
     0
1002
}
1002
{
1000
REACTOR
1002
}
  0
LINE
  5
AB80
  8
AM_0
 10
111.1637568849787
 20
309.64064170970522
 30
0.0
 11
103.67550859205259
 21
297.86874625334661
 31
0.0
  0
LINE
  5
AB81
  8
AM_0
 10
111.1637568849788
 20
314.14064170970522
 30
0.0
 11
104.31049586696869
 21
307.09632283721481
 31
0.0
  0
LINE
  5
AB82
  8
AM_0
 10
96.858762196887227
 20
310.60510780377371
 30
0.0
 11
98.929830008752106
 21
312.67617561563821
 31
0.0
  0
ARC
  5
AB83
  8
AM_0
 10
99.144296102819965
 20
301.35261656341498
 30
0.0
 40
1.5
 50
0.0
 51
180.0
  0
ARC
  5
AB84
  8
AM_0
 10
144.59513295768059
 20
203.1406417097057
 30
0.0
 40
20.0
 50
209.07393874564249
 51
249.9723572882591
1001
GENIUS_GENODEF_13
1002
{
1000
HIER
1070
     0
1002
}
1002
{
1000
MANEDIT
1070
     0
1002
}
1002
{
1000
NOSEL
1070
     0
1002
}
1002
{
1000
BEHIND
1070
     0
1002
}
1002
{
1000
OTHER
1070
     0
1002
}
1002
{
1000
REACTOR
1002
}
1001
GENIUS_GENOBJ-N-FIL_13
1002
{
1000
OWNER
1000
GEN
1002
}
  0
ARC
  5
AB85
  8
AM_0
 10
145.18330918632631
 20
204.1406417097057
 30
0.0
 40
15.0
 50
209.07393874564249
 51
240.27464366407139
1001
GENIUS_GENODEF_13
1002
{
1000
HIER
1070
     0
1002
}
1002
{
1000
MANEDIT
1070
     0
1002
}
1002
{
1000
NOSEL
1070
     0
1002
}
1002
{
1000
BEHIND
1070
     0
1002
}
1002
{
1000
OTHER
1070
     0
1002
}
1002
{
1000
REACTOR
1002
}
1001
GENIUS_GENOBJ-N-FIL_13
1002
{
1000
OWNER
1000
GEN
1002
}
  0
LINE
  5
AB86
  8
AM_0
 10
127.1152660662658
 20
193.42188389512791
 30
0.0
 11
106.1437406797279
 21
231.1406417097069
 31
0.0
  0
LINE
  5
AB87
  8
AM_0
 10
132.0734090177651
 20
196.8515733487724
 30
0.0
 11
114.1207760024425
 21
229.1406417097057
 31
0.0
  0
LINE
  5
AD62
  8
AM_0
 10
528.84476623083003
 20
277.34064170970561
 30
0.0
 11
515.11793908407583
 21
277.34064170970561
 31
0.0
  0
LINE
  5
AD63
  8
AM_0
 10
528.84476623083003
 20
270.94064170970569
 30
0.0
 11
515.11793908407583
 21
270.94064170970569
 31
0.0
  0
LINE
  5
AD64
  8
AM_0
 10
537.80168816899516
 20
270.14064170970551
 30
0.0
 11
537.80168816899516
 21
278.14064170970562
 31
0.0
  0
LINE
  5
AD65
  8
AM_0
 10
557.14892526406925
 20
278.14064170970562
 30
0.0
 11
537.80168816899516
 21
278.14064170970562
 31
0.0
  0
LINE
  5
AD66
  8
AM_0
 10
537.80168816899516
 20
278.14064170970562
 30
0.0
 11
528.84476623083003
 21
280.5406417097056
 31
0.0
  0
LINE
  5
AD67
  8
AM_0
 10
528.84476623083003
 20
280.5406417097056
 30
0.0
 11
515.11793908407583
 21
280.5406417097056
 31
0.0
  0
LINE
  5
AD68
  8
AM_0
 10
515.11793908407583
 20
267.74064170970559
 30
0.0
 11
528.84476623083003
 21
267.74064170970559
 31
0.0
  0
LINE
  5
AD69
  8
AM_0
 10
528.84476623083003
 20
267.74064170970559
 30
0.0
 11
537.80168816899516
 21
270.14064170970551
 31
0.0
  0
LINE
  5
AD6A
  8
AM_0
 10
537.80168816899516
 20
270.14064170970551
 30
0.0
 11
557.14892526406857
 21
270.14064170970551
 31
0.0
  0
ARC
  5
AD6B
  8
AM_0
 10
522.80168816899516
 20
274.14064170970562
 30
0.0
 40
9.9999999999999964
 50
140.20818050044261
 51
180.0
  0
ARC
  5
AD6C
  8
AM_0
 10
528.40601753652379
 20
269.34064170970549
 30
0.0
 40
1.659066127903009
 50
285.33458427584532
 51
74.665415724154698
  0
ARC
  5
AD6D
  8
AM_0
 10
525.25469964188517
 20
274.14064170970562
 30
0.0
 40
4.809218035507941
 50
318.28783710514517
 51
41.712162894854742
  0
ARC
  5
AD6E
  8
AM_0
 10
528.40629541017017
 20
278.94064170970569
 30
0.0
 40
1.658992664411161
 50
285.32532916095278
 51
74.674670839042378
  0
ARC
  5
AD6F
  8
AM_0
 10
525.33291997895833
 20
274.14064170970562
 30
0.0
 40
10.704477319459491
 50
162.60603189126641
 51
197.3939681087333
  0
ARC
  5
AD70
  8
AM_0
 10
517.48770448055006
 20
269.34064170970549
 30
0.0
 40
2.8593334947723461
 50
145.97386776511979
 51
214.02613223488021
  0
ARC
  5
AD71
  8
AM_0
 10
517.48463755914713
 20
278.94064170970569
 30
0.0
 40
2.856792199637066
 50
145.9394484817108
 51
214.06055151828909
  0
ARC
  5
AD72
  8
AM_0
 10
522.80168816899516
 20
274.14064170970562
 30
0.0
 40
10.0
 50
180.0
 51
219.79181949955739
  0
CIRCLE
  5
BA2E
  8
AM_0
 10
165.6443347708254
 20
228.14064170970559
 30
0.0
 40
3.0
  0
LINE
  5
BC7A
  8
AM_0
 10
435.42352625078081
 20
545.81658514985327
 30
0.0
 11
298.87735386952193
 21
545.81656980999844
 31
0.0
  0
LINE
  5
BC7B
  8
AM_0
 10
435.65044236936882
 20
532.81658476242274
 30
0.0
 11
298.65043775094512
 21
532.81658476242274
 31
0.0
  0
LINE
  5
BC7C
  8
AM_0
 10
434.55077351387632
 20
469.8165828848766
 30
0.0
 11
299.75010687418478
 21
469.8165828848766
 31
0.0
  0
LINE
  5
BC7D
  8
ﾁｭｳｼﾝｾﾝ
 10
85.516516866619028
 20
507.81660136173019
 30
0.0
 11
440.65044236936859
 21
507.81656051265668
 31
0.0
1001
GENIUS_GENODEF_13
1002
{
1000
HIER
1070
     0
1002
}
1002
{
1000
MANEDIT
1070
     0
1002
}
1002
{
1000
NOSEL
1070
     0
1002
}
1002
{
1000
BEHIND
1070
     0
1002
}
1002
{
1000
REACTOR
1002
}
1001
GENIUS_GENOBJ-N-CEN_13
1002
{
1000
OWNER
1000
GEN
1002
}
  0
LINE
  5
BD0C
  8
AM_0
 10
298.65043775094517
 20
532.81658476242274
 30
0.0
 11
299.75010714194292
 21
469.81656754502251
 31
0.0
  0
LINE
  5
BD0D
  8
ﾁｭｳｼﾝｾﾝ
 10
309.6504386142762
 20
548.81658514985281
 30
0.0
 11
309.6504386142762
 21
466.8165828848766
 31
0.0
  0
LINE
  5
BD0E
  8
ｶｸﾚｾﾝ2
 10
314.1504386142762
 20
545.81658514985327
 30
0.0
 11
314.1504386142762
 21
469.8165828848766
 31
0.0
  0
LINE
  5
BD0F
  8
ｶｸﾚｾﾝ2
 10
305.15043861427603
 20
545.81658514985327
 30
0.0
 11
305.15043861427603
 21
469.8165828848766
 31
0.0
  0
LINE
  5
BD10
  8
AM_0
 10
283.7819119463403
 20
452.28449548382127
 30
0.0
 11
283.78192720445469
 21
563.34867325629739
 31
0.0
  0
LINE
  5
BD11
  8
AM_0
 10
274.14433477082559
 20
451.81657396223193
 30
0.0
 11
274.14433477082559
 21
563.81659496223199
 31
0.0
  0
LINE
  5
BD12
  8
AM_0
 10
284.46596787930372
 20
562.1638779930114
 30
0.0
 11
289.70192076412093
 21
532.46928868952205
 31
0.0
1001
GENIUS_GENODEF_13
1002
{
1000
HIER
1070
     0
1002
}
1002
{
1000
MANEDIT
1070
     0
1002
}
1002
{
1000
NOSEL
1070
     0
1002
}
1002
{
1000
BEHIND
1070
     0
1002
}
1002
{
1000
REACTOR
1002
}
1001
GENIUS_GENOBJ-N-CEN_13
1002
{
1000
OWNER
1000
GEN
1002
}
  0
ARC
  5
BD13
  8
AM_0
 10
282.49635187523478
 20
561.81658446223184
 30
0.0
 40
2.0
 50
9.9999917840707582
 51
90.0
1001
GENIUS_GENOBJ-N-CEN_13
1002
{
1000
OWNER
1000
GEN
1002
}
1001
GENIUS_GENODEF_13
1002
{
1000
HIER
1070
     0
1002
}
1002
{
1000
MANEDIT
1070
     0
1002
}
1002
{
1000
NOSEL
1070
     0
1002
}
1002
{
1000
BEHIND
1070
     0
1002
}
1002
{
1000
OTHER
1070
     0
1002
}
1002
{
1000
REACTOR
1002
}
1001
GENIUS_GENOBJ-N-FIL_13
1002
{
1000
OWNER
1000
GEN
1002
}
  0
LINE
  5
BD14
  8
AM_0
 10
274.14433477082559
 20
563.81658446223184
 30
0.0
 11
282.49635187523478
 21
563.81658446223184
 31
0.0
  0
LINE
  5
BD15
  8
AM_0
 10
297.66774048782918
 20
530.81658476242308
 30
0.0
 11
291.67153631994597
 21
530.81658476242308
 31
0.0
  0
LINE
  5
BD16
  8
AM_0
 10
274.14433477082559
 20
553.81660996223195
 30
0.0
 11
283.78192589492681
 21
553.81658860325706
 31
0.0
  0
LINE
  5
BD17
  8
AM_0
 10
274.14433477082559
 20
539.75404196223201
 30
0.0
 11
283.78192396333873
 21
539.75651339412275
 31
0.0
  0
ARC
  5
BD18
  8
AM_0
 10
291.67153631994597
 20
532.81658476242274
 30
0.0
 40
2.0
 50
189.99999178407069
 51
270.0
1001
GENIUS_GENODEF_13
1002
{
1000
HIER
1070
     0
1002
}
1002
{
1000
MANEDIT
1070
     0
1002
}
1002
{
1000
NOSEL
1070
     0
1002
}
1002
{
1000
BEHIND
1070
     0
1002
}
1002
{
1000
OTHER
1070
     0
1002
}
1002
{
1000
REACTOR
1002
}
1001
GENIUS_GENOBJ-N-FIL_13
1002
{
1000
OWNER
1000
GEN
1002
}
  0
LINE
  5
BD19
  8
AM_0
 10
298.65043801869251
 20
532.81656942256859
 30
0.0
 11
298.87735386952193
 21
545.81656980999844
 31
0.0
  0
ARC
  5
BD1A
  8
AM_0
 10
297.66774048782918
 20
531.81658476242274
 30
0.0
 40
1.0
 50
270.0
 51
0.9999999999887361
1001
GENIUS_GENODEF_13
1002
{
1000
HIER
1070
     0
1002
}
1002
{
1000
MANEDIT
1070
     0
1002
}
1002
{
1000
NOSEL
1070
     0
1002
}
1002
{
1000
BEHIND
1070
     0
1002
}
1002
{
1000
OTHER
1070
     0
1002
}
1002
{
1000
REACTOR
1002
}
1001
GENIUS_GENOBJ-N-FIL_13
1002
{
1000
OWNER
1000
GEN
1002
}
  0
LINE
  5
BD1B
  8
AM_0
 10
297.74980221809687
 20
471.81658288487671
 30
0.0
 11
288.65044084945021
 21
471.81658288487671
 31
0.0
  0
LINE
  5
BD1C
  8
AM_0
 10
284.4659522930379
 20
453.46928782446503
 30
0.0
 11
286.65044084945032
 21
465.85812767134121
 31
0.0
1001
GENIUS_GENODEF_13
1002
{
1000
HIER
1070
     0
1002
}
1002
{
1000
MANEDIT
1070
     0
1002
}
1002
{
1000
NOSEL
1070
     0
1002
}
1002
{
1000
BEHIND
1070
     0
1002
}
1002
{
1000
REACTOR
1002
}
1001
GENIUS_GENOBJ-N-CEN_13
1002
{
1000
OWNER
1000
GEN
1002
}
  0
LINE
  5
BD1D
  8
AM_0
 10
274.14433477082559
 20
475.876634462232
 30
0.0
 11
283.78191518745331
 21
475.876634462232
 31
0.0
  0
ARC
  5
BD1E
  8
AM_0
 10
288.65044084945021
 20
469.8165828848766
 30
0.0
 40
2.0
 50
90.0
 51
180.0
1001
GENIUS_GENODEF_13
1002
{
1000
HIER
1070
     0
1002
}
1002
{
1000
MANEDIT
1070
     0
1002
}
1002
{
1000
NOSEL
1070
     0
1002
}
1002
{
1000
BEHIND
1070
     0
1002
}
1002
{
1000
OTHER
1070
     0
1002
}
1002
{
1000
REACTOR
1002
}
1001
GENIUS_GENOBJ-N-FIL_13
1002
{
1000
OWNER
1000
GEN
1002
}
  0
LINE
  5
BD1F
  8
AM_0
 10
286.65044084945021
 20
469.8165828848766
 30
0.0
 11
286.65044084945032
 21
465.85812767134121
 31
0.0
  0
ARC
  5
BD20
  8
AM_0
 10
282.49633683681418
 20
453.81658446223167
 30
0.0
 40
2.0
 50
270.0
 51
349.99999178406972
1001
GENIUS_GENOBJ-N-CEN_13
1002
{
1000
OWNER
1000
GEN
1002
}
1001
GENIUS_GENOBJ-N-FIL_13
1002
{
1000
OWNER
1000
GEN
1002
}
1001
GENIUS_GENODEF_13
1002
{
1000
HIER
1070
     0
1002
}
1002
{
1000
MANEDIT
1070
     0
1002
}
1002
{
1000
NOSEL
1070
     0
1002
}
1002
{
1000
BEHIND
1070
     0
1002
}
1002
{
1000
OTHER
1070
     0
1002
}
1002
{
1000
REACTOR
1002
}
  0
LINE
  5
BD21
  8
AM_0
 10
274.14433477082559
 20
461.8165844622319
 30
0.0
 11
283.7819132558688
 21
461.8165844622319
 31
0.0
  0
LINE
  5
BD22
  8
AM_0
 10
274.14433477082559
 20
451.8165844622319
 30
0.0
 11
282.49633683681418
 21
451.8165844622319
 31
0.0
  0
ARC
  5
BD23
  8
AM_0
 10
297.74980221809687
 20
469.8165828848766
 30
0.0
 40
2.0
 50
0.9999999999985051
 51
90.0
1001
GENIUS_GENODEF_13
1002
{
1000
HIER
1070
     0
1002
}
1002
{
1000
MANEDIT
1070
     0
1002
}
1002
{
1000
NOSEL
1070
     0
1002
}
1002
{
1000
BEHIND
1070
     0
1002
}
1002
{
1000
OTHER
1070
     0
1002
}
1002
{
1000
REACTOR
1002
}
1001
GENIUS_GENOBJ-N-FIL_13
1002
{
1000
OWNER
1000
GEN
1002
}
  0
LINE
  5
BD24
  8
AM_0
 10
435.65044236936848
 20
532.81656942257018
 30
0.0
 11
434.55077324611813
 21
469.81656754502251
 31
0.0
  0
LINE
  5
BD25
  8
ｶｸﾚｾﾝ2
 10
420.15044204154322
 20
545.81658514985327
 30
0.0
 11
420.15044204154322
 21
469.8165828848766
 31
0.0
  0
LINE
  5
BD26
  8
ｶｸﾚｾﾝ2
 10
429.15044204154322
 20
545.81658514985327
 30
0.0
 11
429.15044204154322
 21
469.8165828848766
 31
0.0
  0
LINE
  5
BD27
  8
ﾁｭｳｼﾝｾﾝ
 10
424.65044204154322
 20
548.81658514985281
 30
0.0
 11
424.65044204154322
 21
466.81658288487671
 31
0.0
  0
LINE
  5
BD28
  8
ﾁｭｳｼﾝｾﾝ
 10
384.65044084945032
 20
562.81656988388409
 30
0.0
 11
384.65044084945021
 21
452.8165672016753
 31
0.0
  0
LINE
  5
BD29
  8
AM_0
 10
435.65044236936848
 20
532.81656942256893
 30
0.0
 11
435.42352625078081
 21
545.81658514985327
 31
0.0
  0
LINE
  5
BD30
  8
AM_0
 10
163.4692519871376
 20
471.09664072350512
 30
0.0
 11
158.1443647708256
 21
459.72161728584138
 31
0.0
  0
LINE
  5
BD31
  8
AM_0
 10
264.34437477082548
 20
468.48159728584119
 30
0.0
 11
260.19438477082548
 21
453.02160728584118
 31
0.0
  0
LINE
  5
BD32
  8
AM_0
 10
266.14436477082552
 20
451.81661728584118
 30
0.0
 11
266.14436477082552
 21
563.81662128584139
 31
0.0
  0
LINE
  5
BD33
  8
AM_0
 10
158.1443647708256
 20
454.82160728584091
 30
0.0
 11
158.1443647708256
 21
557.26160528584126
 31
0.0
  0
LINE
  5
BD34
  8
AM_0
 10
161.34437477082551
 20
451.53161728584138
 30
0.0
 11
258.2643347708256
 21
451.53161728584138
 31
0.0
  0
LINE
  5
BD35
  8
AM_0
 10
161.4343447708255
 20
445.93160728584121
 30
0.0
 11
195.1443647708256
 21
445.93160728584121
 31
0.0
  0
LINE
  5
BD36
  8
AM_0
 10
161.41438477082551
 20
446.84161728584138
 30
0.0
 11
195.1443647708256
 21
446.84161728584138
 31
0.0
  0
LINE
  5
BD37
  8
AM_0
 10
161.3943647708256
 20
448.69161728584118
 30
0.0
 11
195.1443647708256
 21
448.69161728584118
 31
0.0
  0
ARC
  5
BD38
  8
AM_0
 10
161.3927747708255
 20
450.6847572858411
 30
0.0
 40
1.9931281000000001
 50
189.0388199999997
 51
270.04662699999949
  0
LINE
  5
BD39
  8
AM_0
 10
158.1443647708256
 20
457.03163728584121
 30
0.0
 11
159.45436477082541
 21
447.6516272858413
 31
0.0
  0
LINE
  5
BD3A
  8
AM_0
 10
158.14442477082559
 20
457.03159728584143
 30
0.0
 11
159.43440477082561
 21
448.54160728584139
 31
0.0
  0
ARC
  5
BD3B
  8
AM_0
 10
161.4070647708256
 20
448.83618728584139
 30
0.0
 40
1.994588
 50
188.49291000000221
 51
270.20924700000091
  0
ARC
  5
BD3C
  8
AM_0
 10
161.42903477082561
 20
447.92509728584122
 30
0.0
 40
1.9934921000000001
 50
187.88526000000061
 51
270.15390899999858
  0
ARC
  5
BD3D
  8
AM_0
 10
161.3472447708256
 20
453.52851728584119
 30
0.0
 40
1.996903999999998
 50
190.5874399999984
 51
269.91652600000037
  0
LINE
  5
BD3E
  8
AM_0
 10
158.1443647708256
 20
458.38160728584143
 30
0.0
 11
159.42433477082551
 21
450.3716172858413
 31
0.0
  0
LINE
  5
BD3F
  8
AM_0
 10
158.1443647708256
 20
459.72160728584117
 30
0.0
 11
159.38435477082561
 21
453.16160728584123
 31
0.0
  0
ARC
  5
BD40
  8
AM_0
 10
195.14393477082561
 20
450.69203728584091
 30
0.0
 40
2.000407899999999
 50
270.01164999999889
 51
359.98835099999923
  0
LINE
  5
BD41
  8
AM_0
 10
197.1443647708254
 20
447.93162728584122
 30
0.0
 11
197.1443647708254
 21
451.53161728584138
 31
0.0
  0
ARC
  5
BD42
  8
AM_0
 10
195.1427747708255
 20
448.8431672858411
 30
0.0
 40
2.0015439999999991
 50
270.04421600000092
 51
359.95578600099918
  0
ARC
  5
BD43
  8
AM_0
 10
195.14308477082551
 20
447.9329072858414
 30
0.0
 40
2.001287899999999
 50
270.03687399999882
 51
359.96312800100122
  0
LINE
  5
BD44
  8
AM_0
 10
266.14436477082552
 20
451.81661728584118
 30
0.0
 11
274.14433477082559
 21
451.81661728584118
 31
0.0
  0
ARC
  5
BD45
  8
AM_0
 10
258.26155477082563
 20
453.53021728584139
 30
0.0
 40
1.9986041000000001
 50
270.08048399999888
 51
345.25728400000048
  0
LINE
  5
BD46
  8
AM_0
 10
260.68434477082548
 20
454.82160728584091
 30
0.0
 11
266.14436477082552
 21
454.82160728584091
 31
0.0
  0
LINE
  5
BD47
  8
AM_0
 10
259.48435588356631
 20
471.81658702041801
 30
0.0
 11
160.5043158835694
 21
471.81661145545411
 31
0.0
  0
LINE
  5
BD48
  8
AM_0
 10
259.48435637730307
 20
473.81658702041813
 30
0.0
 11
160.50431637730611
 21
473.81661145545399
 31
0.0
  0
LINE
  5
BD49
  8
AM_0
 10
259.4771588459862
 20
483.81658702219528
 30
0.0
 11
160.5043188459893
 21
483.81661145545371
 31
0.0
  0
LINE
  5
BD4A
  8
AM_0
 10
159.82431570583159
 20
471.0966416233245
 30
0.0
 11
262.96433570582838
 21
471.09661616132121
 31
0.0
  0
LINE
  5
BD4B
  8
AM_0
 10
159.6043489545965
 20
484.25655167762773
 30
0.0
 11
263.1785689545934
 21
484.25652610843429
 31
0.0
  0
LINE
  5
BD4C
  8
AM_0
 10
159.60434823128961
 20
481.32662167762788
 30
0.0
 11
263.18998823128641
 21
481.32659610561518
 31
0.0
  0
LINE
  5
BD4D
  8
AM_0
 10
259.49149835224961
 20
481.8165870186549
 30
0.0
 11
160.5043183522526
 21
481.81661145545371
 31
0.0
  0
LINE
  5
BD4E
  8
AM_0
 10
159.8243165328355
 20
474.44662162332452
 30
0.0
 11
262.96433653283242
 21
474.44659616132122
 31
0.0
  0
LINE
  5
BD4F
  8
AM_0
 10
159.47435073701041
 20
491.4766517097205
 30
0.0
 11
263.47292869340771
 21
491.47662603576651
 31
0.0
  0
LINE
  5
BD50
  8
AM_0
 10
159.47435139365791
 20
494.13656170972013
 30
0.0
 11
263.3214038516482
 21
494.13653607317292
 31
0.0
  0
LINE
  5
BD51
  8
AM_0
 10
159.41435322295951
 20
501.54659172453211
 30
0.0
 11
263.53045247646332
 21
501.54656602156598
 31
0.0
  0
LINE
  5
BD52
  8
AM_0
 10
159.41435384754379
 20
504.076621724532
 30
0.0
 11
263.36716582355012
 21
504.07659606187622
 31
0.0
  0
LINE
  5
BD53
  8
AM_0
 10
259.48770007676382
 20
503.8165870195935
 30
0.0
 11
160.5043237833556
 21
503.8166114554528
 31
0.0
  0
LINE
  5
BD54
  8
AM_0
 10
259.48769958302722
 20
501.81658701959361
 30
0.0
 11
160.50432328961901
 21
501.81661145545303
 31
0.0
  0
LINE
  5
BD55
  8
AM_0
 10
259.4876976080771
 20
493.8165870195939
 30
0.0
 11
160.50432131467241
 21
493.8166114554532
 31
0.0
  0
LINE
  5
BD56
  8
AM_0
 10
259.48769711436518
 20
491.8165870195939
 30
0.0
 11
160.50432082093579
 21
491.81661145545348
 31
0.0
  0
LINE
  5
BD57
  8
AM_0
 10
259.48770106425809
 20
523.81658537628141
 30
0.0
 11
160.50432477082569
 21
523.81658537628141
 31
0.0
  0
LINE
  5
BD58
  8
AM_0
 10
259.48770106423331
 20
521.81658537628141
 30
0.0
 11
160.50432477082569
 21
521.81658537628141
 31
0.0
  0
LINE
  5
BD59
  8
AM_0
 10
259.48770106423689
 20
513.81658537628141
 30
0.0
 11
160.50432477082569
 21
513.81658537628141
 31
0.0
  0
LINE
  5
BD5A
  8
AM_0
 10
259.48770106423689
 20
511.8165853762813
 30
0.0
 11
160.50432477082569
 21
511.8165853762813
 31
0.0
  0
LINE
  5
BD5B
  8
AM_0
 10
159.41435477082561
 20
511.55657537628127
 30
0.0
 11
263.36716674683498
 21
511.55657537628127
 31
0.0
  0
LINE
  5
BD5C
  8
AM_0
 10
159.41435477082561
 20
514.08660537628123
 30
0.0
 11
263.53045402433253
 21
514.08660537628123
 31
0.0
  0
LINE
  5
BD5D
  8
AM_0
 10
159.47435477082561
 20
521.49663537628123
 30
0.0
 11
263.321407228819
 21
521.49663537628123
 31
0.0
  0
LINE
  5
BD5E
  8
AM_0
 10
159.47435477082561
 20
524.15654537628131
 30
0.0
 11
263.47293272722601
 21
524.15654537628131
 31
0.0
  0
LINE
  5
BD5F
  8
AM_0
 10
159.8243247708256
 20
541.18657537628133
 30
0.0
 11
262.96434477082551
 21
541.18657537628133
 31
0.0
  0
LINE
  5
BD60
  8
AM_0
 10
259.49150477082571
 20
533.81658537628152
 30
0.0
 11
160.50432477082569
 21
533.81658537628152
 31
0.0
  0
LINE
  5
BD61
  8
AM_0
 10
159.60435477082561
 20
534.30657537628133
 30
0.0
 11
263.18999477082559
 21
534.30657537628133
 31
0.0
  0
LINE
  5
BD62
  8
AM_0
 10
159.60435477082561
 20
531.37664537628154
 30
0.0
 11
263.17857477082561
 21
531.37664537628154
 31
0.0
  0
LINE
  5
BD63
  8
AM_0
 10
159.8243247708256
 20
544.53655537628163
 30
0.0
 11
262.96434477082551
 21
544.53655537628163
 31
0.0
  0
LINE
  5
BD64
  8
AM_0
 10
259.4771647708256
 20
531.81658537628152
 30
0.0
 11
160.50432477082569
 21
531.81658537628152
 31
0.0
  0
LINE
  5
BD65
  8
AM_0
 10
259.48436477082549
 20
541.81658537628152
 30
0.0
 11
160.50432477082569
 21
541.81658537628152
 31
0.0
  0
LINE
  5
BD66
  8
AM_0
 10
259.48436477082549
 20
543.81658537628152
 30
0.0
 11
160.50432477082569
 21
543.81658537628152
 31
0.0
  0
LINE
  5
BD67
  8
AM_0
 10
183.6443647708254
 20
469.5916272858413
 30
0.0
 11
266.14436477082552
 21
469.5916272858413
 31
0.0
  0
LINE
  5
BD68
  8
AM_0
 10
183.6443647708254
 20
546.04161228584087
 30
0.0
 11
266.14436477082552
 21
546.04161228584087
 31
0.0
  0
LINE
  5
BD69
  8
AM_0
 10
161.34437477082551
 20
564.10162428584124
 30
0.0
 11
258.2643347708256
 21
564.10162428584124
 31
0.0
  0
LINE
  5
BD6A
  8
AM_0
 10
163.47391211010941
 20
544.53655537628163
 30
0.0
 11
158.1443047708257
 21
555.91159228584127
 31
0.0
  0
POLYLINE
  5
BD6B
  8
AM_0
 66
     1
 10
0.0
 20
0.0
 30
0.0
  0
VERTEX
  5
BD6C
  8
AM_0
 10
160.5043247708289
 20
507.8166114554528
 30
0.0
 42
0.00039106649
  0
VERTEX
  5
BD6D
  8
AM_0
 10
160.50196469402059
 20
507.5054814560354
 30
0.0
 42
0.00035488198
  0
VERTEX
  5
BD6E
  8
AM_0
 10
160.50007461721751
 20
507.19437145650232
 30
0.0
 42
0.00039706113
  0
VERTEX
  5
BD6F
  8
AM_0
 10
160.4986445404142
 20
506.88326145685522
 30
0.0
 42
0.00038765718
  0
VERTEX
  5
BD70
  8
AM_0
 10
160.49771446360359
 20
506.5721214570849
 30
0.0
 42
0.00040613432
  0
VERTEX
  5
BD71
  8
AM_0
 10
160.4972643868029
 20
506.26102145719591
 30
0.0
 42
0.00035573434
  0
VERTEX
  5
BD72
  8
AM_0
 10
160.49730430999969
 20
505.94991145718598
 30
0.0
 42
0.00038545884
  0
VERTEX
  5
BD73
  8
AM_0
 10
160.4977942331916
 20
505.63878145706502
 30
0.0
 42
0.00035501205
  0
VERTEX
  5
BD74
  8
AM_0
 10
160.4987541563884
 20
505.32767145682823
 30
0.0
 42
0.00040120779
  0
VERTEX
  5
BD75
  8
AM_0
 10
160.50017407955551
 20
505.01644145647759
 30
0.0
 42
0.00038317817
  0
VERTEX
  5
BD76
  8
AM_0
 10
160.50208400274741
 20
504.70531145600609
 30
0.0
 42
0.00035656084
  0
VERTEX
  5
BD77
  8
AM_0
 10
160.50446392591209
 20
504.39407145541833
 30
0.0
 42
0.00040143615
  0
VERTEX
  5
BD78
  8
AM_0
 10
160.5073138491114
 20
504.08297145471488
 30
0.0
  0
SEQEND
  5
BD79
  8
AM_0
  0
LINE
  5
BD7A
  8
AM_0
 10
183.64430477082561
 20
469.59161728584138
 30
0.0
 11
163.4668747708256
 21
471.09161728584121
 31
0.0
  0
ARC
  5
BD7B
  8
AM_0
 10
159.60434859294429
 20
482.79159167762771
 30
0.0
 40
1.465004
 50
89.999985855485264
 51
269.99998285548429
  0
ARC
  5
BD7C
  8
AM_0
 10
159.81693611931871
 20
472.77157162514652
 30
0.0
 40
1.6750160000000001
 50
89.746115855485471
 51
270.25384085548518
  0
ARC
  5
BD7D
  8
AM_0
 10
160.68894613043761
 20
472.81661140987478
 30
0.0
 40
1.000013899999999
 50
89.691645855484865
 51
270.30832585548637
  0
ARC
  5
BD7E
  8
AM_0
 10
160.68894859912089
 20
482.8166114098745
 30
0.0
 40
1.000013899999999
 50
89.691645855484865
 51
270.30832585548637
  0
POLYLINE
  5
BD7F
  8
AM_0
 66
     1
 10
0.0
 20
0.0
 30
0.0
  0
VERTEX
  5
BD80
  8
AM_0
 10
162.00522823300761
 20
481.33358108492678
 30
0.0
 42
0.00068898288
  0
VERTEX
  5
BD81
  8
AM_0
 10
162.07610809112009
 20
480.75883106742867
 30
0.0
 42
0.00070644354
  0
VERTEX
  5
BD82
  8
AM_0
 10
162.14860794924741
 20
480.1841410495303
 30
0.0
 42
0.00069248071
  0
VERTEX
  5
BD83
  8
AM_0
 10
162.22269780746839
 20
479.60983103124011
 30
0.0
 42
0.00069585665
  0
VERTEX
  5
BD84
  8
AM_0
 10
162.29837766573141
 20
479.03569101255721
 30
0.0
 42
0.00068980191
  0
VERTEX
  5
BD85
  8
AM_0
 10
162.37567752402899
 20
478.46169099347452
 30
0.0
 42
0.00072080104
  0
VERTEX
  5
BD86
  8
AM_0
 10
162.45456738237851
 20
477.88790097399902
 30
0.0
 42
0.00071002307
  0
VERTEX
  5
BD87
  8
AM_0
 10
162.53510724080681
 20
477.31443095411618
 30
0.0
 42
0.00072659056
  0
VERTEX
  5
BD88
  8
AM_0
 10
162.61726709932671
 20
476.7413309338333
 30
0.0
 42
0.00069570481
  0
VERTEX
  5
BD89
  8
AM_0
 10
162.70108695786371
 20
476.16830091314091
 30
0.0
 42
0.00071266935
  0
VERTEX
  5
BD8A
  8
AM_0
 10
162.786516816465
 20
475.5955308920511
 30
0.0
 42
0.00071614426
  0
VERTEX
  5
BD8B
  8
AM_0
 10
162.87354667517221
 20
475.02319087056628
 30
0.0
 42
0.00072288975
  0
VERTEX
  5
BD8C
  8
AM_0
 10
162.9622565338895
 20
474.45089084866652
 30
0.0
  0
SEQEND
  5
BD8D
  8
AM_0
  0
POLYLINE
  5
BD8E
  8
AM_0
 66
     1
 10
0.0
 20
0.0
 30
0.0
  0
VERTEX
  5
BD8F
  8
AM_0
 10
160.54838322287071
 20
501.54623144457622
 30
0.0
 42
0.00076691992
  0
VERTEX
  5
BD90
  8
AM_0
 10
160.5631830703627
 20
500.92846144092238
 30
0.0
 42
0.00073262792
  0
VERTEX
  5
BD91
  8
AM_0
 10
160.57982291789941
 20
500.31087143681458
 30
0.0
 42
0.00076529537
  0
VERTEX
  5
BD92
  8
AM_0
 10
160.5983127654161
 20
499.69320143225019
 30
0.0
 42
0.00075141097
  0
VERTEX
  5
BD93
  8
AM_0
 10
160.61868261295029
 20
499.07560142722122
 30
0.0
 42
0.00075841687
  0
VERTEX
  5
BD94
  8
AM_0
 10
160.64091246052641
 20
498.4581714217336
 30
0.0
 42
0.00075711788
  0
VERTEX
  5
BD95
  8
AM_0
 10
160.6650223080828
 20
497.84066141578143
 30
0.0
 42
0.00075976003
  0
VERTEX
  5
BD96
  8
AM_0
 10
160.69101215566869
 20
497.2232714093654
 30
0.0
 42
0.00075797311
  0
VERTEX
  5
BD97
  8
AM_0
 10
160.718852003282
 20
496.60599140249252
 30
0.0
 42
0.0007482613
  0
VERTEX
  5
BD98
  8
AM_0
 10
160.74858185087029
 20
495.98861139515321
 30
0.0
 42
0.00074893561
  0
VERTEX
  5
BD99
  8
AM_0
 10
160.7801416985204
 20
495.37148138736183
 30
0.0
 42
0.00076039839
  0
VERTEX
  5
BD9A
  8
AM_0
 10
160.81356154619539
 20
494.7544513791118
 30
0.0
 42
0.00075618786
  0
VERTEX
  5
BD9B
  8
AM_0
 10
160.84886139386771
 20
494.13741137039727
 30
0.0
  0
SEQEND
  5
BD9C
  8
AM_0
  0
ARC
  5
BD9D
  8
AM_0
 10
159.47435106533291
 20
492.80660170972033
 30
0.0
 40
1.3300049999999981
 50
89.999985855485264
 51
269.99998285548429
  0
ARC
  5
BD9E
  8
AM_0
 10
160.68895106780411
 20
492.81661140987421
 30
0.0
 40
1.000013899999999
 50
89.691645855484865
 51
270.30832585548637
  0
POLYLINE
  5
BD9F
  8
AM_0
 66
     1
 10
0.0
 20
0.0
 30
0.0
  0
VERTEX
  5
BDA0
  8
AM_0
 10
161.02257073685979
 20
491.47604132751371
 30
0.0
 42
0.0007337051
  0
VERTEX
  5
BDA1
  8
AM_0
 10
161.0667105881414
 20
490.87362131661718
 30
0.0
 42
0.00075211323
  0
VERTEX
  5
BDA2
  8
AM_0
 10
161.1126504394303
 20
490.27123130527599
 30
0.0
 42
0.0007297491
  0
VERTEX
  5
BDA3
  8
AM_0
 10
161.16038029076611
 20
489.66903129349288
 30
0.0
 42
0.00073593041
  0
VERTEX
  5
BDA4
  8
AM_0
 10
161.20986014215401
 20
489.06704128127802
 30
0.0
 42
0.00074742739
  0
VERTEX
  5
BDA5
  8
AM_0
 10
161.26112999357139
 20
488.4651712686213
 30
0.0
 42
0.00073217363
  0
VERTEX
  5
BDA6
  8
AM_0
 10
161.31418984500601
 20
487.8633712555224
 30
0.0
 42
0.00073754168
  0
VERTEX
  5
BDA7
  8
AM_0
 10
161.3690096965048
 20
487.261831241989
 30
0.0
 42
0.00073075073
  0
VERTEX
  5
BDA8
  8
AM_0
 10
161.42558954804809
 20
486.66047122802138
 30
0.0
 42
0.00074550816
  0
VERTEX
  5
BDA9
  8
AM_0
 10
161.48392939966541
 20
486.05941121361877
 30
0.0
 42
0.00074288416
  0
VERTEX
  5
BDAA
  8
AM_0
 10
161.5440792512926
 20
485.4583911987695
 30
0.0
 42
0.00072504001
  0
VERTEX
  5
BDAB
  8
AM_0
 10
161.60598910298651
 20
484.85764118348612
 30
0.0
 42
0.00074640667
  0
VERTEX
  5
BDAC
  8
AM_0
 10
161.66965895471731
 20
484.25704116776819
 30
0.0
  0
SEQEND
  5
BDAD
  8
AM_0
  0
ARC
  5
BDAE
  8
AM_0
 10
159.40849353525289
 20
502.81161172597888
 30
0.0
 40
1.2650129999999991
 50
89.735575855488435
 51
270.26440685548931
  0
ARC
  5
BDAF
  8
AM_0
 10
160.68895353648719
 20
502.81661140987359
 30
0.0
 40
1.000013899999999
 50
89.691645855484865
 51
270.30832585548637
  0
LINE
  5
BDB0
  8
AM_0
 10
183.6443647708254
 20
546.04161228584087
 30
0.0
 11
163.47151477082559
 21
544.54161228584121
 31
0.0
  0
POLYLINE
  5
BDB1
  8
AM_0
 66
     1
 10
0.0
 20
0.0
 30
0.0
  0
VERTEX
  5
BDB2
  8
AM_0
 10
161.0225747708256
 20
524.15715537628125
 30
0.0
 42
-0.0007337051
  0
VERTEX
  5
BDB3
  8
AM_0
 10
161.0667147708256
 20
524.7595753762813
 30
0.0
 42
-0.00075211323
  0
VERTEX
  5
BDB4
  8
AM_0
 10
161.1126547708256
 20
525.36196537628132
 30
0.0
 42
-0.0007297491
  0
VERTEX
  5
BDB5
  8
AM_0
 10
161.1603847708256
 20
525.96416537628124
 30
0.0
 42
-0.00073593041
  0
VERTEX
  5
BDB6
  8
AM_0
 10
161.20986477082559
 20
526.56615537628124
 30
0.0
 42
-0.00074742739
  0
VERTEX
  5
BDB7
  8
AM_0
 10
161.26113477082561
 20
527.16802537628132
 30
0.0
 42
-0.00073217363
  0
VERTEX
  5
BDB8
  8
AM_0
 10
161.31419477082559
 20
527.76982537628123
 30
0.0
 42
-0.00073754168
  0
VERTEX
  5
BDB9
  8
AM_0
 10
161.3690147708254
 20
528.37136537628146
 30
0.0
 42
-0.00073075073
  0
VERTEX
  5
BDBA
  8
AM_0
 10
161.4255947708256
 20
528.97272537628123
 30
0.0
 42
-0.00074550816
  0
VERTEX
  5
BDBB
  8
AM_0
 10
161.4839347708255
 20
529.57378537628153
 30
0.0
 42
-0.00074288416
  0
VERTEX
  5
BDBC
  8
AM_0
 10
161.54408477082561
 20
530.17480537628171
 30
0.0
 42
-0.00072504001
  0
VERTEX
  5
BDBD
  8
AM_0
 10
161.60599477082559
 20
530.77555537628132
 30
0.0
 42
-0.00074640667
  0
VERTEX
  5
BDBE
  8
AM_0
 10
161.66966477082559
 20
531.37615537628119
 30
0.0
  0
SEQEND
  5
BDBF
  8
AM_0
  0
POLYLINE
  5
BDC0
  8
AM_0
 66
     1
 10
0.0
 20
0.0
 30
0.0
  0
VERTEX
  5
BDC1
  8
AM_0
 10
160.54838477082561
 20
514.08696537628123
 30
0.0
 42
-0.00076691992
  0
VERTEX
  5
BDC2
  8
AM_0
 10
160.5631847708255
 20
514.70473537628141
 30
0.0
 42
-0.00073262792
  0
VERTEX
  5
BDC3
  8
AM_0
 10
160.57982477082561
 20
515.32232537628124
 30
0.0
 42
-0.00076529537
  0
VERTEX
  5
BDC4
  8
AM_0
 10
160.59831477082551
 20
515.93999537628133
 30
0.0
 42
-0.00075141097
  0
VERTEX
  5
BDC5
  8
AM_0
 10
160.61868477082561
 20
516.55759537628137
 30
0.0
 42
-0.00075841687
  0
VERTEX
  5
BDC6
  8
AM_0
 10
160.64091477082559
 20
517.17502537628116
 30
0.0
 42
-0.00075711788
  0
VERTEX
  5
BDC7
  8
AM_0
 10
160.6650247708256
 20
517.79253537628119
 30
0.0
 42
-0.00075976003
  0
VERTEX
  5
BDC8
  8
AM_0
 10
160.6910147708254
 20
518.40992537628165
 30
0.0
 42
-0.00075797311
  0
VERTEX
  5
BDC9
  8
AM_0
 10
160.7188547708256
 20
519.02720537628124
 30
0.0
 42
-0.0007482613
  0
VERTEX
  5
BDCA
  8
AM_0
 10
160.7485847708256
 20
519.64458537628127
 30
0.0
 42
-0.00074893561
  0
VERTEX
  5
BDCB
  8
AM_0
 10
160.7801447708255
 20
520.26171537628136
 30
0.0
 42
-0.00076039839
  0
VERTEX
  5
BDCC
  8
AM_0
 10
160.81356477082559
 20
520.87874537628136
 30
0.0
 42
-0.00075618786
  0
VERTEX
  5
BDCD
  8
AM_0
 10
160.8488647708256
 20
521.49578537628156
 30
0.0
  0
SEQEND
  5
BDCE
  8
AM_0
  0
POLYLINE
  5
BDCF
  8
AM_0
 66
     1
 10
0.0
 20
0.0
 30
0.0
  0
VERTEX
  5
BDD0
  8
AM_0
 10
160.50432477082569
 20
507.8165853762813
 30
0.0
 42
-0.00039106649
  0
VERTEX
  5
BDD1
  8
AM_0
 10
160.50196477082559
 20
508.12771537628129
 30
0.0
 42
-0.00035488198
  0
VERTEX
  5
BDD2
  8
AM_0
 10
160.50007477082559
 20
508.43882537628127
 30
0.0
 42
-0.00039706113
  0
VERTEX
  5
BDD3
  8
AM_0
 10
160.49864477082559
 20
508.74993537628131
 30
0.0
 42
-0.00038765718
  0
VERTEX
  5
BDD4
  8
AM_0
 10
160.4977147708255
 20
509.06107537628151
 30
0.0
 42
-0.00040613432
  0
VERTEX
  5
BDD5
  8
AM_0
 10
160.4972647708255
 20
509.37217537628129
 30
0.0
 42
-0.00035573434
  0
VERTEX
  5
BDD6
  8
AM_0
 10
160.49730477082571
 20
509.6832853762815
 30
0.0
 42
-0.00038545884
  0
VERTEX
  5
BDD7
  8
AM_0
 10
160.49779477082541
 20
509.99441537628121
 30
0.0
 42
-0.00035501205
  0
VERTEX
  5
BDD8
  8
AM_0
 10
160.4987547708256
 20
510.30552537628131
 30
0.0
 42
-0.00040120779
  0
VERTEX
  5
BDD9
  8
AM_0
 10
160.50017477082559
 20
510.61675537628122
 30
0.0
 42
-0.00038317817
  0
VERTEX
  5
BDDA
  8
AM_0
 10
160.5020847708256
 20
510.92788537628132
 30
0.0
 42
-0.00035656084
  0
VERTEX
  5
BDDB
  8
AM_0
 10
160.50446477082551
 20
511.23912537628138
 30
0.0
 42
-0.00040143615
  0
VERTEX
  5
BDDC
  8
AM_0
 10
160.50731477082559
 20
511.55022537628099
 30
0.0
  0
SEQEND
  5
BDDD
  8
AM_0
  0
ARC
  5
BDDE
  8
AM_0
 10
160.6889547708256
 20
512.81658537628141
 30
0.0
 40
1.000013899999999
 50
89.691659999999231
 51
270.30834000000078
  0
ARC
  5
BDDF
  8
AM_0
 10
159.4084947708256
 20
512.82158537628152
 30
0.0
 40
1.2650129999999991
 50
89.735578999998495
 51
270.2644099999992
  0
ARC
  5
BDE0
  8
AM_0
 10
160.6889547708256
 20
522.8165853762813
 30
0.0
 40
1.000013899999999
 50
89.691659999999231
 51
270.30834000000078
  0
ARC
  5
BDE1
  8
AM_0
 10
159.47435477082561
 20
522.82659537628138
 30
0.0
 40
1.3300049999999981
 50
90.000003000000945
 51
270.0
  0
POLYLINE
  5
BDE2
  8
AM_0
 66
     1
 10
0.0
 20
0.0
 30
0.0
  0
VERTEX
  5
BDE3
  8
AM_0
 10
162.00523477082561
 20
534.29961537628139
 30
0.0
 42
-0.00068898288
  0
VERTEX
  5
BDE4
  8
AM_0
 10
162.07611477082551
 20
534.87436537628139
 30
0.0
 42
-0.00070644354
  0
VERTEX
  5
BDE5
  8
AM_0
 10
162.14861477082559
 20
535.44905537628165
 30
0.0
 42
-0.00069248071
  0
VERTEX
  5
BDE6
  8
AM_0
 10
162.2227047708256
 20
536.0233653762815
 30
0.0
 42
-0.00069585665
  0
VERTEX
  5
BDE7
  8
AM_0
 10
162.29838477082561
 20
536.59750537628167
 30
0.0
 42
-0.00068980191
  0
VERTEX
  5
BDE8
  8
AM_0
 10
162.3756847708255
 20
537.17150537628152
 30
0.0
 42
-0.00072080104
  0
VERTEX
  5
BDE9
  8
AM_0
 10
162.45457477082559
 20
537.74529537628132
 30
0.0
 42
-0.00071002307
  0
VERTEX
  5
BDEA
  8
AM_0
 10
162.5351147708256
 20
538.31876537628136
 30
0.0
 42
-0.00072659056
  0
VERTEX
  5
BDEB
  8
AM_0
 10
162.61727477082559
 20
538.89186537628154
 30
0.0
 42
-0.00069570481
  0
VERTEX
  5
BDEC
  8
AM_0
 10
162.70109477082559
 20
539.46489537628145
 30
0.0
 42
-0.00071266935
  0
VERTEX
  5
BDED
  8
AM_0
 10
162.78652477082571
 20
540.03766537628155
 30
0.0
 42
-0.00071614426
  0
VERTEX
  5
BDEE
  8
AM_0
 10
162.87355477082559
 20
540.61000537628138
 30
0.0
 42
-0.00072288975
  0
VERTEX
  5
BDEF
  8
AM_0
 10
162.96226477082561
 20
541.18230537628153
 30
0.0
  0
SEQEND
  5
BDF0
  8
AM_0
  0
ARC
  5
BDF1
  8
AM_0
 10
159.60435477082561
 20
532.84160537628145
 30
0.0
 40
1.465004
 50
90.000003000000945
 51
270.0
  0
ARC
  5
BDF2
  8
AM_0
 10
160.6889547708256
 20
532.81658537628152
 30
0.0
 40
1.000013899999999
 50
89.691659999999231
 51
270.30834000000078
  0
ARC
  5
BDF3
  8
AM_0
 10
160.6889547708256
 20
542.81658537628152
 30
0.0
 40
1.000013899999999
 50
89.691659999999231
 51
270.30834000000078
  0
ARC
  5
BDF4
  8
AM_0
 10
159.81694477082559
 20
542.86162537628149
 30
0.0
 40
1.6750160000000001
 50
89.746145000001235
 51
270.25387000000092
  0
LINE
  5
BDF5
  8
AM_0
 10
161.4343447708255
 20
569.7116102858414
 30
0.0
 11
195.1443647708256
 21
569.7116102858414
 31
0.0
  0
LINE
  5
BDF6
  8
AM_0
 10
161.41438477082551
 20
568.79161928584153
 30
0.0
 11
195.1443647708256
 21
568.79161928584153
 31
0.0
  0
LINE
  5
BDF7
  8
AM_0
 10
161.3943647708256
 20
566.95161528584094
 30
0.0
 11
195.1443647708256
 21
566.95161528584094
 31
0.0
  0
ARC
  5
BDF8
  8
AM_0
 10
161.34901477082559
 20
562.10261628584135
 30
0.0
 40
1.999007899999997
 50
90.133450000000195
 51
169.36258999999981
  0
LINE
  5
BDF9
  8
AM_0
 10
158.1443647708256
 20
558.6015942858412
 30
0.0
 11
159.45436477082541
 21
567.98159928584073
 31
0.0
  0
LINE
  5
BDFA
  8
AM_0
 10
158.14442477082559
 20
558.60161728584114
 30
0.0
 11
159.43440477082561
 21
567.10160928584139
 31
0.0
  0
LINE
  5
BDFB
  8
AM_0
 10
158.1443647708256
 20
557.26162128584133
 30
0.0
 11
159.42433477082551
 21
565.26161328584124
 31
0.0
  0
LINE
  5
BDFC
  8
AM_0
 10
158.1443647708256
 20
555.9116302858414
 30
0.0
 11
159.38435477082561
 21
562.47162728584124
 31
0.0
  0
ARC
  5
BDFD
  8
AM_0
 10
161.40034477082551
 20
564.95144028584139
 30
0.0
 40
2.000184099999998
 50
90.171470000000795
 51
171.07900000000049
  0
ARC
  5
BDFE
  8
AM_0
 10
161.40791477082561
 20
566.7942822858414
 30
0.0
 40
1.9973480999999991
 50
89.815319999999133
 51
171.14853000000031
  0
ARC
  5
BDFF
  8
AM_0
 10
161.43648477082559
 20
567.71113728584123
 30
0.0
 40
2.0004758999999992
 50
90.060310000000726
 51
172.22953999999919
  0
LINE
  5
BE00
  8
AM_0
 10
197.1443647708254
 20
567.71161728584116
 30
0.0
 11
197.1443647708254
 21
564.10162428584124
 31
0.0
  0
ARC
  5
BE01
  8
AM_0
 10
195.13716477082551
 20
564.94443628584122
 30
0.0
 40
2.0071799999999991
 50
0.2046200000009718
 51
89.795379999999028
  0
ARC
  5
BE02
  8
AM_0
 10
195.1410747708255
 20
566.78833128584097
 30
0.0
 40
2.003279899999999
 50
0.093790000000395
 51
89.906209999999604
  0
ARC
  5
BE03
  8
AM_0
 10
195.13637477082551
 20
567.70360728584114
 30
0.0
 40
2.0080360999999991
 50
0.2287899999994382
 51
89.771210000000551
  0
LINE
  5
BE04
  8
AM_0
 10
264.64436477082552
 20
546.04160428584123
 30
0.0
 11
260.1943547708255
 21
562.62160628584127
 31
0.0
  0
LINE
  5
BE05
  8
AM_0
 10
266.14436477082552
 20
461.81661728584118
 30
0.0
 11
274.14433477082559
 21
461.81661728584118
 31
0.0
  0
LINE
  5
BE06
  8
AM_0
 10
266.14436477082552
 20
475.87660728584137
 30
0.0
 11
274.14433477082559
 21
475.87660728584137
 31
0.0
  0
ARC
  5
BE07
  8
AM_0
 10
259.48429859911789
 20
482.81658702043262
 30
0.0
 40
1.000025599999997
 50
269.58945485548588
 51
90.410515855486949
  0
ARC
  5
BE08
  8
AM_0
 10
259.48435613043472
 20
472.81658702041801
 30
0.0
 40
1.0
 50
269.99998285548429
 51
89.999995855486276
  0
ARC
  5
BE09
  8
AM_0
 10
262.96431595155588
 20
472.77157016132691
 30
0.0
 40
1.675026000120903
 50
270.0006727121953
 51
89.999295998819775
  0
ARC
  5
BE0A
  8
AM_0
 10
265.7975647708256
 20
468.09384728584138
 30
0.0
 40
1.502775999999999
 50
90.122410000000357
 51
165.2435700000002
  0
ARC
  5
BE0B
  8
AM_0
 10
263.18430859170439
 20
482.78655610701747
 30
0.0
 40
1.460011199999999
 50
269.7752358554871
 51
90.224735855487296
  0
ARC
  5
BE0C
  8
AM_0
 10
259.48432096780101
 20
492.81658702042722
 30
0.0
 40
1.000005699999998
 50
269.99998285548429
 51
89.999995855486276
  0
ARC
  5
BE0D
  8
AM_0
 10
259.48432343648432
 20
502.81658702042688
 30
0.0
 40
1.000005699999998
 50
269.99998285548429
 51
89.999995855486276
  0
ARC
  5
BE0E
  8
AM_0
 10
263.3093074640957
 20
492.80157607615922
 30
0.0
 40
1.3350147999999991
 50
269.73042985548369
 51
90.269555855485152
  0
ARC
  5
BE0F
  8
AM_0
 10
263.37125993401298
 20
502.80657606086538
 30
0.0
 40
1.2700266
 50
269.62931585548409
 51
90.370665855485697
  0
LINE
  5
BE10
  8
AM_0
 10
266.14436477082552
 20
539.75660828584125
 30
0.0
 11
274.14433477082559
 21
539.75660828584125
 31
0.0
  0
ARC
  5
BE11
  8
AM_0
 10
259.48432467082557
 20
512.81658537628141
 30
0.0
 40
1.000005699999998
 50
269.999989999999
 51
90.000003000000945
  0
ARC
  5
BE12
  8
AM_0
 10
259.48432467082557
 20
522.8165853762813
 30
0.0
 40
1.000005699999998
 50
269.999989999999
 51
90.000003000000945
  0
ARC
  5
BE13
  8
AM_0
 10
263.37126117082562
 20
512.82659537628115
 30
0.0
 40
1.2700266
 50
269.62932000000001
 51
90.370670000001468
  0
ARC
  5
BE14
  8
AM_0
 10
263.30931117082559
 20
522.83159537628114
 30
0.0
 40
1.3350147999999991
 50
269.7304299999999
 51
90.269556000001316
  0
ARC
  5
BE15
  8
AM_0
 10
259.48436477082549
 20
542.81658537628152
 30
0.0
 40
1.0
 50
269.999989999999
 51
90.000003000000945
  0
ARC
  5
BE16
  8
AM_0
 10
259.48430477082559
 20
532.81658537628152
 30
0.0
 40
1.000025599999997
 50
269.58947000000001
 51
90.410531000001029
  0
ARC
  5
BE17
  8
AM_0
 10
263.18431477082561
 20
532.84661537628119
 30
0.0
 40
1.460011199999999
 50
269.77524999999991
 51
90.224750000000114
  0
ARC
  5
BE18
  8
AM_0
 10
262.96432460305999
 20
542.86160137628076
 30
0.0
 40
1.675026000120903
 50
270.00068985666542
 51
89.999313143289925
  0
LINE
  5
BE19
  8
AM_0
 10
266.14436477082552
 20
553.8166132858413
 30
0.0
 11
274.14433477082559
 21
553.8166132858413
 31
0.0
  0
LINE
  5
BE1A
  8
AM_0
 10
266.14436477082552
 20
563.81662128584139
 30
0.0
 11
274.14433477082559
 21
563.81662128584139
 31
0.0
  0
ARC
  5
BE1B
  8
AM_0
 10
258.26149477082538
 20
562.09948128584119
 30
0.0
 40
2.0021281000000002
 50
15.11669999999812
 51
89.918480000000116
  0
LINE
  5
BE1C
  8
AM_0
 10
260.68434477082548
 20
560.82161028584119
 30
0.0
 11
266.14436477082552
 21
560.82161028584119
 31
0.0
  0
LINE
  5
BE1D
  8
AM_0
 10
357.15044002988623
 20
549.81656979447735
 30
0.0
 11
412.15044166901401
 21
549.81656979447735
 31
0.0
  0
LINE
  5
BE1E
  8
AM_0
 10
357.15044002988623
 20
465.81656729108209
 30
0.0
 11
412.15044166901401
 21
465.81656729108209
 31
0.0
  0
LINE
  5
BE1F
  8
AM_0
 10
412.15044166901401
 20
465.81656729108209
 30
0.0
 11
412.15044166901401
 21
469.81656741029161
 31
0.0
  0
LINE
  5
BE20
  8
AM_0
 10
412.15044166901401
 20
549.81656979447735
 30
0.0
 11
412.15044166901401
 21
545.81656967526806
 31
0.0
  0
LINE
  5
BE21
  8
AM_0
 10
399.6504412964851
 20
465.81656729108209
 30
0.0
 11
399.65044129648493
 21
464.81656854277981
 31
0.0
  0
LINE
  5
BE22
  8
AM_0
 10
369.65044040241543
 20
465.81656729108209
 30
0.0
 11
369.65044040241543
 21
464.81656854277981
 31
0.0
  0
LINE
  5
BE23
  8
AM_0
 10
357.15044002988623
 20
465.81656729108209
 30
0.0
 11
357.15044002988623
 21
469.81656741029161
 31
0.0
  0
LINE
  5
BE24
  8
AM_0
 10
399.6504412964851
 20
550.81656854277981
 30
0.0
 11
399.6504412964851
 21
549.81656979447735
 31
0.0
  0
LINE
  5
BE25
  8
AM_0
 10
369.65044040241543
 20
550.81656854277981
 30
0.0
 11
369.65044040241543
 21
549.81656979447735
 31
0.0
  0
LINE
  5
BE26
  8
AM_0
 10
357.15044002988623
 20
549.81656979447735
 30
0.0
 11
357.15044002988623
 21
545.81656967526806
 31
0.0
  0
LINE
  5
BE27
  8
AM_0
 10
410.15044084945038
 20
458.81656854277992
 30
0.0
 11
359.15044084945009
 21
458.81656854277992
 31
0.0
  0
LINE
  5
BE28
  8
AM_0
 10
398.65044084945009
 20
458.31656854277992
 30
0.0
 11
370.65044084945021
 21
458.31656854277992
 31
0.0
  0
LINE
  5
BE29
  8
AM_0
 10
399.15044084945021
 20
458.81656854277992
 30
0.0
 11
398.65044084945009
 21
458.31656854277992
 31
0.0
1001
GENIUS_GENFIL_13
1070
     0
1040
0.5
1040
0.5
1040
20.0
1040
0.0
1002
{
1002
}
1001
GENIUS_GENOBJ-N-CHA_13
1002
{
1000
OWNER
1000
GEN
1002
}
1001
GENIUS_GENODEF_13
1002
{
1000
HIER
1070
     0
1002
}
1002
{
1000
MANEDIT
1070
     0
1002
}
1002
{
1000
NOSEL
1070
     0
1002
}
1002
{
1000
BEHIND
1070
     0
1002
}
1002
{
1000
OTHER
1070
     0
1002
}
1002
{
1000
REACTOR
1002
}
  0
LINE
  5
BE2A
  8
AM_0
 10
411.15044084945038
 20
459.81656854277981
 30
0.0
 11
411.15044084945009
 21
464.81656854278032
 31
0.0
  0
LINE
  5
BE2B
  8
AM_0
 10
410.15044084945038
 20
458.81656854277992
 30
0.0
 11
411.15044084945038
 21
459.81656854277981
 31
0.0
1001
GENIUS_GENFIL_13
1070
     0
1040
1.0
1040
1.0
1040
20.0
1040
0.0
1002
{
1002
}
1001
GENIUS_GENOBJ-N-CHA_13
1002
{
1000
OWNER
1000
GEN
1002
}
1001
GENIUS_GENODEF_13
1002
{
1000
HIER
1070
     0
1002
}
1002
{
1000
MANEDIT
1070
     0
1002
}
1002
{
1000
NOSEL
1070
     0
1002
}
1002
{
1000
BEHIND
1070
     0
1002
}
1002
{
1000
OTHER
1070
     0
1002
}
1002
{
1000
REACTOR
1002
}
  0
LINE
  5
BE2C
  8
AM_0
 10
411.15044084945009
 20
464.81656854277981
 30
0.0
 11
358.15044084945021
 21
464.81656854277981
 31
0.0
  0
LINE
  5
BE2D
  8
AM_0
 10
370.65044084945021
 20
458.31656854277992
 30
0.0
 11
370.15044084945021
 21
458.81656854277992
 31
0.0
1001
GENIUS_GENFIL_13
1070
     0
1040
0.5
1040
0.5
1040
20.0
1040
0.0
1002
{
1002
}
1001
GENIUS_GENODEF_13
1002
{
1000
HIER
1070
     0
1002
}
1002
{
1000
MANEDIT
1070
     0
1002
}
1002
{
1000
NOSEL
1070
     0
1002
}
1002
{
1000
BEHIND
1070
     0
1002
}
1002
{
1000
OTHER
1070
     0
1002
}
1002
{
1000
REACTOR
1002
}
1001
GENIUS_GENOBJ-N-CHA_13
1002
{
1000
OWNER
1000
GEN
1002
}
  0
LINE
  5
BE2E
  8
AM_0
 10
358.15044084945021
 20
459.81656854277981
 30
0.0
 11
358.15044084945021
 21
464.81656854277981
 31
0.0
  0
LINE
  5
BE2F
  8
AM_0
 10
359.15044084945009
 20
458.81656854277992
 30
0.0
 11
358.15044084945021
 21
459.81656854277981
 31
0.0
1001
GENIUS_GENFIL_13
1070
     0
1040
1.0
1040
1.0
1040
20.0
1040
0.0
1002
{
1002
}
1001
GENIUS_GENOBJ-N-CHA_13
1002
{
1000
OWNER
1000
GEN
1002
}
1001
GENIUS_GENODEF_13
1002
{
1000
HIER
1070
     0
1002
}
1002
{
1000
MANEDIT
1070
     0
1002
}
1002
{
1000
NOSEL
1070
     0
1002
}
1002
{
1000
BEHIND
1070
     0
1002
}
1002
{
1000
OTHER
1070
     0
1002
}
1002
{
1000
REACTOR
1002
}
  0
LINE
  5
BE30
  8
AM_0
 10
410.15044084945038
 20
556.81656854277981
 30
0.0
 11
359.15044084945009
 21
556.81656854277981
 31
0.0
  0
LINE
  5
BE31
  8
AM_0
 10
358.15044084945021
 20
555.81656854277969
 30
0.0
 11
359.15044084945009
 21
556.81656854277981
 31
0.0
1001
GENIUS_GENFIL_13
1070
     0
1040
1.0
1040
1.0
1040
20.0
1040
0.0
1002
{
1002
}
1001
GENIUS_GENODEF_13
1002
{
1000
HIER
1070
     0
1002
}
1002
{
1000
MANEDIT
1070
     0
1002
}
1002
{
1000
NOSEL
1070
     0
1002
}
1002
{
1000
BEHIND
1070
     0
1002
}
1002
{
1000
OTHER
1070
     0
1002
}
1002
{
1000
REACTOR
1002
}
1001
GENIUS_GENOBJ-N-CHA_13
1002
{
1000
OWNER
1000
GEN
1002
}
  0
LINE
  5
BE32
  8
AM_0
 10
398.65044084945009
 20
557.31656854278003
 30
0.0
 11
370.65044084945021
 21
557.31656854277981
 31
0.0
  0
LINE
  5
BE33
  8
AM_0
 10
399.15044084945021
 20
556.81656854278003
 30
0.0
 11
398.65044084945009
 21
557.31656854278003
 31
0.0
1001
GENIUS_GENFIL_13
1070
     0
1040
0.5
1040
0.5
1040
20.0
1040
0.0
1002
{
1002
}
1001
GENIUS_GENOBJ-N-CHA_13
1002
{
1000
OWNER
1000
GEN
1002
}
1001
GENIUS_GENODEF_13
1002
{
1000
HIER
1070
     0
1002
}
1002
{
1000
MANEDIT
1070
     0
1002
}
1002
{
1000
NOSEL
1070
     0
1002
}
1002
{
1000
BEHIND
1070
     0
1002
}
1002
{
1000
OTHER
1070
     0
1002
}
1002
{
1000
REACTOR
1002
}
  0
LINE
  5
BE34
  8
AM_0
 10
370.15044084945021
 20
556.81656854277981
 30
0.0
 11
370.65044084945021
 21
557.31656854277981
 31
0.0
1001
GENIUS_GENFIL_13
1070
     0
1040
0.5
1040
0.5
1040
20.0
1040
0.0
1002
{
1002
}
1001
GENIUS_GENOBJ-N-CHA_13
1002
{
1000
OWNER
1000
GEN
1002
}
1001
GENIUS_GENODEF_13
1002
{
1000
HIER
1070
     0
1002
}
1002
{
1000
MANEDIT
1070
     0
1002
}
1002
{
1000
NOSEL
1070
     0
1002
}
1002
{
1000
BEHIND
1070
     0
1002
}
1002
{
1000
OTHER
1070
     0
1002
}
1002
{
1000
REACTOR
1002
}
  0
LINE
  5
BE35
  8
AM_0
 10
411.15044084945038
 20
555.81656854277969
 30
0.0
 11
411.15044084945009
 21
550.81656854277935
 31
0.0
  0
LINE
  5
BE36
  8
AM_0
 10
410.15044084945038
 20
556.81656854277981
 30
0.0
 11
411.15044084945038
 21
555.81656854277969
 31
0.0
1001
GENIUS_GENFIL_13
1070
     0
1040
1.0
1040
1.0
1040
20.0
1040
0.0
1002
{
1002
}
1001
GENIUS_GENODEF_13
1002
{
1000
HIER
1070
     0
1002
}
1002
{
1000
MANEDIT
1070
     0
1002
}
1002
{
1000
NOSEL
1070
     0
1002
}
1002
{
1000
BEHIND
1070
     0
1002
}
1002
{
1000
OTHER
1070
     0
1002
}
1002
{
1000
REACTOR
1002
}
1001
GENIUS_GENOBJ-N-CHA_13
1002
{
1000
OWNER
1000
GEN
1002
}
  0
LINE
  5
BE37
  8
AM_0
 10
411.15044084945009
 20
550.81656854277981
 30
0.0
 11
358.15044084945021
 21
550.81656854277981
 31
0.0
  0
LINE
  5
BE38
  8
AM_0
 10
358.15044084945021
 20
555.81656854277969
 30
0.0
 11
358.15044084945021
 21
550.81656854277981
 31
0.0
  0
CIRCLE
  5
BE63
  8
AM_0
 10
165.6443347708254
 20
461.81659916707082
 30
0.0
 40
3.0
  0
CIRCLE
  5
BE64
  8
AM_0
 10
165.6443347708254
 20
553.81660355638962
 30
0.0
 40
3.0
  0
LINE
  5
C022
  8
AM_0
 10
150.64433477082559
 20
454.81658946223189
 30
0.0
 11
150.64433477082559
 21
560.81657046223199
 31
0.0
  0
LINE
  5
C023
  8
AM_0
 10
142.6443347708265
 20
455.7551809534599
 30
0.0
 11
142.64433477082611
 21
493.4774678682171
 31
0.0
  0
LINE
  5
C024
  8
AM_0
 10
133.64433477082559
 20
453.81658446223179
 30
0.0
 11
133.64433477082559
 21
561.81658446223184
 31
0.0
  0
LINE
  5
C025
  8
AM_0
 10
133.64433477082559
 20
453.81658446223167
 30
0.0
 11
150.64433477082559
 21
454.81658446223162
 31
0.0
  0
LINE
  5
C026
  8
AM_0
 10
133.64433477082559
 20
561.81658446223184
 30
0.0
 11
150.64433477082559
 21
560.81658446223184
 31
0.0
  0
LINE
  5
C027
  8
AM_0
 10
142.64433477082639
 20
464.22268126414031
 30
0.0
 11
150.64433477082559
 21
464.22268126414031
 31
0.0
  0
LINE
  5
C028
  8
AM_0
 10
142.6443347708265
 20
455.7551809534599
 30
0.0
 11
150.64433477082559
 21
455.7551809534599
 31
0.0
  0
LINE
  5
C029
  8
AM_0
 10
139.14433477082639
 20
473.17571149697193
 30
0.0
 11
142.64433477082639
 21
473.17571149697193
 31
0.0
  0
LINE
  5
C02A
  8
AM_0
 10
139.14433477082639
 20
464.67571149697193
 30
0.0
 11
142.6443347708265
 21
464.67571149697193
 31
0.0
  0
LINE
  5
C02B
  8
AM_0
 10
138.64433477082639
 20
465.17571149697181
 30
0.0
 11
138.64433477082639
 21
472.67571149697199
 31
0.0
  0
ARC
  5
C02C
  8
AM_0
 10
139.14433477082639
 20
465.17571149697181
 30
0.0
 40
0.5
 50
180.0
 51
270.0
  0
ARC
  5
C02D
  8
AM_0
 10
139.14433477082639
 20
472.67571149697199
 30
0.0
 40
0.5
 50
90.0
 51
180.0
  0
LINE
  5
C02E
  8
AM_0
 10
133.64433477082559
 20
465.54438996909192
 30
0.0
 11
138.64433477082639
 21
465.54438996909192
 31
0.0
  0
LINE
  5
C02F
  8
AM_0
 10
133.64433477082559
 20
475.27947246738768
 30
0.0
 11
142.64433477082619
 21
475.27947246738768
 31
0.0
  0
LINE
  5
C030
  8
AM_0
 10
142.6443347708265
 20
559.87798797100402
 30
0.0
 11
142.64433477082611
 21
522.15570105625125
 31
0.0
  0
LINE
  5
C031
  8
AM_0
 10
142.64433477082639
 20
551.4104876603235
 30
0.0
 11
150.64433477082559
 21
551.4104876603235
 31
0.0
  0
LINE
  5
C032
  8
AM_0
 10
142.6443347708265
 20
559.87798797100402
 30
0.0
 11
150.64433477082559
 21
559.87798797100402
 31
0.0
  0
LINE
  5
C033
  8
AM_0
 10
139.14433477082639
 20
542.45745742749205
 30
0.0
 11
142.64433477082639
 21
542.45745742749205
 31
0.0
  0
LINE
  5
C034
  8
AM_0
 10
139.14433477082639
 20
550.95745742749205
 30
0.0
 11
142.6443347708265
 21
550.95745742749205
 31
0.0
  0
LINE
  5
C035
  8
AM_0
 10
138.64433477082639
 20
550.45745742749205
 30
0.0
 11
138.64433477082639
 21
542.95745742749205
 31
0.0
  0
ARC
  5
C036
  8
AM_0
 10
139.14433477082639
 20
550.45745742749205
 30
0.0
 40
0.5
 50
90.0
 51
180.0
  0
ARC
  5
C037
  8
AM_0
 10
139.14433477082639
 20
542.95745742749205
 30
0.0
 40
0.5
 50
180.0
 51
270.0
  0
LINE
  5
C038
  8
AM_0
 10
133.64433477082559
 20
550.08877895537205
 30
0.0
 11
138.64433477082639
 21
550.08877895537205
 31
0.0
  0
LINE
  5
C039
  8
AM_0
 10
133.64433477082559
 20
540.35369645707624
 30
0.0
 11
142.64433477082619
 21
540.35369645707624
 31
0.0
  0
LINE
  5
C03A
  8
AM_0
 10
98.733750019490003
 20
471.82617361730598
 30
0.0
 11
98.733750019490003
 21
478.33777851626468
 31
0.0
  0
LINE
  5
C03B
  8
AM_0
 10
95.644334770825367
 20
518.81658446223207
 30
0.0
 11
95.644334770825367
 21
524.31658446223184
 31
0.0
  0
LINE
  5
C03C
  8
AM_0
 10
101.1443347708253
 20
511.31658446223202
 30
0.0
 11
101.1443347708253
 21
504.31658446223179
 31
0.0
  0
LINE
  5
C03D
  8
AM_0
 10
112.8443347708254
 20
524.31658446223184
 30
0.0
 11
95.644334770825367
 21
524.31658446223184
 31
0.0
  0
LINE
  5
C03E
  8
AM_0
 10
127.64433477082549
 20
561.81658446223184
 30
0.0
 11
127.6443347708253
 21
453.81658446223167
 31
0.0
  0
LINE
  5
C03F
  8
AM_0
 10
95.644334770825367
 20
509.31658446223162
 30
0.0
 11
96.544334770825444
 21
509.31658446223162
 31
0.0
  0
LINE
  5
C040
  8
AM_0
 10
113.1443347708253
 20
516.31658446223184
 30
0.0
 11
113.1443347708253
 21
513.73207477762787
 31
0.0
  0
LINE
  5
C041
  8
AM_0
 10
93.444334770825094
 20
506.31658446223207
 30
0.0
 11
93.444334770825094
 21
509.31658446223162
 31
0.0
  0
LINE
  5
C042
  8
AM_0
 10
96.544334770825444
 20
509.58893619681561
 30
0.0
 11
96.544334770825444
 21
506.04423272764802
 31
0.0
  0
LINE
  5
C043
  8
AM_0
 10
93.144334770825367
 20
506.61658446223208
 30
0.0
 11
96.544334770825444
 21
506.61658446223208
 31
0.0
  0
LINE
  5
C044
  8
AM_0
 10
100.5443347708254
 20
510.19815432263931
 30
0.0
 11
100.5443347708254
 21
511.31658446223202
 31
0.0
  0
LINE
  5
C045
  8
AM_0
 10
100.5443347708254
 20
509.31658446223162
 30
0.0
 11
100.5443347708254
 21
509.41658446223192
 31
0.0
  0
LINE
  5
C046
  8
AM_0
 10
100.5443347708254
 20
509.41658446223192
 30
0.0
 11
100.5443347708254
 21
510.19815432263931
 31
0.0
  0
LINE
  5
C047
  8
AM_0
 10
95.644334770825367
 20
524.31658446223184
 30
0.0
 11
95.644334770825367
 21
532.55411847165408
 31
0.0
  0
LINE
  5
C048
  8
AM_0
 10
112.9978881614187
 20
513.37852138703465
 30
0.0
 11
112.6428210352304
 21
513.02345426084651
 31
0.0
  0
LINE
  5
C049
  8
AM_0
 10
95.644334770825367
 20
506.31658446223207
 30
0.0
 11
95.644334770825367
 21
483.07905045280961
 31
0.0
  0
LINE
  5
C04A
  8
AM_0
 10
127.6443347708253
 20
462.81658446223167
 30
0.0
 11
103.87432607019269
 21
462.81658446223167
 31
0.0
  0
LINE
  5
C04B
  8
AM_0
 10
95.644334770825367
 20
517.89018128651105
 30
0.0
 11
95.644334770825367
 21
509.31658446223162
 31
0.0
  0
LINE
  5
C04C
  8
AM_0
 10
133.64433477082559
 20
453.81658446223167
 30
0.0
 11
127.6443347708253
 21
453.81658446223167
 31
0.0
  0
LINE
  5
C04D
  8
AM_0
 10
127.6443347708253
 20
561.81658446223184
 30
0.0
 11
133.6443347708254
 21
561.81658446223184
 31
0.0
  0
LINE
  5
C04E
  8
AM_0
 10
127.6443347708253
 20
552.81658446223196
 30
0.0
 11
101.6881732785267
 21
552.81658446223196
 31
0.0
  0
LINE
  5
C04F
  8
AM_0
 10
95.689911511788864
 20
482.55810591980861
 30
0.0
 11
98.259354959451116
 21
467.98606800854492
 31
0.0
  0
LINE
  5
C050
  8
AM_0
 10
95.644334770825367
 20
517.89018128651105
 30
0.0
 11
95.644334770825367
 21
518.81658446223207
 31
0.0
  0
LINE
  5
C051
  8
AM_0
 10
95.689911511788864
 20
533.07506300465514
 30
0.0
 11
98.733750019490003
 21
550.33752899523279
 31
0.0
  0
LINE
  5
C052
  8
AM_0
 10
95.644334770825367
 20
532.81658446223184
 30
0.0
 11
95.689911511788864
 21
533.07506300465514
 31
0.0
  0
LINE
  5
C053
  8
AM_0
 10
95.644334770825367
 20
532.55411847165408
 30
0.0
 11
95.644334770825367
 21
532.81658446223184
 31
0.0
  0
LINE
  5
C054
  8
AM_0
 10
95.144296102818558
 20
454.31658446223179
 30
0.0
 11
95.144273650419905
 21
427.31658446223207
 31
0.0
  0
LINE
  5
C055
  8
AM_0
 10
95.144273650419905
 20
427.31658446223207
 30
0.0
 11
103.14427365042251
 21
427.31658446223207
 31
0.0
  0
LINE
  5
C056
  8
AM_0
 10
103.14427365042251
 20
427.31658446223207
 30
0.0
 11
104.64426899524329
 21
421.71852562424351
 31
0.0
  0
LINE
  5
C057
  8
AM_0
 10
104.64426899524329
 20
421.71852562424351
 30
0.0
 11
104.6442542318831
 21
403.9649333443532
 31
0.0
  0
LINE
  5
C058
  8
AM_0
 10
95.144273650419905
 20
427.31658446223207
 30
0.0
 11
93.644268995210837
 21
421.71849087740202
 31
0.0
  0
LINE
  5
C059
  8
AM_0
 10
93.644268995210837
 20
421.71849087740202
 30
0.0
 11
93.644254231886862
 21
403.96494249162652
 31
0.0
  0
LINE
  5
C05A
  8
AM_0
 10
99.144296102819808
 20
403.96494249162652
 30
0.0
 11
99.144296102819808
 21
421.71849087740202
 31
0.0
  0
LINE
  5
C05B
  8
AM_0
 10
103.14427365042251
 20
427.31658446223207
 30
0.0
 11
103.1442961028214
 21
454.31658446223179
 31
0.0
  0
LINE
  5
C05C
  8
AM_0
 10
113.14433477082549
 20
478.33777851626468
 30
0.0
 11
113.1443347708253
 21
524.01658446223178
 31
0.0
  0
LINE
  5
C05D
  8
AM_0
 10
101.1443347708253
 20
513.73207477762787
 30
0.0
 11
101.1443347708253
 21
516.31658446223184
 31
0.0
  0
LINE
  5
C05E
  8
AM_0
 10
101.64584850642051
 20
513.02345426084651
 30
0.0
 11
101.2907813802322
 21
513.37852138703465
 31
0.0
  0
LINE
  5
C05F
  8
AM_0
 10
112.6443347708253
 20
516.81658446223184
 30
0.0
 11
101.6443347708253
 21
516.81658446223184
 31
0.0
  0
LINE
  5
C060
  8
AM_0
 10
92.644296934324515
 20
455.31658986743912
 30
0.0
 11
92.644323960359884
 21
460.31658986743912
 31
0.0
  0
LINE
  5
C061
  8
AM_0
 10
105.64429693445599
 20
455.3165790570248
 30
0.0
 11
105.6443228622757
 21
460.11340171039558
 31
0.0
  0
LINE
  5
C062
  8
AM_0
 10
96.26483802290636
 20
462.31658446223179
 30
0.0
 11
95.693276121541075
 21
461.6600006401718
 31
0.0
  0
LINE
  5
C063
  8
AM_0
 10
93.644323960345304
 20
461.31658446223202
 30
0.0
 11
104.6443228622757
 21
461.31658446223202
 31
0.0
  0
LINE
  5
C064
  8
AM_0
 10
105.6443228622757
 20
460.11340171039558
 30
0.0
 11
105.6443228622757
 21
460.31658446223219
 31
0.0
  0
LINE
  5
C065
  8
AM_0
 10
105.6443228622757
 20
460.11340171039558
 30
0.0
 11
105.6443239604915
 21
460.3165790570248
 31
0.0
  0
LINE
  5
C066
  8
AM_0
 10
93.644296934309864
 20
454.31658446223179
 30
0.0
 11
104.6442969344706
 21
454.31658446223179
 31
0.0
  0
LINE
  5
C067
  8
AM_0
 10
103.6517707329876
 20
462.28599739194658
 30
0.0
 11
110.7745704663331
 21
479.26723671069323
 31
0.0
  0
LINE
  5
C068
  8
AM_0
 10
96.26483802290636
 20
462.31658446223179
 30
0.0
 11
102.84155309821659
 21
481.01112509263407
 31
0.0
  0
LINE
  5
C069
  8
AM_0
 10
100.5443347708254
 20
509.31658446223162
 30
0.0
 11
100.5443347708254
 21
509.41658446223192
 31
0.0
  0
LINE
  5
C06A
  8
AM_0
 10
100.5443347708254
 20
509.41658446223192
 30
0.0
 11
100.5443347708254
 21
510.19815432263931
 31
0.0
  0
LINE
  5
C06B
  8
AM_0
 10
100.5443347708254
 20
511.31658446223202
 30
0.0
 11
101.1443347708253
 21
511.31658446223202
 31
0.0
  0
LINE
  5
C06C
  8
AM_0
 10
97.844334770825441
 20
510.19815432263931
 30
0.0
 11
97.844334770825441
 21
505.43501460182472
 31
0.0
  0
LINE
  5
C06D
  8
AM_0
 10
97.683290541568013
 20
510.48484595098199
 30
0.0
 11
96.750737492060679
 21
509.94643619681568
 31
0.0
  0
LINE
  5
C06E
  8
AM_0
 10
100.5443347708254
 20
504.31658446223179
 30
0.0
 11
100.5443347708254
 21
509.31658446223162
 31
0.0
  0
LINE
  5
C06F
  8
AM_0
 10
98.116786362856061
 20
510.99201094277498
 30
0.0
 11
100.27188317879479
 21
510.99201094277498
 31
0.0
  0
LINE
  5
C070
  8
AM_0
 10
98.116786362856061
 20
509.40429770250353
 30
0.0
 11
100.27188317879479
 21
509.40429770250353
 31
0.0
  0
LINE
  5
C071
  8
AM_0
 10
96.544334770825444
 20
506.31658446223207
 30
0.0
 11
93.444334770825094
 21
506.31658446223207
 31
0.0
  0
LINE
  5
C072
  8
AM_0
 10
93.444334770825094
 20
506.31658446223207
 30
0.0
 11
93.144334770825367
 21
506.61658446223208
 31
0.0
  0
LINE
  5
C073
  8
AM_0
 10
93.144334770825367
 20
506.61658446223208
 30
0.0
 11
93.144334770825367
 21
509.016584462232
 31
0.0
  0
LINE
  5
C074
  8
AM_0
 10
93.444334770825094
 20
509.31658446223162
 30
0.0
 11
95.644334770825367
 21
509.31658446223162
 31
0.0
  0
LINE
  5
C075
  8
AM_0
 10
93.144334770825367
 20
509.016584462232
 30
0.0
 11
93.444334770825094
 21
509.31658446223162
 31
0.0
  0
LINE
  5
C076
  8
AM_0
 10
96.544334770825444
 20
509.016584462232
 30
0.0
 11
93.144334770825367
 21
509.016584462232
 31
0.0
  0
ARC
  5
C077
  8
AM_0
 10
95.144334770825367
 20
507.8165844622319
 30
0.0
 40
18.000000000000071
 50
344.79096035989261
 51
15.20903964011411
  0
ARC
  5
C078
  8
AM_0
 10
99.251557954798855
 20
510.19815432263931
 30
0.0
 40
1.292776816026465
 50
0.0
 51
37.884441053694111
  0
ARC
  5
C079
  8
AM_0
 10
119.1443347708253
 20
507.8165844622319
 30
0.0
 40
17.999999999999918
 50
164.7909603598859
 51
195.2090396401141
  0
ARC
  5
C07A
  8
AM_0
 10
99.144261176866294
 20
412.31658446223167
 30
0.0
 40
10.0
 50
236.6329393852977
 51
303.36696532376487
  0
ARC
  5
C07B
  8
AM_0
 10
96.394275167353385
 20
408.39759085123251
 30
0.0
 40
5.2164151124522951
 50
238.1844804484314
 51
301.81551955156851
  0
ARC
  5
C07C
  8
AM_0
 10
101.894282540988
 20
408.39846574199231
 30
0.0
 40
5.2171403873810611
 50
238.18986771264201
 51
301.8099417040292
  0
ARC
  5
C07D
  8
AM_0
 10
96.394282549015443
 20
420.35053686305912
 30
0.0
 40
3.0714610092699122
 50
26.447376724218259
 51
153.5526232757816
  0
ARC
  5
C07E
  8
AM_0
 10
101.8942911803866
 20
420.35227706775459
 30
0.0
 40
3.070669812974502
 50
26.419181894793638
 51
153.5815420532692
  0
ARC
  5
C07F
  8
AM_0
 10
102.6067646468851
 20
507.8165844622319
 30
0.0
 40
4.762429876059711
 50
160.52575999458671
 51
199.47424000541329
  0
ARC
  5
C080
  8
AM_0
 10
99.137111586852015
 20
510.19815432263931
 30
0.0
 40
1.292776816026554
 50
142.11555894630581
 51
217.88444105370229
  0
ARC
  5
C081
  8
AM_0
 10
95.78190489476593
 20
507.8165844622319
 30
0.0
 40
4.762429876059584
 50
340.52575999458668
 51
19.4742400054133
  0
ARC
  5
C082
  8
AM_0
 10
99.251557954798855
 20
510.19815432263931
 30
0.0
 40
1.292776816026501
 50
322.11555894629771
 51
0.0
  0
ARC
  5
C083
  8
AM_0
 10
112.8443347708254
 20
524.01658446223178
 30
0.0
 40
0.2999999999999972
 50
0.0
 51
90.0
  0
ARC
  5
C084
  8
AM_0
 10
112.9963744258237
 20
512.66990087025283
 30
0.0
 40
0.4999999999998723
 50
134.99999999998161
 51
195.2090396401006
  0
ARC
  5
C085
  8
AM_0
 10
98.644334770825367
 20
532.55411847165408
 30
0.0
 40
3.0
 50
170.00000000000151
 51
180.0
  0
ARC
  5
C086
  8
AM_0
 10
98.644334770825367
 20
483.07905045280961
 30
0.0
 40
2.9999999999999911
 50
180.0
 51
189.99999999999861
  0
ARC
  5
C087
  8
AM_0
 10
101.68817327852651
 20
549.81658446223184
 30
0.0
 40
2.9999999999999631
 50
90.0
 51
170.00000000000151
  0
ARC
  5
C088
  8
AM_0
 10
101.6443347708253
 20
516.31658446223184
 30
0.0
 40
0.5
 50
90.0
 51
180.0
  0
ARC
  5
C089
  8
AM_0
 10
112.6443347708253
 20
516.31658446223184
 30
0.0
 40
0.5
 50
0.0
 51
90.0
  0
ARC
  5
C08A
  8
AM_0
 10
112.6443347708253
 20
513.73207477762787
 30
0.0
 40
0.5
 50
315.0
 51
0.0
  0
ARC
  5
C08B
  8
AM_0
 10
101.2922951158272
 20
512.66990087025283
 30
0.0
 40
0.5000000000001048
 50
344.7909603598992
 51
45.000000000018389
  0
ARC
  5
C08C
  8
AM_0
 10
101.6443347708253
 20
513.73207477762787
 30
0.0
 40
0.499999999999984
 50
180.0
 51
225.00000000000921
  0
ARC
  5
C08D
  8
AM_0
 10
93.644296934309864
 20
455.31658446223219
 30
0.0
 40
1.0
 50
179.99969030444211
 51
270.0
  0
ARC
  5
C08E
  8
AM_0
 10
104.6442969344706
 20
455.31658446223219
 30
0.0
 40
0.9999999999999992
 50
270.0
 51
359.99969030444879
  0
ARC
  5
C08F
  8
AM_0
 10
93.644323960345304
 20
460.31658446223219
 30
0.0
 40
0.9999999999999992
 50
90.0
 51
179.99969030444211
  0
ARC
  5
C090
  8
AM_0
 10
104.6443228622757
 20
460.31658446223219
 30
0.0
 40
1.0
 50
0.0
 51
90.0
  0
ARC
  5
C091
  8
AM_0
 10
104.12456464936091
 20
461.91658446223198
 30
0.0
 40
0.5999999999999944
 50
141.99805566226991
 51
270.0
  0
ARC
  5
C092
  8
AM_0
 10
94.9390230575044
 20
462.31658446223179
 30
0.0
 40
0.9999999999999468
 50
270.0
 51
318.96014689042511
  0
ARC
  5
C093
  8
AM_0
 10
96.957140213295915
 20
509.58893619681561
 30
0.0
 40
0.4128054424705855
 50
120.0000000000004
 51
180.0
  0
ARC
  5
C094
  8
AM_0
 10
97.270485099097286
 20
511.19984595098219
 30
0.0
 40
0.8256108849411369
 50
300.00000000000063
 51
331.7825754058241
  0
LINE
  5
C095
  8
AM_0
 10
96.434069100456867
 20
478.33777851626479
 30
0.0
 11
101.90107325022571
 21
478.33777851626479
 31
0.0
  0
LINE
  5
C096
  8
AM_0
 10
110.3847081921395
 20
478.33777851626479
 30
0.0
 11
113.1443347708253
 21
478.33777851626479
 31
0.0
  0
LINE
  5
C097
  8
AM_0
 10
100.5443347708257
 20
504.31658446223179
 30
0.0
 11
101.14433477082569
 21
504.31658446223179
 31
0.0
  0
LINE
  5
C098
  8
AM_0
 10
97.683290541568226
 20
505.14832297348181
 30
0.0
 11
96.750737492060935
 21
505.68673272764812
 31
0.0
  0
LINE
  5
C099
  8
AM_0
 10
98.116786362856274
 20
504.64115798168882
 30
0.0
 11
100.27188317879499
 21
504.64115798168922
 31
0.0
  0
LINE
  5
C09A
  8
AM_0
 10
98.116786362856061
 20
506.22887122196062
 30
0.0
 11
100.27188317879499
 21
506.22887122196079
 31
0.0
  0
ARC
  5
C09B
  8
AM_0
 10
99.251557954799097
 20
505.43501460182489
 30
0.0
 40
1.292776816026465
 50
322.11555894631198
 51
0.0000000000064748
  0
ARC
  5
C09C
  8
AM_0
 10
99.137111586852157
 20
505.43501460182472
 30
0.0
 40
1.292776816026554
 50
142.11555894630581
 51
217.88444105370229
  0
ARC
  5
C09D
  8
AM_0
 10
99.251557954799097
 20
505.43501460182489
 30
0.0
 40
1.292776816026501
 50
0.0000000000064748
 51
37.884441053710411
  0
ARC
  5
C09E
  8
AM_0
 10
96.957140213296171
 20
506.04423272764802
 30
0.0
 40
0.4128054424705855
 50
180.00000000000659
 51
240.00000000000841
  0
ARC
  5
C09F
  8
AM_0
 10
97.270485099097513
 20
504.43332297348161
 30
0.0
 40
0.8256108849411369
 50
28.217424594182582
 51
59.999999999999382
  0
LINE
  5
C0A0
  8
AM_0
 10
113.14433477082601
 20
499.31658446223258
 30
0.0
 11
113.14433477082579
 21
501.90109414683661
 31
0.0
  0
LINE
  5
C0A1
  8
AM_0
 10
112.9978881614191
 20
502.25464753742961
 30
0.0
 11
112.6428210352309
 21
502.60971466361809
 31
0.0
  0
LINE
  5
C0A2
  8
AM_0
 10
101.14433477082579
 20
501.90109414683587
 30
0.0
 11
101.14433477082601
 21
499.31658446223167
 31
0.0
  0
LINE
  5
C0A3
  8
AM_0
 10
101.64584850642071
 20
502.60971466361741
 30
0.0
 11
101.2907813802327
 21
502.25464753742921
 31
0.0
  0
LINE
  5
C0A4
  8
AM_0
 10
112.64433477082601
 20
498.81658446223258
 30
0.0
 11
112.1637568849786
 21
498.81658446223258
 31
0.0
  0
LINE
  5
C0A5
  8
AM_0
 10
102.1249126566732
 20
498.81658446223202
 30
0.0
 11
101.64433477082601
 21
498.81658446223202
 31
0.0
  0
ARC
  5
C0A6
  8
AM_0
 10
112.996374425824
 20
502.96326805421108
 30
0.0
 40
0.4999999999998723
 50
164.79096035990551
 51
225.0000000000276
  0
ARC
  5
C0A7
  8
AM_0
 10
101.64433477082601
 20
499.3165844622319
 30
0.0
 40
0.5
 50
180.0
 51
270.00000000000648
  0
ARC
  5
C0A8
  8
AM_0
 10
112.64433477082601
 20
499.31658446223258
 30
0.0
 40
0.5
 50
270.00000000000648
 51
0.0
  0
ARC
  5
C0A9
  8
AM_0
 10
112.64433477082579
 20
501.90109414683661
 30
0.0
 40
0.5
 50
0.0
 51
45.000000000009187
  0
ARC
  5
C0AA
  8
AM_0
 10
101.2922951158274
 20
502.9632680542108
 30
0.0
 40
0.5000000000001048
 50
314.99999999999079
 51
15.20903964010116
  0
ARC
  5
C0AB
  8
AM_0
 10
101.64433477082579
 20
501.90109414683587
 30
0.0
 40
0.499999999999984
 50
134.99999999999079
 51
180.0
  0
LINE
  5
C0AC
  8
AM_0
 10
103.1249126566734
 20
482.67043306440979
 30
0.0
 11
103.1249126566733
 21
497.8165844622319
 31
0.0
  0
ARC
  5
C0AD
  8
AM_0
 10
102.1249126566733
 20
497.8165844622319
 30
0.0
 40
1.0
 50
0.0
 51
90.000000000006509
1001
GENIUS_GENODEF_13
1002
{
1000
HIER
1070
     0
1002
}
1002
{
1000
MANEDIT
1070
     0
1002
}
1002
{
1000
NOSEL
1070
     0
1002
}
1002
{
1000
BEHIND
1070
     0
1002
}
1002
{
1000
OTHER
1070
     0
1002
}
1002
{
1000
REACTOR
1002
}
1001
GENIUS_GENOBJ-N-FIL_13
1002
{
1000
OWNER
1000
GEN
1002
}
  0
ARC
  5
C0AE
  8
AM_0
 10
98.124912656673487
 20
482.67043306440979
 30
0.0
 40
5.0
 50
340.61819430097631
 51
0.0
1001
GENIUS_GENOBJ-N-FIL_13
1002
{
1000
OWNER
1000
GEN
1002
}
1001
GENIUS_GENODEF_13
1002
{
1000
HIER
1070
     0
1002
}
1002
{
1000
MANEDIT
1070
     0
1002
}
1002
{
1000
NOSEL
1070
     0
1002
}
1002
{
1000
BEHIND
1070
     0
1002
}
1002
{
1000
OTHER
1070
     0
1002
}
1002
{
1000
REACTOR
1002
}
  0
LINE
  5
C0AF
  8
AM_0
 10
111.1637568849786
 20
481.2012475994934
 30
0.0
 11
111.1637568849786
 21
497.81658446223253
 31
0.0
  0
ARC
  5
C0B0
  8
AM_0
 10
112.1637568849786
 20
497.81658446223253
 30
0.0
 40
1.0
 50
90.000000000006509
 51
180.0
1001
GENIUS_GENOBJ-N-FIL_13
1002
{
1000
OWNER
1000
GEN
1002
}
1001
GENIUS_GENODEF_13
1002
{
1000
HIER
1070
     0
1002
}
1002
{
1000
MANEDIT
1070
     0
1002
}
1002
{
1000
NOSEL
1070
     0
1002
}
1002
{
1000
BEHIND
1070
     0
1002
}
1002
{
1000
OTHER
1070
     0
1002
}
1002
{
1000
REACTOR
1002
}
  0
ARC
  5
C0B1
  8
AM_0
 10
106.1637568849786
 20
481.2012475994934
 30
0.0
 40
5.0
 50
337.24433268079622
 51
0.0
1001
GENIUS_GENODEF_13
1002
{
1000
HIER
1070
     0
1002
}
1002
{
1000
MANEDIT
1070
     0
1002
}
1002
{
1000
NOSEL
1070
     0
1002
}
1002
{
1000
BEHIND
1070
     0
1002
}
1002
{
1000
OTHER
1070
     0
1002
}
1002
{
1000
REACTOR
1002
}
1001
GENIUS_GENOBJ-N-FIL_13
1002
{
1000
OWNER
1000
GEN
1002
}
  0
LINE
  5
C0B2
  8
AM_0
 10
101.8708736174835
 20
502.83473977467997
 30
0.0
 11
112.4177959241686
 21
502.83473977467997
 31
0.0
  0
LINE
  5
C0B3
  8
AM_0
 10
101.8708736174832
 20
512.79842914978371
 30
0.0
 11
112.41779592416771
 21
512.79842914978371
 31
0.0
  0
LINE
  5
C0B4
  8
AM_0
 10
98.733750019490003
 20
543.8069953071581
 30
0.0
 11
98.733750019490003
 21
524.31658446223184
 31
0.0
  0
LINE
  5
C0B5
  8
AM_0
 10
101.68817327852651
 20
552.81658446223196
 30
0.0
 11
101.68817327852651
 21
524.31658446223184
 31
0.0
  0
LINE
  5
C0B6
  8
AM_0
 10
126.6443347708253
 20
454.016584462232
 30
0.0
 11
126.6443347708253
 21
461.61658446223208
 31
0.0
  0
LINE
  5
C0B7
  8
AM_0
 10
126.6443347708253
 20
461.61658446223208
 30
0.0
 11
127.6443347708253
 21
461.61658446223208
 31
0.0
  0
LINE
  5
C0B8
  8
AM_0
 10
127.6443347708253
 20
458.016584462232
 30
0.0
 11
126.6443347708253
 21
458.38055469649811
 31
0.0
  0
LINE
  5
C0B9
  8
AM_0
 10
127.6443347708253
 20
457.61658446223208
 30
0.0
 11
126.6443347708253
 21
457.98055469649819
 31
0.0
  0
LINE
  5
C0BA
  8
AM_0
 10
127.6443347708253
 20
454.016584462232
 30
0.0
 11
126.6443347708253
 21
454.016584462232
 31
0.0
  0
LINE
  5
C0BB
  8
AM_0N
 10
125.5853972586975
 20
461.72393943453858
 30
0.0
 11
126.6443347708253
 21
461.8165844622319
 31
0.0
  0
LINE
  5
C0BC
  8
AM_0N
 10
125.5853972586975
 20
453.90922948992551
 30
0.0
 11
126.6443347708253
 21
453.81658446223167
 31
0.0
  0
ARC
  5
C0BD
  8
AM_0N
 10
130.0443347708254
 20
457.8165844622319
 30
0.0
 40
6.5
 50
151.82726586813479
 51
208.1727341318651
  0
ARC
  5
C0BE
  8
AM_0N
 10
125.7248464470939
 20
455.5031410068724
 30
0.0
 40
1.6000000000000001
 50
208.1727341318651
 51
265.0
  0
ARC
  5
C0BF
  8
AM_0N
 10
125.7248464470939
 20
460.13002791759169
 30
0.0
 40
1.6000000000000001
 50
94.999999999999986
 51
151.82726586813479
  0
LINE
  5
C0C0
  8
AM_0N
 10
126.6443347708253
 20
453.81658446223167
 30
0.0
 11
126.6443347708253
 21
461.8165844622319
 31
0.0
  0
LINE
  5
C0C1
  8
AM_0
 10
126.64433477082549
 20
529.07908446223189
 30
0.0
 11
126.64433477082549
 21
536.67908446223203
 31
0.0
  0
LINE
  5
C0C2
  8
AM_0
 10
126.64433477082549
 20
536.67908446223203
 30
0.0
 11
127.64433477082549
 21
536.67908446223203
 31
0.0
  0
LINE
  5
C0C3
  8
AM_0
 10
127.64433477082549
 20
533.079084462232
 30
0.0
 11
126.64433477082549
 21
533.44305469649805
 31
0.0
  0
LINE
  5
C0C4
  8
AM_0
 10
127.64433477082549
 20
532.67908446223203
 30
0.0
 11
126.64433477082549
 21
533.04305469649819
 31
0.0
  0
LINE
  5
C0C5
  8
AM_0
 10
127.64433477082549
 20
529.07908446223189
 30
0.0
 11
126.64433477082549
 21
529.07908446223189
 31
0.0
  0
LINE
  5
C0C6
  8
AM_0N
 10
125.5853972586976
 20
536.78643943453835
 30
0.0
 11
126.64433477082549
 21
536.87908446223184
 31
0.0
  0
LINE
  5
C0C7
  8
AM_0N
 10
125.5853972586976
 20
528.97172948992545
 30
0.0
 11
126.64433477082549
 21
528.87908446223184
 31
0.0
  0
ARC
  5
C0C8
  8
AM_0N
 10
130.04433477082549
 20
532.87908446223184
 30
0.0
 40
6.5
 50
151.82726586813479
 51
208.1727341318651
  0
ARC
  5
C0C9
  8
AM_0N
 10
125.724846447094
 20
530.56564100687217
 30
0.0
 40
1.6000000000000001
 50
208.1727341318651
 51
265.0
  0
ARC
  5
C0CA
  8
AM_0N
 10
125.724846447094
 20
535.19252791759163
 30
0.0
 40
1.6000000000000001
 50
94.999999999999986
 51
151.82726586813479
  0
LINE
  5
C0CB
  8
AM_0N
 10
126.64433477082549
 20
528.87908446223184
 30
0.0
 11
126.64433477082549
 21
536.87908446223184
 31
0.0
  0
LINE
  5
C0CC
  8
AM_0
 10
150.64433477082559
 20
493.4774678682171
 30
0.0
 11
142.64433477082619
 21
493.4774678682171
 31
0.0
  0
LINE
  5
C0CD
  8
AM_0
 10
150.64433477082551
 20
522.15570105625125
 30
0.0
 11
142.64433477082599
 21
522.15570105625125
 31
0.0
  0
LINE
  5
C0D5
  8
AM_0
 10
150.64433477082559
 20
454.81661791080882
 30
0.0
 11
158.14436477082569
 21
454.81661791080882
 31
0.0
  0
LINE
  5
C0E5
  8
AM_0
 10
150.8343647708258
 20
551.01162191080869
 30
0.0
 11
157.0643447708255
 21
551.01162191080869
 31
0.0
  0
LINE
  5
C0E6
  8
AM_0
 10
150.64433477082559
 20
560.81662191080875
 30
0.0
 11
158.14436477082569
 21
560.81662191080875
 31
0.0
  0
LINE
  5
C0E7
  8
AM_0
 10
150.8343647708258
 20
464.63162791080879
 30
0.0
 11
157.0643447708255
 21
464.63162791080879
 31
0.0
  0
TEXT
  5
C76A
  8
AM_0
 10
506.41736663254272
 20
504.68678047085399
 30
0.0
 40
10.0
  1
VC01-010BHW~VC01-060BHW
1001
ACAD
1000
MTEXTBEGIN
1070
    73
1070
     1
1070
    44
1040
1.0
1070
    74
1070
     0
1000
MTEXTEND
  0
VIEWPORT
  5
89
 67
     1
  8
0
 10
210.0
 20
148.5
 30
0.0
 40
420.0
 41
297.0
 68
    -1
 69
     1
1001
ACAD
1000
MVIEW
1002
{
1070
    16
1010
0.0
1020
0.0
1030
0.0
1010
0.0
1020
0.0
1030
1.0
1040
0.0
1040
297.0
1040
221.70154043645701
1040
148.5
1040
50.0
1040
0.0
1040
0.0
1070
     0
1070
   100
1070
     1
1070
     1
1070
     0
1070
     0
1070
     0
1070
     0
1040
0.0
1040
0.0
1040
0.0
1040
10.0
1040
10.0
1040
10.0
1040
10.0
1070
     0
1002
{
1002
}
1002
}
1001
GENIUS_GENOREF_13
1005
1B94
1001
GENIUS_GENSCREG_15
1000
PF
1040
1.0
1000
DF
1040
1.0
1000
MIN
1011
0.0
1021
0.0
1031
0.0
1021
0.0
1031
0.0
1000
MAX
1011
420.0
1021
0.0
1031
0.0
1021
297.0
1031
0.0
1000
FLAGS
1070
     4
  0
ENDSEC
  0
EOF
