  0
SECTION
  2
HEADER
  9
$ACADVER
  1
AC1009
  9
$INSBASE
 10
0.0
 20
0.0
 30
0.0
  9
$EXTMIN
 10
71.667642756676742
 20
154.68683866540641
 30
-0.0000000349181948
  9
$EXTMAX
 10
720.55737487931901
 20
567.85223534463171
 30
0.0000000814935747
  9
$LIMMIN
 10
0.0
 20
0.0
  9
$LIMMAX
 10
853.5
 20
555.00000000000011
  9
$ORTHOMODE
 70
     0
  9
$REGENMODE
 70
     1
  9
$FILLMODE
 70
     1
  9
$QTEXTMODE
 70
     0
  9
$MIRRTEXT
 70
     1
  9
$DRAGMODE
 70
     2
  9
$LTSCALE
 40
3.0
  9
$OSMODE
 70
   551
  9
$ATTMODE
 70
     1
  9
$TEXTSIZE
 40
2.5
  9
$TRACEWID
 40
1.0
  9
$TEXTSTYLE
  7
STANDARD
  9
$CLAYER
  8
AM_0
  9
$CELTYPE
  6
BYLAYER
  9
$CECOLOR
 62
   256
  9
$DIMSCALE
 40
3.0
  9
$DIMASZ
 40
2.5
  9
$DIMEXO
 40
1.0
  9
$DIMDLI
 40
7.0
  9
$DIMRND
 40
0.0
  9
$DIMDLE
 40
0.0
  9
$DIMEXE
 40
1.0
  9
$DIMTP
 40
0.1
  9
$DIMTM
 40
0.1000000001
  9
$DIMTXT
 40
2.5
  9
$DIMCEN
 40
0.0
  9
$DIMTSZ
 40
0.0
  9
$DIMTOL
 70
     0
  9
$DIMLIM
 70
     0
  9
$DIMTIH
 70
     0
  9
$DIMTOH
 70
     0
  9
$DIMSE1
 70
     0
  9
$DIMSE2
 70
     0
  9
$DIMTAD
 70
     3
  9
$DIMZIN
 70
     8
  9
$DIMBLK
  1

  9
$DIMASO
 70
     1
  9
$DIMSHO
 70
     1
  9
$DIMPOST
  1

  9
$DIMAPOST
  1
"
  9
$DIMALT
 70
     0
  9
$DIMALTD
 70
     2
  9
$DIMALTF
 40
0.0393701
  9
$DIMLFAC
 40
1.0
  9
$DIMTOFL
 70
     1
  9
$DIMTVP
 40
0.0
  9
$DIMTIX
 70
     0
  9
$DIMSOXD
 70
     0
  9
$DIMSAH
 70
     0
  9
$DIMBLK1
  1

  9
$DIMBLK2
  1

  9
$DIMSTYLE
  2
AM_JIS
  9
$DIMCLRD
 70
   256
  9
$DIMCLRE
 70
   256
  9
$DIMCLRT
 70
     4
  9
$DIMTFAC
 40
0.71
  9
$DIMGAP
 40
1.0
  9
$LUNITS
 70
     2
  9
$LUPREC
 70
     2
  9
$SKETCHINC
 40
1.0
  9
$FILLETRAD
 40
2.0
  9
$AUNITS
 70
     0
  9
$AUPREC
 70
     3
  9
$MENU
  1
.
  9
$ELEVATION
 40
0.0
  9
$PELEVATION
 40
0.0
  9
$THICKNESS
 40
0.0
  9
$LIMCHECK
 70
     0
  9
$BLIPMODE
 70
     0
  9
$CHAMFERA
 40
1.0
  9
$CHAMFERB
 40
1.0
  9
$SKPOLY
 70
     0
  9
$TDCREATE
 40
2453455.36471191
  9
$TDUPDATE
 40
2458543.5685346192
  9
$TDINDWG
 40
0.2997927778
  9
$TDUSRTIMER
 40
0.299792581
  9
$USRTIMER
 70
     1
  9
$ANGBASE
 50
0.0
  9
$ANGDIR
 70
     0
  9
$PDMODE
 70
     0
  9
$PDSIZE
 40
0.0
  9
$PLINEWID
 40
0.0
  9
$COORDS
 70
     1
  9
$SPLFRAME
 70
     0
  9
$SPLINETYPE
 70
     6
  9
$SPLINESEGS
 70
     8
  9
$ATTDIA
 70
     1
  9
$ATTREQ
 70
     1
  9
$HANDLING
 70
     1
  9
$HANDSEED
  5
EB02
  9
$SURFTAB1
 70
     6
  9
$SURFTAB2
 70
     6
  9
$SURFTYPE
 70
     6
  9
$SURFU
 70
     6
  9
$SURFV
 70
     6
  9
$UCSNAME
  2

  9
$UCSORG
 10
0.0
 20
0.0
 30
0.0
  9
$UCSXDIR
 10
1.0
 20
0.0
 30
0.0
  9
$UCSYDIR
 10
0.0
 20
1.0
 30
0.0
  9
$PUCSNAME
  2

  9
$PUCSORG
 10
0.0
 20
0.0
 30
0.0
  9
$PUCSXDIR
 10
1.0
 20
0.0
 30
0.0
  9
$PUCSYDIR
 10
0.0
 20
1.0
 30
0.0
  9
$USERI1
 70
     0
  9
$USERI2
 70
     0
  9
$USERI3
 70
     0
  9
$USERI4
 70
     0
  9
$USERI5
 70
     0
  9
$USERR1
 40
0.0
  9
$USERR2
 40
0.0
  9
$USERR3
 40
0.0
  9
$USERR4
 40
0.0
  9
$USERR5
 40
0.0
  9
$WORLDVIEW
 70
     1
  9
$SHADEDGE
 70
     3
  9
$SHADEDIF
 70
    70
  9
$TILEMODE
 70
     1
  9
$MAXACTVP
 70
    48
  9
$PLIMCHECK
 70
     0
  9
$PEXTMIN
 10
1.0000000000000000E+020
 20
1.0000000000000000E+020
 30
1.0000000000000000E+020
  9
$PEXTMAX
 10
-1.0000000000000000E+020
 20
-1.0000000000000000E+020
 30
-1.0000000000000000E+020
  9
$PLIMMIN
 10
0.0
 20
0.0
  9
$PLIMMAX
 10
420.0
 20
297.0
  9
$UNITMODE
 70
     0
  9
$VISRETAIN
 70
     1
  9
$PLINEGEN
 70
     0
  9
$PSLTSCALE
 70
     1
  0
ENDSEC
  0
SECTION
  2
TABLES
  0
TABLE
  2
VPORT
 70
     1
  0
VPORT
  2
*ACTIVE
 70
     0
 10
0.0
 20
0.0
 11
1.0
 21
1.0
 12
396.11250881799782
 22
361.269537005019
 13
0.0
 23
0.0
 14
7.5
 24
7.5
 15
30.0
 25
30.0
 16
0.0
 26
0.0
 36
1.0
 17
0.0
 27
0.0
 37
0.0
 40
416.00177240013522
 41
1.7571592210767459
 42
50.0
 43
0.0
 44
0.0
 50
0.0
 51
0.0
 71
    16
 72
   100
 73
     1
 74
     1
 75
     0
 76
     0
 77
     0
 78
     0
  0
ENDTAB
  0
TABLE
  2
LTYPE
 70
    20
  0
LTYPE
  2
CONTINUOUS
 70
     0
  3
Solid line
 72
    65
 73
     0
 40
0.0
  0
LTYPE
  2
HIDDEN
 70
     0
  3
Hidden __ __ __ __ __ __ __ __ __ __ __ __ __ _
 72
    65
 73
     2
 40
9.5249999999999968
 49
6.349999999999997
 49
-3.174999999999998
  0
LTYPE
  2
PHANTOM2
 70
     0
  3
Phantom (.5x) ___ _ _ ___ _ _ ___ _ _ ___ _ _
 72
    65
 73
     6
 40
31.75
 49
15.875
 49
-3.174999999999998
 49
3.174999999999998
 49
-3.174999999999998
 49
3.174999999999998
 49
-3.174999999999998
  0
LTYPE
  2
CENTER
 70
     0
  3
Center ____ _ ____ _ ____ _ ____ _ ____ _ ____
 72
    65
 73
     4
 40
50.799999999999997
 49
31.75
 49
-6.349999999999997
 49
6.349999999999997
 49
-6.349999999999997
  0
LTYPE
  2
GEN7
 70
     0
  3
____ . ____ . ____ . ____ . ____ . ____ . ____
 72
    65
 73
     4
 40
14.25
 49
9.75
 49
-1.5
 49
1.5
 49
-1.5
  0
LTYPE
  2
GEN3B
 70
     0
  3
 - - - - -
 72
    65
 73
     2
 40
1.0
 49
0.5
 49
-0.5
  0
LTYPE
  2
GEN7A
 70
     0
  3
__ . __ . __
 72
    65
 73
     4
 40
7.375
 49
4.75
 49
-0.875
 49
0.875
 49
-0.875
  0
LTYPE
  2
AMCONSTR
 70
     0
  3
_______________________
 72
    65
 73
     2
 40
9999.0
 49
9999.0
 49
0.0
  0
LTYPE
  2
CENTER2
 70
     0
  3
Center (.5x) ___ _ ___ _ ___ _ ___ _ ___ _ ___
 72
    65
 73
     4
 40
1.125
 49
0.75
 49
-0.125
 49
0.125
 49
-0.125
  0
LTYPE
  2
HIDDEN2
 70
     0
  3
Hidden (.5x) _ _ _ _ _ _ _ _ _ _ _ _ _ _ _ _ _
 72
    65
 73
     2
 40
0.1875
 49
0.125
 49
-0.0625
  0
LTYPE
  2
ACANSTGB
 70
     0
  3
__ . . __ . .
 72
    65
 73
     6
 40
0.35433070866
 49
0.15748031496
 49
-0.03937007874
 49
0.03937007874
 49
-0.03937007874
 49
0.03937007874
 49
-0.03937007874
  0
LTYPE
  2
ACANSTGL
 70
     0
  3
_ _ _ _ _
 72
    65
 73
     2
 40
0.11811023622
 49
0.07874015748
 49
-0.03937007874
  0
LTYPE
  2
AM_ISO02W050
 70
     0
  3
__ __ __ __ __ __ __ __ __ __ __ __ __ __ __
 72
    65
 73
     2
 40
7.5
 49
6.0
 49
-1.5
  0
LTYPE
  2
AM_ISO08W050
 70
     0
  3
____ . ____ . ____ . ____ . ____ . ____ . ____
 72
    65
 73
     4
 40
18.0
 49
12.0
 49
-1.5
 49
3.0
 49
-1.5
  0
LTYPE
  2
AM_ISO09W050
 70
     0
  3
_____ . . _____ . . _____ . . ____ .. ____
 72
    65
 73
     6
 40
22.5
 49
12.0
 49
-1.5
 49
3.0
 49
-1.5
 49
3.0
 49
-1.5
  0
LTYPE
  2
AM_ISO08W050X2
 70
     0
  3
__ . __ . __ . __ . __ . __
 72
    65
 73
     4
 40
9.0
 49
6.0
 49
-0.75
 49
1.5
 49
-0.75
  0
LTYPE
  2
AM_ISO02W050X2
 70
     0
  3
 _ _ _ _ _ _ _ _ _ _ _ _
 72
    65
 73
     2
 40
3.75
 49
3.0
 49
-0.75
  0
LTYPE
  2
AMZIGZAG
 70
     0
  3
/\/-/\/-/\/-/\/-/\/-/\/
 72
    65
 73
     2
 40
11.0001
 49
0.0001
 49
-11.0
  0
LTYPE
  2
AMZIGZAG2
 70
     0
  3
/\/-/\/-/\/-/\/-/\/-/\/
 72
    65
 73
     2
 40
0.4401
 49
0.0001
 49
-0.4400000000000001
  0
ENDTAB
  0
TABLE
  2
LAYER
 70
     7
  0
LAYER
  2
0
 70
     0
 62
     7
  6
CONTINUOUS
  0
LAYER
  2
AM_0
 70
     0
 62
     7
  6
CONTINUOUS
  0
LAYER
  2
DEFPOINTS
 70
     0
 62
     7
  6
CONTINUOUS
  0
LAYER
  2
ｶｸﾚｾﾝ2
 70
     0
 62
     3
  6
GEN3B
  0
LAYER
  2
ﾁｭｳｼﾝｾﾝ
 70
     0
 62
     1
  6
GEN7
  0
LAYER
  2
ﾁｭｳｼﾝｾﾝ1
 70
     0
 62
     1
  6
GEN7A
  0
LAYER
  2
AM_0N
 70
     0
 62
     7
  6
CONTINUOUS
  0
ENDTAB
  0
TABLE
  2
STYLE
 70
     4
  0
STYLE
  2
STANDARD
 70
     0
 40
0.0
 41
0.8299999999999999
 50
0.0
 71
     0
 42
2.5
  3
txt.shx
  4
bigfont.shx
  0
STYLE
  2
ACANSTS
 70
     0
 40
1.0
 41
1.0
 50
0.0
 71
     0
 42
2.5
  3
romans.shx
  4
extfont.shx
  0
STYLE
  2
ACANSGDT
 70
     0
 40
0.0
 41
1.0
 50
0.0
 71
     0
 42
2.5
  3
amgdt.shx
  4

  0
STYLE
  2

 70
     1
 40
0.0
 41
1.0
 50
0.0
 71
     0
 42
2.5
  3
genltshp.shx
  4

  0
ENDTAB
  0
TABLE
  2
VIEW
 70
    12
  0
VIEW
  2
GEN1
 70
     0
 40
95.824742268041234
 10
71.5
 20
137.08762886597941
 41
143.0
 11
0.0
 21
0.0
 31
1.0
 12
0.0
 22
0.0
 32
0.0
 42
50.0
 43
0.0
 44
0.0
 50
0.0
 71
     0
  0
VIEW
  2
GEN2
 70
     0
 40
95.824742268041234
 10
214.5
 20
137.08762886597941
 41
143.0
 11
0.0
 21
0.0
 31
1.0
 12
0.0
 22
0.0
 32
0.0
 42
50.0
 43
0.0
 44
0.0
 50
0.0
 71
     0
  0
VIEW
  2
GEN3
 70
     0
 40
95.824742268041234
 10
71.5
 20
47.912371134020603
 41
143.0
 11
0.0
 21
0.0
 31
1.0
 12
0.0
 22
0.0
 32
0.0
 42
50.0
 43
0.0
 44
0.0
 50
0.0
 71
     0
  0
VIEW
  2
GEN4
 70
     0
 40
95.824742268041234
 10
214.5
 20
47.912371134020603
 41
143.0
 11
0.0
 21
0.0
 31
1.0
 12
0.0
 22
0.0
 32
0.0
 42
50.0
 43
0.0
 44
0.0
 50
0.0
 71
     0
  0
VIEW
  2
GEN5
 70
     0
 40
95.824742268041234
 10
143.0
 20
92.500000000000057
 41
143.0
 11
0.0
 21
0.0
 31
1.0
 12
0.0
 22
0.0
 32
0.0
 42
50.0
 43
0.0
 44
0.0
 50
0.0
 71
     0
  0
VIEW
  2
GEN6
 70
     0
 40
191.64756804123709
 10
143.0
 20
92.5
 41
285.99714
 11
0.0
 21
0.0
 31
1.0
 12
0.0
 22
0.0
 32
0.0
 42
50.0
 43
0.0
 44
0.0
 50
0.0
 71
     0
  0
VIEW
  2
AM_VIEW1
 70
     0
 40
277.50000000000011
 10
219.35382685069021
 20
416.24999999999977
 41
438.70765370138031
 11
0.0
 21
0.0
 31
1.0
 12
0.0
 22
0.0
 32
0.0
 42
50.0
 43
0.0
 44
0.0
 50
0.0
 71
    16
  0
VIEW
  2
AM_VIEW2
 70
     0
 40
277.50000000000011
 10
634.14617314930956
 20
416.24999999999977
 41
438.70765370138031
 11
0.0
 21
0.0
 31
1.0
 12
0.0
 22
0.0
 32
0.0
 42
50.0
 43
0.0
 44
0.0
 50
0.0
 71
    16
  0
VIEW
  2
AM_VIEW3
 70
     0
 40
277.50000000000011
 10
219.35382685069021
 20
138.75
 41
438.70765370138031
 11
0.0
 21
0.0
 31
1.0
 12
0.0
 22
0.0
 32
0.0
 42
50.0
 43
0.0
 44
0.0
 50
0.0
 71
    16
  0
VIEW
  2
AM_VIEW4
 70
     0
 40
277.50000000000011
 10
634.14617314930956
 20
138.75
 41
438.70765370138031
 11
0.0
 21
0.0
 31
1.0
 12
0.0
 22
0.0
 32
0.0
 42
50.0
 43
0.0
 44
0.0
 50
0.0
 71
    16
  0
VIEW
  2
AM_VIEW5
 70
     0
 40
277.50000000000011
 10
426.75
 20
277.50000000000011
 41
438.70765370138031
 11
0.0
 21
0.0
 31
1.0
 12
0.0
 22
0.0
 32
0.0
 42
50.0
 43
0.0
 44
0.0
 50
0.0
 71
    16
  0
VIEW
  2
AM_VIEW6
 70
     0
 40
554.99445000000014
 10
426.75
 20
277.5
 41
877.40653324968639
 11
0.0
 21
0.0
 31
1.0
 12
0.0
 22
0.0
 32
0.0
 42
50.0
 43
0.0
 44
0.0
 50
0.0
 71
    16
  0
ENDTAB
  0
TABLE
  2
UCS
 70
     0
  0
ENDTAB
  0
TABLE
  2
APPID
 70
    98
  0
APPID
  2
ACAD
 70
     0
  0
APPID
  2
ACADANNOTATIVE
 70
     0
  0
APPID
  2
ACAD_MLEADERVER
 70
     0
  0
APPID
  2
MCAD_NO_VIS
 70
     0
  0
APPID
  2
ACAD_TEMP_GRAPHIC
 70
     0
  0
APPID
  2
AD_DRAW
 70
     0
  0
APPID
  2
DESIGNERASSEMBLIES
 70
     0
  0
APPID
  2
ASURF_PCURVE_APPNAME
 70
     0
  0
APPID
  2
GENIUS_GE3SECT_13
 70
     0
  0
APPID
  2
GENIUS_GENCFG_13
 70
     0
  0
APPID
  2
GENIUS_GE3CFG0_13
 70
     0
  0
APPID
  2
GENIUS_GENCFG0_13
 70
     0
  0
APPID
  2
GENIUS_GENCFG1_13
 70
     0
  0
APPID
  2
GENIUS_GENCFG2_13
 70
     0
  0
APPID
  2
GENIUS_GENCFG3_13
 70
     0
  0
APPID
  2
GENIUS_GENCFG4_13
 70
     0
  0
APPID
  2
GENIUS_GEVCFG0_13
 70
     0
  0
APPID
  2
GENIUS_GENOENT_13
 70
     0
  0
APPID
  2
GENIUS_GENREC_14
 70
     0
  0
APPID
  2
GENIUS_GENODEF_13
 70
     0
  0
APPID
  2
GENIUS_GENOBJ-N-REC_13
 70
     0
  0
APPID
  2
GENIUS_GENHINW_13
 70
     0
  0
APPID
  2
GENIUS_FIRSTVISTXT_14
 70
     0
  0
APPID
  2
GENIUS_GENOBJ-N-LEADER_13
 70
     0
  0
APPID
  2
GENIUS_GENOREF_13
 70
     0
  0
APPID
  2
GENIUS_GENOLIS_13
 70
     0
  0
APPID
  2
GEV_VCCNULL_SWITCH_OFF
 70
     0
  0
APPID
  2
GENIUS_GENDTOL_13
 70
     0
  0
APPID
  2
GENIUS_GEFCFG0_13
 70
     0
  0
APPID
  2
GENIUS_GENOBJ-N-TIT_13
 70
     0
  0
APPID
  2
GENIUS_GENTITLE_13
 70
     0
  0
APPID
  2
GENIUS_GENZVEED_13
 70
     0
  0
APPID
  2
GENIUS_GENOBJ-N-SDF_13
 70
     0
  0
APPID
  2
GENIUS_GENSCREG_13
 70
     0
  0
APPID
  2
GENIUS_DUMCFG0_13
 70
     0
  0
APPID
  2
GEVID936201362
 70
     0
  0
APPID
  2
GEVDC
 70
     0
  0
APPID
  2
GEVCON
 70
     0
  0
APPID
  2
VCC
 70
     0
  0
APPID
  2
GEVPT
 70
     0
  0
APPID
  2
GEVIT
 70
     0
  0
APPID
  2
GENBH
 70
     0
  0
APPID
  2
GEVMK
 70
     0
  0
APPID
  2
GENIUS_GENBH_13
 70
     0
  0
APPID
  2
GENIUS_GENOBJ-NBEHI-BHF_13
 70
     0
  0
APPID
  2
GENIUS_GENOBJ-NBEHI-BHB_13
 70
     0
  0
APPID
  2
GENIUS_GENOBJ-F-DESC_13
 70
     0
  0
APPID
  2
GENIUS_GEFDESC_14
 70
     0
  0
APPID
  2
GENIUS_GENOBJ-F-PART_13
 70
     0
  0
APPID
  2
GENIUS_GEFSTDP_13
 70
     0
  0
APPID
  2
GENIUS_GEFPARTINS_13
 70
     0
  0
APPID
  2
GENIUS_GENTRA_14
 70
     0
  0
APPID
  2
GENIUS_GENINF13_13
 70
     0
  0
APPID
  2
GENIUS_GENOBJ-N-INFOPT_13
 70
     0
  0
APPID
  2
GENIUS_GENOBJ-N-RSSYM_13
 70
     0
  0
APPID
  2
GENIUS_GENSYMENT_13
 70
     0
  0
APPID
  2
GENIUS_GENSCSYM_13
 70
     0
  0
APPID
  2
GENIUS_GEFINFNAM_13
 70
     0
  0
APPID
  2
GENIUS_GENSCREG_15
 70
     0
  0
APPID
  2
GENIUS_GENOBJ-N-CEN_13
 70
     0
  0
APPID
  2
GENIUS_GENOBJ-N-CRS_13
 70
     0
  0
APPID
  2
GENIUS_GENOBJ-N-CRC_13
 70
     0
  0
APPID
  2
GENIUS_GENCRC_14
 70
     0
  0
APPID
  2
GEVID942827039
 70
     0
  0
APPID
  2
GEVID942827040
 70
     0
  0
APPID
  2
GEVID942827041
 70
     0
  0
APPID
  2
GENIUS_GENOBJ-F-SCPASSM_13
 70
     0
  0
APPID
  2
GENIUS_GENDIMSH_14
 70
     0
  0
APPID
  2
GENIUS_GENFIL_13
 70
     0
  0
APPID
  2
GENIUS_GENOBJ-N-CHA_13
 70
     0
  0
APPID
  2
GENIUS_GENOBJ-N-FIL_13
 70
     0
  0
APPID
  2
GEVID942827042
 70
     0
  0
APPID
  2
GEVID946020473
 70
     0
  0
APPID
  2
GEVID946020474
 70
     0
  0
APPID
  2
GEVID946020475
 70
     0
  0
APPID
  2
GENIUS_GENOBJ-N-HTC_13
 70
     0
  0
APPID
  2
GENIUS_GENHATCH_13
 70
     0
  0
APPID
  2
GEVID948854295
 70
     0
  0
APPID
  2
GEVID939402019
 70
     0
  0
APPID
  2
GEVID952919491
 70
     0
  0
APPID
  2
GEVID952919492
 70
     0
  0
APPID
  2
GENIUS_GEFWELD_13
 70
     0
  0
APPID
  2
GENIUS_GENOBJ-F-WELS_13
 70
     0
  0
APPID
  2
GEVID952919493
 70
     0
  0
APPID
  2
GENIUS_GENOBJ-N-RSBK_13
 70
     0
  0
APPID
  2
GENIUS_GENOBJ-N-LIB_13
 70
     0
  0
APPID
  2
GENIUS_GENSCALE_13
 70
     0
  0
APPID
  2
GEVID986376691
 70
     0
  0
APPID
  2
ACATTRIBSERVICES
 70
     0
  0
APPID
  2
ACADM_DIM_EDIT
 70
     0
  0
APPID
  2
AMDT_DM_ADJ
 70
     0
  0
APPID
  2
ACAD_PSEXT
 70
     0
  0
APPID
  2
ACAD_DSTYLE_DIMARC_LENGTH_
 70
     0
  0
APPID
  2
ACAD_DSTYLE_DIMBREAK
 70
     0
  0
APPID
  2
ACAD_DSTYLE_DIMJAG
 70
     0
  0
APPID
  2
ACAD_NAV_VCDISPLAY
 70
     0
  0
APPID
  2
ACADANNOPO
 70
     0
  0
APPID
  2
ACAD_EXEMPT_FROM_CAD_STANDARDS
 70
     0
  0
ENDTAB
  0
TABLE
  2
DIMSTYLE
 70
     8
  0
DIMSTYLE
  2
STANDARD
 70
     0
  3

  4

  5

  6

  7

 40
1.0
 41
0.18
 42
0.0625
 43
0.38
 44
0.18
 45
0.0
 46
0.0
 47
0.0
 48
0.0
140
0.18
141
0.09
142
0.0
143
25.399999999999999
144
1.0
145
0.0
146
1.0
147
0.09
 71
     0
 72
     0
 73
     1
 74
     1
 75
     0
 76
     0
 77
     0
 78
     0
170
     0
171
     2
172
     0
173
     0
174
     0
175
     0
176
     0
177
     0
178
     0
  0
DIMSTYLE
  2
AM_JIS
 70
     0
  3

  4
"
  5

  6

  7

 40
1.0
 41
2.5
 42
1.0
 43
7.0
 44
1.0
 45
0.0
 46
0.0
 47
0.1
 48
0.1000000001
140
2.5
141
0.0
142
0.0
143
0.0393701
144
1.0
145
0.0
146
0.71
147
1.0
 71
     0
 72
     0
 73
     0
 74
     0
 75
     0
 76
     0
 77
     3
 78
     8
170
     0
171
     2
172
     1
173
     0
174
     0
175
     0
176
   256
177
   256
178
     4
  0
DIMSTYLE
  2
AM_ANSI
 70
     0
  3

  4
mm
  5

  6

  7

 40
1.0
 41
0.1
 42
0.05
 43
0.5
 44
0.1
 45
0.0
 46
0.0
 47
0.1
 48
0.1
140
0.12
141
0.0
142
0.0
143
25.399999999999999
144
1.0
145
0.0
146
0.71
147
0.06
 71
     0
 72
     0
 73
     1
 74
     1
 75
     0
 76
     0
 77
     0
 78
     7
170
     0
171
     2
172
     0
173
     0
174
     0
175
     0
176
   256
177
   256
178
     2
  0
DIMSTYLE
  2
AM_ANSI$3
 70
     0
  3

  4
mm
  5

  6

  7

 40
1.0
 41
0.1
 42
0.05
 43
0.5
 44
0.1
 45
0.0
 46
0.0
 47
0.1
 48
0.1
140
0.12
141
0.0
142
0.0
143
25.399999999999999
144
1.0
145
0.0
146
0.71
147
0.06
 71
     0
 72
     0
 73
     1
 74
     1
 75
     0
 76
     0
 77
     0
 78
     7
170
     0
171
     2
172
     0
173
     0
174
     0
175
     0
176
   256
177
   256
178
     2
  0
DIMSTYLE
  2
AM_ANSI$4
 70
     0
  3

  4
mm
  5

  6

  7

 40
1.0
 41
0.1
 42
0.05
 43
0.5
 44
0.1
 45
0.0
 46
0.0
 47
0.1
 48
0.1
140
0.12
141
0.0
142
0.0
143
25.399999999999999
144
1.0
145
0.0
146
0.71
147
0.06
 71
     0
 72
     0
 73
     1
 74
     1
 75
     0
 76
     0
 77
     0
 78
     7
170
     0
171
     2
172
     0
173
     0
174
     0
175
     0
176
   256
177
   256
178
     2
  0
DIMSTYLE
  2
AM_ANSI$7
 70
     0
  3

  4
mm
  5

  6

  7

 40
1.0
 41
0.1
 42
0.05
 43
0.5
 44
0.1
 45
0.0
 46
0.0
 47
0.1
 48
0.1
140
0.24
141
0.0
142
0.0
143
25.399999999999999
144
1.0
145
0.0
146
0.71
147
0.06
 71
     0
 72
     0
 73
     1
 74
     1
 75
     0
 76
     0
 77
     0
 78
     7
170
     0
171
     2
172
     0
173
     0
174
     0
175
     0
176
   256
177
   256
178
     2
  0
DIMSTYLE
  2
AM_ANSI$SF
 70
     0
  3

  4
mm
  5

  6

  7

 40
1.0
 41
0.1
 42
0.05
 43
0.5
 44
0.1
 45
0.0
 46
0.0
 47
0.1
 48
0.1
140
0.12
141
0.0
142
0.0
143
25.399999999999999
144
1.0
145
0.0
146
0.71
147
0.06
 71
     0
 72
     0
 73
     1
 74
     1
 75
     1
 76
     1
 77
     0
 78
     7
170
     0
171
     2
172
     0
173
     0
174
     0
175
     0
176
   256
177
   256
178
     2
  0
DIMSTYLE
  2
AM_ANSI$SH
 70
     0
  3

  4
mm
  5

  6
GENAXEH
  7

 40
1.0
 41
0.1
 42
0.05
 43
0.5
 44
0.1
 45
0.0
 46
0.0
 47
0.1
 48
0.1
140
0.12
141
0.0
142
0.0
143
25.399999999999999
144
1.0
145
0.0
146
0.71
147
0.06
 71
     0
 72
     0
 73
     1
 74
     1
 75
     1
 76
     1
 77
     0
 78
     7
170
     0
171
     2
172
     0
173
     1
174
     0
175
     0
176
   256
177
   256
178
     2
  0
ENDTAB
  0
ENDSEC
  0
SECTION
  2
BLOCKS
  0
BLOCK
  8
0
  2
$MODEL_SPACE
 70
     0
 10
0.0
 20
0.0
 30
0.0
  3
$MODEL_SPACE
  1

  0
ENDBLK
  5
E8ED
  8
0
  0
BLOCK
 67
     1
  8
0
  2
$PAPER_SPACE
 70
     0
 10
0.0
 20
0.0
 30
0.0
  3
$PAPER_SPACE
  1

  0
ENDBLK
  5
E8E9
 67
     1
  8
0
  0
BLOCK
  8
0
  2
*U0
 70
     1
 10
0.0
 20
0.0
 30
0.0
  3
*U0
  1

  0
TEXT
  5
E612
  8
AM_0
 10
532.58574141983365
 20
494.3722622101991
 30
0.0
 40
9.0
  1
ＶＣ０１－０８０～２４０ＢＨＷ
 41
0.8299999999999999
  0
ENDBLK
  5
E614
  8
0
  0
BLOCK
  8
0
  2
GENAXEH
 70
     0
 10
0.0
 20
0.0
 30
0.0
  3
GENAXEH
  1

  0
LINE
  5
E9F6
  8
0
 10
-1.0
 20
0.0
 30
0.0
 11
1.0
 21
0.0
 31
0.0
  0
ENDBLK
  5
E9F8
  8
0
  0
BLOCK
  8
0
  2
_ACMFILLEDHALF
 70
     0
 10
0.0
 20
0.0
 30
0.0
  3
_ACMFILLEDHALF
  1

  0
TRACE
  5
EA8D
  8
AM_0
 62
     0
 10
-0.8
 20
0.0
 30
0.0
 11
-1.0
 21
0.166666666
 31
0.0
 12
0.0
 22
0.0
 32
0.0
 13
0.0
 23
0.0
 33
0.0
  0
LINE
  5
EA8E
  8
AM_0
 62
     0
 10
-1.0
 20
0.0
 30
0.0
 11
-0.8
 21
0.0
 31
0.0
  0
ENDBLK
  5
EA8C
  8
0
  0
ENDSEC
  0
SECTION
  2
ENTITIES
  0
POINT
  5
1B94
  8
0
 10
0.0
 20
0.0
 30
0.0
1001
GENIUS_GENODEF_13
1002
{
1000
HIER
1070
     1
1002
}
1002
{
1000
MANEDIT
1070
     0
1002
}
1002
{
1000
NOSEL
1070
     0
1002
}
1002
{
1000
BEHIND
1070
     0
1002
}
1002
{
1000
REACTOR
1002
}
1001
GENIUS_GENOBJ-N-SDF_13
1002
{
1000
OWNER
1000
GEN
1002
}
1001
GENIUS_GENOENT_13
1002
{
1000
MYREF
1005
1B94
1002
}
1002
{
1000
GRP
1005
0
1002
}
1001
GENIUS_GENOLIS_13
1002
{
1000
ENT
1005
89
1002
}
  0
LINE
  5
CA60
  8
AM_0
 10
657.56994242413202
 20
170.24814486778109
 30
0.0
 11
656.49271453407994
 21
201.09591557073369
 31
0.0
  0
LINE
  5
CA61
  8
AM_0
 10
566.67762779023565
 20
201.96810356931411
 30
0.0
 11
565.56994242413202
 21
170.24814486778121
 31
0.0
  0
LINE
  5
CA62
  8
AM_0
 10
565.56994242413202
 20
170.24814486778121
 30
0.0
 11
657.56994242413225
 21
170.24814486778109
 31
0.0
  0
LINE
  5
CA63
  8
ﾁｭｳｼﾝｾﾝ1
 10
652.56994242413123
 20
159.24814486778109
 30
0.0
 11
652.56994242413134
 21
175.07566788031781
 31
0.0
  0
LINE
  5
CA64
  8
AM_0
 10
565.56994242413202
 20
166.24814486778121
 30
0.0
 11
586.38444732366452
 21
166.24814486778121
 31
0.0
  0
LINE
  5
CA65
  8
AM_0
 10
636.75543752459964
 20
166.24814486778109
 30
0.0
 11
657.56994242413123
 21
166.24814486778109
 31
0.0
  0
LINE
  5
CA66
  8
AM_0
 10
571.70572409329282
 20
162.24814486778121
 30
0.0
 11
651.43416075497123
 21
162.24814486778109
 31
0.0
  0
LINE
  5
CA67
  8
AM_0
 10
648.66258745182495
 20
164.18920735565331
 30
0.0
 11
648.56994242413134
 21
165.24814486778109
 31
0.0
  0
LINE
  5
CA68
  8
AM_0
 10
656.47729739643785
 20
164.18920735565331
 30
0.0
 11
656.56994242413134
 21
165.24814486778109
 31
0.0
  0
ARC
  5
CA69
  8
AM_0
 10
652.56994242413134
 20
168.6481448677813
 30
0.0
 40
6.5
 50
241.82726586813521
 51
298.1727341318649
  0
ARC
  5
CA6A
  8
AM_0
 10
654.88338587949113
 20
164.32865654404981
 30
0.0
 40
1.6000000000000001
 50
298.1727341318649
 51
354.99999999999977
  0
LINE
  5
CA6B
  8
AM_0
 10
650.26994242413116
 20
162.56867120635289
 30
0.0
 11
652.56994242413134
 21
164.8582308851484
 31
0.0
  0
LINE
  5
CA6C
  8
AM_0
 10
652.25844242413143
 20
164.5481448677811
 30
0.0
 11
652.88144242413125
 21
164.5481448677811
 31
0.0
  0
LINE
  5
CA6D
  8
AM_0
 10
654.86994242413141
 20
162.56867120635289
 30
0.0
 11
652.56994242413134
 21
164.8582308851484
 31
0.0
  0
LINE
  5
CA6E
  8
AM_0
 10
652.25844242413143
 20
162.15561317744641
 30
0.0
 11
652.25844242413143
 21
164.5481448677811
 31
0.0
  0
LINE
  5
CA6F
  8
AM_0
 10
652.88144242413125
 20
162.15561317744641
 30
0.0
 11
652.88144242413125
 21
164.5481448677811
 31
0.0
  0
ARC
  5
CA70
  8
AM_0
 10
650.25649896877178
 20
164.32865654404981
 30
0.0
 40
1.6000000000000001
 50
185.0
 51
241.82726586813521
  0
LINE
  5
CA71
  8
AM_0
 10
565.56994242413202
 20
166.24814486778121
 30
0.0
 11
565.56994242413202
 21
170.24814486778121
 31
0.0
  0
LINE
  5
CA72
  8
AM_0
 10
566.56994242413225
 20
165.24814486778101
 30
0.0
 11
565.56994242413202
 21
166.24814486778141
 31
0.0
  0
LINE
  5
CA73
  8
AM_0
 10
657.56994242413225
 20
170.24814486778109
 30
0.0
 11
657.56994242413123
 21
166.24814486778109
 31
0.0
  0
LINE
  5
CA74
  8
AM_0N
 10
648.76994242413139
 20
166.24814486778109
 30
0.0
 11
648.76994242413139
 21
165.24814486778109
 31
0.0
  0
LINE
  5
CA75
  8
AM_0N
 10
652.36994242413141
 20
165.24814486778109
 30
0.0
 11
652.00597218986525
 21
166.24814486778109
 31
0.0
  0
LINE
  5
CA76
  8
AM_0N
 10
652.76994242413139
 20
165.24814486778109
 30
0.0
 11
652.40597218986522
 21
166.24814486778109
 31
0.0
  0
LINE
  5
CA77
  8
AM_0N
 10
656.56994242413134
 20
165.24814486778109
 30
0.0
 11
648.56994242413134
 21
165.24814486778109
 31
0.0
  0
LINE
  5
CA78
  8
AM_0N
 10
656.36994242413118
 20
165.24814486778109
 30
0.0
 11
656.36994242413118
 21
166.24814486778109
 31
0.0
  0
LINE
  5
CA79
  8
AM_0
 10
636.75543752459976
 20
162.24814486778109
 30
0.0
 11
636.75543752459976
 21
166.24814486778109
 31
0.0
  0
LINE
  5
CA7A
  8
AM_0
 10
638.41229177409207
 20
166.24814486778109
 30
0.0
 11
636.75543752459976
 21
162.24814486778109
 31
0.0
  0
LINE
  5
CA7B
  8
AM_0
 10
586.38444732366452
 20
162.24814486778121
 30
0.0
 11
586.38444732366452
 21
166.24814486778121
 31
0.0
  0
LINE
  5
CA7C
  8
AM_0
 10
584.72759307417186
 20
166.24814486778121
 30
0.0
 11
586.38444732366452
 21
162.24814486778121
 31
0.0
  0
LINE
  5
CA7D
  8
ﾁｭｳｼﾝｾﾝ1
 10
570.56994242413282
 20
159.24814486778121
 30
0.0
 11
570.56994242413282
 21
175.07566788031781
 31
0.0
  0
LINE
  5
CA7E
  8
AM_0
 10
574.4772973964391
 20
164.18920735565331
 30
0.0
 11
574.56994242413282
 21
165.24814486778109
 31
0.0
  0
LINE
  5
CA7F
  8
AM_0
 10
566.6625874518262
 20
164.18920735565331
 30
0.0
 11
566.56994242413282
 21
165.24814486778109
 31
0.0
  0
ARC
  5
CA80
  8
AM_0
 10
570.56994242413248
 20
168.6481448677813
 30
0.0
 40
6.5
 50
241.82726586813521
 51
298.1727341318649
  0
ARC
  5
CA81
  8
AM_0
 10
568.25649896877292
 20
164.32865654404981
 30
0.0
 40
1.6000000000000001
 50
185.0
 51
241.82726586813521
  0
LINE
  5
CA82
  8
AM_0
 10
572.86994242413255
 20
162.56867120635289
 30
0.0
 11
570.56994242413282
 21
164.8582308851484
 31
0.0
  0
LINE
  5
CA83
  8
AM_0
 10
570.88144242413273
 20
164.5481448677811
 30
0.0
 11
570.2584424241328
 21
164.5481448677811
 31
0.0
  0
LINE
  5
CA84
  8
AM_0
 10
568.26994242413275
 20
162.56867120635289
 30
0.0
 11
570.56994242413282
 21
164.8582308851484
 31
0.0
  0
LINE
  5
CA85
  8
AM_0
 10
570.88144242413273
 20
162.15561317744641
 30
0.0
 11
570.88144242413273
 21
164.5481448677811
 31
0.0
  0
LINE
  5
CA86
  8
AM_0
 10
570.2584424241328
 20
162.15561317744641
 30
0.0
 11
570.2584424241328
 21
164.5481448677811
 31
0.0
  0
ARC
  5
CA87
  8
AM_0
 10
572.88338587949227
 20
164.32865654404981
 30
0.0
 40
1.6000000000000001
 50
298.1727341318649
 51
354.99999999999977
  0
LINE
  5
CA88
  8
AM_0N
 10
574.36994242413255
 20
166.24814486778109
 30
0.0
 11
574.36994242413255
 21
165.24814486778109
 31
0.0
  0
LINE
  5
CA89
  8
AM_0N
 10
570.76994242413275
 20
165.24814486778109
 30
0.0
 11
571.13391265839891
 21
166.24814486778109
 31
0.0
  0
LINE
  5
CA8A
  8
AM_0N
 10
570.36994242413255
 20
165.24814486778109
 30
0.0
 11
570.73391265839871
 21
166.24814486778109
 31
0.0
  0
LINE
  5
CA8B
  8
AM_0N
 10
566.56994242413282
 20
165.24814486778109
 30
0.0
 11
574.56994242413282
 21
165.24814486778109
 31
0.0
  0
LINE
  5
CA8C
  8
AM_0N
 10
566.76994242413275
 20
165.24814486778109
 30
0.0
 11
566.76994242413275
 21
166.24814486778109
 31
0.0
  0
LINE
  5
CA90
  8
ﾁｭｳｼﾝｾﾝ
 10
264.60262582446842
 20
260.748144376043
 30
0.0
 11
436.80206428033142
 21
260.748144376043
 31
0.0
  0
LINE
  5
CA91
  8
AM_0
 10
304.29424559961069
 20
314.74814598536841
 30
0.0
 11
405.30987837149479
 21
314.74814598536841
 31
0.0
  0
LINE
  5
CA92
  8
AM_0
 10
273.80816320639872
 20
320.74814486778132
 30
0.0
 11
421.80205969077372
 21
320.74814486778132
 31
0.0
  0
LINE
  5
CA93
  8
AM_0
 10
287.80205998879711
 20
200.74814258790369
 30
0.0
 11
421.80206398230791
 21
200.74814258790369
 31
0.0
  0
LINE
  5
CA94
  8
AM_0
 10
287.80205998879711
 20
200.7481425879038
 30
0.0
 11
421.80206398230791
 21
200.7481425879038
 31
0.0
  0
LINE
  5
CA95
  8
AM_0
 10
304.29424559961069
 20
206.74814276671759
 30
0.0
 11
405.30987837149479
 21
206.74814276671759
 31
0.0
  0
CIRCLE
  5
CA96
  8
AM_0
 10
374.30206256669783
 20
260.748144376043
 30
0.0
 40
37.500001117587111
  0
CIRCLE
  5
CA97
  8
AM_0
 10
374.30206256669783
 20
260.748144376043
 30
0.0
 40
36.500001117587111
  0
LINE
  5
CA98
  8
ﾁｭｳｼﾝｾﾝ
 10
295.43301683531161
 20
277.24814486778132
 30
0.0
 11
71.67424178656735
 21
277.24814486778132
 31
0.0
  0
ARC
  5
CA99
  8
AM_0
 10
287.80205998879711
 20
310.74814586615901
 30
0.0
 40
10.00000029802322
 50
90.000002504475205
 51
180.00000500895351
  0
LINE
  5
CA9A
  8
ﾁｭｳｼﾝｾﾝ1
 10
288.30206000369822
 20
317.74814607477538
 30
0.0
 11
288.30206000369822
 21
302.74814562774048
 31
0.0
  0
ARC
  5
CA9B
  8
AM_0
 10
503.80814794760948
 20
277.24814486778132
 30
0.0
 40
236.0
 50
169.43602826973299
 51
179.999994991043
  0
LINE
  5
CA9C
  8
AM_0
 10
271.80816320639872
 20
331.24814486778121
 30
0.0
 11
271.80816320639877
 21
223.24814486778129
 31
0.0
  0
LINE
  5
CA9D
  8
AM_0
 10
260.30205969077372
 20
333.24814486778132
 30
0.0
 11
260.30205969077372
 21
221.24814486778129
 31
0.0
  0
ARC
  5
CA9E
  8
AM_0
 10
503.80814794760948
 20
277.24814486778132
 30
0.0
 40
236.0
 50
179.999994991043
 51
190.5639617123588
  0
LINE
  5
CA9F
  8
AM_0
 10
283.80205986958771
 20
294.25596025534549
 30
0.0
 11
283.80205986958771
 21
227.2403284967404
 31
0.0
  0
LINE
  5
CAA0
  8
AM_0
 10
277.80205969077372
 20
310.74814586615901
 30
0.0
 11
277.80205969077372
 21
210.7481428859268
 31
0.0
  0
CIRCLE
  5
CAA1
  8
AM_0
 10
288.30206000369822
 20
211.24814290082799
 30
0.0
 40
4.5000001341104481
  0
LINE
  5
CAA2
  8
ﾁｭｳｼﾝｾﾝ1
 10
295.80206022721558
 20
211.24814290082799
 30
0.0
 11
280.8020597801808
 21
211.24814290082799
 31
0.0
  0
ARC
  5
CAA3
  8
AM_0
 10
288.30206000369822
 20
211.24814290082799
 30
0.0
 40
11.0
 50
1.790784178846567
 51
88.209215821153393
  0
LINE
  5
CAA4
  8
ﾁｭｳｼﾝｾﾝ1
 10
288.30206000369822
 20
203.7481426773106
 30
0.0
 11
288.30206000369822
 21
218.74814312434549
 31
0.0
  0
ARC
  5
CAA5
  8
AM_0
 10
287.80205998879711
 20
210.7481428859268
 30
0.0
 40
10.000000298023259
 50
179.999994991043
 51
269.99999749551807
  0
LINE
  5
CAA6
  8
AM_0
 10
260.30205969077372
 20
221.24814486778129
 30
0.0
 11
269.80816320639877
 21
221.24814486778129
 31
0.0
  0
LINE
  5
CAA7
  8
AM_0
 10
260.30205969077372
 20
245.3081948677814
 30
0.0
 11
269.90807582673648
 21
245.3081948677814
 31
0.0
  0
LINE
  5
CAA8
  8
AM_0
 10
260.30205969077372
 20
231.24814486778121
 30
0.0
 11
271.80816320639877
 21
231.24814486778129
 31
0.0
  0
LINE
  5
CAA9
  8
AM_0
 10
272.30816320639877
 20
233.98152804649229
 30
0.0
 11
277.80205969077372
 21
233.98152804649229
 31
0.0
  0
ARC
  5
CAAA
  8
AM_0
 10
275.80205969077372
 20
221.24814486778129
 30
0.0
 40
2.0
 50
0.0
 51
90.0
1001
GENIUS_GENODEF_13
1002
{
1000
HIER
1070
     0
1002
}
1002
{
1000
MANEDIT
1070
     0
1002
}
1002
{
1000
NOSEL
1070
     0
1002
}
1002
{
1000
BEHIND
1070
     0
1002
}
1002
{
1000
OTHER
1070
     0
1002
}
1002
{
1000
REACTOR
1002
}
1001
GENIUS_GENOBJ-N-FIL_13
1002
{
1000
OWNER
1000
GEN
1002
}
  0
ARC
  5
CAAB
  8
AM_0
 10
269.80816320639877
 20
223.24814486778129
 30
0.0
 40
2.0
 50
270.0
 51
329.99999999999869
1001
GENIUS_GENOBJ-N-FIL_13
1002
{
1000
OWNER
1000
GEN
1002
}
1001
GENIUS_GENODEF_13
1002
{
1000
HIER
1070
     0
1002
}
1002
{
1000
MANEDIT
1070
     0
1002
}
1002
{
1000
NOSEL
1070
     0
1002
}
1002
{
1000
BEHIND
1070
     0
1002
}
1002
{
1000
OTHER
1070
     0
1002
}
1002
{
1000
REACTOR
1002
}
  0
LINE
  5
CAAC
  8
AM_0
 10
275.80205969077372
 20
223.24814486778129
 30
0.0
 11
273.27226482153651
 21
223.24814486778129
 31
0.0
  0
ARC
  5
CAAD
  8
AM_0
 10
273.27226482153651
 20
221.24814486778129
 30
0.0
 40
2.0
 50
90.0
 51
149.99999999999869
1001
GENIUS_GENOBJ-N-FIL_13
1002
{
1000
OWNER
1000
GEN
1002
}
1001
GENIUS_GENODEF_13
1002
{
1000
HIER
1070
     0
1002
}
1002
{
1000
MANEDIT
1070
     0
1002
}
1002
{
1000
NOSEL
1070
     0
1002
}
1002
{
1000
BEHIND
1070
     0
1002
}
1002
{
1000
OTHER
1070
     0
1002
}
1002
{
1000
REACTOR
1002
}
  0
ARC
  5
CAAE
  8
AM_0
 10
288.80205986958759
 20
227.2403284967404
 30
0.0
 40
5.0
 50
180.0
 51
268.20921582115341
1001
GENIUS_GENOBJ-N-FIL_13
1002
{
1000
OWNER
1000
GEN
1002
}
1001
GENIUS_GENODEF_13
1002
{
1000
HIER
1070
     0
1002
}
1002
{
1000
MANEDIT
1070
     0
1002
}
1002
{
1000
NOSEL
1070
     0
1002
}
1002
{
1000
BEHIND
1070
     0
1002
}
1002
{
1000
OTHER
1070
     0
1002
}
1002
{
1000
REACTOR
1002
}
  0
ARC
  5
CAAF
  8
AM_0
 10
304.29424559961069
 20
211.74814276671759
 30
0.0
 40
5.0
 50
181.79078417884651
 51
270.0
1001
GENIUS_GENOBJ-N-FIL_13
1002
{
1000
OWNER
1000
GEN
1002
}
1001
GENIUS_GENODEF_13
1002
{
1000
HIER
1070
     0
1002
}
1002
{
1000
MANEDIT
1070
     0
1002
}
1002
{
1000
NOSEL
1070
     0
1002
}
1002
{
1000
BEHIND
1070
     0
1002
}
1002
{
1000
OTHER
1070
     0
1002
}
1002
{
1000
REACTOR
1002
}
  0
CIRCLE
  5
CAB0
  8
AM_0
 10
288.30206000369822
 20
310.2481458512579
 30
0.0
 40
4.5000001341104481
  0
LINE
  5
CAB1
  8
ﾁｭｳｼﾝｾﾝ1
 10
295.80206022721558
 20
310.2481458512579
 30
0.0
 11
280.8020597801808
 21
310.2481458512579
 31
0.0
  0
ARC
  5
CAB2
  8
AM_0
 10
288.30206000369822
 20
310.2481458512579
 30
0.0
 40
11.0
 50
271.79078417884648
 51
358.20921582115352
  0
LINE
  5
CAB3
  8
AM_0
 10
260.30205969077372
 20
309.1880848677813
 30
0.0
 11
269.98281005176739
 21
309.1880848677813
 31
0.0
  0
ARC
  5
CAB4
  8
AM_0
 10
288.80205986958759
 20
294.25596025534549
 30
0.0
 40
5.0
 50
91.790784178846565
 51
180.0
1001
GENIUS_GENOBJ-N-FIL_13
1002
{
1000
OWNER
1000
GEN
1002
}
1001
GENIUS_GENODEF_13
1002
{
1000
HIER
1070
     0
1002
}
1002
{
1000
MANEDIT
1070
     0
1002
}
1002
{
1000
NOSEL
1070
     0
1002
}
1002
{
1000
BEHIND
1070
     0
1002
}
1002
{
1000
OTHER
1070
     0
1002
}
1002
{
1000
REACTOR
1002
}
  0
ARC
  5
CAB5
  8
AM_0
 10
304.29424559961069
 20
309.74814598536841
 30
0.0
 40
5.0
 50
90.0
 51
178.20921582115341
1001
GENIUS_GENOBJ-N-FIL_13
1002
{
1000
OWNER
1000
GEN
1002
}
1001
GENIUS_GENODEF_13
1002
{
1000
HIER
1070
     0
1002
}
1002
{
1000
MANEDIT
1070
     0
1002
}
1002
{
1000
NOSEL
1070
     0
1002
}
1002
{
1000
BEHIND
1070
     0
1002
}
1002
{
1000
OTHER
1070
     0
1002
}
1002
{
1000
REACTOR
1002
}
  0
LINE
  5
CAB6
  8
AM_0
 10
260.30205969077372
 20
333.24814486778132
 30
0.0
 11
269.80816320639872
 21
333.24814486778121
 31
0.0
  0
LINE
  5
CAB7
  8
AM_0
 10
260.30205969077372
 20
323.24814486778132
 30
0.0
 11
271.80816320639872
 21
323.24814486778132
 31
0.0
  0
ARC
  5
CAB8
  8
AM_0
 10
269.80816320639872
 20
331.24814486778121
 30
0.0
 40
2.0
 50
0.0
 51
90.0
1001
GENIUS_GENOBJ-N-FIL_13
1002
{
1000
OWNER
1000
GEN
1002
}
1001
GENIUS_GENODEF_13
1002
{
1000
HIER
1070
     0
1002
}
1002
{
1000
MANEDIT
1070
     0
1002
}
1002
{
1000
NOSEL
1070
     0
1002
}
1002
{
1000
BEHIND
1070
     0
1002
}
1002
{
1000
OTHER
1070
     0
1002
}
1002
{
1000
REACTOR
1002
}
  0
ARC
  5
CAB9
  8
AM_0
 10
273.80816320639872
 20
322.74814486778132
 30
0.0
 40
2.0
 50
180.0
 51
270.0
1001
GENIUS_GENOBJ-N-FIL_13
1002
{
1000
OWNER
1000
GEN
1002
}
1001
GENIUS_GENODEF_13
1002
{
1000
HIER
1070
     0
1002
}
1002
{
1000
MANEDIT
1070
     0
1002
}
1002
{
1000
NOSEL
1070
     0
1002
}
1002
{
1000
BEHIND
1070
     0
1002
}
1002
{
1000
OTHER
1070
     0
1002
}
1002
{
1000
REACTOR
1002
}
  0
LINE
  5
CABA
  8
ﾁｭｳｼﾝｾﾝ
 10
611.56994242413202
 20
154.70804086754879
 30
0.0
 11
611.56994242413202
 21
343.74814437604289
 31
0.0
  0
LINE
  5
CABB
  8
AM_0
 10
562.56994096381834
 20
280.74814497208922
 30
0.0
 11
561.56994242413202
 21
280.74814497208922
 31
0.0
  0
LINE
  5
CABC
  8
AM_0
 10
562.56994096381834
 20
240.7481437799965
 30
0.0
 11
561.56994242413202
 21
240.7481437799965
 31
0.0
  0
LINE
  5
CABD
  8
ﾁｭｳｼﾝｾﾝ
 10
502.06994242413202
 20
277.24814486778132
 30
0.0
 11
678.06994242413202
 21
277.24814486778132
 31
0.0
  0
LINE
  5
CABE
  8
ﾁｭｳｼﾝｾﾝ
 10
548.56994084460871
 20
260.748144376043
 30
0.0
 11
674.56994400365511
 21
260.748144376043
 31
0.0
  0
LINE
  5
CABF
  8
AM_0
 10
553.40363799227032
 20
301.20595845299857
 30
0.0
 11
560.28898836601184
 21
300.96551671972719
 31
0.0
  0
ARC
  5
CAC0
  8
AM_0
 10
611.56994242413202
 20
277.248144376043
 30
0.0
 40
56.5
 50
144.98137173791559
 51
159.26891515525759
  0
LINE
  5
CAC1
  8
AM_0
 10
556.26007105130202
 20
313.27224419875182
 30
0.0
 11
565.56994242413202
 21
313.59735207096031
 31
0.0
  0
LINE
  5
CAC2
  8
AM_0
 10
556.23598714696163
 20
311.20167850964611
 30
0.0
 11
565.56994242413202
 21
310.87572960896568
 31
0.0
  0
LINE
  5
CAC3
  8
AM_0
 10
553.41997272659319
 20
303.27475510200219
 30
0.0
 11
561.57024782669885
 21
303.55936898006729
 31
0.0
  0
LINE
  5
CAC4
  8
ﾁｭｳｼﾝｾﾝ1
 10
421.30206396740709
 20
317.74814607477538
 30
0.0
 11
421.30206396740709
 21
302.74814562774048
 31
0.0
  0
ARC
  5
CAC5
  8
AM_0
 10
421.80206398230791
 20
310.74814586615901
 30
0.0
 40
10.00000029802322
 50
0.0
 51
90.000002504475205
  0
LINE
  5
CAC6
  8
ﾁｭｳｼﾝｾﾝ
 10
374.30206256669771
 20
325.74814551598189
 30
0.0
 11
374.30206256669783
 21
195.74814323610411
 31
0.0
  0
ARC
  5
CAC7
  8
AM_0
 10
374.30206256669783
 20
260.748144376043
 30
0.0
 40
12.500000372529
 50
108.6629275058358
 51
71.337073860656602
  0
CIRCLE
  5
CAC8
  8
AM_0
 10
374.30206256669783
 20
260.748144376043
 30
0.0
 40
18.500000596046451
  0
LINE
  5
CAC9
  8
AM_0
 10
425.80206410151692
 20
294.25596025534549
 30
0.0
 11
425.80206410151692
 21
227.2403284967404
 31
0.0
  0
LINE
  5
CACA
  8
AM_0
 10
431.80206428033108
 20
310.74814586615901
 30
0.0
 11
431.80206428033108
 21
210.7481428859268
 31
0.0
  0
LINE
  5
CACB
  8
ﾁｭｳｼﾝｾﾝ1
 10
421.30206396740709
 20
203.7481426773106
 30
0.0
 11
421.30206396740709
 21
218.74814312434549
 31
0.0
  0
ARC
  5
CACC
  8
AM_0
 10
421.30206396740709
 20
211.24814290082799
 30
0.0
 40
11.0
 50
91.790784178846565
 51
178.20921582115341
  0
ARC
  5
CACD
  8
AM_0
 10
405.30987837149479
 20
211.74814276671759
 30
0.0
 40
5.0
 50
270.0
 51
358.20921582115352
1001
GENIUS_GENODEF_13
1002
{
1000
HIER
1070
     0
1002
}
1002
{
1000
MANEDIT
1070
     0
1002
}
1002
{
1000
NOSEL
1070
     0
1002
}
1002
{
1000
BEHIND
1070
     0
1002
}
1002
{
1000
OTHER
1070
     0
1002
}
1002
{
1000
REACTOR
1002
}
1001
GENIUS_GENOBJ-N-FIL_13
1002
{
1000
OWNER
1000
GEN
1002
}
  0
ARC
  5
CACE
  8
AM_0
 10
421.80206398230791
 20
210.7481428859268
 30
0.0
 40
10.00000029802322
 50
269.99999749551807
 51
0.0
  0
LINE
  5
CACF
  8
ﾁｭｳｼﾝｾﾝ1
 10
413.80206374388911
 20
211.24814290082799
 30
0.0
 11
428.80206419092463
 21
211.24814290082799
 31
0.0
  0
CIRCLE
  5
CAD0
  8
AM_0
 10
421.30206396740709
 20
211.24814290082799
 30
0.0
 40
4.5000001341104481
  0
ARC
  5
CAD1
  8
AM_0
 10
420.80206410151698
 20
227.2403284967404
 30
0.0
 40
5.0
 50
271.79078417884648
 51
0.0
1001
GENIUS_GENOBJ-N-FIL_13
1002
{
1000
OWNER
1000
GEN
1002
}
1001
GENIUS_GENODEF_13
1002
{
1000
HIER
1070
     0
1002
}
1002
{
1000
MANEDIT
1070
     0
1002
}
1002
{
1000
NOSEL
1070
     0
1002
}
1002
{
1000
BEHIND
1070
     0
1002
}
1002
{
1000
OTHER
1070
     0
1002
}
1002
{
1000
REACTOR
1002
}
  0
LINE
  5
CAD2
  8
AM_0
 10
370.30206244748882
 20
276.54813263988808
 30
0.0
 11
378.30206268590717
 21
276.54813263988808
 31
0.0
  0
LINE
  5
CAD3
  8
AM_0
 10
370.30206244748882
 20
276.54813263988808
 30
0.0
 11
370.30206244748882
 21
272.59085713132708
 31
0.0
  0
LINE
  5
CAD4
  8
AM_0
 10
378.30206268590717
 20
276.54813263988808
 30
0.0
 11
378.30206268590717
 21
272.59085713132708
 31
0.0
  0
ARC
  5
CAD5
  8
AM_0
 10
421.30206396740709
 20
310.2481458512579
 30
0.0
 40
11.0
 50
181.79078417884651
 51
268.20921582115341
  0
ARC
  5
CAD6
  8
AM_0
 10
405.30987837149479
 20
309.7481459853683
 30
0.0
 40
5.0
 50
1.790784178846567
 51
90.0
1001
GENIUS_GENOBJ-N-FIL_13
1002
{
1000
OWNER
1000
GEN
1002
}
1001
GENIUS_GENODEF_13
1002
{
1000
HIER
1070
     0
1002
}
1002
{
1000
MANEDIT
1070
     0
1002
}
1002
{
1000
NOSEL
1070
     0
1002
}
1002
{
1000
BEHIND
1070
     0
1002
}
1002
{
1000
OTHER
1070
     0
1002
}
1002
{
1000
REACTOR
1002
}
  0
ARC
  5
CAD7
  8
AM_0
 10
420.80206410151698
 20
294.25596025534549
 30
0.0
 40
5.0
 50
0.0
 51
88.209215821153393
1001
GENIUS_GENOBJ-N-FIL_13
1002
{
1000
OWNER
1000
GEN
1002
}
1001
GENIUS_GENODEF_13
1002
{
1000
HIER
1070
     0
1002
}
1002
{
1000
MANEDIT
1070
     0
1002
}
1002
{
1000
NOSEL
1070
     0
1002
}
1002
{
1000
BEHIND
1070
     0
1002
}
1002
{
1000
OTHER
1070
     0
1002
}
1002
{
1000
REACTOR
1002
}
  0
LINE
  5
CAD8
  8
ﾁｭｳｼﾝｾﾝ1
 10
413.80206374388911
 20
310.2481458512579
 30
0.0
 11
428.80206419092463
 21
310.2481458512579
 31
0.0
  0
CIRCLE
  5
CAD9
  8
AM_0
 10
421.30206396740709
 20
310.2481458512579
 30
0.0
 40
4.5000001341104481
  0
ARC
  5
CADA
  8
AM_0
 10
553.45487222329564
 20
252.2209244771025
 30
0.0
 40
1.0
 50
193.1511182606454
 51
268.0000000000029
1001
GENIUS_GENODEF_13
1002
{
1000
HIER
1070
     0
1002
}
1002
{
1000
MANEDIT
1070
     0
1002
}
1002
{
1000
NOSEL
1070
     0
1002
}
1002
{
1000
BEHIND
1070
     0
1002
}
1002
{
1000
REACTOR
1002
}
1001
GENIUS_GENOBJ-N-FIL_13
1002
{
1000
OWNER
1000
GEN
1002
}
  0
LINE
  5
CADB
  8
AM_0
 10
553.41997272659319
 20
251.2215336500835
 30
0.0
 11
554.06994242413214
 21
251.1988362080991
 31
0.0
  0
LINE
  5
CADC
  8
AM_0
 10
553.40363799227032
 20
253.29033029908709
 30
0.0
 11
554.06994242413202
 21
253.31359816256341
 31
0.0
  0
ARC
  5
CADD
  8
AM_0
 10
553.438537488973
 20
252.29093947206781
 30
0.0
 40
1.0
 50
92.000000000003624
 51
193.11367014329679
1001
GENIUS_GENODEF_13
1002
{
1000
HIER
1070
     0
1002
}
1002
{
1000
MANEDIT
1070
     0
1002
}
1002
{
1000
NOSEL
1070
     0
1002
}
1002
{
1000
BEHIND
1070
     0
1002
}
1002
{
1000
REACTOR
1002
}
1001
GENIUS_GENOBJ-N-FIL_13
1002
{
1000
OWNER
1000
GEN
1002
}
  0
ARC
  5
CADE
  8
AM_0
 10
660.56994242413202
 20
277.248144376043
 30
0.0
 40
111.0
 50
193.1136701432992
 51
193.1511182606454
  0
LINE
  5
CADF
  8
AM_0
 10
551.56668324115958
 20
261.21889701997668
 30
0.0
 11
554.06994242413202
 21
261.13148128306989
 31
0.0
  0
LINE
  5
CAE0
  8
AM_0
 10
551.55720108878631
 20
263.28658642994918
 30
0.0
 11
554.06994242413202
 21
263.37433329091328
 31
0.0
  0
ARC
  5
CAE1
  8
AM_0
 10
660.56994242413202
 20
277.248144376043
 30
0.0
 40
111.0
 50
187.8169478316955
 51
187.8531780888066
  0
ARC
  5
CAE2
  8
AM_0
 10
551.60158273786226
 20
262.21828784699562
 30
0.0
 40
1.0
 50
187.85317808880549
 51
268.0000000000029
1001
GENIUS_GENODEF_13
1002
{
1000
HIER
1070
     0
1002
}
1002
{
1000
MANEDIT
1070
     0
1002
}
1002
{
1000
NOSEL
1070
     0
1002
}
1002
{
1000
BEHIND
1070
     0
1002
}
1002
{
1000
REACTOR
1002
}
1001
GENIUS_GENOBJ-N-FIL_13
1002
{
1000
OWNER
1000
GEN
1002
}
  0
ARC
  5
CAE3
  8
AM_0
 10
551.59210058548865
 20
262.28719560293013
 30
0.0
 40
1.0
 50
92.000000000003624
 51
187.8169478316899
1001
GENIUS_GENODEF_13
1002
{
1000
HIER
1070
     0
1002
}
1002
{
1000
MANEDIT
1070
     0
1002
}
1002
{
1000
NOSEL
1070
     0
1002
}
1002
{
1000
BEHIND
1070
     0
1002
}
1002
{
1000
REACTOR
1002
}
1001
GENIUS_GENOBJ-N-FIL_13
1002
{
1000
OWNER
1000
GEN
1002
}
  0
LINE
  5
CAE4
  8
AM_0
 10
550.64711911955476
 20
273.28324258529841
 30
0.0
 11
554.06994242413214
 21
273.4027702089287
 31
0.0
  0
LINE
  5
CAE5
  8
AM_0
 10
550.65022929801523
 20
271.21608689714429
 30
0.0
 11
554.06994242413202
 21
271.09666788333931
 31
0.0
  0
ARC
  5
CAE6
  8
AM_0
 10
550.68512879471791
 20
272.21547772416329
 30
0.0
 40
1.0
 50
182.62228408795301
 51
267.99999999999642
1001
GENIUS_GENODEF_13
1002
{
1000
HIER
1070
     0
1002
}
1002
{
1000
MANEDIT
1070
     0
1002
}
1002
{
1000
NOSEL
1070
     0
1002
}
1002
{
1000
BEHIND
1070
     0
1002
}
1002
{
1000
REACTOR
1002
}
1001
GENIUS_GENOBJ-N-FIL_13
1002
{
1000
OWNER
1000
GEN
1002
}
  0
ARC
  5
CAE7
  8
AM_0
 10
660.56994242413202
 20
277.248144376043
 30
0.0
 40
111.0
 50
182.58663322877649
 51
182.62228408795301
  0
ARC
  5
CAE8
  8
AM_0
 10
550.68201861625766
 20
272.2838517582793
 30
0.0
 40
1.0
 50
92.000000000003624
 51
182.58663322877649
1001
GENIUS_GENODEF_13
1002
{
1000
HIER
1070
     0
1002
}
1002
{
1000
MANEDIT
1070
     0
1002
}
1002
{
1000
NOSEL
1070
     0
1002
}
1002
{
1000
BEHIND
1070
     0
1002
}
1002
{
1000
REACTOR
1002
}
1001
GENIUS_GENOBJ-N-FIL_13
1002
{
1000
OWNER
1000
GEN
1002
}
  0
LINE
  5
CAE9
  8
AM_0
 10
550.64711911955476
 20
281.21304616678691
 30
0.0
 11
554.56994242413202
 21
281.07605815841129
 31
0.0
  0
LINE
  5
CAEA
  8
AM_0
 10
550.65022929801523
 20
283.28020185494131
 30
0.0
 11
554.56994242413202
 21
283.41708125349231
 31
0.0
  0
ARC
  5
CAEB
  8
AM_0
 10
550.68512879471791
 20
282.28081102792231
 30
0.0
 40
1.0
 50
92.000000000003624
 51
177.37771591204699
1001
GENIUS_GENODEF_13
1002
{
1000
HIER
1070
     0
1002
}
1002
{
1000
MANEDIT
1070
     0
1002
}
1002
{
1000
NOSEL
1070
     0
1002
}
1002
{
1000
BEHIND
1070
     0
1002
}
1002
{
1000
REACTOR
1002
}
1001
GENIUS_GENOBJ-N-FIL_13
1002
{
1000
OWNER
1000
GEN
1002
}
  0
ARC
  5
CAEC
  8
AM_0
 10
660.56994242413202
 20
277.248144376043
 30
0.0
 40
111.0
 50
177.37771591204699
 51
177.41336677122339
  0
ARC
  5
CAED
  8
AM_0
 10
550.68201861625766
 20
282.21243699380619
 30
0.0
 40
1.0
 50
177.41336677122669
 51
267.99999999999642
1001
GENIUS_GENODEF_13
1002
{
1000
HIER
1070
     0
1002
}
1002
{
1000
MANEDIT
1070
     0
1002
}
1002
{
1000
NOSEL
1070
     0
1002
}
1002
{
1000
BEHIND
1070
     0
1002
}
1002
{
1000
REACTOR
1002
}
1001
GENIUS_GENOBJ-N-FIL_13
1002
{
1000
OWNER
1000
GEN
1002
}
  0
ARC
  5
CAEE
  8
AM_0
 10
551.59210058548865
 20
292.20909314915531
 30
0.0
 40
1.0
 50
172.1830521683091
 51
267.99999999999642
1001
GENIUS_GENODEF_13
1002
{
1000
HIER
1070
     0
1002
}
1002
{
1000
MANEDIT
1070
     0
1002
}
1002
{
1000
NOSEL
1070
     0
1002
}
1002
{
1000
BEHIND
1070
     0
1002
}
1002
{
1000
REACTOR
1002
}
1001
GENIUS_GENOBJ-N-FIL_13
1002
{
1000
OWNER
1000
GEN
1002
}
  0
LINE
  5
CAEF
  8
AM_0
 10
551.55720108878631
 20
291.20970232213631
 30
0.0
 11
554.5699424241318
 21
291.10449507642647
 31
0.0
  0
LINE
  5
CAF0
  8
AM_0
 10
551.56668324115958
 20
293.27739173210921
 30
0.0
 11
554.56994242413202
 21
293.38226785376168
 31
0.0
  0
ARC
  5
CAF1
  8
AM_0
 10
660.56994242413202
 20
277.248144376043
 30
0.0
 40
111.0
 50
172.1468219111924
 51
172.1830521683091
  0
ARC
  5
CAF2
  8
AM_0
 10
551.60158273786226
 20
292.27800090508993
 30
0.0
 40
1.0
 50
91.999999999997158
 51
172.14682191119741
1001
GENIUS_GENODEF_13
1002
{
1000
HIER
1070
     0
1002
}
1002
{
1000
MANEDIT
1070
     0
1002
}
1002
{
1000
NOSEL
1070
     0
1002
}
1002
{
1000
BEHIND
1070
     0
1002
}
1002
{
1000
REACTOR
1002
}
1001
GENIUS_GENOBJ-N-FIL_13
1002
{
1000
OWNER
1000
GEN
1002
}
  0
LINE
  5
CAF3
  8
AM_0
 10
557.56994242413214
 20
311.15509576490012
 30
0.0
 11
557.56994242413202
 21
303.4196752372078
 31
0.0
  0
ARC
  5
CAF4
  8
AM_0
 10
553.438537488973
 20
302.20534928001757
 30
0.0
 40
1.0
 50
166.88632985670239
 51
267.99999999999642
1001
GENIUS_GENODEF_13
1002
{
1000
HIER
1070
     0
1002
}
1002
{
1000
MANEDIT
1070
     0
1002
}
1002
{
1000
NOSEL
1070
     0
1002
}
1002
{
1000
BEHIND
1070
     0
1002
}
1002
{
1000
REACTOR
1002
}
1001
GENIUS_GENOBJ-N-FIL_13
1002
{
1000
OWNER
1000
GEN
1002
}
  0
ARC
  5
CAF5
  8
AM_0
 10
660.56994242413202
 20
277.248144376043
 30
0.0
 40
111.0
 50
166.84888173935369
 51
166.88632985670239
  0
ARC
  5
CAF6
  8
AM_0
 10
553.45487222329564
 20
302.27536427498291
 30
0.0
 40
1.0
 50
91.999999999997158
 51
166.84888173935369
1001
GENIUS_GENODEF_13
1002
{
1000
HIER
1070
     0
1002
}
1002
{
1000
MANEDIT
1070
     0
1002
}
1002
{
1000
NOSEL
1070
     0
1002
}
1002
{
1000
BEHIND
1070
     0
1002
}
1002
{
1000
REACTOR
1002
}
1001
GENIUS_GENOBJ-N-FIL_13
1002
{
1000
OWNER
1000
GEN
1002
}
  0
ARC
  5
CAF7
  8
AM_0
 10
556.29497054800413
 20
312.27285337173248
 30
0.0
 40
1.0
 50
92.000000000003624
 51
161.43341919809711
1001
GENIUS_GENODEF_13
1002
{
1000
HIER
1070
     0
1002
}
1002
{
1000
MANEDIT
1070
     0
1002
}
1002
{
1000
NOSEL
1070
     0
1002
}
1002
{
1000
BEHIND
1070
     0
1002
}
1002
{
1000
REACTOR
1002
}
1001
GENIUS_GENOBJ-N-FIL_13
1002
{
1000
OWNER
1000
GEN
1002
}
  0
ARC
  5
CAF8
  8
AM_0
 10
660.56994242413202
 20
277.248144376043
 30
0.0
 40
111.0
 50
161.43341919810169
 51
161.47285768552871
  0
ARC
  5
CAF9
  8
AM_0
 10
556.27088664366431
 20
312.20106933666489
 30
0.0
 40
1.0
 50
161.47285768552871
 51
267.99999999999642
1001
GENIUS_GENODEF_13
1002
{
1000
HIER
1070
     0
1002
}
1002
{
1000
MANEDIT
1070
     0
1002
}
1002
{
1000
NOSEL
1070
     0
1002
}
1002
{
1000
BEHIND
1070
     0
1002
}
1002
{
1000
REACTOR
1002
}
1001
GENIUS_GENOBJ-N-FIL_13
1002
{
1000
OWNER
1000
GEN
1002
}
  0
LINE
  5
CAFA
  8
AM_0
 10
657.56994242413202
 20
310.53102285732808
 30
0.0
 11
657.56994242413202
 21
318.24814437604289
 31
0.0
1001
GENIUS_GENODEF_13
1002
{
1000
HIER
1070
     0
1002
}
1002
{
1000
MANEDIT
1070
     0
1002
}
1002
{
1000
NOSEL
1070
     0
1002
}
1002
{
1000
BEHIND
1070
     0
1002
}
1002
{
1000
REACTOR
1002
}
1001
GENIUS_GENOBJ-N-CEN_13
1002
{
1000
OWNER
1000
GEN
1002
}
  0
LINE
  5
CAFB
  8
AM_0
 10
565.56994242413202
 20
310.53102285732808
 30
0.0
 11
565.56994242413202
 21
318.24814437604289
 31
0.0
1001
GENIUS_GENODEF_13
1002
{
1000
HIER
1070
     0
1002
}
1002
{
1000
MANEDIT
1070
     0
1002
}
1002
{
1000
NOSEL
1070
     0
1002
}
1002
{
1000
BEHIND
1070
     0
1002
}
1002
{
1000
REACTOR
1002
}
1001
GENIUS_GENOBJ-N-CEN_13
1002
{
1000
OWNER
1000
GEN
1002
}
  0
LINE
  5
CAFC
  8
AM_0
 10
566.56994108302763
 20
319.52627778250701
 30
0.0
 11
566.56994108302717
 21
201.96998322632521
 31
0.0
  0
LINE
  5
CAFD
  8
AM_0
 10
656.56994376523653
 20
201.09726368841621
 30
0.0
 11
656.56994376523653
 21
320.39902506366951
 31
0.0
  0
LINE
  5
CAFE
  8
AM_0
 10
636.56994337780645
 20
320.74814616418229
 30
0.0
 11
636.56994337780645
 21
200.7481425879036
 31
0.0
  0
LINE
  5
CAFF
  8
AM_0
 10
656.56994376523653
 20
298.24814549362998
 30
0.0
 11
660.56994388444559
 21
298.24814549362998
 31
0.0
  0
LINE
  5
CB00
  8
AM_0
 10
666.87981379696203
 20
313.27224419875182
 30
0.0
 11
657.56994242413202
 21
313.59735207096031
 31
0.0
  0
LINE
  5
CB01
  8
AM_0
 10
666.90389770130207
 20
311.20167850964611
 30
0.0
 11
657.56994242413202
 21
310.87572960896568
 31
0.0
  0
ARC
  5
CB02
  8
AM_0
 10
611.56994242413202
 20
277.248144376043
 30
0.0
 40
56.5
 50
20.731084844742298
 51
35.018628262084228
  0
LINE
  5
CB03
  8
ﾁｭｳｼﾝｾﾝ
 10
563.56994108302717
 20
310.2481458512579
 30
0.0
 11
659.56994376523653
 21
310.2481458512579
 31
0.0
  0
LINE
  5
CB04
  8
AM_0
 10
656.56994376523653
 20
223.248143258456
 30
0.0
 11
660.56994388444559
 21
223.248143258456
 31
0.0
  0
LINE
  5
CB05
  8
ﾁｭｳｼﾝｾﾝ
 10
563.56994108302717
 20
211.24814290082799
 30
0.0
 11
659.56994376523653
 21
211.24814290082799
 31
0.0
  0
LINE
  5
CB06
  8
AM_0
 10
562.56994096381834
 20
298.24814549362998
 30
0.0
 11
562.56994096381834
 21
223.248143258456
 31
0.0
  0
LINE
  5
CB07
  8
ｶｸﾚｾﾝ2
 10
566.56994108302752
 20
206.74814276671751
 30
0.0
 11
656.56994376523653
 21
206.74814276671751
 31
0.0
  0
LINE
  5
CB08
  8
ｶｸﾚｾﾝ2
 10
566.56994108302752
 20
215.74814303493841
 30
0.0
 11
656.56994376523653
 21
215.74814303493841
 31
0.0
  0
LINE
  5
CB09
  8
AM_0
 10
636.56994337780645
 20
200.74814258790369
 30
0.0
 11
566.56994108302752
 21
201.96998322632521
 31
0.0
  0
LINE
  5
CB0A
  8
AM_0
 10
566.56994108302752
 20
223.248143258456
 30
0.0
 11
562.56994096381834
 21
223.248143258456
 31
0.0
  0
LINE
  5
CB0B
  8
AM_0
 10
656.56994376523653
 20
201.09726368841621
 30
0.0
 11
636.56994337780645
 21
200.74814258790369
 31
0.0
  0
LINE
  5
CB0C
  8
ｶｸﾚｾﾝ2
 10
566.56994108302752
 20
305.74814571714751
 30
0.0
 11
656.56994376523653
 21
305.74814571714751
 31
0.0
  0
LINE
  5
CB0D
  8
ｶｸﾚｾﾝ2
 10
566.56994108302752
 20
314.7481459853683
 30
0.0
 11
656.56994376523653
 21
314.7481459853683
 31
0.0
  0
LINE
  5
CB0E
  8
AM_0
 10
566.56994108302752
 20
298.24814549362998
 30
0.0
 11
562.56994096381834
 21
298.24814549362998
 31
0.0
  0
ARC
  5
CB0F
  8
AM_0
 10
564.0699424241318
 20
310.53102285732791
 30
0.0
 40
1.5
 50
324.98137173791508
 51
0.0
1001
GENIUS_GENODEF_13
1002
{
1000
HIER
1070
     0
1002
}
1002
{
1000
MANEDIT
1070
     0
1002
}
1002
{
1000
NOSEL
1070
     0
1002
}
1002
{
1000
BEHIND
1070
     0
1002
}
1002
{
1000
REACTOR
1002
}
1001
GENIUS_GENOBJ-N-FIL_13
1002
{
1000
OWNER
1000
GEN
1002
}
  0
ARC
  5
CB10
  8
AM_0
 10
659.06994242413202
 20
310.53102285732808
 30
0.0
 40
1.5
 50
180.0
 51
215.01862826208421
1001
GENIUS_GENODEF_13
1002
{
1000
HIER
1070
     0
1002
}
1002
{
1000
MANEDIT
1070
     0
1002
}
1002
{
1000
NOSEL
1070
     0
1002
}
1002
{
1000
BEHIND
1070
     0
1002
}
1002
{
1000
REACTOR
1002
}
1001
GENIUS_GENOBJ-N-FIL_13
1002
{
1000
OWNER
1000
GEN
1002
}
  0
LINE
  5
CB11
  8
AM_0
 10
660.56994388444559
 20
298.24814549362998
 30
0.0
 11
660.56994388444559
 21
223.248143258456
 31
0.0
  0
LINE
  5
CB12
  8
AM_0
 10
660.56994388444559
 20
240.7481437799965
 30
0.0
 11
661.56994242413202
 21
240.7481437799965
 31
0.0
  0
LINE
  5
CB13
  8
AM_0
 10
671.58268375947762
 20
263.28658642994918
 30
0.0
 11
669.06994242413214
 21
263.37433329091328
 31
0.0
  0
LINE
  5
CB14
  8
AM_0
 10
671.57320160710412
 20
261.21889701997668
 30
0.0
 11
669.0699424241318
 21
261.13148128307
 31
0.0
  0
ARC
  5
CB15
  8
AM_0
 10
671.54778426277505
 20
262.28719560293013
 30
0.0
 40
1.0
 50
352.18305216830908
 51
88.000000000002842
1001
GENIUS_GENODEF_13
1002
{
1000
HIER
1070
     0
1002
}
1002
{
1000
MANEDIT
1070
     0
1002
}
1002
{
1000
NOSEL
1070
     0
1002
}
1002
{
1000
BEHIND
1070
     0
1002
}
1002
{
1000
REACTOR
1002
}
1001
GENIUS_GENOBJ-N-FIL_13
1002
{
1000
OWNER
1000
GEN
1002
}
  0
ARC
  5
CB16
  8
AM_0
 10
562.56994242413202
 20
277.24814437604277
 30
0.0
 40
111.0
 50
352.1468219111934
 51
352.1830521683043
  0
ARC
  5
CB17
  8
AM_0
 10
671.53830211040145
 20
262.21828784699568
 30
0.0
 40
1.0
 50
271.9999999999971
 51
352.14682191119772
1001
GENIUS_GENODEF_13
1002
{
1000
HIER
1070
     0
1002
}
1002
{
1000
MANEDIT
1070
     0
1002
}
1002
{
1000
NOSEL
1070
     0
1002
}
1002
{
1000
BEHIND
1070
     0
1002
}
1002
{
1000
REACTOR
1002
}
1001
GENIUS_GENOBJ-N-FIL_13
1002
{
1000
OWNER
1000
GEN
1002
}
  0
LINE
  5
CB18
  8
AM_0
 10
672.48965555024847
 20
283.28020185494131
 30
0.0
 11
668.56994242413202
 21
283.41708125349231
 31
0.0
  0
LINE
  5
CB19
  8
AM_0
 10
672.49276572870895
 20
281.21304616678691
 30
0.0
 11
668.5699424241318
 21
281.07605815841117
 31
0.0
  0
LINE
  5
CB1A
  8
AM_0
 10
672.49276572870895
 20
273.28324258529841
 30
0.0
 11
669.06994242413202
 21
273.4027702089287
 31
0.0
  0
LINE
  5
CB1B
  8
AM_0
 10
672.48965555024847
 20
271.21608689714429
 30
0.0
 11
669.06994242413202
 21
271.09666788333931
 31
0.0
  0
LINE
  5
CB1C
  8
AM_0
 10
660.56994388444559
 20
280.74814497208922
 30
0.0
 11
661.56994242413202
 21
280.74814497208922
 31
0.0
  0
ARC
  5
CB1D
  8
AM_0
 10
672.45475605354613
 20
272.21547772416352
 30
0.0
 40
1.0
 50
271.9999999999971
 51
357.37771591204699
1001
GENIUS_GENODEF_13
1002
{
1000
HIER
1070
     0
1002
}
1002
{
1000
MANEDIT
1070
     0
1002
}
1002
{
1000
NOSEL
1070
     0
1002
}
1002
{
1000
BEHIND
1070
     0
1002
}
1002
{
1000
REACTOR
1002
}
1001
GENIUS_GENOBJ-N-FIL_13
1002
{
1000
OWNER
1000
GEN
1002
}
  0
ARC
  5
CB1E
  8
AM_0
 10
562.56994242413202
 20
277.24814437604277
 30
0.0
 40
111.0
 50
357.37771591204699
 51
357.41336677122348
  0
ARC
  5
CB1F
  8
AM_0
 10
672.45786623200615
 20
272.28385175827952
 30
0.0
 40
1.0
 50
357.41336677122348
 51
87.999999999996334
1001
GENIUS_GENODEF_13
1002
{
1000
HIER
1070
     0
1002
}
1002
{
1000
MANEDIT
1070
     0
1002
}
1002
{
1000
NOSEL
1070
     0
1002
}
1002
{
1000
BEHIND
1070
     0
1002
}
1002
{
1000
REACTOR
1002
}
1001
GENIUS_GENOBJ-N-FIL_13
1002
{
1000
OWNER
1000
GEN
1002
}
  0
ARC
  5
CB20
  8
AM_0
 10
562.56994242413202
 20
277.24814437604277
 30
0.0
 40
111.0
 50
2.586633228776543
 51
2.6222840879530001
  0
ARC
  5
CB21
  8
AM_0
 10
672.45475605354613
 20
282.28081102792243
 30
0.0
 40
1.0
 50
2.6222840879530001
 51
88.000000000002842
1001
GENIUS_GENODEF_13
1002
{
1000
HIER
1070
     0
1002
}
1002
{
1000
MANEDIT
1070
     0
1002
}
1002
{
1000
NOSEL
1070
     0
1002
}
1002
{
1000
BEHIND
1070
     0
1002
}
1002
{
1000
REACTOR
1002
}
1001
GENIUS_GENOBJ-N-FIL_13
1002
{
1000
OWNER
1000
GEN
1002
}
  0
ARC
  5
CB22
  8
AM_0
 10
672.45786623200615
 20
282.21243699380619
 30
0.0
 40
1.0
 50
272.00000000000369
 51
2.586633228776543
1001
GENIUS_GENODEF_13
1002
{
1000
HIER
1070
     0
1002
}
1002
{
1000
MANEDIT
1070
     0
1002
}
1002
{
1000
NOSEL
1070
     0
1002
}
1002
{
1000
BEHIND
1070
     0
1002
}
1002
{
1000
REACTOR
1002
}
1001
GENIUS_GENOBJ-N-FIL_13
1002
{
1000
OWNER
1000
GEN
1002
}
  0
LINE
  5
CB23
  8
AM_0
 10
671.57320160710412
 20
293.27739173210921
 30
0.0
 11
668.56994242413214
 21
293.38226785376168
 31
0.0
  0
LINE
  5
CB24
  8
AM_0
 10
671.58268375947762
 20
291.20970232213631
 30
0.0
 11
668.56994242413202
 21
291.10449507642647
 31
0.0
  0
ARC
  5
CB25
  8
AM_0
 10
671.54778426277505
 20
292.20909314915531
 30
0.0
 40
1.0
 50
271.9999999999971
 51
7.8169478316908387
1001
GENIUS_GENODEF_13
1002
{
1000
HIER
1070
     0
1002
}
1002
{
1000
MANEDIT
1070
     0
1002
}
1002
{
1000
NOSEL
1070
     0
1002
}
1002
{
1000
BEHIND
1070
     0
1002
}
1002
{
1000
REACTOR
1002
}
1001
GENIUS_GENOBJ-N-FIL_13
1002
{
1000
OWNER
1000
GEN
1002
}
  0
ARC
  5
CB26
  8
AM_0
 10
562.56994242413202
 20
277.24814437604277
 30
0.0
 40
111.0
 50
7.8169478316957584
 51
7.8531780888073852
  0
ARC
  5
CB27
  8
AM_0
 10
671.53830211040145
 20
292.27800090508998
 30
0.0
 40
1.0
 50
7.8531780888025473
 51
88.000000000002842
1001
GENIUS_GENODEF_13
1002
{
1000
HIER
1070
     0
1002
}
1002
{
1000
MANEDIT
1070
     0
1002
}
1002
{
1000
NOSEL
1070
     0
1002
}
1002
{
1000
BEHIND
1070
     0
1002
}
1002
{
1000
REACTOR
1002
}
1001
GENIUS_GENOBJ-N-FIL_13
1002
{
1000
OWNER
1000
GEN
1002
}
  0
ARC
  5
CB28
  8
AM_0
 10
669.68501262496829
 20
302.27536427498308
 30
0.0
 40
1.0
 50
13.151118260645489
 51
88.000000000002842
1001
GENIUS_GENODEF_13
1002
{
1000
HIER
1070
     0
1002
}
1002
{
1000
MANEDIT
1070
     0
1002
}
1002
{
1000
NOSEL
1070
     0
1002
}
1002
{
1000
BEHIND
1070
     0
1002
}
1002
{
1000
REACTOR
1002
}
1001
GENIUS_GENOBJ-N-FIL_13
1002
{
1000
OWNER
1000
GEN
1002
}
  0
ARC
  5
CB29
  8
AM_0
 10
669.70134735929105
 20
302.2053492800178
 30
0.0
 40
1.0
 50
272.00000000000369
 51
13.113670143297609
1001
GENIUS_GENODEF_13
1002
{
1000
HIER
1070
     0
1002
}
1002
{
1000
MANEDIT
1070
     0
1002
}
1002
{
1000
NOSEL
1070
     0
1002
}
1002
{
1000
BEHIND
1070
     0
1002
}
1002
{
1000
REACTOR
1002
}
1001
GENIUS_GENOBJ-N-FIL_13
1002
{
1000
OWNER
1000
GEN
1002
}
  0
LINE
  5
CB2A
  8
AM_0
 10
665.56994242413157
 20
311.15509576490012
 30
0.0
 11
665.56994242413202
 21
303.4196752372078
 31
0.0
  0
LINE
  5
CB2B
  8
AM_0
 10
669.73624685599361
 20
301.20595845299857
 30
0.0
 11
662.8508964822521
 21
300.96551671972719
 31
0.0
  0
LINE
  5
CB2C
  8
AM_0
 10
669.71991212167086
 20
303.27475510200219
 30
0.0
 11
661.56963702156486
 21
303.55936898006729
 31
0.0
  0
ARC
  5
CB2D
  8
AM_0
 10
562.56994242413202
 20
277.24814437604277
 30
0.0
 40
111.0
 50
13.113670143299201
 51
13.151118260645489
  0
ARC
  5
CB2E
  8
AM_0
 10
666.84491430025957
 20
312.27285337173282
 30
0.0
 40
1.0
 50
18.56658080190293
 51
87.999999999996334
1001
GENIUS_GENODEF_13
1002
{
1000
HIER
1070
     0
1002
}
1002
{
1000
MANEDIT
1070
     0
1002
}
1002
{
1000
NOSEL
1070
     0
1002
}
1002
{
1000
BEHIND
1070
     0
1002
}
1002
{
1000
REACTOR
1002
}
1001
GENIUS_GENOBJ-N-FIL_13
1002
{
1000
OWNER
1000
GEN
1002
}
  0
ARC
  5
CB2F
  8
AM_0
 10
562.56994242413202
 20
277.24814437604277
 30
0.0
 40
111.0
 50
18.527142314471341
 51
18.56658080189829
  0
ARC
  5
CB30
  8
AM_0
 10
666.86899820459962
 20
312.20106933666511
 30
0.0
 40
1.0
 50
271.9999999999971
 51
18.527142314471341
1001
GENIUS_GENODEF_13
1002
{
1000
HIER
1070
     0
1002
}
1002
{
1000
MANEDIT
1070
     0
1002
}
1002
{
1000
NOSEL
1070
     0
1002
}
1002
{
1000
BEHIND
1070
     0
1002
}
1002
{
1000
REACTOR
1002
}
1001
GENIUS_GENOBJ-N-FIL_13
1002
{
1000
OWNER
1000
GEN
1002
}
  0
ARC
  5
CB31
  8
AM_0
 10
652.56994242413202
 20
318.24814437604289
 30
0.0
 40
5.0
 50
0.0
 51
90.0
1001
GENIUS_GENODEF_13
1002
{
1000
HIER
1070
     0
1002
}
1002
{
1000
MANEDIT
1070
     0
1002
}
1002
{
1000
NOSEL
1070
     0
1002
}
1002
{
1000
BEHIND
1070
     0
1002
}
1002
{
1000
REACTOR
1002
}
1001
GENIUS_GENOBJ-N-FIL_13
1002
{
1000
OWNER
1000
GEN
1002
}
  0
LINE
  5
CB32
  8
AM_0
 10
636.56994337780645
 20
320.74814616418229
 30
0.0
 11
566.56994108302763
 21
319.52627778250712
 31
0.0
  0
ARC
  5
CB33
  8
AM_0
 10
611.56994242413202
 20
277.248144376043
 30
0.0
 40
56.5
 50
55.136162045694739
 51
124.8638379543052
  0
ARC
  5
CB34
  8
AM_0
 10
576.61701746350946
 20
332.54720015651031
 30
0.0
 40
1.0
 50
2.0000000000004698
 51
108.5271423144752
1001
GENIUS_GENODEF_13
1002
{
1000
HIER
1070
     0
1002
}
1002
{
1000
MANEDIT
1070
     0
1002
}
1002
{
1000
NOSEL
1070
     0
1002
}
1002
{
1000
BEHIND
1070
     0
1002
}
1002
{
1000
REACTOR
1002
}
1001
GENIUS_GENOBJ-N-FIL_13
1002
{
1000
OWNER
1000
GEN
1002
}
  0
ARC
  5
CB35
  8
AM_0
 10
576.54523342844243
 20
332.52311625217038
 30
0.0
 40
1.0
 50
108.5665808019031
 51
177.99999999999301
1001
GENIUS_GENODEF_13
1002
{
1000
HIER
1070
     0
1002
}
1002
{
1000
MANEDIT
1070
     0
1002
}
1002
{
1000
NOSEL
1070
     0
1002
}
1002
{
1000
BEHIND
1070
     0
1002
}
1002
{
1000
REACTOR
1002
}
1001
GENIUS_GENOBJ-N-FIL_13
1002
{
1000
OWNER
1000
GEN
1002
}
  0
LINE
  5
CB36
  8
AM_0
 10
570.56994242413202
 20
323.248144376043
 30
0.0
 11
578.12969720972012
 21
323.248144376043
 31
0.0
  0
ARC
  5
CB37
  8
AM_0
 10
570.56994242413202
 20
318.24814437604289
 30
0.0
 40
5.0
 50
90.0
 51
180.0
1001
GENIUS_GENOBJ-N-CEN_13
1002
{
1000
OWNER
1000
GEN
1002
}
1001
GENIUS_GENODEF_13
1002
{
1000
HIER
1070
     0
1002
}
1002
{
1000
MANEDIT
1070
     0
1002
}
1002
{
1000
NOSEL
1070
     0
1002
}
1002
{
1000
BEHIND
1070
     0
1002
}
1002
{
1000
REACTOR
1002
}
1001
GENIUS_GENOBJ-N-FIL_13
1002
{
1000
OWNER
1000
GEN
1002
}
  0
LINE
  5
CB38
  8
AM_0
 10
577.61640829052874
 20
332.58209965321311
 30
0.0
 11
577.94204910581175
 21
323.25696678750398
 31
0.0
  0
LINE
  5
CB39
  8
AM_0
 10
575.54584260142292
 20
332.558015748873
 30
0.0
 11
575.22073472921466
 21
323.248144376043
 31
0.0
  0
ARC
  5
CB3A
  8
AM_0
 10
578.12969720972012
 20
325.248144376043
 30
0.0
 40
2.0
 50
270.0
 51
304.86383795430532
1001
GENIUS_GENOBJ-N-FIL_13
1002
{
1000
OWNER
1000
GEN
1002
}
1001
GENIUS_GENODEF_13
1002
{
1000
HIER
1070
     0
1002
}
1002
{
1000
MANEDIT
1070
     0
1002
}
1002
{
1000
NOSEL
1070
     0
1002
}
1002
{
1000
BEHIND
1070
     0
1002
}
1002
{
1000
OTHER
1070
     0
1002
}
1002
{
1000
REACTOR
1002
}
  0
ARC
  5
CB3B
  8
AM_0
 10
611.56994242413202
 20
228.24814437604289
 30
0.0
 40
111.0
 50
108.5271423144752
 51
108.56658080189619
  0
LINE
  5
CB3C
  8
AM_0
 10
595.54069506806547
 20
337.2514035590151
 30
0.0
 11
595.33515266421841
 21
331.36543922206602
 31
0.0
  0
LINE
  5
CB3D
  8
AM_0
 10
597.60838447803849
 20
337.26088571138882
 30
0.0
 11
597.79062756390465
 21
332.04212654546291
 31
0.0
  0
LINE
  5
CB3E
  8
AM_0
 10
587.61212834717605
 20
335.41444880790448
 30
0.0
 11
587.85257008044755
 21
328.52909843416319
 31
0.0
  0
LINE
  5
CB3F
  8
AM_0
 10
585.54333169817266
 20
335.39811407358172
 30
0.0
 11
585.25871782010722
 21
327.24783897347589
 31
0.0
  0
ARC
  5
CB40
  8
AM_0
 10
596.60899365101932
 20
337.2259862146858
 30
0.0
 40
1.0
 50
1.9999999999972149
 51
97.816947831694506
1001
GENIUS_GENODEF_13
1002
{
1000
HIER
1070
     0
1002
}
1002
{
1000
MANEDIT
1070
     0
1002
}
1002
{
1000
NOSEL
1070
     0
1002
}
1002
{
1000
BEHIND
1070
     0
1002
}
1002
{
1000
REACTOR
1002
}
1001
GENIUS_GENOBJ-N-FIL_13
1002
{
1000
OWNER
1000
GEN
1002
}
  0
ARC
  5
CB41
  8
AM_0
 10
611.56994242413202
 20
228.24814437604289
 30
0.0
 40
111.0
 50
103.11367014329871
 51
103.1511182606551
  0
ARC
  5
CB42
  8
AM_0
 10
586.54272252519161
 20
335.36321457687922
 30
0.0
 40
1.0
 50
103.1511182606551
 51
178.00000000000259
1001
GENIUS_GENODEF_13
1002
{
1000
HIER
1070
     0
1002
}
1002
{
1000
MANEDIT
1070
     0
1002
}
1002
{
1000
NOSEL
1070
     0
1002
}
1002
{
1000
BEHIND
1070
     0
1002
}
1002
{
1000
REACTOR
1002
}
1001
GENIUS_GENOBJ-N-FIL_13
1002
{
1000
OWNER
1000
GEN
1002
}
  0
ARC
  5
CB43
  8
AM_0
 10
586.61273752015722
 20
335.37954931120169
 30
0.0
 40
1.0
 50
2.000000000003725
 51
103.11367014329871
1001
GENIUS_GENODEF_13
1002
{
1000
HIER
1070
     0
1002
}
1002
{
1000
MANEDIT
1070
     0
1002
}
1002
{
1000
NOSEL
1070
     0
1002
}
1002
{
1000
BEHIND
1070
     0
1002
}
1002
{
1000
REACTOR
1002
}
1001
GENIUS_GENOBJ-N-FIL_13
1002
{
1000
OWNER
1000
GEN
1002
}
  0
ARC
  5
CB44
  8
AM_0
 10
596.54008589508476
 20
337.21650406231259
 30
0.0
 40
1.0
 50
97.853178088806075
 51
178.00000000000259
1001
GENIUS_GENODEF_13
1002
{
1000
HIER
1070
     0
1002
}
1002
{
1000
MANEDIT
1070
     0
1002
}
1002
{
1000
NOSEL
1070
     0
1002
}
1002
{
1000
BEHIND
1070
     0
1002
}
1002
{
1000
REACTOR
1002
}
1001
GENIUS_GENOBJ-N-FIL_13
1002
{
1000
OWNER
1000
GEN
1002
}
  0
ARC
  5
CB45
  8
AM_0
 10
611.56994242413202
 20
228.24814437604289
 30
0.0
 40
111.0
 50
97.816947831694506
 51
97.853178088806075
  0
LINE
  5
CB46
  8
AM_0
 10
607.6050406333876
 20
338.17096768061992
 30
0.0
 11
607.76397059474846
 21
333.61980905284588
 31
0.0
  0
LINE
  5
CB47
  8
AM_0
 10
605.5378849452336
 20
338.16785750215939
 30
0.0
 11
605.3716364713855
 21
333.40712409715383
 31
0.0
  0
ARC
  5
CB48
  8
AM_0
 10
606.60564980636843
 20
338.1360681839173
 30
0.0
 40
1.0
 50
2.000000000003725
 51
92.586633228773294
1001
GENIUS_GENODEF_13
1002
{
1000
HIER
1070
     0
1002
}
1002
{
1000
MANEDIT
1070
     0
1002
}
1002
{
1000
NOSEL
1070
     0
1002
}
1002
{
1000
BEHIND
1070
     0
1002
}
1002
{
1000
REACTOR
1002
}
1001
GENIUS_GENOBJ-N-FIL_13
1002
{
1000
OWNER
1000
GEN
1002
}
  0
ARC
  5
CB49
  8
AM_0
 10
606.53727577225254
 20
338.13295800545683
 30
0.0
 40
1.0
 50
92.622284087952863
 51
177.9999999999994
1001
GENIUS_GENODEF_13
1002
{
1000
HIER
1070
     0
1002
}
1002
{
1000
MANEDIT
1070
     0
1002
}
1002
{
1000
NOSEL
1070
     0
1002
}
1002
{
1000
BEHIND
1070
     0
1002
}
1002
{
1000
REACTOR
1002
}
1001
GENIUS_GENOBJ-N-FIL_13
1002
{
1000
OWNER
1000
GEN
1002
}
  0
LINE
  5
CB4A
  8
AM_0
 10
627.59918978019834
 20
337.2514035590151
 30
0.0
 11
627.80473218404563
 21
331.36543922206602
 31
0.0
  0
LINE
  5
CB4B
  8
AM_0
 10
625.53150037022544
 20
337.26088571138882
 30
0.0
 11
625.34925728435917
 21
332.04212654546291
 31
0.0
  0
LINE
  5
CB4C
  8
AM_0
 10
615.53484421487644
 20
338.17096768061992
 30
0.0
 11
615.37591425351548
 21
333.61980905284588
 31
0.0
  0
LINE
  5
CB4D
  8
AM_0
 10
617.60199990303045
 20
338.16785750215939
 30
0.0
 11
617.76824837687855
 21
333.40712409715383
 31
0.0
  0
ARC
  5
CB4E
  8
AM_0
 10
616.5342350418955
 20
338.1360681839173
 30
0.0
 40
1.0
 50
87.413366771226691
 51
177.99999999999619
1001
GENIUS_GENODEF_13
1002
{
1000
HIER
1070
     0
1002
}
1002
{
1000
MANEDIT
1070
     0
1002
}
1002
{
1000
NOSEL
1070
     0
1002
}
1002
{
1000
BEHIND
1070
     0
1002
}
1002
{
1000
REACTOR
1002
}
1001
GENIUS_GENOBJ-N-FIL_13
1002
{
1000
OWNER
1000
GEN
1002
}
  0
ARC
  5
CB4F
  8
AM_0
 10
616.6026090760115
 20
338.13295800545683
 30
0.0
 40
1.0
 50
2.0000000000004698
 51
87.377715912047094
1001
GENIUS_GENODEF_13
1002
{
1000
HIER
1070
     0
1002
}
1002
{
1000
MANEDIT
1070
     0
1002
}
1002
{
1000
NOSEL
1070
     0
1002
}
1002
{
1000
BEHIND
1070
     0
1002
}
1002
{
1000
REACTOR
1002
}
1001
GENIUS_GENOBJ-N-FIL_13
1002
{
1000
OWNER
1000
GEN
1002
}
  0
ARC
  5
CB50
  8
AM_0
 10
626.59979895317917
 20
337.21650406231259
 30
0.0
 40
1.0
 50
1.9999999999972149
 51
82.146821911193925
1001
GENIUS_GENODEF_13
1002
{
1000
HIER
1070
     0
1002
}
1002
{
1000
MANEDIT
1070
     0
1002
}
1002
{
1000
NOSEL
1070
     0
1002
}
1002
{
1000
BEHIND
1070
     0
1002
}
1002
{
1000
REACTOR
1002
}
1001
GENIUS_GENOBJ-N-FIL_13
1002
{
1000
OWNER
1000
GEN
1002
}
  0
ARC
  5
CB51
  8
AM_0
 10
626.53089119724461
 20
337.2259862146858
 30
0.0
 40
1.0
 50
82.183052168305494
 51
178.00000000000259
1001
GENIUS_GENODEF_13
1002
{
1000
HIER
1070
     0
1002
}
1002
{
1000
MANEDIT
1070
     0
1002
}
1002
{
1000
NOSEL
1070
     0
1002
}
1002
{
1000
BEHIND
1070
     0
1002
}
1002
{
1000
REACTOR
1002
}
1001
GENIUS_GENOBJ-N-FIL_13
1002
{
1000
OWNER
1000
GEN
1002
}
  0
ARC
  5
CB52
  8
AM_0
 10
611.56994242413202
 20
228.24814437604289
 30
0.0
 40
111.0
 50
82.146821911193925
 51
82.183052168305494
  0
ARC
  5
CB53
  8
AM_0
 10
646.52286738475425
 20
332.54720015651031
 30
0.0
 40
1.0
 50
71.472857685524801
 51
177.9999999999994
1001
GENIUS_GENODEF_13
1002
{
1000
HIER
1070
     0
1002
}
1002
{
1000
MANEDIT
1070
     0
1002
}
1002
{
1000
NOSEL
1070
     0
1002
}
1002
{
1000
BEHIND
1070
     0
1002
}
1002
{
1000
REACTOR
1002
}
1001
GENIUS_GENOBJ-N-FIL_13
1002
{
1000
OWNER
1000
GEN
1002
}
  0
ARC
  5
CB54
  8
AM_0
 10
646.59465141982162
 20
332.52311625217038
 30
0.0
 40
1.0
 50
2.0000000000069802
 51
71.433419198096814
1001
GENIUS_GENODEF_13
1002
{
1000
HIER
1070
     0
1002
}
1002
{
1000
MANEDIT
1070
     0
1002
}
1002
{
1000
NOSEL
1070
     0
1002
}
1002
{
1000
BEHIND
1070
     0
1002
}
1002
{
1000
REACTOR
1002
}
1001
GENIUS_GENOBJ-N-FIL_13
1002
{
1000
OWNER
1000
GEN
1002
}
  0
LINE
  5
CB55
  8
AM_0
 10
637.59655315009115
 20
335.39811407358172
 30
0.0
 11
637.8811670281566
 21
327.24783897347589
 31
0.0
  0
LINE
  5
CB56
  8
AM_0
 10
635.52775650108788
 20
335.41444880790448
 30
0.0
 11
635.2873147678165
 21
328.52909843416319
 31
0.0
  0
LINE
  5
CB57
  8
AM_0
 10
645.01018763854381
 20
323.248144376043
 30
0.0
 11
652.56994242413202
 21
323.248144376043
 31
0.0
  0
LINE
  5
CB58
  8
AM_0
 10
656.56994376523653
 20
320.39902506366951
 30
0.0
 11
636.56994337780645
 21
320.74814616418229
 31
0.0
  0
LINE
  5
CB59
  8
AM_0
 10
645.52347655773508
 20
332.58209965321311
 30
0.0
 11
645.19783574245173
 21
323.25696678750398
 31
0.0
  0
ARC
  5
CB5A
  8
AM_0
 10
645.01018763854381
 20
325.248144376043
 30
0.0
 40
2.0
 50
235.1361620456947
 51
270.0
1001
GENIUS_GENODEF_13
1002
{
1000
HIER
1070
     0
1002
}
1002
{
1000
MANEDIT
1070
     0
1002
}
1002
{
1000
NOSEL
1070
     0
1002
}
1002
{
1000
BEHIND
1070
     0
1002
}
1002
{
1000
OTHER
1070
     0
1002
}
1002
{
1000
REACTOR
1002
}
1001
GENIUS_GENOBJ-N-FIL_13
1002
{
1000
OWNER
1000
GEN
1002
}
  0
LINE
  5
CB5B
  8
AM_0
 10
647.59404224684113
 20
332.558015748873
 30
0.0
 11
647.9191501190495
 21
323.248144376043
 31
0.0
  0
ARC
  5
CB5C
  8
AM_0
 10
611.56994242413202
 20
228.24814437604289
 30
0.0
 40
111.0
 50
76.848881739344861
 51
76.886329856701266
  0
ARC
  5
CB5D
  8
AM_0
 10
636.59716232307233
 20
335.36321457687922
 30
0.0
 40
1.0
 50
1.9999999999972149
 51
76.848881739344861
1001
GENIUS_GENODEF_13
1002
{
1000
HIER
1070
     0
1002
}
1002
{
1000
MANEDIT
1070
     0
1002
}
1002
{
1000
NOSEL
1070
     0
1002
}
1002
{
1000
BEHIND
1070
     0
1002
}
1002
{
1000
REACTOR
1002
}
1001
GENIUS_GENOBJ-N-FIL_13
1002
{
1000
OWNER
1000
GEN
1002
}
  0
ARC
  5
CB5E
  8
AM_0
 10
636.52714732810682
 20
335.37954931120169
 30
0.0
 40
1.0
 50
76.886329856701266
 51
177.99999999999619
1001
GENIUS_GENODEF_13
1002
{
1000
HIER
1070
     0
1002
}
1002
{
1000
MANEDIT
1070
     0
1002
}
1002
{
1000
NOSEL
1070
     0
1002
}
1002
{
1000
BEHIND
1070
     0
1002
}
1002
{
1000
REACTOR
1002
}
1001
GENIUS_GENOBJ-N-FIL_13
1002
{
1000
OWNER
1000
GEN
1002
}
  0
ARC
  5
CB5F
  8
AM_0
 10
611.56994242413202
 20
228.24814437604289
 30
0.0
 40
111.0
 50
71.433419198103763
 51
71.472857685524801
  0
LINE
  5
CB7A
  8
AM_0
 10
554.06994242413202
 20
242.74814437604289
 30
0.0
 11
554.56994242413202
 21
242.248144376043
 31
0.0
1001
GENIUS_GENFIL_13
1070
     0
1040
0.5
1040
0.5
1040
20.0
1040
0.0
1002
{
1002
}
1001
GENIUS_GENODEF_13
1002
{
1000
HIER
1070
     0
1002
}
1002
{
1000
MANEDIT
1070
     0
1002
}
1002
{
1000
NOSEL
1070
     0
1002
}
1002
{
1000
BEHIND
1070
     0
1002
}
1002
{
1000
OTHER
1070
     0
1002
}
1002
{
1000
REACTOR
1002
}
1001
GENIUS_GENOBJ-N-CHA_13
1002
{
1000
OWNER
1000
GEN
1002
}
  0
LINE
  5
CB7B
  8
AM_0
 10
669.06994242413202
 20
278.74814437604289
 30
0.0
 11
668.56994242413202
 21
279.24814437604289
 31
0.0
1001
GENIUS_GENFIL_13
1070
     0
1040
0.5
1040
0.5
1040
20.0
1040
0.0
1002
{
1002
}
1001
GENIUS_GENODEF_13
1002
{
1000
HIER
1070
     0
1002
}
1002
{
1000
MANEDIT
1070
     0
1002
}
1002
{
1000
NOSEL
1070
     0
1002
}
1002
{
1000
BEHIND
1070
     0
1002
}
1002
{
1000
OTHER
1070
     0
1002
}
1002
{
1000
REACTOR
1002
}
1001
GENIUS_GENOBJ-N-CHA_13
1002
{
1000
OWNER
1000
GEN
1002
}
  0
LINE
  5
CB7C
  8
AM_0
 10
554.06994242413202
 20
278.74814437604289
 30
0.0
 11
554.56994242413202
 21
279.24814437604289
 31
0.0
1001
GENIUS_GENFIL_13
1070
     0
1040
0.5
1040
0.5
1040
20.0
1040
0.0
1002
{
1002
}
1001
GENIUS_GENOBJ-N-CHA_13
1002
{
1000
OWNER
1000
GEN
1002
}
1001
GENIUS_GENODEF_13
1002
{
1000
HIER
1070
     0
1002
}
1002
{
1000
MANEDIT
1070
     0
1002
}
1002
{
1000
NOSEL
1070
     0
1002
}
1002
{
1000
BEHIND
1070
     0
1002
}
1002
{
1000
OTHER
1070
     0
1002
}
1002
{
1000
REACTOR
1002
}
  0
LINE
  5
CB7D
  8
AM_0
 10
555.56994242413202
 20
297.24814437604311
 30
0.0
 11
561.56994242413202
 21
297.24814437604289
 31
0.0
  0
LINE
  5
CB7E
  8
AM_0
 10
561.56994242413202
 20
224.24814437604289
 30
0.0
 11
561.56994242413202
 21
297.24814437604289
 31
0.0
  0
LINE
  5
CB7F
  8
AM_0
 10
554.56994242413202
 20
225.24814437604309
 30
0.0
 11
554.56994242413202
 21
296.24814437604311
 31
0.0
  0
LINE
  5
CB80
  8
AM_0
 10
555.56994242413202
 20
297.24814437604311
 30
0.0
 11
554.56994242413202
 21
296.24814437604311
 31
0.0
1001
GENIUS_GENFIL_13
1070
     0
1040
1.0
1040
1.0
1040
20.0
1040
0.0
1002
{
1002
}
1001
GENIUS_GENODEF_13
1002
{
1000
HIER
1070
     0
1002
}
1002
{
1000
MANEDIT
1070
     0
1002
}
1002
{
1000
NOSEL
1070
     0
1002
}
1002
{
1000
BEHIND
1070
     0
1002
}
1002
{
1000
OTHER
1070
     0
1002
}
1002
{
1000
REACTOR
1002
}
1001
GENIUS_GENOBJ-N-CHA_13
1002
{
1000
OWNER
1000
GEN
1002
}
  0
LINE
  5
CB81
  8
AM_0
 10
554.06994242413202
 20
242.74814437604289
 30
0.0
 11
554.06994242413202
 21
278.74814437604289
 31
0.0
  0
LINE
  5
CB82
  8
AM_0
 10
555.56994242413202
 20
224.24814437604309
 30
0.0
 11
561.56994242413202
 21
224.24814437604289
 31
0.0
  0
LINE
  5
CB83
  8
AM_0
 10
554.56994242413202
 20
225.24814437604309
 30
0.0
 11
555.56994242413202
 21
224.24814437604309
 31
0.0
1001
GENIUS_GENFIL_13
1070
     0
1040
1.0
1040
1.0
1040
20.0
1040
0.0
1002
{
1002
}
1001
GENIUS_GENOBJ-N-CHA_13
1002
{
1000
OWNER
1000
GEN
1002
}
1001
GENIUS_GENODEF_13
1002
{
1000
HIER
1070
     0
1002
}
1002
{
1000
MANEDIT
1070
     0
1002
}
1002
{
1000
NOSEL
1070
     0
1002
}
1002
{
1000
BEHIND
1070
     0
1002
}
1002
{
1000
OTHER
1070
     0
1002
}
1002
{
1000
REACTOR
1002
}
  0
LINE
  5
CB84
  8
AM_0
 10
667.56994242413202
 20
297.24814437604289
 30
0.0
 11
661.56994242413202
 21
297.24814437604289
 31
0.0
  0
LINE
  5
CB85
  8
AM_0
 10
661.56994242413202
 20
224.24814437604289
 30
0.0
 11
661.56994242413202
 21
297.24814437604289
 31
0.0
  0
LINE
  5
CB86
  8
AM_0
 10
668.56994242413134
 20
225.248144376043
 30
0.0
 11
668.56994242413202
 21
296.248144376043
 31
0.0
  0
LINE
  5
CB87
  8
AM_0
 10
667.56994242413202
 20
297.24814437604289
 30
0.0
 11
668.56994242413202
 21
296.248144376043
 31
0.0
1001
GENIUS_GENFIL_13
1070
     0
1040
1.0
1040
1.0
1040
20.0
1040
0.0
1002
{
1002
}
1001
GENIUS_GENOBJ-N-CHA_13
1002
{
1000
OWNER
1000
GEN
1002
}
1001
GENIUS_GENODEF_13
1002
{
1000
HIER
1070
     0
1002
}
1002
{
1000
MANEDIT
1070
     0
1002
}
1002
{
1000
NOSEL
1070
     0
1002
}
1002
{
1000
BEHIND
1070
     0
1002
}
1002
{
1000
OTHER
1070
     0
1002
}
1002
{
1000
REACTOR
1002
}
  0
LINE
  5
CB88
  8
AM_0
 10
669.06994242413202
 20
242.74814437604289
 30
0.0
 11
669.06994242413202
 21
278.74814437604289
 31
0.0
  0
LINE
  5
CB89
  8
AM_0
 10
668.56994242413202
 20
242.248144376043
 30
0.0
 11
669.06994242413202
 21
242.74814437604289
 31
0.0
1001
GENIUS_GENFIL_13
1070
     0
1040
0.5
1040
0.5
1040
20.0
1040
0.0
1002
{
1002
}
1001
GENIUS_GENOBJ-N-CHA_13
1002
{
1000
OWNER
1000
GEN
1002
}
1001
GENIUS_GENODEF_13
1002
{
1000
HIER
1070
     0
1002
}
1002
{
1000
MANEDIT
1070
     0
1002
}
1002
{
1000
NOSEL
1070
     0
1002
}
1002
{
1000
BEHIND
1070
     0
1002
}
1002
{
1000
OTHER
1070
     0
1002
}
1002
{
1000
REACTOR
1002
}
  0
LINE
  5
CB8A
  8
AM_0
 10
667.56994242413134
 20
224.24814437604289
 30
0.0
 11
661.56994242413202
 21
224.24814437604289
 31
0.0
  0
LINE
  5
CB8B
  8
AM_0
 10
668.56994242413134
 20
225.248144376043
 30
0.0
 11
667.56994242413134
 21
224.24814437604289
 31
0.0
1001
GENIUS_GENFIL_13
1070
     0
1040
1.0
1040
1.0
1040
20.0
1040
0.0
1002
{
1002
}
1001
GENIUS_GENOBJ-N-CHA_13
1002
{
1000
OWNER
1000
GEN
1002
}
1001
GENIUS_GENODEF_13
1002
{
1000
HIER
1070
     0
1002
}
1002
{
1000
MANEDIT
1070
     0
1002
}
1002
{
1000
NOSEL
1070
     0
1002
}
1002
{
1000
BEHIND
1070
     0
1002
}
1002
{
1000
OTHER
1070
     0
1002
}
1002
{
1000
REACTOR
1002
}
  0
LINE
  5
D136
  8
AM_0
 10
231.3282495398141
 20
211.24814486778141
 30
0.0
 11
231.5827988138368
 21
220.9681148677812
 31
0.0
  0
LINE
  5
D137
  8
AM_0
 10
171.2758175445735
 20
211.24814486778141
 30
0.0
 11
171.02133550343481
 21
220.9681148677812
 31
0.0
  0
LINE
  5
D138
  8
AM_0
 10
167.8020596907736
 20
209.24814486778141
 30
0.0
 11
234.8020596907736
 21
209.24814486778141
 31
0.0
  0
LINE
  5
D139
  8
AM_0
 10
167.8020596907736
 20
208.24814486778141
 30
0.0
 11
167.8020596907736
 21
209.24814486778141
 31
0.0
  0
LINE
  5
D13A
  8
AM_0
 10
234.8020596907736
 20
208.24814486778141
 30
0.0
 11
234.8020596907736
 21
209.24814486778141
 31
0.0
  0
LINE
  5
D13B
  8
AM_0
 10
153.3020596907736
 20
170.24814486778121
 30
0.0
 11
154.56164482703591
 21
206.31794386118631
 31
0.0
  0
LINE
  5
D13C
  8
AM_0
 10
156.5604264810741
 20
208.24814486778141
 30
0.0
 11
246.04369290047319
 21
208.24814486778141
 31
0.0
  0
ARC
  5
D13D
  8
AM_0
 10
156.56042648107419
 20
206.24814486778141
 30
0.0
 40
2.0
 50
90.0
 51
178.00000000000281
1001
GENIUS_GENODEF_13
1002
{
1000
HIER
1070
     0
1002
}
1002
{
1000
MANEDIT
1070
     0
1002
}
1002
{
1000
NOSEL
1070
     0
1002
}
1002
{
1000
BEHIND
1070
     0
1002
}
1002
{
1000
OTHER
1070
     0
1002
}
1002
{
1000
REACTOR
1002
}
1001
GENIUS_GENOBJ-N-FIL_13
1002
{
1000
OWNER
1000
GEN
1002
}
  0
LINE
  5
D13E
  8
AM_0
 10
248.04247455451139
 20
206.31794386118631
 30
0.0
 11
249.30205969077369
 21
170.24814486778121
 31
0.0
  0
ARC
  5
D13F
  8
AM_0
 10
246.04369290047319
 20
206.24814486778141
 30
0.0
 40
2.0
 50
1.9999999999971581
 51
90.0
1001
GENIUS_GENOBJ-N-FIL_13
1002
{
1000
OWNER
1000
GEN
1002
}
1001
GENIUS_GENODEF_13
1002
{
1000
HIER
1070
     0
1002
}
1002
{
1000
MANEDIT
1070
     0
1002
}
1002
{
1000
NOSEL
1070
     0
1002
}
1002
{
1000
BEHIND
1070
     0
1002
}
1002
{
1000
OTHER
1070
     0
1002
}
1002
{
1000
REACTOR
1002
}
  0
LINE
  5
D140
  8
AM_0
 10
249.30205969077369
 20
170.24814486778121
 30
0.0
 11
153.30205969077329
 21
170.24814486778121
 31
0.0
  0
LINE
  5
D141
  8
AM_0
 10
153.40682199924879
 20
173.24814486778109
 30
0.0
 11
152.3020596907736
 21
173.24814486778109
 31
0.0
  0
LINE
  5
D142
  8
AM_0
 10
154.5242866229847
 20
205.24814486778121
 30
0.0
 11
152.3020596907734
 21
205.24814486778121
 31
0.0
  0
LINE
  5
D143
  8
ﾁｭｳｼﾝｾﾝ1
 10
158.30205969077431
 20
159.98343736778131
 30
0.0
 11
158.30205969077431
 21
172.98343736778131
 31
0.0
  0
LINE
  5
D144
  8
ﾁｭｳｼﾝｾﾝ
 10
201.3020596907736
 20
215.54017554101031
 30
0.0
 11
201.3020596907736
 21
157.79762222697201
 31
0.0
  0
LINE
  5
D145
  8
AM_0
 10
149.8020596907736
 20
175.74814486778109
 30
0.0
 11
152.3020596907734
 21
175.74814486778081
 31
0.0
  0
LINE
  5
D146
  8
AM_0
 10
152.3020596907734
 20
202.74814486778081
 30
0.0
 11
149.8020596907736
 21
202.74814486778121
 31
0.0
  0
LINE
  5
D147
  8
AM_0
 10
138.90338859442761
 20
199.74814486778109
 30
0.0
 11
138.90338859442761
 21
178.74814486778109
 31
0.0
  0
LINE
  5
D148
  8
AM_0
 10
123.9033885944275
 20
181.2165198137659
 30
0.0
 11
123.9033885944275
 21
197.279769921797
 31
0.0
  0
LINE
  5
D149
  8
AM_0
 10
136.90338859442761
 20
201.24814486778109
 30
0.0
 11
136.90338859442761
 21
177.24814486778109
 31
0.0
  0
LINE
  5
D14A
  8
AM_0
 10
127.4033885944276
 20
189.24814486778109
 30
0.0
 11
127.9033885944276
 21
189.74814486778109
 31
0.0
  0
LINE
  5
D14B
  8
AM_0
 10
134.4033885944275
 20
177.5481448677811
 30
0.0
 11
134.4033885944275
 21
200.948144867781
 31
0.0
  0
LINE
  5
D14C
  8
AM_0
 10
144.3020596907736
 20
177.74814486778109
 30
0.0
 11
144.3020596907736
 21
200.74814486778121
 31
0.0
  0
LINE
  5
D14D
  8
AM_0
 10
138.40338859442761
 20
189.94814486778299
 30
0.0
 11
138.40338859442761
 21
188.54814486778
 31
0.0
  0
LINE
  5
D14E
  8
AM_0
 10
140.50302432099849
 20
198.348144867781
 30
0.0
 11
139.75302432099949
 21
180.14814486778101
 31
0.0
  0
LINE
  5
D14F
  8
AM_0
 10
139.5520596907736
 20
198.348144867781
 30
0.0
 11
138.90338859442761
 21
182.60705959646501
 31
0.0
  0
LINE
  5
D150
  8
AM_0
 10
140.30075228134561
 20
199.06380358014511
 30
0.0
 11
139.5534922379376
 21
179.43577310661399
 31
0.0
  0
LINE
  5
D151
  8
AM_0
 10
139.7515917738356
 20
199.0605166289491
 30
0.0
 11
139.00302432099949
 21
179.39814486778101
 31
0.0
  0
LINE
  5
D152
  8
AM_0
 10
136.90338859442761
 20
177.24814486778109
 30
0.0
 11
134.70338859442751
 21
177.24814486778109
 31
0.0
  0
ARC
  5
D153
  8
AM_0
 10
148.8020596907736
 20
176.74814486778109
 30
0.0
 40
0.5
 50
0.0
 51
90.000000000013003
  0
ARC
  5
D154
  8
AM_0
 10
149.8020596907736
 20
176.24814486778109
 30
0.0
 40
0.5
 50
180.0
 51
270.0
  0
LINE
  5
D155
  8
AM_0
 10
149.3020596907736
 20
176.74814486778109
 30
0.0
 11
149.3020596907736
 21
176.24814486778109
 31
0.0
  0
LINE
  5
D156
  8
AM_0
 10
140.3020596907736
 20
180.14814486778101
 30
0.0
 11
143.8020596907736
 21
180.14814486778101
 31
0.0
  0
LINE
  5
D157
  8
AM_0
 10
149.3020596907736
 20
178.39207354637421
 30
0.0
 11
149.3020596907736
 21
188.104216189189
 31
0.0
  0
LINE
  5
D158
  8
AM_0
 10
144.8020596907736
 20
177.24814486778109
 30
0.0
 11
148.8020596907734
 21
177.24814486778109
 31
0.0
  0
LINE
  5
D159
  8
AM_0
 10
148.8020596907736
 20
177.89207354637421
 30
0.0
 11
144.3020596907736
 21
177.89207354637421
 31
0.0
  0
ARC
  5
D15A
  8
AM_0
 10
148.8020596907736
 20
178.39207354637421
 30
0.0
 40
0.5
 50
270.0
 51
0.0
  0
ARC
  5
D15B
  8
AM_0
 10
143.8020596907734
 20
179.64814486778121
 30
0.0
 40
0.5
 50
0.0
 51
90.0
  0
ARC
  5
D15C
  8
AM_0
 10
144.8020596907734
 20
177.74814486778109
 30
0.0
 40
0.5
 50
180.0
 51
270.0
  0
LINE
  5
D15D
  8
AM_0
 10
148.8020596907736
 20
188.604216189189
 30
0.0
 11
144.3020596907736
 21
188.604216189189
 31
0.0
  0
ARC
  5
D15E
  8
AM_0
 10
148.8020596907734
 20
188.10421618918909
 30
0.0
 40
0.5
 50
0.0
 51
90.0
  0
LINE
  5
D15F
  8
AM_0
 10
138.40338859442761
 20
183.10297411548891
 30
0.0
 11
138.40338859442761
 21
184.27521730192191
 31
0.0
  0
LINE
  5
D160
  8
AM_0
 10
139.82975674942449
 20
180.14814486778101
 30
0.0
 11
140.3020596907736
 21
180.14814486778101
 31
0.0
  0
LINE
  5
D161
  8
AM_0
 10
139.73316425488531
 20
180.07402710104421
 30
0.0
 11
139.75302432099949
 21
180.14814486778101
 31
0.0
  0
ARC
  5
D162
  8
AM_0
 10
139.82975674942449
 20
180.0481448677811
 30
0.0
 40
0.1000000000000346
 50
90.0
 51
164.99980499355539
  0
ARC
  5
D163
  8
AM_0
 10
138.1033885944276
 20
179.9613118872731
 30
0.0
 40
0.3000000000000043
 50
0.0
 51
90.0
  0
LINE
  5
D164
  8
AM_0
 10
136.90338859442761
 20
177.848144867781
 30
0.0
 11
138.12334429758471
 21
177.92947524799209
 31
0.0
  0
LINE
  5
D165
  8
AM_0
 10
136.90338859442761
 20
179.004396903621
 30
0.0
 11
138.10338859442751
 21
179.004396903621
 31
0.0
  0
LINE
  5
D166
  8
AM_0
 10
138.40338859442761
 20
178.24814486778109
 30
0.0
 11
136.90338859442761
 21
178.24814486778109
 31
0.0
  0
ARC
  5
D167
  8
AM_0
 10
138.40338859442761
 20
178.74814486778109
 30
0.0
 40
0.5
 50
270.0
 51
0.0
  0
LINE
  5
D168
  8
AM_0
 10
138.40338859442761
 20
178.22881079534909
 30
0.0
 11
138.40338859442761
 21
178.24814486778109
 31
0.0
  0
LINE
  5
D169
  8
AM_0
 10
138.40338859442761
 20
177.9481448677812
 30
0.0
 11
138.40338859442761
 21
178.22881079534909
 31
0.0
  0
LINE
  5
D16A
  8
AM_0
 10
138.12334429758471
 20
177.92947524799209
 30
0.0
 11
138.40338859442761
 21
177.9481448677812
 31
0.0
  0
ARC
  5
D16B
  8
AM_0
 10
138.1033885944276
 20
178.22881079534909
 30
0.0
 40
0.3000000000000007
 50
273.81407483428148
 51
0.0
  0
LINE
  5
D16C
  8
AM_0
 10
139.47532726234849
 20
179.39814486778101
 30
0.0
 11
139.55205969077451
 21
179.39814486778101
 31
0.0
  0
LINE
  5
D16D
  8
AM_0
 10
139.55205969077451
 20
179.39814486778101
 30
0.0
 11
139.57191975688761
 21
179.47226263451739
 31
0.0
  0
LINE
  5
D16E
  8
AM_0
 10
138.98316425488539
 20
179.47226263451739
 30
0.0
 11
139.00302432099949
 21
179.39814486778101
 31
0.0
  0
LINE
  5
D16F
  8
AM_0
 10
139.00302432099949
 20
179.39814486778101
 30
0.0
 11
139.07975674942449
 21
179.39814486778101
 31
0.0
  0
LINE
  5
D170
  8
AM_0
 10
139.57191975688761
 20
179.47226263451739
 30
0.0
 11
139.73316425488531
 21
180.07402710104421
 31
0.0
  0
LINE
  5
D171
  8
AM_0
 10
139.07975674942449
 20
179.39814486778101
 30
0.0
 11
139.47532726234849
 21
179.39814486778101
 31
0.0
  0
LINE
  5
D172
  8
AM_0
 10
138.90338859442849
 20
179.769985399342
 30
0.0
 11
138.98316425488539
 21
179.47226263451739
 31
0.0
  0
ARC
  5
D173
  8
AM_0
 10
139.47532726234849
 20
179.49814486778109
 30
0.0
 40
0.0999999999999866
 50
270.0
 51
344.99980499343371
  0
ARC
  5
D174
  8
AM_0
 10
139.0797567494246
 20
179.49814486778109
 30
0.0
 40
0.1000000000000014
 50
195.00019500656629
 51
270.0
  0
LINE
  5
D175
  8
AM_0
 10
138.40338859442761
 20
179.30439690362101
 30
0.0
 11
138.40338859442761
 21
179.9613118872731
 31
0.0
  0
ARC
  5
D176
  8
AM_0
 10
138.1033885944276
 20
179.30439690362121
 30
0.0
 40
0.3000000000000007
 50
270.0
 51
0.0
  0
LINE
  5
D177
  8
AM_0
 10
136.90338859442761
 20
182.80297411548901
 30
0.0
 11
138.10338859442751
 21
182.80297411548901
 31
0.0
  0
LINE
  5
D178
  8
AM_0
 10
138.10338859442751
 20
180.261311887273
 30
0.0
 11
136.90338859442761
 21
180.261311887273
 31
0.0
  0
LINE
  5
D179
  8
AM_0
 10
139.75302432099949
 20
180.14814486778101
 30
0.0
 11
139.82975674942449
 21
180.14814486778101
 31
0.0
  0
ARC
  5
D17A
  8
AM_0
 10
138.1033885944276
 20
183.10297411548919
 30
0.0
 40
0.3000000000000007
 50
270.0
 51
0.0
  0
LINE
  5
D17B
  8
AM_0
 10
138.10338859442751
 20
184.57521730192209
 30
0.0
 11
136.90338859442761
 21
184.57521730192209
 31
0.0
  0
ARC
  5
D17C
  8
AM_0
 10
138.1033885944276
 20
184.2752173019222
 30
0.0
 40
0.3000000000000043
 50
0.0
 51
90.0
  0
LINE
  5
D17D
  8
AM_0
 10
138.10338859442751
 20
188.24814486778001
 30
0.0
 11
136.90338859442761
 21
188.24814486778001
 31
0.0
  0
ARC
  5
D17E
  8
AM_0
 10
138.1033885944276
 20
188.54814486778011
 30
0.0
 40
0.3000000000000007
 50
270.0
 51
0.0
  0
LINE
  5
D17F
  8
AM_0
 10
127.9033885944276
 20
179.114865039134
 30
0.0
 11
134.4033885944275
 21
179.114865039134
 31
0.0
  0
LINE
  5
D180
  8
AM_0
 10
127.9033885944276
 20
178.6148650391338
 30
0.0
 11
134.4033885944275
 21
178.6148650391338
 31
0.0
  0
LINE
  5
D181
  8
AM_0
 10
134.4033885944275
 20
188.74814486778109
 30
0.0
 11
127.9033885944276
 21
188.74814486778109
 31
0.0
  0
LINE
  5
D182
  8
AM_0
 10
127.4033885944276
 20
188.24814486778109
 30
0.0
 11
134.4033885944275
 21
188.24814486778109
 31
0.0
  0
LINE
  5
D183
  8
AM_0
 10
134.10338859442751
 20
178.24814486778109
 30
0.0
 11
127.2654385296096
 21
178.24814486778109
 31
0.0
  0
LINE
  5
D184
  8
AM_0
 10
134.4033885944275
 20
187.9014567992399
 30
0.0
 11
127.9033885944276
 21
187.9014567992399
 31
0.0
  0
LINE
  5
D185
  8
AM_0
 10
134.4033885944275
 20
179.59483293632209
 30
0.0
 11
127.9033885944276
 21
179.59483293632209
 31
0.0
  0
ARC
  5
D186
  8
AM_0
 10
134.70338859442759
 20
177.5481448677811
 30
0.0
 40
0.2999999999999971
 50
180.0
 51
270.0
  0
ARC
  5
D187
  8
AM_0
 10
134.1033885944276
 20
177.9481448677812
 30
0.0
 40
0.2999999999999971
 50
0.0
 51
90.0
  0
ARC
  5
D188
  8
AM_0
 10
136.02838859442761
 20
183.74814486778109
 30
0.0
 40
9.124999999999984
 50
152.92493329271841
 51
207.07506670728151
  0
LINE
  5
D189
  8
AM_0
 10
126.62525412994511
 20
178.47992358818351
 30
0.0
 11
124.26320419476301
 21
180.4482985341686
 31
0.0
  0
LINE
  5
D18A
  8
AM_0
 10
127.4033885944276
 20
178.8265774512891
 30
0.0
 11
127.9033885944276
 21
178.24814486778109
 31
0.0
  0
ARC
  5
D18B
  8
AM_0
 10
127.2654385296095
 20
179.24814486778109
 30
0.0
 40
1.0
 50
230.19442890774391
 51
270.0
  0
LINE
  5
D18C
  8
AM_0
 10
127.9033885944276
 20
178.6148650391338
 30
0.0
 11
127.4033885944276
 21
178.8265774512891
 31
0.0
  0
LINE
  5
D18D
  8
AM_0
 10
127.4033885944276
 20
179.2888527242601
 30
0.0
 11
127.9033885944276
 21
178.6148650391338
 31
0.0
  0
LINE
  5
D18E
  8
AM_0
 10
127.9033885944276
 20
179.114865039134
 30
0.0
 11
127.4033885944276
 21
179.2888527242601
 31
0.0
  0
LINE
  5
D18F
  8
AM_0
 10
127.4033885944276
 20
179.8265774512891
 30
0.0
 11
127.9033885944276
 21
179.114865039134
 31
0.0
  0
LINE
  5
D190
  8
AM_0
 10
127.9033885944276
 20
179.59483293632209
 30
0.0
 11
127.4033885944276
 21
179.8265774512891
 31
0.0
  0
ARC
  5
D191
  8
AM_0
 10
124.9033885944276
 20
181.21651981376621
 30
0.0
 40
1.0000000000000291
 50
180.0
 51
230.19442890773229
  0
LINE
  5
D192
  8
AM_0
 10
127.9033885944276
 20
188.74814486778109
 30
0.0
 11
127.4033885944276
 21
189.24814486778109
 31
0.0
  0
LINE
  5
D193
  8
AM_0
 10
127.4033885944276
 20
188.24814486778109
 30
0.0
 11
127.9033885944276
 21
188.74814486778109
 31
0.0
  0
LINE
  5
D194
  8
AM_0
 10
127.9033885944276
 20
187.9014567992399
 30
0.0
 11
127.4033885944276
 21
188.24814486778109
 31
0.0
  0
LINE
  5
D195
  8
AM_0
 10
134.70338859442751
 20
201.24814486778109
 30
0.0
 11
136.90338859442761
 21
201.24814486778109
 31
0.0
  0
ARC
  5
D196
  8
AM_0
 10
148.8020596907734
 20
201.74814486778109
 30
0.0
 40
0.5
 50
269.99999999998693
 51
0.0
  0
LINE
  5
D197
  8
AM_0
 10
143.8020596907736
 20
198.348144867781
 30
0.0
 11
140.57975674942449
 21
198.348144867781
 31
0.0
  0
LINE
  5
D198
  8
AM_0
 10
149.3020596907736
 20
190.39207354637421
 30
0.0
 11
149.3020596907736
 21
200.1042161891892
 31
0.0
  0
LINE
  5
D199
  8
AM_0
 10
144.3020596907736
 20
189.89207354637421
 30
0.0
 11
148.8020596907736
 21
189.89207354637421
 31
0.0
  0
ARC
  5
D19A
  8
AM_0
 10
148.8020596907734
 20
190.39207354637421
 30
0.0
 40
0.5
 50
270.0
 51
0.0
  0
LINE
  5
D19B
  8
AM_0
 10
144.3020596907736
 20
200.6042161891892
 30
0.0
 11
148.8020596907736
 21
200.6042161891892
 31
0.0
  0
LINE
  5
D19C
  8
AM_0
 10
148.8020596907734
 20
201.24814486778109
 30
0.0
 11
144.8020596907736
 21
201.24814486778109
 31
0.0
  0
ARC
  5
D19D
  8
AM_0
 10
148.8020596907734
 20
200.1042161891892
 30
0.0
 40
0.5
 50
0.0
 51
90.0
  0
ARC
  5
D19E
  8
AM_0
 10
143.8020596907734
 20
198.848144867781
 30
0.0
 40
0.5
 50
270.0
 51
0.0
  0
ARC
  5
D19F
  8
AM_0
 10
144.8020596907734
 20
200.74814486778121
 30
0.0
 40
0.5
 50
90.0
 51
180.0
  0
ARC
  5
D1A0
  8
AM_0
 10
138.1033885944276
 20
195.39331562007311
 30
0.0
 40
0.3000000000000114
 50
0.0
 51
90.0
  0
LINE
  5
D1A1
  8
AM_0
 10
136.90338859442761
 20
190.2481448677828
 30
0.0
 11
138.10338859442751
 21
190.2481448677828
 31
0.0
  0
ARC
  5
D1A2
  8
AM_0
 10
138.1033885944276
 20
189.94814486778321
 30
0.0
 40
0.2999999999999971
 50
0.0
 51
90.0
  0
LINE
  5
D1A3
  8
AM_0
 10
136.90338859442761
 20
193.92107243363981
 30
0.0
 11
138.10338859442751
 21
193.92107243363981
 31
0.0
  0
ARC
  5
D1A4
  8
AM_0
 10
138.1033885944276
 20
194.2210724336401
 30
0.0
 40
0.3000000000000007
 50
270.0
 51
0.0
  0
LINE
  5
D1A5
  8
AM_0
 10
138.40338859442761
 20
194.2210724336401
 30
0.0
 11
138.40338859442761
 21
195.39331562007311
 31
0.0
  0
LINE
  5
D1A6
  8
AM_0
 10
139.82975674942449
 20
199.098144867781
 30
0.0
 11
140.22532726234849
 21
199.098144867781
 31
0.0
  0
LINE
  5
D1A7
  8
AM_0
 10
139.82975674942449
 20
199.098144867781
 30
0.0
 11
140.22532726234849
 21
199.098144867781
 31
0.0
  0
LINE
  5
D1A8
  8
AM_0
 10
140.32191975688761
 20
199.0240271010444
 30
0.0
 11
140.48316425488539
 21
198.42226263451741
 31
0.0
  0
LINE
  5
D1A9
  8
AM_0
 10
140.32191975688761
 20
199.0240271010444
 30
0.0
 11
140.48316425488539
 21
198.42226263451741
 31
0.0
  0
ARC
  5
D1AA
  8
AM_0
 10
140.5797567494246
 20
198.4481448677812
 30
0.0
 40
0.0999999999999943
 50
195.00019500651879
 51
270.0
  0
ARC
  5
D1AB
  8
AM_0
 10
140.22532726234849
 20
198.99814486778109
 30
0.0
 40
0.0999999999999943
 50
15.000195006505431
 51
90.0
  0
LINE
  5
D1AC
  8
AM_0
 10
138.90254200588649
 20
198.72314486778129
 30
0.0
 11
138.98316425488539
 21
198.42226263451741
 31
0.0
  0
LINE
  5
D1AD
  8
AM_0
 10
139.55477034297951
 20
198.38740940087911
 30
0.0
 11
139.73316425488539
 21
199.0240271010444
 31
0.0
  0
LINE
  5
D1AE
  8
AM_0
 10
139.57191975688761
 20
198.42226263451741
 30
0.0
 11
139.73316425488539
 21
199.0240271010444
 31
0.0
  0
LINE
  5
D1AF
  8
AM_0
 10
138.40338859442761
 20
198.53497784829011
 30
0.0
 11
138.40338859442761
 21
199.191892831941
 31
0.0
  0
LINE
  5
D1B0
  8
AM_0
 10
138.90338859442761
 20
198.7199853993429
 30
0.0
 11
138.98316425488539
 21
198.42226263451741
 31
0.0
  0
LINE
  5
D1B1
  8
AM_0
 10
136.90338859442761
 20
198.2349778482901
 30
0.0
 11
138.10338859442751
 21
198.2349778482901
 31
0.0
  0
LINE
  5
D1B2
  8
AM_0
 10
138.10338859442751
 20
195.69331562007301
 30
0.0
 11
136.90338859442761
 21
195.69331562007389
 31
0.0
  0
LINE
  5
D1B3
  8
AM_0
 10
139.50795952786359
 20
198.348144867781
 30
0.0
 11
139.55477034297951
 21
198.38740940087911
 31
0.0
  0
LINE
  5
D1B4
  8
AM_0
 10
139.07975674942449
 20
198.348144867781
 30
0.0
 11
139.50795952786359
 21
198.348144867781
 31
0.0
  0
LINE
  5
D1B5
  8
AM_0
 10
139.07975674942449
 20
198.348144867781
 30
0.0
 11
139.47532726234849
 21
198.348144867781
 31
0.0
  0
ARC
  5
D1B6
  8
AM_0
 10
139.0797567494246
 20
198.4481448677812
 30
0.0
 40
0.0999999999999943
 50
195.00019500651879
 51
270.0
  0
ARC
  5
D1B7
  8
AM_0
 10
139.47532726234849
 20
198.4481448677812
 30
0.0
 40
0.0999999999999608
 50
270.0
 51
344.99980499348112
  0
ARC
  5
D1B8
  8
AM_0
 10
138.1033885944276
 20
198.53497784829011
 30
0.0
 40
0.3000000000000007
 50
270.0
 51
0.0
  0
LINE
  5
D1B9
  8
AM_0
 10
136.90338859442761
 20
200.24814486778121
 30
0.0
 11
138.40338859442761
 21
200.24814486778121
 31
0.0
  0
LINE
  5
D1BA
  8
AM_0
 10
138.10338859442751
 20
199.4918928319409
 30
0.0
 11
136.90338859442761
 21
199.4918928319409
 31
0.0
  0
LINE
  5
D1BB
  8
AM_0
 10
138.12334429758471
 20
200.56681448757109
 30
0.0
 11
136.90338859442761
 21
200.64814486778101
 31
0.0
  0
ARC
  5
D1BC
  8
AM_0
 10
138.40338859442761
 20
199.74814486778109
 30
0.0
 40
0.5
 50
0.0
 51
90.0
  0
ARC
  5
D1BD
  8
AM_0
 10
139.82975674942449
 20
198.99814486778109
 30
0.0
 40
0.0999999999999606
 50
90.0
 51
164.99980499349451
  0
ARC
  5
D1BE
  8
AM_0
 10
138.1033885944276
 20
199.191892831941
 30
0.0
 40
0.2999999999999971
 50
0.0
 51
90.0
  0
LINE
  5
D1BF
  8
AM_0
 10
138.40338859442761
 20
200.24814486778121
 30
0.0
 11
138.40338859442761
 21
200.26747894021409
 31
0.0
  0
ARC
  5
D1C0
  8
AM_0
 10
138.1033885944276
 20
200.26747894021409
 30
0.0
 40
0.3000000000000043
 50
0.0
 51
86.18592516571853
  0
ARC
  5
D1C1
  8
AM_0
 10
149.8020596907734
 20
202.24814486778109
 30
0.0
 40
0.5
 50
90.0
 51
180.0
  0
LINE
  5
D1C2
  8
AM_0
 10
149.3020596907736
 20
202.24814486778109
 30
0.0
 11
149.3020596907736
 21
201.74814486778109
 31
0.0
  0
LINE
  5
D1C3
  8
AM_0
 10
127.9033885944276
 20
198.9014567992399
 30
0.0
 11
134.4033885944275
 21
198.9014567992399
 31
0.0
  0
LINE
  5
D1C4
  8
AM_0
 10
127.9033885944276
 20
190.59483293632209
 30
0.0
 11
134.4033885944275
 21
190.59483293632209
 31
0.0
  0
LINE
  5
D1C5
  8
AM_0
 10
127.2654385296096
 20
200.24814486778121
 30
0.0
 11
134.10338859442751
 21
200.24814486778121
 31
0.0
  0
LINE
  5
D1C6
  8
AM_0
 10
134.4033885944275
 20
190.24814486778109
 30
0.0
 11
127.4033885944276
 21
190.24814486778109
 31
0.0
  0
LINE
  5
D1C7
  8
AM_0
 10
127.9033885944276
 20
189.74814486778109
 30
0.0
 11
134.4033885944275
 21
189.74814486778109
 31
0.0
  0
LINE
  5
D1C8
  8
AM_0
 10
134.4033885944275
 20
199.88142469642881
 30
0.0
 11
127.9033885944276
 21
199.88142469642881
 31
0.0
  0
LINE
  5
D1C9
  8
AM_0
 10
134.4033885944275
 20
199.38142469642889
 30
0.0
 11
127.9033885944276
 21
199.38142469642889
 31
0.0
  0
ARC
  5
D1CA
  8
AM_0
 10
134.1033885944276
 20
200.5481448677811
 30
0.0
 40
0.3000000000000043
 50
270.0
 51
0.0
  0
ARC
  5
D1CB
  8
AM_0
 10
134.70338859442759
 20
200.9481448677812
 30
0.0
 40
0.2999999999999971
 50
90.0
 51
180.0
  0
ARC
  5
D1CC
  8
AM_0
 10
136.02838859442761
 20
194.74814486778109
 30
0.0
 40
9.124999999999984
 50
152.92493329271841
 51
207.07506670728151
  0
LINE
  5
D1CD
  8
AM_0
 10
127.4033885944276
 20
190.24814486778109
 30
0.0
 11
127.9033885944276
 21
190.59483293632209
 31
0.0
  0
LINE
  5
D1CE
  8
AM_0
 10
127.9033885944276
 20
189.74814486778109
 30
0.0
 11
127.4033885944276
 21
190.24814486778109
 31
0.0
  0
LINE
  5
D1CF
  8
AM_0
 10
124.26320419476301
 20
198.04799120139441
 30
0.0
 11
126.62525412994511
 21
200.01636614737851
 31
0.0
  0
LINE
  5
D1D0
  8
AM_0
 10
127.9033885944276
 20
200.24814486778121
 30
0.0
 11
127.4033885944276
 21
199.66971228427411
 31
0.0
  0
ARC
  5
D1D1
  8
AM_0
 10
127.2654385296095
 20
199.24814486778109
 30
0.0
 40
1.00000000000004
 50
90.0
 51
129.805571092256
  0
LINE
  5
D1D2
  8
AM_0
 10
127.4033885944276
 20
198.66971228427411
 30
0.0
 11
127.9033885944276
 21
198.9014567992399
 31
0.0
  0
LINE
  5
D1D3
  8
AM_0
 10
127.9033885944276
 20
199.38142469642889
 30
0.0
 11
127.4033885944276
 21
198.66971228427411
 31
0.0
  0
LINE
  5
D1D4
  8
AM_0
 10
127.4033885944276
 20
199.20743701130209
 30
0.0
 11
127.9033885944276
 21
199.38142469642889
 31
0.0
  0
LINE
  5
D1D5
  8
AM_0
 10
127.9033885944276
 20
199.88142469642881
 30
0.0
 11
127.4033885944276
 21
199.20743701130209
 31
0.0
  0
LINE
  5
D1D6
  8
AM_0
 10
127.4033885944276
 20
199.66971228427411
 30
0.0
 11
127.9033885944276
 21
199.88142469642881
 31
0.0
  0
ARC
  5
D1D7
  8
AM_0
 10
124.9033885944276
 20
197.279769921797
 30
0.0
 40
1.0
 50
129.80557109226771
 51
180.0
  0
LINE
  5
D1D8
  8
AM_0
 10
249.3020596907736
 20
166.24814486778141
 30
0.0
 11
228.48755479124119
 21
166.24814486778141
 31
0.0
  0
LINE
  5
D1D9
  8
AM_0
 10
174.1165645903059
 20
166.24814486778141
 30
0.0
 11
153.30205969077431
 21
166.24814486778141
 31
0.0
  0
LINE
  5
D1DA
  8
AM_0
 10
243.16627802161261
 20
162.24814486778141
 30
0.0
 11
159.43784135993451
 21
162.24814486778141
 31
0.0
  0
LINE
  5
D1DB
  8
AM_0
 10
162.20941466308059
 20
164.18920735565351
 30
0.0
 11
162.3020596907742
 21
165.24814486778141
 31
0.0
  0
LINE
  5
D1DC
  8
AM_0
 10
154.39470471846761
 20
164.18920735565351
 30
0.0
 11
154.30205969077431
 21
165.24814486778141
 31
0.0
  0
ARC
  5
D1DD
  8
AM_0
 10
158.3020596907742
 20
168.6481448677813
 30
0.0
 40
6.5
 50
241.82726586813479
 51
298.17273413186518
  0
ARC
  5
D1DE
  8
AM_0
 10
155.9886162354145
 20
164.32865654404981
 30
0.0
 40
1.6000000000000001
 50
184.99999999999969
 51
241.82726586813479
  0
LINE
  5
D1DF
  8
AM_0
 10
160.6020596907741
 20
162.568671206353
 30
0.0
 11
158.3020596907742
 21
164.8582308851484
 31
0.0
  0
LINE
  5
D1E0
  8
AM_0
 10
158.6135596907742
 20
164.5481448677813
 30
0.0
 11
157.99055969077409
 21
164.5481448677813
 31
0.0
  0
LINE
  5
D1E1
  8
AM_0
 10
156.00205969077419
 20
162.568671206353
 30
0.0
 11
158.3020596907742
 21
164.8582308851484
 31
0.0
  0
LINE
  5
D1E2
  8
AM_0
 10
158.6135596907742
 20
162.1556131774467
 30
0.0
 11
158.6135596907742
 21
164.5481448677813
 31
0.0
  0
LINE
  5
D1E3
  8
AM_0
 10
157.99055969077409
 20
162.1556131774467
 30
0.0
 11
157.99055969077409
 21
164.5481448677813
 31
0.0
  0
ARC
  5
D1E4
  8
AM_0
 10
160.6155031461339
 20
164.32865654404981
 30
0.0
 40
1.6000000000000001
 50
298.17273413186518
 51
355.00000000000023
  0
LINE
  5
D1E5
  8
AM_0
 10
249.30205969077369
 20
166.24814486778141
 30
0.0
 11
249.30205969077369
 21
170.24814486778121
 31
0.0
  0
LINE
  5
D1E6
  8
AM_0
 10
153.30205969077329
 20
170.24814486778121
 30
0.0
 11
153.3020596907744
 21
166.24814486778141
 31
0.0
  0
LINE
  5
D1E7
  8
AM_0N
 10
162.10205969077421
 20
166.24814486778141
 30
0.0
 11
162.10205969077421
 21
165.24814486778141
 31
0.0
  0
LINE
  5
D1E8
  8
AM_0N
 10
158.50205969077419
 20
165.24814486778141
 30
0.0
 11
158.86602992504029
 21
166.24814486778141
 31
0.0
  0
LINE
  5
D1E9
  8
AM_0N
 10
158.1020596907741
 20
165.24814486778141
 30
0.0
 11
158.4660299250404
 21
166.24814486778141
 31
0.0
  0
LINE
  5
D1EA
  8
AM_0N
 10
154.3020596907742
 20
165.24814486778141
 30
0.0
 11
162.3020596907742
 21
165.24814486778141
 31
0.0
  0
LINE
  5
D1EB
  8
AM_0N
 10
154.50205969077419
 20
165.24814486778141
 30
0.0
 11
154.50205969077419
 21
166.24814486778141
 31
0.0
  0
LINE
  5
D1EC
  8
AM_0
 10
174.11656459030581
 20
162.24814486778141
 30
0.0
 11
174.11656459030581
 21
166.24814486778141
 31
0.0
  0
LINE
  5
D1ED
  8
AM_0
 10
172.45971034081339
 20
166.24814486778141
 30
0.0
 11
174.11656459030581
 21
162.24814486778141
 31
0.0
  0
LINE
  5
D1EE
  8
AM_0
 10
228.48755479124119
 20
162.24814486778141
 30
0.0
 11
228.48755479124119
 21
166.24814486778141
 31
0.0
  0
LINE
  5
D1EF
  8
AM_0
 10
230.14440904073379
 20
166.24814486778141
 30
0.0
 11
228.48755479124119
 21
162.24814486778141
 31
0.0
  0
LINE
  5
D1F0
  8
AM_0
 10
167.8020596907736
 20
211.24814486778141
 30
0.0
 11
234.8020596907736
 21
211.24814486778141
 31
0.0
  0
LINE
  5
D1F1
  8
AM_0
 10
167.8020596907736
 20
211.24814486778141
 30
0.0
 11
167.8020596907736
 21
209.24814486778141
 31
0.0
  0
LINE
  5
D1F2
  8
AM_0
 10
234.8020596907736
 20
211.24814486778141
 30
0.0
 11
234.8020596907736
 21
209.24814486778141
 31
0.0
  0
LINE
  5
D1F3
  8
ﾁｭｳｼﾝｾﾝ1
 10
244.30205969077289
 20
159.98343736778131
 30
0.0
 11
244.30205969077289
 21
172.98343736778131
 31
0.0
  0
LINE
  5
D1F4
  8
AM_0
 10
240.3947047184665
 20
164.18920735565351
 30
0.0
 11
240.30205969077301
 21
165.24814486778141
 31
0.0
  0
LINE
  5
D1F5
  8
AM_0
 10
248.20941466307951
 20
164.18920735565351
 30
0.0
 11
248.30205969077289
 21
165.24814486778141
 31
0.0
  0
ARC
  5
D1F6
  8
AM_0
 10
244.30205969077321
 20
168.64814486778121
 30
0.0
 40
6.5
 50
241.82726586813479
 51
298.17273413186518
  0
ARC
  5
D1F7
  8
AM_0
 10
246.61550314613291
 20
164.32865654404969
 30
0.0
 40
1.6000000000000001
 50
298.17273413186518
 51
355.00000000000023
  0
LINE
  5
D1F8
  8
AM_0
 10
242.00205969077311
 20
162.568671206353
 30
0.0
 11
244.30205969077301
 21
164.8582308851484
 31
0.0
  0
LINE
  5
D1F9
  8
AM_0
 10
243.99055969077301
 20
164.5481448677813
 30
0.0
 11
244.61355969077309
 21
164.5481448677813
 31
0.0
  0
LINE
  5
D1FA
  8
AM_0
 10
246.60205969077299
 20
162.568671206353
 30
0.0
 11
244.30205969077301
 21
164.8582308851484
 31
0.0
  0
LINE
  5
D1FB
  8
AM_0
 10
243.99055969077301
 20
162.1556131774467
 30
0.0
 11
243.99055969077301
 21
164.5481448677813
 31
0.0
  0
LINE
  5
D1FC
  8
AM_0
 10
244.61355969077309
 20
162.1556131774467
 30
0.0
 11
244.61355969077309
 21
164.5481448677813
 31
0.0
  0
ARC
  5
D1FD
  8
AM_0
 10
241.9886162354135
 20
164.32865654404969
 30
0.0
 40
1.6000000000000001
 50
184.99999999999969
 51
241.82726586813479
  0
LINE
  5
D1FE
  8
AM_0N
 10
240.502059690773
 20
166.24814486778141
 30
0.0
 11
240.502059690773
 21
165.24814486778141
 31
0.0
  0
LINE
  5
D1FF
  8
AM_0N
 10
244.10205969077299
 20
165.24814486778141
 30
0.0
 11
243.7380894565068
 21
166.24814486778141
 31
0.0
  0
LINE
  5
D200
  8
AM_0N
 10
244.502059690773
 20
165.24814486778141
 30
0.0
 11
244.1380894565068
 21
166.24814486778141
 31
0.0
  0
LINE
  5
D201
  8
AM_0N
 10
248.30205969077309
 20
165.24814486778141
 30
0.0
 11
240.30205969077301
 21
165.24814486778141
 31
0.0
  0
LINE
  5
D202
  8
AM_0N
 10
248.1020596907729
 20
165.24814486778141
 30
0.0
 11
248.1020596907729
 21
166.24814486778141
 31
0.0
  0
LINE
  5
D203
  8
AM_0
 10
152.3020596907736
 20
173.24814486778109
 30
0.0
 11
152.3020596907734
 21
205.24814486778121
 31
0.0
  0
LINE
  5
D204
  8
AM_0
 10
250.50780969077371
 20
322.17703486778117
 30
0.0
 11
246.36208969077379
 21
337.65814486778117
 31
0.0
  0
LINE
  5
D205
  8
AM_0
 10
250.50777969077379
 20
321.26703486778138
 30
0.0
 11
246.36205969077369
 21
336.74814486778132
 31
0.0
  0
LINE
  5
D206
  8
AM_0
 10
250.50777969077379
 20
319.41705486778147
 30
0.0
 11
246.36205969077369
 21
334.89819486778129
 31
0.0
  0
LINE
  5
D207
  8
AM_0
 10
252.30205969077369
 20
333.24814486778132
 30
0.0
 11
252.30205969077369
 21
221.24814486778121
 31
0.0
  0
LINE
  5
D208
  8
AM_0
 10
245.6420896907737
 20
313.24814486778121
 30
0.0
 11
146.66204969077381
 21
313.24814486778121
 31
0.0
  0
LINE
  5
D209
  8
AM_0
 10
245.6420896907737
 20
311.24814486778121
 30
0.0
 11
146.66204969077381
 21
311.24814486778121
 31
0.0
  0
LINE
  5
D20A
  8
AM_0
 10
213.30205969077389
 20
303.24814486778132
 30
0.0
 11
146.66204969077381
 21
303.24814486778132
 31
0.0
  0
LINE
  5
D20B
  8
AM_0
 10
245.63488969077389
 20
301.24814486778132
 30
0.0
 11
146.66204969077381
 21
301.24814486778132
 31
0.0
  0
LINE
  5
D20C
  8
AM_0
 10
180.74077969077371
 20
293.24814486778132
 30
0.0
 11
146.66204969077381
 21
293.24814486778132
 31
0.0
  0
LINE
  5
D20D
  8
AM_0
 10
180.74077969077371
 20
291.24814486778132
 30
0.0
 11
146.66204969077381
 21
291.24814486778132
 31
0.0
  0
LINE
  5
D20E
  8
AM_0
 10
180.74077969077371
 20
283.24814486778132
 30
0.0
 11
146.66204969077381
 21
283.24814486778132
 31
0.0
  0
LINE
  5
D20F
  8
AM_0
 10
180.74077969077371
 20
281.24814486778132
 30
0.0
 11
146.66204969077381
 21
281.24814486778132
 31
0.0
  0
LINE
  5
D210
  8
AM_0
 10
145.98204969077381
 20
313.9681148677812
 30
0.0
 11
249.12206969077371
 21
313.9681148677812
 31
0.0
  0
LINE
  5
D211
  8
AM_0
 10
145.98204969077381
 20
310.61813486778141
 30
0.0
 11
213.3220796907739
 21
310.61813486778141
 31
0.0
  0
LINE
  5
D212
  8
AM_0
 10
145.7620796907737
 20
303.73813486778118
 30
0.0
 11
213.30205969077389
 21
303.73813486778118
 31
0.0
  0
LINE
  5
D213
  8
AM_0
 10
145.7620796907737
 20
300.8081948677812
 30
0.0
 11
249.33629969077381
 21
300.8081948677812
 31
0.0
  0
LINE
  5
D214
  8
AM_0
 10
145.63207969077371
 20
293.58810486778128
 30
0.0
 11
181.96074969077389
 21
293.58810486778128
 31
0.0
  0
LINE
  5
D215
  8
AM_0
 10
145.63207969077371
 20
290.92819486778131
 30
0.0
 11
181.96074969077389
 21
290.92819486778131
 31
0.0
  0
LINE
  5
D216
  8
AM_0
 10
145.57207969077371
 20
283.51816486778131
 30
0.0
 11
182.02074969077381
 21
283.51816486778131
 31
0.0
  0
LINE
  5
D217
  8
AM_0
 10
145.57207969077371
 20
280.98813486778141
 30
0.0
 11
182.02074969077381
 21
280.98813486778141
 31
0.0
  0
LINE
  5
D218
  8
AM_0
 10
145.57207969077371
 20
273.51816486778131
 30
0.0
 11
182.02074969077381
 21
273.51816486778131
 31
0.0
  0
LINE
  5
D219
  8
AM_0
 10
180.74077969077371
 20
273.24814486778132
 30
0.0
 11
146.66204969077381
 21
273.24814486778132
 31
0.0
  0
LINE
  5
D21A
  8
AM_0
 10
180.74077969077371
 20
271.24814486778132
 30
0.0
 11
146.66204969077381
 21
271.24814486778132
 31
0.0
  0
LINE
  5
D21B
  8
AM_0
 10
145.57207969077371
 20
270.97812486778139
 30
0.0
 11
182.02074969077381
 21
270.97812486778139
 31
0.0
  0
LINE
  5
D21C
  8
AM_0
 10
145.63207969077371
 20
263.56808486778141
 30
0.0
 11
181.96074969077389
 21
263.56808486778141
 31
0.0
  0
LINE
  5
D21D
  8
AM_0
 10
180.74077969077371
 20
263.24814486778132
 30
0.0
 11
146.66204969077381
 21
263.24814486778132
 31
0.0
  0
LINE
  5
D21E
  8
AM_0
 10
180.74077969077371
 20
261.24814486778132
 30
0.0
 11
146.66204969077381
 21
261.24814486778132
 31
0.0
  0
LINE
  5
D21F
  8
AM_0
 10
145.63207969077371
 20
260.90817486778133
 30
0.0
 11
181.97332969077371
 21
260.90817486778133
 31
0.0
  0
LINE
  5
D220
  8
AM_0
 10
245.63488969077389
 20
253.24814486778129
 30
0.0
 11
146.66204969077381
 21
253.24814486778129
 31
0.0
  0
LINE
  5
D221
  8
AM_0
 10
145.7620796907737
 20
253.68808486778141
 30
0.0
 11
249.33629969077381
 21
253.68808486778141
 31
0.0
  0
LINE
  5
D222
  8
AM_0
 10
213.30205969077389
 20
251.24814486778129
 30
0.0
 11
146.66204969077381
 21
251.24814486778129
 31
0.0
  0
LINE
  5
D223
  8
AM_0
 10
145.7620796907737
 20
250.7581548677814
 30
0.0
 11
213.30205969077389
 21
250.7581548677814
 31
0.0
  0
LINE
  5
D224
  8
AM_0
 10
245.6420896907737
 20
243.24814486778121
 30
0.0
 11
201.30205969077369
 21
243.24814486778121
 31
0.0
  0
LINE
  5
D225
  8
AM_0
 10
245.6420896907737
 20
241.24814486778121
 30
0.0
 11
201.30205969077369
 21
241.24814486778121
 31
0.0
  0
LINE
  5
D226
  8
AM_0
 10
145.98204969077381
 20
240.52817486778119
 30
0.0
 11
201.30205969077369
 21
240.52817486778119
 31
0.0
  0
LINE
  5
D227
  8
AM_0
 10
249.12206969077371
 20
243.87814486778129
 30
0.0
 11
231.2820996907738
 21
243.87814486778129
 31
0.0
  0
LINE
  5
D228
  8
AM_0
 10
145.98204969077381
 20
243.87814486778129
 30
0.0
 11
213.3220796907739
 21
243.87814486778129
 31
0.0
  0
LINE
  5
D229
  8
AM_0
 10
201.30205969077369
 20
243.24814486778121
 30
0.0
 11
146.66204969077381
 21
243.24814486778121
 31
0.0
  0
LINE
  5
D22A
  8
AM_0
 10
201.30205969077369
 20
241.24814486778121
 30
0.0
 11
146.66204969077381
 21
241.24814486778121
 31
0.0
  0
LINE
  5
D22B
  8
AM_0
 10
201.30205969077369
 20
240.52817486778119
 30
0.0
 11
249.12206969077371
 21
240.52817486778119
 31
0.0
  0
LINE
  5
D22C
  8
AM_0
 10
144.3020596907738
 20
330.24814486778132
 30
0.0
 11
144.3020596907738
 21
224.24814486778129
 31
0.0
  0
LINE
  5
D22D
  8
AM_0
 10
252.30205969077369
 20
323.24814486778132
 30
0.0
 11
260.30205969077372
 21
323.24814486778132
 31
0.0
  0
LINE
  5
D22E
  8
AM_0
 10
252.30205969077369
 20
309.1880848677813
 30
0.0
 11
260.30205969077372
 21
309.1880848677813
 31
0.0
  0
LINE
  5
D22F
  8
AM_0
 10
252.30205969077369
 20
333.24814486778132
 30
0.0
 11
260.30205969077372
 21
333.24814486778132
 31
0.0
  0
LINE
  5
D230
  8
AM_0
 10
147.5120796907737
 20
333.5281748677815
 30
0.0
 11
244.4320696907738
 21
333.5281748677815
 31
0.0
  0
LINE
  5
D231
  8
AM_0
 10
144.3020596907738
 20
325.34820486778119
 30
0.0
 11
145.54204969077381
 21
331.90820486778131
 31
0.0
  0
LINE
  5
D232
  8
AM_0
 10
149.6621096907738
 20
313.8981648677813
 30
0.0
 11
144.30211969077371
 21
325.34814486778117
 31
0.0
  0
LINE
  5
D233
  8
AM_0
 10
149.66204969077381
 20
240.59811486778119
 30
0.0
 11
144.30211969077371
 21
229.15820486778119
 31
0.0
  0
LINE
  5
D234
  8
AM_0
 10
147.5520596907738
 20
336.3781448677812
 30
0.0
 11
244.4320696907738
 21
336.3781448677812
 31
0.0
  0
LINE
  5
D235
  8
AM_0
 10
147.57207969077371
 20
338.22812486778139
 30
0.0
 11
244.4320696907738
 21
338.22812486778139
 31
0.0
  0
LINE
  5
D236
  8
AM_0
 10
147.59209969077369
 20
339.1381548677814
 30
0.0
 11
244.43212969077371
 21
339.1381548677814
 31
0.0
  0
LINE
  5
D237
  8
AM_0
 10
144.30211969077371
 20
326.6881748677813
 30
0.0
 11
145.58208969077381
 21
334.69812486778147
 31
0.0
  0
LINE
  5
D238
  8
AM_0
 10
144.30211969077371
 20
328.03811486778119
 30
0.0
 11
145.59209969077381
 21
336.5282048677812
 31
0.0
  0
LINE
  5
D239
  8
AM_0
 10
144.3020596907738
 20
328.03814486778128
 30
0.0
 11
145.61205969077369
 21
337.41818486778129
 31
0.0
  0
LINE
  5
D23A
  8
AM_0
 10
250.5021296907739
 20
316.58810486778128
 30
0.0
 11
246.36211969077371
 21
332.04812486778133
 31
0.0
  0
LINE
  5
D23B
  8
AM_0
 10
246.84209969077381
 20
330.24814486778132
 30
0.0
 11
252.30205969077369
 21
330.24814486778132
 31
0.0
  0
LINE
  5
D23C
  8
AM_0
 10
252.30205969077369
 20
231.24814486778109
 30
0.0
 11
260.30205969077372
 21
231.24814486778109
 31
0.0
  0
LINE
  5
D23D
  8
AM_0
 10
252.30205969077369
 20
221.24814486778121
 30
0.0
 11
260.30205969077372
 21
221.24814486778121
 31
0.0
  0
LINE
  5
D23E
  8
AM_0
 10
147.5120796907737
 20
220.9681148677812
 30
0.0
 11
244.4320696907738
 21
220.9681148677812
 31
0.0
  0
LINE
  5
D23F
  8
AM_0
 10
144.3020596907738
 20
229.15811486778131
 30
0.0
 11
145.54210969077371
 21
222.59811486778131
 31
0.0
  0
LINE
  5
D240
  8
AM_0
 10
147.2083096907738
 20
218.11813486778141
 30
0.0
 11
169.7001896907737
 21
218.11813486778141
 31
0.0
  0
LINE
  5
D241
  8
AM_0
 10
144.3020596907738
 20
227.80810486778131
 30
0.0
 11
145.58208969077381
 21
219.8081948677812
 31
0.0
  0
LINE
  5
D242
  8
AM_0
 10
144.3020596907738
 20
226.4682048677812
 30
0.0
 11
145.31133969077371
 21
219.81802486778119
 31
0.0
  0
LINE
  5
D243
  8
AM_0
 10
144.30211969077371
 20
226.4681748677813
 30
0.0
 11
145.22753969077371
 21
219.84158486778131
 31
0.0
  0
LINE
  5
D244
  8
AM_0
 10
250.50777969077379
 20
237.92929486778121
 30
0.0
 11
246.36205969077369
 21
222.44815486778131
 31
0.0
  0
LINE
  5
D245
  8
AM_0
 10
246.84410969077371
 20
224.24814486778129
 30
0.0
 11
252.30205969077369
 21
224.24814486778129
 31
0.0
  0
LINE
  5
D246
  8
AM_0
 10
252.30205969077369
 20
245.3081948677812
 30
0.0
 11
260.30205969077372
 21
245.3081948677812
 31
0.0
  0
LINE
  5
D247
  8
AM_0
 10
251.30205969077369
 20
224.24814486778129
 30
0.0
 11
245.57631969077369
 21
215.4312448677814
 31
0.0
  0
LINE
  5
D248
  8
AM_0
 10
232.8156696907738
 20
214.74814486778121
 30
0.0
 11
244.31829969077381
 21
214.74814486778121
 31
0.0
  0
LINE
  5
D249
  8
AM_0
 10
230.28209969077369
 20
304.74814486778132
 30
0.0
 11
230.28209969077369
 21
309.60812486778133
 31
0.0
  0
LINE
  5
D24A
  8
AM_0
 10
214.32207969077371
 20
304.74814486778132
 30
0.0
 11
214.32207969077371
 21
309.60812486778133
 31
0.0
  0
LINE
  5
D24B
  8
AM_0
 10
229.80205969077389
 20
304.74814486778132
 30
0.0
 11
229.80205969077389
 21
309.74814486778132
 31
0.0
  0
LINE
  5
D24C
  8
AM_0
 10
214.80205969077369
 20
304.74814486778132
 30
0.0
 11
214.80205969077369
 21
309.74814486778132
 31
0.0
  0
LINE
  5
D24D
  8
AM_0
 10
186.3020596907738
 20
290.24814486778121
 30
0.0
 11
249.30205969077369
 21
290.24814486778121
 31
0.0
  0
LINE
  5
D24E
  8
AM_0
 10
186.3020596907738
 20
256.74814486778132
 30
0.0
 11
249.30205969077369
 21
256.74814486778132
 31
0.0
  0
LINE
  5
D24F
  8
AM_0
 10
186.3020596907738
 20
297.74814486778132
 30
0.0
 11
249.30205969077369
 21
297.74814486778132
 31
0.0
  0
LINE
  5
D250
  8
AM_0
 10
249.30205969077369
 20
297.74814486778132
 30
0.0
 11
249.30205969077369
 21
256.74814486778132
 31
0.0
  0
LINE
  5
D251
  8
AM_0
 10
186.3020596907738
 20
297.74814486778132
 30
0.0
 11
186.3020596907738
 21
256.74814486778132
 31
0.0
  0
LINE
  5
D252
  8
AM_0
 10
231.30205969077369
 20
303.73813486778118
 30
0.0
 11
249.34777969077371
 21
303.73813486778118
 31
0.0
  0
LINE
  5
D253
  8
AM_0
 10
231.30205969077369
 20
250.76816486778131
 30
0.0
 11
249.33629969077381
 21
250.76816486778131
 31
0.0
  0
LINE
  5
D254
  8
AM_0
 10
230.28209969077369
 20
249.74814486778121
 30
0.0
 11
230.28209969077369
 21
244.88815486778131
 31
0.0
  0
LINE
  5
D255
  8
AM_0
 10
214.32207969077371
 20
249.74814486778121
 30
0.0
 11
214.32207969077371
 21
244.88815486778131
 31
0.0
  0
LINE
  5
D256
  8
AM_0
 10
229.80205969077389
 20
249.74814486778121
 30
0.0
 11
229.80205969077389
 21
244.74814486778129
 31
0.0
  0
LINE
  5
D257
  8
AM_0
 10
214.80205969077369
 20
249.74814486778121
 30
0.0
 11
214.80205969077369
 21
244.74814486778129
 31
0.0
  0
LINE
  5
D258
  8
AM_0
 10
245.63488969077389
 20
251.24814486778129
 30
0.0
 11
231.30205969077369
 21
251.24814486778129
 31
0.0
  0
LINE
  5
D259
  8
AM_0
 10
245.64922969077401
 20
303.24814486778132
 30
0.0
 11
231.30205969077369
 21
303.24814486778132
 31
0.0
  0
LINE
  5
D25A
  8
AM_0
 10
231.2820996907738
 20
310.60812486778133
 30
0.0
 11
249.12206969077371
 21
310.60812486778133
 31
0.0
  0
ARC
  5
D25B
  8
AM_0
 10
251.95525969077369
 20
322.58090486778133
 30
0.0
 40
1.502775999999999
 50
194.7564299999992
 51
269.87757999999872
  0
ARC
  5
D25C
  8
AM_0
 10
251.95525969077369
 20
321.67087486778132
 30
0.0
 40
1.502775999999999
 50
194.7564299999992
 51
269.87757999999872
  0
ARC
  5
D25D
  8
AM_0
 10
251.95525969077369
 20
319.82089486778148
 30
0.0
 40
1.502775999999999
 50
194.7564299999992
 51
269.87757999999872
  0
ARC
  5
D25E
  8
AM_0
 10
244.42723969077389
 20
337.13339486778108
 30
0.0
 40
2.0047290000000002
 50
15.173495999996319
 51
89.861678000000211
  0
ARC
  5
D25F
  8
AM_0
 10
244.42723969077389
 20
336.22336486778107
 30
0.0
 40
2.0047290000000002
 50
15.173495999996319
 51
89.861678000000211
  0
ARC
  5
D260
  8
AM_0
 10
244.42723969077389
 20
334.37338486778128
 30
0.0
 40
2.0047290000000002
 50
15.173495999996319
 51
89.861678000000211
  0
ARC
  5
D261
  8
AM_0
 10
251.95525969077369
 20
237.52536486778129
 30
0.0
 40
1.502775999999999
 50
90.122413000001615
 51
165.24357000000069
  0
ARC
  5
D262
  8
AM_0
 10
146.84667969077381
 20
242.24814486778121
 30
0.0
 40
1.000013899999999
 50
89.691659999999231
 51
270.30834000000078
  0
ARC
  5
D263
  8
AM_0
 10
249.12206969077371
 20
312.29318486778112
 30
0.0
 40
1.6750020000000001
 50
269.999989999999
 51
90.00000299999769
  0
ARC
  5
D264
  8
AM_0
 10
245.6420896907737
 20
312.24814486778132
 30
0.0
 40
1.0
 50
269.999989999999
 51
90.00000299999769
  0
ARC
  5
D265
  8
AM_0
 10
245.6420896907737
 20
242.24814486778121
 30
0.0
 40
1.0
 50
269.999989999999
 51
90.00000299999769
  0
ARC
  5
D266
  8
AM_0
 10
249.12206969077371
 20
242.20309486778129
 30
0.0
 40
1.6750020000000001
 50
269.999989999999
 51
90.00000299999769
  0
ARC
  5
D267
  8
AM_0
 10
145.97466969077391
 20
312.29318486778112
 30
0.0
 40
1.6750160000000001
 50
89.746145000004447
 51
270.25387000000092
  0
ARC
  5
D268
  8
AM_0
 10
146.84667969077381
 20
312.24814486778132
 30
0.0
 40
1.000013899999999
 50
89.691659999999231
 51
270.30834000000078
  0
ARC
  5
D269
  8
AM_0
 10
146.84667969077381
 20
302.24814486778132
 30
0.0
 40
1.000013899999999
 50
89.691659999999231
 51
270.30834000000078
  0
ARC
  5
D26A
  8
AM_0
 10
146.84667969077381
 20
292.24814486778121
 30
0.0
 40
1.000013899999999
 50
89.691659999999231
 51
270.30834000000078
  0
ARC
  5
D26B
  8
AM_0
 10
146.84667969077381
 20
282.24814486778121
 30
0.0
 40
1.000013899999999
 50
89.691659999999231
 51
270.30834000000078
  0
ARC
  5
D26C
  8
AM_0
 10
146.84667969077381
 20
272.24814486778132
 30
0.0
 40
1.000013899999999
 50
89.691659999999231
 51
270.30834000000078
  0
ARC
  5
D26D
  8
AM_0
 10
146.84667969077381
 20
262.24814486778132
 30
0.0
 40
1.000013899999999
 50
89.691659999999231
 51
270.30834000000078
  0
ARC
  5
D26E
  8
AM_0
 10
146.84667969077381
 20
252.24814486778121
 30
0.0
 40
1.000013899999999
 50
89.691659999999231
 51
270.30834000000078
  0
ARC
  5
D26F
  8
AM_0
 10
145.7620796907737
 20
302.2731648677813
 30
0.0
 40
1.465004
 50
90.00000299999769
 51
270.0
  0
ARC
  5
D270
  8
AM_0
 10
145.63207969077371
 20
292.25815486778117
 30
0.0
 40
1.3300049999999981
 50
90.00000299999769
 51
270.0
  0
ARC
  5
D271
  8
AM_0
 10
145.56621969077369
 20
282.2531448677812
 30
0.0
 40
1.2650129999999991
 50
89.735579000001735
 51
270.2644100000025
  0
ARC
  5
D272
  8
AM_0
 10
145.56621969077369
 20
272.24814486778132
 30
0.0
 40
1.2700129999999981
 50
89.736617000001601
 51
270.26336999999921
  0
ARC
  5
D273
  8
AM_0
 10
145.63207969077371
 20
262.23813486778141
 30
0.0
 40
1.3300049999999981
 50
90.00000299999769
 51
270.0
  0
ARC
  5
D274
  8
AM_0
 10
145.7620796907737
 20
252.22311486778119
 30
0.0
 40
1.465004
 50
90.00000299999769
 51
270.0
  0
ARC
  5
D275
  8
AM_0
 10
145.97521969077371
 20
242.20309486778129
 30
0.0
 40
1.675014
 50
89.766498999996756
 51
270.2335099999994
  0
ARC
  5
D276
  8
AM_0
 10
147.5007896907737
 20
331.53402486778128
 30
0.0
 40
1.994108999999999
 50
89.675548000002749
 51
169.18776999999869
  0
ARC
  5
D277
  8
AM_0
 10
147.55230969077371
 20
334.38290486778141
 30
0.0
 40
1.995282999999995
 50
90.006203999996856
 51
170.90835000000069
  0
ARC
  5
D278
  8
AM_0
 10
147.56664969077369
 20
336.23141486778133
 30
0.0
 40
1.9967330000000001
 50
89.843966999998912
 51
171.4538799999973
  0
ARC
  5
D279
  8
AM_0
 10
147.58855969077371
 20
337.14254486778128
 30
0.0
 40
1.995633
 50
89.899707999995798
 51
172.06112999999971
  0
ARC
  5
D27A
  8
AM_0
 10
244.4321896907737
 20
331.52987486778147
 30
0.0
 40
1.9982919999999991
 50
15.032547999996
 51
90.002632000001341
  0
ARC
  5
D27B
  8
AM_0
 10
251.95525969077369
 20
316.97091486778118
 30
0.0
 40
1.502775999999999
 50
194.7564299999992
 51
269.87757999999872
  0
ARC
  5
D27C
  8
AM_0
 10
244.42723969077389
 20
222.9728748677812
 30
0.0
 40
2.0047290000000002
 50
270.13832000000423
 51
344.82650000000189
  0
ARC
  5
D27D
  8
AM_0
 10
147.5069596907737
 20
222.9673748677813
 30
0.0
 40
1.9992490000000001
 50
190.643100000001
 51
270.14743000000129
  0
ARC
  5
D27E
  8
AM_0
 10
147.55828969077379
 20
220.11850486778121
 30
0.0
 40
2.000420099999999
 50
188.9268200000015
 51
269.82270999999599
  0
ARC
  5
D27F
  8
AM_0
 10
232.8156696907738
 20
213.24814486778121
 30
0.0
 40
1.5
 50
90.00000299999769
 51
178.50000000000381
  0
ARC
  5
D280
  8
AM_0
 10
244.31829969077381
 20
216.24814486778109
 30
0.0
 40
1.5
 50
269.999989999999
 51
326.99999999999801
  0
ARC
  5
D281
  8
AM_0
 10
147.28868969077379
 20
220.11813486778129
 30
0.0
 40
2.0
 50
188.62962000000411
 51
269.999989999999
  0
ARC
  5
D282
  8
AM_0
 10
147.2083096907738
 20
220.11813486778129
 30
0.0
 40
2.0
 50
187.95044000000351
 51
269.999989999999
  0
ARC
  5
D283
  8
AM_0
 10
169.7001896907737
 20
216.61813486778141
 30
0.0
 40
1.5
 50
1.5000027000022329
 51
90.00000299999769
  0
ARC
  5
D284
  8
AM_0
 10
180.74077969077371
 20
292.24814486778121
 30
0.0
 40
1.000005699999998
 50
269.999989999999
 51
90.00000299999769
  0
ARC
  5
D285
  8
AM_0
 10
180.74077969077371
 20
282.24814486778121
 30
0.0
 40
1.000005699999998
 50
269.999989999999
 51
90.00000299999769
  0
ARC
  5
D286
  8
AM_0
 10
180.74077969077371
 20
272.24814486778132
 30
0.0
 40
1.000005699999998
 50
269.999989999999
 51
90.00000299999769
  0
ARC
  5
D287
  8
AM_0
 10
180.74077969077371
 20
262.24814486778132
 30
0.0
 40
1.000005699999998
 50
269.999989999999
 51
90.00000299999769
  0
ARC
  5
D288
  8
AM_0
 10
231.30205969077369
 20
244.74814486778129
 30
0.0
 40
1.5
 50
179.999989999999
 51
270.0
  0
ARC
  5
D289
  8
AM_0
 10
213.30205969077389
 20
244.74814486778129
 30
0.0
 40
1.5
 50
269.999989999999
 51
0.0000006832495047
  0
ARC
  5
D28A
  8
AM_0
 10
213.3220796907739
 20
244.88815486778131
 30
0.0
 40
1.0
 50
269.999989999999
 51
0.0000006832495047
  0
ARC
  5
D28B
  8
AM_0
 10
231.2820996907738
 20
244.88815486778131
 30
0.0
 40
1.0
 50
179.999989999999
 51
270.0
  0
CIRCLE
  5
D28C
  8
AM_0
 10
219.80205969077369
 20
305.74814486778132
 30
0.0
 40
1.1000000000000001
  0
CIRCLE
  5
D28D
  8
AM_0
 10
219.80205969077369
 20
305.74814486778132
 30
0.0
 40
1.149999999999999
  0
CIRCLE
  5
D28E
  8
AM_0
 10
224.80205969077369
 20
305.74814486778132
 30
0.0
 40
1.0
  0
ARC
  5
D28F
  8
AM_0
 10
213.30205969077389
 20
304.74814486778132
 30
0.0
 40
1.02
 50
269.999989999999
 51
0.0000006832429909
  0
ARC
  5
D290
  8
AM_0
 10
231.30205969077369
 20
304.74814486778132
 30
0.0
 40
1.02
 50
179.999989999999
 51
270.0
  0
ARC
  5
D291
  8
AM_0
 10
213.30205969077389
 20
304.74814486778132
 30
0.0
 40
1.5
 50
269.999989999999
 51
0.0000006832495047
  0
ARC
  5
D292
  8
AM_0
 10
231.30205969077369
 20
304.74814486778132
 30
0.0
 40
1.5
 50
179.999989999999
 51
270.0
  0
CIRCLE
  5
D293
  8
AM_0
 10
224.80205969077369
 20
248.74814486778129
 30
0.0
 40
1.0
  0
CIRCLE
  5
D294
  8
AM_0
 10
219.80205969077369
 20
248.74814486778129
 30
0.0
 40
1.149999999999999
  0
CIRCLE
  5
D295
  8
AM_0
 10
219.80205969077369
 20
248.74814486778129
 30
0.0
 40
1.1000000000000001
  0
ARC
  5
D296
  8
AM_0
 10
213.30205969077389
 20
249.74814486778121
 30
0.0
 40
1.02
 50
0.0
 51
90.00000299999769
  0
ARC
  5
D297
  8
AM_0
 10
231.30205969077369
 20
249.74814486778121
 30
0.0
 40
1.02
 50
90.00000299999769
 51
180.00001000000091
  0
ARC
  5
D298
  8
AM_0
 10
213.30205969077389
 20
249.74814486778121
 30
0.0
 40
1.5
 50
0.0
 51
90.00000299999769
  0
ARC
  5
D299
  8
AM_0
 10
231.30205969077369
 20
249.74814486778121
 30
0.0
 40
1.5
 50
90.00000299999769
 51
180.00001000000091
  0
ARC
  5
D29A
  8
AM_0
 10
181.9670396907737
 20
262.23813486778141
 30
0.0
 40
1.3300148000000001
 50
269.7294199999987
 51
90.270567000000995
  0
ARC
  5
D29B
  8
AM_0
 10
182.0289896907737
 20
272.24814486778132
 30
0.0
 40
1.2700266
 50
269.62932000000001
 51
90.370669999998199
  0
ARC
  5
D29C
  8
AM_0
 10
182.0289896907737
 20
282.25815486778117
 30
0.0
 40
1.2700266
 50
269.62932000000001
 51
90.370669999998199
  0
ARC
  5
D29D
  8
AM_0
 10
181.9670396907737
 20
292.2631548677814
 30
0.0
 40
1.3350147999999991
 50
269.7304299999999
 51
90.269556000001316
  0
ARC
  5
D29E
  8
AM_0
 10
245.6420296907738
 20
302.24814486778132
 30
0.0
 40
1.000025599999997
 50
269.5894700000033
 51
90.410530999997775
  0
ARC
  5
D29F
  8
AM_0
 10
249.3420396907737
 20
302.27817486778127
 30
0.0
 40
1.460011199999999
 50
269.77524999999667
 51
90.224750000003354
  0
ARC
  5
D2A0
  8
AM_0
 10
245.6420296907738
 20
252.24814486778121
 30
0.0
 40
1.000025599999997
 50
269.5894700000033
 51
90.410530999997775
  0
ARC
  5
D2A1
  8
AM_0
 10
249.3420396907737
 20
252.21811486778131
 30
0.0
 40
1.460011199999999
 50
269.77524999999667
 51
90.224750000003354
  0
ARC
  5
D2A2
  8
AM_0
 10
231.2820996907738
 20
309.60812486778133
 30
0.0
 40
1.0
 50
90.00000299999769
 51
180.00001000000091
  0
ARC
  5
D2A3
  8
AM_0
 10
231.30205969077369
 20
309.74814486778132
 30
0.0
 40
1.5
 50
90.00000299999769
 51
180.00001000000091
  0
ARC
  5
D2A4
  8
AM_0
 10
213.30205969077389
 20
309.74814486778132
 30
0.0
 40
1.5
 50
0.0
 51
90.00000299999769
  0
ARC
  5
D2A5
  8
AM_0
 10
213.3220796907739
 20
309.60812486778133
 30
0.0
 40
1.0
 50
0.0
 51
90.00000299999769
  0
POLYLINE
  5
D2A6
  8
AM_0
 66
     1
 10
0.0
 20
0.0
 30
0.0
  0
VERTEX
  5
D2A7
  8
AM_0
 10
146.66204969077381
 20
277.24814486778132
 30
0.0
 42
0.00039106593
  0
VERTEX
  5
D2A8
  8
AM_0
 10
146.65968969077369
 20
276.9370048677813
 30
0.0
 42
0.00040574899
  0
VERTEX
  5
D2A9
  8
AM_0
 10
146.65781969077369
 20
276.62589486778131
 30
0.0
 42
0.0003534546
  0
VERTEX
  5
D2AA
  8
AM_0
 10
146.65642969077379
 20
276.3147948677813
 30
0.0
 42
0.00034407327
  0
VERTEX
  5
D2AB
  8
AM_0
 10
146.65544969077371
 20
276.00365486778128
 30
0.0
 42
0.00045699408
  0
VERTEX
  5
D2AC
  8
AM_0
 10
146.65498969077379
 20
275.69254486778141
 30
0.0
 42
0.00035571853
  0
VERTEX
  5
D2AD
  8
AM_0
 10
146.6550296907738
 20
275.38144486778128
 30
0.0
 42
0.00038547362
  0
VERTEX
  5
D2AE
  8
AM_0
 10
146.6555196907737
 20
275.07030486778132
 30
0.0
 42
0.00035501498
  0
VERTEX
  5
D2AF
  8
AM_0
 10
146.65647969077369
 20
274.75920486778119
 30
0.0
 42
0.00040118614
  0
VERTEX
  5
D2B0
  8
AM_0
 10
146.65789969077369
 20
274.4479648677812
 30
0.0
 42
0.00038319871
  0
VERTEX
  5
D2B1
  8
AM_0
 10
146.65980969077381
 20
274.13683486778132
 30
0.0
 42
0.00040742136
  0
VERTEX
  5
D2B2
  8
AM_0
 10
146.66220969077381
 20
273.82560486778129
 30
0.0
 42
0.0003578071
  0
VERTEX
  5
D2B3
  8
AM_0
 10
146.6650996907737
 20
273.5144948677812
 30
0.0
  0
SEQEND
  5
D2B4
  8
AM_0
  0
POLYLINE
  5
D2B5
  8
AM_0
 66
     1
 10
0.0
 20
0.0
 30
0.0
  0
VERTEX
  5
D2B6
  8
AM_0
 10
146.7061096907737
 20
270.97775486778141
 30
0.0
 42
0.00076695232
  0
VERTEX
  5
D2B7
  8
AM_0
 10
146.72090969077371
 20
270.35999486778132
 30
0.0
 42
0.00073263044
  0
VERTEX
  5
D2B8
  8
AM_0
 10
146.7375496907739
 20
269.74239486778129
 30
0.0
 42
0.0007652599
  0
VERTEX
  5
D2B9
  8
AM_0
 10
146.75603969077369
 20
269.1247248677812
 30
0.0
 42
0.00075144485
  0
VERTEX
  5
D2BA
  8
AM_0
 10
146.7764096907739
 20
268.50712486778127
 30
0.0
 42
0.00078594403
  0
VERTEX
  5
D2BB
  8
AM_0
 10
146.79865969077369
 20
267.88969486778132
 30
0.0
 42
0.00073349202
  0
VERTEX
  5
D2BC
  8
AM_0
 10
146.8228096907736
 20
267.27231486778112
 30
0.0
 42
0.0007358075
  0
VERTEX
  5
D2BD
  8
AM_0
 10
146.84874969077379
 20
266.65491486778132
 30
0.0
 42
0.00078592699
  0
VERTEX
  5
D2BE
  8
AM_0
 10
146.87657969077381
 20
266.03752486778131
 30
0.0
 42
0.00074823144
  0
VERTEX
  5
D2BF
  8
AM_0
 10
146.9063096907737
 20
265.42013486778143
 30
0.0
 42
0.00074896603
  0
VERTEX
  5
D2C0
  8
AM_0
 10
146.93786969077371
 20
264.80300486778128
 30
0.0
 42
0.00076039765
  0
VERTEX
  5
D2C1
  8
AM_0
 10
146.9712896907738
 20
264.18597486778128
 30
0.0
 42
0.00075616128
  0
VERTEX
  5
D2C2
  8
AM_0
 10
147.00658969077369
 20
263.56894486778128
 30
0.0
  0
SEQEND
  5
D2C3
  8
AM_0
  0
POLYLINE
  5
D2C4
  8
AM_0
 66
     1
 10
0.0
 20
0.0
 30
0.0
  0
VERTEX
  5
D2C5
  8
AM_0
 10
147.18029969077369
 20
260.90756486778128
 30
0.0
 42
0.00073721992
  0
VERTEX
  5
D2C6
  8
AM_0
 10
147.2244496907737
 20
260.30515486778131
 30
0.0
 42
0.00074398496
  0
VERTEX
  5
D2C7
  8
AM_0
 10
147.27037969077369
 20
259.70288486778122
 30
0.0
 42
0.00073322625
  0
VERTEX
  5
D2C8
  8
AM_0
 10
147.3181096907737
 20
259.10055486778128
 30
0.0
 42
0.00073594289
  0
VERTEX
  5
D2C9
  8
AM_0
 10
147.36758969077371
 20
258.4985648677814
 30
0.0
 42
0.00074742568
  0
VERTEX
  5
D2CA
  8
AM_0
 10
147.41885969077379
 20
257.89670486778141
 30
0.0
 42
0.00073216749
  0
VERTEX
  5
D2CB
  8
AM_0
 10
147.4719196907738
 20
257.2948948677813
 30
0.0
 42
0.00074184065
  0
VERTEX
  5
D2CC
  8
AM_0
 10
147.5267396907737
 20
256.69336486778138
 30
0.0
 42
0.00072077528
  0
VERTEX
  5
D2CD
  8
AM_0
 10
147.583319690774
 20
256.0921348677814
 30
0.0
 42
0.00074978179
  0
VERTEX
  5
D2CE
  8
AM_0
 10
147.64165969077359
 20
255.49093486778119
 30
0.0
 42
0.00074288888
  0
VERTEX
  5
D2CF
  8
AM_0
 10
147.7018096907737
 20
254.8899148677811
 30
0.0
 42
0.00072503679
  0
VERTEX
  5
D2D0
  8
AM_0
 10
147.76371969077371
 20
254.2891748677811
 30
0.0
 42
0.00074640584
  0
VERTEX
  5
D2D1
  8
AM_0
 10
147.82738969077371
 20
253.68857486778131
 30
0.0
  0
SEQEND
  5
D2D2
  8
AM_0
  0
POLYLINE
  5
D2D3
  8
AM_0
 66
     1
 10
0.0
 20
0.0
 30
0.0
  0
VERTEX
  5
D2D4
  8
AM_0
 10
148.16295969077379
 20
250.76510486778139
 30
0.0
 42
0.0006890001
  0
VERTEX
  5
D2D5
  8
AM_0
 10
148.23383969077361
 20
250.1903548677812
 30
0.0
 42
0.00070644651
  0
VERTEX
  5
D2D6
  8
AM_0
 10
148.3063396907738
 20
249.61567486778119
 30
0.0
 42
0.0006924559
  0
VERTEX
  5
D2D7
  8
AM_0
 10
148.38042969077381
 20
249.04135486778131
 30
0.0
 42
0.00069587797
  0
VERTEX
  5
D2D8
  8
AM_0
 10
148.4561096907737
 20
248.46721486778131
 30
0.0
 42
0.00071687041
  0
VERTEX
  5
D2D9
  8
AM_0
 10
148.5334196907736
 20
247.8932148677811
 30
0.0
 42
0.00069759113
  0
VERTEX
  5
D2DA
  8
AM_0
 10
148.6123596907737
 20
247.31942486778129
 30
0.0
 42
0.00071003142
  0
VERTEX
  5
D2DB
  8
AM_0
 10
148.6928996907738
 20
246.74595486778111
 30
0.0
 42
0.00069954544
  0
VERTEX
  5
D2DC
  8
AM_0
 10
148.77503969077381
 20
246.1728548677813
 30
0.0
 42
0.0007188852
  0
VERTEX
  5
D2DD
  8
AM_0
 10
148.85881969077369
 20
245.59982486778119
 30
0.0
 42
0.00071266165
  0
VERTEX
  5
D2DE
  8
AM_0
 10
148.9442496907738
 20
245.02706486778121
 30
0.0
 42
0.00071614577
  0
VERTEX
  5
D2DF
  8
AM_0
 10
149.03127969077369
 20
244.45471486778129
 30
0.0
 42
0.00072290806
  0
VERTEX
  5
D2E0
  8
AM_0
 10
149.11998969077371
 20
243.88241486778131
 30
0.0
  0
SEQEND
  5
D2E1
  8
AM_0
  0
POLYLINE
  5
D2E2
  8
AM_0
 66
     1
 10
0.0
 20
0.0
 30
0.0
  0
VERTEX
  5
D2E3
  8
AM_0
 10
146.66204969077381
 20
277.24814486778132
 30
0.0
 42
-0.00039106653
  0
VERTEX
  5
D2E4
  8
AM_0
 10
146.65968969077369
 20
277.55927486778131
 30
0.0
 42
-0.00040574511
  0
VERTEX
  5
D2E5
  8
AM_0
 10
146.65781969077369
 20
277.8703848677813
 30
0.0
 42
-0.00035346331
  0
VERTEX
  5
D2E6
  8
AM_0
 10
146.65642969077379
 20
278.18149486778128
 30
0.0
 42
-0.00034406545
  0
VERTEX
  5
D2E7
  8
AM_0
 10
146.65544969077371
 20
278.49263486778148
 30
0.0
 42
-0.00045699059
  0
VERTEX
  5
D2E8
  8
AM_0
 10
146.65498969077379
 20
278.8037348677812
 30
0.0
 42
-0.00035573431
  0
VERTEX
  5
D2E9
  8
AM_0
 10
146.6550296907738
 20
279.11483486778133
 30
0.0
 42
-0.00038545888
  0
VERTEX
  5
D2EA
  8
AM_0
 10
146.6555196907737
 20
279.42597486778118
 30
0.0
 42
-0.00035501203
  0
VERTEX
  5
D2EB
  8
AM_0
 10
146.65647969077369
 20
279.73708486778128
 30
0.0
 42
-0.00040120778
  0
VERTEX
  5
D2EC
  8
AM_0
 10
146.65789969077369
 20
280.0483148677813
 30
0.0
 42
-0.00038317821
  0
VERTEX
  5
D2ED
  8
AM_0
 10
146.65980969077381
 20
280.35944486778129
 30
0.0
 42
-0.00040741862
  0
VERTEX
  5
D2EE
  8
AM_0
 10
146.66220969077381
 20
280.67067486778132
 30
0.0
 42
-0.00035783324
  0
VERTEX
  5
D2EF
  8
AM_0
 10
146.6650996907737
 20
280.98178486778141
 30
0.0
  0
SEQEND
  5
D2F0
  8
AM_0
  0
POLYLINE
  5
D2F1
  8
AM_0
 66
     1
 10
0.0
 20
0.0
 30
0.0
  0
VERTEX
  5
D2F2
  8
AM_0
 10
146.7061096907737
 20
283.51852486778131
 30
0.0
 42
-0.00076691987
  0
VERTEX
  5
D2F3
  8
AM_0
 10
146.72090969077371
 20
284.1362848677814
 30
0.0
 42
-0.00073262795
  0
VERTEX
  5
D2F4
  8
AM_0
 10
146.7375496907739
 20
284.75388486778121
 30
0.0
 42
-0.0007652954
  0
VERTEX
  5
D2F5
  8
AM_0
 10
146.75603969077369
 20
285.3715548677813
 30
0.0
 42
-0.00077334627
  0
VERTEX
  5
D2F6
  8
AM_0
 10
146.7764496907738
 20
285.98915486778128
 30
0.0
 42
-0.00073282897
  0
VERTEX
  5
D2F7
  8
AM_0
 10
146.79870969077371
 20
286.60657486778121
 30
0.0
 42
-0.0007571179
  0
VERTEX
  5
D2F8
  8
AM_0
 10
146.8228096907736
 20
287.22409486778128
 30
0.0
 42
-0.00073783152
  0
VERTEX
  5
D2F9
  8
AM_0
 10
146.84874969077379
 20
287.84148486778122
 30
0.0
 42
-0.0007835518
  0
VERTEX
  5
D2FA
  8
AM_0
 10
146.87657969077381
 20
288.45875486778141
 30
0.0
 42
-0.00074826133
  0
VERTEX
  5
D2FB
  8
AM_0
 10
146.9063096907737
 20
289.0761448677813
 30
0.0
 42
-0.00074893555
  0
VERTEX
  5
D2FC
  8
AM_0
 10
146.93786969077371
 20
289.69327486778133
 30
0.0
 42
-0.00076039841
  0
VERTEX
  5
D2FD
  8
AM_0
 10
146.9712896907738
 20
290.31030486778133
 30
0.0
 42
-0.00075618789
  0
VERTEX
  5
D2FE
  8
AM_0
 10
147.00658969077369
 20
290.92733486778121
 30
0.0
  0
SEQEND
  5
D2FF
  8
AM_0
  0
POLYLINE
  5
D300
  8
AM_0
 66
     1
 10
0.0
 20
0.0
 30
0.0
  0
VERTEX
  5
D301
  8
AM_0
 10
147.18029969077369
 20
293.58871486778139
 30
0.0
 42
-0.0007337051
  0
VERTEX
  5
D302
  8
AM_0
 10
147.22443969077401
 20
294.19112486778118
 30
0.0
 42
-0.00075211323
  0
VERTEX
  5
D303
  8
AM_0
 10
147.27037969077369
 20
294.7935248677814
 30
0.0
 42
-0.0007297491
  0
VERTEX
  5
D304
  8
AM_0
 10
147.3181096907737
 20
295.39572486778133
 30
0.0
 42
-0.00073593041
  0
VERTEX
  5
D305
  8
AM_0
 10
147.36758969077371
 20
295.99771486778133
 30
0.0
 42
-0.00074742739
  0
VERTEX
  5
D306
  8
AM_0
 10
147.41885969077379
 20
296.5995748677812
 30
0.0
 42
-0.00073217363
  0
VERTEX
  5
D307
  8
AM_0
 10
147.4719196907738
 20
297.20138486778143
 30
0.0
 42
-0.00073754168
  0
VERTEX
  5
D308
  8
AM_0
 10
147.5267396907737
 20
297.80292486778131
 30
0.0
 42
-0.00073075073
  0
VERTEX
  5
D309
  8
AM_0
 10
147.583319690774
 20
298.40427486778128
 30
0.0
 42
-0.00074550816
  0
VERTEX
  5
D30A
  8
AM_0
 10
147.64165969077359
 20
299.00534486778128
 30
0.0
 42
-0.00074288416
  0
VERTEX
  5
D30B
  8
AM_0
 10
147.7018096907737
 20
299.60636486778139
 30
0.0
 42
-0.00072504001
  0
VERTEX
  5
D30C
  8
AM_0
 10
147.76371969077371
 20
300.20710486778131
 30
0.0
 42
-0.00074640667
  0
VERTEX
  5
D30D
  8
AM_0
 10
147.82738969077371
 20
300.8077148677811
 30
0.0
  0
SEQEND
  5
D30E
  8
AM_0
  0
POLYLINE
  5
D30F
  8
AM_0
 66
     1
 10
0.0
 20
0.0
 30
0.0
  0
VERTEX
  5
D310
  8
AM_0
 10
148.16295969077379
 20
303.73117486778148
 30
0.0
 42
-0.00068898283
  0
VERTEX
  5
D311
  8
AM_0
 10
148.23383969077361
 20
304.30592486778141
 30
0.0
 42
-0.00070644357
  0
VERTEX
  5
D312
  8
AM_0
 10
148.3063396907738
 20
304.88061486778128
 30
0.0
 42
-0.00069248074
  0
VERTEX
  5
D313
  8
AM_0
 10
148.38042969077381
 20
305.4549248677813
 30
0.0
 42
-0.0006958566
  0
VERTEX
  5
D314
  8
AM_0
 10
148.4561096907737
 20
306.02906486778141
 30
0.0
 42
-0.00071687219
  0
VERTEX
  5
D315
  8
AM_0
 10
148.5334196907736
 20
306.60306486778131
 30
0.0
 42
-0.00069760022
  0
VERTEX
  5
D316
  8
AM_0
 10
148.6123596907737
 20
307.17685486778129
 30
0.0
 42
-0.00071002302
  0
VERTEX
  5
D317
  8
AM_0
 10
148.6928996907738
 20
307.75032486778127
 30
0.0
 42
-0.00069954889
  0
VERTEX
  5
D318
  8
AM_0
 10
148.77503969077381
 20
308.32342486778128
 30
0.0
 42
-0.00071887947
  0
VERTEX
  5
D319
  8
AM_0
 10
148.85881969077369
 20
308.89645486778147
 30
0.0
 42
-0.00071266929
  0
VERTEX
  5
D31A
  8
AM_0
 10
148.9442496907738
 20
309.46922486778112
 30
0.0
 42
-0.00071614429
  0
VERTEX
  5
D31B
  8
AM_0
 10
149.03127969077369
 20
310.04156486778101
 30
0.0
 42
-0.00072288978
  0
VERTEX
  5
D31C
  8
AM_0
 10
149.11998969077371
 20
310.61386486778127
 30
0.0
  0
SEQEND
  5
D31D
  8
AM_0
  0
LINE
  5
D31E
  8
AM_0
 10
136.8020596907738
 20
330.24814486778138
 30
0.0
 11
136.8020596907736
 21
224.24814486778141
 31
0.0
  0
LINE
  5
D31F
  8
AM_0
 10
136.8020596907736
 20
224.24814486778141
 30
0.0
 11
144.30205969077369
 21
224.24814486778141
 31
0.0
  0
LINE
  5
D320
  8
AM_0
 10
137.0020696907736
 20
234.05820486778151
 30
0.0
 11
143.23204969077369
 21
234.05820486778151
 31
0.0
  0
LINE
  5
D321
  8
AM_0
 10
137.0020696907736
 20
320.43808486778141
 30
0.0
 11
143.23204969077369
 21
320.43808486778141
 31
0.0
  0
LINE
  5
D322
  8
AM_0
 10
136.8020596907738
 20
330.24814486778138
 30
0.0
 11
144.3020596907738
 21
330.24814486778138
 31
0.0
  0
LINE
  5
D323
  8
AM_0
 10
128.8020596907746
 20
225.18674135900949
 30
0.0
 11
128.80205969077431
 21
262.90902827376681
 31
0.0
  0
LINE
  5
D324
  8
AM_0
 10
119.8020596907738
 20
223.2481448677816
 30
0.0
 11
119.8020596907738
 21
331.24814486778149
 31
0.0
  0
LINE
  5
D325
  8
AM_0
 10
119.8020596907738
 20
223.24814486778141
 30
0.0
 11
136.80205969077369
 21
224.24814486778141
 31
0.0
  0
LINE
  5
D326
  8
AM_0
 10
119.8020596907738
 20
331.24814486778138
 30
0.0
 11
136.80205969077369
 21
330.24814486778138
 31
0.0
  0
LINE
  5
D327
  8
AM_0
 10
128.80205969077451
 20
233.65424166969001
 30
0.0
 11
136.80205969077369
 21
233.65424166969009
 31
0.0
  0
LINE
  5
D328
  8
AM_0
 10
128.8020596907746
 20
225.18674135900949
 30
0.0
 11
136.80205969077369
 21
225.18674135900949
 31
0.0
  0
LINE
  5
D329
  8
AM_0
 10
125.3020596907745
 20
242.6072719025214
 30
0.0
 11
128.80205969077451
 21
242.6072719025214
 31
0.0
  0
LINE
  5
D32A
  8
AM_0
 10
125.3020596907745
 20
234.1072719025214
 30
0.0
 11
128.8020596907746
 21
234.1072719025214
 31
0.0
  0
LINE
  5
D32B
  8
AM_0
 10
124.8020596907745
 20
234.60727190252129
 30
0.0
 11
124.8020596907745
 21
242.1072719025214
 31
0.0
  0
ARC
  5
D32C
  8
AM_0
 10
125.3020596907745
 20
234.60727190252129
 30
0.0
 40
0.5
 50
180.0
 51
270.0
  0
ARC
  5
D32D
  8
AM_0
 10
125.3020596907745
 20
242.1072719025214
 30
0.0
 40
0.5
 50
90.0
 51
180.0
  0
LINE
  5
D32E
  8
AM_0
 10
119.8020596907738
 20
234.9759503746414
 30
0.0
 11
124.8020596907745
 21
234.9759503746412
 31
0.0
  0
LINE
  5
D32F
  8
AM_0
 10
119.8020596907738
 20
244.71103287293721
 30
0.0
 11
128.8020596907744
 21
244.71103287293741
 31
0.0
  0
LINE
  5
D330
  8
AM_0
 10
128.8020596907746
 20
329.30954837655361
 30
0.0
 11
128.80205969077431
 21
291.58726146180078
 31
0.0
  0
LINE
  5
D331
  8
AM_0
 10
128.80205969077451
 20
320.84204806587297
 30
0.0
 11
136.80205969077369
 21
320.84204806587297
 31
0.0
  0
LINE
  5
D332
  8
AM_0
 10
128.8020596907746
 20
329.30954837655361
 30
0.0
 11
136.80205969077369
 21
329.30954837655361
 31
0.0
  0
LINE
  5
D333
  8
AM_0
 10
125.3020596907745
 20
311.88901783304169
 30
0.0
 11
128.80205969077451
 21
311.88901783304169
 31
0.0
  0
LINE
  5
D334
  8
AM_0
 10
125.3020596907745
 20
320.38901783304169
 30
0.0
 11
128.8020596907746
 21
320.38901783304169
 31
0.0
  0
LINE
  5
D335
  8
AM_0
 10
124.8020596907745
 20
319.88901783304158
 30
0.0
 11
124.8020596907745
 21
312.38901783304158
 31
0.0
  0
ARC
  5
D336
  8
AM_0
 10
125.3020596907745
 20
319.88901783304152
 30
0.0
 40
0.5
 50
90.0
 51
180.0
  0
ARC
  5
D337
  8
AM_0
 10
125.3020596907745
 20
312.38901783304152
 30
0.0
 40
0.5
 50
180.0
 51
270.0
  0
LINE
  5
D338
  8
AM_0
 10
119.8020596907738
 20
319.5203393609217
 30
0.0
 11
124.8020596907745
 21
319.5203393609217
 31
0.0
  0
LINE
  5
D339
  8
AM_0
 10
119.8020596907738
 20
309.78525686262572
 30
0.0
 11
128.8020596907744
 21
309.78525686262572
 31
0.0
  0
LINE
  5
D33A
  8
AM_0
 10
113.8020596907737
 20
331.24814486778172
 30
0.0
 11
113.8020596907737
 21
223.24814486778141
 31
0.0
  0
LINE
  5
D33B
  8
AM_0
 10
119.8020596907738
 20
223.24814486778141
 30
0.0
 11
113.8020596907737
 21
223.24814486778141
 31
0.0
  0
LINE
  5
D33C
  8
AM_0
 10
113.8020596907737
 20
331.24814486778172
 30
0.0
 11
119.8020596907736
 21
331.24814486778172
 31
0.0
  0
LINE
  5
D33D
  8
AM_0
 10
112.8020596907737
 20
273.44814486778148
 30
0.0
 11
112.8020596907737
 21
281.04814486778139
 31
0.0
  0
LINE
  5
D33E
  8
AM_0
 10
112.8020596907737
 20
281.04814486778139
 30
0.0
 11
113.8020596907737
 21
281.04814486778139
 31
0.0
  0
LINE
  5
D33F
  8
AM_0
 10
113.8020596907737
 20
277.44814486778148
 30
0.0
 11
112.8020596907737
 21
277.8121151020477
 31
0.0
  0
LINE
  5
D340
  8
AM_0
 10
113.8020596907737
 20
277.04814486778139
 30
0.0
 11
112.8020596907737
 21
277.41211510204778
 31
0.0
  0
LINE
  5
D341
  8
AM_0
 10
113.8020596907737
 20
273.44814486778148
 30
0.0
 11
112.8020596907737
 21
273.44814486778148
 31
0.0
  0
LINE
  5
D342
  8
AM_0
 10
111.74312217864561
 20
281.15549984008811
 30
0.0
 11
112.8020596907737
 21
281.24814486778138
 31
0.0
  0
LINE
  5
D343
  8
AM_0
 10
111.74312217864561
 20
273.34078989547498
 30
0.0
 11
112.8020596907737
 21
273.24814486778138
 31
0.0
  0
ARC
  5
D344
  8
AM_0
 10
116.20205969077369
 20
277.24814486778138
 30
0.0
 40
6.5
 50
151.82726586813479
 51
208.1727341318651
  0
ARC
  5
D345
  8
AM_0
 10
111.8825713670423
 20
274.93470141242182
 30
0.0
 40
1.6000000000000001
 50
208.1727341318651
 51
265.00000000000028
  0
ARC
  5
D346
  8
AM_0
 10
111.8825713670423
 20
279.56158832314111
 30
0.0
 40
1.6000000000000001
 50
94.999999999999716
 51
151.82726586813479
  0
LINE
  5
D347
  8
AM_0
 10
112.8020596907737
 20
273.24814486778138
 30
0.0
 11
112.8020596907737
 21
281.24814486778138
 31
0.0
  0
LINE
  5
D348
  8
AM_0
 10
136.80205969077369
 20
262.90902827376681
 30
0.0
 11
128.8020596907744
 21
262.90902827376681
 31
0.0
  0
LINE
  5
D349
  8
AM_0
 10
136.8020596907736
 20
291.58726146180078
 30
0.0
 11
128.8020596907742
 21
291.58726146180078
 31
0.0
  0
LINE
  5
D34A
  8
AM_0
 10
99.302059690773277
 20
243.2481448677826
 30
0.0
 11
99.302059690773277
 21
232.2481448677816
 31
0.0
  0
LINE
  5
D34B
  8
AM_0
 10
113.80205969077321
 20
232.2481448677816
 30
0.0
 11
99.302059690773277
 21
232.2481448677816
 31
0.0
  0
LINE
  5
D34C
  8
AM_0
 10
87.302059690773703
 20
237.24814486778249
 30
0.0
 11
87.30205969077349
 21
234.2481448677826
 31
0.0
  0
LINE
  5
D34D
  8
AM_0
 10
87.30205969077349
 20
234.2481448677826
 30
0.0
 11
99.302059690773277
 21
234.2481448677826
 31
0.0
  0
LINE
  5
D34E
  8
AM_0
 10
87.302059690773262
 20
235.2481448677826
 30
0.0
 11
87.302059690773262
 21
237.42581327392921
 31
0.0
  0
LINE
  5
D34F
  8
AM_0
 10
81.802059690773248
 20
237.2481448677826
 30
0.0
 11
82.702059690773339
 21
237.2481448677826
 31
0.0
  0
LINE
  5
D350
  8
AM_0
 10
81.602059690772975
 20
240.24814486778271
 30
0.0
 11
81.602059690772975
 21
237.2481448677826
 31
0.0
  0
LINE
  5
D351
  8
AM_0
 10
82.702059690773339
 20
236.97579313319901
 30
0.0
 11
82.702059690773339
 21
240.52049660236639
 31
0.0
  0
LINE
  5
D352
  8
AM_0
 10
81.302059690773262
 20
239.9481448677827
 30
0.0
 11
82.702059690771549
 21
239.9481448677827
 31
0.0
  0
LINE
  5
D353
  8
AM_0
 10
86.702059690773339
 20
236.36657500737559
 30
0.0
 11
86.702059690773339
 21
235.2481448677826
 31
0.0
  0
LINE
  5
D354
  8
AM_0
 10
86.702059690773339
 20
237.2481448677826
 30
0.0
 11
86.702059690773339
 21
237.14814486778269
 31
0.0
  0
LINE
  5
D355
  8
AM_0
 10
86.702059690773339
 20
237.14814486778269
 30
0.0
 11
86.702059690773339
 21
236.36657500737559
 31
0.0
  0
LINE
  5
D356
  8
AM_0
 10
86.702059690773339
 20
237.2481448677826
 30
0.0
 11
86.702059690773339
 21
237.14814486778269
 31
0.0
  0
LINE
  5
D357
  8
AM_0
 10
86.702059690773339
 20
237.63190754411229
 30
0.0
 11
86.702059690773339
 21
236.36657500737559
 31
0.0
  0
LINE
  5
D358
  8
AM_0
 10
86.702059690773339
 20
235.2481448677826
 30
0.0
 11
87.302059690773262
 21
235.2481448677826
 31
0.0
  0
LINE
  5
D359
  8
AM_0
 10
84.002059690773535
 20
236.36657500737559
 30
0.0
 11
84.002059690773535
 21
239.7981061997757
 31
0.0
  0
LINE
  5
D35A
  8
AM_0
 10
83.841015461515894
 20
236.07988337903251
 30
0.0
 11
82.908462412008817
 21
236.6182931331991
 31
0.0
  0
LINE
  5
D35B
  8
AM_0
 10
84.274511282803928
 20
235.5727183872398
 30
0.0
 11
86.42960809874296
 21
235.5727183872398
 31
0.0
  0
LINE
  5
D35C
  8
AM_0
 10
84.274511282803928
 20
237.1604316275112
 30
0.0
 11
86.42960809874296
 21
237.1604316275114
 31
0.0
  0
LINE
  5
D35D
  8
AM_0
 10
82.702059690772003
 20
240.24814486778271
 30
0.0
 11
81.602059690772975
 21
240.24814486778271
 31
0.0
  0
LINE
  5
D35E
  8
AM_0
 10
81.602059690772975
 20
240.24814486778271
 30
0.0
 11
81.302059690773262
 21
239.9481448677827
 31
0.0
  0
LINE
  5
D35F
  8
AM_0
 10
81.302059690773262
 20
239.9481448677827
 30
0.0
 11
81.302059690773262
 21
237.5481448677827
 31
0.0
  0
LINE
  5
D360
  8
AM_0
 10
81.602059690772975
 20
237.2481448677826
 30
0.0
 11
82.702059690771549
 21
237.2481448677826
 31
0.0
  0
LINE
  5
D361
  8
AM_0
 10
81.302059690773262
 20
237.5481448677827
 30
0.0
 11
81.602059690772975
 21
237.2481448677826
 31
0.0
  0
LINE
  5
D362
  8
AM_0
 10
82.702059690771549
 20
237.5481448677827
 30
0.0
 11
81.302059690773262
 21
237.5481448677827
 31
0.0
  0
ARC
  5
D363
  8
AM_0
 10
85.409282874746765
 20
236.36657500737559
 30
0.0
 40
1.292776816026465
 50
322.11555894629771
 51
0.0
  0
ARC
  5
D364
  8
AM_0
 10
88.764489566833106
 20
238.74814486778271
 30
0.0
 40
4.762429876059711
 50
168.45024695876941
 51
199.47424000541329
  0
ARC
  5
D365
  8
AM_0
 10
85.294836506799967
 20
236.36657500737559
 30
0.0
 40
1.292776816026554
 50
142.1155589462976
 51
217.88444105370229
  0
ARC
  5
D366
  8
AM_0
 10
81.939629814713882
 20
238.74814486778271
 30
0.0
 40
4.762429876059584
 50
340.52575999458668
 51
347.08714779821958
  0
ARC
  5
D367
  8
AM_0
 10
85.409282874746765
 20
236.36657500737559
 30
0.0
 40
1.292776816026501
 50
0.0
 51
37.884441053702282
  0
ARC
  5
D368
  8
AM_0
 10
83.114865133243853
 20
236.97579313319909
 30
0.0
 40
0.4128054424705855
 50
180.0
 51
239.99999999999949
  0
ARC
  5
D369
  8
AM_0
 10
83.42821001904548
 20
235.36488337903259
 30
0.0
 40
0.8256108849411369
 50
28.217424594175291
 51
59.999999999999439
  0
LINE
  5
D36A
  8
AM_0
 10
82.917152223296512
 20
240.88301366725261
 30
0.0
 11
82.908462412008817
 21
240.87799660236649
 31
0.0
  0
ARC
  5
D36B
  8
AM_0
 10
83.114865133244095
 20
240.52049660236651
 30
0.0
 40
0.4128054424705855
 50
119.9999999999916
 51
179.99999999999341
  0
CIRCLE
  5
D36C
  8
AM_0
 10
85.302021022767491
 20
277.24814486778178
 30
0.0
 40
5.5
  0
LINE
  5
D36D
  8
AM_0
 10
79.802021022767448
 20
274.07271838723881
 30
0.0
 11
85.302021022767903
 21
270.89729190669573
 31
0.0
  0
LINE
  5
D36E
  8
AM_0
 10
85.302021022767903
 20
270.89729190669573
 30
0.0
 11
90.802021022767434
 21
274.07271838723898
 31
0.0
  0
LINE
  5
D36F
  8
AM_0
 10
90.802021022767434
 20
274.07271838723898
 30
0.0
 11
90.802021022767434
 21
280.42357134832469
 31
0.0
  0
LINE
  5
D370
  8
AM_0
 10
90.802021022767434
 20
280.42357134832469
 30
0.0
 11
85.30202102276742
 21
283.59899782886771
 31
0.0
  0
LINE
  5
D371
  8
AM_0
 10
85.30202102276742
 20
283.59899782886771
 30
0.0
 11
79.802021022767448
 21
280.42357134832429
 31
0.0
  0
LINE
  5
D372
  8
AM_0
 10
79.802021022767448
 20
280.42357134832429
 30
0.0
 11
79.802021022767448
 21
274.07271838723881
 31
0.0
  0
CIRCLE
  5
D373
  8
AM_0
 10
85.302021022767491
 20
277.24814486778178
 30
0.0
 40
6.4999856554771771
  0
LINE
  5
D374
  8
AM_0
 10
96.367313253138605
 20
243.24814486778249
 30
0.0
 11
99.302059690773277
 21
243.24814486778249
 31
0.0
  0
LINE
  5
D375
  8
AM_0
 10
97.321481804926506
 20
241.74814486778249
 30
0.0
 11
99.302059690773277
 21
241.74814486778249
 31
0.0
  0
LINE
  5
D376
  8
AM_0
 10
88.623088834632298
 20
237.24814486778249
 30
0.0
 11
99.302059690773277
 21
237.24814486778249
 31
0.0
  0
ARC
  5
D377
  8
AM_0
 10
88.623088834632142
 20
242.24814486778249
 30
0.0
 40
5.0
 50
225.0
 51
270.0
1001
GENIUS_GENODEF_13
1002
{
1000
HIER
1070
     0
1002
}
1002
{
1000
MANEDIT
1070
     0
1002
}
1002
{
1000
NOSEL
1070
     0
1002
}
1002
{
1000
BEHIND
1070
     0
1002
}
1002
{
1000
OTHER
1070
     0
1002
}
1002
{
1000
REACTOR
1002
}
1001
GENIUS_GENOBJ-N-FIL_13
1002
{
1000
OWNER
1000
GEN
1002
}
  0
LINE
  5
D378
  8
AM_0
 10
97.321481804926293
 20
237.24814486778249
 30
0.0
 11
97.321481804926506
 21
241.74814486778249
 31
0.0
  0
LINE
  5
D379
  8
AM_0
 10
83.802021022767448
 20
270.92360428988928
 30
0.0
 11
83.802021022767676
 21
250.03617001407309
 31
0.0
  0
LINE
  5
D37A
  8
AM_0
 10
86.802021022767434
 20
270.92360428988928
 30
0.0
 11
86.802021022767434
 21
250.03617001407309
 31
0.0
  0
LINE
  5
D37B
  8
AM_0
 10
81.55202102276742
 20
271.93897228427988
 30
0.0
 11
81.55202102276742
 21
244.31921267964719
 31
0.0
  0
ARC
  5
D37C
  8
AM_0
 10
86.552021022767505
 20
244.31921267964719
 30
0.0
 40
5.0
 50
180.0
 51
225.0
1001
GENIUS_GENOBJ-N-FIL_13
1002
{
1000
OWNER
1000
GEN
1002
}
1001
GENIUS_GENODEF_13
1002
{
1000
HIER
1070
     0
1002
}
1002
{
1000
MANEDIT
1070
     0
1002
}
1002
{
1000
NOSEL
1070
     0
1002
}
1002
{
1000
BEHIND
1070
     0
1002
}
1002
{
1000
OTHER
1070
     0
1002
}
1002
{
1000
REACTOR
1002
}
  0
LINE
  5
D37D
  8
AM_0
 10
89.052021022767434
 20
271.93897228427988
 30
0.0
 11
89.052021022767434
 21
247.7790632110341
 31
0.0
  0
ARC
  5
D37E
  8
AM_0
 10
94.052021022767505
 20
256.20366323710709
 30
0.0
 40
5.0
 50
180.0
 51
212.46094411514611
1001
GENIUS_GENODEF_13
1002
{
1000
HIER
1070
     0
1002
}
1002
{
1000
MANEDIT
1070
     0
1002
}
1002
{
1000
NOSEL
1070
     0
1002
}
1002
{
1000
BEHIND
1070
     0
1002
}
1002
{
1000
OTHER
1070
     0
1002
}
1002
{
1000
REACTOR
1002
}
1001
GENIUS_GENOBJ-N-FIL_13
1002
{
1000
OWNER
1000
GEN
1002
}
  0
ARC
  5
D37F
  8
AM_0
 10
94.052021022767505
 20
247.7790632110341
 30
0.0
 40
5.0
 50
180.0
 51
224.2123722808945
1001
GENIUS_GENOBJ-N-FIL_13
1002
{
1000
OWNER
1000
GEN
1002
}
1001
GENIUS_GENODEF_13
1002
{
1000
HIER
1070
     0
1002
}
1002
{
1000
MANEDIT
1070
     0
1002
}
1002
{
1000
NOSEL
1070
     0
1002
}
1002
{
1000
BEHIND
1070
     0
1002
}
1002
{
1000
OTHER
1070
     0
1002
}
1002
{
1000
REACTOR
1002
}
  0
LINE
  5
D380
  8
AM_0
 10
97.321481804926293
 20
241.74814486778249
 30
0.0
 11
89.833233512000447
 21
253.52004032414141
 31
0.0
  0
LINE
  5
D381
  8
AM_0
 10
97.321481804926293
 20
237.24814486778249
 30
0.0
 11
90.468220786916035
 21
244.29246374027309
 31
0.0
  0
LINE
  5
D382
  8
AM_0
 10
83.016487116834824
 20
240.7836787737144
 30
0.0
 11
85.087554928699419
 21
238.71261096184989
 31
0.0
  0
ARC
  5
D383
  8
AM_0
 10
85.302021022767491
 20
250.03617001407309
 30
0.0
 40
1.5
 50
180.0
 51
0.0
  0
LINE
  5
D384
  8
AM_0
 10
99.302059690773717
 20
311.24814486778081
 30
0.0
 11
99.302059690774215
 21
322.24814486778189
 31
0.0
  0
LINE
  5
D385
  8
AM_0
 10
113.8020596907741
 20
322.24814486778149
 30
0.0
 11
99.302059690774215
 21
322.24814486778189
 31
0.0
  0
LINE
  5
D386
  8
AM_0
 10
87.302059690774399
 20
317.24814486778121
 30
0.0
 11
87.302059690774399
 21
320.24814486778109
 31
0.0
  0
LINE
  5
D387
  8
AM_0
 10
87.302059690774399
 20
320.24814486778109
 30
0.0
 11
99.302059690774215
 21
320.24814486778092
 31
0.0
  0
LINE
  5
D388
  8
AM_0
 10
87.302059690774186
 20
319.24814486778098
 30
0.0
 11
87.302059690774186
 21
317.07047646163448
 31
0.0
  0
LINE
  5
D389
  8
AM_0
 10
81.802059690774186
 20
317.24814486778121
 30
0.0
 11
82.702059690774263
 21
317.24814486778121
 31
0.0
  0
LINE
  5
D38A
  8
AM_0
 10
81.602059690773928
 20
314.24814486778121
 30
0.0
 11
81.602059690773928
 21
317.24814486778121
 31
0.0
  0
LINE
  5
D38B
  8
AM_0
 10
82.702059690774263
 20
317.5204966023648
 30
0.0
 11
82.702059690774263
 21
313.97579313319739
 31
0.0
  0
LINE
  5
D38C
  8
AM_0
 10
81.302059690774186
 20
314.5481448677811
 30
0.0
 11
82.702059690774036
 21
314.5481448677811
 31
0.0
  0
LINE
  5
D38D
  8
AM_0
 10
86.702059690774277
 20
318.12971472818828
 30
0.0
 11
86.702059690774277
 21
319.24814486778121
 31
0.0
  0
LINE
  5
D38E
  8
AM_0
 10
86.702059690774277
 20
317.24814486778121
 30
0.0
 11
86.702059690774277
 21
317.348144867781
 31
0.0
  0
LINE
  5
D38F
  8
AM_0
 10
86.702059690774277
 20
317.348144867781
 30
0.0
 11
86.702059690774277
 21
318.12971472818828
 31
0.0
  0
LINE
  5
D390
  8
AM_0
 10
86.702059690774277
 20
317.24814486778121
 30
0.0
 11
86.702059690774277
 21
317.348144867781
 31
0.0
  0
LINE
  5
D391
  8
AM_0
 10
86.702059690774277
 20
316.8643821914514
 30
0.0
 11
86.702059690774277
 21
318.12971472818828
 31
0.0
  0
LINE
  5
D392
  8
AM_0
 10
86.702059690774277
 20
319.24814486778121
 30
0.0
 11
87.302059690774186
 21
319.24814486778098
 31
0.0
  0
LINE
  5
D393
  8
AM_0
 10
84.002059690774445
 20
318.12971472818828
 30
0.0
 11
84.002059690774203
 21
314.6981835357879
 31
0.0
  0
LINE
  5
D394
  8
AM_0
 10
83.841015461516804
 20
318.4164063565313
 30
0.0
 11
82.90846241200974
 21
317.87799660236459
 31
0.0
  0
LINE
  5
D395
  8
AM_0
 10
84.274511282804838
 20
318.923571348324
 30
0.0
 11
86.429608098743856
 21
318.923571348324
 31
0.0
  0
LINE
  5
D396
  8
AM_0
 10
84.274511282804838
 20
317.33585810805249
 30
0.0
 11
86.429608098743856
 21
317.33585810805238
 31
0.0
  0
LINE
  5
D397
  8
AM_0
 10
82.702059690774263
 20
314.24814486778121
 30
0.0
 11
81.602059690773928
 21
314.24814486778121
 31
0.0
  0
LINE
  5
D398
  8
AM_0
 10
81.602059690773928
 20
314.24814486778121
 30
0.0
 11
81.302059690774186
 21
314.5481448677811
 31
0.0
  0
LINE
  5
D399
  8
AM_0
 10
81.302059690774186
 20
314.5481448677811
 30
0.0
 11
81.302059690774186
 21
316.9481448677812
 31
0.0
  0
LINE
  5
D39A
  8
AM_0
 10
81.602059690773928
 20
317.24814486778121
 30
0.0
 11
82.702059690774263
 21
317.24814486778121
 31
0.0
  0
LINE
  5
D39B
  8
AM_0
 10
81.302059690774186
 20
316.9481448677812
 30
0.0
 11
81.602059690773928
 21
317.24814486778121
 31
0.0
  0
LINE
  5
D39C
  8
AM_0
 10
82.702059690774263
 20
316.9481448677812
 30
0.0
 11
81.302059690774186
 21
316.9481448677812
 31
0.0
  0
ARC
  5
D39D
  8
AM_0
 10
85.409282874747703
 20
318.12971472818828
 30
0.0
 40
1.292776816026465
 50
0.0
 51
37.884441053702282
  0
ARC
  5
D39E
  8
AM_0
 10
88.764489566833817
 20
315.74814486778098
 30
0.0
 40
4.762429876059711
 50
160.52575999458671
 51
191.54975304123039
  0
ARC
  5
D39F
  8
AM_0
 10
85.294836506800905
 20
318.12971472818828
 30
0.0
 40
1.292776816026554
 50
142.1155589462976
 51
217.88444105370229
  0
ARC
  5
D3A0
  8
AM_0
 10
81.939629814714564
 20
315.74814486778109
 30
0.0
 40
4.762429876059584
 50
12.912852201780369
 51
19.474240005413272
  0
ARC
  5
D3A1
  8
AM_0
 10
85.409282874747703
 20
318.12971472818828
 30
0.0
 40
1.292776816026501
 50
322.11555894629771
 51
0.0
  0
ARC
  5
D3A2
  8
AM_0
 10
83.114865133244805
 20
317.52049660236469
 30
0.0
 40
0.4128054424705855
 50
120.0000000000005
 51
180.0
  0
ARC
  5
D3A3
  8
AM_0
 10
83.428210019046148
 20
319.1314063565311
 30
0.0
 40
0.8256108849411369
 50
300.00000000000051
 51
331.78257540582467
  0
LINE
  5
D3A4
  8
AM_0
 10
82.917152223297421
 20
313.61327606831111
 30
0.0
 11
82.90846241200974
 21
313.61829313319731
 31
0.0
  0
ARC
  5
D3A5
  8
AM_0
 10
83.114865133244805
 20
313.97579313319733
 30
0.0
 40
0.4128054424705855
 50
180.00000000000659
 51
240.00000000000841
  0
LINE
  5
D3A6
  8
AM_0
 10
96.367313253139514
 20
311.24814486778098
 30
0.0
 11
99.302059690773717
 21
311.24814486778081
 31
0.0
  0
LINE
  5
D3A7
  8
AM_0
 10
97.321481804927217
 20
312.74814486778098
 30
0.0
 11
99.302059690773945
 21
312.74814486778092
 31
0.0
  0
LINE
  5
D3A8
  8
AM_0
 10
88.623088834633222
 20
317.24814486778121
 30
0.0
 11
99.302059690773945
 21
317.24814486778092
 31
0.0
  0
ARC
  5
D3A9
  8
AM_0
 10
88.62308883463281
 20
312.24814486778109
 30
0.0
 40
5.0
 50
90.0
 51
135.0
1001
GENIUS_GENODEF_13
1002
{
1000
HIER
1070
     0
1002
}
1002
{
1000
MANEDIT
1070
     0
1002
}
1002
{
1000
NOSEL
1070
     0
1002
}
1002
{
1000
BEHIND
1070
     0
1002
}
1002
{
1000
OTHER
1070
     0
1002
}
1002
{
1000
REACTOR
1002
}
1001
GENIUS_GENOBJ-N-FIL_13
1002
{
1000
OWNER
1000
GEN
1002
}
  0
LINE
  5
D3AA
  8
AM_0
 10
97.321481804927217
 20
317.24814486778098
 30
0.0
 11
97.321481804927217
 21
312.74814486778098
 31
0.0
  0
LINE
  5
D3AB
  8
AM_0
 10
83.802021022767903
 20
283.57268544567461
 30
0.0
 11
83.802021022768386
 21
304.46011972149063
 31
0.0
  0
LINE
  5
D3AC
  8
AM_0
 10
86.80202102276769
 20
283.57268544567438
 30
0.0
 11
86.802021022768386
 21
304.46011972149063
 31
0.0
  0
LINE
  5
D3AD
  8
AM_0
 10
81.552021022767903
 20
282.55731745128401
 30
0.0
 11
81.552021022768344
 21
310.17707705591658
 31
0.0
  0
ARC
  5
D3AE
  8
AM_0
 10
86.552021022768187
 20
310.17707705591653
 30
0.0
 40
5.0
 50
135.0
 51
180.0
1001
GENIUS_GENOBJ-N-FIL_13
1002
{
1000
OWNER
1000
GEN
1002
}
1001
GENIUS_GENODEF_13
1002
{
1000
HIER
1070
     0
1002
}
1002
{
1000
MANEDIT
1070
     0
1002
}
1002
{
1000
NOSEL
1070
     0
1002
}
1002
{
1000
BEHIND
1070
     0
1002
}
1002
{
1000
OTHER
1070
     0
1002
}
1002
{
1000
REACTOR
1002
}
  0
LINE
  5
D3AF
  8
AM_0
 10
89.052021022767903
 20
282.55731745128378
 30
0.0
 11
89.052021022768344
 21
306.71722652452962
 31
0.0
  0
ARC
  5
D3B0
  8
AM_0
 10
94.052021022767946
 20
298.2926264984564
 30
0.0
 40
5.0
 50
147.53905588485381
 51
180.0
1001
GENIUS_GENODEF_13
1002
{
1000
HIER
1070
     0
1002
}
1002
{
1000
MANEDIT
1070
     0
1002
}
1002
{
1000
NOSEL
1070
     0
1002
}
1002
{
1000
BEHIND
1070
     0
1002
}
1002
{
1000
OTHER
1070
     0
1002
}
1002
{
1000
REACTOR
1002
}
1001
GENIUS_GENOBJ-N-FIL_13
1002
{
1000
OWNER
1000
GEN
1002
}
  0
ARC
  5
D3B1
  8
AM_0
 10
94.052021022768216
 20
306.71722652452939
 30
0.0
 40
5.0
 50
135.7876277191055
 51
180.0
1001
GENIUS_GENOBJ-N-FIL_13
1002
{
1000
OWNER
1000
GEN
1002
}
1001
GENIUS_GENODEF_13
1002
{
1000
HIER
1070
     0
1002
}
1002
{
1000
MANEDIT
1070
     0
1002
}
1002
{
1000
NOSEL
1070
     0
1002
}
1002
{
1000
BEHIND
1070
     0
1002
}
1002
{
1000
OTHER
1070
     0
1002
}
1002
{
1000
REACTOR
1002
}
  0
LINE
  5
D3B2
  8
AM_0
 10
97.321481804926933
 20
312.74814486778098
 30
0.0
 11
89.833233512000888
 21
300.97624941142232
 31
0.0
  0
LINE
  5
D3B3
  8
AM_0
 10
97.321481804927217
 20
317.24814486778098
 30
0.0
 11
90.468220786916945
 21
310.20382599529052
 31
0.0
  0
LINE
  5
D3B4
  8
AM_0
 10
83.016487116835464
 20
313.71261096184941
 30
0.0
 11
85.087554928700357
 21
315.78367877371397
 31
0.0
  0
ARC
  5
D3B5
  8
AM_0
 10
85.302021022768187
 20
304.46011972149063
 30
0.0
 40
1.5
 50
0.0
 51
180.0
  0
ARC
  5
D3B6
  8
AM_0
 10
130.75285787762891
 20
206.24814486778149
 30
0.0
 40
20.0
 50
209.07393874564249
 51
249.9723572882591
1001
GENIUS_GENODEF_13
1002
{
1000
HIER
1070
     0
1002
}
1002
{
1000
MANEDIT
1070
     0
1002
}
1002
{
1000
NOSEL
1070
     0
1002
}
1002
{
1000
BEHIND
1070
     0
1002
}
1002
{
1000
OTHER
1070
     0
1002
}
1002
{
1000
REACTOR
1002
}
1001
GENIUS_GENOBJ-N-FIL_13
1002
{
1000
OWNER
1000
GEN
1002
}
  0
ARC
  5
D3B7
  8
AM_0
 10
131.34103410627449
 20
207.24814486778149
 30
0.0
 40
15.0
 50
209.07393874564249
 51
240.27464366407139
1001
GENIUS_GENODEF_13
1002
{
1000
HIER
1070
     0
1002
}
1002
{
1000
MANEDIT
1070
     0
1002
}
1002
{
1000
NOSEL
1070
     0
1002
}
1002
{
1000
BEHIND
1070
     0
1002
}
1002
{
1000
OTHER
1070
     0
1002
}
1002
{
1000
REACTOR
1002
}
1001
GENIUS_GENOBJ-N-FIL_13
1002
{
1000
OWNER
1000
GEN
1002
}
  0
LINE
  5
D3B8
  8
AM_0
 10
113.272990986214
 20
196.52938705320329
 30
0.0
 11
92.301465599676135
 21
234.2481448677826
 31
0.0
  0
LINE
  5
D3B9
  8
AM_0
 10
118.2311339377133
 20
199.95907650684811
 30
0.0
 11
100.27850092239071
 21
232.2481448677816
 31
0.0
  0
LINE
  5
D410
  8
AM_0
 10
522.1130204859669
 20
280.4481448677812
 30
0.0
 11
508.38619333921253
 21
280.4481448677812
 31
0.0
  0
LINE
  5
D411
  8
AM_0
 10
522.1130204859669
 20
274.04814486778128
 30
0.0
 11
508.38619333921253
 21
274.04814486778128
 31
0.0
  0
LINE
  5
D412
  8
AM_0
 10
531.0699424241318
 20
273.24814486778132
 30
0.0
 11
531.0699424241318
 21
281.24814486778132
 31
0.0
  0
LINE
  5
D413
  8
AM_0
 10
550.41717951920634
 20
281.24814486778132
 30
0.0
 11
531.0699424241318
 21
281.24814486778132
 31
0.0
  0
LINE
  5
D414
  8
AM_0
 10
531.0699424241318
 20
281.24814486778132
 30
0.0
 11
522.1130204859669
 21
283.64814486778118
 31
0.0
  0
LINE
  5
D415
  8
AM_0
 10
522.1130204859669
 20
283.64814486778118
 30
0.0
 11
508.38619333921253
 21
283.64814486778118
 31
0.0
  0
LINE
  5
D416
  8
AM_0
 10
508.38619333921253
 20
270.84814486778129
 30
0.0
 11
522.1130204859669
 21
270.84814486778129
 31
0.0
  0
LINE
  5
D417
  8
AM_0
 10
522.1130204859669
 20
270.84814486778129
 30
0.0
 11
531.0699424241318
 21
273.24814486778132
 31
0.0
  0
LINE
  5
D418
  8
AM_0
 10
531.0699424241318
 20
273.24814486778132
 30
0.0
 11
550.41717951920555
 21
273.24814486778132
 31
0.0
  0
ARC
  5
D419
  8
AM_0
 10
516.06994242413202
 20
277.24814486778132
 30
0.0
 40
9.9999999999999964
 50
140.20818050044471
 51
180.0
  0
ARC
  5
D41A
  8
AM_0
 10
521.67427179166077
 20
272.4481448677812
 30
0.0
 40
1.659066127903009
 50
285.33458427584839
 51
74.665415724151615
  0
ARC
  5
D41B
  8
AM_0
 10
518.52295389702215
 20
277.24814486778132
 30
0.0
 40
4.809218035507941
 50
318.28783710514318
 51
41.712162894856888
  0
ARC
  5
D41C
  8
AM_0
 10
521.67454966530704
 20
282.04814486778139
 30
0.0
 40
1.658992664411161
 50
285.32532916095039
 51
74.674670839043259
  0
ARC
  5
D41D
  8
AM_0
 10
518.60117423409554
 20
277.24814486778132
 30
0.0
 40
10.704477319459491
 50
162.60603189126641
 51
197.3939681087333
  0
ARC
  5
D41E
  8
AM_0
 10
510.75595873568687
 20
272.4481448677812
 30
0.0
 40
2.8593334947723461
 50
145.97386776511971
 51
214.02613223488021
  0
ARC
  5
D41F
  8
AM_0
 10
510.75289181428423
 20
282.04814486778139
 30
0.0
 40
2.856792199637066
 50
145.9394484817108
 51
214.06055151828909
  0
ARC
  5
D420
  8
AM_0
 10
516.06994242413202
 20
277.24814486778132
 30
0.0
 40
10.0
 50
180.0
 51
219.79181949955529
  0
CIRCLE
  5
DD0D
  8
AM_0
 10
151.80205969077369
 20
231.24814486778121
 30
0.0
 40
3.0
  0
LINE
  5
DF81
  8
AM_0
 10
430.58019589865609
 20
459.81757126960503
 30
0.0
 11
279.02390032919533
 21
459.81757126960503
 31
0.0
  0
LINE
  5
DF82
  8
AM_0
 10
278.15118079128649
 20
549.81757395181432
 30
0.0
 11
431.45294317981882
 21
549.81757395181432
 31
0.0
  0
LINE
  5
DF83
  8
AM_0
 10
431.80206428033108
 20
529.81757356438402
 30
0.0
 11
277.80205969077389
 21
529.81757356438402
 31
0.0
  0
LINE
  5
DF84
  8
ﾁｭｳｼﾝｾﾝ
 10
71.67424178656735
 20
504.8176085311693
 30
0.0
 11
436.80206428033142
 21
504.81756508159418
 31
0.0
1001
GENIUS_GENODEF_13
1002
{
1000
HIER
1070
     0
1002
}
1002
{
1000
MANEDIT
1070
     0
1002
}
1002
{
1000
NOSEL
1070
     0
1002
}
1002
{
1000
BEHIND
1070
     0
1002
}
1002
{
1000
REACTOR
1002
}
1001
GENIUS_GENOBJ-N-CEN_13
1002
{
1000
OWNER
1000
GEN
1002
}
  0
LINE
  5
DF85
  8
AM_0
 10
277.80205969077389
 20
529.81757356438402
 30
0.0
 11
279.02390032919533
 21
459.81757126960503
 31
0.0
  0
LINE
  5
DF86
  8
ｶｸﾚｾﾝ2
 10
292.80206013780861
 20
459.81757126960503
 30
0.0
 11
292.80206013780861
 21
549.81757395181432
 31
0.0
  0
LINE
  5
DF87
  8
ｶｸﾚｾﾝ2
 10
283.80205986958771
 20
459.81757126960503
 30
0.0
 11
283.80205986958771
 21
549.81757395181432
 31
0.0
  0
LINE
  5
DF88
  8
ﾁｭｳｼﾝｾﾝ
 10
288.30206000369822
 20
456.8175712696048
 30
0.0
 11
288.30206000369822
 21
552.8175739518141
 31
0.0
  0
LINE
  5
DF89
  8
AM_0
 10
268.93963686628842
 20
449.28550005275872
 30
0.0
 11
268.93965212440293
 21
560.34967782523472
 31
0.0
  0
LINE
  5
DF8A
  8
AM_0
 10
260.30205969077372
 20
448.81757853116932
 30
0.0
 11
260.30205969077372
 21
560.81759953116887
 31
0.0
  0
LINE
  5
DF8B
  8
AM_0
 10
269.62369235100778
 20
559.16488510407021
 30
0.0
 11
273.62536063422442
 21
529.47027749148288
 31
0.0
1001
GENIUS_GENODEF_13
1002
{
1000
HIER
1070
     0
1002
}
1002
{
1000
MANEDIT
1070
     0
1002
}
1002
{
1000
NOSEL
1070
     0
1002
}
1002
{
1000
BEHIND
1070
     0
1002
}
1002
{
1000
REACTOR
1002
}
1001
GENIUS_GENOBJ-N-CEN_13
1002
{
1000
OWNER
1000
GEN
1002
}
  0
LINE
  5
DF8C
  8
AM_0
 10
260.30205969077372
 20
560.81758903116918
 30
0.0
 11
267.65407679518279
 21
560.81758903116918
 31
0.0
  0
ARC
  5
DF8D
  8
AM_0
 10
267.65407679518279
 20
558.81758903116929
 30
0.0
 40
2.0
 50
9.9999917840739627
 51
90.0
1001
GENIUS_GENOBJ-N-CEN_13
1002
{
1000
OWNER
1000
GEN
1002
}
1001
GENIUS_GENODEF_13
1002
{
1000
HIER
1070
     0
1002
}
1002
{
1000
MANEDIT
1070
     0
1002
}
1002
{
1000
NOSEL
1070
     0
1002
}
1002
{
1000
BEHIND
1070
     0
1002
}
1002
{
1000
OTHER
1070
     0
1002
}
1002
{
1000
REACTOR
1002
}
1001
GENIUS_GENOBJ-N-FIL_13
1002
{
1000
OWNER
1000
GEN
1002
}
  0
LINE
  5
DF8E
  8
AM_0
 10
260.30205969077372
 20
536.75504653116923
 30
0.0
 11
268.93964888325172
 21
536.75726152632672
 31
0.0
  0
LINE
  5
DF8F
  8
AM_0
 10
260.30205969077372
 20
550.81761453116928
 30
0.0
 11
268.93965081487528
 21
550.8175953884097
 31
0.0
  0
LINE
  5
DF90
  8
AM_0
 10
278.15118079128649
 20
549.81757395181432
 30
0.0
 11
277.80205969077389
 21
529.81757356438402
 31
0.0
  0
LINE
  5
DF91
  8
AM_0
 10
276.81936223189803
 20
527.81757356438402
 30
0.0
 11
275.59497619004941
 21
527.81757356438402
 31
0.0
  0
ARC
  5
DF92
  8
AM_0
 10
275.59497619004941
 20
529.81757356438402
 30
0.0
 40
2.0
 50
189.9999917840739
 51
270.0
1001
GENIUS_GENOBJ-N-CEN_13
1002
{
1000
OWNER
1000
GEN
1002
}
1001
GENIUS_GENOBJ-N-FIL_13
1002
{
1000
OWNER
1000
GEN
1002
}
1001
GENIUS_GENODEF_13
1002
{
1000
HIER
1070
     0
1002
}
1002
{
1000
MANEDIT
1070
     0
1002
}
1002
{
1000
NOSEL
1070
     0
1002
}
1002
{
1000
BEHIND
1070
     0
1002
}
1002
{
1000
OTHER
1070
     0
1002
}
1002
{
1000
REACTOR
1002
}
  0
ARC
  5
DF93
  8
AM_0
 10
276.81936223189803
 20
528.81757356438391
 30
0.0
 40
1.0
 50
270.0
 51
0.9999885880236628
1001
GENIUS_GENOBJ-N-FIL_13
1002
{
1000
OWNER
1000
GEN
1002
}
1001
GENIUS_GENODEF_13
1002
{
1000
HIER
1070
     0
1002
}
1002
{
1000
MANEDIT
1070
     0
1002
}
1002
{
1000
NOSEL
1070
     0
1002
}
1002
{
1000
BEHIND
1070
     0
1002
}
1002
{
1000
OTHER
1070
     0
1002
}
1002
{
1000
REACTOR
1002
}
  0
LINE
  5
DF94
  8
AM_0
 10
269.62367721298608
 20
450.4702923934023
 30
0.0
 11
271.33309387599053
 21
460.16486790737179
 31
0.0
1001
GENIUS_GENODEF_13
1002
{
1000
HIER
1070
     0
1002
}
1002
{
1000
MANEDIT
1070
     0
1002
}
1002
{
1000
NOSEL
1070
     0
1002
}
1002
{
1000
BEHIND
1070
     0
1002
}
1002
{
1000
REACTOR
1002
}
1001
GENIUS_GENOBJ-N-CEN_13
1002
{
1000
OWNER
1000
GEN
1002
}
  0
LINE
  5
DF95
  8
AM_0
 10
260.30205969077372
 20
472.87763903116928
 30
0.0
 11
268.9396401074016
 21
472.87763903116928
 31
0.0
  0
LINE
  5
DF96
  8
AM_0
 10
260.30205969077372
 20
458.81758903116929
 30
0.0
 11
268.93963817581698
 21
458.81758903116912
 31
0.0
  0
LINE
  5
DF97
  8
AM_0
 10
277.02359568006182
 20
461.8175712696052
 30
0.0
 11
273.30270933221419
 21
461.8175712696052
 31
0.0
  0
ARC
  5
DF98
  8
AM_0
 10
273.30270933221419
 20
459.81757126960503
 30
0.0
 40
2.0
 50
90.0
 51
169.99999178406969
1001
GENIUS_GENOBJ-N-CEN_13
1002
{
1000
OWNER
1000
GEN
1002
}
1001
GENIUS_GENODEF_13
1002
{
1000
HIER
1070
     0
1002
}
1002
{
1000
MANEDIT
1070
     0
1002
}
1002
{
1000
NOSEL
1070
     0
1002
}
1002
{
1000
BEHIND
1070
     0
1002
}
1002
{
1000
OTHER
1070
     0
1002
}
1002
{
1000
REACTOR
1002
}
1001
GENIUS_GENOBJ-N-FIL_13
1002
{
1000
OWNER
1000
GEN
1002
}
  0
LINE
  5
DF9A
  8
AM_0
 10
260.30205969077372
 20
448.81758903116912
 30
0.0
 11
267.65406175676242
 21
448.81758903116912
 31
0.0
  0
ARC
  5
DF9B
  8
AM_0
 10
267.65406175676242
 20
450.81758903116929
 30
0.0
 40
2.0
 50
270.0
 51
349.99999178406972
1001
GENIUS_GENOBJ-N-CEN_13
1002
{
1000
OWNER
1000
GEN
1002
}
1001
GENIUS_GENOBJ-N-FIL_13
1002
{
1000
OWNER
1000
GEN
1002
}
1001
GENIUS_GENODEF_13
1002
{
1000
HIER
1070
     0
1002
}
1002
{
1000
MANEDIT
1070
     0
1002
}
1002
{
1000
NOSEL
1070
     0
1002
}
1002
{
1000
BEHIND
1070
     0
1002
}
1002
{
1000
OTHER
1070
     0
1002
}
1002
{
1000
REACTOR
1002
}
  0
LINE
  5
DF9C
  8
ﾁｭｳｼﾝｾﾝ
 10
374.30206256669783
 20
441.8175721781048
 30
0.0
 11
374.30206256669783
 21
567.81757533715074
 31
0.0
  0
LINE
  5
DF9D
  8
AM_0
 10
431.80206428033108
 20
529.81757356438402
 30
0.0
 11
430.58019589865609
 21
459.81757126960503
 31
0.0
  0
LINE
  5
DF9E
  8
ｶｸﾚｾﾝ2
 10
416.80206383329659
 20
459.81757126960503
 30
0.0
 11
416.80206383329659
 21
549.81757395181432
 31
0.0
  0
LINE
  5
DF9F
  8
ｶｸﾚｾﾝ2
 10
425.80206410151749
 20
459.81757126960503
 30
0.0
 11
425.80206410151749
 21
549.81757395181432
 31
0.0
  0
LINE
  5
DFA0
  8
ﾁｭｳｼﾝｾﾝ
 10
421.30206396740709
 20
456.8175712696048
 30
0.0
 11
421.30206396740709
 21
552.8175739518141
 31
0.0
  0
LINE
  5
DFA1
  8
AM_0
 10
431.45294317981882
 20
549.81757395181432
 30
0.0
 11
431.80206428033108
 21
529.81757356438402
 31
0.0
  0
LINE
  5
DFA2
  8
AM_0
 10
354.30206197065138
 20
455.81757115039602
 30
0.0
 11
354.30206197065161
 21
454.81757261070948
 31
0.0
  0
LINE
  5
DFA3
  8
AM_0
 10
394.30206316274422
 20
455.81757115039602
 30
0.0
 11
394.30206316274422
 21
454.81757261070948
 31
0.0
  0
LINE
  5
DFA4
  8
AM_0
 10
336.80206144911079
 20
549.81757395181432
 30
0.0
 11
336.80206144911079
 21
553.8175740710235
 31
0.0
  0
LINE
  5
DFA5
  8
AM_0
 10
411.8020636842848
 20
549.81757395181432
 30
0.0
 11
411.8020636842848
 21
553.8175740710235
 31
0.0
  0
LINE
  5
DFA6
  8
AM_0
 10
336.80206144911079
 20
455.81757115039602
 30
0.0
 11
411.8020636842848
 21
455.81757115039602
 31
0.0
  0
LINE
  5
DFA7
  8
AM_0
 10
411.8020636842848
 20
459.81757126960503
 30
0.0
 11
411.8020636842848
 21
455.81757115039602
 31
0.0
  0
LINE
  5
DFA8
  8
AM_0
 10
336.80206144911079
 20
459.81757126960503
 30
0.0
 11
336.80206144911079
 21
455.81757115039602
 31
0.0
  0
LINE
  5
DFA9
  8
AM_0
 10
336.80206144911079
 20
553.8175740710235
 30
0.0
 11
411.8020636842848
 21
553.8175740710235
 31
0.0
  0
LINE
  5
DFAA
  8
AM_0
 10
394.30206316274422
 20
553.8175740710235
 30
0.0
 11
394.30206316274422
 21
554.81757261070948
 31
0.0
  0
LINE
  5
DFAB
  8
AM_0
 10
392.30206256669783
 20
447.3175726107097
 30
0.0
 11
392.80206256669783
 21
447.8175726107097
 31
0.0
1001
GENIUS_GENFIL_13
1070
     0
1040
0.5
1040
0.5
1040
20.0
1040
0.0
1002
{
1002
}
1001
GENIUS_GENODEF_13
1002
{
1000
HIER
1070
     0
1002
}
1002
{
1000
MANEDIT
1070
     0
1002
}
1002
{
1000
NOSEL
1070
     0
1002
}
1002
{
1000
BEHIND
1070
     0
1002
}
1002
{
1000
OTHER
1070
     0
1002
}
1002
{
1000
REACTOR
1002
}
1001
GENIUS_GENOBJ-N-CHA_13
1002
{
1000
OWNER
1000
GEN
1002
}
  0
LINE
  5
DFAC
  8
AM_0
 10
356.30206256669783
 20
447.3175726107097
 30
0.0
 11
355.80206256669783
 21
447.8175726107097
 31
0.0
1001
GENIUS_GENFIL_13
1070
     0
1040
0.5
1040
0.5
1040
20.0
1040
0.0
1002
{
1002
}
1001
GENIUS_GENOBJ-N-CHA_13
1002
{
1000
OWNER
1000
GEN
1002
}
1001
GENIUS_GENODEF_13
1002
{
1000
HIER
1070
     0
1002
}
1002
{
1000
MANEDIT
1070
     0
1002
}
1002
{
1000
NOSEL
1070
     0
1002
}
1002
{
1000
BEHIND
1070
     0
1002
}
1002
{
1000
OTHER
1070
     0
1002
}
1002
{
1000
REACTOR
1002
}
  0
LINE
  5
DFAD
  8
AM_0
 10
337.80206256669771
 20
448.8175726107097
 30
0.0
 11
337.80206256669783
 21
454.81757261070948
 31
0.0
  0
LINE
  5
DFAE
  8
AM_0
 10
410.80206256669771
 20
454.81757261070948
 30
0.0
 11
337.80206256669783
 21
454.81757261070948
 31
0.0
  0
LINE
  5
DFAF
  8
AM_0
 10
409.8020625666976
 20
447.8175726107097
 30
0.0
 11
338.8020625666976
 21
447.8175726107097
 31
0.0
  0
LINE
  5
DFB0
  8
AM_0
 10
337.80206256669771
 20
448.8175726107097
 30
0.0
 11
338.8020625666976
 21
447.8175726107097
 31
0.0
1001
GENIUS_GENFIL_13
1070
     0
1040
1.0
1040
1.0
1040
20.0
1040
0.0
1002
{
1002
}
1001
GENIUS_GENODEF_13
1002
{
1000
HIER
1070
     0
1002
}
1002
{
1000
MANEDIT
1070
     0
1002
}
1002
{
1000
NOSEL
1070
     0
1002
}
1002
{
1000
BEHIND
1070
     0
1002
}
1002
{
1000
OTHER
1070
     0
1002
}
1002
{
1000
REACTOR
1002
}
1001
GENIUS_GENOBJ-N-CHA_13
1002
{
1000
OWNER
1000
GEN
1002
}
  0
LINE
  5
DFB1
  8
AM_0
 10
392.30206256669783
 20
447.3175726107097
 30
0.0
 11
356.30206256669783
 21
447.3175726107097
 31
0.0
  0
LINE
  5
DFB2
  8
AM_0
 10
410.80206256669771
 20
448.8175726107097
 30
0.0
 11
410.80206256669771
 21
454.81757261070948
 31
0.0
  0
LINE
  5
DFB3
  8
AM_0
 10
409.8020625666976
 20
447.8175726107097
 30
0.0
 11
410.80206256669771
 21
448.8175726107097
 31
0.0
1001
GENIUS_GENFIL_13
1070
     0
1040
1.0
1040
1.0
1040
20.0
1040
0.0
1002
{
1002
}
1001
GENIUS_GENOBJ-N-CHA_13
1002
{
1000
OWNER
1000
GEN
1002
}
1001
GENIUS_GENODEF_13
1002
{
1000
HIER
1070
     0
1002
}
1002
{
1000
MANEDIT
1070
     0
1002
}
1002
{
1000
NOSEL
1070
     0
1002
}
1002
{
1000
BEHIND
1070
     0
1002
}
1002
{
1000
OTHER
1070
     0
1002
}
1002
{
1000
REACTOR
1002
}
  0
LINE
  5
DFB4
  8
AM_0
 10
337.80206256669783
 20
560.8175726107097
 30
0.0
 11
337.80206256669783
 21
554.81757261070948
 31
0.0
  0
LINE
  5
DFB5
  8
AM_0
 10
410.80206256669771
 20
554.81757261070948
 30
0.0
 11
337.80206256669783
 21
554.81757261070948
 31
0.0
  0
LINE
  5
DFB6
  8
AM_0
 10
409.8020625666976
 20
561.81757261070914
 30
0.0
 11
338.80206256669783
 21
561.8175726107097
 31
0.0
  0
LINE
  5
DFB7
  8
AM_0
 10
337.80206256669783
 20
560.8175726107097
 30
0.0
 11
338.80206256669783
 21
561.8175726107097
 31
0.0
1001
GENIUS_GENFIL_13
1070
     0
1040
1.0
1040
1.0
1040
20.0
1040
0.0
1002
{
1002
}
1001
GENIUS_GENOBJ-N-CHA_13
1002
{
1000
OWNER
1000
GEN
1002
}
1001
GENIUS_GENODEF_13
1002
{
1000
HIER
1070
     0
1002
}
1002
{
1000
MANEDIT
1070
     0
1002
}
1002
{
1000
NOSEL
1070
     0
1002
}
1002
{
1000
BEHIND
1070
     0
1002
}
1002
{
1000
OTHER
1070
     0
1002
}
1002
{
1000
REACTOR
1002
}
  0
LINE
  5
DFB8
  8
AM_0
 10
392.30206256669783
 20
562.31757261070959
 30
0.0
 11
356.30206256669783
 21
562.31757261070959
 31
0.0
  0
LINE
  5
DFB9
  8
AM_0
 10
392.80206256669783
 20
561.8175726107097
 30
0.0
 11
392.30206256669783
 21
562.31757261070959
 31
0.0
1001
GENIUS_GENFIL_13
1070
     0
1040
0.5
1040
0.5
1040
20.0
1040
0.0
1002
{
1002
}
1001
GENIUS_GENOBJ-N-CHA_13
1002
{
1000
OWNER
1000
GEN
1002
}
1001
GENIUS_GENODEF_13
1002
{
1000
HIER
1070
     0
1002
}
1002
{
1000
MANEDIT
1070
     0
1002
}
1002
{
1000
NOSEL
1070
     0
1002
}
1002
{
1000
BEHIND
1070
     0
1002
}
1002
{
1000
OTHER
1070
     0
1002
}
1002
{
1000
REACTOR
1002
}
  0
LINE
  5
DFBA
  8
AM_0
 10
410.80206256669771
 20
560.81757261070914
 30
0.0
 11
410.80206256669771
 21
554.81757261070948
 31
0.0
  0
LINE
  5
DFBB
  8
AM_0
 10
409.8020625666976
 20
561.81757261070914
 30
0.0
 11
410.80206256669771
 21
560.81757261070914
 31
0.0
1001
GENIUS_GENFIL_13
1070
     0
1040
1.0
1040
1.0
1040
20.0
1040
0.0
1002
{
1002
}
1001
GENIUS_GENOBJ-N-CHA_13
1002
{
1000
OWNER
1000
GEN
1002
}
1001
GENIUS_GENODEF_13
1002
{
1000
HIER
1070
     0
1002
}
1002
{
1000
MANEDIT
1070
     0
1002
}
1002
{
1000
NOSEL
1070
     0
1002
}
1002
{
1000
BEHIND
1070
     0
1002
}
1002
{
1000
OTHER
1070
     0
1002
}
1002
{
1000
REACTOR
1002
}
  0
LINE
  5
E30F
  8
AM_0
 10
149.62697690708569
 20
468.09765033259629
 30
0.0
 11
144.3020896907737
 21
456.72262689493232
 31
0.0
  0
LINE
  5
E310
  8
AM_0
 10
250.50209969077369
 20
465.4826068949323
 30
0.0
 11
246.35210969077369
 21
450.0226168949323
 31
0.0
  0
LINE
  5
E311
  8
AM_0
 10
252.30208969077361
 20
448.81762689493212
 30
0.0
 11
252.30208969077361
 21
560.81763089493234
 31
0.0
  0
LINE
  5
E312
  8
AM_0
 10
144.3020896907737
 20
451.82261689493242
 30
0.0
 11
144.3020896907737
 21
554.26261489493231
 31
0.0
  0
LINE
  5
E313
  8
AM_0
 10
147.5020996907736
 20
448.53262689493209
 30
0.0
 11
244.42205969077369
 21
448.53262689493209
 31
0.0
  0
LINE
  5
E314
  8
AM_0
 10
147.5920696907736
 20
442.93261689493232
 30
0.0
 11
181.3020896907737
 21
442.93261689493232
 31
0.0
  0
LINE
  5
E315
  8
AM_0
 10
147.57210969077369
 20
443.84262689493232
 30
0.0
 11
181.3020896907737
 21
443.84262689493232
 31
0.0
  0
LINE
  5
E316
  8
AM_0
 10
147.5520896907737
 20
445.69262689493212
 30
0.0
 11
181.3020896907737
 21
445.69262689493212
 31
0.0
  0
ARC
  5
E317
  8
AM_0
 10
147.55049969077359
 20
447.68576689493239
 30
0.0
 40
1.9931281000000001
 50
189.0388199999997
 51
270.04662699999949
  0
LINE
  5
E318
  8
AM_0
 10
144.3020896907737
 20
454.03264689493233
 30
0.0
 11
145.6120896907737
 21
444.6526368949323
 31
0.0
  0
LINE
  5
E319
  8
AM_0
 10
144.30214969077369
 20
454.03260689493231
 30
0.0
 11
145.5921296907737
 21
445.54261689493222
 31
0.0
  0
ARC
  5
E31A
  8
AM_0
 10
147.56478969077369
 20
445.83719689493228
 30
0.0
 40
1.994588
 50
188.49291000000221
 51
270.20924700000091
  0
ARC
  5
E31B
  8
AM_0
 10
147.5867596907737
 20
444.92610689493239
 30
0.0
 40
1.9934921000000001
 50
187.88526000000061
 51
270.15390899999858
  0
ARC
  5
E31C
  8
AM_0
 10
147.50496969077369
 20
450.5295268949323
 30
0.0
 40
1.996903999999998
 50
190.5874399999984
 51
269.91652600000037
  0
LINE
  5
E31D
  8
AM_0
 10
144.3020896907737
 20
455.3826168949322
 30
0.0
 11
145.58205969077369
 21
447.37262689493241
 31
0.0
  0
LINE
  5
E31E
  8
AM_0
 10
144.3020896907737
 20
456.722616894932
 30
0.0
 11
145.54207969077379
 21
450.16261689493211
 31
0.0
  0
ARC
  5
E31F
  8
AM_0
 10
181.3016596907737
 20
447.69304689493242
 30
0.0
 40
2.000407899999999
 50
270.01164999999889
 51
359.98835099999923
  0
LINE
  5
E320
  8
AM_0
 10
183.3020896907737
 20
444.93263689493199
 30
0.0
 11
183.3020896907737
 21
448.53262689493209
 31
0.0
  0
ARC
  5
E321
  8
AM_0
 10
181.30049969077371
 20
445.84417689493239
 30
0.0
 40
2.0015439999999991
 50
270.04421600000092
 51
359.95578600099918
  0
ARC
  5
E322
  8
AM_0
 10
181.30080969077369
 20
444.93391689493239
 30
0.0
 40
2.001287899999999
 50
270.03687399999882
 51
359.96312800100122
  0
LINE
  5
E323
  8
AM_0
 10
252.30208969077361
 20
448.81762689493212
 30
0.0
 11
260.30205969077372
 21
448.81762689493212
 31
0.0
  0
ARC
  5
E324
  8
AM_0
 10
244.41927969077369
 20
450.53122689493239
 30
0.0
 40
1.9986041000000001
 50
270.08048399999888
 51
345.25728400000048
  0
LINE
  5
E325
  8
AM_0
 10
246.8420696907736
 20
451.82261689493242
 30
0.0
 11
252.30208969077361
 21
451.82261689493242
 31
0.0
  0
LINE
  5
E326
  8
AM_0
 10
245.64208080351449
 20
468.81759662950918
 30
0.0
 11
146.66204080351761
 21
468.81762106454482
 31
0.0
  0
LINE
  5
E327
  8
AM_0
 10
245.6420812972512
 20
470.8175966295089
 30
0.0
 11
146.66204129725421
 21
470.81762106454482
 31
0.0
  0
LINE
  5
E328
  8
AM_0
 10
245.63488376593429
 20
480.81759663128622
 30
0.0
 11
146.6620437659374
 21
480.81762106454482
 31
0.0
  0
LINE
  5
E329
  8
AM_0
 10
145.98204062577969
 20
468.09765123241539
 30
0.0
 11
249.1220606257765
 21
468.09762577041232
 31
0.0
  0
LINE
  5
E32A
  8
AM_0
 10
145.7620738745446
 20
481.25756128671878
 30
0.0
 11
249.3362938745415
 21
481.2575357175254
 31
0.0
  0
LINE
  5
E32B
  8
AM_0
 10
145.7620731512377
 20
478.32763128671883
 30
0.0
 11
249.3477131512345
 21
478.32760571470618
 31
0.0
  0
LINE
  5
E32C
  8
AM_0
 10
245.6492232721977
 20
478.81759662774618
 30
0.0
 11
146.6620432722008
 21
478.81762106454482
 31
0.0
  0
LINE
  5
E32D
  8
AM_0
 10
145.9820414527837
 20
471.44763123241557
 30
0.0
 11
249.1220614527804
 21
471.44760577041239
 31
0.0
  0
LINE
  5
E32E
  8
AM_0
 10
145.63207565695859
 20
488.47766131881127
 30
0.0
 11
249.63065361335589
 21
488.47763564485751
 31
0.0
  0
LINE
  5
E32F
  8
AM_0
 10
145.63207631360609
 20
491.1375713188113
 30
0.0
 11
249.47912877159629
 21
491.13754568226432
 31
0.0
  0
LINE
  5
E330
  8
AM_0
 10
145.57207814290771
 20
498.54760133362311
 30
0.0
 11
249.6881773964115
 21
498.54757563065681
 31
0.0
  0
LINE
  5
E331
  8
AM_0
 10
145.57207876749189
 20
501.07763133362312
 30
0.0
 11
249.5248907434981
 21
501.0776056709671
 31
0.0
  0
LINE
  5
E332
  8
AM_0
 10
245.64542499671191
 20
500.81759662868433
 30
0.0
 11
146.66204870330361
 21
500.81762106454408
 31
0.0
  0
LINE
  5
E333
  8
AM_0
 10
245.64542450297529
 20
498.81759662868461
 30
0.0
 11
146.66204820956699
 21
498.81762106454391
 31
0.0
  0
LINE
  5
E334
  8
AM_0
 10
245.64542252802519
 20
490.81759662868478
 30
0.0
 11
146.6620462346205
 21
490.81762106454448
 31
0.0
  0
LINE
  5
E335
  8
AM_0
 10
245.6454220343133
 20
488.81759662868478
 30
0.0
 11
146.66204574088391
 21
488.81762106454448
 31
0.0
  0
LINE
  5
E336
  8
AM_0
 10
245.64542598420621
 20
520.81759498537235
 30
0.0
 11
146.66204969077381
 21
520.81759498537235
 31
0.0
  0
LINE
  5
E337
  8
AM_0
 10
245.6454259841814
 20
518.81759498537235
 30
0.0
 11
146.66204969077381
 21
518.81759498537235
 31
0.0
  0
LINE
  5
E338
  8
AM_0
 10
245.64542598418501
 20
510.81759498537218
 30
0.0
 11
146.66204969077381
 21
510.81759498537218
 31
0.0
  0
LINE
  5
E339
  8
AM_0
 10
245.64542598418501
 20
508.81759498537252
 30
0.0
 11
146.66204969077381
 21
508.81759498537252
 31
0.0
  0
LINE
  5
E33A
  8
AM_0
 10
145.57207969077371
 20
508.55758498537222
 30
0.0
 11
249.52489166678311
 21
508.55758498537222
 31
0.0
  0
LINE
  5
E33B
  8
AM_0
 10
145.57207969077371
 20
511.08761498537211
 30
0.0
 11
249.68817894428051
 21
511.08761498537211
 31
0.0
  0
LINE
  5
E33C
  8
AM_0
 10
145.63207969077371
 20
518.49764498537218
 30
0.0
 11
249.47913214876709
 21
518.49764498537218
 31
0.0
  0
LINE
  5
E33D
  8
AM_0
 10
145.63207969077371
 20
521.15755498537237
 30
0.0
 11
249.63065764717419
 21
521.15755498537237
 31
0.0
  0
LINE
  5
E33E
  8
AM_0
 10
145.98204969077369
 20
538.1875849853725
 30
0.0
 11
249.12206969077371
 21
538.18758498537215
 31
0.0
  0
LINE
  5
E33F
  8
AM_0
 10
245.64922969077381
 20
530.81759498537235
 30
0.0
 11
146.66204969077381
 21
530.81759498537235
 31
0.0
  0
LINE
  5
E340
  8
AM_0
 10
145.7620796907737
 20
531.30758498537261
 30
0.0
 11
249.34771969077369
 21
531.30758498537261
 31
0.0
  0
LINE
  5
E341
  8
AM_0
 10
145.7620796907737
 20
528.37765498537226
 30
0.0
 11
249.33629969077381
 21
528.37765498537226
 31
0.0
  0
LINE
  5
E342
  8
AM_0
 10
145.98204969077369
 20
541.5375649853728
 30
0.0
 11
249.12206969077371
 21
541.5375649853728
 31
0.0
  0
LINE
  5
E343
  8
AM_0
 10
245.63488969077369
 20
528.81759498537258
 30
0.0
 11
146.66204969077381
 21
528.81759498537258
 31
0.0
  0
LINE
  5
E344
  8
AM_0
 10
245.6420896907737
 20
538.81759498537235
 30
0.0
 11
146.66204969077381
 21
538.81759498537235
 31
0.0
  0
LINE
  5
E345
  8
AM_0
 10
245.6420896907737
 20
540.81759498537258
 30
0.0
 11
146.66204969077381
 21
540.81759498537258
 31
0.0
  0
LINE
  5
E346
  8
AM_0
 10
169.8020896907737
 20
466.59263689493241
 30
0.0
 11
252.30208969077361
 21
466.59263689493241
 31
0.0
  0
LINE
  5
E347
  8
AM_0
 10
169.8020896907737
 20
543.04262189493238
 30
0.0
 11
252.30208969077361
 21
543.04262189493238
 31
0.0
  0
LINE
  5
E348
  8
AM_0
 10
147.5020996907736
 20
561.10263389493196
 30
0.0
 11
244.42205969077369
 21
561.10263389493196
 31
0.0
  0
LINE
  5
E349
  8
AM_0
 10
149.6316370300575
 20
541.5375649853728
 30
0.0
 11
144.30202969077379
 21
552.91260189493232
 31
0.0
  0
POLYLINE
  5
E34A
  8
AM_0
 66
     1
 10
0.0
 20
0.0
 30
0.0
  0
VERTEX
  5
E34B
  8
AM_0
 10
146.662049690777
 20
504.8176210645438
 30
0.0
 42
0.00039106649
  0
VERTEX
  5
E34C
  8
AM_0
 10
146.65968961396879
 20
504.50649106512651
 30
0.0
 42
0.00035488198
  0
VERTEX
  5
E34D
  8
AM_0
 10
146.6577995371656
 20
504.19538106559321
 30
0.0
 42
0.00039706113
  0
VERTEX
  5
E34E
  8
AM_0
 10
146.65636946036241
 20
503.88427106594622
 30
0.0
 42
0.00038765718
  0
VERTEX
  5
E34F
  8
AM_0
 10
146.65543938355171
 20
503.57313106617562
 30
0.0
 42
0.00040613432
  0
VERTEX
  5
E350
  8
AM_0
 10
146.65498930675099
 20
503.26203106628708
 30
0.0
 42
0.00035573434
  0
VERTEX
  5
E351
  8
AM_0
 10
146.6550292299479
 20
502.95092106627692
 30
0.0
 42
0.00038545884
  0
VERTEX
  5
E352
  8
AM_0
 10
146.65551915313969
 20
502.63979106615602
 30
0.0
 42
0.00035501205
  0
VERTEX
  5
E353
  8
AM_0
 10
146.6564790763365
 20
502.32868106591911
 30
0.0
 42
0.00040120779
  0
VERTEX
  5
E354
  8
AM_0
 10
146.65789899950369
 20
502.0174510655682
 30
0.0
 42
0.00038317817
  0
VERTEX
  5
E355
  8
AM_0
 10
146.65980892269559
 20
501.7063210650968
 30
0.0
 42
0.00035656084
  0
VERTEX
  5
E356
  8
AM_0
 10
146.66218884586019
 20
501.3950810645095
 30
0.0
 42
0.00040143615
  0
VERTEX
  5
E357
  8
AM_0
 10
146.66503876905941
 20
501.08398106380582
 30
0.0
  0
SEQEND
  5
E358
  8
AM_0
  0
LINE
  5
E359
  8
AM_0
 10
169.80202969077379
 20
466.59262689493232
 30
0.0
 11
149.62459969077369
 21
468.09262689493232
 31
0.0
  0
ARC
  5
E35A
  8
AM_0
 10
145.76207351289241
 20
479.79260128671882
 30
0.0
 40
1.465004
 50
89.999985855485264
 51
269.99998285548429
  0
ARC
  5
E35B
  8
AM_0
 10
145.97466103926681
 20
469.77258123423729
 30
0.0
 40
1.6750160000000001
 50
89.746115855485471
 51
270.25384085548518
  0
ARC
  5
E35C
  8
AM_0
 10
146.84667105038579
 20
469.81762101896561
 30
0.0
 40
1.000013899999999
 50
89.691645855484865
 51
270.30832585548637
  0
ARC
  5
E35D
  8
AM_0
 10
146.84667351906899
 20
479.8176210189655
 30
0.0
 40
1.000013899999999
 50
89.691645855484865
 51
270.30832585548637
  0
POLYLINE
  5
E35E
  8
AM_0
 66
     1
 10
0.0
 20
0.0
 30
0.0
  0
VERTEX
  5
E35F
  8
AM_0
 10
148.16295315295591
 20
478.33459069401761
 30
0.0
 42
0.00068898288
  0
VERTEX
  5
E360
  8
AM_0
 10
148.23383301106821
 20
477.75984067651939
 30
0.0
 42
0.00070644354
  0
VERTEX
  5
E361
  8
AM_0
 10
148.3063328691955
 20
477.18515065862169
 30
0.0
 42
0.00069248071
  0
VERTEX
  5
E362
  8
AM_0
 10
148.38042272741649
 20
476.61084064033111
 30
0.0
 42
0.00069585665
  0
VERTEX
  5
E363
  8
AM_0
 10
148.45610258567959
 20
476.03670062164821
 30
0.0
 42
0.00068980191
  0
VERTEX
  5
E364
  8
AM_0
 10
148.53340244397711
 20
475.46270060256529
 30
0.0
 42
0.00072080104
  0
VERTEX
  5
E365
  8
AM_0
 10
148.61229230232661
 20
474.8889105830898
 30
0.0
 42
0.00071002307
  0
VERTEX
  5
E366
  8
AM_0
 10
148.69283216075499
 20
474.31544056320712
 30
0.0
 42
0.00072659056
  0
VERTEX
  5
E367
  8
AM_0
 10
148.7749920192748
 20
473.74234054292458
 30
0.0
 42
0.00069570481
  0
VERTEX
  5
E368
  8
AM_0
 10
148.8588118778118
 20
473.1693105222318
 30
0.0
 42
0.00071266935
  0
VERTEX
  5
E369
  8
AM_0
 10
148.94424173641309
 20
472.5965405011421
 30
0.0
 42
0.00071614426
  0
VERTEX
  5
E36A
  8
AM_0
 10
149.03127159512039
 20
472.02420047965722
 30
0.0
 42
0.00072288975
  0
VERTEX
  5
E36B
  8
AM_0
 10
149.11998145383771
 20
471.4519004577574
 30
0.0
  0
SEQEND
  5
E36C
  8
AM_0
  0
POLYLINE
  5
E36D
  8
AM_0
 66
     1
 10
0.0
 20
0.0
 30
0.0
  0
VERTEX
  5
E36E
  8
AM_0
 10
146.70610814281881
 20
498.54724105366711
 30
0.0
 42
0.00076691992
  0
VERTEX
  5
E36F
  8
AM_0
 10
146.72090799031091
 20
497.9294710500136
 30
0.0
 42
0.00073262792
  0
VERTEX
  5
E370
  8
AM_0
 10
146.7375478378475
 20
497.31188104590558
 30
0.0
 42
0.00076529537
  0
VERTEX
  5
E371
  8
AM_0
 10
146.75603768536419
 20
496.69421104134119
 30
0.0
 42
0.00075141097
  0
VERTEX
  5
E372
  8
AM_0
 10
146.77640753289839
 20
496.0766110363125
 30
0.0
 42
0.00075841687
  0
VERTEX
  5
E373
  8
AM_0
 10
146.79863738047459
 20
495.4591810308246
 30
0.0
 42
0.00075711788
  0
VERTEX
  5
E374
  8
AM_0
 10
146.82274722803081
 20
494.84167102487248
 30
0.0
 42
0.00075976003
  0
VERTEX
  5
E375
  8
AM_0
 10
146.8487370756169
 20
494.22428101845651
 30
0.0
 42
0.00075797311
  0
VERTEX
  5
E376
  8
AM_0
 10
146.87657692323009
 20
493.60700101158358
 30
0.0
 42
0.0007482613
  0
VERTEX
  5
E377
  8
AM_0
 10
146.9063067708185
 20
492.98962100424433
 30
0.0
 42
0.00074893561
  0
VERTEX
  5
E378
  8
AM_0
 10
146.93786661846841
 20
492.37249099645322
 30
0.0
 42
0.00076039839
  0
VERTEX
  5
E379
  8
AM_0
 10
146.97128646614351
 20
491.75546098820291
 30
0.0
 42
0.00075618786
  0
VERTEX
  5
E37A
  8
AM_0
 10
147.00658631381589
 20
491.1384209794881
 30
0.0
  0
SEQEND
  5
E37B
  8
AM_0
  0
ARC
  5
E37C
  8
AM_0
 10
145.63207598528101
 20
489.8076113188115
 30
0.0
 40
1.3300049999999981
 50
89.999985855485264
 51
269.99998285548429
  0
ARC
  5
E37D
  8
AM_0
 10
146.84667598775221
 20
489.81762101896521
 30
0.0
 40
1.000013899999999
 50
89.691645855484865
 51
270.30832585548637
  0
POLYLINE
  5
E37E
  8
AM_0
 66
     1
 10
0.0
 20
0.0
 30
0.0
  0
VERTEX
  5
E37F
  8
AM_0
 10
147.18029565680791
 20
488.47705093660483
 30
0.0
 42
0.0007337051
  0
VERTEX
  5
E380
  8
AM_0
 10
147.2244355080895
 20
487.87463092570778
 30
0.0
 42
0.00075211323
  0
VERTEX
  5
E381
  8
AM_0
 10
147.27037535937839
 20
487.2722409143671
 30
0.0
 42
0.0007297491
  0
VERTEX
  5
E382
  8
AM_0
 10
147.31810521071429
 20
486.67004090258371
 30
0.0
 42
0.00073593041
  0
VERTEX
  5
E383
  8
AM_0
 10
147.36758506210199
 20
486.06805089036902
 30
0.0
 42
0.00074742739
  0
VERTEX
  5
E384
  8
AM_0
 10
147.41885491351951
 20
485.46618087771202
 30
0.0
 42
0.00073217363
  0
VERTEX
  5
E385
  8
AM_0
 10
147.47191476495399
 20
484.86438086461328
 30
0.0
 42
0.00073754168
  0
VERTEX
  5
E386
  8
AM_0
 10
147.5267346164529
 20
484.26284085108011
 30
0.0
 42
0.00073075073
  0
VERTEX
  5
E387
  8
AM_0
 10
147.5833144679963
 20
483.66148083711232
 30
0.0
 42
0.00074550816
  0
VERTEX
  5
E388
  8
AM_0
 10
147.64165431961351
 20
483.06042082270972
 30
0.0
 42
0.00074288416
  0
VERTEX
  5
E389
  8
AM_0
 10
147.7018041712407
 20
482.45940080786079
 30
0.0
 42
0.00072504001
  0
VERTEX
  5
E38A
  8
AM_0
 10
147.76371402293461
 20
481.85865079257729
 30
0.0
 42
0.00074640667
  0
VERTEX
  5
E38B
  8
AM_0
 10
147.8273838746654
 20
481.25805077685931
 30
0.0
  0
SEQEND
  5
E38C
  8
AM_0
  0
ARC
  5
E38D
  8
AM_0
 10
145.56621845520101
 20
499.81262133506959
 30
0.0
 40
1.2650129999999991
 50
89.735575855488435
 51
270.26440685548931
  0
ARC
  5
E38E
  8
AM_0
 10
146.8466784564354
 20
499.81762101896481
 30
0.0
 40
1.000013899999999
 50
89.691645855484865
 51
270.30832585548637
  0
LINE
  5
E38F
  8
AM_0
 10
169.8020896907737
 20
543.04262189493238
 30
0.0
 11
149.62923969077369
 21
541.54262189493215
 31
0.0
  0
POLYLINE
  5
E390
  8
AM_0
 66
     1
 10
0.0
 20
0.0
 30
0.0
  0
VERTEX
  5
E391
  8
AM_0
 10
147.18029969077369
 20
521.15816498537242
 30
0.0
 42
-0.0007337051
  0
VERTEX
  5
E392
  8
AM_0
 10
147.22443969077369
 20
521.76058498537236
 30
0.0
 42
-0.00075211323
  0
VERTEX
  5
E393
  8
AM_0
 10
147.27037969077369
 20
522.36297498537215
 30
0.0
 42
-0.0007297491
  0
VERTEX
  5
E394
  8
AM_0
 10
147.3181096907737
 20
522.96517498537241
 30
0.0
 42
-0.00073593041
  0
VERTEX
  5
E395
  8
AM_0
 10
147.36758969077371
 20
523.56716498537207
 30
0.0
 42
-0.00074742739
  0
VERTEX
  5
E396
  8
AM_0
 10
147.41885969077379
 20
524.16903498537226
 30
0.0
 42
-0.00073217363
  0
VERTEX
  5
E397
  8
AM_0
 10
147.47191969077369
 20
524.7708349853724
 30
0.0
 42
-0.00073754168
  0
VERTEX
  5
E398
  8
AM_0
 10
147.5267396907737
 20
525.37237498537252
 30
0.0
 42
-0.00073075073
  0
VERTEX
  5
E399
  8
AM_0
 10
147.58331969077369
 20
525.9737349853724
 30
0.0
 42
-0.00074550816
  0
VERTEX
  5
E39A
  8
AM_0
 10
147.64165969077359
 20
526.57479498537214
 30
0.0
 42
-0.00074288416
  0
VERTEX
  5
E39B
  8
AM_0
 10
147.7018096907737
 20
527.17581498537265
 30
0.0
 42
-0.00072504001
  0
VERTEX
  5
E39C
  8
AM_0
 10
147.76371969077371
 20
527.77656498537249
 30
0.0
 42
-0.00074640667
  0
VERTEX
  5
E39D
  8
AM_0
 10
147.82738969077371
 20
528.37716498537247
 30
0.0
  0
SEQEND
  5
E39E
  8
AM_0
  0
POLYLINE
  5
E39F
  8
AM_0
 66
     1
 10
0.0
 20
0.0
 30
0.0
  0
VERTEX
  5
E3A0
  8
AM_0
 10
146.7061096907737
 20
511.08797498537211
 30
0.0
 42
-0.00076691992
  0
VERTEX
  5
E3A1
  8
AM_0
 10
146.72090969077371
 20
511.70574498537241
 30
0.0
 42
-0.00073262792
  0
VERTEX
  5
E3A2
  8
AM_0
 10
146.7375496907737
 20
512.32333498537241
 30
0.0
 42
-0.00076529537
  0
VERTEX
  5
E3A3
  8
AM_0
 10
146.7560396907736
 20
512.94100498537216
 30
0.0
 42
-0.00075141097
  0
VERTEX
  5
E3A4
  8
AM_0
 10
146.7764096907737
 20
513.5586049853722
 30
0.0
 42
-0.00075841687
  0
VERTEX
  5
E3A5
  8
AM_0
 10
146.7986396907738
 20
514.17603498537233
 30
0.0
 42
-0.00075711788
  0
VERTEX
  5
E3A6
  8
AM_0
 10
146.82274969077369
 20
514.79354498537214
 30
0.0
 42
-0.00075976003
  0
VERTEX
  5
E3A7
  8
AM_0
 10
146.8487396907737
 20
515.41093498537214
 30
0.0
 42
-0.00075797311
  0
VERTEX
  5
E3A8
  8
AM_0
 10
146.87657969077381
 20
516.02821498537241
 30
0.0
 42
-0.0007482613
  0
VERTEX
  5
E3A9
  8
AM_0
 10
146.9063096907737
 20
516.64559498537233
 30
0.0
 42
-0.00074893561
  0
VERTEX
  5
E3AA
  8
AM_0
 10
146.9378696907736
 20
517.26272498537242
 30
0.0
 42
-0.00076039839
  0
VERTEX
  5
E3AB
  8
AM_0
 10
146.97128969077369
 20
517.87975498537207
 30
0.0
 42
-0.00075618786
  0
VERTEX
  5
E3AC
  8
AM_0
 10
147.00658969077369
 20
518.49679498537239
 30
0.0
  0
SEQEND
  5
E3AD
  8
AM_0
  0
POLYLINE
  5
E3AE
  8
AM_0
 66
     1
 10
0.0
 20
0.0
 30
0.0
  0
VERTEX
  5
E3AF
  8
AM_0
 10
146.66204969077381
 20
504.81759498537252
 30
0.0
 42
-0.00039106649
  0
VERTEX
  5
E3B0
  8
AM_0
 10
146.65968969077369
 20
505.12872498537217
 30
0.0
 42
-0.00035488198
  0
VERTEX
  5
E3B1
  8
AM_0
 10
146.65779969077369
 20
505.4398349853721
 30
0.0
 42
-0.00039706113
  0
VERTEX
  5
E3B2
  8
AM_0
 10
146.65636969077369
 20
505.75094498537231
 30
0.0
 42
-0.00038765718
  0
VERTEX
  5
E3B3
  8
AM_0
 10
146.6554396907737
 20
506.06208498537239
 30
0.0
 42
-0.00040613432
  0
VERTEX
  5
E3B4
  8
AM_0
 10
146.6549896907737
 20
506.3731849853724
 30
0.0
 42
-0.00035573434
  0
VERTEX
  5
E3B5
  8
AM_0
 10
146.6550296907738
 20
506.68429498537211
 30
0.0
 42
-0.00038545884
  0
VERTEX
  5
E3B6
  8
AM_0
 10
146.6555196907737
 20
506.99542498537232
 30
0.0
 42
-0.00035501205
  0
VERTEX
  5
E3B7
  8
AM_0
 10
146.65647969077369
 20
507.30653498537231
 30
0.0
 42
-0.00040120779
  0
VERTEX
  5
E3B8
  8
AM_0
 10
146.65789969077369
 20
507.61776498537239
 30
0.0
 42
-0.00038317817
  0
VERTEX
  5
E3B9
  8
AM_0
 10
146.65980969077381
 20
507.92889498537249
 30
0.0
 42
-0.00035656084
  0
VERTEX
  5
E3BA
  8
AM_0
 10
146.66218969077369
 20
508.24013498537232
 30
0.0
 42
-0.00040143615
  0
VERTEX
  5
E3BB
  8
AM_0
 10
146.6650396907738
 20
508.55123498537239
 30
0.0
  0
SEQEND
  5
E3BC
  8
AM_0
  0
ARC
  5
E3BD
  8
AM_0
 10
146.84667969077381
 20
509.81759498537241
 30
0.0
 40
1.000013899999999
 50
89.691659999999231
 51
270.30834000000078
  0
ARC
  5
E3BE
  8
AM_0
 10
145.56621969077369
 20
509.82259498537218
 30
0.0
 40
1.2650129999999991
 50
89.735578999998495
 51
270.2644099999992
  0
ARC
  5
E3BF
  8
AM_0
 10
146.84667969077381
 20
519.81759498537235
 30
0.0
 40
1.000013899999999
 50
89.691659999999231
 51
270.30834000000078
  0
ARC
  5
E3C0
  8
AM_0
 10
145.63207969077371
 20
519.82760498537232
 30
0.0
 40
1.3300049999999981
 50
90.000003000000945
 51
270.0
  0
POLYLINE
  5
E3C1
  8
AM_0
 66
     1
 10
0.0
 20
0.0
 30
0.0
  0
VERTEX
  5
E3C2
  8
AM_0
 10
148.16295969077379
 20
531.30062498537234
 30
0.0
 42
-0.00068898288
  0
VERTEX
  5
E3C3
  8
AM_0
 10
148.23383969077361
 20
531.87537498537245
 30
0.0
 42
-0.00070644354
  0
VERTEX
  5
E3C4
  8
AM_0
 10
148.3063396907738
 20
532.45006498537248
 30
0.0
 42
-0.00069248071
  0
VERTEX
  5
E3C5
  8
AM_0
 10
148.3804296907737
 20
533.02437498537256
 30
0.0
 42
-0.00069585665
  0
VERTEX
  5
E3C6
  8
AM_0
 10
148.4561096907737
 20
533.59851498537239
 30
0.0
 42
-0.00068980191
  0
VERTEX
  5
E3C7
  8
AM_0
 10
148.53340969077371
 20
534.17251498537257
 30
0.0
 42
-0.00072080104
  0
VERTEX
  5
E3C8
  8
AM_0
 10
148.6122996907738
 20
534.74630498537249
 30
0.0
 42
-0.00071002307
  0
VERTEX
  5
E3C9
  8
AM_0
 10
148.6928396907737
 20
535.31977498537242
 30
0.0
 42
-0.00072659056
  0
VERTEX
  5
E3CA
  8
AM_0
 10
148.7749996907736
 20
535.8928749853726
 30
0.0
 42
-0.00069570481
  0
VERTEX
  5
E3CB
  8
AM_0
 10
148.85881969077369
 20
536.46590498537262
 30
0.0
 42
-0.00071266935
  0
VERTEX
  5
E3CC
  8
AM_0
 10
148.9442496907738
 20
537.03867498537261
 30
0.0
 42
-0.00071614426
  0
VERTEX
  5
E3CD
  8
AM_0
 10
149.03127969077369
 20
537.61101498537244
 30
0.0
 42
-0.00072288975
  0
VERTEX
  5
E3CE
  8
AM_0
 10
149.11998969077371
 20
538.18331498537259
 30
0.0
  0
SEQEND
  5
E3CF
  8
AM_0
  0
ARC
  5
E3D0
  8
AM_0
 10
145.7620796907737
 20
529.84261498537251
 30
0.0
 40
1.465004
 50
90.000003000000945
 51
270.0
  0
ARC
  5
E3D1
  8
AM_0
 10
146.84667969077381
 20
529.81759498537247
 30
0.0
 40
1.000013899999999
 50
89.691659999999231
 51
270.30834000000078
  0
ARC
  5
E3D2
  8
AM_0
 10
146.84667969077381
 20
539.81759498537235
 30
0.0
 40
1.000013899999999
 50
89.691659999999231
 51
270.30834000000078
  0
ARC
  5
E3D3
  8
AM_0
 10
145.97466969077371
 20
539.86263498537244
 30
0.0
 40
1.6750160000000001
 50
89.746145000001235
 51
270.25387000000092
  0
LINE
  5
E3D4
  8
AM_0
 10
147.5920696907736
 20
566.71261989493246
 30
0.0
 11
181.3020896907737
 21
566.71261989493246
 31
0.0
  0
LINE
  5
E3D5
  8
AM_0
 10
147.57210969077369
 20
565.79262889493225
 30
0.0
 11
181.3020896907737
 21
565.79262889493225
 31
0.0
  0
LINE
  5
E3D6
  8
AM_0
 10
147.5520896907737
 20
563.95262489493246
 30
0.0
 11
181.3020896907737
 21
563.95262489493246
 31
0.0
  0
ARC
  5
E3D7
  8
AM_0
 10
147.50673969077371
 20
559.10362589493229
 30
0.0
 40
1.999007899999997
 50
90.133450000000195
 51
169.36258999999981
  0
LINE
  5
E3D8
  8
AM_0
 10
144.3020896907737
 20
555.60260389493226
 30
0.0
 11
145.6120896907737
 21
564.98260889493224
 31
0.0
  0
LINE
  5
E3D9
  8
AM_0
 10
144.30214969077369
 20
555.60262689493243
 30
0.0
 11
145.5921296907737
 21
564.10261889493245
 31
0.0
  0
LINE
  5
E3DA
  8
AM_0
 10
144.3020896907737
 20
554.2626308949325
 30
0.0
 11
145.58205969077369
 21
562.26262289493218
 31
0.0
  0
LINE
  5
E3DB
  8
AM_0
 10
144.3020896907737
 20
552.91263989493245
 30
0.0
 11
145.54207969077379
 21
559.47263689493229
 31
0.0
  0
ARC
  5
E3DC
  8
AM_0
 10
147.55806969077361
 20
561.95244989493244
 30
0.0
 40
2.000184099999998
 50
90.171470000000795
 51
171.07900000000049
  0
ARC
  5
E3DD
  8
AM_0
 10
147.56563969077371
 20
563.79529189493223
 30
0.0
 40
1.9973480999999991
 50
89.815319999999133
 51
171.14853000000031
  0
ARC
  5
E3DE
  8
AM_0
 10
147.59420969077371
 20
564.7121468949324
 30
0.0
 40
2.0004758999999992
 50
90.060310000000726
 51
172.22953999999919
  0
LINE
  5
E3DF
  8
AM_0
 10
183.3020896907737
 20
564.71262689493244
 30
0.0
 11
183.3020896907737
 21
561.10263389493196
 31
0.0
  0
ARC
  5
E3E0
  8
AM_0
 10
181.29488969077369
 20
561.94544589493239
 30
0.0
 40
2.0071799999999991
 50
0.2046200000009718
 51
89.795379999999028
  0
ARC
  5
E3E1
  8
AM_0
 10
181.29879969077359
 20
563.78934089493225
 30
0.0
 40
2.003279899999999
 50
0.093790000000395
 51
89.906209999999604
  0
ARC
  5
E3E2
  8
AM_0
 10
181.29409969077369
 20
564.70461689493243
 30
0.0
 40
2.0080360999999991
 50
0.2287899999994382
 51
89.771210000000551
  0
LINE
  5
E3E3
  8
AM_0
 10
250.8020896907737
 20
543.04261389493217
 30
0.0
 11
246.35207969077371
 21
559.62261589493232
 31
0.0
  0
LINE
  5
E3E4
  8
AM_0
 10
252.30208969077361
 20
458.81762689493218
 30
0.0
 11
260.30205969077372
 21
458.81762689493218
 31
0.0
  0
LINE
  5
E3E5
  8
AM_0
 10
252.30208969077361
 20
472.87761689493209
 30
0.0
 11
260.30205969077372
 21
472.87761689493209
 31
0.0
  0
ARC
  5
E3E6
  8
AM_0
 10
245.64202351906599
 20
479.81759662952368
 30
0.0
 40
1.000025599999997
 50
269.58945485548588
 51
90.410515855486949
  0
ARC
  5
E3E7
  8
AM_0
 10
245.64208105038281
 20
469.81759662950913
 30
0.0
 40
1.0
 50
269.99998285548429
 51
89.999995855486276
  0
ARC
  5
E3E8
  8
AM_0
 10
249.12204087150391
 20
469.77257977041779
 30
0.0
 40
1.675026000120903
 50
270.0006727121953
 51
89.999295998819775
  0
ARC
  5
E3E9
  8
AM_0
 10
251.9552896907737
 20
465.09485689493232
 30
0.0
 40
1.502775999999999
 50
90.122410000000357
 51
165.2435700000002
  0
ARC
  5
E3EA
  8
AM_0
 10
249.3420335116524
 20
479.78756571610842
 30
0.0
 40
1.460011199999999
 50
269.7752358554871
 51
90.224735855487296
  0
ARC
  5
E3EB
  8
AM_0
 10
245.64204588774919
 20
489.81759662951822
 30
0.0
 40
1.000005699999998
 50
269.99998285548429
 51
89.999995855486276
  0
ARC
  5
E3EC
  8
AM_0
 10
245.64204835643241
 20
499.81759662951771
 30
0.0
 40
1.000005699999998
 50
269.99998285548429
 51
89.999995855486276
  0
ARC
  5
E3ED
  8
AM_0
 10
249.46703238404359
 20
489.80258568525051
 30
0.0
 40
1.3350147999999991
 50
269.73042985548369
 51
90.269555855485152
  0
ARC
  5
E3EE
  8
AM_0
 10
249.52898485396111
 20
499.80758566995661
 30
0.0
 40
1.2700266
 50
269.62931585548409
 51
90.370665855485697
  0
LINE
  5
E3EF
  8
AM_0
 10
252.30208969077361
 20
536.75761789493231
 30
0.0
 11
260.30205969077372
 21
536.75761789493231
 31
0.0
  0
ARC
  5
E3F0
  8
AM_0
 10
245.64204959077381
 20
509.81759498537241
 30
0.0
 40
1.000005699999998
 50
269.999989999999
 51
90.000003000000945
  0
ARC
  5
E3F1
  8
AM_0
 10
245.64204959077381
 20
519.81759498537235
 30
0.0
 40
1.000005699999998
 50
269.999989999999
 51
90.000003000000945
  0
ARC
  5
E3F2
  8
AM_0
 10
249.5289860907738
 20
509.82760498537237
 30
0.0
 40
1.2700266
 50
269.62932000000001
 51
90.370670000001468
  0
ARC
  5
E3F3
  8
AM_0
 10
249.46703609077369
 20
519.83260498537243
 30
0.0
 40
1.3350147999999991
 50
269.7304299999999
 51
90.269556000001316
  0
ARC
  5
E3F4
  8
AM_0
 10
245.6420896907737
 20
539.81759498537235
 30
0.0
 40
1.0
 50
269.999989999999
 51
90.000003000000945
  0
ARC
  5
E3F5
  8
AM_0
 10
245.64202969077371
 20
529.81759498537247
 30
0.0
 40
1.000025599999997
 50
269.58947000000001
 51
90.410531000001029
  0
ARC
  5
E3F6
  8
AM_0
 10
249.3420396907737
 20
529.84762498537248
 30
0.0
 40
1.460011199999999
 50
269.77524999999991
 51
90.224750000000114
  0
ARC
  5
E3F7
  8
AM_0
 10
249.12204952300809
 20
539.86261098537182
 30
0.0
 40
1.675026000120903
 50
270.00068985666542
 51
89.999313143289925
  0
LINE
  5
E3F8
  8
AM_0
 10
252.30208969077361
 20
550.81762289493236
 30
0.0
 11
260.30205969077372
 21
550.81762289493236
 31
0.0
  0
LINE
  5
E3F9
  8
AM_0
 10
252.30208969077361
 20
560.81763089493234
 30
0.0
 11
260.30205969077372
 21
560.81763089493234
 31
0.0
  0
ARC
  5
E3FA
  8
AM_0
 10
244.41921969077359
 20
559.10049089493214
 30
0.0
 40
2.0021281000000002
 50
15.11669999999812
 51
89.918480000000116
  0
LINE
  5
E3FB
  8
AM_0
 10
246.8420696907736
 20
557.82261989493213
 30
0.0
 11
252.30208969077361
 21
557.82261989493213
 31
0.0
  0
CIRCLE
  5
E3FC
  8
AM_0
 10
151.8020596907734
 20
458.81760877616159
 30
0.0
 40
3.0
  0
CIRCLE
  5
E3FD
  8
AM_0
 10
151.8020596907734
 20
550.81761316548045
 30
0.0
 40
3.0
  0
LINE
  5
E3FE
  8
AM_0
 10
136.80205969077369
 20
451.81759907132289
 30
0.0
 11
136.80205969077369
 21
557.81758007132282
 31
0.0
  0
LINE
  5
E3FF
  8
AM_0
 10
128.8020596907746
 20
452.75619056255101
 30
0.0
 11
128.80205969077431
 21
490.47847747730827
 31
0.0
  0
LINE
  5
E400
  8
AM_0
 10
119.8020596907737
 20
450.81759407132319
 30
0.0
 11
119.8020596907737
 21
558.81759407132313
 31
0.0
  0
LINE
  5
E401
  8
AM_0
 10
119.8020596907737
 20
450.81759407132301
 30
0.0
 11
136.80205969077369
 21
451.81759407132307
 31
0.0
  0
LINE
  5
E402
  8
AM_0
 10
119.8020596907737
 20
558.81759407132256
 30
0.0
 11
136.80205969077369
 21
557.81759407132279
 31
0.0
  0
LINE
  5
E403
  8
AM_0
 10
128.80205969077451
 20
461.22369087323159
 30
0.0
 11
136.80205969077369
 21
461.22369087323159
 31
0.0
  0
LINE
  5
E404
  8
AM_0
 10
128.8020596907746
 20
452.75619056255101
 30
0.0
 11
136.80205969077369
 21
452.75619056255101
 31
0.0
  0
LINE
  5
E405
  8
AM_0
 10
125.3020596907745
 20
470.1767211060627
 30
0.0
 11
128.80205969077451
 21
470.1767211060627
 31
0.0
  0
LINE
  5
E406
  8
AM_0
 10
125.3020596907745
 20
461.6767211060627
 30
0.0
 11
128.8020596907746
 21
461.6767211060627
 31
0.0
  0
LINE
  5
E407
  8
AM_0
 10
124.8020596907745
 20
462.17672110606259
 30
0.0
 11
124.8020596907745
 21
469.67672110606281
 31
0.0
  0
ARC
  5
E408
  8
AM_0
 10
125.3020596907745
 20
462.17672110606259
 30
0.0
 40
0.5
 50
180.0
 51
270.0
  0
ARC
  5
E409
  8
AM_0
 10
125.3020596907745
 20
469.67672110606281
 30
0.0
 40
0.5
 50
90.0
 51
180.0
  0
LINE
  5
E40A
  8
AM_0
 10
119.8020596907737
 20
462.54539957818292
 30
0.0
 11
124.8020596907745
 21
462.5453995781827
 31
0.0
  0
LINE
  5
E40B
  8
AM_0
 10
119.8020596907737
 20
472.2804820764789
 30
0.0
 11
128.8020596907744
 21
472.2804820764789
 31
0.0
  0
LINE
  5
E40C
  8
AM_0
 10
128.8020596907746
 20
556.87899758009496
 30
0.0
 11
128.80205969077431
 21
519.1567106653423
 31
0.0
  0
LINE
  5
E40D
  8
AM_0
 10
128.80205969077451
 20
548.41149726941421
 30
0.0
 11
136.80205969077369
 21
548.41149726941421
 31
0.0
  0
LINE
  5
E40E
  8
AM_0
 10
128.8020596907746
 20
556.87899758009496
 30
0.0
 11
136.80205969077369
 21
556.87899758009496
 31
0.0
  0
LINE
  5
E40F
  8
AM_0
 10
125.3020596907745
 20
539.45846703658322
 30
0.0
 11
128.80205969077451
 21
539.45846703658322
 31
0.0
  0
LINE
  5
E410
  8
AM_0
 10
125.3020596907745
 20
547.95846703658322
 30
0.0
 11
128.8020596907746
 21
547.95846703658322
 31
0.0
  0
LINE
  5
E411
  8
AM_0
 10
124.8020596907745
 20
547.45846703658322
 30
0.0
 11
124.8020596907745
 21
539.95846703658322
 31
0.0
  0
ARC
  5
E412
  8
AM_0
 10
125.3020596907745
 20
547.45846703658322
 30
0.0
 40
0.5
 50
90.0
 51
180.0
  0
ARC
  5
E413
  8
AM_0
 10
125.3020596907745
 20
539.95846703658322
 30
0.0
 40
0.5
 50
180.0
 51
270.0
  0
LINE
  5
E414
  8
AM_0
 10
119.8020596907737
 20
547.08978856446311
 30
0.0
 11
124.8020596907745
 21
547.08978856446322
 31
0.0
  0
LINE
  5
E415
  8
AM_0
 10
119.8020596907737
 20
537.35470606616707
 30
0.0
 11
128.8020596907744
 21
537.35470606616707
 31
0.0
  0
LINE
  5
E416
  8
AM_0
 10
84.891474939438069
 20
468.82718322639693
 30
0.0
 11
84.891474939438069
 21
475.33878812535568
 31
0.0
  0
LINE
  5
E417
  8
AM_0
 10
81.802059690773476
 20
515.81759407132313
 30
0.0
 11
81.802059690773476
 21
521.31759407132313
 31
0.0
  0
LINE
  5
E418
  8
AM_0
 10
87.30205969077349
 20
508.31759407132301
 30
0.0
 11
87.30205969077349
 21
501.31759407132319
 31
0.0
  0
LINE
  5
E419
  8
AM_0
 10
99.002059690773507
 20
521.31759407132313
 30
0.0
 11
81.802059690773476
 21
521.31759407132313
 31
0.0
  0
LINE
  5
E41A
  8
AM_0
 10
113.8020596907736
 20
558.81759407132313
 30
0.0
 11
113.8020596907735
 21
450.81759407132262
 31
0.0
  0
LINE
  5
E41B
  8
AM_0
 10
81.802059690773476
 20
506.31759407132307
 30
0.0
 11
82.702059690773567
 21
506.31759407132307
 31
0.0
  0
LINE
  5
E41C
  8
AM_0
 10
99.302059690773476
 20
513.31759407132313
 30
0.0
 11
99.302059690773476
 21
510.7330843867191
 31
0.0
  0
LINE
  5
E41D
  8
AM_0
 10
79.602059690773203
 20
503.3175940713229
 30
0.0
 11
79.602059690773203
 21
506.31759407132307
 31
0.0
  0
LINE
  5
E41E
  8
AM_0
 10
82.702059690773567
 20
506.58994580590672
 30
0.0
 11
82.702059690773567
 21
503.04524233673919
 31
0.0
  0
LINE
  5
E41F
  8
AM_0
 10
79.302059690773433
 20
503.61759407132303
 30
0.0
 11
82.702059690773567
 21
503.61759407132303
 31
0.0
  0
LINE
  5
E420
  8
AM_0
 10
86.702059690773581
 20
507.19916393173003
 30
0.0
 11
86.702059690773581
 21
508.31759407132301
 31
0.0
  0
LINE
  5
E421
  8
AM_0
 10
86.702059690773581
 20
506.31759407132307
 30
0.0
 11
86.702059690773581
 21
506.41759407132309
 31
0.0
  0
LINE
  5
E422
  8
AM_0
 10
86.702059690773581
 20
506.41759407132309
 30
0.0
 11
86.702059690773581
 21
507.19916393173003
 31
0.0
  0
LINE
  5
E423
  8
AM_0
 10
81.802059690773476
 20
521.31759407132313
 30
0.0
 11
81.802059690773476
 21
529.55512808074513
 31
0.0
  0
LINE
  5
E424
  8
AM_0
 10
99.155613081366795
 20
510.37953099612571
 30
0.0
 11
98.800545955178563
 21
510.02446386993762
 31
0.0
  0
LINE
  5
E425
  8
AM_0
 10
81.802059690773476
 20
503.3175940713229
 30
0.0
 11
81.802059690773476
 21
480.08006006190072
 31
0.0
  0
LINE
  5
E426
  8
AM_0
 10
113.8020596907735
 20
459.81759407132239
 30
0.0
 11
90.032050990140874
 21
459.81759407132239
 31
0.0
  0
LINE
  5
E427
  8
AM_0
 10
81.802059690773476
 20
514.89119089560177
 30
0.0
 11
81.802059690773476
 21
506.31759407132307
 31
0.0
  0
LINE
  5
E428
  8
AM_0
 10
119.8020596907737
 20
450.81759407132262
 30
0.0
 11
113.8020596907735
 21
450.81759407132262
 31
0.0
  0
LINE
  5
E429
  8
AM_0
 10
113.8020596907735
 20
558.81759407132313
 30
0.0
 11
119.8020596907735
 21
558.81759407132313
 31
0.0
  0
LINE
  5
E42A
  8
AM_0
 10
113.8020596907735
 20
549.81759407132313
 30
0.0
 11
87.845898198474842
 21
549.81759407132313
 31
0.0
  0
LINE
  5
E42B
  8
AM_0
 10
81.847636431736987
 20
479.55911552890001
 30
0.0
 11
84.417079879399253
 21
464.98707761763632
 31
0.0
  0
LINE
  5
E42C
  8
AM_0
 10
81.802059690773476
 20
514.89119089560177
 30
0.0
 11
81.802059690773476
 21
515.81759407132313
 31
0.0
  0
LINE
  5
E42D
  8
AM_0
 10
81.847636431736987
 20
530.07607261374596
 30
0.0
 11
84.891474939438069
 21
547.33853860432384
 31
0.0
  0
LINE
  5
E42E
  8
AM_0
 10
81.802059690773476
 20
529.81759407132313
 30
0.0
 11
81.847636431736987
 21
530.07607261374596
 31
0.0
  0
LINE
  5
E42F
  8
AM_0
 10
81.802059690773476
 20
529.55512808074513
 30
0.0
 11
81.802059690773476
 21
529.81759407132313
 31
0.0
  0
LINE
  5
E430
  8
AM_0
 10
81.302021022766652
 20
451.31759407132319
 30
0.0
 11
81.301998570368028
 21
424.3175940713229
 31
0.0
  0
LINE
  5
E431
  8
AM_0
 10
81.301998570368028
 20
424.3175940713229
 30
0.0
 11
89.301998570370657
 21
424.3175940713229
 31
0.0
  0
LINE
  5
E432
  8
AM_0
 10
89.301998570370657
 20
424.3175940713229
 30
0.0
 11
90.801993915191474
 21
418.71953523333451
 31
0.0
  0
LINE
  5
E433
  8
AM_0
 10
90.801993915191474
 20
418.71953523333451
 30
0.0
 11
90.801979151831233
 21
400.96594295344403
 31
0.0
  0
LINE
  5
E434
  8
AM_0
 10
81.301998570368028
 20
424.3175940713229
 30
0.0
 11
79.801993915158945
 21
418.71950048649319
 31
0.0
  0
LINE
  5
E435
  8
AM_0
 10
79.801993915158945
 20
418.71950048649319
 30
0.0
 11
79.801979151834985
 21
400.96595210071757
 31
0.0
  0
LINE
  5
E436
  8
AM_0
 10
85.302021022767903
 20
400.96595210071757
 30
0.0
 11
85.302021022767903
 21
418.71950048649319
 31
0.0
  0
LINE
  5
E437
  8
AM_0
 10
89.301998570370657
 20
424.3175940713229
 30
0.0
 11
89.302021022769495
 21
451.31759407132319
 31
0.0
  0
LINE
  5
E438
  8
AM_0
 10
99.302059690773604
 20
475.33878812535568
 30
0.0
 11
99.302059690773476
 21
521.01759407132317
 31
0.0
  0
LINE
  5
E439
  8
AM_0
 10
87.30205969077349
 20
510.7330843867191
 30
0.0
 11
87.30205969077349
 21
513.31759407132313
 31
0.0
  0
LINE
  5
E43A
  8
AM_0
 10
87.803573426368658
 20
510.02446386993762
 30
0.0
 11
87.448506300180398
 21
510.37953099612571
 31
0.0
  0
LINE
  5
E43B
  8
AM_0
 10
98.802059690773504
 20
513.81759407132313
 30
0.0
 11
87.802059690773433
 21
513.81759407132313
 31
0.0
  0
LINE
  5
E43C
  8
AM_0
 10
78.802021854272652
 20
452.31759947653018
 30
0.0
 11
78.802048880307993
 21
457.31759947653018
 31
0.0
  0
LINE
  5
E43D
  8
AM_0
 10
91.802021854404188
 20
452.31758866611602
 30
0.0
 11
91.802047782223838
 21
457.11441131948641
 31
0.0
  0
LINE
  5
E43E
  8
AM_0
 10
82.422562942854483
 20
459.31759407132319
 30
0.0
 11
81.851001041489198
 21
458.6610102492628
 31
0.0
  0
LINE
  5
E43F
  8
AM_0
 10
79.802048880293455
 20
458.31759407132301
 30
0.0
 11
90.802047782223866
 21
458.31759407132301
 31
0.0
  0
LINE
  5
E440
  8
AM_0
 10
91.802047782223838
 20
457.11441131948641
 30
0.0
 11
91.802047782223838
 21
457.3175940713229
 31
0.0
  0
LINE
  5
E441
  8
AM_0
 10
91.802047782223838
 20
457.11441131948641
 30
0.0
 11
91.802048880439656
 21
457.31758866611602
 31
0.0
  0
LINE
  5
E442
  8
AM_0
 10
79.802021854257987
 20
451.31759407132319
 30
0.0
 11
90.802021854418754
 21
451.31759407132319
 31
0.0
  0
LINE
  5
E443
  8
AM_0
 10
89.809495652935766
 20
459.28700700103752
 30
0.0
 11
96.932295386281226
 21
476.2682463197844
 31
0.0
  0
LINE
  5
E444
  8
AM_0
 10
82.422562942854483
 20
459.31759407132319
 30
0.0
 11
88.999278018164787
 21
478.0121347017253
 31
0.0
  0
LINE
  5
E445
  8
AM_0
 10
86.702059690773581
 20
506.31759407132307
 30
0.0
 11
86.702059690773581
 21
506.41759407132309
 31
0.0
  0
LINE
  5
E446
  8
AM_0
 10
86.702059690773581
 20
506.41759407132309
 30
0.0
 11
86.702059690773581
 21
507.19916393173003
 31
0.0
  0
LINE
  5
E447
  8
AM_0
 10
86.702059690773581
 20
508.31759407132301
 30
0.0
 11
87.30205969077349
 21
508.31759407132301
 31
0.0
  0
LINE
  5
E448
  8
AM_0
 10
84.002059690773535
 20
507.19916393173003
 30
0.0
 11
84.002059690773535
 21
502.43602421091578
 31
0.0
  0
LINE
  5
E449
  8
AM_0
 10
83.841015461516122
 20
507.48585556007311
 30
0.0
 11
82.908462412008817
 21
506.9474458059064
 31
0.0
  0
LINE
  5
E44A
  8
AM_0
 10
86.702059690773581
 20
501.31759407132319
 30
0.0
 11
86.702059690773581
 21
506.31759407132307
 31
0.0
  0
LINE
  5
E44B
  8
AM_0
 10
84.274511282804156
 20
507.99302055186592
 30
0.0
 11
86.42960809874296
 21
507.99302055186592
 31
0.0
  0
LINE
  5
E44C
  8
AM_0
 10
84.274511282804156
 20
506.40530731159419
 30
0.0
 11
86.42960809874296
 21
506.40530731159419
 31
0.0
  0
LINE
  5
E44D
  8
AM_0
 10
82.702059690773567
 20
503.3175940713229
 30
0.0
 11
79.602059690773203
 21
503.3175940713229
 31
0.0
  0
LINE
  5
E44E
  8
AM_0
 10
79.602059690773203
 20
503.3175940713229
 30
0.0
 11
79.302059690773433
 21
503.61759407132303
 31
0.0
  0
LINE
  5
E44F
  8
AM_0
 10
79.302059690773433
 20
503.61759407132303
 30
0.0
 11
79.302059690773433
 21
506.017594071323
 31
0.0
  0
LINE
  5
E450
  8
AM_0
 10
79.602059690773203
 20
506.31759407132307
 30
0.0
 11
81.802059690773476
 21
506.31759407132307
 31
0.0
  0
LINE
  5
E451
  8
AM_0
 10
79.302059690773433
 20
506.017594071323
 30
0.0
 11
79.602059690773203
 21
506.31759407132307
 31
0.0
  0
LINE
  5
E452
  8
AM_0
 10
82.702059690773567
 20
506.017594071323
 30
0.0
 11
79.302059690773433
 21
506.017594071323
 31
0.0
  0
ARC
  5
E453
  8
AM_0
 10
81.302059690773504
 20
504.81759407132301
 30
0.0
 40
18.000000000000071
 50
344.79096035989261
 51
15.20903964011455
  0
ARC
  5
E454
  8
AM_0
 10
85.40928287474695
 20
507.19916393173003
 30
0.0
 40
1.292776816026465
 50
0.0
 51
37.884441053695141
  0
ARC
  5
E455
  8
AM_0
 10
105.3020596907735
 20
504.81759407132301
 30
0.0
 40
17.999999999999918
 50
164.79096035988539
 51
195.2090396401145
  0
ARC
  5
E456
  8
AM_0
 10
85.301986096814389
 20
409.31759407132301
 30
0.0
 40
10.0
 50
236.6329393852977
 51
303.36696532376487
  0
ARC
  5
E457
  8
AM_0
 10
82.552000087301508
 20
405.39860046032351
 30
0.0
 40
5.2164151124522951
 50
238.18448044843149
 51
301.81551955156863
  0
ARC
  5
E458
  8
AM_0
 10
88.052007460936125
 20
405.39947535108359
 30
0.0
 40
5.2171403873810611
 50
238.18986771264201
 51
301.8099417040292
  0
ARC
  5
E459
  8
AM_0
 10
82.552007468963538
 20
417.35154647215029
 30
0.0
 40
3.0714610092699122
 50
26.447376724217548
 51
153.55262327578239
  0
ARC
  5
E45A
  8
AM_0
 10
88.052016100334754
 20
417.35328667684558
 30
0.0
 40
3.070669812974502
 50
26.419181894792899
 51
153.58154205326841
  0
ARC
  5
E45B
  8
AM_0
 10
88.764489566833262
 20
504.81759407132301
 30
0.0
 40
4.762429876059711
 50
160.52575999458611
 51
199.4742400054138
  0
ARC
  5
E45C
  8
AM_0
 10
85.294836506800124
 20
507.19916393173003
 30
0.0
 40
1.292776816026554
 50
142.11555894630479
 51
217.88444105370229
  0
ARC
  5
E45D
  8
AM_0
 10
81.939629814714067
 20
504.81759407132301
 30
0.0
 40
4.762429876059584
 50
340.52575999458628
 51
19.474240005413812
  0
ARC
  5
E45E
  8
AM_0
 10
85.40928287474695
 20
507.19916393173003
 30
0.0
 40
1.292776816026501
 50
322.11555894629771
 51
0.0
  0
ARC
  5
E45F
  8
AM_0
 10
99.002059690773507
 20
521.01759407132317
 30
0.0
 40
0.2999999999999972
 50
0.0
 51
90.0
  0
ARC
  5
E460
  8
AM_0
 10
99.154099345771925
 20
509.67091047934417
 30
0.0
 40
0.4999999999998723
 50
134.99999999998161
 51
195.209039640101
  0
ARC
  5
E461
  8
AM_0
 10
84.80205969077349
 20
529.55512808074513
 30
0.0
 40
3.0
 50
170.00000000000139
 51
180.0
  0
ARC
  5
E462
  8
AM_0
 10
84.80205969077349
 20
480.08006006190072
 30
0.0
 40
2.9999999999999911
 50
180.0
 51
189.99999999999861
  0
ARC
  5
E463
  8
AM_0
 10
87.845898198474657
 20
546.81759407132313
 30
0.0
 40
2.9999999999999631
 50
90.0
 51
170.00000000000139
  0
ARC
  5
E464
  8
AM_0
 10
87.802059690773433
 20
513.31759407132313
 30
0.0
 40
0.5
 50
90.0
 51
180.0
  0
ARC
  5
E465
  8
AM_0
 10
98.802059690773504
 20
513.31759407132313
 30
0.0
 40
0.5
 50
0.0
 51
90.0
  0
ARC
  5
E466
  8
AM_0
 10
98.802059690773504
 20
510.7330843867191
 30
0.0
 40
0.5
 50
315.0
 51
0.0
  0
ARC
  5
E467
  8
AM_0
 10
87.450020035775296
 20
509.67091047934417
 30
0.0
 40
0.5000000000001048
 50
344.79096035989892
 51
45.000000000018417
  0
ARC
  5
E468
  8
AM_0
 10
87.802059690773433
 20
510.7330843867191
 30
0.0
 40
0.499999999999984
 50
180.0
 51
225.00000000000921
  0
ARC
  5
E469
  8
AM_0
 10
79.802021854257987
 20
452.31759407132307
 30
0.0
 40
1.0
 50
179.99969030444211
 51
270.0
  0
ARC
  5
E46A
  8
AM_0
 10
90.802021854418754
 20
452.31759407132307
 30
0.0
 40
0.9999999999999992
 50
270.0
 51
359.99969030444879
  0
ARC
  5
E46B
  8
AM_0
 10
79.802048880293455
 20
457.3175940713229
 30
0.0
 40
0.9999999999999992
 50
90.0
 51
179.99969030444211
  0
ARC
  5
E46C
  8
AM_0
 10
90.802047782223866
 20
457.3175940713229
 30
0.0
 40
1.0
 50
0.0
 51
90.0
  0
ARC
  5
E46D
  8
AM_0
 10
90.282289569309015
 20
458.91759407132292
 30
0.0
 40
0.5999999999999944
 50
141.99805566226991
 51
270.0
  0
ARC
  5
E46E
  8
AM_0
 10
81.096747977452537
 20
459.31759407132319
 30
0.0
 40
0.9999999999999468
 50
270.0
 51
318.96014689042488
  0
ARC
  5
E46F
  8
AM_0
 10
83.114865133244052
 20
506.58994580590672
 30
0.0
 40
0.4128054424705855
 50
120.0000000000005
 51
180.0
  0
ARC
  5
E470
  8
AM_0
 10
83.428210019045437
 20
508.20085556007291
 30
0.0
 40
0.8256108849411369
 50
300.00000000000051
 51
331.78257540582467
  0
LINE
  5
E471
  8
AM_0
 10
82.591794020405004
 20
475.33878812535568
 30
0.0
 11
88.058798170173873
 21
475.33878812535568
 31
0.0
  0
LINE
  5
E472
  8
AM_0
 10
96.542433112087735
 20
475.33878812535568
 30
0.0
 11
99.302059690773476
 21
475.33878812535568
 31
0.0
  0
LINE
  5
E473
  8
AM_0
 10
86.702059690773794
 20
501.31759407132319
 30
0.0
 11
87.302059690773817
 21
501.31759407132319
 31
0.0
  0
LINE
  5
E474
  8
AM_0
 10
83.841015461516349
 20
502.14933258257281
 30
0.0
 11
82.908462412009044
 21
502.68774233673929
 31
0.0
  0
LINE
  5
E475
  8
AM_0
 10
84.27451128280434
 20
501.64216759077988
 30
0.0
 11
86.429608098743216
 21
501.6421675907801
 31
0.0
  0
LINE
  5
E476
  8
AM_0
 10
84.274511282804156
 20
503.22988083105162
 30
0.0
 11
86.429608098743216
 21
503.22988083105167
 31
0.0
  0
ARC
  5
E477
  8
AM_0
 10
85.409282874747177
 20
502.43602421091589
 30
0.0
 40
1.292776816026465
 50
322.11555894631198
 51
0.0000000000065138
  0
ARC
  5
E478
  8
AM_0
 10
85.294836506800266
 20
502.43602421091578
 30
0.0
 40
1.292776816026554
 50
142.11555894630479
 51
217.88444105370229
  0
ARC
  5
E479
  8
AM_0
 10
85.409282874747177
 20
502.43602421091589
 30
0.0
 40
1.292776816026501
 50
0.0000000000065138
 51
37.884441053711413
  0
ARC
  5
E47A
  8
AM_0
 10
83.11486513324428
 20
503.04524233673919
 30
0.0
 40
0.4128054424705855
 50
180.00000000000659
 51
240.00000000000841
  0
ARC
  5
E47B
  8
AM_0
 10
83.428210019045665
 20
501.43433258257272
 30
0.0
 40
0.8256108849411369
 50
28.217424594182571
 51
59.999999999999439
  0
LINE
  5
E47C
  8
AM_0
 10
99.302059690774215
 20
496.31759407132358
 30
0.0
 11
99.302059690773945
 21
498.90210375592733
 31
0.0
  0
LINE
  5
E47D
  8
AM_0
 10
99.155613081367306
 20
499.25565714652078
 30
0.0
 11
98.800545955179004
 21
499.61072427270921
 31
0.0
  0
LINE
  5
E47E
  8
AM_0
 10
87.302059690773945
 20
498.90210375592659
 30
0.0
 11
87.302059690774186
 21
496.31759407132262
 31
0.0
  0
LINE
  5
E47F
  8
AM_0
 10
87.803573426368885
 20
499.61072427270841
 30
0.0
 11
87.44850630018081
 21
499.25565714651998
 31
0.0
  0
LINE
  5
E480
  8
AM_0
 10
98.802059690774115
 20
495.81759407132358
 30
0.0
 11
98.321481804926762
 21
495.81759407132358
 31
0.0
  0
LINE
  5
E481
  8
AM_0
 10
88.282637576621383
 20
495.81759407132262
 30
0.0
 11
87.802059690774186
 21
495.81759407132262
 31
0.0
  0
ARC
  5
E482
  8
AM_0
 10
99.154099345772138
 20
499.96427766330248
 30
0.0
 40
0.4999999999998723
 50
164.79096035990599
 51
225.0000000000276
  0
ARC
  5
E483
  8
AM_0
 10
87.802059690774186
 20
496.31759407132262
 30
0.0
 40
0.5
 50
180.0
 51
270.00000000000648
  0
ARC
  5
E484
  8
AM_0
 10
98.802059690774115
 20
496.31759407132358
 30
0.0
 40
0.5
 50
270.00000000000648
 51
0.0
  0
ARC
  5
E485
  8
AM_0
 10
98.802059690773945
 20
498.90210375592733
 30
0.0
 40
0.5
 50
0.0
 51
45.000000000009209
  0
ARC
  5
E486
  8
AM_0
 10
87.450020035775509
 20
499.9642776633018
 30
0.0
 40
0.5000000000001048
 50
314.99999999999079
 51
15.209039640101111
  0
ARC
  5
E487
  8
AM_0
 10
87.802059690773945
 20
498.90210375592659
 30
0.0
 40
0.499999999999984
 50
134.99999999999079
 51
180.0
  0
LINE
  5
E488
  8
AM_0
 10
89.282637576621553
 20
479.67144267350119
 30
0.0
 11
89.282637576621468
 21
494.81759407132279
 31
0.0
  0
ARC
  5
E489
  8
AM_0
 10
88.282637576621468
 20
494.81759407132279
 30
0.0
 40
1.0
 50
0.0
 51
90.000000000006509
1001
GENIUS_GENODEF_13
1002
{
1000
HIER
1070
     0
1002
}
1002
{
1000
MANEDIT
1070
     0
1002
}
1002
{
1000
NOSEL
1070
     0
1002
}
1002
{
1000
BEHIND
1070
     0
1002
}
1002
{
1000
OTHER
1070
     0
1002
}
1002
{
1000
REACTOR
1002
}
1001
GENIUS_GENOBJ-N-FIL_13
1002
{
1000
OWNER
1000
GEN
1002
}
  0
ARC
  5
E48A
  8
AM_0
 10
84.282637576621582
 20
479.67144267350119
 30
0.0
 40
5.0
 50
340.61819430097682
 51
0.0
1001
GENIUS_GENOBJ-N-FIL_13
1002
{
1000
OWNER
1000
GEN
1002
}
1001
GENIUS_GENODEF_13
1002
{
1000
HIER
1070
     0
1002
}
1002
{
1000
MANEDIT
1070
     0
1002
}
1002
{
1000
NOSEL
1070
     0
1002
}
1002
{
1000
BEHIND
1070
     0
1002
}
1002
{
1000
OTHER
1070
     0
1002
}
1002
{
1000
REACTOR
1002
}
  0
LINE
  5
E48B
  8
AM_0
 10
97.321481804926776
 20
478.20225720858417
 30
0.0
 11
97.321481804926776
 21
494.81759407132358
 31
0.0
  0
ARC
  5
E48C
  8
AM_0
 10
98.321481804926762
 20
494.81759407132358
 30
0.0
 40
1.0
 50
90.000000000006509
 51
180.0
1001
GENIUS_GENOBJ-N-FIL_13
1002
{
1000
OWNER
1000
GEN
1002
}
1001
GENIUS_GENODEF_13
1002
{
1000
HIER
1070
     0
1002
}
1002
{
1000
MANEDIT
1070
     0
1002
}
1002
{
1000
NOSEL
1070
     0
1002
}
1002
{
1000
BEHIND
1070
     0
1002
}
1002
{
1000
OTHER
1070
     0
1002
}
1002
{
1000
REACTOR
1002
}
  0
ARC
  5
E48D
  8
AM_0
 10
92.321481804926776
 20
478.20225720858417
 30
0.0
 40
5.0
 50
337.24433268079622
 51
0.0
1001
GENIUS_GENODEF_13
1002
{
1000
HIER
1070
     0
1002
}
1002
{
1000
MANEDIT
1070
     0
1002
}
1002
{
1000
NOSEL
1070
     0
1002
}
1002
{
1000
BEHIND
1070
     0
1002
}
1002
{
1000
OTHER
1070
     0
1002
}
1002
{
1000
REACTOR
1002
}
1001
GENIUS_GENOBJ-N-FIL_13
1002
{
1000
OWNER
1000
GEN
1002
}
  0
LINE
  5
E48E
  8
AM_0
 10
88.028598537431662
 20
499.8357493837712
 30
0.0
 11
98.575520844116795
 21
499.8357493837712
 31
0.0
  0
LINE
  5
E48F
  8
AM_0
 10
88.028598537431336
 20
509.79943875887483
 30
0.0
 11
98.575520844115871
 21
509.79943875887483
 31
0.0
  0
LINE
  5
E490
  8
AM_0
 10
84.891474939438069
 20
540.80800491624905
 30
0.0
 11
84.891474939438069
 21
521.31759407132313
 31
0.0
  0
LINE
  5
E491
  8
AM_0
 10
87.845898198474657
 20
549.81759407132313
 30
0.0
 11
87.845898198474657
 21
521.31759407132313
 31
0.0
  0
LINE
  5
E492
  8
AM_0
 10
112.8020596907735
 20
451.017594071323
 30
0.0
 11
112.8020596907735
 21
458.61759407132303
 31
0.0
  0
LINE
  5
E493
  8
AM_0
 10
112.8020596907735
 20
458.61759407132303
 30
0.0
 11
113.8020596907735
 21
458.61759407132303
 31
0.0
  0
LINE
  5
E494
  8
AM_0
 10
113.8020596907735
 20
455.017594071323
 30
0.0
 11
112.8020596907735
 21
455.38156430558922
 31
0.0
  0
LINE
  5
E495
  8
AM_0
 10
113.8020596907735
 20
454.61759407132303
 30
0.0
 11
112.8020596907735
 21
454.98156430558919
 31
0.0
  0
LINE
  5
E496
  8
AM_0
 10
113.8020596907735
 20
451.017594071323
 30
0.0
 11
112.8020596907735
 21
451.017594071323
 31
0.0
  0
LINE
  5
E497
  8
AM_0N
 10
111.74312217864561
 20
458.72494904362952
 30
0.0
 11
112.8020596907735
 21
458.81759407132301
 31
0.0
  0
LINE
  5
E498
  8
AM_0N
 10
111.74312217864561
 20
450.91023909901651
 30
0.0
 11
112.8020596907735
 21
450.81759407132301
 31
0.0
  0
ARC
  5
E499
  8
AM_0N
 10
116.2020596907735
 20
454.81759407132301
 30
0.0
 40
6.5
 50
151.82726586813479
 51
208.1727341318651
  0
ARC
  5
E49A
  8
AM_0N
 10
111.882571367042
 20
452.50415061596328
 30
0.0
 40
1.6000000000000001
 50
208.1727341318651
 51
265.00000000000028
  0
ARC
  5
E49B
  8
AM_0N
 10
111.882571367042
 20
457.13103752668258
 30
0.0
 40
1.6000000000000001
 50
94.999999999999716
 51
151.82726586813479
  0
LINE
  5
E49C
  8
AM_0N
 10
112.8020596907735
 20
450.81759407132301
 30
0.0
 11
112.8020596907735
 21
458.81759407132301
 31
0.0
  0
LINE
  5
E49D
  8
AM_0
 10
112.8020596907736
 20
526.08009407132283
 30
0.0
 11
112.8020596907736
 21
533.68009407132308
 31
0.0
  0
LINE
  5
E49E
  8
AM_0
 10
112.8020596907736
 20
533.68009407132308
 30
0.0
 11
113.8020596907736
 21
533.68009407132308
 31
0.0
  0
LINE
  5
E49F
  8
AM_0
 10
113.8020596907736
 20
530.08009407132283
 30
0.0
 11
112.8020596907736
 21
530.44406430558888
 31
0.0
  0
LINE
  5
E4A0
  8
AM_0
 10
113.8020596907736
 20
529.68009407132308
 30
0.0
 11
112.8020596907736
 21
530.04406430558925
 31
0.0
  0
LINE
  5
E4A1
  8
AM_0
 10
113.8020596907736
 20
526.08009407132283
 30
0.0
 11
112.8020596907736
 21
526.08009407132283
 31
0.0
  0
LINE
  5
E4A2
  8
AM_0N
 10
111.74312217864571
 20
533.78744904362952
 30
0.0
 11
112.8020596907736
 21
533.8800940713229
 31
0.0
  0
LINE
  5
E4A3
  8
AM_0N
 10
111.74312217864571
 20
525.97273909901651
 30
0.0
 11
112.8020596907736
 21
525.8800940713229
 31
0.0
  0
ARC
  5
E4A4
  8
AM_0N
 10
116.20205969077369
 20
529.8800940713229
 30
0.0
 40
6.5
 50
151.82726586813479
 51
208.1727341318651
  0
ARC
  5
E4A5
  8
AM_0N
 10
111.8825713670421
 20
527.56665061596323
 30
0.0
 40
1.6000000000000001
 50
208.1727341318651
 51
265.00000000000028
  0
ARC
  5
E4A6
  8
AM_0N
 10
111.8825713670421
 20
532.19353752668223
 30
0.0
 40
1.6000000000000001
 50
94.999999999999716
 51
151.82726586813479
  0
LINE
  5
E4A7
  8
AM_0N
 10
112.8020596907736
 20
525.8800940713229
 30
0.0
 11
112.8020596907736
 21
533.8800940713229
 31
0.0
  0
LINE
  5
E4A8
  8
AM_0
 10
136.80205969077369
 20
490.47847747730827
 30
0.0
 11
128.8020596907744
 21
490.47847747730827
 31
0.0
  0
LINE
  5
E4A9
  8
AM_0
 10
136.8020596907736
 20
519.1567106653423
 30
0.0
 11
128.8020596907742
 21
519.1567106653423
 31
0.0
  0
LINE
  5
E4AA
  8
AM_0
 10
136.80205969077369
 20
451.81762751989987
 30
0.0
 11
144.30208969077381
 21
451.81762751989987
 31
0.0
  0
LINE
  5
E4AB
  8
AM_0
 10
136.99208969077381
 20
548.01263151989963
 30
0.0
 11
143.22206969077371
 21
548.01263151989963
 31
0.0
  0
LINE
  5
E4AC
  8
AM_0
 10
136.80205969077369
 20
557.81763151989981
 30
0.0
 11
144.30208969077381
 21
557.81763151989981
 31
0.0
  0
LINE
  5
E4AD
  8
AM_0
 10
136.99208969077381
 20
461.63263751989967
 30
0.0
 11
143.22206969077371
 21
461.63263751989967
 31
0.0
  0
ARC
  5
E5AB
  8
AM_0
 10
277.02359568006182
 20
459.81757126960503
 30
0.0
 40
2.0
 50
0.9999885880223155
 51
90.0
1001
GENIUS_GENOBJ-N-FIL_13
1002
{
1000
OWNER
1000
GEN
1002
}
1001
GENIUS_GENODEF_13
1002
{
1000
HIER
1070
     0
1002
}
1002
{
1000
MANEDIT
1070
     0
1002
}
1002
{
1000
NOSEL
1070
     0
1002
}
1002
{
1000
BEHIND
1070
     0
1002
}
1002
{
1000
OTHER
1070
     0
1002
}
1002
{
1000
REACTOR
1002
}
  0
TEXT
  5
EAB2
  8
AM_0
 10
495.54257537773668
 20
479.33068370459932
 30
0.0
 40
10.0
  1
VC01-080BHW~VC01-240BHW
1001
ACAD
1000
MTEXTBEGIN
1070
    73
1070
     1
1070
    44
1040
1.0
1070
    74
1070
     0
1000
MTEXTEND
  0
VIEWPORT
  5
89
 67
     1
  8
0
 10
210.0
 20
148.5
 30
0.0
 40
420.0
 41
297.0
 68
    -1
 69
     1
1001
ACAD
1000
MVIEW
1002
{
1070
    16
1010
0.0
1020
0.0
1030
0.0
1010
0.0
1020
0.0
1030
1.0
1040
0.0
1040
297.0
1040
221.70154043645701
1040
148.5
1040
50.0
1040
0.0
1040
0.0
1070
     0
1070
   100
1070
     1
1070
     1
1070
     0
1070
     0
1070
     0
1070
     0
1040
0.0
1040
0.0
1040
0.0
1040
10.0
1040
10.0
1040
10.0
1040
10.0
1070
     0
1002
{
1002
}
1002
}
1001
GENIUS_GENOREF_13
1005
1B94
1001
GENIUS_GENSCREG_15
1000
PF
1040
1.0
1000
DF
1040
1.0
1000
MIN
1011
0.0
1021
0.0
1031
-4.1410478080745894E+071
1021
0.0
1031
0.0
1000
MAX
1011
420.0
1021
0.0
1031
-4.1410478080745894E+071
1021
297.0
1031
0.0
1000
FLAGS
1070
     4
  0
ENDSEC
  0
EOF
