  0
SECTION
  2
HEADER
  9
$ACADVER
  1
AC1009
  9
$INSBASE
 10
0.0
 20
0.0
 30
0.0
  9
$EXTMIN
 10
47.183694974267382
 20
139.99530421137359
 30
-0.0000000349181948
  9
$EXTMAX
 10
771.99971197533841
 20
576.93593473258829
 30
0.0000000814935747
  9
$LIMMIN
 10
0.0
 20
0.0
  9
$LIMMAX
 10
853.5
 20
555.00000000000011
  9
$ORTHOMODE
 70
     0
  9
$REGENMODE
 70
     1
  9
$FILLMODE
 70
     1
  9
$QTEXTMODE
 70
     0
  9
$MIRRTEXT
 70
     1
  9
$DRAGMODE
 70
     2
  9
$LTSCALE
 40
3.0
  9
$OSMODE
 70
   551
  9
$ATTMODE
 70
     1
  9
$TEXTSIZE
 40
2.5
  9
$TRACEWID
 40
1.0
  9
$TEXTSTYLE
  7
STANDARD
  9
$CLAYER
  8
AM_0
  9
$CELTYPE
  6
BYLAYER
  9
$CECOLOR
 62
   256
  9
$DIMSCALE
 40
3.0
  9
$DIMASZ
 40
2.5
  9
$DIMEXO
 40
1.0
  9
$DIMDLI
 40
7.0
  9
$DIMRND
 40
0.0
  9
$DIMDLE
 40
0.0
  9
$DIMEXE
 40
1.0
  9
$DIMTP
 40
0.1
  9
$DIMTM
 40
0.1000000001
  9
$DIMTXT
 40
2.5
  9
$DIMCEN
 40
0.0
  9
$DIMTSZ
 40
0.0
  9
$DIMTOL
 70
     0
  9
$DIMLIM
 70
     0
  9
$DIMTIH
 70
     0
  9
$DIMTOH
 70
     0
  9
$DIMSE1
 70
     0
  9
$DIMSE2
 70
     0
  9
$DIMTAD
 70
     3
  9
$DIMZIN
 70
     8
  9
$DIMBLK
  1

  9
$DIMASO
 70
     1
  9
$DIMSHO
 70
     1
  9
$DIMPOST
  1

  9
$DIMAPOST
  1
"
  9
$DIMALT
 70
     0
  9
$DIMALTD
 70
     2
  9
$DIMALTF
 40
0.0393701
  9
$DIMLFAC
 40
1.0
  9
$DIMTOFL
 70
     1
  9
$DIMTVP
 40
0.0
  9
$DIMTIX
 70
     0
  9
$DIMSOXD
 70
     0
  9
$DIMSAH
 70
     0
  9
$DIMBLK1
  1

  9
$DIMBLK2
  1

  9
$DIMSTYLE
  2
AM_JIS
  9
$DIMCLRD
 70
   256
  9
$DIMCLRE
 70
   256
  9
$DIMCLRT
 70
     4
  9
$DIMTFAC
 40
0.71
  9
$DIMGAP
 40
1.0
  9
$LUNITS
 70
     2
  9
$LUPREC
 70
     2
  9
$SKETCHINC
 40
1.0
  9
$FILLETRAD
 40
7.5
  9
$AUNITS
 70
     0
  9
$AUPREC
 70
     3
  9
$MENU
  1
.
  9
$ELEVATION
 40
0.0
  9
$PELEVATION
 40
0.0
  9
$THICKNESS
 40
0.0
  9
$LIMCHECK
 70
     0
  9
$BLIPMODE
 70
     0
  9
$CHAMFERA
 40
0.5
  9
$CHAMFERB
 40
0.5
  9
$SKPOLY
 70
     0
  9
$TDCREATE
 40
2453455.36471191
  9
$TDUPDATE
 40
2458543.570098646
  9
$TDINDWG
 40
0.3822393866
  9
$TDUSRTIMER
 40
0.3822388542
  9
$USRTIMER
 70
     1
  9
$ANGBASE
 50
0.0
  9
$ANGDIR
 70
     0
  9
$PDMODE
 70
     0
  9
$PDSIZE
 40
0.0
  9
$PLINEWID
 40
0.0
  9
$COORDS
 70
     1
  9
$SPLFRAME
 70
     0
  9
$SPLINETYPE
 70
     6
  9
$SPLINESEGS
 70
     8
  9
$ATTDIA
 70
     1
  9
$ATTREQ
 70
     1
  9
$HANDLING
 70
     1
  9
$HANDSEED
  5
123BF
  9
$SURFTAB1
 70
     6
  9
$SURFTAB2
 70
     6
  9
$SURFTYPE
 70
     6
  9
$SURFU
 70
     6
  9
$SURFV
 70
     6
  9
$UCSNAME
  2

  9
$UCSORG
 10
0.0
 20
0.0
 30
0.0
  9
$UCSXDIR
 10
1.0
 20
0.0
 30
0.0
  9
$UCSYDIR
 10
0.0
 20
1.0
 30
0.0
  9
$PUCSNAME
  2

  9
$PUCSORG
 10
0.0
 20
0.0
 30
0.0
  9
$PUCSXDIR
 10
1.0
 20
0.0
 30
0.0
  9
$PUCSYDIR
 10
0.0
 20
1.0
 30
0.0
  9
$USERI1
 70
     0
  9
$USERI2
 70
     0
  9
$USERI3
 70
     0
  9
$USERI4
 70
     0
  9
$USERI5
 70
     0
  9
$USERR1
 40
0.0
  9
$USERR2
 40
0.0
  9
$USERR3
 40
0.0
  9
$USERR4
 40
0.0
  9
$USERR5
 40
0.0
  9
$WORLDVIEW
 70
     1
  9
$SHADEDGE
 70
     3
  9
$SHADEDIF
 70
    70
  9
$TILEMODE
 70
     1
  9
$MAXACTVP
 70
    48
  9
$PLIMCHECK
 70
     0
  9
$PEXTMIN
 10
1.0000000000000000E+020
 20
1.0000000000000000E+020
 30
1.0000000000000000E+020
  9
$PEXTMAX
 10
-1.0000000000000000E+020
 20
-1.0000000000000000E+020
 30
-1.0000000000000000E+020
  9
$PLIMMIN
 10
0.0
 20
0.0
  9
$PLIMMAX
 10
420.0
 20
297.0
  9
$UNITMODE
 70
     0
  9
$VISRETAIN
 70
     1
  9
$PLINEGEN
 70
     0
  9
$PSLTSCALE
 70
     1
  0
ENDSEC
  0
SECTION
  2
TABLES
  0
TABLE
  2
VPORT
 70
     1
  0
VPORT
  2
*ACTIVE
 70
     0
 10
0.0
 20
0.0
 11
1.0
 21
1.0
 12
409.5917034748029
 22
358.46561947198097
 13
0.0
 23
0.0
 14
7.5
 24
7.5
 15
30.0
 25
30.0
 16
0.0
 26
0.0
 36
1.0
 17
0.0
 27
0.0
 37
0.0
 40
439.94022295042208
 41
1.7571592210767459
 42
50.0
 43
0.0
 44
0.0
 50
0.0
 51
0.0
 71
    16
 72
   100
 73
     1
 74
     1
 75
     0
 76
     0
 77
     0
 78
     0
  0
ENDTAB
  0
TABLE
  2
LTYPE
 70
    20
  0
LTYPE
  2
CONTINUOUS
 70
     0
  3
Solid line
 72
    65
 73
     0
 40
0.0
  0
LTYPE
  2
HIDDEN
 70
     0
  3
Hidden __ __ __ __ __ __ __ __ __ __ __ __ __ _
 72
    65
 73
     2
 40
9.5249999999999968
 49
6.349999999999997
 49
-3.174999999999998
  0
LTYPE
  2
PHANTOM2
 70
     0
  3
Phantom (.5x) ___ _ _ ___ _ _ ___ _ _ ___ _ _
 72
    65
 73
     6
 40
31.75
 49
15.875
 49
-3.174999999999998
 49
3.174999999999998
 49
-3.174999999999998
 49
3.174999999999998
 49
-3.174999999999998
  0
LTYPE
  2
CENTER
 70
     0
  3
Center ____ _ ____ _ ____ _ ____ _ ____ _ ____
 72
    65
 73
     4
 40
50.799999999999997
 49
31.75
 49
-6.349999999999997
 49
6.349999999999997
 49
-6.349999999999997
  0
LTYPE
  2
GEN7
 70
     0
  3
____ . ____ . ____ . ____ . ____ . ____ . ____
 72
    65
 73
     4
 40
14.25
 49
9.75
 49
-1.5
 49
1.5
 49
-1.5
  0
LTYPE
  2
GEN3B
 70
     0
  3
 - - - - -
 72
    65
 73
     2
 40
1.0
 49
0.5
 49
-0.5
  0
LTYPE
  2
GEN7A
 70
     0
  3
__ . __ . __
 72
    65
 73
     4
 40
7.375
 49
4.75
 49
-0.875
 49
0.875
 49
-0.875
  0
LTYPE
  2
AMCONSTR
 70
     0
  3
_______________________
 72
    65
 73
     2
 40
9999.0
 49
9999.0
 49
0.0
  0
LTYPE
  2
CENTER2
 70
     0
  3
Center (.5x) ___ _ ___ _ ___ _ ___ _ ___ _ ___
 72
    65
 73
     4
 40
1.125
 49
0.75
 49
-0.125
 49
0.125
 49
-0.125
  0
LTYPE
  2
HIDDEN2
 70
     0
  3
Hidden (.5x) _ _ _ _ _ _ _ _ _ _ _ _ _ _ _ _ _
 72
    65
 73
     2
 40
0.1875
 49
0.125
 49
-0.0625
  0
LTYPE
  2
ACANSTGB
 70
     0
  3
__ . . __ . .
 72
    65
 73
     6
 40
0.35433070866
 49
0.15748031496
 49
-0.03937007874
 49
0.03937007874
 49
-0.03937007874
 49
0.03937007874
 49
-0.03937007874
  0
LTYPE
  2
ACANSTGL
 70
     0
  3
_ _ _ _ _
 72
    65
 73
     2
 40
0.11811023622
 49
0.07874015748
 49
-0.03937007874
  0
LTYPE
  2
AM_ISO02W050
 70
     0
  3
__ __ __ __ __ __ __ __ __ __ __ __ __ __ __
 72
    65
 73
     2
 40
7.5
 49
6.0
 49
-1.5
  0
LTYPE
  2
AM_ISO08W050
 70
     0
  3
____ . ____ . ____ . ____ . ____ . ____ . ____
 72
    65
 73
     4
 40
18.0
 49
12.0
 49
-1.5
 49
3.0
 49
-1.5
  0
LTYPE
  2
AM_ISO09W050
 70
     0
  3
_____ . . _____ . . _____ . . ____ .. ____
 72
    65
 73
     6
 40
22.5
 49
12.0
 49
-1.5
 49
3.0
 49
-1.5
 49
3.0
 49
-1.5
  0
LTYPE
  2
AM_ISO08W050X2
 70
     0
  3
__ . __ . __ . __ . __ . __
 72
    65
 73
     4
 40
9.0
 49
6.0
 49
-0.75
 49
1.5
 49
-0.75
  0
LTYPE
  2
AM_ISO02W050X2
 70
     0
  3
 _ _ _ _ _ _ _ _ _ _ _ _
 72
    65
 73
     2
 40
3.75
 49
3.0
 49
-0.75
  0
LTYPE
  2
AMZIGZAG
 70
     0
  3
/\/-/\/-/\/-/\/-/\/-/\/
 72
    65
 73
     2
 40
11.0001
 49
0.0001
 49
-11.0
  0
LTYPE
  2
AMZIGZAG2
 70
     0
  3
/\/-/\/-/\/-/\/-/\/-/\/
 72
    65
 73
     2
 40
0.4401
 49
0.0001
 49
-0.4400000000000001
  0
ENDTAB
  0
TABLE
  2
LAYER
 70
     7
  0
LAYER
  2
0
 70
     0
 62
     7
  6
CONTINUOUS
  0
LAYER
  2
AM_0
 70
     0
 62
     7
  6
CONTINUOUS
  0
LAYER
  2
DEFPOINTS
 70
     0
 62
     7
  6
CONTINUOUS
  0
LAYER
  2
ｶｸﾚｾﾝ2
 70
     0
 62
     3
  6
GEN3B
  0
LAYER
  2
ﾁｭｳｼﾝｾﾝ
 70
     0
 62
     1
  6
GEN7
  0
LAYER
  2
ﾁｭｳｼﾝｾﾝ1
 70
     0
 62
     1
  6
GEN7A
  0
LAYER
  2
AM_0N
 70
     0
 62
     7
  6
CONTINUOUS
  0
ENDTAB
  0
TABLE
  2
STYLE
 70
     4
  0
STYLE
  2
STANDARD
 70
     0
 40
0.0
 41
0.8299999999999999
 50
0.0
 71
     0
 42
2.5
  3
txt.shx
  4
bigfont.shx
  0
STYLE
  2
ACANSTS
 70
     0
 40
1.0
 41
1.0
 50
0.0
 71
     0
 42
2.5
  3
romans.shx
  4
extfont.shx
  0
STYLE
  2
ACANSGDT
 70
     0
 40
0.0
 41
1.0
 50
0.0
 71
     0
 42
2.5
  3
amgdt.shx
  4

  0
STYLE
  2

 70
     1
 40
0.0
 41
1.0
 50
0.0
 71
     0
 42
2.5
  3
genltshp.shx
  4

  0
ENDTAB
  0
TABLE
  2
VIEW
 70
    12
  0
VIEW
  2
GEN1
 70
     0
 40
95.824742268041234
 10
71.5
 20
137.08762886597941
 41
143.0
 11
0.0
 21
0.0
 31
1.0
 12
0.0
 22
0.0
 32
0.0
 42
50.0
 43
0.0
 44
0.0
 50
0.0
 71
     0
  0
VIEW
  2
GEN2
 70
     0
 40
95.824742268041234
 10
214.5
 20
137.08762886597941
 41
143.0
 11
0.0
 21
0.0
 31
1.0
 12
0.0
 22
0.0
 32
0.0
 42
50.0
 43
0.0
 44
0.0
 50
0.0
 71
     0
  0
VIEW
  2
GEN3
 70
     0
 40
95.824742268041234
 10
71.5
 20
47.912371134020603
 41
143.0
 11
0.0
 21
0.0
 31
1.0
 12
0.0
 22
0.0
 32
0.0
 42
50.0
 43
0.0
 44
0.0
 50
0.0
 71
     0
  0
VIEW
  2
GEN4
 70
     0
 40
95.824742268041234
 10
214.5
 20
47.912371134020603
 41
143.0
 11
0.0
 21
0.0
 31
1.0
 12
0.0
 22
0.0
 32
0.0
 42
50.0
 43
0.0
 44
0.0
 50
0.0
 71
     0
  0
VIEW
  2
GEN5
 70
     0
 40
95.824742268041234
 10
143.0
 20
92.500000000000057
 41
143.0
 11
0.0
 21
0.0
 31
1.0
 12
0.0
 22
0.0
 32
0.0
 42
50.0
 43
0.0
 44
0.0
 50
0.0
 71
     0
  0
VIEW
  2
GEN6
 70
     0
 40
191.64756804123709
 10
143.0
 20
92.5
 41
285.99714
 11
0.0
 21
0.0
 31
1.0
 12
0.0
 22
0.0
 32
0.0
 42
50.0
 43
0.0
 44
0.0
 50
0.0
 71
     0
  0
VIEW
  2
AM_VIEW1
 70
     0
 40
277.50000000000011
 10
219.35382685069021
 20
416.24999999999977
 41
438.70765370138031
 11
0.0
 21
0.0
 31
1.0
 12
0.0
 22
0.0
 32
0.0
 42
50.0
 43
0.0
 44
0.0
 50
0.0
 71
    16
  0
VIEW
  2
AM_VIEW2
 70
     0
 40
277.50000000000011
 10
634.14617314930956
 20
416.24999999999977
 41
438.70765370138031
 11
0.0
 21
0.0
 31
1.0
 12
0.0
 22
0.0
 32
0.0
 42
50.0
 43
0.0
 44
0.0
 50
0.0
 71
    16
  0
VIEW
  2
AM_VIEW3
 70
     0
 40
277.50000000000011
 10
219.35382685069021
 20
138.75
 41
438.70765370138031
 11
0.0
 21
0.0
 31
1.0
 12
0.0
 22
0.0
 32
0.0
 42
50.0
 43
0.0
 44
0.0
 50
0.0
 71
    16
  0
VIEW
  2
AM_VIEW4
 70
     0
 40
277.50000000000011
 10
634.14617314930956
 20
138.75
 41
438.70765370138031
 11
0.0
 21
0.0
 31
1.0
 12
0.0
 22
0.0
 32
0.0
 42
50.0
 43
0.0
 44
0.0
 50
0.0
 71
    16
  0
VIEW
  2
AM_VIEW5
 70
     0
 40
277.50000000000011
 10
426.75
 20
277.50000000000011
 41
438.70765370138031
 11
0.0
 21
0.0
 31
1.0
 12
0.0
 22
0.0
 32
0.0
 42
50.0
 43
0.0
 44
0.0
 50
0.0
 71
    16
  0
VIEW
  2
AM_VIEW6
 70
     0
 40
554.99445000000014
 10
426.75
 20
277.5
 41
877.40653324968639
 11
0.0
 21
0.0
 31
1.0
 12
0.0
 22
0.0
 32
0.0
 42
50.0
 43
0.0
 44
0.0
 50
0.0
 71
    16
  0
ENDTAB
  0
TABLE
  2
UCS
 70
     0
  0
ENDTAB
  0
TABLE
  2
APPID
 70
    98
  0
APPID
  2
ACAD
 70
     0
  0
APPID
  2
ACADANNOTATIVE
 70
     0
  0
APPID
  2
ACAD_MLEADERVER
 70
     0
  0
APPID
  2
MCAD_NO_VIS
 70
     0
  0
APPID
  2
ACAD_TEMP_GRAPHIC
 70
     0
  0
APPID
  2
AD_DRAW
 70
     0
  0
APPID
  2
DESIGNERASSEMBLIES
 70
     0
  0
APPID
  2
ASURF_PCURVE_APPNAME
 70
     0
  0
APPID
  2
GENIUS_GE3SECT_13
 70
     0
  0
APPID
  2
GENIUS_GENCFG_13
 70
     0
  0
APPID
  2
GENIUS_GE3CFG0_13
 70
     0
  0
APPID
  2
GENIUS_GENCFG0_13
 70
     0
  0
APPID
  2
GENIUS_GENCFG1_13
 70
     0
  0
APPID
  2
GENIUS_GENCFG2_13
 70
     0
  0
APPID
  2
GENIUS_GENCFG3_13
 70
     0
  0
APPID
  2
GENIUS_GENCFG4_13
 70
     0
  0
APPID
  2
GENIUS_GEVCFG0_13
 70
     0
  0
APPID
  2
GENIUS_GENOENT_13
 70
     0
  0
APPID
  2
GENIUS_GENREC_14
 70
     0
  0
APPID
  2
GENIUS_GENODEF_13
 70
     0
  0
APPID
  2
GENIUS_GENOBJ-N-REC_13
 70
     0
  0
APPID
  2
GENIUS_GENHINW_13
 70
     0
  0
APPID
  2
GENIUS_FIRSTVISTXT_14
 70
     0
  0
APPID
  2
GENIUS_GENOBJ-N-LEADER_13
 70
     0
  0
APPID
  2
GENIUS_GENOREF_13
 70
     0
  0
APPID
  2
GENIUS_GENOLIS_13
 70
     0
  0
APPID
  2
GEV_VCCNULL_SWITCH_OFF
 70
     0
  0
APPID
  2
GENIUS_GENDTOL_13
 70
     0
  0
APPID
  2
GENIUS_GEFCFG0_13
 70
     0
  0
APPID
  2
GENIUS_GENOBJ-N-TIT_13
 70
     0
  0
APPID
  2
GENIUS_GENTITLE_13
 70
     0
  0
APPID
  2
GENIUS_GENZVEED_13
 70
     0
  0
APPID
  2
GENIUS_GENOBJ-N-SDF_13
 70
     0
  0
APPID
  2
GENIUS_GENSCREG_13
 70
     0
  0
APPID
  2
GENIUS_DUMCFG0_13
 70
     0
  0
APPID
  2
GEVID936201362
 70
     0
  0
APPID
  2
GEVDC
 70
     0
  0
APPID
  2
GEVCON
 70
     0
  0
APPID
  2
VCC
 70
     0
  0
APPID
  2
GEVPT
 70
     0
  0
APPID
  2
GEVIT
 70
     0
  0
APPID
  2
GENBH
 70
     0
  0
APPID
  2
GEVMK
 70
     0
  0
APPID
  2
GENIUS_GENBH_13
 70
     0
  0
APPID
  2
GENIUS_GENOBJ-NBEHI-BHF_13
 70
     0
  0
APPID
  2
GENIUS_GENOBJ-NBEHI-BHB_13
 70
     0
  0
APPID
  2
GENIUS_GENOBJ-F-DESC_13
 70
     0
  0
APPID
  2
GENIUS_GEFDESC_14
 70
     0
  0
APPID
  2
GENIUS_GENOBJ-F-PART_13
 70
     0
  0
APPID
  2
GENIUS_GEFSTDP_13
 70
     0
  0
APPID
  2
GENIUS_GEFPARTINS_13
 70
     0
  0
APPID
  2
GENIUS_GENTRA_14
 70
     0
  0
APPID
  2
GENIUS_GENINF13_13
 70
     0
  0
APPID
  2
GENIUS_GENOBJ-N-INFOPT_13
 70
     0
  0
APPID
  2
GENIUS_GENOBJ-N-RSSYM_13
 70
     0
  0
APPID
  2
GENIUS_GENSYMENT_13
 70
     0
  0
APPID
  2
GENIUS_GENSCSYM_13
 70
     0
  0
APPID
  2
GENIUS_GEFINFNAM_13
 70
     0
  0
APPID
  2
GENIUS_GENSCREG_15
 70
     0
  0
APPID
  2
GENIUS_GENOBJ-N-CEN_13
 70
     0
  0
APPID
  2
GENIUS_GENOBJ-N-CRS_13
 70
     0
  0
APPID
  2
GENIUS_GENOBJ-N-CRC_13
 70
     0
  0
APPID
  2
GENIUS_GENCRC_14
 70
     0
  0
APPID
  2
GEVID942827039
 70
     0
  0
APPID
  2
GEVID942827040
 70
     0
  0
APPID
  2
GEVID942827041
 70
     0
  0
APPID
  2
GENIUS_GENOBJ-F-SCPASSM_13
 70
     0
  0
APPID
  2
GENIUS_GENDIMSH_14
 70
     0
  0
APPID
  2
GENIUS_GENFIL_13
 70
     0
  0
APPID
  2
GENIUS_GENOBJ-N-CHA_13
 70
     0
  0
APPID
  2
GENIUS_GENOBJ-N-FIL_13
 70
     0
  0
APPID
  2
GEVID942827042
 70
     0
  0
APPID
  2
GEVID946020473
 70
     0
  0
APPID
  2
GEVID946020474
 70
     0
  0
APPID
  2
GEVID946020475
 70
     0
  0
APPID
  2
GENIUS_GENOBJ-N-HTC_13
 70
     0
  0
APPID
  2
GENIUS_GENHATCH_13
 70
     0
  0
APPID
  2
GEVID948854295
 70
     0
  0
APPID
  2
GEVID939402019
 70
     0
  0
APPID
  2
GEVID952919491
 70
     0
  0
APPID
  2
GEVID952919492
 70
     0
  0
APPID
  2
GENIUS_GEFWELD_13
 70
     0
  0
APPID
  2
GENIUS_GENOBJ-F-WELS_13
 70
     0
  0
APPID
  2
GEVID952919493
 70
     0
  0
APPID
  2
GENIUS_GENOBJ-N-RSBK_13
 70
     0
  0
APPID
  2
GENIUS_GENOBJ-N-LIB_13
 70
     0
  0
APPID
  2
GENIUS_GENSCALE_13
 70
     0
  0
APPID
  2
GEVID986376691
 70
     0
  0
APPID
  2
ACATTRIBSERVICES
 70
     0
  0
APPID
  2
ACADM_DIM_EDIT
 70
     0
  0
APPID
  2
AMDT_DM_ADJ
 70
     0
  0
APPID
  2
ACAD_PSEXT
 70
     0
  0
APPID
  2
ACAD_DSTYLE_DIMARC_LENGTH_
 70
     0
  0
APPID
  2
ACAD_DSTYLE_DIMBREAK
 70
     0
  0
APPID
  2
ACAD_DSTYLE_DIMJAG
 70
     0
  0
APPID
  2
ACAD_NAV_VCDISPLAY
 70
     0
  0
APPID
  2
ACADANNOPO
 70
     0
  0
APPID
  2
ACAD_EXEMPT_FROM_CAD_STANDARDS
 70
     0
  0
ENDTAB
  0
TABLE
  2
DIMSTYLE
 70
     8
  0
DIMSTYLE
  2
STANDARD
 70
     0
  3

  4

  5

  6

  7

 40
1.0
 41
0.18
 42
0.0625
 43
0.38
 44
0.18
 45
0.0
 46
0.0
 47
0.0
 48
0.0
140
0.18
141
0.09
142
0.0
143
25.399999999999999
144
1.0
145
0.0
146
1.0
147
0.09
 71
     0
 72
     0
 73
     1
 74
     1
 75
     0
 76
     0
 77
     0
 78
     0
170
     0
171
     2
172
     0
173
     0
174
     0
175
     0
176
     0
177
     0
178
     0
  0
DIMSTYLE
  2
AM_JIS
 70
     0
  3

  4
"
  5

  6

  7

 40
1.0
 41
2.5
 42
1.0
 43
7.0
 44
1.0
 45
0.0
 46
0.0
 47
0.1
 48
0.1000000001
140
2.5
141
0.0
142
0.0
143
0.0393701
144
1.0
145
0.0
146
0.71
147
1.0
 71
     0
 72
     0
 73
     0
 74
     0
 75
     0
 76
     0
 77
     3
 78
     8
170
     0
171
     2
172
     1
173
     0
174
     0
175
     0
176
   256
177
   256
178
     4
  0
DIMSTYLE
  2
AM_ANSI
 70
     0
  3

  4
mm
  5

  6

  7

 40
1.0
 41
0.1
 42
0.05
 43
0.5
 44
0.1
 45
0.0
 46
0.0
 47
0.1
 48
0.1
140
0.12
141
0.0
142
0.0
143
25.399999999999999
144
1.0
145
0.0
146
0.71
147
0.06
 71
     0
 72
     0
 73
     1
 74
     1
 75
     0
 76
     0
 77
     0
 78
     7
170
     0
171
     2
172
     0
173
     0
174
     0
175
     0
176
   256
177
   256
178
     2
  0
DIMSTYLE
  2
AM_ANSI$3
 70
     0
  3

  4
mm
  5

  6

  7

 40
1.0
 41
0.1
 42
0.05
 43
0.5
 44
0.1
 45
0.0
 46
0.0
 47
0.1
 48
0.1
140
0.12
141
0.0
142
0.0
143
25.399999999999999
144
1.0
145
0.0
146
0.71
147
0.06
 71
     0
 72
     0
 73
     1
 74
     1
 75
     0
 76
     0
 77
     0
 78
     7
170
     0
171
     2
172
     0
173
     0
174
     0
175
     0
176
   256
177
   256
178
     2
  0
DIMSTYLE
  2
AM_ANSI$4
 70
     0
  3

  4
mm
  5

  6

  7

 40
1.0
 41
0.1
 42
0.05
 43
0.5
 44
0.1
 45
0.0
 46
0.0
 47
0.1
 48
0.1
140
0.12
141
0.0
142
0.0
143
25.399999999999999
144
1.0
145
0.0
146
0.71
147
0.06
 71
     0
 72
     0
 73
     1
 74
     1
 75
     0
 76
     0
 77
     0
 78
     7
170
     0
171
     2
172
     0
173
     0
174
     0
175
     0
176
   256
177
   256
178
     2
  0
DIMSTYLE
  2
AM_ANSI$7
 70
     0
  3

  4
mm
  5

  6

  7

 40
1.0
 41
0.1
 42
0.05
 43
0.5
 44
0.1
 45
0.0
 46
0.0
 47
0.1
 48
0.1
140
0.24
141
0.0
142
0.0
143
25.399999999999999
144
1.0
145
0.0
146
0.71
147
0.06
 71
     0
 72
     0
 73
     1
 74
     1
 75
     0
 76
     0
 77
     0
 78
     7
170
     0
171
     2
172
     0
173
     0
174
     0
175
     0
176
   256
177
   256
178
     2
  0
DIMSTYLE
  2
AM_ANSI$SF
 70
     0
  3

  4
mm
  5

  6

  7

 40
1.0
 41
0.1
 42
0.05
 43
0.5
 44
0.1
 45
0.0
 46
0.0
 47
0.1
 48
0.1
140
0.12
141
0.0
142
0.0
143
25.399999999999999
144
1.0
145
0.0
146
0.71
147
0.06
 71
     0
 72
     0
 73
     1
 74
     1
 75
     1
 76
     1
 77
     0
 78
     7
170
     0
171
     2
172
     0
173
     0
174
     0
175
     0
176
   256
177
   256
178
     2
  0
DIMSTYLE
  2
AM_ANSI$SH
 70
     0
  3

  4
mm
  5

  6
GENAXEH
  7

 40
1.0
 41
0.1
 42
0.05
 43
0.5
 44
0.1
 45
0.0
 46
0.0
 47
0.1
 48
0.1
140
0.12
141
0.0
142
0.0
143
25.399999999999999
144
1.0
145
0.0
146
0.71
147
0.06
 71
     0
 72
     0
 73
     1
 74
     1
 75
     1
 76
     1
 77
     0
 78
     7
170
     0
171
     2
172
     0
173
     1
174
     0
175
     0
176
   256
177
   256
178
     2
  0
ENDTAB
  0
ENDSEC
  0
SECTION
  2
BLOCKS
  0
BLOCK
  8
0
  2
$MODEL_SPACE
 70
     0
 10
0.0
 20
0.0
 30
0.0
  3
$MODEL_SPACE
  1

  0
ENDBLK
  5
121A8
  8
0
  0
BLOCK
 67
     1
  8
0
  2
$PAPER_SPACE
 70
     0
 10
0.0
 20
0.0
 30
0.0
  3
$PAPER_SPACE
  1

  0
ENDBLK
  5
121A4
 67
     1
  8
0
  0
BLOCK
  8
0
  2
NEW_BLOCK
 70
     0
 10
0.0
 20
0.0
 30
0.0
  3
NEW_BLOCK
  1

  0
LINE
  5
EC4C
  8
AM_0
 10
-0.899999999999977
 20
37.800000000000011
 30
0.0
 11
-0.899999999999977
 21
28.800000000000011
 31
0.0
  0
LINE
  5
EC4D
  8
AM_0
 10
-6.2999999999999501
 20
27.900000000000009
 30
0.0
 11
-6.2999999999999501
 21
38.700000000000031
 31
0.0
  0
LINE
  5
EC4E
  8
AM_0
 10
-0.899999999999977
 20
28.800000000000011
 30
0.0
 11
-6.2999999999999501
 21
28.800000000000011
 31
0.0
  0
LINE
  5
EC4F
  8
AM_0
 10
0.0
 20
27.900000000000009
 30
0.0
 11
-6.2999999999999501
 21
27.900000000000009
 31
0.0
  0
LINE
  5
EC50
  8
AM_0
 10
-6.2999999999999501
 20
37.800000000000011
 30
0.0
 11
-0.899999999999977
 21
37.800000000000011
 31
0.0
  0
LINE
  5
EC51
  8
AM_0
 10
0.0
 20
38.700000000000031
 30
0.0
 11
-6.2999999999999501
 21
38.700000000000031
 31
0.0
  0
LINE
  5
EC52
  8
AM_0
 10
-6.2999999999999501
 20
-27.900000000000009
 30
0.0
 11
-6.2999999999999501
 21
-38.700000000000031
 31
0.0
  0
LINE
  5
EC53
  8
AM_0
 10
-0.899999999999977
 20
-37.800000000000011
 30
0.0
 11
-0.899999999999977
 21
-28.800000000000011
 31
0.0
  0
LINE
  5
EC54
  8
AM_0
 10
0.0
 20
-38.700000000000031
 30
0.0
 11
-6.2999999999999501
 21
-38.700000000000031
 31
0.0
  0
LINE
  5
EC55
  8
AM_0
 10
-6.2999999999999501
 20
-37.800000000000011
 30
0.0
 11
-0.899999999999977
 21
-37.800000000000011
 31
0.0
  0
LINE
  5
EC56
  8
AM_0
 10
0.0
 20
-27.900000000000009
 30
0.0
 11
-6.2999999999999501
 21
-27.900000000000009
 31
0.0
  0
LINE
  5
EC57
  8
AM_0
 10
-0.899999999999977
 20
-28.800000000000011
 30
0.0
 11
-6.2999999999999501
 21
-28.800000000000011
 31
0.0
  0
ENDBLK
  5
EC58
  8
0
  0
BLOCK
  8
0
  2
*U1
 70
     1
 10
0.0
 20
0.0
 30
0.0
  3
*U1
  1

  0
TEXT
  5
11EC9
  8
AM_0
 10
580.26047756889784
 20
499.89885565520251
 30
0.0
 40
9.0
  1
ＶＣ０４－０１０～０６０ＢＨＷ
 41
0.8299999999999999
  0
ENDBLK
  5
11ECB
  8
0
  0
BLOCK
  8
0
  2
GENAXEH
 70
     0
 10
0.0
 20
0.0
 30
0.0
  3
GENAXEH
  1

  0
LINE
  5
122B3
  8
0
 10
-1.0
 20
0.0
 30
0.0
 11
1.0
 21
0.0
 31
0.0
  0
ENDBLK
  5
122B5
  8
0
  0
BLOCK
  8
0
  2
_ACMFILLEDHALF
 70
     0
 10
0.0
 20
0.0
 30
0.0
  3
_ACMFILLEDHALF
  1

  0
TRACE
  5
1234A
  8
AM_0
 62
     0
 10
-0.8
 20
0.0
 30
0.0
 11
-1.0
 21
0.166666666
 31
0.0
 12
0.0
 22
0.0
 32
0.0
 13
0.0
 23
0.0
 33
0.0
  0
LINE
  5
1234B
  8
AM_0
 62
     0
 10
-1.0
 20
0.0
 30
0.0
 11
-0.8
 21
0.0
 31
0.0
  0
ENDBLK
  5
12349
  8
0
  0
ENDSEC
  0
SECTION
  2
ENTITIES
  0
POINT
  5
1B94
  8
0
 10
0.0
 20
0.0
 30
0.0
1001
GENIUS_GENODEF_13
1002
{
1000
HIER
1070
     1
1002
}
1002
{
1000
MANEDIT
1070
     0
1002
}
1002
{
1000
NOSEL
1070
     0
1002
}
1002
{
1000
BEHIND
1070
     0
1002
}
1002
{
1000
REACTOR
1002
}
1001
GENIUS_GENOBJ-N-SDF_13
1002
{
1000
OWNER
1000
GEN
1002
}
1001
GENIUS_GENOENT_13
1002
{
1000
MYREF
1005
1B94
1002
}
1002
{
1000
GRP
1005
0
1002
}
1001
GENIUS_GENOLIS_13
1002
{
1000
ENT
1005
89
1002
}
  0
CIRCLE
  5
F134
  8
AM_0
 10
413.18900856910648
 20
267.4535961522102
 30
0.0
 40
37.500001117587111
  0
LINE
  5
F135
  8
AM_0
 10
316.18897516070177
 20
203.45359424486159
 30
0.0
 11
464.18901008902452
 21
203.45359424486159
 31
0.0
  0
LINE
  5
F136
  8
AM_0
 10
316.18897516070177
 20
331.45359805955877
 30
0.0
 11
464.18901008902452
 21
331.45359805955877
 31
0.0
  0
LINE
  5
F137
  8
ﾁｭｳｼﾝｾﾝ
 10
47.243340493098231
 20
267.4535961522102
 30
0.0
 11
482.43901044665267
 21
267.45359615220991
 31
0.0
  0
LINE
  5
F138
  8
AM_0
 10
413.18900856910648
 20
209.4535944236755
 30
0.0
 11
447.21844735108311
 21
209.4535944236755
 31
0.0
  0
LINE
  5
F139
  8
AM_0
 10
413.18900856910648
 20
325.45359788074472
 30
0.0
 11
447.21844735108311
 21
325.45359788074472
 31
0.0
  0
ARC
  5
F13F
  8
AM_0
 10
413.18900856910648
 20
267.4535961522102
 30
0.0
 40
15.00000044703487
 50
105.4660096534905
 51
74.533984882808682
  0
LINE
  5
F141
  8
AM_0
 10
310.18897498188801
 20
302.4830349639895
 30
0.0
 11
310.18897498188801
 21
232.4241573404307
 31
0.0
  0
LINE
  5
F148
  8
AM_0
 10
304.18897480307419
 20
319.45359770193107
 30
0.0
 11
304.18897480307419
 21
215.45359460248929
 31
0.0
  0
LINE
  5
F149
  8
AM_0
 10
266.68897480307407
 20
203.45359615221
 30
0.0
 11
266.68897480307407
 21
331.45358615220982
 31
0.0
  0
LINE
  5
F14A
  8
AM_0
 10
277.68897480307407
 20
328.95358615221039
 30
0.0
 11
277.68897480307407
 21
205.95360615221011
 31
0.0
  0
LINE
  5
F14C
  8
AM_0
 10
296.09949797732412
 20
313.18231479030419
 30
0.0
 11
296.09949797732531
 21
221.7248775141162
 31
0.0
  0
ARC
  5
F14D
  8
AM_0
 10
690.34750132907732
 20
267.45359615220451
 30
0.0
 40
397.24800335175252
 50
173.33928567968309
 51
186.6607143203168
  0
LINE
  5
F14E
  8
ﾁｭｳｼﾝｾﾝ
 10
413.18900856910648
 20
337.70359805955849
 30
0.0
 11
413.18900856910631
 21
197.20359424486131
 31
0.0
  0
LINE
  5
F1FA
  8
AM_0
 10
280.68897480307407
 20
205.95360615221011
 30
0.0
 11
307.8973977516377
 21
205.95360615221051
 31
0.0
  0
ARC
  5
F1FB
  8
AM_0
 10
316.18897516070177
 20
215.45359460248929
 30
0.0
 40
12.00000035762791
 50
180.0000050089568
 51
270.000000683243
  0
LINE
  5
F1FC
  8
AM_0
 10
298.76050915676058
 20
218.7248775141162
 30
0.0
 11
303.18897480307419
 21
218.7248775141162
 31
0.0
  0
LINE
  5
F21E
  8
AM_0
 10
266.6889169808569
 20
215.41359615224181
 30
0.0
 11
276.68891698085082
 21
215.41358504113049
 31
0.0
  0
LINE
  5
F21F
  8
AM_0
 10
266.6889335364238
 20
230.31360615223269
 30
0.0
 11
276.68893353641761
 21
230.3135950411214
 31
0.0
  0
LINE
  5
F220
  8
AM_0
 10
266.68897480307407
 20
215.41360615221021
 30
0.0
 11
276.68897480307407
 21
215.41360615221021
 31
0.0
  0
LINE
  5
F221
  8
AM_0
 10
266.68897480307407
 20
230.3136161522103
 30
0.0
 11
276.68897480307407
 21
230.3136161522103
 31
0.0
  0
LINE
  5
F222
  8
AM_0
 10
266.68897480307407
 20
203.45360615221011
 30
0.0
 11
275.81557763066962
 21
203.45360615221011
 31
0.0
  0
LINE
  5
F22C
  8
AM_0
 10
266.68897480307407
 20
203.4535661522099
 30
0.0
 11
266.68897480307407
 21
207.45356615220999
 31
0.0
  0
ARC
  5
F23D
  8
AM_0
 10
275.81557763066962
 20
206.45360615221011
 30
0.0
 40
2.9999999999999978
 50
270.0
 51
324.31466528734552
1001
GENIUS_GENOBJ-N-FIL_13
1002
{
1000
OWNER
1000
GEN
1002
}
1001
GENIUS_GENODEF_13
1002
{
1000
HIER
1070
     0
1002
}
1002
{
1000
MANEDIT
1070
     0
1002
}
1002
{
1000
NOSEL
1070
     0
1002
}
1002
{
1000
BEHIND
1070
     0
1002
}
1002
{
1000
OTHER
1070
     0
1002
}
1002
{
1000
REACTOR
1002
}
  0
ARC
  5
F23E
  8
AM_0
 10
280.68897480307407
 20
202.95360615221011
 30
0.0
 40
2.9999999999999978
 50
90.0
 51
144.31466528734541
1001
GENIUS_GENOBJ-N-FIL_13
1002
{
1000
OWNER
1000
GEN
1002
}
1001
GENIUS_GENODEF_13
1002
{
1000
HIER
1070
     0
1002
}
1002
{
1000
MANEDIT
1070
     0
1002
}
1002
{
1000
NOSEL
1070
     0
1002
}
1002
{
1000
BEHIND
1070
     0
1002
}
1002
{
1000
OTHER
1070
     0
1002
}
1002
{
1000
REACTOR
1002
}
  0
ARC
  5
F23F
  8
AM_0
 10
298.76050915676058
 20
221.7248775141162
 30
0.0
 40
2.9999999999999978
 50
186.6607143203168
 51
270.0
1001
GENIUS_GENOBJ-N-FIL_13
1002
{
1000
OWNER
1000
GEN
1002
}
1001
GENIUS_GENODEF_13
1002
{
1000
HIER
1070
     0
1002
}
1002
{
1000
MANEDIT
1070
     0
1002
}
1002
{
1000
NOSEL
1070
     0
1002
}
1002
{
1000
BEHIND
1070
     0
1002
}
1002
{
1000
OTHER
1070
     0
1002
}
1002
{
1000
REACTOR
1002
}
  0
LINE
  5
F24E
  8
AM_0
 10
333.15953789864318
 20
209.4535944236755
 30
0.0
 11
413.18900856910648
 21
209.4535944236755
 31
0.0
  0
ARC
  5
F24F
  8
AM_0
 10
315.18897498188801
 20
232.4241573404307
 30
0.0
 40
5.0
 50
180.0
 51
273.37228728714388
1001
GENIUS_GENODEF_13
1002
{
1000
HIER
1070
     0
1002
}
1002
{
1000
MANEDIT
1070
     0
1002
}
1002
{
1000
NOSEL
1070
     0
1002
}
1002
{
1000
BEHIND
1070
     0
1002
}
1002
{
1000
OTHER
1070
     0
1002
}
1002
{
1000
REACTOR
1002
}
1001
GENIUS_GENOBJ-N-FIL_13
1002
{
1000
OWNER
1000
GEN
1002
}
  0
LINE
  5
F250
  8
ﾁｭｳｼﾝｾﾝ1
 10
316.18897516070177
 20
223.95359485580909
 30
0.0
 11
316.18897516070177
 21
206.95359434916969
 31
0.0
  0
ARC
  5
F251
  8
AM_0
 10
333.15953789864318
 20
214.45359442367561
 30
0.0
 40
5.0
 50
176.62771271285609
 51
270.0
1001
GENIUS_GENOBJ-N-FIL_13
1002
{
1000
OWNER
1000
GEN
1002
}
1001
GENIUS_GENODEF_13
1002
{
1000
HIER
1070
     0
1002
}
1002
{
1000
MANEDIT
1070
     0
1002
}
1002
{
1000
NOSEL
1070
     0
1002
}
1002
{
1000
BEHIND
1070
     0
1002
}
1002
{
1000
OTHER
1070
     0
1002
}
1002
{
1000
REACTOR
1002
}
  0
ARC
  5
F252
  8
AM_0
 10
307.89739775163781
 20
202.9536061522106
 30
0.0
 40
2.9999999999999978
 50
56.442621136830091
 51
90.0
1001
GENIUS_GENOBJ-N-FIL_13
1002
{
1000
OWNER
1000
GEN
1002
}
1001
GENIUS_GENODEF_13
1002
{
1000
HIER
1070
     0
1002
}
1002
{
1000
MANEDIT
1070
     0
1002
}
1002
{
1000
NOSEL
1070
     0
1002
}
1002
{
1000
BEHIND
1070
     0
1002
}
1002
{
1000
OTHER
1070
     0
1002
}
1002
{
1000
REACTOR
1002
}
  0
CIRCLE
  5
F253
  8
AM_0
 10
316.18897516070177
 20
215.45359460248929
 30
0.0
 40
5.5000001639127731
  0
ARC
  5
F254
  8
AM_0
 10
316.18897516070177
 20
215.45359460248929
 30
0.0
 40
12.0
 50
356.62771271285618
 51
93.37228728714382
  0
LINE
  5
F255
  8
ﾁｭｳｼﾝｾﾝ1
 10
307.6889749073822
 20
215.45359460248929
 30
0.0
 11
324.68900593160089
 21
215.45359460248929
 31
0.0
  0
LINE
  5
F2D1
  8
AM_0
 10
280.68897480307407
 20
328.95358615221022
 30
0.0
 11
307.89739775163781
 21
328.95358615220982
 31
0.0
  0
ARC
  5
F2D2
  8
AM_0
 10
316.18897516070177
 20
319.45359770193107
 30
0.0
 40
12.000000357627879
 50
90.000002504475205
 51
180.0000050089568
  0
LINE
  5
F2D3
  8
AM_0
 10
298.76050915676183
 20
316.1823147903043
 30
0.0
 11
303.18897480307419
 21
316.18231479030408
 31
0.0
  0
LINE
  5
F2E5
  8
AM_0
 10
266.68897480307407
 20
304.59357615221001
 30
0.0
 11
276.68897480307407
 21
304.59357615221001
 31
0.0
  0
ARC
  5
F2FD
  8
AM_0
 10
298.76050915676183
 20
313.1823147903043
 30
0.0
 40
2.9999999999999978
 50
90.0
 51
173.33928567968309
1001
GENIUS_GENODEF_13
1002
{
1000
HIER
1070
     0
1002
}
1002
{
1000
MANEDIT
1070
     0
1002
}
1002
{
1000
NOSEL
1070
     0
1002
}
1002
{
1000
BEHIND
1070
     0
1002
}
1002
{
1000
OTHER
1070
     0
1002
}
1002
{
1000
REACTOR
1002
}
1001
GENIUS_GENOBJ-N-FIL_13
1002
{
1000
OWNER
1000
GEN
1002
}
  0
LINE
  5
F2FE
  8
AM_0
 10
266.68897480307407
 20
331.45358615221022
 30
0.0
 11
275.81557763066962
 21
331.45358615221022
 31
0.0
  0
LINE
  5
F2FF
  8
AM_0
 10
266.68897480307407
 20
319.49358615221013
 30
0.0
 11
276.68897480307407
 21
319.49358615221013
 31
0.0
  0
ARC
  5
F315
  8
AM_0
 10
275.81557763066962
 20
328.45358615221022
 30
0.0
 40
2.9999999999999978
 50
35.685334712654637
 51
90.0
1001
GENIUS_GENOBJ-N-FIL_13
1002
{
1000
OWNER
1000
GEN
1002
}
1001
GENIUS_GENODEF_13
1002
{
1000
HIER
1070
     0
1002
}
1002
{
1000
MANEDIT
1070
     0
1002
}
1002
{
1000
NOSEL
1070
     0
1002
}
1002
{
1000
BEHIND
1070
     0
1002
}
1002
{
1000
OTHER
1070
     0
1002
}
1002
{
1000
REACTOR
1002
}
  0
ARC
  5
F316
  8
AM_0
 10
280.68897480307407
 20
331.95358615221022
 30
0.0
 40
2.9999999999999978
 50
215.68533471265459
 51
270.0
1001
GENIUS_GENOBJ-N-FIL_13
1002
{
1000
OWNER
1000
GEN
1002
}
1001
GENIUS_GENODEF_13
1002
{
1000
HIER
1070
     0
1002
}
1002
{
1000
MANEDIT
1070
     0
1002
}
1002
{
1000
NOSEL
1070
     0
1002
}
1002
{
1000
BEHIND
1070
     0
1002
}
1002
{
1000
OTHER
1070
     0
1002
}
1002
{
1000
REACTOR
1002
}
  0
LINE
  5
F319
  8
AM_0
 10
333.15953789864318
 20
325.45359788074472
 30
0.0
 11
413.18900856910648
 21
325.45359788074472
 31
0.0
  0
ARC
  5
F31A
  8
AM_0
 10
316.18897516070177
 20
319.45359770193107
 30
0.0
 40
12.0
 50
266.62771271285612
 51
3.3722872871438159
  0
CIRCLE
  5
F31B
  8
AM_0
 10
316.18897516070177
 20
319.45359770193107
 30
0.0
 40
5.5000001639127731
  0
LINE
  5
F31C
  8
ﾁｭｳｼﾝｾﾝ1
 10
316.18897516070177
 20
327.95359795525047
 30
0.0
 11
316.18897516070177
 21
310.95359744861128
 31
0.0
  0
ARC
  5
F31D
  8
AM_0
 10
315.18897498188812
 20
302.4830349639895
 30
0.0
 40
5.0
 50
86.627712712856194
 51
180.0
1001
GENIUS_GENOBJ-N-FIL_13
1002
{
1000
OWNER
1000
GEN
1002
}
1001
GENIUS_GENODEF_13
1002
{
1000
HIER
1070
     0
1002
}
1002
{
1000
MANEDIT
1070
     0
1002
}
1002
{
1000
NOSEL
1070
     0
1002
}
1002
{
1000
BEHIND
1070
     0
1002
}
1002
{
1000
OTHER
1070
     0
1002
}
1002
{
1000
REACTOR
1002
}
  0
LINE
  5
F31E
  8
ﾁｭｳｼﾝｾﾝ1
 10
307.6889749073822
 20
319.45359770193107
 30
0.0
 11
324.68900593160089
 21
319.45359770193107
 31
0.0
  0
ARC
  5
F31F
  8
AM_0
 10
307.89739775163781
 20
331.95358615220982
 30
0.0
 40
2.9999999999999978
 50
270.0
 51
303.55737886317002
1001
GENIUS_GENOBJ-N-FIL_13
1002
{
1000
OWNER
1000
GEN
1002
}
1001
GENIUS_GENODEF_13
1002
{
1000
HIER
1070
     0
1002
}
1002
{
1000
MANEDIT
1070
     0
1002
}
1002
{
1000
NOSEL
1070
     0
1002
}
1002
{
1000
BEHIND
1070
     0
1002
}
1002
{
1000
OTHER
1070
     0
1002
}
1002
{
1000
REACTOR
1002
}
  0
ARC
  5
F320
  8
AM_0
 10
333.15953789864318
 20
320.45359788074472
 30
0.0
 40
5.0
 50
90.0
 51
183.37228728714371
1001
GENIUS_GENOBJ-N-FIL_13
1002
{
1000
OWNER
1000
GEN
1002
}
1001
GENIUS_GENODEF_13
1002
{
1000
HIER
1070
     0
1002
}
1002
{
1000
MANEDIT
1070
     0
1002
}
1002
{
1000
NOSEL
1070
     0
1002
}
1002
{
1000
BEHIND
1070
     0
1002
}
1002
{
1000
OTHER
1070
     0
1002
}
1002
{
1000
REACTOR
1002
}
  0
LINE
  5
F321
  8
AM_0
 10
417.1890086883156
 20
281.91041421001012
 30
0.0
 11
417.1890086883156
 21
285.7535844905608
 31
0.0
  0
LINE
  5
F322
  8
AM_0
 10
409.18900844989679
 20
281.91041421001012
 30
0.0
 11
409.18900844989679
 21
285.7535844905608
 31
0.0
  0
LINE
  5
F323
  8
AM_0
 10
409.18900844989679
 20
285.7535844905608
 30
0.0
 11
417.1890086883156
 21
285.7535844905608
 31
0.0
  0
ARC
  5
F325
  8
AM_0
 10
652.17611320338722
 20
267.44359615221009
 30
0.0
 40
64.003665999999996
 50
325.87476838391558
 51
327.50490798788172
  0
ARC
  5
F326
  8
AM_0
 10
652.17611320338722
 20
267.44359615221009
 30
0.0
 40
64.014987999999974
 50
145.91379204812259
 51
147.54536596871469
  0
LINE
  5
F328
  8
AM_0
 10
470.18901026783851
 20
302.48303496398972
 30
0.0
 11
470.18901026783851
 21
232.42415734043061
 31
0.0
  0
LINE
  5
F32D
  8
AM_0
 10
476.18901044665262
 20
319.45359770193107
 30
0.0
 11
476.18901044665262
 21
215.45359460248929
 31
0.0
  0
LINE
  5
F32E
  8
AM_0
 10
701.15920466370153
 20
203.80268483143709
 30
0.0
 11
701.15920466370153
 21
331.1045074729833
 31
0.0
  0
LINE
  5
F32F
  8
AM_0
 10
599.15920162386465
 20
229.95359503462311
 30
0.0
 11
599.15920162386465
 21
304.95359726979723
 31
0.0
  0
LINE
  5
F330
  8
ﾁｭｳｼﾝｾﾝ
 10
652.15920320338785
 20
140.67475485504329
 30
0.0
 11
652.15920320338785
 21
337.70359636477559
 31
0.0
  0
LINE
  5
F331
  8
AM_0
 10
681.15920406765508
 20
203.45359424486159
 30
0.0
 11
681.15920406765508
 21
331.45359805955877
 31
0.0
  0
LINE
  5
F332
  8
AM_0
 10
603.15919411367929
 20
204.81510551590651
 30
0.0
 11
603.15919411367929
 21
330.0921173060928
 31
0.0
  0
LINE
  5
F333
  8
AM_0
 10
705.15921241230558
 20
229.95359503462311
 30
0.0
 11
705.15921241230558
 21
304.95359726979723
 31
0.0
  0
INSERT
  5
F334
  8
AM_0
  2
NEW_BLOCK
 10
701.15920466370153
 20
267.4535961522102
 30
0.0
 41
1.111111111111083
 42
1.111111111111083
 43
1.111111111111083
  0
LINE
  5
F336
  8
ﾁｭｳｼﾝｾﾝ
 10
542.91112598445488
 20
267.4535961522102
 30
0.0
 11
722.42977842218249
 21
267.4535961522102
 31
0.0
  0
LINE
  5
F337
  8
ｶｸﾚｾﾝ2
 10
603.15920174307416
 20
209.9535944385766
 30
0.0
 11
701.15921229309652
 21
209.9535944385766
 31
0.0
  0
LINE
  5
F338
  8
ｶｸﾚｾﾝ2
 10
603.15920174307416
 20
220.95359476640229
 30
0.0
 11
701.15921229309652
 21
220.95359476640229
 31
0.0
  0
LINE
  5
F339
  8
ﾁｭｳｼﾝｾﾝ
 10
599.40919792837667
 20
215.45359460248929
 30
0.0
 11
704.90920847839925
 21
215.45359460248929
 31
0.0
  0
LINE
  5
F33A
  8
AM_0
 10
642.97578359647423
 20
204.1200906647714
 30
0.0
 11
659.07360268373725
 21
203.8391020001543
 31
0.0
  0
LINE
  5
F33C
  8
AM_0
 10
681.15920406765508
 20
203.45359424486159
 30
0.0
 11
603.15919411367929
 21
204.81510551590651
 31
0.0
  0
ARC
  5
F342
  8
AM_0
 10
652.13259320338818
 20
267.45110615221017
 30
0.0
 40
63.989566999999987
 50
270.02382639558652
 51
276.22718035921889
  0
ARC
  5
F346
  8
AM_0
 10
465.18901026783851
 20
232.42415734043061
 30
0.0
 40
5.0
 50
266.62771271285612
 51
0.0
1001
GENIUS_GENODEF_13
1002
{
1000
HIER
1070
     0
1002
}
1002
{
1000
MANEDIT
1070
     0
1002
}
1002
{
1000
NOSEL
1070
     0
1002
}
1002
{
1000
BEHIND
1070
     0
1002
}
1002
{
1000
OTHER
1070
     0
1002
}
1002
{
1000
REACTOR
1002
}
1001
GENIUS_GENOBJ-N-FIL_13
1002
{
1000
OWNER
1000
GEN
1002
}
  0
CIRCLE
  5
F347
  8
AM_0
 10
464.18901008902452
 20
215.45359460248929
 30
0.0
 40
5.5000001639127731
  0
LINE
  5
F348
  8
ﾁｭｳｼﾝｾﾝ1
 10
455.68900983570472
 20
215.45359460248929
 30
0.0
 11
472.68901034234437
 21
215.45359460248929
 31
0.0
  0
ARC
  5
F349
  8
AM_0
 10
464.18901008902452
 20
215.45359460248929
 30
0.0
 40
12.000000357627879
 50
269.99999749551807
 51
0.0
  0
LINE
  5
F34A
  8
ﾁｭｳｼﾝｾﾝ1
 10
464.18901008902452
 20
223.95359485580909
 30
0.0
 11
464.18901008902452
 21
206.95359434916969
 31
0.0
  0
ARC
  5
F34B
  8
AM_0
 10
447.21844735108311
 20
214.45359442367561
 30
0.0
 40
5.0
 50
270.0
 51
3.3722872871438159
1001
GENIUS_GENODEF_13
1002
{
1000
HIER
1070
     0
1002
}
1002
{
1000
MANEDIT
1070
     0
1002
}
1002
{
1000
NOSEL
1070
     0
1002
}
1002
{
1000
BEHIND
1070
     0
1002
}
1002
{
1000
OTHER
1070
     0
1002
}
1002
{
1000
REACTOR
1002
}
1001
GENIUS_GENOBJ-N-FIL_13
1002
{
1000
OWNER
1000
GEN
1002
}
  0
ARC
  5
F34C
  8
AM_0
 10
464.18901008902452
 20
215.45359460248929
 30
0.0
 40
12.0
 50
86.627712712856194
 51
183.37228728714371
  0
ARC
  5
F355
  8
AM_0
 10
587.26011320338785
 20
262.4540161522101
 30
0.0
 40
1.000418199999999
 50
92.342590000002119
 51
269.94893999999681
  0
ARC
  5
F356
  8
AM_0
 10
587.25994320338793
 20
272.45318615221032
 30
0.0
 40
1.000414699999997
 50
90.041480000001087
 51
267.66698999999528
  0
ARC
  5
F357
  8
AM_0
 10
619.9904132033879
 20
201.5312461522102
 30
0.0
 40
2.0097484999999948
 50
1.7779099999986689
 51
157.0903460000016
  0
LINE
  5
F358
  8
AM_0
 10
618.21859735565045
 20
204.552229246015
 30
0.0
 11
618.13921320338795
 21
202.31359615221029
 31
0.0
  0
LINE
  5
F359
  8
AM_0
 10
616.08600355021053
 20
204.58945383416039
 30
0.0
 11
616.15920320338796
 21
202.53358615221021
 31
0.0
  0
ARC
  5
F35A
  8
AM_0
 10
617.15932320338766
 20
202.5608261522103
 30
0.0
 40
1.000226099999999
 50
179.26866700000079
 51
358.43981999999937
  0
ARC
  5
F35B
  8
AM_0
 10
605.6697632033879
 20
220.9641441522102
 30
0.0
 40
5.010561899999999
 50
180.12064999999691
 51
239.93027090092261
  0
LINE
  5
F35C
  8
AM_0
 10
600.65921320338725
 20
220.95359315221009
 30
0.0
 11
600.65921320338725
 21
228.47032029515461
 31
0.0
  0
LINE
  5
F35D
  8
AM_0
 10
599.15920162386465
 20
229.95359503462311
 30
0.0
 11
603.15920174307416
 21
229.95359503462311
 31
0.0
  0
ARC
  5
F35E
  8
AM_0
 10
597.65921320338759
 20
228.47032029515469
 30
0.0
 40
2.9999999999999978
 50
0.0
 51
29.631860164017269
1001
GENIUS_GENOBJ-N-FIL_13
1002
{
1000
OWNER
1000
GEN
1002
}
1001
GENIUS_GENODEF_13
1002
{
1000
HIER
1070
     0
1002
}
1002
{
1000
MANEDIT
1070
     0
1002
}
1002
{
1000
NOSEL
1070
     0
1002
}
1002
{
1000
BEHIND
1070
     0
1002
}
1002
{
1000
OTHER
1070
     0
1002
}
1002
{
1000
REACTOR
1002
}
  0
ARC
  5
F361
  8
AM_0
 10
652.13259320338818
 20
267.45110615221017
 30
0.0
 40
63.989566999999987
 50
261.77281830828679
 51
270.02382639558652
  0
ARC
  5
F362
  8
AM_0
 10
587.93300320338756
 20
252.45382615221021
 30
0.0
 40
1.000333199999996
 50
91.9362399999996
 51
269.20963000000029
  0
ARC
  5
F365
  8
AM_0
 10
589.28838320338775
 20
242.4541811522102
 30
0.0
 40
1.000625599999998
 50
92.817069999998395
 51
269.4744600000011
  0
LINE
  5
F36F
  8
AM_0
 10
591.15920320338785
 20
241.37246936962009
 30
0.0
 11
589.23922320338795
 21
241.4535931522102
 31
0.0
  0
LINE
  5
F371
  8
AM_0
 10
598.15920320338785
 20
244.95359548165791
 30
0.0
 11
599.15920162386465
 21
244.953595481658
 31
0.0
  0
LINE
  5
F372
  8
AM_0
 10
591.15920320338807
 20
243.51947471161429
 30
0.0
 11
589.23920320338755
 21
243.4535931522102
 31
0.0
  0
LINE
  5
F373
  8
AM_0
 10
590.17942250710269
 20
251.37330674010741
 30
0.0
 11
587.89920320338763
 21
251.45359615221011
 31
0.0
  0
LINE
  5
F374
  8
AM_0
 10
589.66353664720089
 20
253.51443497424319
 30
0.0
 11
587.89920320338763
 21
253.4535961522102
 31
0.0
  0
LINE
  5
F375
  8
AM_0
 10
588.41560421786562
 20
261.41234105254352
 30
0.0
 11
587.21921320338765
 21
261.4535961522102
 31
0.0
  0
LINE
  5
F376
  8
AM_0
 10
588.41978074583199
 20
273.49499490196411
 30
0.0
 11
587.21920320338756
 21
273.4535961522102
 31
0.0
  0
LINE
  5
F377
  8
AM_0
 10
588.25593372355343
 20
271.41423358005522
 30
0.0
 11
587.21921320338765
 21
271.4535961522102
 31
0.0
  0
LINE
  5
F378
  8
AM_0
 10
588.25402468763843
 20
263.47979391130508
 30
0.0
 11
587.21921320338765
 21
263.4535961522102
 31
0.0
  0
LINE
  5
F381
  8
AM_0
 10
701.15920466370153
 20
203.80268483143709
 30
0.0
 11
681.15920406765508
 21
203.45359424486159
 31
0.0
  0
ARC
  5
F382
  8
AM_0
 10
687.15905320338754
 20
202.56150615221031
 30
0.0
 40
1.000231299999996
 50
181.598942999999
 51
0.6925799999989849
  0
LINE
  5
F383
  8
AM_0
 10
681.15920320338785
 20
203.4535961522102
 30
0.0
 11
659.07360268373691
 21
203.8391020001543
 31
0.0
  0
LINE
  5
F386
  8
AM_0
 10
686.11568078617711
 20
203.5401129804676
 30
0.0
 11
686.15917320338804
 21
202.31359615221029
 31
0.0
  0
ARC
  5
F387
  8
AM_0
 10
684.31756320338786
 20
201.53561615221039
 30
0.0
 40
1.9992131999999949
 50
22.901329999996459
 51
178.3379780000044
  0
LINE
  5
F388
  8
AM_0
 10
688.19468673783069
 20
203.57640266358641
 30
0.0
 11
688.15917320338792
 21
202.53359615221021
 31
0.0
  0
ARC
  5
F389
  8
AM_0
 10
698.66555320338784
 20
220.94724515221009
 30
0.0
 40
4.9936542999999984
 50
299.95791578702318
 51
0.0728599999961059
  0
LINE
  5
F38A
  8
AM_0
 10
705.15921241230558
 20
229.95359503462311
 30
0.0
 11
701.15921229309652
 21
229.95359503462311
 31
0.0
  0
LINE
  5
F38B
  8
AM_0
 10
703.65920320338762
 20
228.4425171736554
 30
0.0
 11
703.65920320338762
 21
220.95359315221009
 31
0.0
  0
ARC
  5
F38C
  8
AM_0
 10
706.65920320338751
 20
228.4425171736554
 30
0.0
 40
2.9999999999999978
 50
149.75537130699439
 51
180.0
1001
GENIUS_GENOBJ-N-FIL_13
1002
{
1000
OWNER
1000
GEN
1002
}
1001
GENIUS_GENODEF_13
1002
{
1000
HIER
1070
     0
1002
}
1002
{
1000
MANEDIT
1070
     0
1002
}
1002
{
1000
NOSEL
1070
     0
1002
}
1002
{
1000
BEHIND
1070
     0
1002
}
1002
{
1000
OTHER
1070
     0
1002
}
1002
{
1000
REACTOR
1002
}
  0
ARC
  5
F38D
  8
AM_0
 10
716.41924320338762
 20
252.4536961522102
 30
0.0
 40
1.000099699999996
 50
269.99821999999642
 51
88.855909999997095
  0
ARC
  5
F390
  8
AM_0
 10
715.06386320338765
 20
242.45390615221029
 30
0.0
 40
1.000317799999999
 50
269.73379000000148
 51
87.974690000002326
  0
LINE
  5
F394
  8
AM_0
 10
713.15920320338842
 20
241.3727597355435
 30
0.0
 11
715.09920320338779
 21
241.45360115221021
 31
0.0
  0
LINE
  5
F39C
  8
AM_0
 10
713.15920320338796
 20
243.520162170416
 30
0.0
 11
715.0992332033876
 21
243.4535931522102
 31
0.0
  0
LINE
  5
F39D
  8
AM_0
 10
706.15920320338785
 20
244.953595481658
 30
0.0
 11
705.15921241230558
 21
244.953595481658
 31
0.0
  0
LINE
  5
F39E
  8
AM_0
 10
714.07301893134354
 20
251.3702789244916
 30
0.0
 11
716.43920320338736
 21
251.45359615221011
 31
0.0
  0
ARC
  5
F39F
  8
AM_0
 10
717.09212320338736
 20
262.4537361522103
 30
0.0
 40
1.000225199999996
 50
269.26081999999792
 51
88.44765000000109
  0
LINE
  5
F3A0
  8
AM_0
 10
714.59033936288802
 20
253.5173508374227
 30
0.0
 11
716.43923320338763
 21
253.4535961522102
 31
0.0
  0
LINE
  5
F3A1
  8
AM_0
 10
715.83734370584125
 20
261.4093941913639
 30
0.0
 11
717.11919320338757
 21
261.4535961522102
 31
0.0
  0
ARC
  5
F3A2
  8
AM_0
 10
717.09227320338744
 20
272.45345615221009
 30
0.0
 40
1.000223999999998
 50
271.54276079999562
 51
90.748769999995517
  0
LINE
  5
F3A3
  8
AM_0
 10
715.83316578638721
 20
273.49793478906781
 30
0.0
 11
717.11919320338757
 21
273.4535961522102
 31
0.0
  0
LINE
  5
F3A4
  8
AM_0
 10
715.99749426545941
 20
271.4109993899695
 30
0.0
 11
717.11922320338761
 21
271.4535961522102
 31
0.0
  0
LINE
  5
F3A5
  8
AM_0
 10
715.9993349069631
 20
263.48194717459461
 30
0.0
 11
717.11919320338757
 21
263.4535961522102
 31
0.0
  0
LINE
  5
F3A9
  8
ｶｸﾚｾﾝ2
 10
603.15920174307416
 20
313.95359753801807
 30
0.0
 11
701.15921229309652
 21
313.95359753801807
 31
0.0
  0
LINE
  5
F3AA
  8
ｶｸﾚｾﾝ2
 10
603.15920174307416
 20
324.95359786584368
 30
0.0
 11
701.15921229309652
 21
324.95359786584368
 31
0.0
  0
LINE
  5
F3AB
  8
ﾁｭｳｼﾝｾﾝ
 10
599.40919792837644
 20
319.45359770193107
 30
0.0
 11
704.90920847839902
 21
319.45359770193107
 31
0.0
  0
LINE
  5
F3AC
  8
AM_0
 10
681.15920406765508
 20
331.45359805955877
 30
0.0
 11
603.15919411367929
 21
330.0921173060928
 31
0.0
  0
ARC
  5
F3AD
  8
AM_0
 10
652.14916320338784
 20
267.44724615220991
 30
0.0
 40
64.006351000000109
 50
83.719456375075055
 51
89.991012616410785
  0
ARC
  5
F3B2
  8
AM_0
 10
464.18901008902452
 20
319.45359770193107
 30
0.0
 40
12.0
 50
176.62771271285609
 51
273.37228728714388
  0
CIRCLE
  5
F3B3
  8
AM_0
 10
464.18901008902452
 20
319.45359770193107
 30
0.0
 40
5.5000001639127731
  0
LINE
  5
F3B4
  8
ﾁｭｳｼﾝｾﾝ1
 10
464.18901008902452
 20
327.95359795525047
 30
0.0
 11
464.18901008902452
 21
310.95359744861128
 31
0.0
  0
ARC
  5
F3B5
  8
AM_0
 10
465.18901026783851
 20
302.48303496398972
 30
0.0
 40
5.0
 50
0.0
 51
93.37228728714382
1001
GENIUS_GENODEF_13
1002
{
1000
HIER
1070
     0
1002
}
1002
{
1000
MANEDIT
1070
     0
1002
}
1002
{
1000
NOSEL
1070
     0
1002
}
1002
{
1000
BEHIND
1070
     0
1002
}
1002
{
1000
OTHER
1070
     0
1002
}
1002
{
1000
REACTOR
1002
}
1001
GENIUS_GENOBJ-N-FIL_13
1002
{
1000
OWNER
1000
GEN
1002
}
  0
LINE
  5
F3B6
  8
ﾁｭｳｼﾝｾﾝ1
 10
455.68900983570472
 20
319.45359770193107
 30
0.0
 11
472.68901034234437
 21
319.45359770193107
 31
0.0
  0
ARC
  5
F3B7
  8
AM_0
 10
464.18901008902452
 20
319.45359770193107
 30
0.0
 40
12.00000035762787
 50
0.0
 51
90.000002504475205
  0
ARC
  5
F3B8
  8
AM_0
 10
447.21844735108311
 20
320.45359788074478
 30
0.0
 40
5.0
 50
356.62771271285618
 51
90.0
1001
GENIUS_GENOBJ-N-FIL_13
1002
{
1000
OWNER
1000
GEN
1002
}
1001
GENIUS_GENODEF_13
1002
{
1000
HIER
1070
     0
1002
}
1002
{
1000
MANEDIT
1070
     0
1002
}
1002
{
1000
NOSEL
1070
     0
1002
}
1002
{
1000
BEHIND
1070
     0
1002
}
1002
{
1000
OTHER
1070
     0
1002
}
1002
{
1000
REACTOR
1002
}
  0
ARC
  5
F3BC
  8
AM_0
 10
605.665583203388
 20
313.9472161522101
 30
0.0
 40
5.006378199999995
 50
120.04217682435279
 51
179.92705000000001
  0
ARC
  5
F3BF
  8
AM_0
 10
587.93293320338785
 20
282.45336615221021
 30
0.0
 40
1.000331199999998
 50
90.785589999996475
 51
268.0685399999997
  0
LINE
  5
F3C0
  8
AM_0
 10
589.67325912608214
 20
281.39242207372962
 30
0.0
 11
587.89920320338763
 21
281.45359615221008
 31
0.0
  0
LINE
  5
F3C1
  8
AM_0
 10
590.19092428881891
 20
283.53428998836017
 30
0.0
 11
587.89920320338763
 21
283.45359615221031
 31
0.0
  0
LINE
  5
F3C2
  8
AM_0
 10
598.15920320338785
 20
289.95359682276239
 30
0.0
 11
599.15920162386465
 21
289.95359682276239
 31
0.0
  0
LINE
  5
F3C4
  8
AM_0
 10
591.15920320338785
 20
291.38771416259272
 30
0.0
 11
589.23922320338795
 21
291.45359615221031
 31
0.0
  0
ARC
  5
F3C6
  8
AM_0
 10
589.28821320338795
 20
292.45301615221013
 30
0.0
 40
1.000620799999997
 50
90.515970000001047
 51
267.19250000000471
  0
LINE
  5
F3C9
  8
AM_0
 10
590.65921320338759
 20
293.49360615221019
 30
0.0
 11
589.23922320338795
 21
293.45359615221008
 31
0.0
  0
LINE
  5
F3CA
  8
AM_0
 10
600.65921320338725
 20
306.41687200926572
 30
0.0
 11
600.65921320338725
 21
313.95359615221031
 31
0.0
  0
LINE
  5
F3D1
  8
AM_0
 10
599.15920162386465
 20
304.95359726979723
 30
0.0
 11
603.15920174307416
 21
304.95359726979723
 31
0.0
  0
ARC
  5
F3D2
  8
AM_0
 10
597.65921320338759
 20
306.41687200926572
 30
0.0
 40
2.9999999999999978
 50
330.80663173194722
 51
0.0
1001
GENIUS_GENOBJ-N-FIL_13
1002
{
1000
OWNER
1000
GEN
1002
}
1001
GENIUS_GENODEF_13
1002
{
1000
HIER
1070
     0
1002
}
1002
{
1000
MANEDIT
1070
     0
1002
}
1002
{
1000
NOSEL
1070
     0
1002
}
1002
{
1000
BEHIND
1070
     0
1002
}
1002
{
1000
OTHER
1070
     0
1002
}
1002
{
1000
REACTOR
1002
}
  0
ARC
  5
F3D3
  8
AM_0
 10
637.15960320338775
 20
331.69290615221018
 30
0.0
 40
1.000413999999999
 50
2.3310499999978989
 51
179.96048300000021
  0
ARC
  5
F3D4
  8
AM_0
 10
627.15944320338804
 20
330.33738415221012
 30
0.0
 40
1.000393499999999
 50
10.99352963525819
 51
179.0714379999965
  0
LINE
  5
F3D5
  8
AM_0
 10
636.12165911176714
 20
330.66745356152461
 30
0.0
 11
636.15920320338785
 21
331.7336021522101
 31
0.0
  0
ARC
  5
F3D6
  8
AM_0
 10
652.14916320338784
 20
267.44724615220991
 30
0.0
 40
64.006351000000109
 50
89.991012616410785
 51
98.280567367618843
  0
LINE
  5
F3D7
  8
AM_0
 10
638.19469785334491
 20
330.70363901700989
 30
0.0
 11
638.15917320338792
 21
331.73359815221022
 31
0.0
  0
ARC
  5
F3D8
  8
AM_0
 10
647.15975320338794
 20
332.36585315221009
 30
0.0
 40
1.0005847999999991
 50
2.735040000004282
 51
179.5564910000007
  0
LINE
  5
F3D9
  8
AM_0
 10
646.11670896686167
 20
331.18126058471063
 30
0.0
 11
646.15920320338785
 21
332.41359415221029
 31
0.0
  0
LINE
  5
F3DA
  8
AM_0
 10
648.18624807449328
 20
331.34478998722489
 30
0.0
 11
648.15920320338762
 21
332.41359815221023
 31
0.0
  0
ARC
  5
F42E
  8
AM_0
 10
698.66976320338745
 20
313.9641361522103
 30
0.0
 40
4.9894699999999981
 50
359.87895100000162
 51
60.070185938252052
  0
LINE
  5
F431
  8
AM_0
 10
714.06151485329133
 20
283.53731774494338
 30
0.0
 11
716.43923320338763
 21
283.45359615221031
 31
0.0
  0
ARC
  5
F432
  8
AM_0
 10
716.4193332033874
 20
282.4535061522102
 30
0.0
 40
1.0000987999999991
 50
271.1393037999992
 51
90.006579999999261
  0
LINE
  5
F433
  8
AM_0
 10
714.58061900276323
 20
281.38950628361061
 30
0.0
 11
716.43923320338763
 21
281.45359615221008
 31
0.0
  0
LINE
  5
F434
  8
AM_0
 10
713.15920320338785
 20
291.38702719844082
 30
0.0
 11
715.09920320338779
 21
291.45359615221031
 31
0.0
  0
LINE
  5
F436
  8
AM_0
 10
706.15920320338785
 20
289.95359682276239
 30
0.0
 11
705.15921241230558
 21
289.95359682276239
 31
0.0
  0
ARC
  5
F438
  8
AM_0
 10
715.06402320338736
 20
292.45328615221013
 30
0.0
 40
1.000315299999998
 50
272.01573779999671
 51
90.275789999997585
  0
LINE
  5
F439
  8
AM_0
 10
713.15920320338785
 20
293.50747156887701
 30
0.0
 11
715.09920320338779
 21
293.45359615221008
 31
0.0
  0
LINE
  5
F43C
  8
AM_0
 10
705.15921241230558
 20
304.95359726979723
 30
0.0
 11
701.15921229309652
 21
304.95359726979723
 31
0.0
  0
LINE
  5
F43D
  8
AM_0
 10
703.65920320338762
 20
313.95359615221031
 30
0.0
 11
703.65920320338762
 21
306.44467513076501
 31
0.0
  0
ARC
  5
F440
  8
AM_0
 10
706.65920320338751
 20
306.44467513076501
 30
0.0
 40
2.9999999999999978
 50
180.0
 51
209.8034575637254
1001
GENIUS_GENODEF_13
1002
{
1000
HIER
1070
     0
1002
}
1002
{
1000
MANEDIT
1070
     0
1002
}
1002
{
1000
NOSEL
1070
     0
1002
}
1002
{
1000
BEHIND
1070
     0
1002
}
1002
{
1000
OTHER
1070
     0
1002
}
1002
{
1000
REACTOR
1002
}
1001
GENIUS_GENOBJ-N-FIL_13
1002
{
1000
OWNER
1000
GEN
1002
}
  0
LINE
  5
F445
  8
AM_0
 10
701.15920466370153
 20
331.1045074729833
 30
0.0
 11
681.15920406765508
 21
331.45359805955877
 31
0.0
  0
ARC
  5
F446
  8
AM_0
 10
657.15862320338795
 20
332.36517415221022
 30
0.0
 40
1.000603799999999
 50
0.4821899999981916
 51
177.22628299999681
  0
LINE
  5
F447
  8
AM_0
 10
658.20148364406168
 20
331.18746278201701
 30
0.0
 11
658.15920320338762
 21
332.41359415221029
 31
0.0
  0
LINE
  5
F448
  8
AM_0
 10
656.11880085433563
 20
331.3496669739136
 30
0.0
 11
656.15920320338785
 21
332.41359415221029
 31
0.0
  0
ARC
  5
F449
  8
AM_0
 10
667.15877320338791
 20
331.69223115221018
 30
0.0
 40
1.000428199999998
 50
0.0782199999979826
 51
177.63024800000281
  0
LINE
  5
F44A
  8
AM_0
 10
666.14051049080672
 20
331.19144078304163
 30
0.0
 11
666.15920320338796
 21
331.73359815221022
 31
0.0
  0
LINE
  5
F44B
  8
AM_0
 10
668.17704333701226
 20
331.22698901818683
 30
0.0
 11
668.15920320338762
 21
331.73359815221022
 31
0.0
  0
LINE
  5
100B6
  8
AM_0
 10
685.66107263097524
 20
191.4535961522102
 30
0.0
 11
618.66107263097524
 21
191.4535961522102
 31
0.0
  0
LINE
  5
100B7
  8
AM_0
 10
618.66107263097524
 20
190.4535961522102
 30
0.0
 11
618.66107263097524
 21
193.4535961522102
 31
0.0
  0
LINE
  5
100B8
  8
AM_0
 10
698.16107263097524
 20
152.45359615221
 30
0.0
 11
696.90148749471302
 21
188.52339514561501
 31
0.0
  0
LINE
  5
100B9
  8
AM_0
 10
694.90270584067434
 20
190.4535961522102
 30
0.0
 11
609.41943942127591
 21
190.4535961522102
 31
0.0
  0
ARC
  5
100BA
  8
AM_0
 10
694.90270584067434
 20
188.45359615221011
 30
0.0
 40
2.0
 50
1.999999999997115
 51
90.0
1001
GENIUS_GENODEF_13
1002
{
1000
HIER
1070
     0
1002
}
1002
{
1000
MANEDIT
1070
     0
1002
}
1002
{
1000
NOSEL
1070
     0
1002
}
1002
{
1000
BEHIND
1070
     0
1002
}
1002
{
1000
OTHER
1070
     0
1002
}
1002
{
1000
REACTOR
1002
}
1001
GENIUS_GENOBJ-N-FIL_13
1002
{
1000
OWNER
1000
GEN
1002
}
  0
LINE
  5
100BB
  8
AM_0
 10
607.42065776723746
 20
188.52339514561501
 30
0.0
 11
606.16107263097524
 21
152.45359615221011
 31
0.0
  0
ARC
  5
100BC
  8
AM_0
 10
609.4194394212758
 20
188.45359615221039
 30
0.0
 40
2.0
 50
90.0
 51
178.0000000000029
1001
GENIUS_GENOBJ-N-FIL_13
1002
{
1000
OWNER
1000
GEN
1002
}
1001
GENIUS_GENODEF_13
1002
{
1000
HIER
1070
     0
1002
}
1002
{
1000
MANEDIT
1070
     0
1002
}
1002
{
1000
NOSEL
1070
     0
1002
}
1002
{
1000
BEHIND
1070
     0
1002
}
1002
{
1000
OTHER
1070
     0
1002
}
1002
{
1000
REACTOR
1002
}
  0
LINE
  5
100BD
  8
AM_0
 10
606.16107263097524
 20
152.45359615221011
 30
0.0
 11
698.1610726309757
 21
152.45359615221
 31
0.0
  0
LINE
  5
100BE
  8
ﾁｭｳｼﾝｾﾝ1
 10
693.16107263097445
 20
141.45359615221
 30
0.0
 11
693.16107263097479
 21
157.28111916474691
 31
0.0
  0
LINE
  5
100BF
  8
AM_0
 10
606.16107263097524
 20
148.45359615221011
 30
0.0
 11
626.97557753050773
 21
148.45359615221011
 31
0.0
  0
LINE
  5
100C0
  8
AM_0
 10
677.34656773144297
 20
148.45359615221
 30
0.0
 11
698.16107263097445
 21
148.45359615221
 31
0.0
  0
LINE
  5
100C1
  8
AM_0
 10
612.29685430013615
 20
144.45359615221011
 30
0.0
 11
692.02529096181445
 21
144.45359615221
 31
0.0
  0
LINE
  5
100C2
  8
AM_0
 10
689.25371765866805
 20
146.39465864008221
 30
0.0
 11
689.16107263097479
 21
147.45359615221
 31
0.0
  0
LINE
  5
100C3
  8
AM_0
 10
697.06842760328118
 20
146.39465864008221
 30
0.0
 11
697.16107263097479
 21
147.45359615221
 31
0.0
  0
ARC
  5
100C4
  8
AM_0
 10
693.16107263097479
 20
150.85359615221009
 30
0.0
 40
6.5
 50
241.82726586813479
 51
298.17273413186518
  0
ARC
  5
100C5
  8
AM_0
 10
695.47451608633423
 20
146.53410782847871
 30
0.0
 40
1.6000000000000001
 50
298.17273413186518
 51
355.00000000000023
  0
LINE
  5
100C6
  8
AM_0
 10
690.8610726309746
 20
144.77412249078191
 30
0.0
 11
693.16107263097479
 21
147.06368216957739
 31
0.0
  0
LINE
  5
100C7
  8
AM_0
 10
692.84957263097476
 20
146.75359615220981
 30
0.0
 11
693.47257263097447
 21
146.75359615220981
 31
0.0
  0
LINE
  5
100C8
  8
AM_0
 10
695.46107263097474
 20
144.77412249078191
 30
0.0
 11
693.16107263097479
 21
147.06368216957739
 31
0.0
  0
LINE
  5
100C9
  8
AM_0
 10
692.84957263097476
 20
144.36106446187529
 30
0.0
 11
692.84957263097476
 21
146.75359615220981
 31
0.0
  0
LINE
  5
100CA
  8
AM_0
 10
693.47257263097447
 20
144.36106446187529
 30
0.0
 11
693.47257263097447
 21
146.75359615220981
 31
0.0
  0
ARC
  5
100CB
  8
AM_0
 10
690.84762917561511
 20
146.53410782847871
 30
0.0
 40
1.6000000000000001
 50
184.99999999999969
 51
241.82726586813479
  0
LINE
  5
100CC
  8
AM_0
 10
606.16107263097524
 20
148.45359615221011
 30
0.0
 11
606.16107263097524
 21
152.45359615221011
 31
0.0
  0
LINE
  5
100CD
  8
AM_0
 10
607.16107263097558
 20
147.45359615221
 30
0.0
 11
606.16107263097524
 21
148.45359615221011
 31
0.0
  0
LINE
  5
100CE
  8
AM_0
 10
698.1610726309757
 20
152.45359615221
 30
0.0
 11
698.16107263097445
 21
148.45359615221
 31
0.0
  0
LINE
  5
100CF
  8
AM_0N
 10
689.36107263097472
 20
148.45359615221
 30
0.0
 11
689.36107263097472
 21
147.45359615221
 31
0.0
  0
LINE
  5
100D0
  8
AM_0N
 10
692.96107263097474
 20
147.45359615221
 30
0.0
 11
692.59710239670846
 21
148.45359615221
 31
0.0
  0
LINE
  5
100D1
  8
AM_0N
 10
693.36107263097472
 20
147.45359615221
 30
0.0
 11
692.99710239670856
 21
148.45359615221
 31
0.0
  0
LINE
  5
100D2
  8
AM_0N
 10
697.16107263097479
 20
147.45359615221
 30
0.0
 11
689.16107263097479
 21
147.45359615221
 31
0.0
  0
LINE
  5
100D3
  8
AM_0N
 10
696.96107263097474
 20
147.45359615221
 30
0.0
 11
696.96107263097474
 21
148.45359615221
 31
0.0
  0
LINE
  5
100D4
  8
AM_0
 10
677.34656773144309
 20
144.45359615221
 30
0.0
 11
677.34656773144297
 21
148.45359615221
 31
0.0
  0
LINE
  5
100D5
  8
AM_0
 10
679.00342198093551
 20
148.45359615221
 30
0.0
 11
677.34656773144309
 21
144.45359615221
 31
0.0
  0
LINE
  5
100D6
  8
AM_0
 10
626.97557753050773
 20
144.45359615221011
 30
0.0
 11
626.97557753050773
 21
148.45359615221011
 31
0.0
  0
LINE
  5
100D7
  8
AM_0
 10
625.3187232810152
 20
148.45359615221011
 30
0.0
 11
626.97557753050773
 21
144.45359615221011
 31
0.0
  0
LINE
  5
100D8
  8
ﾁｭｳｼﾝｾﾝ1
 10
611.16107263097615
 20
141.45359615221011
 30
0.0
 11
611.16107263097615
 21
157.28111916474691
 31
0.0
  0
LINE
  5
100D9
  8
AM_0
 10
615.06842760328243
 20
146.39465864008221
 30
0.0
 11
615.16107263097615
 21
147.45359615221
 31
0.0
  0
LINE
  5
100DA
  8
AM_0
 10
607.25371765866964
 20
146.39465864008221
 30
0.0
 11
607.16107263097615
 21
147.45359615221
 31
0.0
  0
ARC
  5
100DB
  8
AM_0
 10
611.16107263097592
 20
150.85359615221029
 30
0.0
 40
6.5
 50
241.82726586813479
 51
298.17273413186518
  0
ARC
  5
100DC
  8
AM_0
 10
608.84762917561625
 20
146.5341078284788
 30
0.0
 40
1.6000000000000001
 50
184.99999999999969
 51
241.82726586813479
  0
LINE
  5
100DD
  8
AM_0
 10
613.4610726309761
 20
144.77412249078191
 30
0.0
 11
611.16107263097615
 21
147.06368216957739
 31
0.0
  0
LINE
  5
100DE
  8
AM_0
 10
611.47257263097595
 20
146.75359615220981
 30
0.0
 11
610.84957263097613
 21
146.75359615220981
 31
0.0
  0
LINE
  5
100DF
  8
AM_0
 10
608.86107263097597
 20
144.77412249078191
 30
0.0
 11
611.16107263097615
 21
147.06368216957739
 31
0.0
  0
LINE
  5
100E0
  8
AM_0
 10
611.47257263097595
 20
144.36106446187529
 30
0.0
 11
611.47257263097595
 21
146.75359615220981
 31
0.0
  0
LINE
  5
100E1
  8
AM_0
 10
610.84957263097613
 20
144.36106446187529
 30
0.0
 11
610.84957263097613
 21
146.75359615220981
 31
0.0
  0
ARC
  5
100E2
  8
AM_0
 10
613.4745160863356
 20
146.5341078284788
 30
0.0
 40
1.6000000000000001
 50
298.17273413186518
 51
355.00000000000023
  0
LINE
  5
100E3
  8
AM_0N
 10
614.96107263097588
 20
148.45359615221
 30
0.0
 11
614.96107263097588
 21
147.45359615221
 31
0.0
  0
LINE
  5
100E4
  8
AM_0N
 10
611.3610726309762
 20
147.45359615221
 30
0.0
 11
611.72504286524236
 21
148.45359615221
 31
0.0
  0
LINE
  5
100E5
  8
AM_0N
 10
610.96107263097576
 20
147.45359615221
 30
0.0
 11
611.32504286524215
 21
148.45359615221
 31
0.0
  0
LINE
  5
100E6
  8
AM_0N
 10
607.16107263097615
 20
147.45359615221
 30
0.0
 11
615.16107263097615
 21
147.45359615221
 31
0.0
  0
LINE
  5
100E7
  8
AM_0N
 10
607.3610726309762
 20
147.45359615221
 30
0.0
 11
607.3610726309762
 21
148.45359615221
 31
0.0
  0
LINE
  5
100E8
  8
AM_0
 10
621.90506444779317
 20
204.48789127887619
 30
0.0
 11
622.20025750358309
 21
193.4535961522102
 31
0.0
  0
LINE
  5
100E9
  8
AM_0
 10
682.37721411239522
 20
203.4748540362767
 30
0.0
 11
682.12188750358257
 21
193.45358615221031
 31
0.0
  0
LINE
  5
100EA
  8
AM_0
 10
685.66107263097524
 20
193.45359615221
 30
0.0
 11
618.66107263097524
 21
193.4535961522102
 31
0.0
  0
LINE
  5
100EB
  8
AM_0
 10
685.66107263097524
 20
190.4535961522102
 30
0.0
 11
685.66107263097524
 21
193.45359615221
 31
0.0
  0
LINE
  5
10289
  8
AM_0
 10
592.15920320338785
 20
303.95359615221048
 30
0.0
 11
598.15920320338785
 21
303.95359615221048
 31
0.0
  0
LINE
  5
1028A
  8
AM_0
 10
591.15920320338785
 20
231.95356563463241
 30
0.0
 11
591.15920320338785
 21
302.95359615221048
 31
0.0
  0
LINE
  5
1028B
  8
AM_0
 10
590.65920320338785
 20
246.95356563462971
 30
0.0
 11
590.65920320338785
 21
287.95359615220752
 31
0.0
  0
LINE
  5
1028C
  8
AM_0
 10
592.15920320338785
 20
230.9535656346325
 30
0.0
 11
598.15920320338785
 21
230.9535656346323
 31
0.0
  0
LINE
  5
1028D
  8
AM_0
 10
598.15920320338785
 20
303.95359615221048
 30
0.0
 11
598.15920320338785
 21
230.9535656346323
 31
0.0
  0
LINE
  5
10290
  8
AM_0
 10
712.15920320338807
 20
303.9535961522115
 30
0.0
 11
706.15920320338762
 21
303.95359615221122
 31
0.0
  0
LINE
  5
10291
  8
AM_0
 10
713.15920320338853
 20
231.95356563463341
 30
0.0
 11
713.15920320338785
 21
302.9535961522115
 31
0.0
  0
LINE
  5
10292
  8
AM_0
 10
713.65920320338796
 20
246.95356563463329
 30
0.0
 11
713.65920320338762
 21
287.95359615221088
 31
0.0
  0
LINE
  5
10293
  8
AM_0
 10
712.15920320338853
 20
230.95356563463341
 30
0.0
 11
706.15920320338864
 21
230.95356563463301
 31
0.0
  0
LINE
  5
10296
  8
AM_0
 10
592.15920320338785
 20
230.9535656346325
 30
0.0
 11
591.15920320338785
 21
231.95356563463241
 31
0.0
1001
GENIUS_GENFIL_13
1070
     0
1040
1.0
1040
1.0
1040
20.0
1040
0.0
1002
{
1002
}
1001
GENIUS_GENOBJ-N-CHA_13
1002
{
1000
OWNER
1000
GEN
1002
}
1001
GENIUS_GENODEF_13
1002
{
1000
HIER
1070
     0
1002
}
1002
{
1000
MANEDIT
1070
     0
1002
}
1002
{
1000
NOSEL
1070
     0
1002
}
1002
{
1000
BEHIND
1070
     0
1002
}
1002
{
1000
OTHER
1070
     0
1002
}
1002
{
1000
REACTOR
1002
}
  0
LINE
  5
10298
  8
AM_0
 10
591.15920320338785
 20
302.95359615221048
 30
0.0
 11
592.15920320338785
 21
303.95359615221048
 31
0.0
1001
GENIUS_GENFIL_13
1070
     0
1040
1.0
1040
1.0
1040
20.0
1040
0.0
1002
{
1002
}
1001
GENIUS_GENOBJ-N-CHA_13
1002
{
1000
OWNER
1000
GEN
1002
}
1001
GENIUS_GENODEF_13
1002
{
1000
HIER
1070
     0
1002
}
1002
{
1000
MANEDIT
1070
     0
1002
}
1002
{
1000
NOSEL
1070
     0
1002
}
1002
{
1000
BEHIND
1070
     0
1002
}
1002
{
1000
OTHER
1070
     0
1002
}
1002
{
1000
REACTOR
1002
}
  0
LINE
  5
1029A
  8
AM_0
 10
713.15920320338853
 20
231.95356563463341
 30
0.0
 11
712.15920320338853
 21
230.95356563463341
 31
0.0
1001
GENIUS_GENFIL_13
1070
     0
1040
1.0
1040
1.0
1040
20.0
1040
0.0
1002
{
1002
}
1001
GENIUS_GENODEF_13
1002
{
1000
HIER
1070
     0
1002
}
1002
{
1000
MANEDIT
1070
     0
1002
}
1002
{
1000
NOSEL
1070
     0
1002
}
1002
{
1000
BEHIND
1070
     0
1002
}
1002
{
1000
OTHER
1070
     0
1002
}
1002
{
1000
REACTOR
1002
}
1001
GENIUS_GENOBJ-N-CHA_13
1002
{
1000
OWNER
1000
GEN
1002
}
  0
LINE
  5
1029C
  8
AM_0
 10
713.15920320338785
 20
302.9535961522115
 30
0.0
 11
712.15920320338807
 21
303.9535961522115
 31
0.0
1001
GENIUS_GENFIL_13
1070
     0
1040
1.0
1040
1.0
1040
20.0
1040
0.0
1002
{
1002
}
1001
GENIUS_GENODEF_13
1002
{
1000
HIER
1070
     0
1002
}
1002
{
1000
MANEDIT
1070
     0
1002
}
1002
{
1000
NOSEL
1070
     0
1002
}
1002
{
1000
BEHIND
1070
     0
1002
}
1002
{
1000
OTHER
1070
     0
1002
}
1002
{
1000
REACTOR
1002
}
1001
GENIUS_GENOBJ-N-CHA_13
1002
{
1000
OWNER
1000
GEN
1002
}
  0
LINE
  5
1029F
  8
AM_0
 10
713.65920320338796
 20
246.95356563463329
 30
0.0
 11
713.15920320338796
 21
246.45356563463321
 31
0.0
1001
GENIUS_GENFIL_13
1070
     0
1040
0.5
1040
0.5
1040
20.0
1040
0.0
1002
{
1002
}
1001
GENIUS_GENOBJ-N-CHA_13
1002
{
1000
OWNER
1000
GEN
1002
}
1001
GENIUS_GENODEF_13
1002
{
1000
HIER
1070
     0
1002
}
1002
{
1000
MANEDIT
1070
     0
1002
}
1002
{
1000
NOSEL
1070
     0
1002
}
1002
{
1000
BEHIND
1070
     0
1002
}
1002
{
1000
OTHER
1070
     0
1002
}
1002
{
1000
REACTOR
1002
}
  0
LINE
  5
102A1
  8
AM_0
 10
591.15920320338785
 20
246.45356563462971
 30
0.0
 11
590.65920320338785
 21
246.95356563462971
 31
0.0
1001
GENIUS_GENFIL_13
1070
     0
1040
0.5
1040
0.5
1040
20.0
1040
0.0
1002
{
1002
}
1001
GENIUS_GENOBJ-N-CHA_13
1002
{
1000
OWNER
1000
GEN
1002
}
1001
GENIUS_GENODEF_13
1002
{
1000
HIER
1070
     0
1002
}
1002
{
1000
MANEDIT
1070
     0
1002
}
1002
{
1000
NOSEL
1070
     0
1002
}
1002
{
1000
BEHIND
1070
     0
1002
}
1002
{
1000
OTHER
1070
     0
1002
}
1002
{
1000
REACTOR
1002
}
  0
LINE
  5
102A3
  8
AM_0
 10
713.65920320338762
 20
287.95359615221088
 30
0.0
 11
713.15920320338762
 21
288.45359615221088
 31
0.0
1001
GENIUS_GENFIL_13
1070
     0
1040
0.5
1040
0.5
1040
20.0
1040
0.0
1002
{
1002
}
1001
GENIUS_GENOBJ-N-CHA_13
1002
{
1000
OWNER
1000
GEN
1002
}
1001
GENIUS_GENODEF_13
1002
{
1000
HIER
1070
     0
1002
}
1002
{
1000
MANEDIT
1070
     0
1002
}
1002
{
1000
NOSEL
1070
     0
1002
}
1002
{
1000
BEHIND
1070
     0
1002
}
1002
{
1000
OTHER
1070
     0
1002
}
1002
{
1000
REACTOR
1002
}
  0
LINE
  5
102A5
  8
AM_0
 10
591.15920320338785
 20
288.45359615220752
 30
0.0
 11
590.65920320338785
 21
287.95359615220752
 31
0.0
1001
GENIUS_GENFIL_13
1070
     0
1040
0.5
1040
0.5
1040
20.0
1040
0.0
1002
{
1002
}
1001
GENIUS_GENODEF_13
1002
{
1000
HIER
1070
     0
1002
}
1002
{
1000
MANEDIT
1070
     0
1002
}
1002
{
1000
NOSEL
1070
     0
1002
}
1002
{
1000
BEHIND
1070
     0
1002
}
1002
{
1000
OTHER
1070
     0
1002
}
1002
{
1000
REACTOR
1002
}
1001
GENIUS_GENOBJ-N-CHA_13
1002
{
1000
OWNER
1000
GEN
1002
}
  0
LINE
  5
102A6
  8
AM_0
 10
706.15920320338785
 20
303.95359615221048
 30
0.0
 11
706.15920320338785
 21
230.9535656346323
 31
0.0
  0
ARC
  5
102A8
  8
AM_0
 10
652.17611320338722
 20
267.44359615221009
 30
0.0
 40
64.014987999999974
 50
212.45463403128531
 51
214.08620795187741
  0
ARC
  5
102A9
  8
AM_0
 10
652.17611320338722
 20
267.44359615221009
 30
0.0
 40
64.014987999999974
 50
163.94085908878611
 51
196.05914091121369
  0
ARC
  5
102CA
  8
AM_0
 10
652.17611320338722
 20
267.44359615221009
 30
0.0
 40
64.003665999999996
 50
343.86679025732309
 51
16.133209742678481
  0
ARC
  5
102CB
  8
AM_0
 10
652.17611320338722
 20
267.44359615221009
 30
0.0
 40
64.003665999999996
 50
32.495092012118199
 51
34.125231616084442
  0
CIRCLE
  5
106D5
  8
AM_0
 10
413.18900856910648
 20
267.4535961522102
 30
0.0
 40
36.500001117587111
  0
CIRCLE
  5
106DF
  8
AM_0
 10
413.18900856910648
 20
267.4535961522102
 30
0.0
 40
21.00000067055225
  0
LINE
  5
111AB
  8
AM_0
 10
104.1889748030755
 20
215.39218764343821
 30
0.0
 11
104.188974803075
 21
253.1144745581955
 31
0.0
  0
LINE
  5
111AC
  8
AM_0
 10
95.188974803074558
 20
213.45359115221029
 30
0.0
 11
95.188974803074558
 21
321.45359115221032
 31
0.0
  0
LINE
  5
111AD
  8
AM_0
 10
95.188974803074558
 20
213.45359115221009
 30
0.0
 11
112.1889748030746
 21
214.45359115221021
 31
0.0
  0
LINE
  5
111AE
  8
AM_0
 10
95.188974803074558
 20
321.45359115221009
 30
0.0
 11
112.1889748030746
 21
320.45359115221021
 31
0.0
  0
LINE
  5
111AF
  8
AM_0
 10
104.1889748030752
 20
223.8596879541187
 30
0.0
 11
112.1889748030746
 21
223.8596879541189
 31
0.0
  0
LINE
  5
111B0
  8
AM_0
 10
104.1889748030755
 20
215.39218764343821
 30
0.0
 11
112.1889748030746
 21
215.39218764343821
 31
0.0
  0
LINE
  5
111B1
  8
AM_0
 10
100.6889748030752
 20
232.81271818695009
 30
0.0
 11
104.1889748030752
 21
232.81271818695009
 31
0.0
  0
LINE
  5
111B2
  8
AM_0
 10
100.6889748030752
 20
224.31271818695009
 30
0.0
 11
104.1889748030755
 21
224.31271818695009
 31
0.0
  0
LINE
  5
111B3
  8
AM_0
 10
100.1889748030752
 20
224.81271818695009
 30
0.0
 11
100.1889748030752
 21
232.31271818695009
 31
0.0
  0
ARC
  5
111B4
  8
AM_0
 10
100.6889748030754
 20
224.81271818695009
 30
0.0
 40
0.5
 50
180.0
 51
270.0
  0
ARC
  5
111B5
  8
AM_0
 10
100.6889748030754
 20
232.31271818695009
 30
0.0
 40
0.5
 50
90.0
 51
180.0
  0
LINE
  5
111B6
  8
AM_0
 10
95.188974803074558
 20
225.18139665907009
 30
0.0
 11
100.1889748030752
 21
225.18139665906989
 31
0.0
  0
LINE
  5
111B7
  8
AM_0
 10
95.188974803074558
 20
234.91647915736601
 30
0.0
 11
104.1889748030752
 21
234.9164791573661
 31
0.0
  0
LINE
  5
111B8
  8
AM_0
 10
104.1889748030755
 20
319.51499466098232
 30
0.0
 11
104.188974803075
 21
281.79270774622938
 31
0.0
  0
LINE
  5
111B9
  8
AM_0
 10
104.1889748030752
 20
311.04749435030169
 30
0.0
 11
112.1889748030746
 21
311.04749435030169
 31
0.0
  0
LINE
  5
111BA
  8
AM_0
 10
104.1889748030755
 20
319.51499466098232
 30
0.0
 11
112.1889748030746
 21
319.51499466098232
 31
0.0
  0
LINE
  5
111BB
  8
AM_0
 10
100.6889748030752
 20
302.09446411747041
 30
0.0
 11
104.1889748030752
 21
302.09446411747041
 31
0.0
  0
LINE
  5
111BC
  8
AM_0
 10
100.6889748030752
 20
310.59446411747041
 30
0.0
 11
104.1889748030755
 21
310.59446411747041
 31
0.0
  0
LINE
  5
111BD
  8
AM_0
 10
100.1889748030752
 20
310.09446411747041
 30
0.0
 11
100.1889748030752
 21
302.5944641174703
 31
0.0
  0
ARC
  5
111BE
  8
AM_0
 10
100.6889748030754
 20
310.09446411747018
 30
0.0
 40
0.5
 50
90.0
 51
180.0
  0
ARC
  5
111BF
  8
AM_0
 10
100.6889748030754
 20
302.5944641174703
 30
0.0
 40
0.5
 50
180.0
 51
270.0
  0
LINE
  5
111C0
  8
AM_0
 10
95.188974803074558
 20
309.72578564535041
 30
0.0
 11
100.1889748030752
 21
309.72578564535053
 31
0.0
  0
LINE
  5
111C1
  8
AM_0
 10
95.188974803074558
 20
299.99070314705438
 30
0.0
 11
104.1889748030752
 21
299.99070314705438
 31
0.0
  0
LINE
  5
111C2
  8
AM_0
 10
89.188974803074572
 20
321.45359115221038
 30
0.0
 11
89.188974803074572
 21
213.45359115221009
 31
0.0
  0
LINE
  5
111C3
  8
AM_0
 10
95.188974803074558
 20
213.45359115221009
 30
0.0
 11
89.188974803074572
 21
213.45359115221009
 31
0.0
  0
LINE
  5
111C4
  8
AM_0
 10
89.188974803074572
 20
321.45359115221038
 30
0.0
 11
95.188974803074345
 21
321.45359115221038
 31
0.0
  0
LINE
  5
111C5
  8
AM_0
 10
88.188974803074572
 20
263.6535911522102
 30
0.0
 11
88.188974803074572
 21
271.25359115221011
 31
0.0
  0
LINE
  5
111C6
  8
AM_0
 10
88.188974803074572
 20
271.25359115221011
 30
0.0
 11
89.188974803074572
 21
271.25359115221011
 31
0.0
  0
LINE
  5
111C7
  8
AM_0
 10
89.188974803074572
 20
267.6535911522102
 30
0.0
 11
88.188974803074572
 21
268.01756138647642
 31
0.0
  0
LINE
  5
111C8
  8
AM_0
 10
89.188974803074572
 20
267.25359115221011
 30
0.0
 11
88.188974803074572
 21
267.6175613864765
 31
0.0
  0
LINE
  5
111C9
  8
AM_0
 10
89.188974803074572
 20
263.6535911522102
 30
0.0
 11
88.188974803074572
 21
263.6535911522102
 31
0.0
  0
LINE
  5
111CA
  8
AM_0
 10
87.130037290946504
 20
271.36094612451677
 30
0.0
 11
88.188974803074572
 21
271.45359115221009
 31
0.0
  0
LINE
  5
111CB
  8
AM_0
 10
87.130037290946504
 20
263.54623617990381
 30
0.0
 11
88.188974803074572
 21
263.45359115221009
 31
0.0
  0
ARC
  5
111CC
  8
AM_0
 10
91.588974803074564
 20
267.45359115221009
 30
0.0
 40
6.5
 50
151.82726586813479
 51
208.1727341318651
  0
ARC
  5
111CD
  8
AM_0
 10
87.269486479343072
 20
265.14014769685048
 30
0.0
 40
1.6000000000000001
 50
208.1727341318651
 51
265.00000000000028
  0
ARC
  5
111CE
  8
AM_0
 10
87.269486479343072
 20
269.76703460756983
 30
0.0
 40
1.6000000000000001
 50
94.999999999999716
 51
151.82726586813479
  0
LINE
  5
111CF
  8
AM_0
 10
88.188974803074572
 20
263.45359115221009
 30
0.0
 11
88.188974803074572
 21
271.45359115221009
 31
0.0
  0
LINE
  5
111D0
  8
AM_0
 10
112.1889748030746
 20
253.11447455819561
 30
0.0
 11
104.1889748030752
 21
253.11447455819561
 31
0.0
  0
LINE
  5
111D1
  8
AM_0
 10
112.1889748030743
 20
281.79270774622961
 30
0.0
 11
104.188974803075
 21
281.79270774622961
 31
0.0
  0
LINE
  5
111D2
  8
AM_0
 10
74.688974803074089
 20
233.45359115221129
 30
0.0
 11
74.688974803074089
 21
222.45359115221029
 31
0.0
  0
LINE
  5
111D3
  8
AM_0
 10
89.188974803074117
 20
222.45359115221029
 30
0.0
 11
74.688974803074089
 21
222.45359115221041
 31
0.0
  0
LINE
  5
111D4
  8
AM_0
 10
62.688974803074579
 20
227.4535911522112
 30
0.0
 11
62.688974803074359
 21
224.45359115221129
 31
0.0
  0
LINE
  5
111D5
  8
AM_0
 10
62.688974803074359
 20
224.45359115221129
 30
0.0
 11
74.688974803074089
 21
224.45359115221129
 31
0.0
  0
LINE
  5
111D6
  8
AM_0
 10
62.688974803074132
 20
225.4535911522114
 30
0.0
 11
62.688974803074132
 21
227.6312595583579
 31
0.0
  0
LINE
  5
111D7
  8
AM_0
 10
57.188974803074132
 20
227.4535911522114
 30
0.0
 11
58.088974803074223
 21
227.4535911522114
 31
0.0
  0
LINE
  5
111D8
  8
AM_0
 10
56.988974803073873
 20
230.4535911522114
 30
0.0
 11
56.988974803073873
 21
227.4535911522114
 31
0.0
  0
LINE
  5
111D9
  8
AM_0
 10
58.088974803074223
 20
227.18123941762769
 30
0.0
 11
58.088974803074223
 21
230.72594288679511
 31
0.0
  0
LINE
  5
111DA
  8
AM_0
 10
56.688974803074132
 20
230.1535911522115
 30
0.0
 11
58.088974803072411
 21
230.1535911522115
 31
0.0
  0
LINE
  5
111DB
  8
AM_0
 10
62.088974803074201
 20
226.5720212918043
 30
0.0
 11
62.088974803074201
 21
225.4535911522114
 31
0.0
  0
LINE
  5
111DC
  8
AM_0
 10
62.088974803074201
 20
227.4535911522114
 30
0.0
 11
62.088974803074201
 21
227.35359115221141
 31
0.0
  0
LINE
  5
111DD
  8
AM_0
 10
62.088974803074201
 20
227.35359115221141
 30
0.0
 11
62.088974803074201
 21
226.5720212918043
 31
0.0
  0
LINE
  5
111DE
  8
AM_0
 10
62.088974803074201
 20
227.4535911522114
 30
0.0
 11
62.088974803074201
 21
227.35359115221141
 31
0.0
  0
LINE
  5
111DF
  8
AM_0
 10
62.088974803074201
 20
227.8373538285411
 30
0.0
 11
62.088974803074201
 21
226.5720212918043
 31
0.0
  0
LINE
  5
111E0
  8
AM_0
 10
62.088974803074201
 20
225.4535911522114
 30
0.0
 11
62.688974803074132
 21
225.4535911522114
 31
0.0
  0
LINE
  5
111E1
  8
AM_0
 10
59.38897480307439
 20
226.5720212918043
 30
0.0
 11
59.38897480307439
 21
230.0035524842045
 31
0.0
  0
LINE
  5
111E2
  8
AM_0
 10
59.227930573816742
 20
226.2853296634612
 30
0.0
 11
58.295377524309693
 21
226.82373941762779
 31
0.0
  0
LINE
  5
111E3
  8
AM_0
 10
59.66142639510479
 20
225.77816467166849
 30
0.0
 11
61.816523211043808
 21
225.77816467166849
 31
0.0
  0
LINE
  5
111E4
  8
AM_0
 10
59.66142639510479
 20
227.36587791193989
 30
0.0
 11
61.816523211043808
 21
227.36587791194009
 31
0.0
  0
LINE
  5
111E5
  8
AM_0
 10
58.088974803072873
 20
230.4535911522114
 30
0.0
 11
56.988974803073873
 21
230.4535911522114
 31
0.0
  0
LINE
  5
111E6
  8
AM_0
 10
56.988974803073873
 20
230.4535911522114
 30
0.0
 11
56.688974803074132
 21
230.1535911522115
 31
0.0
  0
LINE
  5
111E7
  8
AM_0
 10
56.688974803074132
 20
230.1535911522115
 30
0.0
 11
56.688974803074132
 21
227.75359115221141
 31
0.0
  0
LINE
  5
111E8
  8
AM_0
 10
56.988974803073873
 20
227.4535911522114
 30
0.0
 11
58.088974803072411
 21
227.4535911522114
 31
0.0
  0
LINE
  5
111E9
  8
AM_0
 10
56.688974803074132
 20
227.75359115221141
 30
0.0
 11
56.988974803073873
 21
227.4535911522114
 31
0.0
  0
LINE
  5
111EA
  8
AM_0
 10
58.088974803072411
 20
227.75359115221141
 30
0.0
 11
56.688974803074132
 21
227.75359115221141
 31
0.0
  0
ARC
  5
111EB
  8
AM_0
 10
60.796197987047613
 20
226.5720212918043
 30
0.0
 40
1.292776816026465
 50
322.11555894629771
 51
0.0
  0
ARC
  5
111EC
  8
AM_0
 10
64.151404679133918
 20
228.9535911522114
 30
0.0
 40
4.762429876059711
 50
168.45024695876941
 51
199.47424000541329
  0
ARC
  5
111ED
  8
AM_0
 10
60.681751619100801
 20
226.5720212918043
 30
0.0
 40
1.292776816026554
 50
142.1155589462976
 51
217.88444105370229
  0
ARC
  5
111EE
  8
AM_0
 10
57.326544927014702
 20
228.9535911522114
 30
0.0
 40
4.762429876059584
 50
340.52575999458668
 51
347.08714779821958
  0
ARC
  5
111EF
  8
AM_0
 10
60.796197987047613
 20
226.5720212918043
 30
0.0
 40
1.292776816026501
 50
0.0
 51
37.884441053702282
  0
ARC
  5
111F0
  8
AM_0
 10
58.501780245544701
 20
227.18123941762781
 30
0.0
 40
0.4128054424705855
 50
180.0
 51
239.99999999999949
  0
ARC
  5
111F1
  8
AM_0
 10
58.815125131346292
 20
225.57032966346119
 30
0.0
 40
0.8256108849411369
 50
28.217424594182571
 51
59.999999999999439
  0
LINE
  5
111F2
  8
AM_0
 10
58.304067335597381
 20
231.0884599516813
 30
0.0
 11
58.295377524309693
 21
231.08344288679521
 31
0.0
  0
ARC
  5
111F3
  8
AM_0
 10
58.501780245544921
 20
230.7259428867952
 30
0.0
 40
0.4128054424705855
 50
119.9999999999916
 51
179.99999999999341
  0
CIRCLE
  5
111F4
  8
AM_0
 10
60.688936135068332
 20
267.45359115221049
 30
0.0
 40
5.5
  0
LINE
  5
111F5
  8
AM_0
 10
55.188936135068332
 20
264.27816467166758
 30
0.0
 11
60.688936135068793
 21
261.10273819112439
 31
0.0
  0
LINE
  5
111F6
  8
AM_0
 10
60.688936135068793
 20
261.10273819112439
 30
0.0
 11
66.188936135068332
 21
264.2781646716677
 31
0.0
  0
LINE
  5
111F7
  8
AM_0
 10
66.188936135068332
 20
264.2781646716677
 30
0.0
 11
66.188936135068332
 21
270.6290176327534
 31
0.0
  0
LINE
  5
111F8
  8
AM_0
 10
66.188936135068332
 20
270.6290176327534
 30
0.0
 11
60.688936135068332
 21
273.80444411329643
 31
0.0
  0
LINE
  5
111F9
  8
AM_0
 10
60.688936135068332
 20
273.80444411329643
 30
0.0
 11
55.188936135068332
 21
270.62901763275312
 31
0.0
  0
LINE
  5
111FA
  8
AM_0
 10
55.188936135068332
 20
270.62901763275312
 30
0.0
 11
55.188936135068332
 21
264.27816467166758
 31
0.0
  0
CIRCLE
  5
111FB
  8
AM_0
 10
60.688936135068332
 20
267.45359115221049
 30
0.0
 40
6.4999856554771771
  0
LINE
  5
111FC
  8
AM_0
 10
71.754228365439474
 20
233.4535911522112
 30
0.0
 11
74.688974803074089
 21
233.4535911522112
 31
0.0
  0
LINE
  5
111FD
  8
AM_0
 10
72.70839691722739
 20
231.9535911522112
 30
0.0
 11
74.688974803074089
 21
231.9535911522112
 31
0.0
  0
LINE
  5
111FE
  8
AM_0
 10
64.010003946933182
 20
227.4535911522112
 30
0.0
 11
74.688974803074089
 21
227.4535911522112
 31
0.0
  0
ARC
  5
111FF
  8
AM_0
 10
64.010003946932969
 20
232.4535911522112
 30
0.0
 40
5.0
 50
225.0
 51
270.0
1001
GENIUS_GENODEF_13
1002
{
1000
HIER
1070
     0
1002
}
1002
{
1000
MANEDIT
1070
     0
1002
}
1002
{
1000
NOSEL
1070
     0
1002
}
1002
{
1000
BEHIND
1070
     0
1002
}
1002
{
1000
OTHER
1070
     0
1002
}
1002
{
1000
REACTOR
1002
}
1001
GENIUS_GENOBJ-N-FIL_13
1002
{
1000
OWNER
1000
GEN
1002
}
  0
LINE
  5
11200
  8
AM_0
 10
72.708396917227176
 20
227.4535911522112
 30
0.0
 11
72.70839691722739
 21
231.9535911522112
 31
0.0
  0
LINE
  5
11201
  8
AM_0
 10
59.188936135068332
 20
261.129050574318
 30
0.0
 11
59.188936135068559
 21
240.24161629850181
 31
0.0
  0
LINE
  5
11202
  8
AM_0
 10
62.188936135068332
 20
261.129050574318
 30
0.0
 11
62.188936135068332
 21
240.24161629850181
 31
0.0
  0
LINE
  5
11203
  8
AM_0
 10
56.938936135068332
 20
262.14441856870837
 30
0.0
 11
56.938936135068332
 21
234.52465896407591
 31
0.0
  0
ARC
  5
11204
  8
AM_0
 10
61.938936135068332
 20
234.52465896407591
 30
0.0
 40
5.0
 50
180.0
 51
225.0
1001
GENIUS_GENOBJ-N-FIL_13
1002
{
1000
OWNER
1000
GEN
1002
}
1001
GENIUS_GENODEF_13
1002
{
1000
HIER
1070
     0
1002
}
1002
{
1000
MANEDIT
1070
     0
1002
}
1002
{
1000
NOSEL
1070
     0
1002
}
1002
{
1000
BEHIND
1070
     0
1002
}
1002
{
1000
OTHER
1070
     0
1002
}
1002
{
1000
REACTOR
1002
}
  0
LINE
  5
11205
  8
AM_0
 10
64.438936135068332
 20
262.14441856870837
 30
0.0
 11
64.438936135068332
 21
237.98450949546279
 31
0.0
  0
ARC
  5
11206
  8
AM_0
 10
69.438936135068332
 20
246.40910952153581
 30
0.0
 40
5.0
 50
180.0
 51
212.46094411513801
1001
GENIUS_GENODEF_13
1002
{
1000
HIER
1070
     0
1002
}
1002
{
1000
MANEDIT
1070
     0
1002
}
1002
{
1000
NOSEL
1070
     0
1002
}
1002
{
1000
BEHIND
1070
     0
1002
}
1002
{
1000
OTHER
1070
     0
1002
}
1002
{
1000
REACTOR
1002
}
1001
GENIUS_GENOBJ-N-FIL_13
1002
{
1000
OWNER
1000
GEN
1002
}
  0
ARC
  5
11207
  8
AM_0
 10
69.438936135068332
 20
237.98450949546279
 30
0.0
 40
5.0
 50
180.0
 51
224.2123722808945
1001
GENIUS_GENOBJ-N-FIL_13
1002
{
1000
OWNER
1000
GEN
1002
}
1001
GENIUS_GENODEF_13
1002
{
1000
HIER
1070
     0
1002
}
1002
{
1000
MANEDIT
1070
     0
1002
}
1002
{
1000
NOSEL
1070
     0
1002
}
1002
{
1000
BEHIND
1070
     0
1002
}
1002
{
1000
OTHER
1070
     0
1002
}
1002
{
1000
REACTOR
1002
}
  0
LINE
  5
11208
  8
AM_0
 10
72.708396917227176
 20
231.9535911522112
 30
0.0
 11
65.220148624301316
 21
243.72548660857009
 31
0.0
  0
LINE
  5
11209
  8
AM_0
 10
72.708396917227176
 20
227.4535911522112
 30
0.0
 11
65.855135899216918
 21
234.49791002470181
 31
0.0
  0
LINE
  5
1120A
  8
AM_0
 10
58.403402229135672
 20
230.98912505814309
 30
0.0
 11
60.474470041000302
 21
228.91805724627849
 31
0.0
  0
ARC
  5
1120B
  8
AM_0
 10
60.688936135068332
 20
240.24161629850181
 30
0.0
 40
1.5
 50
180.0
 51
0.0
  0
LINE
  5
1120C
  8
AM_0
 10
74.688974803074558
 20
301.45359115220958
 30
0.0
 11
74.688974803075041
 21
312.45359115221049
 31
0.0
  0
LINE
  5
1120D
  8
AM_0
 10
89.188974803075055
 20
312.45359115221021
 30
0.0
 11
74.688974803075041
 21
312.45359115221049
 31
0.0
  0
LINE
  5
1120E
  8
AM_0
 10
62.688974803075268
 20
307.45359115220981
 30
0.0
 11
62.688974803075268
 21
310.45359115220981
 31
0.0
  0
LINE
  5
1120F
  8
AM_0
 10
62.688974803075268
 20
310.45359115220981
 30
0.0
 11
74.688974803075041
 21
310.45359115220958
 31
0.0
  0
LINE
  5
11210
  8
AM_0
 10
62.688974803075027
 20
309.4535911522097
 30
0.0
 11
62.688974803075027
 21
307.2759227460632
 31
0.0
  0
LINE
  5
11211
  8
AM_0
 10
57.188974803075041
 20
307.45359115220981
 30
0.0
 11
58.088974803075132
 21
307.45359115220981
 31
0.0
  0
LINE
  5
11212
  8
AM_0
 10
56.988974803074768
 20
304.45359115220992
 30
0.0
 11
56.988974803074768
 21
307.45359115220992
 31
0.0
  0
LINE
  5
11213
  8
AM_0
 10
58.088974803075132
 20
307.72594288679352
 30
0.0
 11
58.088974803075132
 21
304.1812394176261
 31
0.0
  0
LINE
  5
11214
  8
AM_0
 10
56.688974803075027
 20
304.75359115220988
 30
0.0
 11
58.08897480307489
 21
304.75359115220982
 31
0.0
  0
LINE
  5
11215
  8
AM_0
 10
62.088974803075132
 20
308.33516101261688
 30
0.0
 11
62.088974803075132
 21
309.45359115220981
 31
0.0
  0
LINE
  5
11216
  8
AM_0
 10
62.088974803075132
 20
307.45359115220981
 30
0.0
 11
62.088974803075132
 21
307.55359115220972
 31
0.0
  0
LINE
  5
11217
  8
AM_0
 10
62.088974803075132
 20
307.55359115220972
 30
0.0
 11
62.088974803075132
 21
308.33516101261688
 31
0.0
  0
LINE
  5
11218
  8
AM_0
 10
62.088974803075132
 20
307.45359115220981
 30
0.0
 11
62.088974803075132
 21
307.55359115220972
 31
0.0
  0
LINE
  5
11219
  8
AM_0
 10
62.088974803075132
 20
307.06982847588012
 30
0.0
 11
62.088974803075132
 21
308.33516101261688
 31
0.0
  0
LINE
  5
1121A
  8
AM_0
 10
62.088974803075132
 20
309.45359115220981
 30
0.0
 11
62.688974803075027
 21
309.4535911522097
 31
0.0
  0
LINE
  5
1121B
  8
AM_0
 10
59.388974803075278
 20
308.33516101261688
 30
0.0
 11
59.388974803075101
 21
304.90362982021662
 31
0.0
  0
LINE
  5
1121C
  8
AM_0
 10
59.227930573817673
 20
308.62185264096001
 30
0.0
 11
58.295377524310581
 21
308.08344288679342
 31
0.0
  0
LINE
  5
1121D
  8
AM_0
 10
59.661426395105721
 20
309.12901763275278
 30
0.0
 11
61.816523211044739
 21
309.12901763275278
 31
0.0
  0
LINE
  5
1121E
  8
AM_0
 10
59.661426395105721
 20
307.54130439248121
 30
0.0
 11
61.816523211044739
 21
307.54130439248109
 31
0.0
  0
LINE
  5
1121F
  8
AM_0
 10
58.088974803075132
 20
304.45359115220992
 30
0.0
 11
56.988974803074768
 21
304.45359115220992
 31
0.0
  0
LINE
  5
11220
  8
AM_0
 10
56.988974803074768
 20
304.45359115220992
 30
0.0
 11
56.688974803075027
 21
304.75359115220988
 31
0.0
  0
LINE
  5
11221
  8
AM_0
 10
56.688974803075027
 20
304.75359115220988
 30
0.0
 11
56.688974803075027
 21
307.15359115221003
 31
0.0
  0
LINE
  5
11222
  8
AM_0
 10
56.988974803074768
 20
307.45359115220992
 30
0.0
 11
58.088974803075132
 21
307.45359115220981
 31
0.0
  0
LINE
  5
11223
  8
AM_0
 10
56.688974803075027
 20
307.15359115221003
 30
0.0
 11
56.988974803074768
 21
307.45359115220992
 31
0.0
  0
LINE
  5
11224
  8
AM_0
 10
58.088974803075132
 20
307.15359115220991
 30
0.0
 11
56.688974803075027
 21
307.15359115221003
 31
0.0
  0
ARC
  5
11225
  8
AM_0
 10
60.796197987048501
 20
308.33516101261688
 30
0.0
 40
1.292776816026465
 50
0.0
 51
37.884441053702282
  0
ARC
  5
11226
  8
AM_0
 10
64.1514046791346
 20
305.9535911522097
 30
0.0
 40
4.762429876059711
 50
160.52575999458671
 51
191.54975304123039
  0
ARC
  5
11227
  8
AM_0
 10
60.681751619101703
 20
308.33516101261688
 30
0.0
 40
1.292776816026554
 50
142.1155589462976
 51
217.88444105370229
  0
ARC
  5
11228
  8
AM_0
 10
57.326544927015391
 20
305.95359115220981
 30
0.0
 40
4.762429876059584
 50
12.912852201780369
 51
19.474240005413272
  0
ARC
  5
11229
  8
AM_0
 10
60.796197987048501
 20
308.33516101261688
 30
0.0
 40
1.292776816026501
 50
322.11555894629771
 51
0.0
  0
ARC
  5
1122A
  8
AM_0
 10
58.501780245545589
 20
307.72594288679318
 30
0.0
 40
0.4128054424705855
 50
120.0000000000005
 51
180.0
  0
ARC
  5
1122B
  8
AM_0
 10
58.815125131346981
 20
309.33685264095988
 30
0.0
 40
0.8256108849411369
 50
300.00000000000051
 51
331.7825754058174
  0
LINE
  5
1122C
  8
AM_0
 10
58.30406733559829
 20
303.81872235273988
 30
0.0
 11
58.295377524310581
 21
303.82373941762597
 31
0.0
  0
ARC
  5
1122D
  8
AM_0
 10
58.501780245545589
 20
304.18123941762599
 30
0.0
 40
0.4128054424705855
 50
180.00000000000659
 51
240.00000000000841
  0
LINE
  5
1122E
  8
AM_0
 10
71.754228365440383
 20
301.4535911522097
 30
0.0
 11
74.688974803074558
 21
301.45359115220958
 31
0.0
  0
LINE
  5
1122F
  8
AM_0
 10
72.708396917228029
 20
302.9535911522097
 30
0.0
 11
74.688974803074814
 21
302.9535911522097
 31
0.0
  0
LINE
  5
11230
  8
AM_0
 10
64.010003946934091
 20
307.45359115220981
 30
0.0
 11
74.688974803074814
 21
307.45359115220958
 31
0.0
  0
ARC
  5
11231
  8
AM_0
 10
64.010003946933637
 20
302.45359115220981
 30
0.0
 40
5.0
 50
90.0
 51
135.0
1001
GENIUS_GENODEF_13
1002
{
1000
HIER
1070
     0
1002
}
1002
{
1000
MANEDIT
1070
     0
1002
}
1002
{
1000
NOSEL
1070
     0
1002
}
1002
{
1000
BEHIND
1070
     0
1002
}
1002
{
1000
OTHER
1070
     0
1002
}
1002
{
1000
REACTOR
1002
}
1001
GENIUS_GENOBJ-N-FIL_13
1002
{
1000
OWNER
1000
GEN
1002
}
  0
LINE
  5
11232
  8
AM_0
 10
72.708396917228029
 20
307.4535911522097
 30
0.0
 11
72.708396917228029
 21
302.9535911522097
 31
0.0
  0
LINE
  5
11233
  8
AM_0
 10
59.188936135068772
 20
273.77813173010333
 30
0.0
 11
59.188936135069241
 21
294.66556600591929
 31
0.0
  0
LINE
  5
11234
  8
AM_0
 10
62.188936135068559
 20
273.77813173010321
 30
0.0
 11
62.188936135069241
 21
294.66556600591929
 31
0.0
  0
LINE
  5
11235
  8
AM_0
 10
56.938936135068793
 20
272.76276373571272
 30
0.0
 11
56.938936135069248
 21
300.3825233403453
 31
0.0
  0
ARC
  5
11236
  8
AM_0
 10
61.938936135069007
 20
300.38252334034519
 30
0.0
 40
5.0
 50
135.0
 51
180.0
1001
GENIUS_GENOBJ-N-FIL_13
1002
{
1000
OWNER
1000
GEN
1002
}
1001
GENIUS_GENODEF_13
1002
{
1000
HIER
1070
     0
1002
}
1002
{
1000
MANEDIT
1070
     0
1002
}
1002
{
1000
NOSEL
1070
     0
1002
}
1002
{
1000
BEHIND
1070
     0
1002
}
1002
{
1000
OTHER
1070
     0
1002
}
1002
{
1000
REACTOR
1002
}
  0
LINE
  5
11237
  8
AM_0
 10
64.438936135068786
 20
272.7627637357125
 30
0.0
 11
64.438936135069241
 21
296.92267280895823
 31
0.0
  0
ARC
  5
11238
  8
AM_0
 10
69.438936135068786
 20
288.49807278288517
 30
0.0
 40
5.0
 50
147.53905588486199
 51
180.0
1001
GENIUS_GENODEF_13
1002
{
1000
HIER
1070
     0
1002
}
1002
{
1000
MANEDIT
1070
     0
1002
}
1002
{
1000
NOSEL
1070
     0
1002
}
1002
{
1000
BEHIND
1070
     0
1002
}
1002
{
1000
OTHER
1070
     0
1002
}
1002
{
1000
REACTOR
1002
}
1001
GENIUS_GENOBJ-N-FIL_13
1002
{
1000
OWNER
1000
GEN
1002
}
  0
ARC
  5
11239
  8
AM_0
 10
69.438936135069014
 20
296.92267280895823
 30
0.0
 40
5.0
 50
135.7876277191055
 51
180.0
1001
GENIUS_GENOBJ-N-FIL_13
1002
{
1000
OWNER
1000
GEN
1002
}
1001
GENIUS_GENODEF_13
1002
{
1000
HIER
1070
     0
1002
}
1002
{
1000
MANEDIT
1070
     0
1002
}
1002
{
1000
NOSEL
1070
     0
1002
}
1002
{
1000
BEHIND
1070
     0
1002
}
1002
{
1000
OTHER
1070
     0
1002
}
1002
{
1000
REACTOR
1002
}
  0
LINE
  5
1123A
  8
AM_0
 10
72.708396917227844
 20
302.9535911522097
 30
0.0
 11
65.220148624301771
 21
291.18169569585092
 31
0.0
  0
LINE
  5
1123B
  8
AM_0
 10
72.708396917228029
 20
307.4535911522097
 30
0.0
 11
65.855135899217828
 21
300.40927227971918
 31
0.0
  0
LINE
  5
1123C
  8
AM_0
 10
58.403402229136361
 20
303.91805724627812
 30
0.0
 11
60.474470041001211
 21
305.98912505814269
 31
0.0
  0
ARC
  5
1123D
  8
AM_0
 10
60.688936135069007
 20
294.66556600591929
 30
0.0
 40
1.5
 50
0.0
 51
180.0
  0
LINE
  5
1123E
  8
AM_0
 10
82.818467876054797
 20
197.24106927139181
 30
0.0
 11
67.68838071197689
 21
224.45359115221129
 31
0.0
  0
LINE
  5
1123F
  8
AM_0
 10
88.062427943479122
 20
200.15669661576541
 30
0.0
 11
75.665416034691546
 21
222.45359115221029
 31
0.0
  0
LINE
  5
11240
  8
AM_0
 10
258.68897480307419
 20
304.60361115221002
 30
0.0
 11
266.68897480307407
 21
304.60361115221002
 31
0.0
  0
LINE
  5
11241
  8
AM_0
 10
259.68897480307407
 20
215.41355115221009
 30
0.0
 11
266.68897480307407
 21
215.4135511522102
 31
0.0
  0
LINE
  5
11242
  8
AM_0
 10
258.68897480307419
 20
230.30356115220999
 30
0.0
 11
266.68897480307407
 21
230.30356115220999
 31
0.0
  0
LINE
  5
11243
  8
AM_0
 10
259.68897480307407
 20
203.95359115221001
 30
0.0
 11
266.68897480307407
 21
203.95359115221009
 31
0.0
  0
LINE
  5
11244
  8
AM_0
 10
259.68897480307407
 20
319.49362115220993
 30
0.0
 11
266.68897480307407
 21
319.49362115220993
 31
0.0
  0
LINE
  5
11245
  8
AM_0
 10
259.68897480307407
 20
330.95359115220998
 30
0.0
 11
266.68897480307407
 21
330.95359115220992
 31
0.0
  0
LINE
  5
11246
  8
AM_0
 10
112.1889748030745
 20
210.01289266571209
 30
0.0
 11
114.50892480307409
 21
209.96353115221009
 31
0.0
  0
LINE
  5
11247
  8
AM_0
 10
152.6889748030745
 20
221.10361115220999
 30
0.0
 11
258.68897480307419
 21
221.10361115220999
 31
0.0
  0
LINE
  5
11248
  8
AM_0
 10
253.3989348030743
 20
206.95359115220981
 30
0.0
 11
258.68897480307419
 21
206.95359115220981
 31
0.0
  0
LINE
  5
11249
  8
AM_0
 10
125.3589648030743
 20
234.09360115220991
 30
0.0
 11
219.7089348030743
 21
234.09360115220991
 31
0.0
  0
LINE
  5
1124A
  8
AM_0
 10
207.6889748030743
 20
231.4535911522099
 30
0.0
 11
126.2246848030744
 21
231.4535911522099
 31
0.0
  0
LINE
  5
1124B
  8
AM_0
 10
207.6889748030743
 20
230.73362115220991
 30
0.0
 11
255.5089848030743
 21
230.73362115220991
 31
0.0
  0
LINE
  5
1124C
  8
AM_0
 10
125.3589648030743
 20
230.73362115220991
 30
0.0
 11
207.6889748030743
 21
230.73362115220991
 31
0.0
  0
LINE
  5
1124D
  8
AM_0
 10
125.38660480307421
 20
209.1935811522101
 30
0.0
 11
131.18897480307419
 21
209.1935811522101
 31
0.0
  0
LINE
  5
1124E
  8
AM_0
 10
134.68897480307419
 20
205.59360115221011
 30
0.0
 11
251.49897480307419
 21
205.59360115221011
 31
0.0
  0
LINE
  5
1124F
  8
AM_0
 10
125.4488648030744
 20
214.47361115220991
 30
0.0
 11
131.18897480307419
 21
214.47361115220991
 31
0.0
  0
LINE
  5
11250
  8
AM_0
 10
121.6889748030742
 20
219.10361115220991
 30
0.0
 11
121.6889748030742
 21
233.15354115221001
 31
0.0
  0
LINE
  5
11251
  8
AM_0
 10
112.1889748030745
 20
219.10361115220999
 30
0.0
 11
121.6889748030742
 21
219.10361115220991
 31
0.0
  0
LINE
  5
11252
  8
AM_0
 10
253.42896480307411
 20
207.08350115221
 30
0.0
 11
256.88898480307432
 21
219.99362115221001
 31
0.0
  0
LINE
  5
11253
  8
AM_0
 10
115.4502648030744
 20
207.2945911522099
 30
0.0
 11
114.9690048030743
 21
209.20359115220981
 31
0.0
  0
LINE
  5
11254
  8
AM_0
 10
115.8789848030744
 20
207.32352115220991
 30
0.0
 11
114.9589348030742
 21
211.20362115220999
 31
0.0
  0
LINE
  5
11255
  8
AM_0
 10
132.6889748030743
 20
205.56455115220999
 30
0.0
 11
132.6889748030743
 21
212.97361115221
 31
0.0
  0
LINE
  5
11256
  8
AM_0
 10
113.51899480307419
 20
210.33359115220989
 30
0.0
 11
115.1689548030744
 21
210.33359115220989
 31
0.0
  0
LINE
  5
11257
  8
AM_0
 10
152.6889748030745
 20
313.80356115221002
 30
0.0
 11
258.68897480307419
 21
313.80356115221002
 31
0.0
  0
LINE
  5
11258
  8
AM_0
 10
258.68897480307419
 20
204.95359115220981
 30
0.0
 11
258.68897480307419
 21
329.95359115221009
 31
0.0
  0
LINE
  5
11259
  8
AM_0
 10
112.1889748030744
 20
324.89599422875938
 30
0.0
 11
114.5089848030745
 21
324.95359115220998
 31
0.0
  0
LINE
  5
1125A
  8
AM_0
 10
112.1889748030745
 20
210.0235311522101
 30
0.0
 11
112.1889748030745
 21
324.88358115221018
 31
0.0
  0
LINE
  5
1125B
  8
AM_0
 10
252.02894480307421
 20
231.4535911522099
 30
0.0
 11
207.6889748030743
 21
231.4535911522099
 31
0.0
  0
LINE
  5
1125C
  8
AM_0
 10
121.6889748030742
 20
315.80356115220991
 30
0.0
 11
121.6889748030742
 21
301.76364115221003
 31
0.0
  0
LINE
  5
1125D
  8
AM_0
 10
112.1889748030745
 20
301.76364115221003
 30
0.0
 11
121.6889748030742
 21
301.76364115221003
 31
0.0
  0
LINE
  5
1125E
  8
AM_0
 10
112.1889748030745
 20
310.14353115221002
 30
0.0
 11
121.6889748030742
 21
310.14353115221002
 31
0.0
  0
LINE
  5
1125F
  8
AM_0
 10
112.1889748030745
 20
315.80356115220991
 30
0.0
 11
121.6889748030742
 21
315.80356115220991
 31
0.0
  0
LINE
  5
11260
  8
AM_0
 10
187.13105480307411
 20
253.45359115221001
 30
0.0
 11
117.2389648030742
 21
253.45359115221001
 31
0.0
  0
LINE
  5
11261
  8
AM_0
 10
134.68897480307419
 20
329.31357115220999
 30
0.0
 11
251.49897480307419
 21
329.31357115220999
 31
0.0
  0
LINE
  5
11262
  8
AM_0
 10
125.6432648030742
 20
320.44358115221007
 30
0.0
 11
131.18897480307419
 21
320.44358115221007
 31
0.0
  0
LINE
  5
11263
  8
AM_0
 10
122.8982648030742
 20
314.44690115220999
 30
0.0
 11
123.6832448030744
 21
318.79358115220998
 31
0.0
  0
LINE
  5
11264
  8
AM_0
 10
125.5794148030742
 20
325.72361115221003
 30
0.0
 11
131.18897480307419
 21
325.72361115221003
 31
0.0
  0
LINE
  5
11265
  8
AM_0
 10
117.8189848030742
 20
329.12363115221001
 30
0.0
 11
131.18897480307419
 21
329.12363115221001
 31
0.0
  0
LINE
  5
11266
  8
AM_0
 10
117.7989648030744
 20
330.75363115221012
 30
0.0
 11
131.2989648030744
 21
330.75363115221012
 31
0.0
  0
LINE
  5
11267
  8
AM_0
 10
134.68897480307419
 20
333.37363115220973
 30
0.0
 11
252.7725948030743
 21
333.37363115220973
 31
0.0
  0
LINE
  5
11268
  8
AM_0
 10
134.68897480307419
 20
332.70359115220998
 30
0.0
 11
252.9166348030742
 21
332.70359115220998
 31
0.0
  0
LINE
  5
11269
  8
AM_0
 10
134.68897480307419
 20
331.34360115221
 30
0.0
 11
253.2089348030743
 21
331.34360115221
 31
0.0
  0
LINE
  5
1126A
  8
AM_0
 10
121.2032548030742
 20
318.49362115220993
 30
0.0
 11
123.6232448030742
 21
318.49362115220993
 31
0.0
  0
LINE
  5
1126B
  8
AM_0
 10
123.6331948030742
 20
324.14362115221002
 30
0.0
 11
122.6731648030745
 21
319.67353115220999
 31
0.0
  0
LINE
  5
1126C
  8
AM_0
 10
113.49897480307401
 20
322.55356115221002
 30
0.0
 11
123.2917648030742
 21
322.55356115221002
 31
0.0
  0
LINE
  5
1126D
  8
AM_0
 10
252.02894480307421
 20
303.45359115220998
 30
0.0
 11
126.2389648030744
 21
303.45359115220998
 31
0.0
  0
LINE
  5
1126E
  8
AM_0
 10
252.02894480307421
 20
301.45359115220998
 30
0.0
 11
237.68897480307419
 21
301.45359115220998
 31
0.0
  0
LINE
  5
1126F
  8
AM_0
 10
252.0360848030744
 20
293.45359115220998
 30
0.0
 11
237.68897480307419
 21
293.45359115220998
 31
0.0
  0
LINE
  5
11270
  8
AM_0
 10
115.8789848030744
 20
327.58362115221013
 30
0.0
 11
114.9589348030742
 21
323.71357115221002
 31
0.0
  0
LINE
  5
11271
  8
AM_0
 10
252.0218048030743
 20
291.45359115220998
 30
0.0
 11
126.2389648030744
 21
291.45359115220998
 31
0.0
  0
LINE
  5
11272
  8
AM_0
 10
113.51899480307419
 20
324.57358115221012
 30
0.0
 11
115.1689548030744
 21
324.57358115221012
 31
0.0
  0
LINE
  5
11273
  8
AM_0
 10
115.8589648030742
 20
329.24353115220998
 30
0.0
 11
114.9690048030743
 21
325.71363115220993
 31
0.0
  0
LINE
  5
11274
  8
AM_0
 10
187.12769480307449
 20
283.45359115220998
 30
0.0
 11
117.2389648030742
 21
283.45359115220998
 31
0.0
  0
LINE
  5
11275
  8
AM_0
 10
132.6889748030743
 20
329.34360115221
 30
0.0
 11
132.6889748030743
 21
321.94358115221007
 31
0.0
  0
LINE
  5
11276
  8
AM_0
 10
187.12769480307449
 20
281.45359115220998
 30
0.0
 11
117.2389648030742
 21
281.45359115220998
 31
0.0
  0
LINE
  5
11277
  8
AM_0
 10
187.13105480307411
 20
273.45359115221009
 30
0.0
 11
117.2389648030742
 21
273.45359115221009
 31
0.0
  0
LINE
  5
11278
  8
AM_0
 10
187.13105480307411
 20
271.45359115221009
 30
0.0
 11
117.2389648030742
 21
271.45359115221009
 31
0.0
  0
LINE
  5
11279
  8
AM_0
 10
253.42896480307411
 20
327.83362115221001
 30
0.0
 11
256.88898480307432
 21
314.91355115221
 31
0.0
  0
LINE
  5
1127A
  8
AM_0
 10
255.14936480307429
 20
327.95359115220998
 30
0.0
 11
258.68897480307419
 21
327.95359115220998
 31
0.0
  0
LINE
  5
1127B
  8
AM_0
 10
258.39893480307438
 20
318.49362115220993
 30
0.0
 11
255.9789548030742
 21
318.49362115220993
 31
0.0
  0
LINE
  5
1127C
  8
AM_0
 10
254.23917480307421
 20
332.18875115220999
 30
0.0
 11
256.92899480307432
 21
319.67353115220999
 31
0.0
  0
LINE
  5
1127D
  8
AM_0
 10
112.1889748030745
 20
233.15354115221001
 30
0.0
 11
121.6889748030742
 21
233.15354115221001
 31
0.0
  0
LINE
  5
1127E
  8
AM_0
 10
117.38960480307431
 20
205.78354115221001
 30
0.0
 11
131.43171480307461
 21
205.78354115221001
 31
0.0
  0
LINE
  5
1127F
  8
AM_0
 10
112.1889748030745
 20
224.76364115221
 30
0.0
 11
121.6889748030742
 21
224.76364115221
 31
0.0
  0
LINE
  5
11280
  8
AM_0
 10
113.49897480307401
 20
212.35361115220999
 30
0.0
 11
123.2917648030742
 21
212.35361115220999
 31
0.0
  0
LINE
  5
11281
  8
AM_0
 10
134.68897480307419
 20
203.56357115220999
 30
0.0
 11
176.01533480307421
 21
203.56357115220999
 31
0.0
  0
LINE
  5
11282
  8
AM_0
 10
125.1489948030742
 20
240.97361115221
 30
0.0
 11
219.6889748030741
 21
240.97361115221
 31
0.0
  0
LINE
  5
11283
  8
AM_0
 10
219.6889748030741
 20
233.4535911522099
 30
0.0
 11
126.2246848030744
 21
233.4535911522099
 31
0.0
  0
LINE
  5
11284
  8
AM_0
 10
125.3589648030743
 20
304.18357115220999
 30
0.0
 11
255.5089848030743
 21
304.18357115220999
 31
0.0
  0
LINE
  5
11285
  8
AM_0
 10
125.3589648030743
 20
300.82358115221012
 30
0.0
 11
219.7089348030743
 21
300.82358115221012
 31
0.0
  0
LINE
  5
11286
  8
AM_0
 10
125.1489948030742
 20
293.94358115221002
 30
0.0
 11
219.6889748030741
 21
293.94358115221002
 31
0.0
  0
LINE
  5
11287
  8
AM_0
 10
125.1489948030742
 20
291.0235311522099
 30
0.0
 11
255.72321480307431
 21
291.0235311522099
 31
0.0
  0
LINE
  5
11288
  8
AM_0
 10
116.01899480307441
 20
283.80356115221002
 30
0.0
 11
188.36024480307421
 21
283.80356115221002
 31
0.0
  0
LINE
  5
11289
  8
AM_0
 10
116.01899480307441
 20
281.13364115220998
 30
0.0
 11
188.3476648030742
 21
281.13364115220998
 31
0.0
  0
LINE
  5
1128A
  8
AM_0
 10
115.95899480307401
 20
273.73362115220988
 30
0.0
 11
188.42408480307409
 21
273.73362115220988
 31
0.0
  0
LINE
  5
1128B
  8
AM_0
 10
115.95899480307401
 20
271.19358115221007
 30
0.0
 11
188.42408480307409
 21
271.19358115221007
 31
0.0
  0
LINE
  5
1128C
  8
AM_0
 10
115.95899480307401
 20
263.72361115221003
 30
0.0
 11
188.42408480307409
 21
263.72361115221003
 31
0.0
  0
LINE
  5
1128D
  8
AM_0
 10
187.13105480307411
 20
261.45359115220998
 30
0.0
 11
117.2389648030742
 21
261.45359115220998
 31
0.0
  0
LINE
  5
1128E
  8
AM_0
 10
187.13105480307411
 20
263.45359115220998
 30
0.0
 11
117.2389648030742
 21
263.45359115220998
 31
0.0
  0
LINE
  5
1128F
  8
AM_0
 10
116.01899480307441
 20
253.7735311522101
 30
0.0
 11
188.36024480307421
 21
253.7735311522101
 31
0.0
  0
LINE
  5
11290
  8
AM_0
 10
187.13105480307411
 20
251.45359115221001
 30
0.0
 11
117.2389648030742
 21
251.45359115221001
 31
0.0
  0
LINE
  5
11291
  8
AM_0
 10
116.01899480307441
 20
251.11362115220999
 30
0.0
 11
188.36024480307421
 21
251.11362115220999
 31
0.0
  0
LINE
  5
11292
  8
AM_0
 10
252.0218048030743
 20
243.45359115221001
 30
0.0
 11
126.2246848030744
 21
243.45359115221001
 31
0.0
  0
LINE
  5
11293
  8
AM_0
 10
125.1489948030742
 20
243.89353115220999
 30
0.0
 11
255.72321480307431
 21
243.89353115220999
 31
0.0
  0
LINE
  5
11294
  8
AM_0
 10
252.0218048030743
 20
241.45359115221001
 30
0.0
 11
237.68897480307419
 21
241.45359115221001
 31
0.0
  0
LINE
  5
11295
  8
AM_0
 10
252.02894480307421
 20
233.4535911522099
 30
0.0
 11
237.68897480307419
 21
233.4535911522099
 31
0.0
  0
LINE
  5
11296
  8
AM_0
 10
115.95899480307401
 20
261.18357115221011
 30
0.0
 11
188.42408480307409
 21
261.18357115221011
 31
0.0
  0
LINE
  5
11297
  8
AM_0
 10
122.89820480307419
 20
220.46021115221001
 30
0.0
 11
123.6832448030744
 21
216.11353115220999
 31
0.0
  0
LINE
  5
11298
  8
AM_0
 10
121.2032548030742
 20
216.41355115221009
 30
0.0
 11
123.6232448030742
 21
216.41355115221009
 31
0.0
  0
LINE
  5
11299
  8
AM_0
 10
123.63325480307419
 20
210.76358115221001
 30
0.0
 11
122.6732348030741
 21
215.23355115221011
 31
0.0
  0
LINE
  5
1129A
  8
AM_0
 10
239.20258480307439
 20
197.45359115221001
 30
0.0
 11
250.70515480307429
 21
197.45359115221001
 31
0.0
  0
LINE
  5
1129B
  8
AM_0
 10
257.6890048030744
 20
206.95356115220989
 30
0.0
 11
251.96320480307449
 21
198.13660115221001
 31
0.0
  0
LINE
  5
1129C
  8
AM_0
 10
221.18897480307419
 20
239.9535911522099
 30
0.0
 11
221.18897480307419
 21
234.95359115221001
 31
0.0
  0
LINE
  5
1129D
  8
AM_0
 10
236.1889748030741
 20
239.9535911522099
 30
0.0
 11
236.1889748030741
 21
234.95359115221001
 31
0.0
  0
LINE
  5
1129E
  8
AM_0
 10
219.6889748030741
 20
241.45359115221001
 30
0.0
 11
126.2246848030744
 21
241.45359115221001
 31
0.0
  0
LINE
  5
1129F
  8
AM_0
 10
220.70893480307441
 20
239.9535911522099
 30
0.0
 11
220.70893480307441
 21
235.09360115221011
 31
0.0
  0
LINE
  5
112A0
  8
AM_0
 10
236.66895480307431
 20
239.9535911522099
 30
0.0
 11
236.66895480307431
 21
235.09360115221011
 31
0.0
  0
LINE
  5
112A1
  8
AM_0
 10
237.68897480307419
 20
240.97361115221
 30
0.0
 11
255.72321480307431
 21
240.97361115221
 31
0.0
  0
LINE
  5
112A2
  8
AM_0
 10
237.66895480307431
 20
234.09360115220991
 30
0.0
 11
255.5089848030743
 21
234.09360115220991
 31
0.0
  0
LINE
  5
112A3
  8
AM_0
 10
236.66895480307431
 20
294.95359115221009
 30
0.0
 11
236.66895480307431
 21
299.81357115220999
 31
0.0
  0
LINE
  5
112A4
  8
AM_0
 10
220.70893480307441
 20
294.95359115221009
 30
0.0
 11
220.70893480307441
 21
299.81357115220999
 31
0.0
  0
LINE
  5
112A5
  8
AM_0
 10
236.1889748030741
 20
294.95359115221009
 30
0.0
 11
236.1889748030741
 21
299.95359115220998
 31
0.0
  0
LINE
  5
112A6
  8
AM_0
 10
221.18897480307419
 20
294.95359115221009
 30
0.0
 11
221.18897480307419
 21
299.95359115220998
 31
0.0
  0
LINE
  5
112A7
  8
AM_0
 10
219.6889748030741
 20
301.45359115220998
 30
0.0
 11
126.2389648030744
 21
301.45359115220998
 31
0.0
  0
LINE
  5
112A8
  8
AM_0
 10
237.66895480307431
 20
300.82358115221012
 30
0.0
 11
255.5089848030743
 21
300.82358115221012
 31
0.0
  0
LINE
  5
112A9
  8
AM_0
 10
237.68897480307419
 20
293.94358115221002
 30
0.0
 11
255.73469480307429
 21
293.94358115221002
 31
0.0
  0
LINE
  5
112AA
  8
AM_0
 10
219.6889748030741
 20
293.45359115220998
 30
0.0
 11
126.2389648030744
 21
293.45359115220998
 31
0.0
  0
LINE
  5
112AB
  8
AM_0
 10
192.6889748030741
 20
287.95359115221009
 30
0.0
 11
192.6889748030741
 21
246.95359115221001
 31
0.0
  0
LINE
  5
112AC
  8
AM_0
 10
255.68897480307419
 20
287.95359115221009
 30
0.0
 11
255.68897480307419
 21
246.95359115221001
 31
0.0
  0
LINE
  5
112AD
  8
AM_0
 10
192.6889748030741
 20
287.95359115221009
 30
0.0
 11
255.68897480307419
 21
287.95359115221009
 31
0.0
  0
LINE
  5
112AE
  8
AM_0
 10
192.6889748030741
 20
246.95359115221001
 30
0.0
 11
255.68897480307419
 21
246.95359115221001
 31
0.0
  0
LINE
  5
112AF
  8
AM_0
 10
192.6889748030741
 20
280.45359115220998
 30
0.0
 11
255.68897480307419
 21
280.45359115220998
 31
0.0
  0
LINE
  5
112B0
  8
AM_0
 10
152.6889748030745
 20
313.80350115221
 30
0.0
 11
121.6889748030742
 21
311.77350115220997
 31
0.0
  0
LINE
  5
112B1
  8
AM_0
 10
152.6889748030745
 20
221.10355115221
 30
0.0
 11
121.6889748030742
 21
223.13355115221
 31
0.0
  0
ARC
  5
112B2
  8
AM_0
 10
124.8297848030742
 20
226.2432611522099
 30
0.0
 40
1.0032491999999991
 50
314.98118999999639
 51
5.1676434000008564
  0
ARC
  5
112B3
  8
AM_0
 10
259.68879480307407
 20
329.95383115221
 30
0.0
 40
0.99980682
 50
89.988930999997422
 51
180.0110699999974
  0
ARC
  5
112B4
  8
AM_0
 10
251.49024480307421
 20
207.5998311522101
 30
0.0
 40
2.0062942999999991
 50
270.24932999999891
 51
345.08844000000403
  0
ARC
  5
112B5
  8
AM_0
 10
259.68806480307438
 20
318.49448115221003
 30
0.0
 40
0.9990923399999999
 50
89.947921999999295
 51
180.05208000000431
  0
ARC
  5
112B6
  8
AM_0
 10
133.68177480307421
 20
272.45359115220998
 30
0.0
 40
1.0000259
 50
89.587534000000176
 51
270.4124599999987
  0
ARC
  5
112B7
  8
AM_0
 10
125.6484548030742
 20
318.44834115220999
 30
0.0
 40
1.9952742999999991
 50
90.148580000000095
 51
170.03521999999941
  0
ARC
  5
112B8
  8
AM_0
 10
125.5863148030742
 20
323.72653115220999
 30
0.0
 40
1.997119399999999
 50
89.801366999998493
 51
167.94475999999821
  0
ARC
  5
112B9
  8
AM_0
 10
121.20582480307419
 20
319.99594115220998
 30
0.0
 40
1.502416299999999
 50
269.90137999999558
 51
347.60813000000081
  0
ARC
  5
112BA
  8
AM_0
 10
117.81922480307431
 20
327.13132115220992
 30
0.0
 40
1.9922863
 50
90.007721000000544
 51
166.8783899999971
  0
ARC
  5
112BB
  8
AM_0
 10
113.4942148030746
 20
324.05844115220998
 30
0.0
 40
1.5048382
 50
270.18264000000067
 51
346.75308000000138
  0
ARC
  5
112BC
  8
AM_0
 10
113.5085548030744
 20
326.0789511522101
 30
0.0
 40
1.505448699999999
 50
270.39686999999992
 51
345.9524700000004
  0
ARC
  5
112BD
  8
AM_0
 10
117.7938348030744
 20
328.75901115220972
 30
0.0
 40
1.994612099999999
 50
89.851991999995732
 51
165.93885999999711
  0
ARC
  5
112BE
  8
AM_0
 10
134.68226480307419
 20
327.32028115220999
 30
0.0
 40
1.9933081999999991
 50
89.807323000004203
 51
180.19266999999849
  0
ARC
  5
112BF
  8
AM_0
 10
134.6831148030742
 20
329.34946115220998
 30
0.0
 40
1.9941304999999929
 50
89.831105999995955
 51
180.16889000000049
  0
ARC
  5
112C0
  8
AM_0
 10
134.68549480307439
 20
330.70713115221002
 30
0.0
 40
1.996488899999999
 50
89.899148000001659
 51
180.10084999999879
  0
ARC
  5
112C1
  8
AM_0
 10
134.68275480307449
 20
331.37705115221002
 30
0.0
 40
1.9964978999999949
 50
89.821482000000245
 51
165.6006099999997
  0
ARC
  5
112C2
  8
AM_0
 10
131.1852548030744
 20
321.94736115221002
 30
0.0
 40
1.5037541000000001
 50
270.14287000000093
 51
359.85713999999848
  0
ARC
  5
112C3
  8
AM_0
 10
131.18409480307429
 20
327.22849115220993
 30
0.0
 40
1.504891299999995
 50
270.18592999999731
 51
359.81406999999621
  0
ARC
  5
112C4
  8
AM_0
 10
131.18208480307419
 20
330.63047115221002
 30
0.0
 40
1.506942899999999
 50
270.26336999999921
 51
359.73663000000079
  0
ARC
  5
112C5
  8
AM_0
 10
131.29389480307441
 20
332.2587611522099
 30
0.0
 40
1.505230099999999
 50
270.19421
 51
345.17177999999871
  0
ARC
  5
112C6
  8
AM_0
 10
258.33912480307413
 20
315.30588115221002
 30
0.0
 40
1.5022733999999991
 50
195.1365099999966
 51
269.99411999999722
  0
ARC
  5
112C7
  8
AM_0
 10
251.4984248030743
 20
327.31443115220998
 30
0.0
 40
1.9991226
 50
15.05079100000003
 51
89.984388999999666
  0
ARC
  5
112C8
  8
AM_0
 10
259.68195480307418
 20
204.9466311522101
 30
0.0
 40
0.99304521
 50
179.5973099999994
 51
270.40268000000009
  0
ARC
  5
112C9
  8
AM_0
 10
259.68128480307428
 20
216.4059811522101
 30
0.0
 40
0.99237448
 50
179.55801999999801
 51
270.4419699999965
  0
ARC
  5
112CA
  8
AM_0
 10
258.39466480307431
 20
319.99387115220998
 30
0.0
 40
1.500286
 50
192.32631000000171
 51
270.16416999999529
  0
ARC
  5
112CB
  8
AM_0
 10
120.8445548030742
 20
309.04782115221002
 30
0.0
 40
5.0059714
 50
279.71098000000438
 51
354.6788800000046
  0
ARC
  5
112CC
  8
AM_0
 10
121.3099448030741
 20
305.12107115220999
 30
0.0
 40
6.0044340999999992
 50
45.225578000003388
 51
86.380822000002453
  0
ARC
  5
112CD
  8
AM_0
 10
124.8309448030742
 20
308.67429115221
 30
0.0
 40
1.002184699999999
 50
354.8038600000034
 51
45.047306999999407
  0
ARC
  5
112CE
  8
AM_0
 10
121.30866480307419
 20
229.79892115220991
 30
0.0
 40
6.0073843
 50
273.62974000000389
 51
314.7638500000042
  0
ARC
  5
112CF
  8
AM_0
 10
120.85181480307421
 20
225.86508115221
 30
0.0
 40
4.9991421999999961
 50
5.3780268999994192
 51
80.360064999998514
  0
ARC
  5
112D0
  8
AM_0
 10
117.82581480307449
 20
207.78415115220989
 30
0.0
 40
2.0005671999999981
 50
193.3095900000024
 51
269.80430999999942
  0
ARC
  5
112D1
  8
AM_0
 10
113.502214803074
 20
210.8559311522101
 30
0.0
 40
1.497715799999999
 50
13.424378999996071
 51
90.122644999997888
  0
ARC
  5
112D2
  8
AM_0
 10
113.5166748030743
 20
208.83530115220989
 30
0.0
 40
1.4982997
 50
14.229739999998021
 51
89.910950000001179
  0
ARC
  5
112D3
  8
AM_0
 10
134.68903480307421
 20
207.59360115221011
 30
0.0
 40
2.0000371999999991
 50
180.0010599999959
 51
269.99892999999639
  0
ARC
  5
112D4
  8
AM_0
 10
134.68989480307411
 20
205.56455115220999
 30
0.0
 40
2.0009109999999981
 50
180.00001000000091
 51
269.97390999999652
  0
ARC
  5
112D5
  8
AM_0
 10
131.18702480307431
 20
212.97165115220989
 30
0.0
 40
1.501982699999999
 50
0.075587202000581
 51
89.924413000004805
  0
ARC
  5
112D6
  8
AM_0
 10
131.18586480307451
 20
207.69040115220989
 30
0.0
 40
1.503128599999999
 50
0.1191296500022027
 51
89.880869999998822
  0
ARC
  5
112D7
  8
AM_0
 10
258.3325948030743
 20
219.60984115220981
 30
0.0
 40
1.4937901
 50
89.756423999995206
 51
165.1129200000008
  0
ARC
  5
112D8
  8
AM_0
 10
133.68177480307421
 20
282.45359115221009
 30
0.0
 40
1.0000259
 50
89.587534000000176
 51
270.4124599999987
  0
ARC
  5
112D9
  8
AM_0
 10
133.68177480307421
 20
292.45359115221009
 30
0.0
 40
1.0000259
 50
89.587534000000176
 51
270.4124599999987
  0
ARC
  5
112DA
  8
AM_0
 10
133.68177480307421
 20
302.45359115221009
 30
0.0
 40
1.0000259
 50
89.587534000000176
 51
270.4124599999987
  0
ARC
  5
112DB
  8
AM_0
 10
115.9507548030743
 20
272.46360115221
 30
0.0
 40
1.2700266
 50
89.629328000002715
 51
270.37065999999629
  0
ARC
  5
112DC
  8
AM_0
 10
116.0127048030744
 20
282.46860115221
 30
0.0
 40
1.3350147999999991
 50
89.730434999997087
 51
270.2695700000001
  0
ARC
  5
112DD
  8
AM_0
 10
125.1432648030742
 20
292.48362115221011
 30
0.0
 40
1.460011199999999
 50
89.775247999997958
 51
270.22473999999698
  0
ARC
  5
112DE
  8
AM_0
 10
125.3589648030743
 20
302.50363115220989
 30
0.0
 40
1.6800002000000001
 50
90.00000299999769
 51
270.0
  0
ARC
  5
112DF
  8
AM_0
 10
117.2389648030742
 20
272.45359115220998
 30
0.0
 40
1.000005699999998
 50
90.00000299999769
 51
270.0
  0
ARC
  5
112E0
  8
AM_0
 10
117.2389648030742
 20
282.45359115221009
 30
0.0
 40
1.000005699999998
 50
90.00000299999769
 51
270.0
  0
ARC
  5
112E1
  8
AM_0
 10
126.23182480307401
 20
302.45359115221009
 30
0.0
 40
1.000025599999997
 50
89.589474000000749
 51
270.41051999999962
  0
ARC
  5
112E2
  8
AM_0
 10
126.23182480307401
 20
292.45359115221009
 30
0.0
 40
1.000025599999997
 50
89.589474000000749
 51
270.41051999999962
  0
ARC
  5
112E3
  8
AM_0
 10
255.5089848030743
 20
302.50363115220989
 30
0.0
 40
1.6800077
 50
269.999989999999
 51
90.00000299999769
  0
ARC
  5
112E4
  8
AM_0
 10
252.02894480307421
 20
302.45359115221009
 30
0.0
 40
1.0000040999999991
 50
269.999989999999
 51
90.00000299999769
  0
ARC
  5
112E5
  8
AM_0
 10
252.02894480307421
 20
232.4535911522099
 30
0.0
 40
1.0000040999999991
 50
269.999989999999
 51
90.00000299999769
  0
ARC
  5
112E6
  8
AM_0
 10
255.5089848030743
 20
232.41355115221009
 30
0.0
 40
1.6800077
 50
269.999989999999
 51
90.00000299999769
  0
ARC
  5
112E7
  8
AM_0
 10
117.2389648030742
 20
262.45359115220998
 30
0.0
 40
1.000005699999998
 50
90.00000299999769
 51
270.0
  0
ARC
  5
112E8
  8
AM_0
 10
133.68177480307421
 20
252.45359115221001
 30
0.0
 40
1.0000259
 50
89.587534000000176
 51
270.4124599999987
  0
ARC
  5
112E9
  8
AM_0
 10
133.68177480307421
 20
242.4535911522099
 30
0.0
 40
1.0000259
 50
89.587534000000176
 51
270.4124599999987
  0
ARC
  5
112EA
  8
AM_0
 10
116.0127048030744
 20
252.4435811522101
 30
0.0
 40
1.3300148000000001
 50
89.729417999999541
 51
270.27059000000321
  0
ARC
  5
112EB
  8
AM_0
 10
133.68177480307421
 20
262.45359115220998
 30
0.0
 40
1.0000259
 50
89.587534000000176
 51
270.4124599999987
  0
ARC
  5
112EC
  8
AM_0
 10
133.68177480307421
 20
232.4535911522099
 30
0.0
 40
1.0000259
 50
89.587534000000176
 51
270.4124599999987
  0
ARC
  5
112ED
  8
AM_0
 10
115.9507548030743
 20
262.45359115220998
 30
0.0
 40
1.2700266
 50
89.629321000002733
 51
270.37068999999542
  0
ARC
  5
112EE
  8
AM_0
 10
117.2389648030742
 20
252.45359115221001
 30
0.0
 40
1.000005699999998
 50
90.00000299999769
 51
270.0
  0
ARC
  5
112EF
  8
AM_0
 10
121.4221348030742
 20
314.71360115221
 30
0.0
 40
1.5
 50
280.24788999999811
 51
349.76261999999917
  0
ARC
  5
112F0
  8
AM_0
 10
121.4221348030742
 20
220.1935811522101
 30
0.0
 40
1.5
 50
10.237378999998841
 51
79.75211000000192
  0
ARC
  5
112F1
  8
AM_0
 10
125.6484548030742
 20
216.45883115221
 30
0.0
 40
1.9952742999999991
 50
189.96478000000039
 51
269.85141999999991
  0
ARC
  5
112F2
  8
AM_0
 10
121.20582480307419
 20
214.91123115221009
 30
0.0
 40
1.502416299999999
 50
12.391887000000411
 51
90.098617000002292
  0
ARC
  5
112F3
  8
AM_0
 10
125.5863148030742
 20
211.18064115221
 30
0.0
 40
1.997119399999999
 50
192.05524000000159
 51
270.1986299999989
  0
ARC
  5
112F4
  8
AM_0
 10
125.3589648030743
 20
232.40354115221001
 30
0.0
 40
1.6800002000000001
 50
90.00000299999769
 51
270.0
  0
ARC
  5
112F5
  8
AM_0
 10
126.23182480307401
 20
232.4535911522099
 30
0.0
 40
1.000025599999997
 50
89.589474000000749
 51
270.41051999999962
  0
ARC
  5
112F6
  8
AM_0
 10
126.23182480307401
 20
242.4535911522099
 30
0.0
 40
1.000025599999997
 50
89.589474000000749
 51
270.41051999999962
  0
ARC
  5
112F7
  8
AM_0
 10
125.1432648030742
 20
242.42356115220991
 30
0.0
 40
1.460011199999999
 50
89.775247999997958
 51
270.22473999999698
  0
ARC
  5
112F8
  8
AM_0
 10
176.01533480307421
 20
202.06357115220999
 30
0.0
 40
1.5
 50
1.5000027000022329
 51
90.00000299999769
  0
ARC
  5
112F9
  8
AM_0
 10
250.70515480307429
 20
198.95359115220981
 30
0.0
 40
1.5
 50
269.999989999999
 51
326.99999999999801
  0
ARC
  5
112FA
  8
AM_0
 10
239.20258480307439
 20
195.95359115220981
 30
0.0
 40
1.5
 50
90.00000299999769
 51
178.4999999999973
  0
ARC
  5
112FB
  8
AM_0
 10
253.2089348030743
 20
329.84360115221011
 30
0.0
 40
1.5
 50
12.12979199999535
 51
90.00000299999769
  0
ARC
  5
112FC
  8
AM_0
 10
252.9166348030742
 20
331.20359115220998
 30
0.0
 40
1.5
 50
12.12979199999535
 51
90.00000299999769
  0
ARC
  5
112FD
  8
AM_0
 10
252.7725948030743
 20
331.87363115221001
 30
0.0
 40
1.5
 50
12.12979199999535
 51
90.00000299999769
  0
ARC
  5
112FE
  8
AM_0
 10
255.7289548030742
 20
242.42356115220991
 30
0.0
 40
1.460011199999999
 50
269.77524999999667
 51
90.224749999996845
  0
ARC
  5
112FF
  8
AM_0
 10
252.02894480307421
 20
242.4535911522099
 30
0.0
 40
1.000025599999997
 50
269.5894700000033
 51
90.410530999997775
  0
ARC
  5
11300
  8
AM_0
 10
255.7289548030742
 20
292.48362115221011
 30
0.0
 40
1.460011199999999
 50
269.77524999999667
 51
90.224749999996845
  0
ARC
  5
11301
  8
AM_0
 10
252.02894480307421
 20
292.45359115221009
 30
0.0
 40
1.000025599999997
 50
269.5894700000033
 51
90.410530999997775
  0
ARC
  5
11302
  8
AM_0
 10
188.35395480307409
 20
282.46860115221
 30
0.0
 40
1.3350147999999991
 50
269.7304299999999
 51
90.269556000001316
  0
ARC
  5
11303
  8
AM_0
 10
187.12769480307449
 20
282.45359115221009
 30
0.0
 40
1.000005699999998
 50
269.999989999999
 51
90.00000299999769
  0
ARC
  5
11304
  8
AM_0
 10
187.12769480307449
 20
272.45359115220998
 30
0.0
 40
1.000005699999998
 50
269.999989999999
 51
90.00000299999769
  0
ARC
  5
11305
  8
AM_0
 10
188.41590480307431
 20
272.46360115221
 30
0.0
 40
1.2700266
 50
269.62932000000001
 51
90.370670000004694
  0
ARC
  5
11306
  8
AM_0
 10
187.12769480307449
 20
262.45359115220998
 30
0.0
 40
1.000005699999998
 50
269.999989999999
 51
90.00000299999769
  0
ARC
  5
11307
  8
AM_0
 10
188.41590480307431
 20
262.45359115220998
 30
0.0
 40
1.2700266
 50
269.62932000000001
 51
90.370670000004694
  0
ARC
  5
11308
  8
AM_0
 10
187.12769480307449
 20
252.45359115221001
 30
0.0
 40
1.000005699999998
 50
269.999989999999
 51
90.00000299999769
  0
ARC
  5
11309
  8
AM_0
 10
188.35395480307409
 20
252.4435811522101
 30
0.0
 40
1.3300148000000001
 50
269.7294199999987
 51
90.270567000000995
  0
ARC
  5
1130A
  8
AM_0
 10
237.68897480307419
 20
239.9535911522099
 30
0.0
 40
1.5
 50
90.00000299999769
 51
180.00001000000091
  0
ARC
  5
1130B
  8
AM_0
 10
237.68897480307419
 20
234.95359115221001
 30
0.0
 40
1.5
 50
179.999989999999
 51
270.0
  0
ARC
  5
1130C
  8
AM_0
 10
219.6889748030741
 20
239.9535911522099
 30
0.0
 40
1.5
 50
0.0
 51
90.00000299999769
  0
ARC
  5
1130D
  8
AM_0
 10
219.6889748030741
 20
234.95359115221001
 30
0.0
 40
1.5
 50
269.999989999999
 51
0.0000006832495047
  0
ARC
  5
1130E
  8
AM_0
 10
237.68897480307419
 20
239.9535911522099
 30
0.0
 40
1.02
 50
90.00000299999769
 51
180.00001000000091
  0
ARC
  5
1130F
  8
AM_0
 10
219.6889748030741
 20
239.9535911522099
 30
0.0
 40
1.02
 50
0.0
 51
90.00000299999769
  0
ARC
  5
11310
  8
AM_0
 10
219.7089348030743
 20
235.09360115221011
 30
0.0
 40
1.0
 50
269.999989999999
 51
0.0000006832495047
  0
ARC
  5
11311
  8
AM_0
 10
237.66895480307431
 20
235.09360115221011
 30
0.0
 40
1.0
 50
179.999989999999
 51
270.0
  0
CIRCLE
  5
11312
  8
AM_0
 10
226.18897480307419
 20
238.95359115221001
 30
0.0
 40
1.1000000000000001
  0
CIRCLE
  5
11313
  8
AM_0
 10
226.18897480307419
 20
238.95359115221001
 30
0.0
 40
1.149999999999999
  0
CIRCLE
  5
11314
  8
AM_0
 10
231.18897480307419
 20
238.95359115221001
 30
0.0
 40
1.0
  0
ARC
  5
11315
  8
AM_0
 10
237.68897480307419
 20
294.95359115221009
 30
0.0
 40
1.5
 50
179.999989999999
 51
270.0
  0
ARC
  5
11316
  8
AM_0
 10
237.68897480307419
 20
299.95359115220998
 30
0.0
 40
1.5
 50
90.00000299999769
 51
180.00001000000091
  0
ARC
  5
11317
  8
AM_0
 10
219.6889748030741
 20
294.95359115221009
 30
0.0
 40
1.5
 50
269.999989999999
 51
0.0000006832495047
  0
ARC
  5
11318
  8
AM_0
 10
219.6889748030741
 20
299.95359115220998
 30
0.0
 40
1.5
 50
0.0
 51
90.00000299999769
  0
ARC
  5
11319
  8
AM_0
 10
237.68897480307419
 20
294.95359115221009
 30
0.0
 40
1.02
 50
179.999989999999
 51
270.0
  0
ARC
  5
1131A
  8
AM_0
 10
219.6889748030741
 20
294.95359115221009
 30
0.0
 40
1.02
 50
269.999989999999
 51
0.0000006832429909
  0
ARC
  5
1131B
  8
AM_0
 10
219.7089348030743
 20
299.81357115220999
 30
0.0
 40
1.0
 50
0.0
 51
90.00000299999769
  0
ARC
  5
1131C
  8
AM_0
 10
237.66895480307431
 20
299.81357115220999
 30
0.0
 40
1.0
 50
90.00000299999769
 51
180.00001000000091
  0
CIRCLE
  5
1131D
  8
AM_0
 10
231.18897480307419
 20
295.95359115220998
 30
0.0
 40
1.0
  0
CIRCLE
  5
1131E
  8
AM_0
 10
226.18897480307419
 20
295.95359115220998
 30
0.0
 40
1.149999999999999
  0
CIRCLE
  5
1131F
  8
AM_0
 10
226.18897480307419
 20
295.95359115220998
 30
0.0
 40
1.1000000000000001
  0
ARC
  5
11320
  8
AM_0
 10
117.38960480307431
 20
207.78354115221001
 30
0.0
 40
2.0
 50
194.15074999999959
 51
269.999989999999
  0
ARC
  5
11321
  8
AM_0
 10
131.43171480307461
 20
204.28354115221001
 30
0.0
 40
1.5
 50
21.46170899999715
 51
90.00000299999769
  0
LINE
  5
11322
  8
AM_0
 10
237.71512465211509
 20
193.45359115221001
 30
0.0
 11
238.03305060580931
 21
205.59360115221011
 31
0.0
  0
LINE
  5
11323
  8
AM_0
 10
177.6626926568743
 20
193.45359115221001
 30
0.0
 11
177.34485067544381
 21
205.59360115221011
 31
0.0
  0
LINE
  5
11324
  8
AM_0
 10
174.1889348030744
 20
191.45359115221001
 30
0.0
 11
241.1889348030746
 21
191.45359115221001
 31
0.0
  0
LINE
  5
11325
  8
AM_0
 10
174.1889348030744
 20
190.45359115221001
 30
0.0
 11
174.1889348030744
 21
191.45359115221001
 31
0.0
  0
LINE
  5
11326
  8
AM_0
 10
241.1889348030746
 20
190.45359115221001
 30
0.0
 11
241.1889348030746
 21
191.45359115221001
 31
0.0
  0
LINE
  5
11327
  8
AM_0
 10
159.6889348030744
 20
152.45359115221001
 30
0.0
 11
160.94851993933679
 21
188.52339014561491
 31
0.0
  0
LINE
  5
11328
  8
AM_0
 10
162.9473015933751
 20
190.45359115221001
 30
0.0
 11
252.4305680127741
 21
190.45359115221001
 31
0.0
  0
ARC
  5
11329
  8
AM_0
 10
162.9473015933751
 20
188.45359115221001
 30
0.0
 40
2.0
 50
90.0
 51
178.00000000000281
1001
GENIUS_GENODEF_13
1002
{
1000
HIER
1070
     0
1002
}
1002
{
1000
MANEDIT
1070
     0
1002
}
1002
{
1000
NOSEL
1070
     0
1002
}
1002
{
1000
BEHIND
1070
     0
1002
}
1002
{
1000
OTHER
1070
     0
1002
}
1002
{
1000
REACTOR
1002
}
1001
GENIUS_GENOBJ-N-FIL_13
1002
{
1000
OWNER
1000
GEN
1002
}
  0
LINE
  5
1132A
  8
AM_0
 10
254.42934966681241
 20
188.52339014561491
 30
0.0
 11
255.68893480307469
 21
152.45359115221001
 31
0.0
  0
ARC
  5
1132B
  8
AM_0
 10
252.4305680127741
 20
188.45359115221001
 30
0.0
 40
2.0
 50
1.9999999999971581
 51
90.0
1001
GENIUS_GENOBJ-N-FIL_13
1002
{
1000
OWNER
1000
GEN
1002
}
1001
GENIUS_GENODEF_13
1002
{
1000
HIER
1070
     0
1002
}
1002
{
1000
MANEDIT
1070
     0
1002
}
1002
{
1000
NOSEL
1070
     0
1002
}
1002
{
1000
BEHIND
1070
     0
1002
}
1002
{
1000
OTHER
1070
     0
1002
}
1002
{
1000
REACTOR
1002
}
  0
LINE
  5
1132C
  8
AM_0
 10
255.68893480307469
 20
152.45359115221001
 30
0.0
 11
159.6889348030742
 21
152.45359115221001
 31
0.0
  0
LINE
  5
1132D
  8
AM_0
 10
159.79369711154959
 20
155.45359115220981
 30
0.0
 11
158.6889348030744
 21
155.45359115220981
 31
0.0
  0
LINE
  5
1132E
  8
AM_0
 10
160.9111617352857
 20
187.45359115220981
 30
0.0
 11
158.6889348030744
 21
187.45359115220981
 31
0.0
  0
LINE
  5
1132F
  8
ﾁｭｳｼﾝｾﾝ1
 10
164.68893480307511
 20
142.18888365221
 30
0.0
 11
164.6889348030752
 21
155.18888365221
 31
0.0
  0
LINE
  5
11330
  8
ﾁｭｳｼﾝｾﾝ
 10
207.6889348030746
 20
197.745621825439
 30
0.0
 11
207.6889348030746
 21
140.00306851140061
 31
0.0
  0
LINE
  5
11331
  8
AM_0
 10
156.1889348030744
 20
157.95359115220981
 30
0.0
 11
158.6889348030744
 21
157.95359115220961
 31
0.0
  0
LINE
  5
11332
  8
AM_0
 10
158.6889348030744
 20
184.95359115220961
 30
0.0
 11
156.1889348030744
 21
184.95359115220981
 31
0.0
  0
LINE
  5
11333
  8
AM_0
 10
145.2902637067285
 20
181.95359115220981
 30
0.0
 11
145.2902637067285
 21
160.95359115220981
 31
0.0
  0
LINE
  5
11334
  8
AM_0
 10
130.29026370672861
 20
163.42196609819459
 30
0.0
 11
130.29026370672861
 21
179.48521620622569
 31
0.0
  0
LINE
  5
11335
  8
AM_0
 10
143.29026370672861
 20
183.45359115220981
 30
0.0
 11
143.29026370672861
 21
159.45359115220981
 31
0.0
  0
LINE
  5
11336
  8
AM_0
 10
133.7902637067285
 20
171.45359115220981
 30
0.0
 11
134.29026370672861
 21
171.95359115220981
 31
0.0
  0
LINE
  5
11337
  8
AM_0
 10
140.79026370672861
 20
159.75359115220971
 30
0.0
 11
140.79026370672861
 21
183.1535911522096
 31
0.0
  0
LINE
  5
11338
  8
AM_0
 10
150.6889348030744
 20
159.95359115220981
 30
0.0
 11
150.6889348030744
 21
182.95359115220981
 31
0.0
  0
LINE
  5
11339
  8
AM_0
 10
144.79026370672861
 20
172.15359115221159
 30
0.0
 11
144.79026370672861
 21
170.7535911522086
 31
0.0
  0
LINE
  5
1133A
  8
AM_0
 10
146.88989943329921
 20
180.55359115220969
 30
0.0
 11
146.13989943330051
 21
162.3535911522097
 31
0.0
  0
LINE
  5
1133B
  8
AM_0
 10
145.9389348030744
 20
180.55359115220969
 30
0.0
 11
145.2902637067285
 21
164.8125058808937
 31
0.0
  0
LINE
  5
1133C
  8
AM_0
 10
146.68762739364641
 20
181.26924986457371
 30
0.0
 11
145.94036735023849
 21
161.6412193910428
 31
0.0
  0
LINE
  5
1133D
  8
AM_0
 10
146.1384668861364
 20
181.26596291337771
 30
0.0
 11
145.38989943330051
 21
161.6035911522097
 31
0.0
  0
LINE
  5
1133E
  8
AM_0
 10
143.29026370672861
 20
159.45359115220981
 30
0.0
 11
141.09026370672851
 21
159.45359115220981
 31
0.0
  0
ARC
  5
1133F
  8
AM_0
 10
155.1889348030746
 20
158.95359115220981
 30
0.0
 40
0.5
 50
0.0
 51
90.000000000013003
  0
ARC
  5
11340
  8
AM_0
 10
156.1889348030746
 20
158.45359115220981
 30
0.0
 40
0.5
 50
180.0
 51
270.0
  0
LINE
  5
11341
  8
AM_0
 10
155.6889348030744
 20
158.95359115220981
 30
0.0
 11
155.6889348030744
 21
158.45359115220981
 31
0.0
  0
LINE
  5
11342
  8
AM_0
 10
146.6889348030744
 20
162.3535911522097
 30
0.0
 11
150.1889348030744
 21
162.3535911522097
 31
0.0
  0
LINE
  5
11343
  8
AM_0
 10
155.6889348030744
 20
160.59751983080281
 30
0.0
 11
155.6889348030744
 21
170.30966247361761
 31
0.0
  0
LINE
  5
11344
  8
AM_0
 10
151.1889348030744
 20
159.45359115220981
 30
0.0
 11
155.1889348030744
 21
159.45359115220981
 31
0.0
  0
LINE
  5
11345
  8
AM_0
 10
155.1889348030744
 20
160.09751983080281
 30
0.0
 11
150.6889348030744
 21
160.09751983080281
 31
0.0
  0
ARC
  5
11346
  8
AM_0
 10
155.1889348030746
 20
160.59751983080281
 30
0.0
 40
0.5
 50
270.0
 51
0.0
  0
ARC
  5
11347
  8
AM_0
 10
150.1889348030744
 20
161.8535911522099
 30
0.0
 40
0.5
 50
0.0
 51
90.0
  0
ARC
  5
11348
  8
AM_0
 10
151.1889348030744
 20
159.95359115220981
 30
0.0
 40
0.5
 50
180.0
 51
270.0
  0
LINE
  5
11349
  8
AM_0
 10
155.1889348030744
 20
170.80966247361741
 30
0.0
 11
150.6889348030744
 21
170.80966247361741
 31
0.0
  0
ARC
  5
1134A
  8
AM_0
 10
155.1889348030744
 20
170.30966247361789
 30
0.0
 40
0.5
 50
0.0
 51
90.0
  0
LINE
  5
1134B
  8
AM_0
 10
144.79026370672861
 20
165.30842039991759
 30
0.0
 11
144.79026370672861
 21
166.4806635863506
 31
0.0
  0
LINE
  5
1134C
  8
AM_0
 10
146.2166318617254
 20
162.3535911522097
 30
0.0
 11
146.6889348030744
 21
162.3535911522097
 31
0.0
  0
LINE
  5
1134D
  8
AM_0
 10
146.12003936718619
 20
162.27947338547301
 30
0.0
 11
146.13989943330051
 21
162.3535911522097
 31
0.0
  0
ARC
  5
1134E
  8
AM_0
 10
146.2166318617254
 20
162.25359115220959
 30
0.0
 40
0.1000000000000346
 50
90.0
 51
164.99980499355539
  0
ARC
  5
1134F
  8
AM_0
 10
144.49026370672851
 20
162.1667581717017
 30
0.0
 40
0.3000000000000043
 50
0.0
 51
90.0
  0
LINE
  5
11350
  8
AM_0
 10
143.29026370672861
 20
160.05359115220969
 30
0.0
 11
144.51021940988551
 21
160.13492153242069
 31
0.0
  0
LINE
  5
11351
  8
AM_0
 10
143.29026370672861
 20
161.20984318804969
 30
0.0
 11
144.4902637067284
 21
161.20984318804969
 31
0.0
  0
LINE
  5
11352
  8
AM_0
 10
144.79026370672861
 20
160.45359115220981
 30
0.0
 11
143.29026370672861
 21
160.45359115220981
 31
0.0
  0
ARC
  5
11353
  8
AM_0
 10
144.79026370672861
 20
160.95359115220981
 30
0.0
 40
0.5
 50
270.0
 51
0.0
  0
LINE
  5
11354
  8
AM_0
 10
144.79026370672861
 20
160.43425707977781
 30
0.0
 11
144.79026370672861
 21
160.45359115220981
 31
0.0
  0
LINE
  5
11355
  8
AM_0
 10
144.79026370672861
 20
160.1535911522098
 30
0.0
 11
144.79026370672861
 21
160.43425707977781
 31
0.0
  0
LINE
  5
11356
  8
AM_0
 10
144.51021940988551
 20
160.13492153242069
 30
0.0
 11
144.79026370672861
 21
160.1535911522098
 31
0.0
  0
ARC
  5
11357
  8
AM_0
 10
144.49026370672851
 20
160.43425707977781
 30
0.0
 40
0.3000000000000007
 50
273.81407483428148
 51
0.0
  0
LINE
  5
11358
  8
AM_0
 10
145.86220237464951
 20
161.6035911522097
 30
0.0
 11
145.9389348030754
 21
161.6035911522097
 31
0.0
  0
LINE
  5
11359
  8
AM_0
 10
145.9389348030754
 20
161.6035911522097
 30
0.0
 11
145.95879486918849
 21
161.67770891894611
 31
0.0
  0
LINE
  5
1135A
  8
AM_0
 10
145.37003936718631
 20
161.67770891894611
 30
0.0
 11
145.38989943330051
 21
161.6035911522097
 31
0.0
  0
LINE
  5
1135B
  8
AM_0
 10
145.38989943330051
 20
161.6035911522097
 30
0.0
 11
145.4666318617254
 21
161.6035911522097
 31
0.0
  0
LINE
  5
1135C
  8
AM_0
 10
145.95879486918849
 20
161.67770891894611
 30
0.0
 11
146.12003936718619
 21
162.27947338547301
 31
0.0
  0
LINE
  5
1135D
  8
AM_0
 10
145.4666318617254
 20
161.6035911522097
 30
0.0
 11
145.86220237464951
 21
161.6035911522097
 31
0.0
  0
LINE
  5
1135E
  8
AM_0
 10
145.29026370672941
 20
161.97543168377069
 30
0.0
 11
145.37003936718631
 21
161.67770891894611
 31
0.0
  0
ARC
  5
1135F
  8
AM_0
 10
145.86220237464951
 20
161.70359115220981
 30
0.0
 40
0.0999999999999866
 50
270.0
 51
344.99980499343371
  0
ARC
  5
11360
  8
AM_0
 10
145.4666318617254
 20
161.70359115220981
 30
0.0
 40
0.1000000000000014
 50
195.00019500656629
 51
270.0
  0
LINE
  5
11361
  8
AM_0
 10
144.79026370672861
 20
161.5098431880497
 30
0.0
 11
144.79026370672861
 21
162.1667581717017
 31
0.0
  0
ARC
  5
11362
  8
AM_0
 10
144.49026370672851
 20
161.5098431880499
 30
0.0
 40
0.3000000000000007
 50
270.0
 51
0.0
  0
LINE
  5
11363
  8
AM_0
 10
143.29026370672861
 20
165.0084203999177
 30
0.0
 11
144.4902637067284
 21
165.0084203999177
 31
0.0
  0
LINE
  5
11364
  8
AM_0
 10
144.4902637067284
 20
162.46675817170171
 30
0.0
 11
143.29026370672861
 21
162.46675817170171
 31
0.0
  0
LINE
  5
11365
  8
AM_0
 10
146.13989943330051
 20
162.3535911522097
 30
0.0
 11
146.2166318617254
 21
162.3535911522097
 31
0.0
  0
ARC
  5
11366
  8
AM_0
 10
144.49026370672851
 20
165.30842039991779
 30
0.0
 40
0.3000000000000007
 50
270.0
 51
0.0
  0
LINE
  5
11367
  8
AM_0
 10
144.4902637067284
 20
166.78066358635081
 30
0.0
 11
143.29026370672861
 21
166.78066358635081
 31
0.0
  0
ARC
  5
11368
  8
AM_0
 10
144.49026370672851
 20
166.4806635863508
 30
0.0
 40
0.3000000000000043
 50
0.0
 51
90.0
  0
LINE
  5
11369
  8
AM_0
 10
144.4902637067284
 20
170.4535911522087
 30
0.0
 11
143.29026370672861
 21
170.4535911522087
 31
0.0
  0
ARC
  5
1136A
  8
AM_0
 10
144.49026370672851
 20
170.7535911522088
 30
0.0
 40
0.3000000000000007
 50
270.0
 51
0.0
  0
LINE
  5
1136B
  8
AM_0
 10
134.29026370672861
 20
161.32031132356269
 30
0.0
 11
140.79026370672861
 21
161.32031132356269
 31
0.0
  0
LINE
  5
1136C
  8
AM_0
 10
134.29026370672861
 20
160.82031132356269
 30
0.0
 11
140.79026370672861
 21
160.82031132356269
 31
0.0
  0
LINE
  5
1136D
  8
AM_0
 10
140.79026370672861
 20
170.95359115220981
 30
0.0
 11
134.29026370672861
 21
170.95359115220981
 31
0.0
  0
LINE
  5
1136E
  8
AM_0
 10
133.7902637067285
 20
170.45359115220981
 30
0.0
 11
140.79026370672861
 21
170.45359115220981
 31
0.0
  0
LINE
  5
1136F
  8
AM_0
 10
140.4902637067284
 20
160.45359115220981
 30
0.0
 11
133.65231364191041
 21
160.45359115220981
 31
0.0
  0
LINE
  5
11370
  8
AM_0
 10
140.79026370672861
 20
170.10690308366861
 30
0.0
 11
134.29026370672861
 21
170.10690308366861
 31
0.0
  0
LINE
  5
11371
  8
AM_0
 10
140.79026370672861
 20
161.80027922075081
 30
0.0
 11
134.29026370672861
 21
161.80027922075081
 31
0.0
  0
ARC
  5
11372
  8
AM_0
 10
141.09026370672851
 20
159.75359115220971
 30
0.0
 40
0.2999999999999971
 50
180.0
 51
270.0
  0
ARC
  5
11373
  8
AM_0
 10
140.49026370672851
 20
160.1535911522098
 30
0.0
 40
0.2999999999999971
 50
0.0
 51
90.0
  0
ARC
  5
11374
  8
AM_0
 10
142.41526370672861
 20
165.95359115220981
 30
0.0
 40
9.124999999999984
 50
152.92493329271841
 51
207.07506670728151
  0
LINE
  5
11375
  8
AM_0
 10
133.012129242246
 20
160.6853698726122
 30
0.0
 11
130.650079307064
 21
162.65374481859709
 31
0.0
  0
LINE
  5
11376
  8
AM_0
 10
133.7902637067285
 20
161.0320237357177
 30
0.0
 11
134.29026370672861
 21
160.45359115220981
 31
0.0
  0
ARC
  5
11377
  8
AM_0
 10
133.65231364191041
 20
161.45359115220981
 30
0.0
 40
1.0
 50
230.19442890774391
 51
270.0
  0
LINE
  5
11378
  8
AM_0
 10
134.29026370672861
 20
160.82031132356269
 30
0.0
 11
133.7902637067285
 21
161.0320237357177
 31
0.0
  0
LINE
  5
11379
  8
AM_0
 10
133.7902637067285
 20
161.49429900868881
 30
0.0
 11
134.29026370672861
 21
160.82031132356269
 31
0.0
  0
LINE
  5
1137A
  8
AM_0
 10
134.29026370672861
 20
161.32031132356269
 30
0.0
 11
133.7902637067285
 21
161.49429900868881
 31
0.0
  0
LINE
  5
1137B
  8
AM_0
 10
133.7902637067285
 20
162.0320237357177
 30
0.0
 11
134.29026370672861
 21
161.32031132356269
 31
0.0
  0
LINE
  5
1137C
  8
AM_0
 10
134.29026370672861
 20
161.80027922075081
 30
0.0
 11
133.7902637067285
 21
162.0320237357177
 31
0.0
  0
ARC
  5
1137D
  8
AM_0
 10
131.29026370672861
 20
163.42196609819479
 30
0.0
 40
1.0000000000000291
 50
180.0
 51
230.1944289077336
  0
LINE
  5
1137E
  8
AM_0
 10
134.29026370672861
 20
170.95359115220981
 30
0.0
 11
133.7902637067285
 21
171.45359115220981
 31
0.0
  0
LINE
  5
1137F
  8
AM_0
 10
133.7902637067285
 20
170.45359115220981
 30
0.0
 11
134.29026370672861
 21
170.95359115220981
 31
0.0
  0
LINE
  5
11380
  8
AM_0
 10
134.29026370672861
 20
170.10690308366861
 30
0.0
 11
133.7902637067285
 21
170.45359115220981
 31
0.0
  0
LINE
  5
11381
  8
AM_0
 10
141.09026370672851
 20
183.45359115220981
 30
0.0
 11
143.29026370672861
 21
183.45359115220981
 31
0.0
  0
ARC
  5
11382
  8
AM_0
 10
155.1889348030744
 20
183.95359115220981
 30
0.0
 40
0.5
 50
269.99999999998693
 51
0.0
  0
LINE
  5
11383
  8
AM_0
 10
150.1889348030744
 20
180.55359115220969
 30
0.0
 11
146.9666318617254
 21
180.55359115220969
 31
0.0
  0
LINE
  5
11384
  8
AM_0
 10
155.6889348030744
 20
172.59751983080281
 30
0.0
 11
155.6889348030744
 21
182.30966247361781
 31
0.0
  0
LINE
  5
11385
  8
AM_0
 10
150.6889348030744
 20
172.09751983080281
 30
0.0
 11
155.1889348030744
 21
172.09751983080281
 31
0.0
  0
ARC
  5
11386
  8
AM_0
 10
155.1889348030744
 20
172.59751983080281
 30
0.0
 40
0.5
 50
270.0
 51
0.0
  0
LINE
  5
11387
  8
AM_0
 10
150.6889348030744
 20
182.80966247361781
 30
0.0
 11
155.1889348030744
 21
182.80966247361781
 31
0.0
  0
LINE
  5
11388
  8
AM_0
 10
155.1889348030744
 20
183.45359115220981
 30
0.0
 11
151.1889348030744
 21
183.45359115220981
 31
0.0
  0
ARC
  5
11389
  8
AM_0
 10
155.1889348030744
 20
182.30966247361781
 30
0.0
 40
0.5
 50
0.0
 51
90.0
  0
ARC
  5
1138A
  8
AM_0
 10
150.1889348030744
 20
181.05359115220969
 30
0.0
 40
0.5
 50
270.0
 51
0.0
  0
ARC
  5
1138B
  8
AM_0
 10
151.1889348030744
 20
182.95359115220981
 30
0.0
 40
0.5
 50
90.0
 51
180.0
  0
ARC
  5
1138C
  8
AM_0
 10
144.49026370672851
 20
177.5987619045016
 30
0.0
 40
0.3000000000000114
 50
0.0
 51
90.0
  0
LINE
  5
1138D
  8
AM_0
 10
143.29026370672861
 20
172.4535911522116
 30
0.0
 11
144.4902637067284
 21
172.4535911522116
 31
0.0
  0
ARC
  5
1138E
  8
AM_0
 10
144.49026370672851
 20
172.1535911522119
 30
0.0
 40
0.2999999999999971
 50
0.0
 51
90.0
  0
LINE
  5
1138F
  8
AM_0
 10
143.29026370672861
 20
176.12651871806861
 30
0.0
 11
144.4902637067284
 21
176.12651871806861
 31
0.0
  0
ARC
  5
11390
  8
AM_0
 10
144.49026370672851
 20
176.42651871806879
 30
0.0
 40
0.3000000000000007
 50
270.0
 51
0.0
  0
LINE
  5
11391
  8
AM_0
 10
144.79026370672861
 20
176.42651871806879
 30
0.0
 11
144.79026370672861
 21
177.5987619045016
 31
0.0
  0
LINE
  5
11392
  8
AM_0
 10
146.2166318617254
 20
181.30359115220969
 30
0.0
 11
146.61220237464951
 21
181.30359115220969
 31
0.0
  0
LINE
  5
11393
  8
AM_0
 10
146.2166318617254
 20
181.30359115220969
 30
0.0
 11
146.61220237464951
 21
181.30359115220969
 31
0.0
  0
LINE
  5
11394
  8
AM_0
 10
146.70879486918841
 20
181.22947338547331
 30
0.0
 11
146.87003936718631
 21
180.6277089189461
 31
0.0
  0
LINE
  5
11395
  8
AM_0
 10
146.70879486918841
 20
181.22947338547331
 30
0.0
 11
146.87003936718631
 21
180.6277089189461
 31
0.0
  0
ARC
  5
11396
  8
AM_0
 10
146.9666318617254
 20
180.6535911522098
 30
0.0
 40
0.0999999999999943
 50
195.00019500651879
 51
270.0
  0
ARC
  5
11397
  8
AM_0
 10
146.61220237464951
 20
181.20359115220981
 30
0.0
 40
0.0999999999999943
 50
15.000195006505431
 51
90.0
  0
LINE
  5
11398
  8
AM_0
 10
145.28941711818709
 20
180.92859115220989
 30
0.0
 11
145.37003936718631
 21
180.6277089189461
 31
0.0
  0
LINE
  5
11399
  8
AM_0
 10
145.94164545528031
 20
180.59285568530771
 30
0.0
 11
146.12003936718619
 21
181.22947338547331
 31
0.0
  0
LINE
  5
1139A
  8
AM_0
 10
145.95879486918849
 20
180.6277089189461
 30
0.0
 11
146.12003936718619
 21
181.22947338547331
 31
0.0
  0
LINE
  5
1139B
  8
AM_0
 10
144.79026370672861
 20
180.74042413271869
 30
0.0
 11
144.79026370672861
 21
181.39733911636969
 31
0.0
  0
LINE
  5
1139C
  8
AM_0
 10
145.2902637067285
 20
180.92543168377159
 30
0.0
 11
145.37003936718631
 21
180.6277089189461
 31
0.0
  0
LINE
  5
1139D
  8
AM_0
 10
143.29026370672861
 20
180.44042413271879
 30
0.0
 11
144.4902637067284
 21
180.44042413271879
 31
0.0
  0
LINE
  5
1139E
  8
AM_0
 10
144.4902637067284
 20
177.8987619045017
 30
0.0
 11
143.29026370672861
 21
177.89876190450261
 31
0.0
  0
LINE
  5
1139F
  8
AM_0
 10
145.8948346401645
 20
180.55359115220969
 30
0.0
 11
145.94164545528031
 21
180.59285568530771
 31
0.0
  0
LINE
  5
113A0
  8
AM_0
 10
145.4666318617254
 20
180.55359115220969
 30
0.0
 11
145.8948346401645
 21
180.55359115220969
 31
0.0
  0
LINE
  5
113A1
  8
AM_0
 10
145.4666318617254
 20
180.55359115220969
 30
0.0
 11
145.86220237464951
 21
180.55359115220969
 31
0.0
  0
ARC
  5
113A2
  8
AM_0
 10
145.4666318617254
 20
180.6535911522098
 30
0.0
 40
0.0999999999999943
 50
195.00019500651879
 51
270.0
  0
ARC
  5
113A3
  8
AM_0
 10
145.86220237464951
 20
180.6535911522098
 30
0.0
 40
0.0999999999999608
 50
270.0
 51
344.99980499348112
  0
ARC
  5
113A4
  8
AM_0
 10
144.49026370672851
 20
180.74042413271869
 30
0.0
 40
0.3000000000000007
 50
270.0
 51
0.0
  0
LINE
  5
113A5
  8
AM_0
 10
143.29026370672861
 20
182.45359115220981
 30
0.0
 11
144.79026370672861
 21
182.45359115220981
 31
0.0
  0
LINE
  5
113A6
  8
AM_0
 10
144.4902637067284
 20
181.69733911636959
 30
0.0
 11
143.29026370672861
 21
181.69733911636959
 31
0.0
  0
LINE
  5
113A7
  8
AM_0
 10
144.51021940988551
 20
182.7722607719997
 30
0.0
 11
143.29026370672861
 21
182.8535911522097
 31
0.0
  0
ARC
  5
113A8
  8
AM_0
 10
144.79026370672861
 20
181.95359115220981
 30
0.0
 40
0.5
 50
0.0
 51
90.0
  0
ARC
  5
113A9
  8
AM_0
 10
146.2166318617254
 20
181.20359115220981
 30
0.0
 40
0.0999999999999606
 50
90.0
 51
164.99980499349451
  0
ARC
  5
113AA
  8
AM_0
 10
144.49026370672851
 20
181.39733911636969
 30
0.0
 40
0.2999999999999971
 50
0.0
 51
90.0
  0
LINE
  5
113AB
  8
AM_0
 10
144.79026370672861
 20
182.45359115220981
 30
0.0
 11
144.79026370672861
 21
182.47292522464261
 31
0.0
  0
ARC
  5
113AC
  8
AM_0
 10
144.49026370672851
 20
182.47292522464261
 30
0.0
 40
0.3000000000000043
 50
0.0
 51
86.18592516571853
  0
ARC
  5
113AD
  8
AM_0
 10
156.1889348030744
 20
184.45359115220981
 30
0.0
 40
0.5
 50
90.0
 51
180.0
  0
LINE
  5
113AE
  8
AM_0
 10
155.6889348030744
 20
184.45359115220981
 30
0.0
 11
155.6889348030744
 21
183.95359115220981
 31
0.0
  0
LINE
  5
113AF
  8
AM_0
 10
134.29026370672861
 20
181.10690308366861
 30
0.0
 11
140.79026370672861
 21
181.10690308366861
 31
0.0
  0
LINE
  5
113B0
  8
AM_0
 10
134.29026370672861
 20
172.80027922075081
 30
0.0
 11
140.79026370672861
 21
172.80027922075081
 31
0.0
  0
LINE
  5
113B1
  8
AM_0
 10
133.65231364191041
 20
182.45359115220981
 30
0.0
 11
140.4902637067284
 21
182.45359115220981
 31
0.0
  0
LINE
  5
113B2
  8
AM_0
 10
140.79026370672861
 20
172.45359115220981
 30
0.0
 11
133.7902637067285
 21
172.45359115220981
 31
0.0
  0
LINE
  5
113B3
  8
AM_0
 10
134.29026370672861
 20
171.95359115220981
 30
0.0
 11
140.79026370672861
 21
171.95359115220981
 31
0.0
  0
LINE
  5
113B4
  8
AM_0
 10
140.79026370672861
 20
182.08687098085761
 30
0.0
 11
134.29026370672861
 21
182.08687098085761
 31
0.0
  0
LINE
  5
113B5
  8
AM_0
 10
140.79026370672861
 20
181.58687098085761
 30
0.0
 11
134.29026370672861
 21
181.58687098085761
 31
0.0
  0
ARC
  5
113B6
  8
AM_0
 10
140.49026370672851
 20
182.75359115220971
 30
0.0
 40
0.3000000000000043
 50
270.0
 51
0.0
  0
ARC
  5
113B7
  8
AM_0
 10
141.09026370672851
 20
183.1535911522098
 30
0.0
 40
0.2999999999999971
 50
90.0
 51
180.0
  0
ARC
  5
113B8
  8
AM_0
 10
142.41526370672861
 20
176.95359115220981
 30
0.0
 40
9.124999999999984
 50
152.92493329271841
 51
207.07506670728151
  0
LINE
  5
113B9
  8
AM_0
 10
133.7902637067285
 20
172.45359115220981
 30
0.0
 11
134.29026370672861
 21
172.80027922075081
 31
0.0
  0
LINE
  5
113BA
  8
AM_0
 10
134.29026370672861
 20
171.95359115220981
 30
0.0
 11
133.7902637067285
 21
172.45359115220981
 31
0.0
  0
LINE
  5
113BB
  8
AM_0
 10
130.650079307064
 20
180.25343748582301
 30
0.0
 11
133.012129242246
 21
182.22181243180711
 31
0.0
  0
LINE
  5
113BC
  8
AM_0
 10
134.29026370672861
 20
182.45359115220981
 30
0.0
 11
133.7902637067285
 21
181.8751585687028
 31
0.0
  0
ARC
  5
113BD
  8
AM_0
 10
133.65231364191041
 20
181.45359115220981
 30
0.0
 40
1.00000000000004
 50
90.0
 51
129.805571092256
  0
LINE
  5
113BE
  8
AM_0
 10
133.7902637067285
 20
180.87515856870269
 30
0.0
 11
134.29026370672861
 21
181.10690308366861
 31
0.0
  0
LINE
  5
113BF
  8
AM_0
 10
134.29026370672861
 20
181.58687098085761
 30
0.0
 11
133.7902637067285
 21
180.87515856870269
 31
0.0
  0
LINE
  5
113C0
  8
AM_0
 10
133.7902637067285
 20
181.41288329573081
 30
0.0
 11
134.29026370672861
 21
181.58687098085761
 31
0.0
  0
LINE
  5
113C1
  8
AM_0
 10
134.29026370672861
 20
182.08687098085761
 30
0.0
 11
133.7902637067285
 21
181.41288329573081
 31
0.0
  0
LINE
  5
113C2
  8
AM_0
 10
133.7902637067285
 20
181.8751585687028
 30
0.0
 11
134.29026370672861
 21
182.08687098085761
 31
0.0
  0
ARC
  5
113C3
  8
AM_0
 10
131.29026370672861
 20
179.48521620622569
 30
0.0
 40
1.0
 50
129.8055710922664
 51
180.0
  0
LINE
  5
113C4
  8
AM_0
 10
255.6889348030746
 20
148.45359115221001
 30
0.0
 11
234.87442990354219
 21
148.45359115221001
 31
0.0
  0
LINE
  5
113C5
  8
AM_0
 10
180.5034397026069
 20
148.45359115221001
 30
0.0
 11
159.68893480307511
 21
148.45359115221001
 31
0.0
  0
LINE
  5
113C6
  8
AM_0
 10
249.5531531339135
 20
144.45359115221001
 30
0.0
 11
165.82471647223539
 21
144.45359115221001
 31
0.0
  0
LINE
  5
113C7
  8
AM_0
 10
168.59628977538151
 20
146.3946536400822
 30
0.0
 11
168.68893480307511
 21
147.45359115221001
 31
0.0
  0
LINE
  5
113C8
  8
AM_0
 10
160.78157983076841
 20
146.3946536400822
 30
0.0
 11
160.68893480307511
 21
147.45359115221001
 31
0.0
  0
ARC
  5
113C9
  8
AM_0
 10
164.68893480307511
 20
150.8535911522101
 30
0.0
 40
6.5
 50
241.82726586813479
 51
298.17273413186518
  0
ARC
  5
113CA
  8
AM_0
 10
162.37549134771541
 20
146.53410282847861
 30
0.0
 40
1.6000000000000001
 50
184.99999999999969
 51
241.82726586813479
  0
LINE
  5
113CB
  8
AM_0
 10
166.9889348030751
 20
144.77411749078169
 30
0.0
 11
164.68893480307511
 21
147.0636771695772
 31
0.0
  0
LINE
  5
113CC
  8
AM_0
 10
165.00043480307511
 20
146.75359115220999
 30
0.0
 11
164.37743480307509
 21
146.75359115220999
 31
0.0
  0
LINE
  5
113CD
  8
AM_0
 10
162.38893480307519
 20
144.77411749078169
 30
0.0
 11
164.68893480307511
 21
147.0636771695772
 31
0.0
  0
LINE
  5
113CE
  8
AM_0
 10
165.00043480307511
 20
144.3610594618753
 30
0.0
 11
165.00043480307511
 21
146.75359115220999
 31
0.0
  0
LINE
  5
113CF
  8
AM_0
 10
164.37743480307509
 20
144.3610594618753
 30
0.0
 11
164.37743480307509
 21
146.75359115220999
 31
0.0
  0
ARC
  5
113D0
  8
AM_0
 10
167.00237825843479
 20
146.53410282847861
 30
0.0
 40
1.6000000000000001
 50
298.17273413186518
 51
355.00000000000023
  0
LINE
  5
113D1
  8
AM_0
 10
255.68893480307469
 20
148.45359115221001
 30
0.0
 11
255.68893480307469
 21
152.45359115221001
 31
0.0
  0
LINE
  5
113D2
  8
AM_0
 10
159.6889348030742
 20
152.45359115221001
 30
0.0
 11
159.68893480307531
 21
148.45359115221001
 31
0.0
  0
LINE
  5
113D3
  8
AM_0N
 10
168.4889348030751
 20
148.45359115221001
 30
0.0
 11
168.4889348030751
 21
147.45359115221001
 31
0.0
  0
LINE
  5
113D4
  8
AM_0N
 10
164.88893480307519
 20
147.45359115221001
 30
0.0
 11
165.25290503734129
 21
148.45359115221001
 31
0.0
  0
LINE
  5
113D5
  8
AM_0N
 10
164.4889348030751
 20
147.45359115221001
 30
0.0
 11
164.8529050373412
 21
148.45359115221001
 31
0.0
  0
LINE
  5
113D6
  8
AM_0N
 10
160.68893480307511
 20
147.45359115221001
 30
0.0
 11
168.68893480307511
 21
147.45359115221001
 31
0.0
  0
LINE
  5
113D7
  8
AM_0N
 10
160.88893480307519
 20
147.45359115221001
 30
0.0
 11
160.88893480307519
 21
148.45359115221001
 31
0.0
  0
LINE
  5
113D8
  8
AM_0
 10
180.5034397026067
 20
144.45359115221001
 30
0.0
 11
180.5034397026067
 21
148.45359115221001
 31
0.0
  0
LINE
  5
113D9
  8
AM_0
 10
178.8465854531143
 20
148.45359115221001
 30
0.0
 11
180.5034397026067
 21
144.45359115221001
 31
0.0
  0
LINE
  5
113DA
  8
AM_0
 10
234.87442990354219
 20
144.45359115221001
 30
0.0
 11
234.87442990354219
 21
148.45359115221001
 31
0.0
  0
LINE
  5
113DB
  8
AM_0
 10
236.5312841530347
 20
148.45359115221001
 30
0.0
 11
234.87442990354219
 21
144.45359115221001
 31
0.0
  0
LINE
  5
113DC
  8
AM_0
 10
174.1889348030744
 20
193.45359115221001
 30
0.0
 11
241.1889348030746
 21
193.45359115221001
 31
0.0
  0
LINE
  5
113DD
  8
AM_0
 10
174.1889348030744
 20
193.45359115221001
 30
0.0
 11
174.1889348030744
 21
191.45359115221001
 31
0.0
  0
LINE
  5
113DE
  8
AM_0
 10
241.1889348030746
 20
193.45359115221001
 30
0.0
 11
241.1889348030746
 21
191.45359115221001
 31
0.0
  0
LINE
  5
113DF
  8
ﾁｭｳｼﾝｾﾝ1
 10
250.68893480307389
 20
142.18888365221
 30
0.0
 11
250.68893480307389
 21
155.18888365221
 31
0.0
  0
LINE
  5
113E0
  8
AM_0
 10
246.7815798307675
 20
146.3946536400822
 30
0.0
 11
246.68893480307401
 21
147.45359115221001
 31
0.0
  0
LINE
  5
113E1
  8
AM_0
 10
254.59628977538051
 20
146.3946536400822
 30
0.0
 11
254.68893480307389
 21
147.45359115221001
 31
0.0
  0
ARC
  5
113E2
  8
AM_0
 10
250.68893480307409
 20
150.8535911522099
 30
0.0
 40
6.5
 50
241.82726586813479
 51
298.17273413186518
  0
ARC
  5
113E3
  8
AM_0
 10
253.00237825843379
 20
146.5341028284783
 30
0.0
 40
1.6000000000000001
 50
298.17273413186518
 51
355.00000000000023
  0
LINE
  5
113E4
  8
AM_0
 10
248.38893480307411
 20
144.77411749078169
 30
0.0
 11
250.68893480307401
 21
147.0636771695772
 31
0.0
  0
LINE
  5
113E5
  8
AM_0
 10
250.37743480307401
 20
146.75359115220999
 30
0.0
 11
251.000434803074
 21
146.75359115220999
 31
0.0
  0
LINE
  5
113E6
  8
AM_0
 10
252.98893480307399
 20
144.77411749078169
 30
0.0
 11
250.68893480307401
 21
147.0636771695772
 31
0.0
  0
LINE
  5
113E7
  8
AM_0
 10
250.37743480307401
 20
144.3610594618753
 30
0.0
 11
250.37743480307401
 21
146.75359115220999
 31
0.0
  0
LINE
  5
113E8
  8
AM_0
 10
251.000434803074
 20
144.3610594618753
 30
0.0
 11
251.000434803074
 21
146.75359115220999
 31
0.0
  0
ARC
  5
113E9
  8
AM_0
 10
248.37549134771439
 20
146.5341028284783
 30
0.0
 40
1.6000000000000001
 50
184.99999999999969
 51
241.82726586813479
  0
LINE
  5
113EA
  8
AM_0N
 10
246.88893480307391
 20
148.45359115221001
 30
0.0
 11
246.88893480307391
 21
147.45359115221001
 31
0.0
  0
LINE
  5
113EB
  8
AM_0N
 10
250.48893480307399
 20
147.45359115221001
 30
0.0
 11
250.1249645688078
 21
148.45359115221001
 31
0.0
  0
LINE
  5
113EC
  8
AM_0N
 10
250.88893480307391
 20
147.45359115221001
 30
0.0
 11
250.5249645688078
 21
148.45359115221001
 31
0.0
  0
LINE
  5
113ED
  8
AM_0N
 10
254.68893480307401
 20
147.45359115221001
 30
0.0
 11
246.68893480307401
 21
147.45359115221001
 31
0.0
  0
LINE
  5
113EE
  8
AM_0N
 10
254.48893480307399
 20
147.45359115221001
 30
0.0
 11
254.48893480307399
 21
148.45359115221001
 31
0.0
  0
LINE
  5
113EF
  8
AM_0
 10
158.6889348030744
 20
155.45359115220981
 30
0.0
 11
158.6889348030744
 21
187.45359115220981
 31
0.0
  0
ARC
  5
113F0
  8
AM_0
 10
131.7620951720163
 20
224.45359115221009
 30
0.0
 40
56.0
 50
209.07393874564249
 51
268.4939385174153
1001
GENIUS_GENOBJ-N-FIL_13
1002
{
1000
OWNER
1000
GEN
1002
}
1001
GENIUS_GENODEF_13
1002
{
1000
HIER
1070
     0
1002
}
1002
{
1000
MANEDIT
1070
     0
1002
}
1002
{
1000
NOSEL
1070
     0
1002
}
1002
{
1000
BEHIND
1070
     0
1002
}
1002
{
1000
OTHER
1070
     0
1002
}
1002
{
1000
REACTOR
1002
}
  0
ARC
  5
113F1
  8
AM_0
 10
131.76209517201619
 20
224.45359115221009
 30
0.0
 40
50.0
 50
209.07393874564249
 51
268.31316170603128
1001
GENIUS_GENOBJ-N-FIL_13
1002
{
1000
OWNER
1000
GEN
1002
}
1001
GENIUS_GENODEF_13
1002
{
1000
HIER
1070
     0
1002
}
1002
{
1000
MANEDIT
1070
     0
1002
}
1002
{
1000
NOSEL
1070
     0
1002
}
1002
{
1000
BEHIND
1070
     0
1002
}
1002
{
1000
OTHER
1070
     0
1002
}
1002
{
1000
REACTOR
1002
}
  0
LINE
  5
11449
  8
AM_0
 10
562.71353026515339
 20
270.6423471522794
 30
0.0
 11
548.98670311839885
 21
270.6423471522794
 31
0.0
  0
LINE
  5
1144A
  8
AM_0
 10
562.71353026515339
 20
264.24234715227948
 30
0.0
 11
548.98670311839885
 21
264.24234715227948
 31
0.0
  0
LINE
  5
1144B
  8
AM_0
 10
571.67045220331875
 20
263.44234715227941
 30
0.0
 11
571.67045220331875
 21
271.44234715227952
 31
0.0
  0
LINE
  5
1144C
  8
AM_0
 10
587.51548624707107
 20
271.44234715227952
 30
0.0
 11
571.67045220331875
 21
271.44234715227952
 31
0.0
  0
LINE
  5
1144D
  8
AM_0
 10
571.67045220331875
 20
271.44234715227952
 30
0.0
 11
562.71353026515339
 21
273.8423471522795
 31
0.0
  0
LINE
  5
1144E
  8
AM_0
 10
562.71353026515339
 20
273.8423471522795
 30
0.0
 11
548.98670311839885
 21
273.8423471522795
 31
0.0
  0
LINE
  5
1144F
  8
AM_0
 10
548.98670311839885
 20
261.04234715227949
 30
0.0
 11
562.71353026515339
 21
261.04234715227949
 31
0.0
  0
LINE
  5
11450
  8
AM_0
 10
562.71353026515339
 20
261.04234715227949
 30
0.0
 11
571.67045220331875
 21
263.44234715227941
 31
0.0
  0
LINE
  5
11451
  8
AM_0
 10
571.67045220331875
 20
263.44234715227941
 30
0.0
 11
587.10506995395986
 21
263.44234715227941
 31
0.0
  0
ARC
  5
11452
  8
AM_0
 10
556.67045220331852
 20
267.44234715227952
 30
0.0
 40
9.9999999999999964
 50
140.20818050044261
 51
180.0
  0
ARC
  5
11453
  8
AM_0
 10
562.27478157084749
 20
262.6423471522794
 30
0.0
 40
1.659066127903009
 50
285.33458427584532
 51
74.665415724154698
  0
ARC
  5
11454
  8
AM_0
 10
559.12346367620864
 20
267.44234715227952
 30
0.0
 40
4.809218035507941
 50
318.28783710514517
 51
41.712162894854742
  0
ARC
  5
11455
  8
AM_0
 10
562.27505944449365
 20
272.24234715227948
 30
0.0
 40
1.658992664411161
 50
285.32532916095278
 51
74.674670839042378
  0
ARC
  5
11456
  8
AM_0
 10
559.20168401328203
 20
267.44234715227952
 30
0.0
 40
10.704477319459491
 50
162.60603189126641
 51
197.3939681087333
  0
ARC
  5
11457
  8
AM_0
 10
551.35646851487365
 20
262.6423471522794
 30
0.0
 40
2.8593334947723461
 50
145.97386776511979
 51
214.02613223488021
  0
ARC
  5
11458
  8
AM_0
 10
551.35340159347083
 20
272.24234715227948
 30
0.0
 40
2.856792199637066
 50
145.9394484817108
 51
214.06055151828909
  0
ARC
  5
11459
  8
AM_0
 10
556.67045220331852
 20
267.44234715227952
 30
0.0
 40
10.0
 50
180.0
 51
219.79181949955739
  0
LINE
  5
11915
  8
AM_0
 10
376.18900856910642
 20
557.90071623006133
 30
0.0
 11
384.18900856910659
 21
557.90071623006168
 31
0.0
  0
LINE
  5
11916
  8
AM_0
 10
386.1890085691067
 20
551.90071623006133
 30
0.0
 11
374.18900856910631
 21
551.90071623006133
 31
0.0
  0
LINE
  5
11917
  8
AM_0
 10
305.55048607411919
 20
460.90070568003921
 30
0.0
 11
474.82752969318659
 21
460.90070568003921
 31
0.0
  0
LINE
  5
11918
  8
AM_0
 10
304.53806538964972
 20
558.90071623006168
 30
0.0
 11
475.83991986007692
 21
558.90071623006168
 31
0.0
  0
LINE
  5
11919
  8
AM_0
 10
304.18897480307419
 20
538.900715634015
 30
0.0
 11
476.18901044665267
 21
538.90071563401523
 31
0.0
  0
LINE
  5
1191A
  8
ﾁｭｳｼﾝｾﾝ
 10
47.243340493098231
 20
509.90071476974782
 30
0.0
 11
482.43901044665267
 21
509.90071476974799
 31
0.0
1001
GENIUS_GENODEF_13
1002
{
1000
HIER
1070
     0
1002
}
1002
{
1000
MANEDIT
1070
     0
1002
}
1002
{
1000
NOSEL
1070
     0
1002
}
1002
{
1000
BEHIND
1070
     0
1002
}
1002
{
1000
REACTOR
1002
}
1001
GENIUS_GENOBJ-N-CEN_13
1002
{
1000
OWNER
1000
GEN
1002
}
  0
LINE
  5
1191B
  8
AM_0
 10
277.68897480307407
 20
448.40071976974741
 30
0.0
 11
277.68897480307407
 21
571.40069976974758
 31
0.0
  0
LINE
  5
1191C
  8
AM_0
 10
304.18897480315007
 20
538.900715634015
 30
0.0
 11
305.55048607411919
 21
460.90070568003921
 31
0.0
  0
LINE
  5
1191D
  8
ｶｸﾚｾﾝ2
 10
321.68897532461477
 20
460.90071330943402
 30
0.0
 11
321.68897532461477
 21
558.90072385945643
 31
0.0
  0
LINE
  5
1191E
  8
ﾁｭｳｼﾝｾﾝ
 10
316.18897516070177
 20
457.15070949473659
 30
0.0
 11
316.18897516070177
 21
562.65072004475917
 31
0.0
  0
LINE
  5
1191F
  8
ｶｸﾚｾﾝ2
 10
310.68897499678923
 20
460.90071330943402
 30
0.0
 11
310.68897499678923
 21
558.90072385945643
 31
0.0
  0
LINE
  5
11920
  8
AM_0
 10
266.6889748030743
 20
445.90068476974761
 30
0.0
 11
266.6889748030743
 21
573.9006997697478
 31
0.0
  0
LINE
  5
11921
  8
AM_0
 10
266.6889748030743
 20
547.04068976974759
 30
0.0
 11
276.6889748030743
 21
547.04068976974759
 31
0.0
  0
LINE
  5
11922
  8
AM_0
 10
266.6889335364238
 20
547.04069976972505
 30
0.0
 11
276.68893353641761
 21
547.04071088083651
 31
0.0
  0
LINE
  5
11923
  8
AM_0
 10
266.6889748030743
 20
561.94069976974765
 30
0.0
 11
276.6889748030743
 21
561.94069976974765
 31
0.0
  0
LINE
  5
11924
  8
AM_0
 10
266.68891698085707
 20
561.94070976971614
 30
0.0
 11
276.68891698085082
 21
561.94072088082714
 31
0.0
  0
LINE
  5
11925
  8
AM_0
 10
266.6889748030743
 20
573.9006997697478
 30
0.0
 11
275.81557763066968
 21
573.9006997697478
 31
0.0
  0
LINE
  5
11926
  8
AM_0
 10
296.54760525862639
 20
538.7264041485198
 30
0.0
 11
293.84870185122293
 21
569.57501125524288
 31
0.0
  0
LINE
  5
11927
  8
AM_0
 10
280.68897480307407
 20
571.40069976974758
 30
0.0
 11
291.85631245503947
 21
571.40069976974758
 31
0.0
  0
ARC
  5
11928
  8
AM_0
 10
280.68897480307407
 20
574.4006997697478
 30
0.0
 40
2.9999999999999978
 50
215.68533471265459
 51
270.0
1001
GENIUS_GENOBJ-N-FIL_13
1002
{
1000
OWNER
1000
GEN
1002
}
1001
GENIUS_GENODEF_13
1002
{
1000
HIER
1070
     0
1002
}
1002
{
1000
MANEDIT
1070
     0
1002
}
1002
{
1000
NOSEL
1070
     0
1002
}
1002
{
1000
BEHIND
1070
     0
1002
}
1002
{
1000
OTHER
1070
     0
1002
}
1002
{
1000
REACTOR
1002
}
  0
ARC
  5
11929
  8
AM_0
 10
275.81557763066968
 20
570.90069976974758
 30
0.0
 40
2.9999999999999978
 50
35.685334712654637
 51
90.0
1001
GENIUS_GENOBJ-N-FIL_13
1002
{
1000
OWNER
1000
GEN
1002
}
1001
GENIUS_GENODEF_13
1002
{
1000
HIER
1070
     0
1002
}
1002
{
1000
MANEDIT
1070
     0
1002
}
1002
{
1000
NOSEL
1070
     0
1002
}
1002
{
1000
BEHIND
1070
     0
1002
}
1002
{
1000
OTHER
1070
     0
1002
}
1002
{
1000
REACTOR
1002
}
  0
ARC
  5
1192A
  8
AM_0
 10
291.85631245503941
 20
569.40069976974723
 30
0.0
 40
2.0
 50
4.9999999999997433
 51
90.0
1001
GENIUS_GENOBJ-N-FIL_13
1002
{
1000
OWNER
1000
GEN
1002
}
1001
GENIUS_GENODEF_13
1002
{
1000
HIER
1070
     0
1002
}
1002
{
1000
MANEDIT
1070
     0
1002
}
1002
{
1000
NOSEL
1070
     0
1002
}
1002
{
1000
BEHIND
1070
     0
1002
}
1002
{
1000
OTHER
1070
     0
1002
}
1002
{
1000
REACTOR
1002
}
  0
ARC
  5
1192B
  8
AM_0
 10
298.5399946548099
 20
538.900715634015
 30
0.0
 40
2.0
 50
184.99999999999969
 51
270.0
1001
GENIUS_GENOBJ-N-FIL_13
1002
{
1000
OWNER
1000
GEN
1002
}
1001
GENIUS_GENODEF_13
1002
{
1000
HIER
1070
     0
1002
}
1002
{
1000
MANEDIT
1070
     0
1002
}
1002
{
1000
NOSEL
1070
     0
1002
}
1002
{
1000
BEHIND
1070
     0
1002
}
1002
{
1000
OTHER
1070
     0
1002
}
1002
{
1000
REACTOR
1002
}
  0
LINE
  5
1192C
  8
AM_0
 10
304.53806538964972
 20
558.90071623006168
 30
0.0
 11
304.18897480307419
 21
538.90071563401523
 31
0.0
  0
ARC
  5
1192D
  8
AM_0
 10
303.20627774199608
 20
537.90071563401511
 30
0.0
 40
1.0
 50
270.0
 51
1.0000117734974221
1001
GENIUS_GENOBJ-N-FIL_13
1002
{
1000
OWNER
1000
GEN
1002
}
1001
GENIUS_GENODEF_13
1002
{
1000
HIER
1070
     0
1002
}
1002
{
1000
MANEDIT
1070
     0
1002
}
1002
{
1000
NOSEL
1070
     0
1002
}
1002
{
1000
BEHIND
1070
     0
1002
}
1002
{
1000
OTHER
1070
     0
1002
}
1002
{
1000
REACTOR
1002
}
  0
LINE
  5
1192E
  8
AM_0
 10
298.5399946548099
 20
536.90071563401511
 30
0.0
 11
303.20627774199608
 21
536.90071563401511
 31
0.0
  0
LINE
  5
1192F
  8
AM_0
 10
375.18900856910631
 20
551.90071623006133
 30
0.0
 11
375.18900856910631
 21
556.90071623006133
 31
0.0
  0
LINE
  5
11930
  8
AM_0
 10
374.18900856910631
 20
558.90071623006168
 30
0.0
 11
374.18900856910631
 21
551.90071623006133
 31
0.0
  0
ARC
  5
11931
  8
AM_0
 10
376.18900856910642
 20
556.90071623006133
 30
0.0
 40
1.0
 50
90.0
 51
180.0
1001
GENIUS_GENOBJ-N-FIL_13
1002
{
1000
OWNER
1000
GEN
1002
}
1001
GENIUS_GENODEF_13
1002
{
1000
HIER
1070
     0
1002
}
1002
{
1000
MANEDIT
1070
     0
1002
}
1002
{
1000
NOSEL
1070
     0
1002
}
1002
{
1000
BEHIND
1070
     0
1002
}
1002
{
1000
OTHER
1070
     0
1002
}
1002
{
1000
REACTOR
1002
}
  0
LINE
  5
11932
  8
AM_0
 10
266.6889748030743
 20
445.90071976974758
 30
0.0
 11
275.81557763066968
 21
445.90071976974758
 31
0.0
  0
LINE
  5
11933
  8
AM_0
 10
266.6889748030743
 20
457.86071976974762
 30
0.0
 11
276.6889748030743
 21
457.86071976974762
 31
0.0
  0
LINE
  5
11934
  8
AM_0
 10
266.6889748030743
 20
472.76072976974791
 30
0.0
 11
276.6889748030743
 21
472.76072976974791
 31
0.0
  0
LINE
  5
11935
  8
AM_0
 10
290.52167091714119
 20
462.9007056800391
 30
0.0
 11
303.55018141085668
 21
462.9007056800391
 31
0.0
  0
LINE
  5
11936
  8
AM_0
 10
287.58015122881909
 20
450.22640828425239
 30
0.0
 11
288.5292815209578
 21
461.07501716553452
 31
0.0
  0
ARC
  5
11937
  8
AM_0
 10
290.52167091714119
 20
460.90070568003921
 30
0.0
 40
2.0
 50
90.0
 51
175.0000000000002
1001
GENIUS_GENOBJ-N-FIL_13
1002
{
1000
OWNER
1000
GEN
1002
}
1001
GENIUS_GENODEF_13
1002
{
1000
HIER
1070
     0
1002
}
1002
{
1000
MANEDIT
1070
     0
1002
}
1002
{
1000
NOSEL
1070
     0
1002
}
1002
{
1000
BEHIND
1070
     0
1002
}
1002
{
1000
OTHER
1070
     0
1002
}
1002
{
1000
REACTOR
1002
}
  0
LINE
  5
11938
  8
AM_0
 10
280.68897480307407
 20
448.40071976974758
 30
0.0
 11
285.58776183263558
 21
448.4007197697477
 31
0.0
  0
ARC
  5
11939
  8
AM_0
 10
275.81557763066968
 20
448.90071976974758
 30
0.0
 40
2.9999999999999978
 50
270.0
 51
324.31466528734552
1001
GENIUS_GENOBJ-N-FIL_13
1002
{
1000
OWNER
1000
GEN
1002
}
1001
GENIUS_GENODEF_13
1002
{
1000
HIER
1070
     0
1002
}
1002
{
1000
MANEDIT
1070
     0
1002
}
1002
{
1000
NOSEL
1070
     0
1002
}
1002
{
1000
BEHIND
1070
     0
1002
}
1002
{
1000
OTHER
1070
     0
1002
}
1002
{
1000
REACTOR
1002
}
  0
ARC
  5
1193A
  8
AM_0
 10
280.68897480307407
 20
445.40071976974758
 30
0.0
 40
2.9999999999999978
 50
90.0
 51
144.31466528734541
1001
GENIUS_GENOBJ-N-FIL_13
1002
{
1000
OWNER
1000
GEN
1002
}
1001
GENIUS_GENODEF_13
1002
{
1000
HIER
1070
     0
1002
}
1002
{
1000
MANEDIT
1070
     0
1002
}
1002
{
1000
NOSEL
1070
     0
1002
}
1002
{
1000
BEHIND
1070
     0
1002
}
1002
{
1000
OTHER
1070
     0
1002
}
1002
{
1000
REACTOR
1002
}
  0
ARC
  5
1193B
  8
AM_0
 10
285.58776183263558
 20
450.40071976974758
 30
0.0
 40
2.0
 50
270.0
 51
355.00000000000023
1001
GENIUS_GENOBJ-N-FIL_13
1002
{
1000
OWNER
1000
GEN
1002
}
1001
GENIUS_GENODEF_13
1002
{
1000
HIER
1070
     0
1002
}
1002
{
1000
MANEDIT
1070
     0
1002
}
1002
{
1000
NOSEL
1070
     0
1002
}
1002
{
1000
BEHIND
1070
     0
1002
}
1002
{
1000
OTHER
1070
     0
1002
}
1002
{
1000
REACTOR
1002
}
  0
ARC
  5
1193C
  8
AM_0
 10
303.55018141085668
 20
460.90070568003921
 30
0.0
 40
2.0
 50
1.0000117735560941
 51
90.0
1001
GENIUS_GENOBJ-N-FIL_13
1002
{
1000
OWNER
1000
GEN
1002
}
1001
GENIUS_GENODEF_13
1002
{
1000
HIER
1070
     0
1002
}
1002
{
1000
MANEDIT
1070
     0
1002
}
1002
{
1000
NOSEL
1070
     0
1002
}
1002
{
1000
BEHIND
1070
     0
1002
}
1002
{
1000
OTHER
1070
     0
1002
}
1002
{
1000
REACTOR
1002
}
  0
LINE
  5
1193D
  8
ﾁｭｳｼﾝｾﾝ
 10
413.18900856910648
 20
442.90070925631778
 30
0.0
 11
413.18900856910648
 21
576.90072028317786
 31
0.0
  0
LINE
  5
1193E
  8
ｶｸﾚｾﾝ2
 10
458.68900992511158
 20
460.90071330943402
 30
0.0
 11
458.68900992511158
 21
558.90072385945643
 31
0.0
  0
LINE
  5
1193F
  8
ﾁｭｳｼﾝｾﾝ
 10
464.18901008902452
 20
457.15070949473647
 30
0.0
 11
464.18901008902452
 21
562.65072004475917
 31
0.0
  0
LINE
  5
11940
  8
ｶｸﾚｾﾝ2
 10
469.68901025293718
 20
460.90071330943402
 30
0.0
 11
469.68901025293718
 21
558.90072385945643
 31
0.0
  0
LINE
  5
11941
  8
AM_0
 10
476.18901044665267
 20
538.90071563401523
 30
0.0
 11
474.82752969318659
 21
460.90070568003921
 31
0.0
  0
LINE
  5
11942
  8
AM_0
 10
385.1890085691067
 20
556.90071623006156
 30
0.0
 11
385.1890085691067
 21
551.90071623006133
 31
0.0
  0
LINE
  5
11943
  8
AM_0
 10
386.1890085691067
 20
558.90071623006168
 30
0.0
 11
386.1890085691067
 21
551.90071623006133
 31
0.0
  0
ARC
  5
11944
  8
AM_0
 10
384.18900856910659
 20
556.90071623006156
 30
0.0
 40
1.0
 50
0.0
 51
90.0
1001
GENIUS_GENOBJ-N-FIL_13
1002
{
1000
OWNER
1000
GEN
1002
}
1001
GENIUS_GENODEF_13
1002
{
1000
HIER
1070
     0
1002
}
1002
{
1000
MANEDIT
1070
     0
1002
}
1002
{
1000
NOSEL
1070
     0
1002
}
1002
{
1000
BEHIND
1070
     0
1002
}
1002
{
1000
OTHER
1070
     0
1002
}
1002
{
1000
REACTOR
1002
}
  0
LINE
  5
11945
  8
AM_0
 10
475.83991986007692
 20
558.90071623006168
 30
0.0
 11
476.18901044665267
 21
538.90071563401523
 31
0.0
  0
LINE
  5
11946
  8
AM_0
 10
134.68894480307421
 20
446.0107347697475
 30
0.0
 11
187.68894480307429
 21
446.0107347697475
 31
0.0
  0
LINE
  5
11947
  8
AM_0
 10
134.68894480307421
 20
444.66072476974801
 30
0.0
 11
187.68894480307429
 21
444.66072476974801
 31
0.0
  0
LINE
  5
11948
  8
AM_0
 10
134.68894480307421
 20
443.98073476974781
 30
0.0
 11
187.68894480307429
 21
443.98073476974781
 31
0.0
  0
LINE
  5
11949
  8
AM_0
 10
134.68894480307421
 20
573.79072576974806
 30
0.0
 11
187.68894480307429
 21
573.79072576974806
 31
0.0
  0
LINE
  5
1194A
  8
AM_0
 10
134.68894480307421
 20
575.14073976974805
 30
0.0
 11
187.68894480307429
 21
575.14073976974805
 31
0.0
  0
LINE
  5
1194B
  8
AM_0
 10
134.68894480307421
 20
575.81072176974828
 30
0.0
 11
187.68894480307429
 21
575.81072176974828
 31
0.0
  0
LINE
  5
1194C
  8
AM_0
 10
156.68894480307421
 20
556.25073476974785
 30
0.0
 11
258.68894480307421
 21
556.25073476974785
 31
0.0
  0
LINE
  5
1194D
  8
AM_0
 10
156.68894480307421
 20
463.55072476974777
 30
0.0
 11
258.68894480307421
 21
463.55072476974777
 31
0.0
  0
LINE
  5
1194E
  8
AM_0
 10
252.03897480307421
 20
545.90071476974811
 30
0.0
 11
117.23899480307431
 21
545.90071476974811
 31
0.0
  0
LINE
  5
1194F
  8
AM_0
 10
134.68894480307421
 20
448.04073476974781
 30
0.0
 11
251.49893480307421
 21
448.04073476974781
 31
0.0
  0
LINE
  5
11950
  8
AM_0
 10
134.68894480307421
 20
571.76072676974798
 30
0.0
 11
251.49893480307421
 21
571.76072676974798
 31
0.0
  0
LINE
  5
11951
  8
AM_0
 10
125.3689348030742
 20
473.18073476974803
 30
0.0
 11
255.5089448030742
 21
473.18073476974803
 31
0.0
  0
LINE
  5
11952
  8
AM_0
 10
252.03897480307421
 20
473.90071476974782
 30
0.0
 11
126.23899480307431
 21
473.90071476974782
 31
0.0
  0
LINE
  5
11953
  8
AM_0
 10
252.03897480307421
 20
543.90072476974819
 30
0.0
 11
117.23899480307431
 21
543.90072476974819
 31
0.0
  0
LINE
  5
11954
  8
AM_0
 10
255.5089448030742
 20
543.27072476974797
 30
0.0
 11
116.3689348030742
 21
543.27072476974797
 31
0.0
  0
LINE
  5
11955
  8
AM_0
 10
116.3689348030742
 20
546.6207347697482
 30
0.0
 11
255.5089448030742
 21
546.6207347697482
 31
0.0
  0
LINE
  5
11956
  8
AM_0
 10
255.5089448030742
 20
476.53073476974782
 30
0.0
 11
125.3689348030742
 21
476.53073476974782
 31
0.0
  0
LINE
  5
11957
  8
AM_0
 10
254.63391480307419
 20
535.90072886974815
 30
0.0
 11
117.23899480307431
 21
535.90073476974806
 31
0.0
  0
LINE
  5
11958
  8
AM_0
 10
254.6339148554342
 20
533.90072066974801
 30
0.0
 11
117.23899480307431
 21
533.90071476974811
 31
0.0
  0
LINE
  5
11959
  8
AM_0
 10
116.14896480307419
 20
536.38072476974776
 30
0.0
 11
255.7239448030742
 21
536.38073476974807
 31
0.0
  0
LINE
  5
1195A
  8
AM_0
 10
116.14896480307419
 20
533.46071476974805
 30
0.0
 11
255.72394487951971
 21
533.46073476974777
 31
0.0
  0
LINE
  5
1195B
  8
AM_0
 10
116.01895480307429
 20
526.24073476974797
 30
0.0
 11
255.8539548030742
 21
526.24071476974802
 31
0.0
  0
LINE
  5
1195C
  8
AM_0
 10
254.62392034523319
 20
525.90071279950621
 30
0.0
 11
117.24893480307421
 21
525.90071476974811
 31
0.0
  0
LINE
  5
1195D
  8
AM_0
 10
254.62392044995269
 20
523.90071673907721
 30
0.0
 11
117.24893480307421
 21
523.90073476974806
 31
0.0
  0
LINE
  5
1195E
  8
AM_0
 10
116.01895480307429
 20
523.58072476974814
 30
0.0
 11
255.8539548727129
 21
523.58071476974817
 31
0.0
  0
LINE
  5
1195F
  8
AM_0
 10
115.95896480307429
 20
516.17072476974806
 30
0.0
 11
255.9139448030742
 21
516.17073876974803
 31
0.0
  0
LINE
  5
11960
  8
AM_0
 10
254.62392034523319
 20
515.90073279950627
 30
0.0
 11
117.24893480307421
 21
515.90071476974788
 31
0.0
  0
LINE
  5
11961
  8
AM_0
 10
254.62392044995269
 20
513.90073673907705
 30
0.0
 11
117.24893480307421
 21
513.90071476974811
 31
0.0
  0
LINE
  5
11962
  8
AM_0
 10
115.95896480307429
 20
513.63072476974776
 30
0.0
 11
255.9139448695714
 21
513.6307307697482
 31
0.0
  0
LINE
  5
11963
  8
AM_0
 10
115.95896480307429
 20
506.16072476974779
 30
0.0
 11
255.9139448030742
 21
506.16074876974801
 31
0.0
  0
LINE
  5
11964
  8
AM_0
 10
254.62392034523319
 20
505.90073279950622
 30
0.0
 11
117.24893480307421
 21
505.90073476974783
 31
0.0
  0
LINE
  5
11965
  8
AM_0
 10
254.62392044995269
 20
503.9007367390771
 30
0.0
 11
117.24893480307421
 21
503.90071476974782
 31
0.0
  0
LINE
  5
11966
  8
AM_0
 10
115.95896480307429
 20
503.6307247697481
 30
0.0
 11
255.9139448693096
 21
503.630740769748
 31
0.0
  0
LINE
  5
11967
  8
AM_0
 10
116.01895480307429
 20
496.22072476974802
 30
0.0
 11
255.8539548030742
 21
496.22072476974802
 31
0.0
  0
LINE
  5
11968
  8
AM_0
 10
254.62392034523319
 20
495.90071279950632
 30
0.0
 11
117.24893480307421
 21
495.900734769748
 31
0.0
  0
LINE
  5
11969
  8
AM_0
 10
254.62392044995269
 20
493.90071673907721
 30
0.0
 11
117.24893480307421
 21
493.90073476974783
 31
0.0
  0
LINE
  5
1196A
  8
AM_0
 10
116.01895480307429
 20
493.56073476974802
 30
0.0
 11
255.8539548727129
 21
493.56072476974822
 31
0.0
  0
LINE
  5
1196B
  8
AM_0
 10
125.14896480307419
 20
486.34072476974791
 30
0.0
 11
255.71895480307421
 21
486.34072476974791
 31
0.0
  0
LINE
  5
1196C
  8
AM_0
 10
254.62892480307411
 20
485.90073886974801
 30
0.0
 11
126.23899480307431
 21
485.90071476974799
 31
0.0
  0
LINE
  5
1196D
  8
AM_0
 10
254.62892485543421
 20
483.90073066974799
 30
0.0
 11
126.23899480307431
 21
483.90073476974811
 31
0.0
  0
LINE
  5
1196E
  8
AM_0
 10
125.14896480307419
 20
483.41074476974802
 30
0.0
 11
255.71895487978139
 21
483.41072476974801
 31
0.0
  0
LINE
  5
1196F
  8
AM_0
 10
252.0389558029519
 20
475.90073312401603
 30
0.0
 11
126.23899480307431
 21
475.90073476974811
 31
0.0
  0
LINE
  5
11971
  8
AM_0
 10
112.1889148030742
 20
567.33071376974783
 30
0.0
 11
112.1889148030742
 21
452.45831471474918
 31
0.0
  0
LINE
  5
11973
  8
AM_0
 10
115.4089748030743
 20
461.55072476974777
 30
0.0
 11
115.94901480307431
 21
458.56072476974782
 31
0.0
  0
ARC
  5
11977
  8
AM_0
 10
134.68350480307419
 20
446.65529476974802
 30
0.0
 40
1.9945760999999991
 50
179.84400999999721
 51
270.15599200000003
  0
ARC
  5
11978
  8
AM_0
 10
134.69144480307429
 20
445.97557476974799
 30
0.0
 40
1.994844099999999
 50
194.36279999999911
 51
269.92834200000209
  0
LINE
  5
11979
  8
AM_0
 10
117.7989248030743
 20
446.60073476974787
 30
0.0
 11
131.2989248030743
 21
446.60073476974787
 31
0.0
  0
LINE
  5
1197A
  8
AM_0
 10
117.8289548030742
 20
448.23073476974798
 30
0.0
 11
131.18894480307421
 21
448.23073476974798
 31
0.0
  0
LINE
  5
1197B
  8
AM_0
 10
117.85898480307419
 20
451.6307247697481
 30
0.0
 11
131.18894480307421
 21
451.6307247697481
 31
0.0
  0
LINE
  5
1197C
  8
AM_0
 10
117.9189248030742
 20
456.92073476974798
 30
0.0
 11
131.18894480307421
 21
456.92073476974798
 31
0.0
  0
ARC
  5
1197D
  8
AM_0
 10
117.86063480307421
 20
453.62612476974778
 30
0.0
 40
1.9953879999999991
 50
192.01538000000011
 51
269.9519330000021
  0
LINE
  5
1197E
  8
AM_0
 10
115.8789448030743
 20
449.7707247697478
 30
0.0
 11
114.9589048030742
 21
453.65071476974799
 31
0.0
  0
ARC
  5
1197F
  8
AM_0
 10
113.51724480307431
 20
451.27362476974781
 30
0.0
 40
1.5070961
 50
14.09782000000339
 51
89.935179999998269
  0
LINE
  5
11980
  8
AM_0
 10
113.51895480307429
 20
452.78072476974779
 30
0.0
 11
115.1689848030743
 21
452.78072476974779
 31
0.0
  0
LINE
  5
11981
  8
AM_0
 10
112.1889148030742
 20
452.45831471474918
 30
0.0
 11
114.5089448030743
 21
452.40073476974783
 31
0.0
  0
ARC
  5
11982
  8
AM_0
 10
117.7962448030742
 20
448.59850476974799
 30
0.0
 40
1.9977800999999991
 50
194.13223000000309
 51
270.07691900000231
  0
LINE
  5
11983
  8
AM_0
 10
115.8589248030742
 20
448.11071476974797
 30
0.0
 11
114.9789148030743
 21
451.64070476974803
 31
0.0
  0
ARC
  5
11984
  8
AM_0
 10
117.8217548030743
 20
450.22618476974799
 30
0.0
 40
1.9954841000000001
 50
193.19407999999811
 51
270.20654200000092
  0
LINE
  5
11985
  8
AM_0
 10
113.4789148030743
 20
458.86074476974801
 30
0.0
 11
115.89896480307419
 21
458.86074476974801
 31
0.0
  0
ARC
  5
11986
  8
AM_0
 10
113.4801448030742
 20
457.35659476974803
 30
0.0
 40
1.50414
 50
12.44475000000339
 51
90.045750000001419
  0
LINE
  5
11987
  8
AM_0
 10
113.49893480307421
 20
454.80074476974801
 30
0.0
 11
115.55893480307429
 21
454.80074476974801
 31
0.0
  0
ARC
  5
11988
  8
AM_0
 10
113.4981448030743
 20
453.29792476974779
 30
0.0
 40
1.5028081
 50
13.5778200000028
 51
89.969209999998441
  0
ARC
  5
1198C
  8
AM_0
 10
117.9108048030742
 20
458.91416476974803
 30
0.0
 40
1.993431999999999
 50
190.21196999999981
 51
270.23411600000071
  0
LINE
  5
1198D
  8
AM_0
 10
115.9089748030743
 20
453.210734769748
 30
0.0
 11
114.9489548030742
 21
457.68073476974803
 31
0.0
  0
LINE
  5
1198E
  8
AM_0
 10
132.68894480307421
 20
448.01073476974778
 30
0.0
 11
132.68894480307421
 21
455.42073476974781
 31
0.0
  0
ARC
  5
1198F
  8
AM_0
 10
134.68619480307419
 20
448.00794476974778
 30
0.0
 40
1.9972080000000001
 50
179.91986000000111
 51
270.08014299999962
  0
ARC
  5
11990
  8
AM_0
 10
134.6853448030742
 20
450.0371147697478
 30
0.0
 40
1.996383999999999
 50
179.89615999999739
 51
270.103837
  0
ARC
  5
11991
  8
AM_0
 10
131.3025848030743
 20
445.09383476974801
 30
0.0
 40
1.506888
 50
14.87693000000551
 51
90.137770000000501
  0
ARC
  5
11992
  8
AM_0
 10
131.18509480307429
 20
446.72689476974813
 30
0.0
 40
1.503848099999999
 50
0.1464000000030106
 51
89.853599999996987
  0
ARC
  5
11993
  8
AM_0
 10
131.1871748030743
 20
450.12894476974782
 30
0.0
 40
1.501795999999995
 50
0.0685499999989591
 51
89.931450000000993
  0
ARC
  5
11994
  8
AM_0
 10
131.1832648030742
 20
455.41506476974803
 30
0.0
 40
1.505676
 50
0.2155299999989793
 51
89.784480000001125
  0
LINE
  5
119B8
  8
AM_0
 10
156.68894480307421
 20
463.55074476974801
 30
0.0
 11
121.68894480307419
 21
465.58074476974821
 31
0.0
  0
ARC
  5
119B9
  8
AM_0
 10
133.68894480307421
 20
474.900734769748
 30
0.0
 40
1.0000040999999991
 50
90.0
 51
269.99999700000228
  0
ARC
  5
119BA
  8
AM_0
 10
126.23899480307431
 20
474.900734769748
 30
0.0
 40
1.0000040999999991
 50
90.0
 51
269.99999700000228
  0
ARC
  5
119BB
  8
AM_0
 10
125.3689348030742
 20
474.85573476974781
 30
0.0
 40
1.6750081000000001
 50
90.0
 51
269.99999700000228
  0
LINE
  5
119BC
  8
AM_0
 10
112.1889148030742
 20
475.590734769748
 30
0.0
 11
121.68894480307419
 21
475.590734769748
 31
0.0
  0
LINE
  5
119BD
  8
AM_0
 10
112.1889148030742
 20
461.55074476974801
 30
0.0
 11
121.68894480307419
 21
461.55074476974801
 31
0.0
  0
LINE
  5
119BE
  8
AM_0
 10
112.1889148030742
 20
467.21073476974777
 30
0.0
 11
121.68894480307419
 21
467.210734769748
 31
0.0
  0
ARC
  5
119D2
  8
AM_0
 10
124.83884480307429
 20
468.6905747697478
 30
0.0
 40
1.004135999999999
 50
314.20256400000051
 51
5.1511600000042383
  0
LINE
  5
119D3
  8
AM_0
 10
121.68894480307419
 20
461.55074476974801
 30
0.0
 11
121.68894480307419
 21
475.590734769748
 31
0.0
  0
ARC
  5
119D4
  8
AM_0
 10
121.3101548030742
 20
472.2326747697478
 30
0.0
 40
6.003908199999997
 50
273.61728599999782
 51
314.7763070000006
  0
ARC
  5
119D5
  8
AM_0
 10
120.8538548030742
 20
468.30295476974783
 30
0.0
 40
5.0078917000000001
 50
5.4746799999994851
 51
80.401279999998849
  0
ARC
  5
119DC
  8
AM_0
 10
125.14896480307419
 20
484.87572476974799
 30
0.0
 40
1.4650000000000001
 50
90.0
 51
269.99999700000228
  0
ARC
  5
119DD
  8
AM_0
 10
126.23899480307431
 20
484.90073476974783
 30
0.0
 40
1.0000040999999991
 50
90.0
 51
269.99999700000228
  0
ARC
  5
119DE
  8
AM_0
 10
133.68894480307421
 20
484.90073476974783
 30
0.0
 40
1.0000040999999991
 50
90.0
 51
269.99999700000228
  0
ARC
  5
119E0
  8
AM_0
 10
116.01895480307429
 20
494.89072476974809
 30
0.0
 40
1.3300000000000001
 50
90.0
 51
269.99999700000228
  0
ARC
  5
119E4
  8
AM_0
 10
117.2402748030743
 20
494.90071476974782
 30
0.0
 40
1.000035999999999
 50
89.500709999998364
 51
270.49928399999988
  0
ARC
  5
119E5
  8
AM_0
 10
115.95896480307429
 20
504.89574476974781
 30
0.0
 40
1.265004
 50
90.0
 51
269.99999700000228
  0
ARC
  5
119E8
  8
AM_0
 10
117.2402748030743
 20
504.90073476974811
 30
0.0
 40
1.000035999999999
 50
89.500709999998364
 51
270.49928399999988
  0
ARC
  5
119E9
  8
AM_0
 10
133.68894480307421
 20
494.90071476974782
 30
0.0
 40
1.0000040999999991
 50
90.0
 51
269.99999700000228
  0
ARC
  5
119EA
  8
AM_0
 10
133.68894480307421
 20
504.90073476974811
 30
0.0
 40
1.0000040999999991
 50
90.0
 51
269.99999700000228
  0
ARC
  5
119EB
  8
AM_0
 10
117.2402748030743
 20
514.90073476974806
 30
0.0
 40
1.000035999999999
 50
89.500709999998364
 51
270.49928399999988
  0
ARC
  5
119EC
  8
AM_0
 10
115.95896480307429
 20
514.90073476974806
 30
0.0
 40
1.270003999999999
 50
90.0
 51
269.99999700000228
  0
ARC
  5
119F0
  8
AM_0
 10
133.68894480307421
 20
514.90073476974806
 30
0.0
 40
1.0000040999999991
 50
90.0
 51
269.99999700000228
  0
ARC
  5
11A0C
  8
AM_0
 10
121.3191948030743
 20
547.55422476974798
 30
0.0
 40
6.007896399999999
 50
45.382730000005701
 51
86.471550000001656
  0
LINE
  5
11A0D
  8
AM_0
 10
121.68894480307419
 20
558.25072476974788
 30
0.0
 11
121.68894480307419
 21
546.56072438187925
 31
0.0
  0
ARC
  5
11A0F
  8
AM_0
 10
116.01895480307429
 20
524.91071476974821
 30
0.0
 40
1.3300000000000001
 50
90.0
 51
269.99999700000228
  0
ARC
  5
11A13
  8
AM_0
 10
117.2402748030743
 20
524.90071476974811
 30
0.0
 40
1.000035999999999
 50
89.500709999998364
 51
270.49928399999988
  0
ARC
  5
11A14
  8
AM_0
 10
116.14896480307419
 20
534.92073476974804
 30
0.0
 40
1.4599999999999991
 50
90.0
 51
269.99999700000228
  0
ARC
  5
11A17
  8
AM_0
 10
117.23899480307431
 20
534.90072476974785
 30
0.0
 40
1.0000040999999991
 50
90.0
 51
269.99999700000228
  0
ARC
  5
11A18
  8
AM_0
 10
133.68894480307421
 20
524.90071476974811
 30
0.0
 40
1.0000040999999991
 50
90.0
 51
269.99999700000228
  0
ARC
  5
11A19
  8
AM_0
 10
133.68894480307421
 20
534.90072476974785
 30
0.0
 40
1.0000040999999991
 50
90.0
 51
269.99999700000228
  0
ARC
  5
11A1A
  8
AM_0
 10
117.2389974329959
 20
544.90073181974776
 30
0.0
 40
1.000007050003423
 50
90.000150682346145
 51
269.99984931765061
  0
ARC
  5
11A1B
  8
AM_0
 10
116.3689348030742
 20
544.94573476974813
 30
0.0
 40
1.6750081000000001
 50
90.0
 51
269.99999700000228
  0
LINE
  5
11A1D
  8
AM_0
 10
112.1889148030742
 20
544.20072476974769
 30
0.0
 11
114.85898480307419
 21
544.20072476974804
 31
0.0
  0
ARC
  5
11A27
  8
AM_0
 10
133.68894480307421
 20
544.90073476974806
 30
0.0
 40
1.0000040999999991
 50
90.0
 51
269.99999700000228
  0
ARC
  5
11A28
  8
AM_0
 10
124.83548480307419
 20
551.10963476974814
 30
0.0
 40
1.007376
 50
354.93659510000271
 51
45.709679999997569
  0
ARC
  5
11A29
  8
AM_0
 10
120.85916480307419
 20
551.493604769748
 30
0.0
 40
5.0021839000000003
 50
279.54857499999838
 51
354.57547400000232
  0
LINE
  5
11A2A
  8
AM_0
 10
156.6890048030742
 20
556.25072476974799
 30
0.0
 11
121.6890048030742
 21
554.22072476974802
 31
0.0
  0
ARC
  5
11A2B
  8
AM_0
 10
117.8608748030742
 20
566.16502376974802
 30
0.0
 40
1.995695899999999
 50
90.05521999999722
 51
167.97747000000001
  0
LINE
  5
11A2C
  8
AM_0
 10
112.1889148030742
 20
567.34314437258467
 30
0.0
 11
114.5089448030743
 21
567.40073376974783
 31
0.0
  0
ARC
  5
11A2D
  8
AM_0
 10
113.5239048030743
 20
568.52250676974802
 30
0.0
 40
1.501779999999999
 50
269.81061700000078
 51
345.66716400000013
  0
LINE
  5
11A2E
  8
AM_0
 10
132.68894480307421
 20
571.79073276974782
 30
0.0
 11
132.68894480307421
 21
564.38072976974775
 31
0.0
  0
LINE
  5
11A2F
  8
AM_0
 10
115.8789448030743
 20
570.03073876974781
 30
0.0
 11
114.9589048030742
 21
566.15074176974815
 31
0.0
  0
LINE
  5
11A30
  8
AM_0
 10
112.1889148030742
 20
558.25072476974788
 30
0.0
 11
121.68894480307419
 21
558.25072476974788
 31
0.0
  0
LINE
  5
11A31
  8
AM_0
 10
117.9189248030742
 20
562.88072976974797
 30
0.0
 11
131.18894480307421
 21
562.88072976974797
 31
0.0
  0
LINE
  5
11A32
  8
AM_0
 10
112.1889148030742
 20
552.59072476974814
 30
0.0
 11
121.68894480307419
 21
552.59072476974814
 31
0.0
  0
LINE
  5
11A33
  8
AM_0
 10
115.4089748030743
 20
558.25072476974788
 30
0.0
 11
115.94901480307431
 21
561.24074576974783
 31
0.0
  0
LINE
  5
11A44
  8
AM_0
 10
113.51895480307429
 20
567.02072176974798
 30
0.0
 11
115.1689848030743
 21
567.02072176974798
 31
0.0
  0
LINE
  5
11A45
  8
AM_0
 10
113.49893480307421
 20
565.00072476974776
 30
0.0
 11
115.55893480307429
 21
565.00072476974776
 31
0.0
  0
ARC
  5
11A46
  8
AM_0
 10
113.50327480307431
 20
566.49706276974814
 30
0.0
 40
1.4963319999999991
 50
269.83540999999917
 51
346.61756199999923
  0
LINE
  5
11A47
  8
AM_0
 10
113.4789148030743
 20
560.93072476974805
 30
0.0
 11
115.89896480307419
 21
560.93072476974805
 31
0.0
  0
ARC
  5
11A48
  8
AM_0
 10
113.47910480307431
 20
562.43351776974805
 30
0.0
 40
1.5027881000000001
 50
269.9953320000032
 51
347.98665799999787
  0
ARC
  5
11A49
  8
AM_0
 10
117.91593480307419
 20
560.88110376974805
 30
0.0
 40
1.999628099999998
 50
89.914670000000115
 51
169.63923999999781
  0
LINE
  5
11A4A
  8
AM_0
 10
115.9089748030743
 20
566.58073376974778
 30
0.0
 11
114.9489548030742
 21
562.12071976974778
 31
0.0
  0
ARC
  5
11A4B
  8
AM_0
 10
131.18857480307429
 20
564.38109576974773
 30
0.0
 40
1.5003600999999991
 50
270.01381500000002
 51
359.98618399999862
  0
LINE
  5
11A4C
  8
AM_0
 10
117.8289548030742
 20
571.57073176974779
 30
0.0
 11
131.18894480307421
 21
571.57073176974779
 31
0.0
  0
LINE
  5
11A4D
  8
AM_0
 10
117.7989248030743
 20
573.20073676974778
 30
0.0
 11
131.2989248030743
 21
573.20073676974778
 31
0.0
  0
LINE
  5
11A4E
  8
AM_0
 10
117.85898480307419
 20
568.16073576974782
 30
0.0
 11
131.18894480307421
 21
568.16073576974782
 31
0.0
  0
ARC
  5
11A4F
  8
AM_0
 10
117.82688480307419
 20
569.56879376974814
 30
0.0
 40
2.001947899999998
 50
89.940519999998912
 51
166.65886000000151
  0
ARC
  5
11A50
  8
AM_0
 10
117.80136480307431
 20
571.19641876974777
 30
0.0
 40
2.0043239999999991
 50
90.068910000001068
 51
165.72194999999999
  0
LINE
  5
11A51
  8
AM_0
 10
115.85898480307419
 20
571.69071976974794
 30
0.0
 11
114.9789848030742
 21
568.15071876974821
 31
0.0
  0
ARC
  5
11A52
  8
AM_0
 10
134.6900448030743
 20
573.81430076974789
 30
0.0
 40
1.996427999999999
 50
90.032390000001939
 51
165.30536999999919
  0
ARC
  5
11A53
  8
AM_0
 10
134.68875480307429
 20
573.14090676974763
 30
0.0
 40
1.999824
 50
89.994939999998735
 51
180.00506000000109
  0
ARC
  5
11A54
  8
AM_0
 10
134.69058480307419
 20
569.75908676974802
 30
0.0
 40
2.001640099999999
 50
90.046959999998165
 51
179.9530399999953
  0
ARC
  5
11A55
  8
AM_0
 10
131.1903448030742
 20
573.06928976974802
 30
0.0
 40
1.498559999999999
 50
269.94488499999687
 51
0.055119999999415
  0
ARC
  5
11A56
  8
AM_0
 10
131.1874148030742
 20
569.66224676974821
 30
0.0
 40
1.501508099999995
 50
270.05754899999692
 51
359.94245300200021
  0
ARC
  5
11A57
  8
AM_0
 10
134.69144480307429
 20
571.78821576974804
 30
0.0
 40
2.0025157999999981
 50
90.071899999999786
 51
179.9281000000002
  0
ARC
  5
11A58
  8
AM_0
 10
131.3076548030742
 20
574.70101176974811
 30
0.0
 40
1.5003120000000001
 50
269.66833699999898
 51
345.31696600000078
  0
LINE
  5
11A59
  8
AM_0
 10
258.68894480307421
 20
446.9007197697477
 30
0.0
 11
258.68894481926702
 21
572.90068874558267
 31
0.0
  0
LINE
  5
11A5A
  8
AM_0
 10
253.42896480307411
 20
449.52072476974803
 30
0.0
 11
256.88895480307428
 21
462.44074476974771
 31
0.0
  0
ARC
  5
11A5B
  8
AM_0
 10
187.6883348030743
 20
445.98134476974781
 30
0.0
 40
2.000623899999999
 50
270.01782400000212
 51
359.9821759990013
  0
ARC
  5
11A5C
  8
AM_0
 10
187.6918748030742
 20
446.65781476974809
 30
0.0
 40
1.9970881
 50
269.91637499999922
 51
0.0836200000014677
  0
ARC
  5
11A5D
  8
AM_0
 10
187.6891848030742
 20
448.0104647697475
 30
0.0
 40
1.9997199999999991
 50
269.99193799999972
 51
0.0080600000040013
  0
LINE
  5
11A5E
  8
AM_0
 10
189.68894480307421
 20
445.98073476974798
 30
0.0
 11
189.68894480307421
 21
448.04073476974781
 31
0.0
  0
LINE
  5
11A5F
  8
AM_0
 10
258.39896480307431
 20
458.86074476974801
 30
0.0
 11
255.98896480307431
 21
458.86074476974801
 31
0.0
  0
LINE
  5
11A60
  8
AM_0
 10
253.39893480307421
 20
449.400734769748
 30
0.0
 11
258.68894480307421
 21
449.400734769748
 31
0.0
  0
ARC
  5
11A61
  8
AM_0
 10
258.39478480307417
 20
457.36025476974783
 30
0.0
 40
1.500475999999999
 50
89.841720000000265
 51
167.6677700000013
  0
LINE
  5
11A62
  8
AM_0
 10
255.49893480307421
 20
450.98069476974803
 30
0.0
 11
256.93894480307432
 21
457.68068476974781
 31
0.0
  0
ARC
  5
11A63
  8
AM_0
 10
253.54340480307431
 20
451.40090476974808
 30
0.0
 40
2.0001799999999981
 50
269.87248500000197
 51
347.87364800000222
  0
ARC
  5
11A64
  8
AM_0
 10
251.49939480307421
 20
450.03853476974803
 30
0.0
 40
1.997795899999999
 50
269.9864190000028
 51
344.9784029999978
  0
LINE
  5
11A65
  8
AM_0
 10
259.68894480307432
 20
445.90071976974758
 30
0.0
 11
266.6889748030743
 21
445.90071976974758
 31
0.0
  0
ARC
  5
11A66
  8
AM_0
 10
259.6839948030742
 20
446.8957597697476
 30
0.0
 40
0.9950640200000001
 50
179.714940000002
 51
270.28506199999958
  0
LINE
  5
11A67
  8
AM_0
 10
259.68894480307432
 20
457.86072476974812
 30
0.0
 11
266.6889748030743
 21
457.86072476974812
 31
0.0
  0
ARC
  5
11A68
  8
AM_0
 10
259.68335480307428
 20
458.85511476974779
 30
0.0
 40
0.9944000200000001
 50
179.6764900000021
 51
270.323509
  0
ARC
  5
11A69
  8
AM_0
 10
252.03076480307431
 20
474.900734769748
 30
0.0
 40
1.000031899999998
 50
270.46929999999787
 51
89.530700000002156
  0
ARC
  5
11A6A
  8
AM_0
 10
255.5089448030742
 20
474.85573476974781
 30
0.0
 40
1.675
 50
269.99999700000228
 51
90.0
  0
ARC
  5
11A6B
  8
AM_0
 10
258.3392148030743
 20
462.04833476974778
 30
0.0
 40
1.502391899999999
 50
90.009360000000058
 51
164.8599899999985
  0
LINE
  5
11A6C
  8
AM_0
 10
258.68894480307421
 20
472.75072476974799
 30
0.0
 11
266.6889748030743
 21
472.76072976974791
 31
0.0
  0
ARC
  5
11A6D
  8
AM_0
 10
255.71895480307421
 20
484.87572476974799
 30
0.0
 40
1.4650000000000001
 50
270.00000299999761
 51
90.0
  0
ARC
  5
11A6E
  8
AM_0
 10
254.62892480307411
 20
484.90073476974783
 30
0.0
 40
1.0000040999999991
 50
270.00000299999761
 51
90.0
  0
ARC
  5
11A6F
  8
AM_0
 10
255.8539548030742
 20
494.89072476974809
 30
0.0
 40
1.3300000000000001
 50
270.00000299999761
 51
90.0
  0
ARC
  5
11A70
  8
AM_0
 10
254.63263480307421
 20
494.90071476974782
 30
0.0
 40
1.000035999999999
 50
269.50071600000012
 51
90.499290000001622
  0
ARC
  5
11A71
  8
AM_0
 10
254.63263480307421
 20
504.90073476974811
 30
0.0
 40
1.000035999999999
 50
269.50071600000012
 51
90.499290000001622
  0
ARC
  5
11A72
  8
AM_0
 10
255.9139448030742
 20
504.89574476974781
 30
0.0
 40
1.265004
 50
270.00000299999761
 51
90.0
  0
ARC
  5
11A73
  8
AM_0
 10
255.9139448030742
 20
514.90073476974806
 30
0.0
 40
1.270003999999999
 50
270.00000299999761
 51
90.0
  0
ARC
  5
11A74
  8
AM_0
 10
254.63263480307421
 20
514.90073476974806
 30
0.0
 40
1.000035999999999
 50
269.50071600000012
 51
90.499290000001622
  0
ARC
  5
11A75
  8
AM_0
 10
187.6880848030743
 20
573.80985976974773
 30
0.0
 40
2.0008759
 50
0.0251100000023943
 51
89.9748899999976
  0
ARC
  5
11A76
  8
AM_0
 10
187.6866248030743
 20
573.13838976974796
 30
0.0
 40
2.002332
 50
0.0667400000013121
 51
89.933259999998683
  0
ARC
  5
11A77
  8
AM_0
 10
187.68393480307421
 20
571.78572076974797
 30
0.0
 40
2.0050240000000001
 50
0.1434100000013002
 51
89.856589999998704
  0
LINE
  5
11A78
  8
AM_0
 10
189.68894480307421
 20
573.81072976974804
 30
0.0
 11
189.68894480307421
 21
571.76072676974798
 31
0.0
  0
ARC
  5
11A79
  8
AM_0
 10
255.8539548030742
 20
524.91071476974821
 30
0.0
 40
1.3300000000000001
 50
270.00000299999761
 51
90.0
  0
ARC
  5
11A7A
  8
AM_0
 10
254.63263480307421
 20
524.90071476974811
 30
0.0
 40
1.000035999999999
 50
269.50071600000012
 51
90.499290000001622
  0
ARC
  5
11A7B
  8
AM_0
 10
254.63391480307419
 20
534.90072476974785
 30
0.0
 40
1.0000040999999991
 50
270.00000299999761
 51
90.0
  0
ARC
  5
11A7C
  8
AM_0
 10
255.7239448030742
 20
534.92073476974804
 30
0.0
 40
1.4599999999999991
 50
270.00000299999761
 51
90.0
  0
ARC
  5
11A7D
  8
AM_0
 10
252.03076480307431
 20
544.90073476974806
 30
0.0
 40
1.000031899999998
 50
270.46929999999787
 51
89.530700000002156
  0
ARC
  5
11A7E
  8
AM_0
 10
255.5089448030742
 20
544.94573476974813
 30
0.0
 40
1.675
 50
269.99999700000228
 51
90.0
  0
LINE
  5
11A7F
  8
AM_0
 10
258.68894480307421
 20
547.05073476974815
 30
0.0
 11
266.6889335364238
 21
547.04069976972505
 31
0.0
  0
LINE
  5
11A80
  8
AM_0
 10
255.4989648030743
 20
568.820739769748
 30
0.0
 11
256.93897480307407
 21
562.12074276974806
 31
0.0
  0
LINE
  5
11A81
  8
AM_0
 10
253.42896480307411
 20
570.28073876974781
 30
0.0
 11
256.88895480307428
 21
557.36073276974776
 31
0.0
  0
LINE
  5
11A82
  8
AM_0
 10
258.39896480307431
 20
560.93072476974805
 30
0.0
 11
255.98896480307431
 21
560.93072476974805
 31
0.0
  0
ARC
  5
11A83
  8
AM_0
 10
258.33426480307418
 20
557.74672676974785
 30
0.0
 40
1.495995999999999
 50
194.95233999999431
 51
270.17829300000028
  0
ARC
  5
11A84
  8
AM_0
 10
258.39603480307431
 20
562.43006076974814
 30
0.0
 40
1.499328
 50
191.90615999999929
 51
270.11184899999989
  0
LINE
  5
11A85
  8
AM_0
 10
259.68894480307432
 20
561.94073476974802
 30
0.0
 11
266.68891698085707
 21
561.94070976971614
 31
0.0
  0
ARC
  5
11A86
  8
AM_0
 10
259.68842480307421
 20
560.94125376974785
 30
0.0
 40
0.9994760199999999
 50
89.970079999999697
 51
180.0299099999979
  0
LINE
  5
11A87
  8
AM_0
 10
253.39893480307421
 20
570.40073376974783
 30
0.0
 11
258.68894480307421
 21
570.40073376974783
 31
0.0
  0
ARC
  5
11A88
  8
AM_0
 10
251.49436480307421
 20
569.75631676974774
 30
0.0
 40
2.0044159999999991
 50
15.16665999999886
 51
89.868520000001254
  0
ARC
  5
11A89
  8
AM_0
 10
253.5382748030743
 20
568.39419576974819
 30
0.0
 40
2.0065319999999991
 50
12.27313000000388
 51
89.980730000003206
  0
LINE
  5
11A8A
  8
AM_0
 10
259.68894480307432
 20
573.9006997697478
 30
0.0
 11
266.6889748030743
 21
573.9006997697478
 31
0.0
  0
ARC
  5
11A8B
  8
AM_0
 10
259.68912480307432
 20
572.90050876974794
 30
0.0
 40
1.000179999999999
 50
90.010320000000135
 51
179.98968999999451
  0
LINE
  5
11A8C
  8
AM_0
 10
450.68900968669362
 20
456.90071319022479
 30
0.0
 11
375.68900745151939
 21
456.90071319022479
 31
0.0
  0
LINE
  5
11A8D
  8
AM_0
 10
450.68900968669362
 20
562.90072397866572
 30
0.0
 11
375.68900745151939
 21
562.90072397866572
 31
0.0
  0
LINE
  5
11A8E
  8
AM_0
 10
450.68900968669362
 20
456.90071319022479
 30
0.0
 11
450.68900968669362
 21
460.90071330943402
 31
0.0
  0
LINE
  5
11A8F
  8
AM_0
 10
435.68900923965879
 20
455.90071476974799
 30
0.0
 11
435.68900923965879
 21
456.90071319022479
 31
0.0
  0
LINE
  5
11A90
  8
AM_0
 10
450.68900968669362
 20
562.90072397866572
 30
0.0
 11
450.68900968669362
 21
558.90072385945643
 31
0.0
  0
LINE
  5
11A91
  8
AM_0
 10
435.68900923965879
 20
563.90071476974765
 30
0.0
 11
435.68900923965879
 21
562.90072397866572
 31
0.0
  0
LINE
  5
11A92
  8
AM_0
 10
390.68900789855422
 20
455.90071476974799
 30
0.0
 11
390.68900789855422
 21
456.90071319022479
 31
0.0
  0
LINE
  5
11A93
  8
AM_0
 10
375.68900745151939
 20
456.90071319022479
 30
0.0
 11
375.68900745151939
 21
460.90071330943402
 31
0.0
  0
LINE
  5
11A94
  8
AM_0
 10
390.68900789855422
 20
563.90071476974765
 30
0.0
 11
390.68900789855422
 21
562.90072397866572
 31
0.0
  0
LINE
  5
11A95
  8
AM_0
 10
375.68900745151939
 20
562.90072397866572
 30
0.0
 11
375.68900745151939
 21
558.90072385945643
 31
0.0
  0
LINE
  5
11A96
  8
AM_0
 10
376.68900856910631
 20
449.90071476974782
 30
0.0
 11
376.68900856910631
 21
455.90071476974799
 31
0.0
  0
LINE
  5
11A97
  8
AM_0
 10
377.68900856910619
 20
448.90071476974782
 30
0.0
 11
376.68900856910631
 21
449.90071476974782
 31
0.0
1001
GENIUS_GENFIL_13
1070
     0
1040
1.0
1040
1.0
1040
20.0
1040
0.0
1002
{
1002
}
1001
GENIUS_GENOBJ-N-CHA_13
1002
{
1000
OWNER
1000
GEN
1002
}
1001
GENIUS_GENODEF_13
1002
{
1000
HIER
1070
     0
1002
}
1002
{
1000
MANEDIT
1070
     0
1002
}
1002
{
1000
NOSEL
1070
     0
1002
}
1002
{
1000
BEHIND
1070
     0
1002
}
1002
{
1000
OTHER
1070
     0
1002
}
1002
{
1000
REACTOR
1002
}
  0
LINE
  5
11A98
  8
AM_0
 10
448.68903908668432
 20
448.90071476974782
 30
0.0
 11
377.68900856910619
 21
448.90071476974782
 31
0.0
  0
LINE
  5
11A99
  8
AM_0
 10
449.68903908668432
 20
449.90071476974782
 30
0.0
 11
448.68903908668432
 21
448.90071476974782
 31
0.0
1001
GENIUS_GENFIL_13
1070
     0
1040
1.0
1040
1.0
1040
20.0
1040
0.0
1002
{
1002
}
1001
GENIUS_GENOBJ-N-CHA_13
1002
{
1000
OWNER
1000
GEN
1002
}
1001
GENIUS_GENODEF_13
1002
{
1000
HIER
1070
     0
1002
}
1002
{
1000
MANEDIT
1070
     0
1002
}
1002
{
1000
NOSEL
1070
     0
1002
}
1002
{
1000
BEHIND
1070
     0
1002
}
1002
{
1000
OTHER
1070
     0
1002
}
1002
{
1000
REACTOR
1002
}
  0
LINE
  5
11A9A
  8
AM_0
 10
433.68903908668688
 20
448.40071476974799
 30
0.0
 11
392.68900856910921
 21
448.40071476974799
 31
0.0
  0
LINE
  5
11A9B
  8
AM_0
 10
392.18900856910921
 20
448.90071476974782
 30
0.0
 11
392.68900856910921
 21
448.40071476974799
 31
0.0
1001
GENIUS_GENFIL_13
1070
     0
1040
0.5
1040
0.5
1040
20.0
1040
0.0
1002
{
1002
}
1001
GENIUS_GENODEF_13
1002
{
1000
HIER
1070
     0
1002
}
1002
{
1000
MANEDIT
1070
     0
1002
}
1002
{
1000
NOSEL
1070
     0
1002
}
1002
{
1000
BEHIND
1070
     0
1002
}
1002
{
1000
OTHER
1070
     0
1002
}
1002
{
1000
REACTOR
1002
}
1001
GENIUS_GENOBJ-N-CHA_13
1002
{
1000
OWNER
1000
GEN
1002
}
  0
LINE
  5
11A9C
  8
AM_0
 10
434.1890390866871
 20
448.90071476974782
 30
0.0
 11
433.68903908668688
 21
448.40071476974799
 31
0.0
1001
GENIUS_GENFIL_13
1070
     0
1040
0.5
1040
0.5
1040
20.0
1040
0.0
1002
{
1002
}
1001
GENIUS_GENOBJ-N-CHA_13
1002
{
1000
OWNER
1000
GEN
1002
}
1001
GENIUS_GENODEF_13
1002
{
1000
HIER
1070
     0
1002
}
1002
{
1000
MANEDIT
1070
     0
1002
}
1002
{
1000
NOSEL
1070
     0
1002
}
1002
{
1000
BEHIND
1070
     0
1002
}
1002
{
1000
OTHER
1070
     0
1002
}
1002
{
1000
REACTOR
1002
}
  0
LINE
  5
11A9D
  8
AM_0
 10
449.68903908668432
 20
449.90071476974782
 30
0.0
 11
449.68903908668432
 21
455.90071476974799
 31
0.0
  0
LINE
  5
11A9E
  8
AM_0
 10
376.68900856910631
 20
455.90071476974799
 30
0.0
 11
449.68903908668432
 21
455.90071476974799
 31
0.0
  0
LINE
  5
11A9F
  8
AM_0
 10
433.68903908668329
 20
571.40071476974822
 30
0.0
 11
434.18903908668352
 21
570.90071476974822
 31
0.0
1001
GENIUS_GENFIL_13
1070
     0
1040
0.5
1040
0.5
1040
20.0
1040
0.0
1002
{
1002
}
1001
GENIUS_GENOBJ-N-CHA_13
1002
{
1000
OWNER
1000
GEN
1002
}
1001
GENIUS_GENODEF_13
1002
{
1000
HIER
1070
     0
1002
}
1002
{
1000
MANEDIT
1070
     0
1002
}
1002
{
1000
NOSEL
1070
     0
1002
}
1002
{
1000
BEHIND
1070
     0
1002
}
1002
{
1000
OTHER
1070
     0
1002
}
1002
{
1000
REACTOR
1002
}
  0
LINE
  5
11AA0
  8
AM_0
 10
392.68900856910568
 20
571.40071476974765
 30
0.0
 11
392.18900856910568
 21
570.90071476974765
 31
0.0
1001
GENIUS_GENFIL_13
1070
     0
1040
0.5
1040
0.5
1040
20.0
1040
0.0
1002
{
1002
}
1001
GENIUS_GENOBJ-N-CHA_13
1002
{
1000
OWNER
1000
GEN
1002
}
1001
GENIUS_GENODEF_13
1002
{
1000
HIER
1070
     0
1002
}
1002
{
1000
MANEDIT
1070
     0
1002
}
1002
{
1000
NOSEL
1070
     0
1002
}
1002
{
1000
BEHIND
1070
     0
1002
}
1002
{
1000
OTHER
1070
     0
1002
}
1002
{
1000
REACTOR
1002
}
  0
LINE
  5
11AA1
  8
AM_0
 10
376.68900856910523
 20
569.90071476974788
 30
0.0
 11
376.68900856910562
 21
563.90071476974765
 31
0.0
  0
LINE
  5
11AA2
  8
AM_0
 10
377.68900856910523
 20
570.90071476974765
 30
0.0
 11
376.68900856910523
 21
569.90071476974788
 31
0.0
1001
GENIUS_GENFIL_13
1070
     0
1040
1.0
1040
1.0
1040
20.0
1040
0.0
1002
{
1002
}
1001
GENIUS_GENODEF_13
1002
{
1000
HIER
1070
     0
1002
}
1002
{
1000
MANEDIT
1070
     0
1002
}
1002
{
1000
NOSEL
1070
     0
1002
}
1002
{
1000
BEHIND
1070
     0
1002
}
1002
{
1000
OTHER
1070
     0
1002
}
1002
{
1000
REACTOR
1002
}
1001
GENIUS_GENOBJ-N-CHA_13
1002
{
1000
OWNER
1000
GEN
1002
}
  0
LINE
  5
11AA3
  8
AM_0
 10
448.68903908668318
 20
570.90071476974845
 30
0.0
 11
377.68900856910523
 21
570.90071476974765
 31
0.0
  0
LINE
  5
11AA4
  8
AM_0
 10
433.68903908668329
 20
571.40071476974822
 30
0.0
 11
392.68900856910568
 21
571.40071476974765
 31
0.0
  0
LINE
  5
11AA5
  8
AM_0
 10
449.68903908668301
 20
569.90071476974845
 30
0.0
 11
449.68903908668358
 21
563.90071476974845
 31
0.0
  0
LINE
  5
11AA6
  8
AM_0
 10
448.68903908668318
 20
570.90071476974845
 30
0.0
 11
449.68903908668301
 21
569.90071476974845
 31
0.0
1001
GENIUS_GENFIL_13
1070
     0
1040
1.0
1040
1.0
1040
20.0
1040
0.0
1002
{
1002
}
1001
GENIUS_GENODEF_13
1002
{
1000
HIER
1070
     0
1002
}
1002
{
1000
MANEDIT
1070
     0
1002
}
1002
{
1000
NOSEL
1070
     0
1002
}
1002
{
1000
BEHIND
1070
     0
1002
}
1002
{
1000
OTHER
1070
     0
1002
}
1002
{
1000
REACTOR
1002
}
1001
GENIUS_GENOBJ-N-CHA_13
1002
{
1000
OWNER
1000
GEN
1002
}
  0
LINE
  5
11AA7
  8
AM_0
 10
376.68900856910631
 20
563.90071476974765
 30
0.0
 11
449.68903908668432
 21
563.90071476974765
 31
0.0
  0
LINE
  5
11DBC
  8
AM_0
 10
104.18891480307509
 20
457.83931576097598
 30
0.0
 11
104.18891480307479
 21
495.56160267573352
 31
0.0
  0
LINE
  5
11DBD
  8
AM_0
 10
95.188914803074226
 20
455.90071926974809
 30
0.0
 11
95.188914803074226
 21
563.90071926974815
 31
0.0
  0
LINE
  5
11DBE
  8
AM_0
 10
95.188914803074226
 20
455.90071926974809
 30
0.0
 11
112.1889148030742
 21
456.90071926974821
 31
0.0
  0
LINE
  5
11DBF
  8
AM_0
 10
95.188914803074226
 20
563.9007192697477
 30
0.0
 11
112.1889148030742
 21
562.90071926974781
 31
0.0
  0
LINE
  5
11DC0
  8
AM_0
 10
104.18891480307499
 20
466.30681607165673
 30
0.0
 11
112.1889148030742
 21
466.30681607165673
 31
0.0
  0
LINE
  5
11DC1
  8
AM_0
 10
104.18891480307509
 20
457.83931576097598
 30
0.0
 11
112.1889148030742
 21
457.83931576097598
 31
0.0
  0
LINE
  5
11DC2
  8
AM_0
 10
100.68891480307499
 20
475.25984630448801
 30
0.0
 11
104.18891480307499
 21
475.25984630448801
 31
0.0
  0
LINE
  5
11DC3
  8
AM_0
 10
100.68891480307499
 20
466.75984630448801
 30
0.0
 11
104.18891480307509
 21
466.75984630448801
 31
0.0
  0
LINE
  5
11DC4
  8
AM_0
 10
100.18891480307499
 20
467.25984630448801
 30
0.0
 11
100.18891480307499
 21
474.75984630448772
 31
0.0
  0
ARC
  5
11DC5
  8
AM_0
 10
100.68891480307499
 20
467.25984630448801
 30
0.0
 40
0.5
 50
180.0
 51
270.0
  0
ARC
  5
11DC6
  8
AM_0
 10
100.68891480307499
 20
474.75984630448772
 30
0.0
 40
0.5
 50
90.0
 51
180.0
  0
LINE
  5
11DC7
  8
AM_0
 10
95.188914803074226
 20
467.62852477660778
 30
0.0
 11
100.18891480307499
 21
467.62852477660772
 31
0.0
  0
LINE
  5
11DC8
  8
AM_0
 10
95.188914803074226
 20
477.36360727490381
 30
0.0
 11
104.18891480307489
 21
477.36360727490381
 31
0.0
  0
LINE
  5
11DC9
  8
AM_0
 10
104.18891480307509
 20
561.96212277851998
 30
0.0
 11
104.18891480307479
 21
524.23983586376744
 31
0.0
  0
LINE
  5
11DCA
  8
AM_0
 10
104.18891480307499
 20
553.49462246783924
 30
0.0
 11
112.1889148030742
 21
553.49462246783924
 31
0.0
  0
LINE
  5
11DCB
  8
AM_0
 10
104.18891480307509
 20
561.96212277851998
 30
0.0
 11
112.1889148030742
 21
561.96212277851998
 31
0.0
  0
LINE
  5
11DCC
  8
AM_0
 10
100.68891480307499
 20
544.54159223500812
 30
0.0
 11
104.18891480307499
 21
544.54159223500812
 31
0.0
  0
LINE
  5
11DCD
  8
AM_0
 10
100.68891480307499
 20
553.04159223500812
 30
0.0
 11
104.18891480307509
 21
553.04159223500812
 31
0.0
  0
LINE
  5
11DCE
  8
AM_0
 10
100.18891480307499
 20
552.54159223500812
 30
0.0
 11
100.18891480307499
 21
545.04159223500812
 31
0.0
  0
ARC
  5
11DCF
  8
AM_0
 10
100.68891480307499
 20
552.54159223500812
 30
0.0
 40
0.5
 50
90.0
 51
180.0
  0
ARC
  5
11DD0
  8
AM_0
 10
100.68891480307499
 20
545.04159223500812
 30
0.0
 40
0.5
 50
180.0
 51
270.0
  0
LINE
  5
11DD1
  8
AM_0
 10
95.188914803074226
 20
552.17291376288802
 30
0.0
 11
100.18891480307499
 21
552.17291376288836
 31
0.0
  0
LINE
  5
11DD2
  8
AM_0
 10
95.188914803074226
 20
542.43783126459221
 30
0.0
 11
104.18891480307489
 21
542.43783126459221
 31
0.0
  0
LINE
  5
11DD3
  8
AM_0
 10
60.278330051738642
 20
473.91030842482201
 30
0.0
 11
60.278330051738642
 21
480.42191332378059
 31
0.0
  0
LINE
  5
11DD4
  8
AM_0
 10
57.188914803073999
 20
520.90071926974815
 30
0.0
 11
57.188914803073999
 21
526.40071926974815
 31
0.0
  0
LINE
  5
11DD5
  8
AM_0
 10
62.688914803073999
 20
513.40071926974815
 30
0.0
 11
62.688914803073999
 21
506.40071926974809
 31
0.0
  0
LINE
  5
11DD6
  8
AM_0
 10
74.388914803074044
 20
526.40071926974815
 30
0.0
 11
57.188914803073999
 21
526.40071926974815
 31
0.0
  0
LINE
  5
11DD7
  8
AM_0
 10
89.188914803074113
 20
563.90071926974815
 30
0.0
 11
89.188914803073985
 21
455.90071926974781
 31
0.0
  0
LINE
  5
11DD8
  8
AM_0
 10
57.188914803073999
 20
511.40071926974809
 30
0.0
 11
58.088914803074083
 21
511.40071926974809
 31
0.0
  0
LINE
  5
11DD9
  8
AM_0
 10
74.688914803073999
 20
518.40071926974815
 30
0.0
 11
74.688914803073999
 21
515.81620958514384
 31
0.0
  0
LINE
  5
11DDA
  8
AM_0
 10
54.988914803073719
 20
508.40071926974792
 30
0.0
 11
54.988914803073719
 21
511.40071926974809
 31
0.0
  0
LINE
  5
11DDB
  8
AM_0
 10
58.088914803074083
 20
511.67307100433169
 30
0.0
 11
58.088914803074083
 21
508.12836753516427
 31
0.0
  0
LINE
  5
11DDC
  8
AM_0
 10
54.688914803073999
 20
508.70071926974799
 30
0.0
 11
58.088914803074083
 21
508.70071926974799
 31
0.0
  0
LINE
  5
11DDD
  8
AM_0
 10
62.08891480307409
 20
512.28228913015505
 30
0.0
 11
62.08891480307409
 21
513.40071926974815
 31
0.0
  0
LINE
  5
11DDE
  8
AM_0
 10
62.08891480307409
 20
511.40071926974809
 30
0.0
 11
62.08891480307409
 21
511.500719269748
 31
0.0
  0
LINE
  5
11DDF
  8
AM_0
 10
62.08891480307409
 20
511.500719269748
 30
0.0
 11
62.08891480307409
 21
512.28228913015505
 31
0.0
  0
LINE
  5
11DE0
  8
AM_0
 10
57.188914803073999
 20
526.40071926974815
 30
0.0
 11
57.188914803073999
 21
534.63825327917039
 31
0.0
  0
LINE
  5
11DE1
  8
AM_0
 10
74.542468193667332
 20
515.46265619455073
 30
0.0
 11
74.187401067479072
 21
515.10758906836259
 31
0.0
  0
LINE
  5
11DE2
  8
AM_0
 10
57.188914803073999
 20
508.40071926974792
 30
0.0
 11
57.188914803073999
 21
485.16318526032558
 31
0.0
  0
LINE
  5
11DE3
  8
AM_0
 10
89.188914803073985
 20
464.90071926974798
 30
0.0
 11
65.418906102441383
 21
464.90071926974798
 31
0.0
  0
LINE
  5
11DE4
  8
AM_0
 10
57.188914803073999
 20
519.97431609402713
 30
0.0
 11
57.188914803073999
 21
511.40071926974809
 31
0.0
  0
LINE
  5
11DE5
  8
AM_0
 10
95.188914803074226
 20
455.90071926974781
 30
0.0
 11
89.188914803073985
 21
455.90071926974781
 31
0.0
  0
LINE
  5
11DE6
  8
AM_0
 10
89.188914803073985
 20
563.90071926974815
 30
0.0
 11
95.188914803073999
 21
563.90071926974815
 31
0.0
  0
LINE
  5
11DE7
  8
AM_0
 10
89.188914803073985
 20
554.90071926974815
 30
0.0
 11
63.232753310775351
 21
554.90071926974815
 31
0.0
  0
LINE
  5
11DE8
  8
AM_0
 10
57.234491544037489
 20
484.64224072732492
 30
0.0
 11
59.803934991699741
 21
470.07020281606123
 31
0.0
  0
LINE
  5
11DE9
  8
AM_0
 10
57.188914803073999
 20
519.97431609402713
 30
0.0
 11
57.188914803073999
 21
520.90071926974815
 31
0.0
  0
LINE
  5
11DEA
  8
AM_0
 10
57.234491544037489
 20
535.15919781217121
 30
0.0
 11
60.278330051738642
 21
552.42166380274875
 31
0.0
  0
LINE
  5
11DEB
  8
AM_0
 10
57.188914803073999
 20
534.90071926974815
 30
0.0
 11
57.234491544037489
 21
535.15919781217121
 31
0.0
  0
LINE
  5
11DEC
  8
AM_0
 10
57.188914803073999
 20
534.63825327917039
 30
0.0
 11
57.188914803073999
 21
534.90071926974815
 31
0.0
  0
LINE
  5
11DED
  8
AM_0
 10
56.688876135067183
 20
456.40071926974809
 30
0.0
 11
56.68885368266853
 21
429.40071926974781
 31
0.0
  0
LINE
  5
11DEE
  8
AM_0
 10
56.68885368266853
 20
429.40071926974781
 30
0.0
 11
64.688853682671152
 21
429.40071926974781
 31
0.0
  0
LINE
  5
11DEF
  8
AM_0
 10
64.688853682671152
 20
429.40071926974781
 30
0.0
 11
66.188849027491983
 21
423.80266043175919
 31
0.0
  0
LINE
  5
11DF0
  8
AM_0
 10
66.188849027491983
 20
423.80266043175919
 30
0.0
 11
66.188834264131742
 21
406.04906815186899
 31
0.0
  0
LINE
  5
11DF1
  8
AM_0
 10
56.68885368266853
 20
429.40071926974781
 30
0.0
 11
55.188849027459462
 21
423.80262568491821
 31
0.0
  0
LINE
  5
11DF2
  8
AM_0
 10
55.188849027459462
 20
423.80262568491821
 30
0.0
 11
55.188834264135487
 21
406.04907729914271
 31
0.0
  0
LINE
  5
11DF3
  8
AM_0
 10
60.688876135068419
 20
406.04907729914271
 30
0.0
 11
60.688876135068419
 21
423.80262568491821
 31
0.0
  0
LINE
  5
11DF4
  8
AM_0
 10
64.688853682671152
 20
429.40071926974781
 30
0.0
 11
64.688876135070018
 21
456.40071926974809
 31
0.0
  0
LINE
  5
11DF5
  8
AM_0
 10
74.688914803074113
 20
480.42191332378059
 30
0.0
 11
74.688914803073999
 21
526.1007192697482
 31
0.0
  0
LINE
  5
11DF6
  8
AM_0
 10
62.688914803073999
 20
515.81620958514384
 30
0.0
 11
62.688914803073999
 21
518.40071926974815
 31
0.0
  0
LINE
  5
11DF7
  8
AM_0
 10
63.190428538669138
 20
515.10758906836259
 30
0.0
 11
62.835361412480879
 21
515.46265619455073
 31
0.0
  0
LINE
  5
11DF8
  8
AM_0
 10
74.188914803073999
 20
518.90071926974815
 30
0.0
 11
63.188914803073992
 21
518.90071926974815
 31
0.0
  0
LINE
  5
11DF9
  8
AM_0
 10
54.18887696657314
 20
457.4007246749552
 30
0.0
 11
54.18890399260853
 21
462.4007246749552
 31
0.0
  0
LINE
  5
11DFA
  8
AM_0
 10
67.188876966704697
 20
457.4007138645411
 30
0.0
 11
67.188902894524404
 21
462.19753651791171
 31
0.0
  0
LINE
  5
11DFB
  8
AM_0
 10
57.809418055154993
 20
464.40071926974809
 30
0.0
 11
57.237856153789721
 21
463.74413544768771
 31
0.0
  0
LINE
  5
11DFC
  8
AM_0
 10
55.188903992593957
 20
463.40071926974781
 30
0.0
 11
66.188902894524404
 21
463.40071926974781
 31
0.0
  0
LINE
  5
11DFD
  8
AM_0
 10
67.188902894524404
 20
462.19753651791171
 30
0.0
 11
67.188902894524404
 21
462.40071926974792
 31
0.0
  0
LINE
  5
11DFE
  8
AM_0
 10
67.188902894524404
 20
462.19753651791171
 30
0.0
 11
67.18890399274018
 21
462.4007138645411
 31
0.0
  0
LINE
  5
11DFF
  8
AM_0
 10
55.188876966558489
 20
456.40071926974809
 30
0.0
 11
66.188876966719249
 21
456.40071926974809
 31
0.0
  0
LINE
  5
11E00
  8
AM_0
 10
65.196350765236289
 20
464.3701321994626
 30
0.0
 11
72.319150498581735
 21
481.35137151820948
 31
0.0
  0
LINE
  5
11E01
  8
AM_0
 10
57.809418055154993
 20
464.40071926974809
 30
0.0
 11
64.386133130465282
 21
483.09525990015032
 31
0.0
  0
LINE
  5
11E02
  8
AM_0
 10
62.08891480307409
 20
511.40071926974809
 30
0.0
 11
62.08891480307409
 21
511.500719269748
 31
0.0
  0
LINE
  5
11E03
  8
AM_0
 10
62.08891480307409
 20
511.500719269748
 30
0.0
 11
62.08891480307409
 21
512.28228913015505
 31
0.0
  0
LINE
  5
11E04
  8
AM_0
 10
62.08891480307409
 20
513.40071926974815
 30
0.0
 11
62.688914803073999
 21
513.40071926974815
 31
0.0
  0
LINE
  5
11E05
  8
AM_0
 10
59.388914803074037
 20
512.28228913015505
 30
0.0
 11
59.388914803074037
 21
507.51914940934091
 31
0.0
  0
LINE
  5
11E06
  8
AM_0
 10
59.227870573816631
 20
512.56898075849813
 30
0.0
 11
58.295317524309318
 21
512.0305710043317
 31
0.0
  0
LINE
  5
11E07
  8
AM_0
 10
62.08891480307409
 20
506.40071926974809
 30
0.0
 11
62.08891480307409
 21
511.40071926974809
 31
0.0
  0
LINE
  5
11E08
  8
AM_0
 10
59.661366395104658
 20
513.07614575029095
 30
0.0
 11
61.81646321104347
 21
513.07614575029095
 31
0.0
  0
LINE
  5
11E09
  8
AM_0
 10
59.661366395104658
 20
511.48843251001909
 30
0.0
 11
61.81646321104347
 21
511.48843251001909
 31
0.0
  0
LINE
  5
11E0A
  8
AM_0
 10
58.088914803074083
 20
508.40071926974792
 30
0.0
 11
54.988914803073719
 21
508.40071926974792
 31
0.0
  0
LINE
  5
11E0B
  8
AM_0
 10
54.988914803073719
 20
508.40071926974792
 30
0.0
 11
54.688914803073999
 21
508.70071926974799
 31
0.0
  0
LINE
  5
11E0C
  8
AM_0
 10
54.688914803073999
 20
508.70071926974799
 30
0.0
 11
54.688914803073999
 21
511.10071926974803
 31
0.0
  0
LINE
  5
11E0D
  8
AM_0
 10
54.988914803073719
 20
511.40071926974809
 30
0.0
 11
57.188914803073999
 21
511.40071926974809
 31
0.0
  0
LINE
  5
11E0E
  8
AM_0
 10
54.688914803073999
 20
511.10071926974803
 30
0.0
 11
54.988914803073719
 21
511.40071926974809
 31
0.0
  0
LINE
  5
11E0F
  8
AM_0
 10
58.088914803074083
 20
511.10071926974803
 30
0.0
 11
54.688914803073999
 21
511.10071926974803
 31
0.0
  0
ARC
  5
11E10
  8
AM_0
 10
56.688914803073999
 20
509.90071926974809
 30
0.0
 40
18.000000000000071
 50
344.79096035989232
 51
15.20903964011433
  0
ARC
  5
11E11
  8
AM_0
 10
60.796137987047473
 20
512.28228913015505
 30
0.0
 40
1.292776816026465
 50
0.0
 51
37.884441053695141
  0
ARC
  5
11E12
  8
AM_0
 10
80.688914803073985
 20
509.90071926974809
 30
0.0
 40
17.999999999999918
 50
164.79096035988559
 51
195.2090396401143
  0
ARC
  5
11E13
  8
AM_0
 10
60.688841209114912
 20
414.40071926974809
 30
0.0
 40
10.0
 50
236.6329393852977
 51
303.36696532376283
  0
ARC
  5
11E14
  8
AM_0
 10
57.938855199602017
 20
410.48172565874847
 30
0.0
 40
5.2164151124522951
 50
238.18448044843089
 51
301.8155195515692
  0
ARC
  5
11E15
  8
AM_0
 10
63.438862573236641
 20
410.48260054950862
 30
0.0
 40
5.2171403873810611
 50
238.18986771264341
 51
301.8099417040292
  0
ARC
  5
11E16
  8
AM_0
 10
57.938862581264068
 20
422.43467167057543
 30
0.0
 40
3.0714610092699122
 50
26.447376724217548
 51
153.55262327578239
  0
ARC
  5
11E17
  8
AM_0
 10
63.438871212635263
 20
422.43641187527061
 30
0.0
 40
3.070669812974502
 50
26.419181894792899
 51
153.581542053269
  0
ARC
  5
11E18
  8
AM_0
 10
64.151344679133771
 20
509.90071926974809
 30
0.0
 40
4.762429876059711
 50
160.52575999458639
 51
199.47424000541341
  0
ARC
  5
11E19
  8
AM_0
 10
60.681691619100647
 20
512.28228913015505
 30
0.0
 40
1.292776816026554
 50
142.11555894630479
 51
217.8844410537028
  0
ARC
  5
11E1A
  8
AM_0
 10
57.326484927014569
 20
509.90071926974809
 30
0.0
 40
4.762429876059584
 50
340.52575999458651
 51
19.474240005413542
  0
ARC
  5
11E1B
  8
AM_0
 10
60.796137987047473
 20
512.28228913015505
 30
0.0
 40
1.292776816026501
 50
322.1155589462972
 51
0.0
  0
ARC
  5
11E1C
  8
AM_0
 10
74.388914803074044
 20
526.1007192697482
 30
0.0
 40
0.2999999999999972
 50
0.0
 51
90.0
  0
ARC
  5
11E1D
  8
AM_0
 10
74.540954458072406
 20
514.75403567776914
 30
0.0
 40
0.4999999999998723
 50
134.99999999998161
 51
195.2090396401006
  0
ARC
  5
11E1E
  8
AM_0
 10
60.188914803073999
 20
534.63825327917039
 30
0.0
 40
3.0
 50
170.00000000000139
 51
180.0
  0
ARC
  5
11E1F
  8
AM_0
 10
60.188914803073999
 20
485.16318526032558
 30
0.0
 40
2.9999999999999911
 50
180.0
 51
189.99999999999861
  0
ARC
  5
11E20
  8
AM_0
 10
63.232753310775138
 20
551.90071926974815
 30
0.0
 40
2.9999999999999631
 50
90.0
 51
170.00000000000139
  0
ARC
  5
11E21
  8
AM_0
 10
63.188914803073992
 20
518.40071926974815
 30
0.0
 40
0.5
 50
90.0
 51
180.0
  0
ARC
  5
11E22
  8
AM_0
 10
74.188914803073999
 20
518.40071926974815
 30
0.0
 40
0.5
 50
0.0
 51
90.0
  0
ARC
  5
11E23
  8
AM_0
 10
74.188914803073999
 20
515.81620958514384
 30
0.0
 40
0.5
 50
315.0
 51
0.0
  0
ARC
  5
11E24
  8
AM_0
 10
62.836875148075812
 20
514.75403567776914
 30
0.0
 40
0.5000000000001048
 50
344.7909603598992
 51
45.000000000018417
  0
ARC
  5
11E25
  8
AM_0
 10
63.188914803073992
 20
515.81620958514384
 30
0.0
 40
0.499999999999984
 50
180.0
 51
225.00000000000921
  0
ARC
  5
11E26
  8
AM_0
 10
55.188876966558489
 20
457.40071926974809
 30
0.0
 40
1.0
 50
179.99969030444211
 51
270.0
  0
ARC
  5
11E27
  8
AM_0
 10
66.188876966719249
 20
457.40071926974809
 30
0.0
 40
0.9999999999999992
 50
270.0
 51
359.99969030444879
  0
ARC
  5
11E28
  8
AM_0
 10
55.188903992593957
 20
462.40071926974792
 30
0.0
 40
0.9999999999999992
 50
90.0
 51
179.99969030444211
  0
ARC
  5
11E29
  8
AM_0
 10
66.188902894524404
 20
462.40071926974792
 30
0.0
 40
1.0
 50
0.0
 51
90.0
  0
ARC
  5
11E2A
  8
AM_0
 10
65.669144681609509
 20
464.00071926974778
 30
0.0
 40
0.5999999999999944
 50
141.99805566226991
 51
270.0
  0
ARC
  5
11E2B
  8
AM_0
 10
56.483603089753053
 20
464.40071926974809
 30
0.0
 40
0.9999999999999468
 50
270.0
 51
318.96014689042488
  0
ARC
  5
11E2C
  8
AM_0
 10
58.501720245544561
 20
511.67307100433169
 30
0.0
 40
0.4128054424705855
 50
120.00000000000119
 51
180.0
  0
ARC
  5
11E2D
  8
AM_0
 10
58.815065131345932
 20
513.28398075849805
 30
0.0
 40
0.8256108849411369
 50
300.00000000000119
 51
331.78257540582422
  0
LINE
  5
11E2E
  8
AM_0
 10
57.978649132705527
 20
480.42191332378093
 30
0.0
 11
63.445653282474382
 21
480.42191332378093
 31
0.0
  0
LINE
  5
11E2F
  8
AM_0
 10
71.929288224388188
 20
480.42191332378093
 30
0.0
 11
74.688914803073999
 21
480.42191332378093
 31
0.0
  0
LINE
  5
11E30
  8
AM_0
 10
62.088914803074317
 20
506.40071926974809
 30
0.0
 11
62.68891480307434
 21
506.40071926974809
 31
0.0
  0
LINE
  5
11E31
  8
AM_0
 10
59.227870573816858
 20
507.23245778099772
 30
0.0
 11
58.29531752430956
 21
507.77086753516431
 31
0.0
  0
LINE
  5
11E32
  8
AM_0
 10
59.661366395104892
 20
506.72529278920513
 30
0.0
 11
61.816463211043697
 21
506.72529278920513
 31
0.0
  0
LINE
  5
11E33
  8
AM_0
 10
59.661366395104658
 20
508.31300602947641
 30
0.0
 11
61.816463211043697
 21
508.3130060294767
 31
0.0
  0
ARC
  5
11E34
  8
AM_0
 10
60.7961379870477
 20
507.51914940934091
 30
0.0
 40
1.292776816026465
 50
322.11555894631351
 51
0.0000000000065138
  0
ARC
  5
11E35
  8
AM_0
 10
60.681691619100768
 20
507.51914940934091
 30
0.0
 40
1.292776816026554
 50
142.11555894630479
 51
217.8844410537028
  0
ARC
  5
11E36
  8
AM_0
 10
60.7961379870477
 20
507.51914940934091
 30
0.0
 40
1.292776816026501
 50
0.0000000000065138
 51
37.884441053711413
  0
ARC
  5
11E37
  8
AM_0
 10
58.501720245544789
 20
508.12836753516427
 30
0.0
 40
0.4128054424705855
 50
180.00000000000659
 51
240.00000000000909
  0
ARC
  5
11E38
  8
AM_0
 10
58.815065131346159
 20
506.5174577809978
 30
0.0
 40
0.8256108849411369
 50
28.217424594182958
 51
59.999999999998721
  0
LINE
  5
11E39
  8
AM_0
 10
74.688914803074681
 20
501.40071926974849
 30
0.0
 11
74.688914803074454
 21
503.98522895435241
 31
0.0
  0
LINE
  5
11E3A
  8
AM_0
 10
74.542468193667787
 20
504.3387823449458
 30
0.0
 11
74.187401067479499
 21
504.69384947113417
 31
0.0
  0
LINE
  5
11E3B
  8
AM_0
 10
62.688914803074447
 20
503.98522895435161
 30
0.0
 11
62.688914803074681
 21
501.40071926974781
 31
0.0
  0
LINE
  5
11E3C
  8
AM_0
 10
63.190428538669387
 20
504.69384947113332
 30
0.0
 11
62.83536141248134
 21
504.33878234494517
 31
0.0
  0
LINE
  5
11E3D
  8
AM_0
 10
74.188914803074681
 20
500.90071926974849
 30
0.0
 11
73.7083369172272
 21
500.90071926974849
 31
0.0
  0
LINE
  5
11E3E
  8
AM_0
 10
63.669492688921878
 20
500.90071926974781
 30
0.0
 11
63.188914803074681
 21
500.90071926974781
 31
0.0
  0
ARC
  5
11E3F
  8
AM_0
 10
74.540954458072605
 20
505.04740286172762
 30
0.0
 40
0.4999999999998723
 50
164.79096035990599
 51
225.0000000000276
  0
ARC
  5
11E40
  8
AM_0
 10
63.188914803074681
 20
501.40071926974781
 30
0.0
 40
0.5
 50
180.0
 51
270.00000000000648
  0
ARC
  5
11E41
  8
AM_0
 10
74.188914803074681
 20
501.40071926974849
 30
0.0
 40
0.5
 50
270.00000000000648
 51
0.0
  0
ARC
  5
11E42
  8
AM_0
 10
74.188914803074454
 20
503.98522895435241
 30
0.0
 40
0.5
 50
0.0
 51
45.000000000009209
  0
ARC
  5
11E43
  8
AM_0
 10
62.836875148076047
 20
505.04740286172682
 30
0.0
 40
0.5000000000001048
 50
314.99999999999079
 51
15.20903964010069
  0
ARC
  5
11E44
  8
AM_0
 10
63.188914803074461
 20
503.98522895435161
 30
0.0
 40
0.499999999999984
 50
134.99999999999079
 51
180.0
  0
LINE
  5
11E45
  8
AM_0
 10
64.669492688922105
 20
484.75456787192633
 30
0.0
 11
64.669492688921991
 21
499.90071926974792
 31
0.0
  0
ARC
  5
11E46
  8
AM_0
 10
63.669492688921999
 20
499.90071926974792
 30
0.0
 40
1.0
 50
0.0
 51
90.000000000006509
1001
GENIUS_GENODEF_13
1002
{
1000
HIER
1070
     0
1002
}
1002
{
1000
MANEDIT
1070
     0
1002
}
1002
{
1000
NOSEL
1070
     0
1002
}
1002
{
1000
BEHIND
1070
     0
1002
}
1002
{
1000
OTHER
1070
     0
1002
}
1002
{
1000
REACTOR
1002
}
1001
GENIUS_GENOBJ-N-FIL_13
1002
{
1000
OWNER
1000
GEN
1002
}
  0
ARC
  5
11E47
  8
AM_0
 10
59.669492688922112
 20
484.75456787192633
 30
0.0
 40
5.0
 50
340.6181943009762
 51
0.0
1001
GENIUS_GENOBJ-N-FIL_13
1002
{
1000
OWNER
1000
GEN
1002
}
1001
GENIUS_GENODEF_13
1002
{
1000
HIER
1070
     0
1002
}
1002
{
1000
MANEDIT
1070
     0
1002
}
1002
{
1000
NOSEL
1070
     0
1002
}
1002
{
1000
BEHIND
1070
     0
1002
}
1002
{
1000
OTHER
1070
     0
1002
}
1002
{
1000
REACTOR
1002
}
  0
LINE
  5
11E48
  8
AM_0
 10
72.708336917227228
 20
483.28538240700942
 30
0.0
 11
72.708336917227228
 21
499.90071926974872
 31
0.0
  0
ARC
  5
11E49
  8
AM_0
 10
73.7083369172272
 20
499.90071926974872
 30
0.0
 40
1.0
 50
90.000000000006509
 51
180.0
1001
GENIUS_GENOBJ-N-FIL_13
1002
{
1000
OWNER
1000
GEN
1002
}
1001
GENIUS_GENODEF_13
1002
{
1000
HIER
1070
     0
1002
}
1002
{
1000
MANEDIT
1070
     0
1002
}
1002
{
1000
NOSEL
1070
     0
1002
}
1002
{
1000
BEHIND
1070
     0
1002
}
1002
{
1000
OTHER
1070
     0
1002
}
1002
{
1000
REACTOR
1002
}
  0
ARC
  5
11E4A
  8
AM_0
 10
67.708336917227243
 20
483.28538240700942
 30
0.0
 40
5.0
 50
337.24433268079622
 51
0.0
1001
GENIUS_GENODEF_13
1002
{
1000
HIER
1070
     0
1002
}
1002
{
1000
MANEDIT
1070
     0
1002
}
1002
{
1000
NOSEL
1070
     0
1002
}
1002
{
1000
BEHIND
1070
     0
1002
}
1002
{
1000
OTHER
1070
     0
1002
}
1002
{
1000
REACTOR
1002
}
1001
GENIUS_GENOBJ-N-FIL_13
1002
{
1000
OWNER
1000
GEN
1002
}
  0
LINE
  5
11E4B
  8
AM_0
 10
63.415453649732171
 20
504.91887458219622
 30
0.0
 11
73.96237595641729
 21
504.91887458219622
 31
0.0
  0
LINE
  5
11E4C
  8
AM_0
 10
63.415453649731823
 20
514.88256395729957
 30
0.0
 11
73.962375956416381
 21
514.88256395729957
 31
0.0
  0
LINE
  5
11E4D
  8
AM_0
 10
60.278330051738642
 20
545.89113011467396
 30
0.0
 11
60.278330051738642
 21
526.40071926974815
 31
0.0
  0
LINE
  5
11E4E
  8
AM_0
 10
63.232753310775138
 20
554.90071926974815
 30
0.0
 11
63.232753310775138
 21
526.40071926974815
 31
0.0
  0
LINE
  5
11E4F
  8
AM_0
 10
88.188914803073985
 20
456.10071926974803
 30
0.0
 11
88.188914803073985
 21
463.70071926974782
 31
0.0
  0
LINE
  5
11E50
  8
AM_0
 10
88.188914803073985
 20
463.70071926974782
 30
0.0
 11
89.188914803073985
 21
463.70071926974782
 31
0.0
  0
LINE
  5
11E51
  8
AM_0
 10
89.188914803073985
 20
460.10071926974803
 30
0.0
 11
88.188914803073985
 21
460.4646895040143
 31
0.0
  0
LINE
  5
11E52
  8
AM_0
 10
89.188914803073985
 20
459.70071926974782
 30
0.0
 11
88.188914803073985
 21
460.0646895040141
 31
0.0
  0
LINE
  5
11E53
  8
AM_0
 10
89.188914803073985
 20
456.10071926974803
 30
0.0
 11
88.188914803073985
 21
456.10071926974803
 31
0.0
  0
LINE
  5
11E54
  8
AM_0N
 10
87.129977290946144
 20
463.80807424205449
 30
0.0
 11
88.188914803073985
 21
463.90071926974809
 31
0.0
  0
LINE
  5
11E55
  8
AM_0N
 10
87.129977290946144
 20
455.99336429744147
 30
0.0
 11
88.188914803073985
 21
455.90071926974809
 31
0.0
  0
ARC
  5
11E56
  8
AM_0N
 10
91.588914803074076
 20
459.90071926974809
 30
0.0
 40
6.5
 50
151.82726586813521
 51
208.17273413186479
  0
ARC
  5
11E57
  8
AM_0N
 10
87.269426479342556
 20
457.58727581438842
 30
0.0
 40
1.6000000000000001
 50
208.17273413186479
 51
265.00000000000028
  0
ARC
  5
11E58
  8
AM_0N
 10
87.269426479342556
 20
462.2141627251076
 30
0.0
 40
1.6000000000000001
 50
94.999999999999716
 51
151.82726586813521
  0
LINE
  5
11E59
  8
AM_0N
 10
88.188914803073985
 20
455.90071926974809
 30
0.0
 11
88.188914803073985
 21
463.90071926974809
 31
0.0
  0
LINE
  5
11E5A
  8
AM_0
 10
88.188914803074127
 20
531.16321926974786
 30
0.0
 11
88.188914803074127
 21
538.76321926974811
 31
0.0
  0
LINE
  5
11E5B
  8
AM_0
 10
88.188914803074127
 20
538.76321926974811
 30
0.0
 11
89.188914803074113
 21
538.76321926974811
 31
0.0
  0
LINE
  5
11E5C
  8
AM_0
 10
89.188914803074113
 20
535.16321926974786
 30
0.0
 11
88.188914803074127
 21
535.5271895040139
 31
0.0
  0
LINE
  5
11E5D
  8
AM_0
 10
89.188914803074113
 20
534.76321926974811
 30
0.0
 11
88.188914803074127
 21
535.12718950401427
 31
0.0
  0
LINE
  5
11E5E
  8
AM_0
 10
89.188914803074113
 20
531.16321926974786
 30
0.0
 11
88.188914803074127
 21
531.16321926974786
 31
0.0
  0
LINE
  5
11E5F
  8
AM_0N
 10
87.129977290946272
 20
538.87057424205454
 30
0.0
 11
88.188914803074127
 21
538.96321926974781
 31
0.0
  0
LINE
  5
11E60
  8
AM_0N
 10
87.129977290946272
 20
531.05586429744153
 30
0.0
 11
88.188914803074127
 21
530.96321926974781
 31
0.0
  0
ARC
  5
11E61
  8
AM_0N
 10
91.588914803074204
 20
534.96321926974781
 30
0.0
 40
6.5
 50
151.82726586813521
 51
208.17273413186479
  0
ARC
  5
11E62
  8
AM_0N
 10
87.269426479342656
 20
532.64977581438825
 30
0.0
 40
1.6000000000000001
 50
208.17273413186479
 51
265.00000000000028
  0
ARC
  5
11E63
  8
AM_0N
 10
87.269426479342656
 20
537.2766627251076
 30
0.0
 40
1.6000000000000001
 50
94.999999999999716
 51
151.82726586813521
  0
LINE
  5
11E64
  8
AM_0N
 10
88.188914803074127
 20
530.96321926974781
 30
0.0
 11
88.188914803074127
 21
538.96321926974781
 31
0.0
  0
LINE
  5
11E65
  8
AM_0
 10
112.1889148030742
 20
495.56160267573352
 30
0.0
 11
104.18891480307489
 21
495.56160267573352
 31
0.0
  0
LINE
  5
11E66
  8
AM_0
 10
112.1889148030741
 20
524.23983586376744
 30
0.0
 11
104.1889148030747
 21
524.23983586376744
 31
0.0
  0
TEXT
  5
1236F
  8
AM_0
 10
545.28077592981947
 20
484.91353809687769
 30
0.0
 40
10.0
  1
VC04-010BHW~VC04-060BHW
1001
ACAD
1000
MTEXTBEGIN
1070
    73
1070
     1
1070
    44
1040
1.0
1070
    74
1070
     0
1000
MTEXTEND
  0
VIEWPORT
  5
89
 67
     1
  8
0
 10
210.0
 20
148.5
 30
0.0
 40
420.0
 41
297.0
 68
    -1
 69
     1
1001
ACAD
1000
MVIEW
1002
{
1070
    16
1010
0.0
1020
0.0
1030
0.0
1010
0.0
1020
0.0
1030
1.0
1040
0.0
1040
297.0
1040
221.70154043645701
1040
148.5
1040
50.0
1040
0.0
1040
0.0
1070
     0
1070
   100
1070
     1
1070
     1
1070
     0
1070
     0
1070
     0
1070
     0
1040
0.0
1040
0.0
1040
0.0
1040
10.0
1040
10.0
1040
10.0
1040
10.0
1070
     0
1002
{
1002
}
1002
}
1001
GENIUS_GENOREF_13
1005
1B94
1001
GENIUS_GENSCREG_15
1000
PF
1040
1.0
1000
DF
1040
1.0
1000
MIN
1011
0.0
1021
0.0
1031
0.0
1021
0.0
1031
0.0
1000
MAX
1011
420.0
1021
0.0
1031
0.0
1021
297.0
1031
0.0
1000
FLAGS
1070
     4
  0
ENDSEC
  0
EOF
