  0
SECTION
  2
HEADER
  9
$ACADVER
  1
AC1009
  9
$INSBASE
 10
0.0
 20
0.0
 30
0.0
  9
$EXTMIN
 10
50.624474175783462
 20
158.6637595556524
 30
-0.0015258207003583
  9
$EXTMAX
 10
717.91551997064926
 20
577.59847790528806
 30
0.0000000349246037
  9
$LIMMIN
 10
0.0
 20
0.0
  9
$LIMMAX
 10
853.5
 20
555.00000000000011
  9
$ORTHOMODE
 70
     0
  9
$REGENMODE
 70
     1
  9
$FILLMODE
 70
     1
  9
$QTEXTMODE
 70
     0
  9
$MIRRTEXT
 70
     1
  9
$DRAGMODE
 70
     2
  9
$LTSCALE
 40
3.0
  9
$OSMODE
 70
   551
  9
$ATTMODE
 70
     1
  9
$TEXTSIZE
 40
2.5
  9
$TRACEWID
 40
1.0
  9
$TEXTSTYLE
  7
STANDARD
  9
$CLAYER
  8
AM_0
  9
$CELTYPE
  6
BYLAYER
  9
$CECOLOR
 62
   256
  9
$DIMSCALE
 40
3.0
  9
$DIMASZ
 40
2.5
  9
$DIMEXO
 40
1.0
  9
$DIMDLI
 40
7.0
  9
$DIMRND
 40
0.0
  9
$DIMDLE
 40
0.0
  9
$DIMEXE
 40
1.0
  9
$DIMTP
 40
0.1
  9
$DIMTM
 40
0.1000000001
  9
$DIMTXT
 40
2.5
  9
$DIMCEN
 40
0.0
  9
$DIMTSZ
 40
0.0
  9
$DIMTOL
 70
     0
  9
$DIMLIM
 70
     0
  9
$DIMTIH
 70
     0
  9
$DIMTOH
 70
     0
  9
$DIMSE1
 70
     0
  9
$DIMSE2
 70
     0
  9
$DIMTAD
 70
     3
  9
$DIMZIN
 70
     8
  9
$DIMBLK
  1

  9
$DIMASO
 70
     1
  9
$DIMSHO
 70
     1
  9
$DIMPOST
  1

  9
$DIMAPOST
  1
"
  9
$DIMALT
 70
     0
  9
$DIMALTD
 70
     2
  9
$DIMALTF
 40
0.0393701
  9
$DIMLFAC
 40
1.0
  9
$DIMTOFL
 70
     1
  9
$DIMTVP
 40
0.0
  9
$DIMTIX
 70
     0
  9
$DIMSOXD
 70
     0
  9
$DIMSAH
 70
     0
  9
$DIMBLK1
  1

  9
$DIMBLK2
  1

  9
$DIMSTYLE
  2
AM_JIS
  9
$DIMCLRD
 70
   256
  9
$DIMCLRE
 70
   256
  9
$DIMCLRT
 70
     4
  9
$DIMTFAC
 40
0.71
  9
$DIMGAP
 40
1.0
  9
$LUNITS
 70
     2
  9
$LUPREC
 70
     2
  9
$SKETCHINC
 40
1.0
  9
$FILLETRAD
 40
1.0
  9
$AUNITS
 70
     0
  9
$AUPREC
 70
     3
  9
$MENU
  1
.
  9
$ELEVATION
 40
0.0
  9
$PELEVATION
 40
0.0
  9
$THICKNESS
 40
0.0
  9
$LIMCHECK
 70
     0
  9
$BLIPMODE
 70
     0
  9
$CHAMFERA
 40
7.5
  9
$CHAMFERB
 40
7.5
  9
$SKPOLY
 70
     0
  9
$TDCREATE
 40
2452753.643349607
  9
$TDUPDATE
 40
2458543.4825522569
  9
$TDINDWG
 40
0.3240197454
  9
$TDUSRTIMER
 40
0.3240195602
  9
$USRTIMER
 70
     1
  9
$ANGBASE
 50
0.0
  9
$ANGDIR
 70
     0
  9
$PDMODE
 70
     0
  9
$PDSIZE
 40
0.0
  9
$PLINEWID
 40
0.0
  9
$COORDS
 70
     1
  9
$SPLFRAME
 70
     0
  9
$SPLINETYPE
 70
     6
  9
$SPLINESEGS
 70
     8
  9
$ATTDIA
 70
     1
  9
$ATTREQ
 70
     1
  9
$HANDLING
 70
     1
  9
$HANDSEED
  5
1A391
  9
$SURFTAB1
 70
     6
  9
$SURFTAB2
 70
     6
  9
$SURFTYPE
 70
     6
  9
$SURFU
 70
     6
  9
$SURFV
 70
     6
  9
$UCSNAME
  2

  9
$UCSORG
 10
0.0
 20
0.0
 30
0.0
  9
$UCSXDIR
 10
1.0
 20
0.0
 30
0.0
  9
$UCSYDIR
 10
0.0
 20
1.0
 30
0.0
  9
$PUCSNAME
  2

  9
$PUCSORG
 10
0.0
 20
0.0
 30
0.0
  9
$PUCSXDIR
 10
1.0
 20
0.0
 30
0.0
  9
$PUCSYDIR
 10
0.0
 20
1.0
 30
0.0
  9
$USERI1
 70
     0
  9
$USERI2
 70
     0
  9
$USERI3
 70
     0
  9
$USERI4
 70
     0
  9
$USERI5
 70
     0
  9
$USERR1
 40
0.0
  9
$USERR2
 40
0.0
  9
$USERR3
 40
0.0
  9
$USERR4
 40
0.0
  9
$USERR5
 40
0.0
  9
$WORLDVIEW
 70
     1
  9
$SHADEDGE
 70
     3
  9
$SHADEDIF
 70
    70
  9
$TILEMODE
 70
     1
  9
$MAXACTVP
 70
    48
  9
$PLIMCHECK
 70
     0
  9
$PEXTMIN
 10
1.0000000000000000E+020
 20
1.0000000000000000E+020
 30
1.0000000000000000E+020
  9
$PEXTMAX
 10
-1.0000000000000000E+020
 20
-1.0000000000000000E+020
 30
-1.0000000000000000E+020
  9
$PLIMMIN
 10
0.0
 20
0.0
  9
$PLIMMAX
 10
420.0
 20
297.0
  9
$UNITMODE
 70
     0
  9
$VISRETAIN
 70
     1
  9
$PLINEGEN
 70
     0
  9
$PSLTSCALE
 70
     1
  0
ENDSEC
  0
SECTION
  2
TABLES
  0
TABLE
  2
VPORT
 70
     1
  0
VPORT
  2
*ACTIVE
 70
     0
 10
0.0
 20
0.0
 11
1.0
 21
1.0
 12
384.26999707321642
 22
368.13111873047018
 13
0.0
 23
0.0
 14
7.5
 24
7.5
 15
30.0
 25
30.0
 16
0.0
 26
0.0
 36
1.0
 17
0.0
 27
0.0
 37
0.0
 40
421.81070039780241
 41
1.757159221076747
 42
50.0
 43
0.0
 44
0.0
 50
0.0
 51
0.0
 71
    16
 72
   100
 73
     1
 74
     1
 75
     0
 76
     0
 77
     0
 78
     0
  0
ENDTAB
  0
TABLE
  2
LTYPE
 70
    21
  0
LTYPE
  2
CONTINUOUS
 70
     0
  3
Solid line
 72
    65
 73
     0
 40
0.0
  0
LTYPE
  2
PHANTOM2
 70
     0
  3
Phantom (.5x) ___ _ _ ___ _ _ ___ _ _ ___ _ _
 72
    65
 73
     6
 40
31.75
 49
15.875
 49
-3.174999999999998
 49
3.174999999999998
 49
-3.174999999999998
 49
3.174999999999998
 49
-3.174999999999998
  0
LTYPE
  2
CENTER
 70
     0
  3
Center ____ _ ____ _ ____ _ ____ _ ____ _ ____
 72
    65
 73
     4
 40
50.799999999999997
 49
31.75
 49
-6.3499999999999979
 49
6.3499999999999979
 49
-6.3499999999999979
  0
LTYPE
  2
ACANSTGBM
 70
     0
  3
__ . . __ . .
 72
    65
 73
     6
 40
9.0
 49
4.0
 49
-1.0
 49
1.0
 49
-1.0
 49
1.0
 49
-1.0
  0
LTYPE
  2
ACANSTGLM
 70
     0
  3
_ _ _ _ _
 72
    65
 73
     2
 40
3.0
 49
2.0
 49
-1.0
  0
LTYPE
  2
GEN3B
 70
     0
  3
 - - - - -
 72
    65
 73
     2
 40
1.0
 49
0.5
 49
-0.5
  0
LTYPE
  2
GEN7A
 70
     0
  3
__ . __ . __
 72
    65
 73
     4
 40
7.375
 49
4.75
 49
-0.875
 49
0.875
 49
-0.875
  0
LTYPE
  2
AM_ISO02W050
 70
     0
  3
__ __ __ __ __ __ __ __ __ __ __ __ __ __ __
 72
    65
 73
     2
 40
7.5
 49
6.0
 49
-1.5
  0
LTYPE
  2
AM_ISO08W050
 70
     0
  3
____ . ____ . ____ . ____ . ____ . ____ . ____
 72
    65
 73
     4
 40
18.0
 49
12.0
 49
-1.5
 49
3.0
 49
-1.5
  0
LTYPE
  2
AM_ISO09W050
 70
     0
  3
_____ . . _____ . . _____ . . ____ .. ____
 72
    65
 73
     6
 40
22.5
 49
12.0
 49
-1.5
 49
3.0
 49
-1.5
 49
3.0
 49
-1.5
  0
LTYPE
  2
AMCONSTR
 70
     0
  3
_______________________
 72
    65
 73
     2
 40
9999.0
 49
9999.0
 49
0.0
  0
LTYPE
  2
AM_ISO02W050X2
 70
     0
  3
 _ _ _ _ _ _ _ _ _ _ _ _
 72
    65
 73
     2
 40
3.75
 49
3.0
 49
-0.75
  0
LTYPE
  2
AM_ISO08W050X2
 70
     0
  3
__ . __ . __ . __ . __ . __
 72
    65
 73
     4
 40
9.0
 49
6.0
 49
-0.75
 49
1.5
 49
-0.75
  0
LTYPE
  2
AMZIGZAG
 70
     0
  3
/\/-/\/-/\/-/\/-/\/-/\/
 72
    65
 73
     2
 40
11.0001
 49
0.0001
 49
-11.0
  0
LTYPE
  2
ACJISTGB
 70
     0
  3
__ . . __ . .
 72
    65
 73
     6
 40
9.0
 49
4.0
 49
-1.0
 49
1.0
 49
-1.0
 49
1.0
 49
-1.0
  0
LTYPE
  2
ACJISTGL
 70
     0
  3
_ _ _ _ _
 72
    65
 73
     2
 40
3.0
 49
2.0
 49
-1.0
  0
LTYPE
  2
ACISOWELD
 70
     0
  3
_ _ _ _ _
 72
    65
 73
     2
 40
2.0
 49
2.0
 49
-1.0
  0
LTYPE
  2
ACISOTGB
 70
     0
  3
__ . . __ . .
 72
    65
 73
     6
 40
9.0
 49
4.0
 49
-1.0
 49
1.0
 49
-1.0
 49
1.0
 49
-1.0
  0
LTYPE
  2
ACISOTGL
 70
     0
  3
_ _ _ _ _
 72
    65
 73
     2
 40
3.0
 49
2.0
 49
-1.0
  0
LTYPE
  2
HIDDEN
 70
     0
  3
Hidden __ __ __ __ __ __ __ __ __ __ __ __ __ _
 72
    65
 73
     2
 40
9.5249999999999968
 49
6.3499999999999979
 49
-3.174999999999998
  0
ENDTAB
  0
TABLE
  2
LAYER
 70
     9
  0
LAYER
  2
0
 70
     0
 62
     7
  6
CONTINUOUS
  0
LAYER
  2
ｽﾝﾎﾟｳｾﾝ
 70
     0
 62
     2
  6
CONTINUOUS
  0
LAYER
  2
DEFPOINTS
 70
     0
 62
     7
  6
CONTINUOUS
  0
LAYER
  2
ｶｸﾚｾﾝ2
 70
     0
 62
     3
  6
GEN3B
  0
LAYER
  2
ﾁｭｳｼﾝｾﾝ1
 70
     0
 62
     1
  6
GEN7A
  0
LAYER
  2
VIEW
 70
     0
 62
     1
  6
CONTINUOUS
  0
LAYER
  2
AM_0
 70
     0
 62
     7
  6
CONTINUOUS
  0
LAYER
  2
AM_0N
 70
     0
 62
     7
  6
CONTINUOUS
  0
LAYER
  2
AM_5
 70
     0
 62
     2
  6
CONTINUOUS
  0
ENDTAB
  0
TABLE
  2
STYLE
 70
     8
  0
STYLE
  2
STANDARD
 70
     0
 40
0.0
 41
0.8299999999999999
 50
0.0
 71
     0
 42
2.5
  3
txt.shx
  4
bigfont.shx
  0
STYLE
  2
ACANSTS
 70
     0
 40
1.0
 41
1.0
 50
0.0
 71
     0
 42
2.5
  3
romans.shx
  4
bigfont.shx
  0
STYLE
  2
ACANSGDT
 70
     0
 40
0.0
 41
1.0
 50
0.0
 71
     0
 42
2.5
  3
amgdtans.shx
  4

  0
STYLE
  2

 70
     1
 40
0.0
 41
1.0
 50
0.0
 71
     0
 42
2.5
  3
ltypeshp.shx
  4

  0
STYLE
  2
ACJISTS
 70
     0
 40
1.0
 41
1.0
 50
0.0
 71
     0
 42
2.5
  3
isocp.shx
  4
bigfont.shx
  0
STYLE
  2
ACJISGDT
 70
     0
 40
0.0
 41
1.0
 50
0.0
 71
     0
 42
2.5
  3
amgdt.shx
  4

  0
STYLE
  2
ACISOTS
 70
     0
 40
3.0
 41
1.0
 50
0.0
 71
     0
 42
2.5
  3
isocp.shx
  4
extfont.shx
  0
STYLE
  2
ACISOGDT
 70
     0
 40
0.0
 41
1.0
 50
0.0
 71
     0
 42
2.5
  3
amgdt.shx
  4

  0
ENDTAB
  0
TABLE
  2
VIEW
 70
    12
  0
VIEW
  2
GEN1
 70
     0
 40
95.824742268041234
 10
71.5
 20
137.08762886597941
 41
143.0
 11
0.0
 21
0.0
 31
1.0
 12
0.0
 22
0.0
 32
0.0
 42
50.0
 43
0.0
 44
0.0
 50
0.0
 71
     0
  0
VIEW
  2
GEN2
 70
     0
 40
95.824742268041234
 10
214.5
 20
137.08762886597941
 41
143.0
 11
0.0
 21
0.0
 31
1.0
 12
0.0
 22
0.0
 32
0.0
 42
50.0
 43
0.0
 44
0.0
 50
0.0
 71
     0
  0
VIEW
  2
GEN3
 70
     0
 40
95.824742268041234
 10
71.5
 20
47.912371134020603
 41
143.0
 11
0.0
 21
0.0
 31
1.0
 12
0.0
 22
0.0
 32
0.0
 42
50.0
 43
0.0
 44
0.0
 50
0.0
 71
     0
  0
VIEW
  2
GEN4
 70
     0
 40
95.824742268041234
 10
214.5
 20
47.912371134020603
 41
143.0
 11
0.0
 21
0.0
 31
1.0
 12
0.0
 22
0.0
 32
0.0
 42
50.0
 43
0.0
 44
0.0
 50
0.0
 71
     0
  0
VIEW
  2
GEN5
 70
     0
 40
95.824742268041234
 10
143.0
 20
92.500000000000057
 41
143.0
 11
0.0
 21
0.0
 31
1.0
 12
0.0
 22
0.0
 32
0.0
 42
50.0
 43
0.0
 44
0.0
 50
0.0
 71
     0
  0
VIEW
  2
GEN6
 70
     0
 40
191.64756804123709
 10
143.0
 20
92.5
 41
285.99714
 11
0.0
 21
0.0
 31
1.0
 12
0.0
 22
0.0
 32
0.0
 42
50.0
 43
0.0
 44
0.0
 50
0.0
 71
     0
  0
VIEW
  2
AM_VIEW1
 70
     0
 40
277.50000000000011
 10
249.64779005524869
 20
416.25000000000011
 41
499.29558011049721
 11
0.0
 21
0.0
 31
1.0
 12
0.0
 22
0.0
 32
0.0
 42
50.0
 43
0.0
 44
0.0
 50
0.0
 71
    16
  0
VIEW
  2
AM_VIEW2
 70
     0
 40
277.50000000000011
 10
603.85220994475117
 20
416.25000000000011
 41
499.29558011049721
 11
0.0
 21
0.0
 31
1.0
 12
0.0
 22
0.0
 32
0.0
 42
50.0
 43
0.0
 44
0.0
 50
0.0
 71
    16
  0
VIEW
  2
AM_VIEW3
 70
     0
 40
277.50000000000011
 10
249.64779005524869
 20
138.75
 41
499.29558011049721
 11
0.0
 21
0.0
 31
1.0
 12
0.0
 22
0.0
 32
0.0
 42
50.0
 43
0.0
 44
0.0
 50
0.0
 71
    16
  0
VIEW
  2
AM_VIEW4
 70
     0
 40
277.50000000000011
 10
603.85220994475117
 20
138.75
 41
499.29558011049721
 11
0.0
 21
0.0
 31
1.0
 12
0.0
 22
0.0
 32
0.0
 42
50.0
 43
0.0
 44
0.0
 50
0.0
 71
    16
  0
VIEW
  2
AM_VIEW5
 70
     0
 40
277.50000000000011
 10
426.75
 20
277.50000000000011
 41
499.2955801104971
 11
0.0
 21
0.0
 31
1.0
 12
0.0
 22
0.0
 32
0.0
 42
50.0
 43
0.0
 44
0.0
 50
0.0
 71
    16
  0
VIEW
  2
AM_VIEW6
 70
     0
 40
554.99445000000014
 10
426.75
 20
277.5
 41
998.5811743093924
 11
0.0
 21
0.0
 31
1.0
 12
0.0
 22
0.0
 32
0.0
 42
50.0
 43
0.0
 44
0.0
 50
0.0
 71
    16
  0
ENDTAB
  0
TABLE
  2
UCS
 70
     0
  0
ENDTAB
  0
TABLE
  2
APPID
 70
    96
  0
APPID
  2
ACAD
 70
     0
  0
APPID
  2
MCAD_NO_VIS
 70
     0
  0
APPID
  2
ACAD_TEMP_GRAPHIC
 70
     0
  0
APPID
  2
AD_DRAW
 70
     0
  0
APPID
  2
DESIGNERASSEMBLIES
 70
     0
  0
APPID
  2
ASURF_PCURVE_APPNAME
 70
     0
  0
APPID
  2
GENIUS_GE3SECT_13
 70
     0
  0
APPID
  2
GENIUS_GENCFG_13
 70
     0
  0
APPID
  2
GENIUS_GE3CFG0_13
 70
     0
  0
APPID
  2
GENIUS_GENCFG0_13
 70
     0
  0
APPID
  2
GENIUS_GENCFG1_13
 70
     0
  0
APPID
  2
GENIUS_GENCFG2_13
 70
     0
  0
APPID
  2
GENIUS_GENCFG3_13
 70
     0
  0
APPID
  2
GENIUS_GENCFG4_13
 70
     0
  0
APPID
  2
GENIUS_GEVCFG0_13
 70
     0
  0
APPID
  2
GENIUS_GENOENT_13
 70
     0
  0
APPID
  2
GENIUS_GENREC_14
 70
     0
  0
APPID
  2
GENIUS_GENODEF_13
 70
     0
  0
APPID
  2
GENIUS_GENOBJ-N-REC_13
 70
     0
  0
APPID
  2
GENIUS_GENHINW_13
 70
     0
  0
APPID
  2
GENIUS_FIRSTVISTXT_14
 70
     0
  0
APPID
  2
GENIUS_GENOBJ-N-LEADER_13
 70
     0
  0
APPID
  2
GENIUS_GENOREF_13
 70
     0
  0
APPID
  2
GENIUS_GENOLIS_13
 70
     0
  0
APPID
  2
GEV_VCCNULL_SWITCH_OFF
 70
     0
  0
APPID
  2
GENIUS_GENDTOL_13
 70
     0
  0
APPID
  2
GENIUS_GEFCFG0_13
 70
     0
  0
APPID
  2
GENIUS_GENOBJ-N-TIT_13
 70
     0
  0
APPID
  2
GENIUS_GENTITLE_13
 70
     0
  0
APPID
  2
GENIUS_GENZVEED_13
 70
     0
  0
APPID
  2
GENIUS_GENOBJ-N-SDF_13
 70
     0
  0
APPID
  2
GENIUS_GENSCREG_13
 70
     0
  0
APPID
  2
GENIUS_DUMCFG0_13
 70
     0
  0
APPID
  2
GEVID936201362
 70
     0
  0
APPID
  2
GEVDC
 70
     0
  0
APPID
  2
GEVCON
 70
     0
  0
APPID
  2
VCC
 70
     0
  0
APPID
  2
GEVPT
 70
     0
  0
APPID
  2
GEVIT
 70
     0
  0
APPID
  2
GENBH
 70
     0
  0
APPID
  2
GEVMK
 70
     0
  0
APPID
  2
GENIUS_GENBH_13
 70
     0
  0
APPID
  2
GENIUS_GENOBJ-NBEHI-BHF_13
 70
     0
  0
APPID
  2
GENIUS_GENOBJ-NBEHI-BHB_13
 70
     0
  0
APPID
  2
GENIUS_GENOBJ-F-DESC_13
 70
     0
  0
APPID
  2
GENIUS_GEFDESC_14
 70
     0
  0
APPID
  2
GENIUS_GENOBJ-F-PART_13
 70
     0
  0
APPID
  2
GENIUS_GEFSTDP_13
 70
     0
  0
APPID
  2
GENIUS_GEFPARTINS_13
 70
     0
  0
APPID
  2
GENIUS_GENTRA_14
 70
     0
  0
APPID
  2
GENIUS_GENINF13_13
 70
     0
  0
APPID
  2
GENIUS_GENOBJ-N-INFOPT_13
 70
     0
  0
APPID
  2
GENIUS_GENOBJ-N-RSSYM_13
 70
     0
  0
APPID
  2
GENIUS_GENSYMENT_13
 70
     0
  0
APPID
  2
GENIUS_GENSCSYM_13
 70
     0
  0
APPID
  2
GENIUS_GEFINFNAM_13
 70
     0
  0
APPID
  2
GENIUS_GENSCREG_15
 70
     0
  0
APPID
  2
GENIUS_GENOBJ-N-CEN_13
 70
     0
  0
APPID
  2
GENIUS_GENOBJ-N-CRS_13
 70
     0
  0
APPID
  2
GENIUS_GENOBJ-N-CRC_13
 70
     0
  0
APPID
  2
GENIUS_GENCRC_14
 70
     0
  0
APPID
  2
GEVID942827039
 70
     0
  0
APPID
  2
GEVID942827040
 70
     0
  0
APPID
  2
GEVID942827041
 70
     0
  0
APPID
  2
GENIUS_GENOBJ-F-SCPASSM_13
 70
     0
  0
APPID
  2
GENIUS_GENDIMSH_14
 70
     0
  0
APPID
  2
GENIUS_GENFIL_13
 70
     0
  0
APPID
  2
GENIUS_GENOBJ-N-CHA_13
 70
     0
  0
APPID
  2
GENIUS_GENOBJ-N-FIL_13
 70
     0
  0
APPID
  2
GEVID942827042
 70
     0
  0
APPID
  2
GEVID946020473
 70
     0
  0
APPID
  2
GEVID946020474
 70
     0
  0
APPID
  2
GEVID946020475
 70
     0
  0
APPID
  2
GENIUS_GENOBJ-N-HTC_13
 70
     0
  0
APPID
  2
GENIUS_GENHATCH_13
 70
     0
  0
APPID
  2
GEVID948854295
 70
     0
  0
APPID
  2
GEVID939402019
 70
     0
  0
APPID
  2
GEVID952919491
 70
     0
  0
APPID
  2
GEVID952919492
 70
     0
  0
APPID
  2
GENIUS_GEFWELD_13
 70
     0
  0
APPID
  2
GENIUS_GENOBJ-F-WELS_13
 70
     0
  0
APPID
  2
GEVID952919493
 70
     0
  0
APPID
  2
GENIUS_GENOBJ-N-RSBK_13
 70
     0
  0
APPID
  2
GENIUS_GENOBJ-N-LIB_13
 70
     0
  0
APPID
  2
GENIUS_GENSCALE_13
 70
     0
  0
APPID
  2
GEVID986376691
 70
     0
  0
APPID
  2
ACATTRIBSERVICES
 70
     0
  0
APPID
  2
DCO15
 70
     0
  0
APPID
  2
ACADM_DIM_EDIT
 70
     0
  0
APPID
  2
AMDT_DM_ADJ
 70
     0
  0
APPID
  2
ACAD_MLEADERVER
 70
     0
  0
APPID
  2
ACAD_DSTYLE_DIMBREAK
 70
     0
  0
APPID
  2
ACAD_DSTYLE_DIMJAG
 70
     0
  0
APPID
  2
ACAD_NAV_VCDISPLAY
 70
     0
  0
APPID
  2
ACADANNOPO
 70
     0
  0
APPID
  2
ACAD_EXEMPT_FROM_CAD_STANDARDS
 70
     0
  0
ENDTAB
  0
TABLE
  2
DIMSTYLE
 70
    16
  0
DIMSTYLE
  2
STANDARD
 70
     0
  3

  4

  5

  6

  7

 40
1.0
 41
0.18
 42
0.0625
 43
0.38
 44
0.18
 45
0.0
 46
0.0
 47
0.0
 48
0.0
140
0.18
141
0.09
142
0.0
143
25.399999999999999
144
1.0
145
0.0
146
1.0
147
0.09
 71
     0
 72
     0
 73
     1
 74
     1
 75
     0
 76
     0
 77
     0
 78
     0
170
     0
171
     2
172
     0
173
     0
174
     0
175
     0
176
     0
177
     0
178
     0
  0
DIMSTYLE
  2
AM_JIS
 70
     0
  3

  4
"
  5

  6

  7

 40
1.0
 41
2.5
 42
1.0
 43
7.0
 44
1.0
 45
0.0
 46
0.0
 47
0.1
 48
0.1000000001
140
2.5
141
0.0
142
0.0
143
0.0393701
144
1.0
145
0.0
146
0.71
147
1.0
 71
     0
 72
     0
 73
     0
 74
     0
 75
     0
 76
     0
 77
     3
 78
     8
170
     0
171
     2
172
     1
173
     0
174
     0
175
     0
176
   256
177
   256
178
     4
  0
DIMSTYLE
  2
AM_JIS$3
 70
     0
  3

  4
"
  5

  6

  7

 40
1.0
 41
2.5
 42
1.0
 43
7.0
 44
1.0
 45
0.0
 46
0.0
 47
0.1
 48
0.1000000001
140
2.5
141
0.0
142
0.0
143
0.0393701
144
1.0
145
0.0
146
0.71
147
1.0
 71
     0
 72
     0
 73
     0
 74
     1
 75
     0
 76
     0
 77
     3
 78
     8
170
     0
171
     2
172
     0
173
     0
174
     0
175
     0
176
   256
177
   256
178
     4
  0
DIMSTYLE
  2
AM_JIS$4
 70
     0
  3

  4
"
  5

  6

  7

 40
1.0
 41
2.5
 42
1.0
 43
7.0
 44
1.0
 45
0.0
 46
0.0
 47
0.1
 48
0.1000000001
140
2.5
141
0.0
142
0.0
143
0.0393701
144
1.0
145
0.0
146
0.71
147
1.0
 71
     0
 72
     0
 73
     0
 74
     0
 75
     0
 76
     0
 77
     3
 78
     8
170
     0
171
     2
172
     0
173
     0
174
     0
175
     0
176
   256
177
   256
178
     4
  0
DIMSTYLE
  2
AM_JIS$6
 70
     0
  3

  4
"
  5

  6

  7

 40
1.0
 41
2.5
 42
1.0
 43
7.0
 44
1.0
 45
0.0
 46
0.0
 47
0.1
 48
0.1000000001
140
2.5
141
0.0
142
0.0
143
0.0393701
144
1.0
145
0.0
146
0.71
147
1.0
 71
     0
 72
     0
 73
     0
 74
     0
 75
     0
 76
     0
 77
     0
 78
     8
170
     0
171
     2
172
     1
173
     0
174
     0
175
     0
176
   256
177
   256
178
     4
  0
DIMSTYLE
  2
AM_JIS$7
 70
     0
  3

  4
"
  5

  6

  7

 40
1.0
 41
2.5
 42
1.0
 43
7.0
 44
1.0
 45
0.0
 46
0.0
 47
0.1
 48
0.1000000001
140
2.5
141
0.0
142
0.0
143
0.0393701
144
1.0
145
0.0
146
0.71
147
1.0
 71
     0
 72
     0
 73
     0
 74
     0
 75
     0
 76
     0
 77
     3
 78
     8
170
     0
171
     2
172
     1
173
     0
174
     0
175
     0
176
   256
177
   256
178
     4
  0
DIMSTYLE
  2
AM_JIS$SF
 70
     0
  3

  4
"
  5
OPEN30
  6
OPEN30
  7
OPEN30
 40
1.0
 41
2.5
 42
1.0
 43
10.0
 44
1.0
 45
0.0
 46
0.0
 47
0.1
 48
0.1
140
3.5
141
0.0
142
0.0
143
0.0393701
144
1.0
145
0.0
146
0.71
147
1.5
 71
     0
 72
     0
 73
     0
 74
     0
 75
     1
 76
     1
 77
     3
 78
     8
170
     0
171
     2
172
     1
173
     0
174
     0
175
     0
176
   256
177
   256
178
     4
  0
DIMSTYLE
  2
AM_JIS$SH
 70
     0
  3

  4
"
  5

  6
NONE
  7

 40
1.0
 41
2.5
 42
1.0
 43
10.0
 44
1.0
 45
0.0
 46
0.0
 47
0.1
 48
0.1
140
3.5
141
0.0
142
0.0
143
0.0393701
144
1.0
145
0.0
146
0.71
147
1.5
 71
     0
 72
     0
 73
     0
 74
     0
 75
     1
 76
     0
 77
     3
 78
     8
170
     0
171
     2
172
     1
173
     1
174
     0
175
     0
176
   256
177
   256
178
     4
  0
DIMSTYLE
  2
AM_ISO
 70
     0
  3

  4
"
  5

  6

  7

 40
1.0
 41
2.5
 42
1.0
 43
10.0
 44
1.0
 45
0.0
 46
0.0
 47
0.0
 48
0.000000001
140
3.0
141
0.0
142
0.0
143
0.0393701
144
1.0
145
0.0
146
0.71
147
1.299999999999998
 71
     1
 72
     0
 73
     0
 74
     0
 75
     0
 76
     0
 77
     1
 78
     8
170
     0
171
     2
172
     1
173
     0
174
     0
175
     0
176
   256
177
   256
178
     4
  0
DIMSTYLE
  2
AM_ISO$3
 70
     0
  3

  4
"
  5

  6

  7

 40
1.0
 41
2.5
 42
1.0
 43
10.0
 44
1.0
 45
0.0
 46
0.0
 47
0.0
 48
0.000000001
140
2.5
141
0.0
142
0.0
143
0.0393701
144
1.0
145
0.0
146
0.71
147
1.299999999999998
 71
     1
 72
     0
 73
     0
 74
     1
 75
     0
 76
     0
 77
     1
 78
     8
170
     0
171
     2
172
     0
173
     0
174
     0
175
     0
176
   256
177
   256
178
     4
  0
DIMSTYLE
  2
AM_ISO$4
 70
     0
  3

  4
"
  5

  6

  7

 40
1.0
 41
2.5
 42
1.0
 43
10.0
 44
1.0
 45
0.0
 46
0.0
 47
0.0
 48
0.000000001
140
2.5
141
0.0
142
0.0
143
0.0393701
144
1.0
145
0.0
146
0.71
147
1.299999999999998
 71
     1
 72
     0
 73
     0
 74
     1
 75
     0
 76
     0
 77
     1
 78
     8
170
     0
171
     2
172
     0
173
     0
174
     0
175
     0
176
   256
177
   256
178
     4
  0
DIMSTYLE
  2
AM_ISO$6
 70
     0
  3

  4
"
  5

  6

  7

 40
1.0
 41
2.5
 42
1.0
 43
10.0
 44
1.0
 45
0.0
 46
0.0
 47
0.0
 48
0.000000001
140
2.5
141
0.0
142
0.0
143
0.0393701
144
1.0
145
0.0
146
0.71
147
1.299999999999998
 71
     1
 72
     0
 73
     0
 74
     0
 75
     0
 76
     0
 77
     0
 78
     8
170
     0
171
     2
172
     1
173
     0
174
     0
175
     0
176
   256
177
   256
178
     4
  0
DIMSTYLE
  2
AM_ISO$7
 70
     0
  3

  4
"
  5

  6

  7

 40
1.0
 41
2.5
 42
1.0
 43
10.0
 44
1.0
 45
0.0
 46
0.0
 47
0.0
 48
0.000000001
140
2.5
141
0.0
142
0.0
143
0.0393701
144
1.0
145
0.0
146
0.71
147
1.299999999999998
 71
     1
 72
     0
 73
     0
 74
     0
 75
     0
 76
     0
 77
     1
 78
     8
170
     0
171
     2
172
     1
173
     0
174
     0
175
     0
176
   256
177
   256
178
     4
  0
DIMSTYLE
  2
AM_ISO$SF
 70
     0
  3

  4
"
  5

  6

  7

 40
1.0
 41
2.5
 42
1.0
 43
10.0
 44
1.0
 45
0.0
 46
0.0
 47
0.1
 48
0.1
140
3.5
141
0.0
142
0.0
143
0.0393701
144
1.0
145
0.0
146
0.71
147
1.5
 71
     0
 72
     0
 73
     0
 74
     0
 75
     1
 76
     1
 77
     1
 78
     8
170
     0
171
     2
172
     1
173
     0
174
     0
175
     0
176
   256
177
   256
178
     4
  0
DIMSTYLE
  2
AM_ISO$SH
 70
     0
  3

  4
"
  5

  6
GENAXEH
  7

 40
1.0
 41
2.5
 42
1.0
 43
10.0
 44
1.0
 45
0.0
 46
0.0
 47
0.1
 48
0.1
140
3.5
141
0.0
142
0.0
143
0.0393701
144
2.0
145
0.0
146
0.71
147
1.5
 71
     0
 72
     0
 73
     0
 74
     0
 75
     1
 76
     1
 77
     1
 78
     8
170
     0
171
     2
172
     1
173
     1
174
     0
175
     0
176
   256
177
   256
178
     4
  0
DIMSTYLE
  2
AM_JIS$0
 70
     0
  3

  4
"
  5

  6

  7

 40
1.0
 41
2.5
 42
1.0
 43
7.0
 44
1.0
 45
0.0
 46
0.0
 47
0.1
 48
0.1000000001
140
2.5
141
0.0
142
0.0
143
0.0393701
144
1.0
145
0.0
146
0.71
147
1.0
 71
     0
 72
     0
 73
     0
 74
     0
 75
     0
 76
     0
 77
     3
 78
     8
170
     0
171
     2
172
     1
173
     0
174
     0
175
     0
176
   256
177
   256
178
     4
  0
ENDTAB
  0
ENDSEC
  0
SECTION
  2
BLOCKS
  0
BLOCK
  8
0
  2
$MODEL_SPACE
 70
     0
 10
0.0
 20
0.0
 30
0.0
  3
$MODEL_SPACE
  1

  0
ENDBLK
  5
1A
  8
0
  0
BLOCK
 67
     1
  8
0
  2
$PAPER_SPACE
 70
     0
 10
0.0
 20
0.0
 30
0.0
  3
$PAPER_SPACE
  1

  0
ENDBLK
  5
17
 67
     1
  8
0
  0
BLOCK
  8
0
  2
_OPEN30
 70
     0
 10
0.0
 20
0.0
 30
0.0
  3
_OPEN30
  1

  0
LINE
  5
21C5
  8
0
 62
     0
 10
-1.0
 20
0.26794919
 30
0.0
 11
0.0
 21
0.0
 31
0.0
  0
LINE
  5
21C6
  8
0
 62
     0
 10
0.0
 20
0.0
 30
0.0
 11
-1.0
 21
-0.26794919
 31
0.0
  0
LINE
  5
21C7
  8
0
 62
     0
 10
0.0
 20
0.0
 30
0.0
 11
-1.0
 21
0.0
 31
0.0
  0
ENDBLK
  5
21C9
  8
0
  0
BLOCK
  8
0
  2
GENAXEH
 70
     0
 10
0.0
 20
0.0
 30
0.0
  3
GENAXEH
  1

  0
LINE
  5
21D0
  8
0
 10
-1.0
 20
0.0
 30
0.0
 11
1.0
 21
0.0
 31
0.0
  0
ENDBLK
  5
21D2
  8
0
  0
BLOCK
  8
0
  2
_NONE
 70
     0
 10
0.0
 20
0.0
 30
0.0
  3
_NONE
  1

  0
ENDBLK
  5
8193
  8
0
  0
ENDSEC
  0
SECTION
  2
ENTITIES
  0
POINT
  5
1B94
  8
0
 10
0.0
 20
0.0
 30
0.0
1001
GENIUS_GENODEF_13
1002
{
1000
HIER
1070
     1
1002
}
1002
{
1000
MANEDIT
1070
     0
1002
}
1002
{
1000
NOSEL
1070
     0
1002
}
1002
{
1000
BEHIND
1070
     0
1002
}
1002
{
1000
REACTOR
1002
}
1001
GENIUS_GENOBJ-N-SDF_13
1002
{
1000
OWNER
1000
GEN
1002
}
1001
GENIUS_GENOENT_13
1002
{
1000
MYREF
1005
1B94
1002
}
1002
{
1000
GRP
1005
0
1002
}
1001
GENIUS_GENOLIS_13
1002
{
1000
ENT
1005
89
1002
}
  0
LINE
  5
17C1A
  8
ﾁｭｳｼﾝｾﾝ1
 10
244.5017112425694
 20
249.71074284236281
 30
0.0
 11
416.7011496984324
 21
249.71074284236281
 31
0.0
  0
LINE
  5
17C1F
  8
AM_0
 10
411.70114969843229
 20
299.7107443324789
 30
0.0
 11
411.70114969843229
 21
199.71074135224671
 31
0.0
  0
LINE
  5
17C20
  8
AM_0
 10
405.70114951961818
 20
283.21855872166532
 30
0.0
 11
405.70114951961818
 21
216.20292696306041
 31
0.0
  0
LINE
  5
17C22
  8
ﾁｭｳｼﾝｾﾝ1
 10
354.20114798479858
 20
314.71074398230172
 30
0.0
 11
354.20114798479881
 21
184.710741702424
 31
0.0
  0
LINE
  5
17C23
  8
AM_0
 10
257.70114510887481
 20
299.7107443324789
 30
0.0
 11
257.70114510887481
 21
199.71074135224671
 31
0.0
  0
LINE
  5
17C24
  8
AM_0
 10
263.70114528768858
 20
283.21855872166532
 30
0.0
 11
263.70114528768858
 21
216.20292696306041
 31
0.0
  0
LINE
  5
17C36
  8
AM_0
 10
240.2011451088747
 20
322.21074333410121
 30
0.0
 11
240.2011451088747
 21
210.21074333410121
 31
0.0
  0
LINE
  5
17C37
  8
AM_0
 10
251.7072486244997
 20
320.21074333410098
 30
0.0
 11
251.70724862449981
 21
212.21074333410121
 31
0.0
  0
ARC
  5
17C38
  8
AM_0
 10
483.70723336571052
 20
266.21074333410121
 30
0.0
 40
236.0
 50
169.4360282697333
 51
179.999994991043
  0
CIRCLE
  5
17C3D
  8
AM_0
 10
354.20114798479881
 20
249.71074284236281
 30
0.0
 40
37.500001117587097
  0
LINE
  5
17C5A
  8
ﾁｭｳｼﾝｾﾝ1
 10
275.33210225341259
 20
266.21074333410121
 30
0.0
 11
50.645579579992273
 21
266.21074333410121
 31
0.0
  0
ARC
  5
17D03
  8
AM_0
 10
284.19333101771173
 20
200.7107412330374
 30
0.0
 40
5.0
 50
181.79078417884659
 51
270.0
1001
GENIUS_GENOBJ-N-FIL_13
1002
{
1000
OWNER
1000
GEN
1002
}
1001
GENIUS_GENODEF_13
1002
{
1000
HIER
1070
     0
1002
}
1002
{
1000
MANEDIT
1070
     0
1002
}
1002
{
1000
NOSEL
1070
     0
1002
}
1002
{
1000
BEHIND
1070
     0
1002
}
1002
{
1000
OTHER
1070
     0
1002
}
1002
{
1000
REACTOR
1002
}
  0
LINE
  5
17D04
  8
AM_0
 10
267.70114540689798
 20
189.7107410542236
 30
0.0
 11
401.70114940040912
 21
189.7107410542236
 31
0.0
  0
LINE
  5
17D05
  8
AM_0
 10
267.70114540689798
 20
189.71074105422349
 30
0.0
 11
401.70114940040912
 21
189.71074105422349
 31
0.0
  0
ARC
  5
17D32
  8
AM_0
 10
483.70723336571052
 20
266.21074333410121
 30
0.0
 40
236.0
 50
179.999994991043
 51
190.56396171235869
  0
LINE
  5
17D33
  8
AM_0
 10
240.2011451088747
 20
220.21074333410101
 30
0.0
 11
251.70724862449981
 21
220.21074333410121
 31
0.0
  0
LINE
  5
17D34
  8
AM_0
 10
240.2011451088747
 20
210.21074333410121
 30
0.0
 11
249.70724862449981
 21
210.21074333410121
 31
0.0
  0
LINE
  5
17D3F
  8
ﾁｭｳｼﾝｾﾝ1
 10
268.2011454217992
 20
192.7107411436304
 30
0.0
 11
268.2011454217992
 21
207.71074159066529
 31
0.0
  0
ARC
  5
17D40
  8
AM_0
 10
268.2011454217992
 20
200.2107413671479
 30
0.0
 40
11.0
 50
1.7907841788466039
 51
88.209215821153435
  0
CIRCLE
  5
17D41
  8
AM_0
 10
268.2011454217992
 20
200.2107413671479
 30
0.0
 40
4.5000001341104507
  0
ARC
  5
17D42
  8
AM_0
 10
267.70114540689798
 20
199.71074135224671
 30
0.0
 40
10.000000298023259
 50
179.999994991043
 51
269.99999749551819
  0
LINE
  5
17D43
  8
ﾁｭｳｼﾝｾﾝ1
 10
275.70114564531661
 20
200.2107413671479
 30
0.0
 11
260.70114519828178
 21
200.2107413671479
 31
0.0
  0
ARC
  5
17D44
  8
AM_0
 10
268.70114528768858
 20
216.20292696306041
 30
0.0
 40
5.0
 50
180.0
 51
268.20921582115352
1001
GENIUS_GENOBJ-N-FIL_13
1002
{
1000
OWNER
1000
GEN
1002
}
1001
GENIUS_GENODEF_13
1002
{
1000
HIER
1070
     0
1002
}
1002
{
1000
MANEDIT
1070
     0
1002
}
1002
{
1000
NOSEL
1070
     0
1002
}
1002
{
1000
BEHIND
1070
     0
1002
}
1002
{
1000
OTHER
1070
     0
1002
}
1002
{
1000
REACTOR
1002
}
  0
ARC
  5
17D45
  8
AM_0
 10
253.17135023963749
 20
210.21074333410121
 30
0.0
 40
2.0
 50
90.0
 51
149.9999999999998
1001
GENIUS_GENOBJ-N-FIL_13
1002
{
1000
OWNER
1000
GEN
1002
}
1001
GENIUS_GENODEF_13
1002
{
1000
HIER
1070
     0
1002
}
1002
{
1000
MANEDIT
1070
     0
1002
}
1002
{
1000
NOSEL
1070
     0
1002
}
1002
{
1000
BEHIND
1070
     0
1002
}
1002
{
1000
OTHER
1070
     0
1002
}
1002
{
1000
REACTOR
1002
}
  0
ARC
  5
17D46
  8
AM_0
 10
255.70114510887481
 20
210.21074333410121
 30
0.0
 40
2.0
 50
0.0
 51
90.0
1001
GENIUS_GENODEF_13
1002
{
1000
HIER
1070
     0
1002
}
1002
{
1000
MANEDIT
1070
     0
1002
}
1002
{
1000
NOSEL
1070
     0
1002
}
1002
{
1000
BEHIND
1070
     0
1002
}
1002
{
1000
OTHER
1070
     0
1002
}
1002
{
1000
REACTOR
1002
}
1001
GENIUS_GENOBJ-N-FIL_13
1002
{
1000
OWNER
1000
GEN
1002
}
  0
LINE
  5
17D47
  8
AM_0
 10
255.70114510887481
 20
212.21074333410121
 30
0.0
 11
253.17135023963749
 21
212.21074333410121
 31
0.0
  0
ARC
  5
17D48
  8
AM_0
 10
249.70724862449981
 20
212.21074333410121
 30
0.0
 40
2.0
 50
270.0
 51
329.99999999999989
1001
GENIUS_GENOBJ-N-FIL_13
1002
{
1000
OWNER
1000
GEN
1002
}
1001
GENIUS_GENODEF_13
1002
{
1000
HIER
1070
     0
1002
}
1002
{
1000
MANEDIT
1070
     0
1002
}
1002
{
1000
NOSEL
1070
     0
1002
}
1002
{
1000
BEHIND
1070
     0
1002
}
1002
{
1000
OTHER
1070
     0
1002
}
1002
{
1000
REACTOR
1002
}
  0
LINE
  5
17D49
  8
AM_0
 10
252.20724862449981
 20
222.94412651281209
 30
0.0
 11
257.70114510887481
 21
222.94412651281209
 31
0.0
  0
LINE
  5
17D4A
  8
AM_0
 10
240.2011451088747
 20
234.2707933341012
 30
0.0
 11
249.80716124483749
 21
234.2707933341012
 31
0.0
  0
LINE
  5
17D56
  8
AM_0
 10
284.19333101771173
 20
195.7107412330374
 30
0.0
 11
385.20896378959583
 21
195.7107412330374
 31
0.0
  0
CIRCLE
  5
17D58
  8
AM_0
 10
401.20114938550819
 20
200.2107413671479
 30
0.0
 40
4.5000001341104507
  0
ARC
  5
17D59
  8
AM_0
 10
401.20114938550819
 20
200.2107413671479
 30
0.0
 40
11.0
 50
91.790784178846565
 51
178.20921582115341
  0
LINE
  5
17D5A
  8
ﾁｭｳｼﾝｾﾝ1
 10
401.20114938550819
 20
192.7107411436304
 30
0.0
 11
401.20114938550819
 21
207.71074159066529
 31
0.0
  0
LINE
  5
17D5B
  8
ﾁｭｳｼﾝｾﾝ1
 10
393.70114916199049
 20
200.2107413671479
 30
0.0
 11
408.70114960902561
 21
200.2107413671479
 31
0.0
  0
ARC
  5
17D5C
  8
AM_0
 10
385.20896378959583
 20
200.7107412330374
 30
0.0
 40
5.0
 50
270.0
 51
358.20921582115341
1001
GENIUS_GENODEF_13
1002
{
1000
HIER
1070
     0
1002
}
1002
{
1000
MANEDIT
1070
     0
1002
}
1002
{
1000
NOSEL
1070
     0
1002
}
1002
{
1000
BEHIND
1070
     0
1002
}
1002
{
1000
OTHER
1070
     0
1002
}
1002
{
1000
REACTOR
1002
}
1001
GENIUS_GENOBJ-N-FIL_13
1002
{
1000
OWNER
1000
GEN
1002
}
  0
ARC
  5
17D5D
  8
AM_0
 10
401.70114940040912
 20
199.71074135224671
 30
0.0
 40
10.000000298023229
 50
269.99999749551819
 51
0.0
  0
ARC
  5
17D5E
  8
AM_0
 10
400.7011495196183
 20
216.20292696306041
 30
0.0
 40
5.0
 50
271.79078417884648
 51
0.0
1001
GENIUS_GENOBJ-N-FIL_13
1002
{
1000
OWNER
1000
GEN
1002
}
1001
GENIUS_GENODEF_13
1002
{
1000
HIER
1070
     0
1002
}
1002
{
1000
MANEDIT
1070
     0
1002
}
1002
{
1000
NOSEL
1070
     0
1002
}
1002
{
1000
BEHIND
1070
     0
1002
}
1002
{
1000
OTHER
1070
     0
1002
}
1002
{
1000
REACTOR
1002
}
  0
ARC
  5
17E02
  8
AM_0
 10
284.19333101771173
 20
298.71074445168819
 30
0.0
 40
5.0
 50
90.0
 51
178.20921582115341
1001
GENIUS_GENOBJ-N-FIL_13
1002
{
1000
OWNER
1000
GEN
1002
}
1001
GENIUS_GENODEF_13
1002
{
1000
HIER
1070
     0
1002
}
1002
{
1000
MANEDIT
1070
     0
1002
}
1002
{
1000
NOSEL
1070
     0
1002
}
1002
{
1000
BEHIND
1070
     0
1002
}
1002
{
1000
OTHER
1070
     0
1002
}
1002
{
1000
REACTOR
1002
}
  0
LINE
  5
17E03
  8
AM_0
 10
253.7072486244997
 20
309.71074333410121
 30
0.0
 11
401.70114510887458
 21
309.71074333410121
 31
0.0
  0
ARC
  5
17E1A
  8
AM_0
 10
253.7072486244997
 20
311.71074333410121
 30
0.0
 40
2.0
 50
180.0
 51
270.0
1001
GENIUS_GENOBJ-N-FIL_13
1002
{
1000
OWNER
1000
GEN
1002
}
1001
GENIUS_GENODEF_13
1002
{
1000
HIER
1070
     0
1002
}
1002
{
1000
MANEDIT
1070
     0
1002
}
1002
{
1000
NOSEL
1070
     0
1002
}
1002
{
1000
BEHIND
1070
     0
1002
}
1002
{
1000
OTHER
1070
     0
1002
}
1002
{
1000
REACTOR
1002
}
  0
ARC
  5
17E1E
  8
AM_0
 10
267.70114540689798
 20
299.7107443324789
 30
0.0
 40
10.000000298023229
 50
90.000002504475205
 51
180.00000500895041
  0
LINE
  5
17E1F
  8
AM_0
 10
240.2011451088747
 20
298.15068333410107
 30
0.0
 11
249.8818954698684
 21
298.15068333410107
 31
0.0
  0
ARC
  5
17E2B
  8
AM_0
 10
268.70114528768858
 20
283.21855872166532
 30
0.0
 40
5.0
 50
91.790784178846565
 51
180.0
1001
GENIUS_GENOBJ-N-FIL_13
1002
{
1000
OWNER
1000
GEN
1002
}
1001
GENIUS_GENODEF_13
1002
{
1000
HIER
1070
     0
1002
}
1002
{
1000
MANEDIT
1070
     0
1002
}
1002
{
1000
NOSEL
1070
     0
1002
}
1002
{
1000
BEHIND
1070
     0
1002
}
1002
{
1000
OTHER
1070
     0
1002
}
1002
{
1000
REACTOR
1002
}
  0
ARC
  5
17E2C
  8
AM_0
 10
268.2011454217992
 20
299.21074431757779
 30
0.0
 40
11.0
 50
271.79078417884648
 51
358.20921582115341
  0
LINE
  5
17E2D
  8
ﾁｭｳｼﾝｾﾝ1
 10
275.70114564531661
 20
299.21074431757779
 30
0.0
 11
260.70114519828178
 21
299.21074431757779
 31
0.0
  0
CIRCLE
  5
17E2E
  8
AM_0
 10
268.2011454217992
 20
299.21074431757779
 30
0.0
 40
4.5000001341104507
  0
LINE
  5
17E2F
  8
ﾁｭｳｼﾝｾﾝ1
 10
268.2011454217992
 20
306.71074454109521
 30
0.0
 11
268.2011454217992
 21
291.71074409406037
 31
0.0
  0
LINE
  5
17E30
  8
AM_0
 10
240.2011451088747
 20
312.21074333410121
 30
0.0
 11
251.7072486244997
 21
312.21074333410121
 31
0.0
  0
LINE
  5
17E31
  8
AM_0
 10
240.2011451088747
 20
322.21074333410121
 30
0.0
 11
249.7072486244997
 21
322.21074333410098
 31
0.0
  0
ARC
  5
17E3F
  8
AM_0
 10
249.7072486244997
 20
320.21074333410098
 30
0.0
 40
2.0
 50
0.0
 51
90.0
1001
GENIUS_GENOBJ-N-FIL_13
1002
{
1000
OWNER
1000
GEN
1002
}
1001
GENIUS_GENODEF_13
1002
{
1000
HIER
1070
     0
1002
}
1002
{
1000
MANEDIT
1070
     0
1002
}
1002
{
1000
NOSEL
1070
     0
1002
}
1002
{
1000
BEHIND
1070
     0
1002
}
1002
{
1000
OTHER
1070
     0
1002
}
1002
{
1000
REACTOR
1002
}
  0
LINE
  5
17E41
  8
AM_0
 10
284.19333101771173
 20
303.7107444516883
 30
0.0
 11
385.20896378959583
 21
303.7107444516883
 31
0.0
  0
ARC
  5
17E43
  8
AM_0
 10
401.70114940040912
 20
299.7107443324789
 30
0.0
 40
10.00000029802322
 50
0.0
 51
90.000002504475205
  0
ARC
  5
17E44
  8
AM_0
 10
400.7011495196183
 20
283.21855872166532
 30
0.0
 40
5.0
 50
0.0
 51
88.209215821153435
1001
GENIUS_GENOBJ-N-FIL_13
1002
{
1000
OWNER
1000
GEN
1002
}
1001
GENIUS_GENODEF_13
1002
{
1000
HIER
1070
     0
1002
}
1002
{
1000
MANEDIT
1070
     0
1002
}
1002
{
1000
NOSEL
1070
     0
1002
}
1002
{
1000
BEHIND
1070
     0
1002
}
1002
{
1000
OTHER
1070
     0
1002
}
1002
{
1000
REACTOR
1002
}
  0
ARC
  5
17E45
  8
AM_0
 10
401.20114938550819
 20
299.21074431757779
 30
0.0
 40
11.0
 50
181.79078417884659
 51
268.20921582115352
  0
CIRCLE
  5
17E46
  8
AM_0
 10
401.20114938550819
 20
299.21074431757779
 30
0.0
 40
4.5000001341104507
  0
LINE
  5
17E47
  8
ﾁｭｳｼﾝｾﾝ1
 10
393.70114916199049
 20
299.21074431757779
 30
0.0
 11
408.70114960902561
 21
299.21074431757779
 31
0.0
  0
ARC
  5
17E48
  8
AM_0
 10
385.20896378959583
 20
298.71074445168807
 30
0.0
 40
5.0
 50
1.7907841788466039
 51
90.0
1001
GENIUS_GENOBJ-N-FIL_13
1002
{
1000
OWNER
1000
GEN
1002
}
1001
GENIUS_GENODEF_13
1002
{
1000
HIER
1070
     0
1002
}
1002
{
1000
MANEDIT
1070
     0
1002
}
1002
{
1000
NOSEL
1070
     0
1002
}
1002
{
1000
BEHIND
1070
     0
1002
}
1002
{
1000
OTHER
1070
     0
1002
}
1002
{
1000
REACTOR
1002
}
  0
LINE
  5
17E49
  8
ﾁｭｳｼﾝｾﾝ1
 10
401.20114938550819
 20
306.71074454109521
 30
0.0
 11
401.20114938550819
 21
291.71074409406037
 31
0.0
  0
LINE
  5
17E4C
  8
AM_0
 10
678.36786124660273
 20
287.2107439599497
 30
0.0
 11
678.36786124660273
 21
212.21074172477569
 31
0.0
  0
LINE
  5
17E4E
  8
AM_0
 10
580.36785832597513
 20
287.2107439599497
 30
0.0
 11
580.36785832597513
 21
212.21074172477569
 31
0.0
  0
ARC
  5
17E4F
  8
AM_0
 10
629.36785978628893
 20
266.21074284236278
 30
0.0
 40
56.5
 50
330.14139424207667
 51
35.018628262081577
  0
LINE
  5
17E50
  8
AM_0
 10
654.36786073996325
 20
309.71074463050178
 30
0.0
 11
654.36786073996325
 21
189.71074105422349
 31
0.0
  0
LINE
  5
17E51
  8
AM_0
 10
674.36786112739333
 20
190.05986215473609
 30
0.0
 11
674.36786112739344
 21
309.36162352998952
 31
0.0
  0
LINE
  5
17E52
  8
AM_0
 10
584.3678584451842
 20
308.48887624882701
 30
0.0
 11
584.36785844518431
 21
190.93258169264499
 31
0.0
  0
ARC
  5
17E54
  8
AM_0
 10
629.36785978628893
 20
266.21074284236278
 30
0.0
 40
56.5
 50
144.98137173791841
 51
177.61675096770151
  0
LINE
  5
17E55
  8
ﾁｭｳｼﾝｾﾝ1
 10
629.36785978628893
 20
158.68234213692401
 30
0.0
 11
629.36785978628893
 21
332.71074284236278
 31
0.0
  0
LINE
  5
17E58
  8
AM_0
 10
654.36786073996325
 20
189.71074105422349
 30
0.0
 11
584.3678584451842
 21
190.93258169264499
 31
0.0
  0
LINE
  5
17E59
  8
ｶｸﾚｾﾝ2
 10
584.3678584451842
 20
204.7107415012583
 30
0.0
 11
674.36786112739333
 21
204.7107415012583
 31
0.0
  0
LINE
  5
17E5A
  8
ｶｸﾚｾﾝ2
 10
584.3678584451842
 20
195.7107412330374
 30
0.0
 11
674.36786112739333
 21
195.7107412330374
 31
0.0
  0
LINE
  5
17E5B
  8
ﾁｭｳｼﾝｾﾝ1
 10
581.36785844518408
 20
200.2107413671479
 30
0.0
 11
677.36786112739333
 21
200.2107413671479
 31
0.0
  0
LINE
  5
17E5C
  8
ﾁｭｳｼﾝｾﾝ1
 10
515.90423819283285
 20
249.71074284236281
 30
0.0
 11
687.36786136581202
 21
249.71074284236281
 31
0.0
  0
LINE
  5
17E5D
  8
ﾁｭｳｼﾝｾﾝ1
 10
565.79836509165034
 20
266.21074333410121
 30
0.0
 11
692.93735448092741
 21
266.21074333410121
 31
0.0
  0
LINE
  5
17E7C
  8
AM_0
 10
584.3678584451842
 20
212.21074172477569
 30
0.0
 11
580.36785832597513
 21
212.21074172477569
 31
0.0
  0
LINE
  5
17E81
  8
AM_0
 10
674.36786112739333
 20
190.05986215473609
 30
0.0
 11
654.36786073996325
 21
189.71074105422349
 31
0.0
  0
LINE
  5
17E85
  8
AM_0
 10
674.36786112739333
 20
212.21074172477569
 30
0.0
 11
678.36786124660273
 21
212.21074172477569
 31
0.0
  0
LINE
  5
17E87
  8
AM_0
 10
683.3678597862887
 20
232.30379145350571
 30
0.0
 11
683.36785978628893
 21
240.03921198119789
 31
0.0
  0
LINE
  5
17E88
  8
AM_0
 10
684.70181506345921
 20
232.25720870875941
 30
0.0
 11
678.36786124660273
 21
232.4783952499688
 31
0.0
  0
ARC
  5
17E89
  8
AM_0
 10
684.6428316624166
 20
231.1860338466729
 30
0.0
 40
1.0
 50
272.00000000000369
 51
341.43341919809689
1001
GENIUS_GENODEF_13
1002
{
1000
HIER
1070
     0
1002
}
1002
{
1000
MANEDIT
1070
     0
1002
}
1002
{
1000
NOSEL
1070
     0
1002
}
1002
{
1000
BEHIND
1070
     0
1002
}
1002
{
1000
REACTOR
1002
}
1001
GENIUS_GENOBJ-N-FIL_13
1002
{
1000
OWNER
1000
GEN
1002
}
  0
ARC
  5
17E8A
  8
AM_0
 10
580.36785978628893
 20
266.21074284236261
 30
0.0
 40
111.0
 50
341.43341919810371
 51
341.47285768553138
  0
LINE
  5
17E8B
  8
AM_0
 10
684.67773115911905
 20
230.1866430196537
 30
0.0
 11
678.36786124660273
 21
229.96629750691559
 31
0.0
  0
ARC
  5
17E8C
  8
AM_0
 10
684.66691556675653
 20
231.25781788174029
 30
0.0
 40
1.0
 50
341.47285768553138
 51
88.000000000002785
1001
GENIUS_GENODEF_13
1002
{
1000
HIER
1070
     0
1002
}
1002
{
1000
MANEDIT
1070
     0
1002
}
1002
{
1000
NOSEL
1070
     0
1002
}
1002
{
1000
BEHIND
1070
     0
1002
}
1002
{
1000
REACTOR
1002
}
1001
GENIUS_GENOBJ-N-FIL_13
1002
{
1000
OWNER
1000
GEN
1002
}
  0
LINE
  5
17E8D
  8
AM_0
 10
687.53416421815075
 20
242.25292876540701
 30
0.0
 11
680.64881384440878
 21
242.49337049867819
 31
0.0
  0
LINE
  5
17E8E
  8
AM_0
 10
687.51782948382777
 20
240.18413211640339
 30
0.0
 11
679.36755438372165
 21
239.89951823833789
 31
0.0
  0
ARC
  5
17E8F
  8
AM_0
 10
580.36785978628893
 20
266.21074284236261
 30
0.0
 40
111.0
 50
346.84888173935173
 51
346.88632985670102
  0
ARC
  5
17E90
  8
AM_0
 10
687.49926472144796
 20
241.25353793838781
 30
0.0
 40
1.0
 50
346.88632985670108
 51
87.999999999996248
1001
GENIUS_GENODEF_13
1002
{
1000
HIER
1070
     0
1002
}
1002
{
1000
MANEDIT
1070
     0
1002
}
1002
{
1000
NOSEL
1070
     0
1002
}
1002
{
1000
BEHIND
1070
     0
1002
}
1002
{
1000
REACTOR
1002
}
1001
GENIUS_GENOBJ-N-FIL_13
1002
{
1000
OWNER
1000
GEN
1002
}
  0
ARC
  5
17E91
  8
AM_0
 10
687.4829299871252
 20
241.1835229434225
 30
0.0
 40
1.0
 50
271.99999999999721
 51
346.84888173935173
1001
GENIUS_GENODEF_13
1002
{
1000
HIER
1070
     0
1002
}
1002
{
1000
MANEDIT
1070
     0
1002
}
1002
{
1000
NOSEL
1070
     0
1002
}
1002
{
1000
BEHIND
1070
     0
1002
}
1002
{
1000
REACTOR
1002
}
1001
GENIUS_GENOBJ-N-FIL_13
1002
{
1000
OWNER
1000
GEN
1002
}
  0
LINE
  5
17E92
  8
AM_0
 10
689.37111896926115
 20
250.1814954862966
 30
0.0
 11
683.48515463231229
 21
249.97595308244919
 31
0.0
  0
LINE
  5
17E93
  8
AM_0
 10
689.38060112163464
 20
252.2491848962691
 30
0.0
 11
684.16184195570872
 21
252.4314279821356
 31
0.0
  0
ARC
  5
17E94
  8
AM_0
 10
689.33621947255835
 20
251.1808863133156
 30
0.0
 40
1.0
 50
271.99999999999721
 51
352.1468219111938
1001
GENIUS_GENODEF_13
1002
{
1000
HIER
1070
     0
1002
}
1002
{
1000
MANEDIT
1070
     0
1002
}
1002
{
1000
NOSEL
1070
     0
1002
}
1002
{
1000
BEHIND
1070
     0
1002
}
1002
{
1000
REACTOR
1002
}
1001
GENIUS_GENOBJ-N-FIL_13
1002
{
1000
OWNER
1000
GEN
1002
}
  0
ARC
  5
17E95
  8
AM_0
 10
580.36785978628893
 20
266.21074284236261
 30
0.0
 40
111.0
 50
352.14682191118732
 51
352.18305216830549
  0
ARC
  5
17E96
  8
AM_0
 10
689.34570162493185
 20
251.2497940692501
 30
0.0
 40
1.0
 50
352.18305216830549
 51
88.000000000002785
1001
GENIUS_GENODEF_13
1002
{
1000
HIER
1070
     0
1002
}
1002
{
1000
MANEDIT
1070
     0
1002
}
1002
{
1000
NOSEL
1070
     0
1002
}
1002
{
1000
BEHIND
1070
     0
1002
}
1002
{
1000
REACTOR
1002
}
1001
GENIUS_GENOBJ-N-FIL_13
1002
{
1000
OWNER
1000
GEN
1002
}
  0
LINE
  5
17E97
  8
AM_0
 10
690.28757291240572
 20
260.17868536346418
 30
0.0
 11
685.5268395073997
 21
260.01243688961631
 31
0.0
  0
LINE
  5
17E98
  8
AM_0
 10
690.29068309086585
 20
262.2458410516183
 30
0.0
 11
685.73952446309215
 21
262.40477101297938
 31
0.0
  0
ARC
  5
17E99
  8
AM_0
 10
690.25578359416318
 20
261.24645022459941
 30
0.0
 40
1.0
 50
357.41336677122018
 51
87.999999999996248
1001
GENIUS_GENODEF_13
1002
{
1000
HIER
1070
     0
1002
}
1002
{
1000
MANEDIT
1070
     0
1002
}
1002
{
1000
NOSEL
1070
     0
1002
}
1002
{
1000
BEHIND
1070
     0
1002
}
1002
{
1000
REACTOR
1002
}
1001
GENIUS_GENOBJ-N-FIL_13
1002
{
1000
OWNER
1000
GEN
1002
}
  0
ARC
  5
17E9A
  8
AM_0
 10
580.36785978628893
 20
266.21074284236261
 30
0.0
 40
111.0
 50
357.37771591204711
 51
357.41336677122018
  0
ARC
  5
17E9B
  8
AM_0
 10
690.25267341570293
 20
261.1780761904833
 30
0.0
 40
1.0
 50
271.99999999999721
 51
357.37771591204711
1001
GENIUS_GENODEF_13
1002
{
1000
HIER
1070
     0
1002
}
1002
{
1000
MANEDIT
1070
     0
1002
}
1002
{
1000
NOSEL
1070
     0
1002
}
1002
{
1000
BEHIND
1070
     0
1002
}
1002
{
1000
REACTOR
1002
}
1001
GENIUS_GENOBJ-N-FIL_13
1002
{
1000
OWNER
1000
GEN
1002
}
  0
ARC
  5
17E9F
  8
AM_0
 10
644.3977163153362
 20
326.17910252863248
 30
0.0
 40
1.0
 50
1.999999999997129
 51
82.146821911194223
1001
GENIUS_GENODEF_13
1002
{
1000
HIER
1070
     0
1002
}
1002
{
1000
MANEDIT
1070
     0
1002
}
1002
{
1000
NOSEL
1070
     0
1002
}
1002
{
1000
BEHIND
1070
     0
1002
}
1002
{
1000
REACTOR
1002
}
1001
GENIUS_GENOBJ-N-FIL_13
1002
{
1000
OWNER
1000
GEN
1002
}
  0
ARC
  5
17EA0
  8
AM_0
 10
629.36785978628893
 20
266.21074284236278
 30
0.0
 40
56.5
 50
55.136162045695542
 51
124.8638379543044
  0
LINE
  5
17EA1
  8
AM_0
 10
654.36786073996325
 20
309.71074463050218
 30
0.0
 11
584.3678584451842
 21
308.48887624882678
 31
0.0
  0
LINE
  5
17EA2
  8
ｶｸﾚｾﾝ2
 10
584.3678584451842
 20
303.7107444516883
 30
0.0
 11
674.36786112739333
 21
303.7107444516883
 31
0.0
  0
LINE
  5
17EA3
  8
ｶｸﾚｾﾝ2
 10
584.3678584451842
 20
294.7107441834674
 30
0.0
 11
674.36786112739333
 21
294.7107441834674
 31
0.0
  0
LINE
  5
17EA4
  8
ﾁｭｳｼﾝｾﾝ1
 10
581.36785844518408
 20
299.21074431757779
 30
0.0
 11
677.36786112739333
 21
299.21074431757779
 31
0.0
  0
LINE
  5
17EA8
  8
AM_0
 10
571.2178900887501
 20
292.23735356832208
 30
0.0
 11
579.36816518885576
 21
292.52196744638718
 31
0.0
  0
LINE
  5
17EA9
  8
AM_0
 10
574.03390450911854
 20
300.164276975966
 30
0.0
 11
583.36785978628893
 21
299.83832807528552
 31
0.0
  0
LINE
  5
17EAA
  8
AM_0
 10
574.05798841345882
 20
302.23484266507171
 30
0.0
 11
583.36785978628893
 21
302.5599505372802
 31
0.0
  0
LINE
  5
17EAC
  8
AM_0
 10
568.44814666017226
 20
272.24280032126131
 30
0.0
 11
573.20888006517805
 21
272.40904879510907
 31
0.0
  0
LINE
  5
17EAD
  8
AM_0
 10
568.44503648171167
 20
270.17564463310691
 30
0.0
 11
572.99619510948583
 21
270.01671467174629
 31
0.0
  0
ARC
  5
17EAE
  8
AM_0
 10
568.47993597841446
 20
271.1750354601258
 30
0.0
 40
1.0
 50
177.41336677122669
 51
267.99999999999631
1001
GENIUS_GENODEF_13
1002
{
1000
HIER
1070
     0
1002
}
1002
{
1000
MANEDIT
1070
     0
1002
}
1002
{
1000
NOSEL
1070
     0
1002
}
1002
{
1000
BEHIND
1070
     0
1002
}
1002
{
1000
REACTOR
1002
}
1001
GENIUS_GENOBJ-N-FIL_13
1002
{
1000
OWNER
1000
GEN
1002
}
  0
ARC
  5
17EAF
  8
AM_0
 10
678.36785978628893
 20
266.21074284236278
 30
0.0
 40
111.0
 50
177.37771591204699
 51
177.41336677122021
  0
ARC
  5
17EB0
  8
AM_0
 10
568.48304615687482
 20
271.24340949424209
 30
0.0
 40
1.0
 50
92.000000000003695
 51
177.37771591204699
1001
GENIUS_GENODEF_13
1002
{
1000
HIER
1070
     0
1002
}
1002
{
1000
MANEDIT
1070
     0
1002
}
1002
{
1000
NOSEL
1070
     0
1002
}
1002
{
1000
BEHIND
1070
     0
1002
}
1002
{
1000
REACTOR
1002
}
1001
GENIUS_GENOBJ-N-FIL_13
1002
{
1000
OWNER
1000
GEN
1002
}
  0
LINE
  5
17EB1
  8
AM_0
 10
569.36460060331672
 20
282.23999019842898
 30
0.0
 11
575.25056494026569
 21
282.44553260227622
 31
0.0
  0
LINE
  5
17EB2
  8
AM_0
 10
569.35511845094311
 20
280.17230078845608
 30
0.0
 11
574.57387761686903
 21
279.99005770259009
 31
0.0
  0
ARC
  5
17EB3
  8
AM_0
 10
569.39950010001917
 20
281.24059937140959
 30
0.0
 40
1.0
 50
91.999999999997215
 51
172.14682191119391
1001
GENIUS_GENODEF_13
1002
{
1000
HIER
1070
     0
1002
}
1002
{
1000
MANEDIT
1070
     0
1002
}
1002
{
1000
NOSEL
1070
     0
1002
}
1002
{
1000
BEHIND
1070
     0
1002
}
1002
{
1000
REACTOR
1002
}
1001
GENIUS_GENOBJ-N-FIL_13
1002
{
1000
OWNER
1000
GEN
1002
}
  0
ARC
  5
17EB4
  8
AM_0
 10
678.36785978628893
 20
266.21074284236278
 30
0.0
 40
111.0
 50
172.14682191118729
 51
172.18305216830549
  0
ARC
  5
17EB5
  8
AM_0
 10
569.39001794764556
 20
281.17169161547508
 30
0.0
 40
1.0
 50
172.18305216830549
 51
267.99999999999631
1001
GENIUS_GENODEF_13
1002
{
1000
HIER
1070
     0
1002
}
1002
{
1000
MANEDIT
1070
     0
1002
}
1002
{
1000
NOSEL
1070
     0
1002
}
1002
{
1000
BEHIND
1070
     0
1002
}
1002
{
1000
REACTOR
1002
}
1001
GENIUS_GENOBJ-N-FIL_13
1002
{
1000
OWNER
1000
GEN
1002
}
  0
LINE
  5
17EB6
  8
AM_0
 10
575.36785978628893
 20
300.1176942312199
 30
0.0
 11
575.36785978628893
 21
292.38227370352752
 31
0.0
  0
ARC
  5
17EB7
  8
AM_0
 10
571.25278958545277
 20
291.23796274130268
 30
0.0
 40
1.0
 50
91.999999999997215
 51
166.84888173935161
1001
GENIUS_GENODEF_13
1002
{
1000
HIER
1070
     0
1002
}
1002
{
1000
MANEDIT
1070
     0
1002
}
1002
{
1000
NOSEL
1070
     0
1002
}
1002
{
1000
BEHIND
1070
     0
1002
}
1002
{
1000
REACTOR
1002
}
1001
GENIUS_GENOBJ-N-FIL_13
1002
{
1000
OWNER
1000
GEN
1002
}
  0
ARC
  5
17EB8
  8
AM_0
 10
571.23645485112968
 20
291.1679477463374
 30
0.0
 40
1.0
 50
166.88632985670111
 51
267.99999999999631
1001
GENIUS_GENODEF_13
1002
{
1000
HIER
1070
     0
1002
}
1002
{
1000
MANEDIT
1070
     0
1002
}
1002
{
1000
NOSEL
1070
     0
1002
}
1002
{
1000
BEHIND
1070
     0
1002
}
1002
{
1000
REACTOR
1002
}
1001
GENIUS_GENOBJ-N-FIL_13
1002
{
1000
OWNER
1000
GEN
1002
}
  0
ARC
  5
17EB9
  8
AM_0
 10
678.36785978628893
 20
266.21074284236278
 30
0.0
 40
111.0
 50
166.84888173935161
 51
166.88632985670111
  0
LINE
  5
17EBA
  8
AM_0
 10
571.20155535442723
 20
290.16855691931852
 30
0.0
 11
578.08690572816874
 21
289.92811518604708
 31
0.0
  0
ARC
  5
17EBB
  8
AM_0
 10
574.06880400582122
 20
301.16366780298472
 30
0.0
 40
1.0
 50
161.47285768553141
 51
267.99999999999631
1001
GENIUS_GENODEF_13
1002
{
1000
HIER
1070
     0
1002
}
1002
{
1000
MANEDIT
1070
     0
1002
}
1002
{
1000
NOSEL
1070
     0
1002
}
1002
{
1000
BEHIND
1070
     0
1002
}
1002
{
1000
REACTOR
1002
}
1001
GENIUS_GENOBJ-N-FIL_13
1002
{
1000
OWNER
1000
GEN
1002
}
  0
ARC
  5
17EBC
  8
AM_0
 10
678.36785978628893
 20
266.21074284236278
 30
0.0
 40
111.0
 50
161.43341919810359
 51
161.47285768553141
  0
ARC
  5
17EBD
  8
AM_0
 10
574.09288791016127
 20
301.23545183805231
 30
0.0
 40
1.0
 50
92.000000000003695
 51
161.43341919809691
1001
GENIUS_GENODEF_13
1002
{
1000
HIER
1070
     0
1002
}
1002
{
1000
MANEDIT
1070
     0
1002
}
1002
{
1000
NOSEL
1070
     0
1002
}
1002
{
1000
BEHIND
1070
     0
1002
}
1002
{
1000
REACTOR
1002
}
1001
GENIUS_GENOBJ-N-FIL_13
1002
{
1000
OWNER
1000
GEN
1002
}
  0
ARC
  5
17EBE
  8
AM_0
 10
588.36785978628893
 20
307.21074284236278
 30
0.0
 40
5.0
 50
90.0
 51
180.0
1001
GENIUS_GENOBJ-N-CEN_13
1002
{
1000
OWNER
1000
GEN
1002
}
1001
GENIUS_GENODEF_13
1002
{
1000
HIER
1070
     0
1002
}
1002
{
1000
MANEDIT
1070
     0
1002
}
1002
{
1000
NOSEL
1070
     0
1002
}
1002
{
1000
BEHIND
1070
     0
1002
}
1002
{
1000
REACTOR
1002
}
1001
GENIUS_GENOBJ-N-FIL_13
1002
{
1000
OWNER
1000
GEN
1002
}
  0
LINE
  5
17EBF
  8
AM_0
 10
584.3678584451842
 20
287.2107439599497
 30
0.0
 11
580.36785832597513
 21
287.2107439599497
 31
0.0
  0
ARC
  5
17EC0
  8
AM_0
 10
581.86785978628893
 20
299.49362132364757
 30
0.0
 40
1.5
 50
324.98137173791167
 51
0.0
1001
GENIUS_GENODEF_13
1002
{
1000
HIER
1070
     0
1002
}
1002
{
1000
MANEDIT
1070
     0
1002
}
1002
{
1000
NOSEL
1070
     0
1002
}
1002
{
1000
BEHIND
1070
     0
1002
}
1002
{
1000
REACTOR
1002
}
1001
GENIUS_GENOBJ-N-FIL_13
1002
{
1000
OWNER
1000
GEN
1002
}
  0
LINE
  5
17EC1
  8
AM_0
 10
583.36785978628893
 20
299.49362132364791
 30
0.0
 11
583.36785978628893
 21
307.21074284236278
 31
0.0
1001
GENIUS_GENODEF_13
1002
{
1000
HIER
1070
     0
1002
}
1002
{
1000
MANEDIT
1070
     0
1002
}
1002
{
1000
NOSEL
1070
     0
1002
}
1002
{
1000
BEHIND
1070
     0
1002
}
1002
{
1000
REACTOR
1002
}
1001
GENIUS_GENOBJ-N-CEN_13
1002
{
1000
OWNER
1000
GEN
1002
}
  0
LINE
  5
17EC2
  8
AM_0
 10
588.36785978628893
 20
312.21074284236278
 30
0.0
 11
595.92761457187703
 21
312.21074284236278
 31
0.0
  0
ARC
  5
17EC3
  8
AM_0
 10
594.41493482566636
 20
321.5097986228302
 30
0.0
 40
1.0
 50
1.999999999997129
 51
108.5271423144744
1001
GENIUS_GENODEF_13
1002
{
1000
HIER
1070
     0
1002
}
1002
{
1000
MANEDIT
1070
     0
1002
}
1002
{
1000
NOSEL
1070
     0
1002
}
1002
{
1000
BEHIND
1070
     0
1002
}
1002
{
1000
REACTOR
1002
}
1001
GENIUS_GENOBJ-N-FIL_13
1002
{
1000
OWNER
1000
GEN
1002
}
  0
LINE
  5
17EC4
  8
AM_0
 10
593.34375996357971
 20
321.52061421519278
 30
0.0
 11
593.01865209137145
 21
312.21074284236278
 31
0.0
  0
ARC
  5
17EC5
  8
AM_0
 10
629.36785978628893
 20
217.21074284236289
 30
0.0
 40
111.0
 50
108.5271423144744
 51
108.566580801896
  0
ARC
  5
17EC6
  8
AM_0
 10
594.34315079059922
 20
321.48571471849033
 30
0.0
 40
1.0
 50
108.5665808019029
 51
177.99999999999631
1001
GENIUS_GENODEF_13
1002
{
1000
HIER
1070
     0
1002
}
1002
{
1000
MANEDIT
1070
     0
1002
}
1002
{
1000
NOSEL
1070
     0
1002
}
1002
{
1000
BEHIND
1070
     0
1002
}
1002
{
1000
REACTOR
1002
}
1001
GENIUS_GENOBJ-N-FIL_13
1002
{
1000
OWNER
1000
GEN
1002
}
  0
LINE
  5
17EC7
  8
AM_0
 10
603.34124906032946
 20
324.36071253990173
 30
0.0
 11
603.05663518226424
 21
316.21043743979573
 31
0.0
  0
LINE
  5
17EC8
  8
AM_0
 10
605.41004570933308
 20
324.37704727422442
 30
0.0
 11
605.65048744260434
 21
317.49169690048302
 31
0.0
  0
LINE
  5
17EC9
  8
AM_0
 10
595.41432565268565
 20
321.544698119533
 30
0.0
 11
595.73996646796866
 21
312.21956525382387
 31
0.0
  0
ARC
  5
17ECA
  8
AM_0
 10
595.92761457187703
 20
314.21074284236278
 30
0.0
 40
2.0
 50
270.0
 51
304.86383795430407
1001
GENIUS_GENOBJ-N-FIL_13
1002
{
1000
OWNER
1000
GEN
1002
}
1001
GENIUS_GENODEF_13
1002
{
1000
HIER
1070
     0
1002
}
1002
{
1000
MANEDIT
1070
     0
1002
}
1002
{
1000
NOSEL
1070
     0
1002
}
1002
{
1000
BEHIND
1070
     0
1002
}
1002
{
1000
OTHER
1070
     0
1002
}
1002
{
1000
REACTOR
1002
}
  0
ARC
  5
17ECB
  8
AM_0
 10
604.34063988734863
 20
324.3258130431991
 30
0.0
 40
1.0
 50
103.15111826065571
 51
178.00000000000281
1001
GENIUS_GENODEF_13
1002
{
1000
HIER
1070
     0
1002
}
1002
{
1000
MANEDIT
1070
     0
1002
}
1002
{
1000
NOSEL
1070
     0
1002
}
1002
{
1000
BEHIND
1070
     0
1002
}
1002
{
1000
REACTOR
1002
}
1001
GENIUS_GENOBJ-N-FIL_13
1002
{
1000
OWNER
1000
GEN
1002
}
  0
ARC
  5
17ECC
  8
AM_0
 10
604.41065488231413
 20
324.34214777752157
 30
0.0
 40
1.0
 50
2.0000000000036531
 51
103.11367014329829
1001
GENIUS_GENODEF_13
1002
{
1000
HIER
1070
     0
1002
}
1002
{
1000
MANEDIT
1070
     0
1002
}
1002
{
1000
NOSEL
1070
     0
1002
}
1002
{
1000
BEHIND
1070
     0
1002
}
1002
{
1000
REACTOR
1002
}
1001
GENIUS_GENOBJ-N-FIL_13
1002
{
1000
OWNER
1000
GEN
1002
}
  0
ARC
  5
17ECD
  8
AM_0
 10
629.36785978628893
 20
217.21074284236289
 30
0.0
 40
111.0
 50
103.11367014329829
 51
103.15111826065571
  0
LINE
  5
17ECE
  8
AM_0
 10
613.33861243022261
 20
326.21400202533511
 30
0.0
 11
613.13307002637521
 21
320.3280376883859
 31
0.0
  0
ARC
  5
17ECF
  8
AM_0
 10
629.36785978628893
 20
217.21074284236289
 30
0.0
 40
111.0
 50
97.816947831694947
 51
97.853178088805777
  0
ARC
  5
17ED0
  8
AM_0
 10
614.33800325724155
 20
326.17910252863248
 30
0.0
 40
1.0
 50
97.853178088805777
 51
178.00000000000281
1001
GENIUS_GENODEF_13
1002
{
1000
HIER
1070
     0
1002
}
1002
{
1000
MANEDIT
1070
     0
1002
}
1002
{
1000
NOSEL
1070
     0
1002
}
1002
{
1000
BEHIND
1070
     0
1002
}
1002
{
1000
REACTOR
1002
}
1001
GENIUS_GENOBJ-N-FIL_13
1002
{
1000
OWNER
1000
GEN
1002
}
  0
ARC
  5
17ED1
  8
AM_0
 10
614.40691101317623
 20
326.18858468100569
 30
0.0
 40
1.0
 50
1.999999999997129
 51
97.816947831694947
1001
GENIUS_GENODEF_13
1002
{
1000
HIER
1070
     0
1002
}
1002
{
1000
MANEDIT
1070
     0
1002
}
1002
{
1000
NOSEL
1070
     0
1002
}
1002
{
1000
BEHIND
1070
     0
1002
}
1002
{
1000
REACTOR
1002
}
1001
GENIUS_GENOBJ-N-FIL_13
1002
{
1000
OWNER
1000
GEN
1002
}
  0
LINE
  5
17ED2
  8
AM_0
 10
615.4063018401954
 20
326.2234841777086
 30
0.0
 11
615.58854492606156
 21
321.0047250117828
 31
0.0
  0
ARC
  5
17ED3
  8
AM_0
 10
624.33519313440945
 20
327.09555647177672
 30
0.0
 40
1.0
 50
92.622284087953005
 51
178.00000000000281
1001
GENIUS_GENODEF_13
1002
{
1000
HIER
1070
     0
1002
}
1002
{
1000
MANEDIT
1070
     0
1002
}
1002
{
1000
NOSEL
1070
     0
1002
}
1002
{
1000
BEHIND
1070
     0
1002
}
1002
{
1000
REACTOR
1002
}
1001
GENIUS_GENOBJ-N-FIL_13
1002
{
1000
OWNER
1000
GEN
1002
}
  0
ARC
  5
17ED4
  8
AM_0
 10
624.40356716852534
 20
327.09866665023719
 30
0.0
 40
1.0
 50
2.0000000000036531
 51
92.586633228773294
1001
GENIUS_GENODEF_13
1002
{
1000
HIER
1070
     0
1002
}
1002
{
1000
MANEDIT
1070
     0
1002
}
1002
{
1000
NOSEL
1070
     0
1002
}
1002
{
1000
BEHIND
1070
     0
1002
}
1002
{
1000
REACTOR
1002
}
1001
GENIUS_GENOBJ-N-FIL_13
1002
{
1000
OWNER
1000
GEN
1002
}
  0
LINE
  5
17ED5
  8
AM_0
 10
623.33580230739051
 20
327.13045596847928
 30
0.0
 11
623.16955383354241
 21
322.36972256347372
 31
0.0
  0
LINE
  5
17ED6
  8
AM_0
 10
625.40295799554463
 20
327.13356614693981
 30
0.0
 11
625.56188795690548
 21
322.58240751916583
 31
0.0
  0
ARC
  5
17ED7
  8
AM_0
 10
634.40052643816841
 20
327.09555647177672
 30
0.0
 40
1.0
 50
1.999999999997129
 51
87.37771591204698
1001
GENIUS_GENODEF_13
1002
{
1000
HIER
1070
     0
1002
}
1002
{
1000
MANEDIT
1070
     0
1002
}
1002
{
1000
NOSEL
1070
     0
1002
}
1002
{
1000
BEHIND
1070
     0
1002
}
1002
{
1000
REACTOR
1002
}
1001
GENIUS_GENOBJ-N-FIL_13
1002
{
1000
OWNER
1000
GEN
1002
}
  0
ARC
  5
17ED8
  8
AM_0
 10
634.33215240405241
 20
327.09866665023719
 30
0.0
 40
1.0
 50
87.413366771226706
 51
177.99999999999631
1001
GENIUS_GENODEF_13
1002
{
1000
HIER
1070
     0
1002
}
1002
{
1000
MANEDIT
1070
     0
1002
}
1002
{
1000
NOSEL
1070
     0
1002
}
1002
{
1000
BEHIND
1070
     0
1002
}
1002
{
1000
REACTOR
1002
}
1001
GENIUS_GENOBJ-N-FIL_13
1002
{
1000
OWNER
1000
GEN
1002
}
  0
LINE
  5
17ED9
  8
AM_0
 10
635.39991726518736
 20
327.13045596847928
 30
0.0
 11
635.56616573903545
 21
322.36972256347372
 31
0.0
  0
LINE
  5
17EDA
  8
AM_0
 10
633.33276157703324
 20
327.13356614693981
 30
0.0
 11
633.17383161567216
 21
322.58240751916583
 31
0.0
  0
ARC
  5
17EDB
  8
AM_0
 10
629.36785978628893
 20
217.21074284236289
 30
0.0
 40
111.0
 50
82.146821911194223
 51
82.183052168305053
  0
ARC
  5
17EDC
  8
AM_0
 10
644.32880855940164
 20
326.18858468100569
 30
0.0
 40
1.0
 50
82.183052168305053
 51
178.00000000000281
1001
GENIUS_GENODEF_13
1002
{
1000
HIER
1070
     0
1002
}
1002
{
1000
MANEDIT
1070
     0
1002
}
1002
{
1000
NOSEL
1070
     0
1002
}
1002
{
1000
BEHIND
1070
     0
1002
}
1002
{
1000
REACTOR
1002
}
1001
GENIUS_GENOBJ-N-FIL_13
1002
{
1000
OWNER
1000
GEN
1002
}
  0
LINE
  5
17EDD
  8
AM_0
 10
643.32941773238247
 20
326.2234841777086
 30
0.0
 11
643.14717464651596
 21
321.0047250117828
 31
0.0
  0
ARC
  5
17EE0
  8
AM_0
 10
670.36785978628893
 20
307.21074284236278
 30
0.0
 40
5.0
 50
0.0
 51
90.0
1001
GENIUS_GENODEF_13
1002
{
1000
HIER
1070
     0
1002
}
1002
{
1000
MANEDIT
1070
     0
1002
}
1002
{
1000
NOSEL
1070
     0
1002
}
1002
{
1000
BEHIND
1070
     0
1002
}
1002
{
1000
REACTOR
1002
}
1001
GENIUS_GENOBJ-N-FIL_13
1002
{
1000
OWNER
1000
GEN
1002
}
  0
LINE
  5
17EE2
  8
AM_0
 10
684.70181506345921
 20
300.164276975966
 30
0.0
 11
675.36785978628893
 21
299.83832807528552
 31
0.0
  0
LINE
  5
17EE3
  8
AM_0
 10
684.67773115911893
 20
302.23484266507171
 30
0.0
 11
675.36785978628893
 21
302.5599505372802
 31
0.0
  0
LINE
  5
17EE4
  8
AM_0
 10
674.36786112739333
 20
287.2107439599497
 30
0.0
 11
678.36786124660273
 21
287.2107439599497
 31
0.0
  0
LINE
  5
17EE5
  8
AM_0
 10
674.36786112739333
 20
309.36162352998952
 30
0.0
 11
654.36786073996325
 21
309.71074463050178
 31
0.0
  0
ARC
  5
17EE6
  8
AM_0
 10
676.86785978628893
 20
299.49362132364791
 30
0.0
 40
1.5
 50
180.0
 51
215.01862826208159
1001
GENIUS_GENODEF_13
1002
{
1000
HIER
1070
     0
1002
}
1002
{
1000
MANEDIT
1070
     0
1002
}
1002
{
1000
NOSEL
1070
     0
1002
}
1002
{
1000
BEHIND
1070
     0
1002
}
1002
{
1000
REACTOR
1002
}
1001
GENIUS_GENOBJ-N-FIL_13
1002
{
1000
OWNER
1000
GEN
1002
}
  0
LINE
  5
17EE7
  8
AM_0
 10
675.36785978628893
 20
299.49362132364791
 30
0.0
 11
675.36785978628893
 21
307.21074284236278
 31
0.0
1001
GENIUS_GENODEF_13
1002
{
1000
HIER
1070
     0
1002
}
1002
{
1000
MANEDIT
1070
     0
1002
}
1002
{
1000
NOSEL
1070
     0
1002
}
1002
{
1000
BEHIND
1070
     0
1002
}
1002
{
1000
REACTOR
1002
}
1001
GENIUS_GENOBJ-N-CEN_13
1002
{
1000
OWNER
1000
GEN
1002
}
  0
LINE
  5
17EE8
  8
AM_0
 10
690.29068309086585
 20
270.17564463310691
 30
0.0
 11
685.73952446309215
 21
270.01671467174629
 31
0.0
  0
LINE
  5
17EE9
  8
AM_0
 10
690.28757291240572
 20
272.24280032126131
 30
0.0
 11
685.5268395073997
 21
272.40904879510907
 31
0.0
  0
ARC
  5
17EEA
  8
AM_0
 10
690.25578359416318
 20
271.17503546012608
 30
0.0
 40
1.0
 50
272.00000000000369
 51
2.5866332287798328
1001
GENIUS_GENODEF_13
1002
{
1000
HIER
1070
     0
1002
}
1002
{
1000
MANEDIT
1070
     0
1002
}
1002
{
1000
NOSEL
1070
     0
1002
}
1002
{
1000
BEHIND
1070
     0
1002
}
1002
{
1000
REACTOR
1002
}
1001
GENIUS_GENOBJ-N-FIL_13
1002
{
1000
OWNER
1000
GEN
1002
}
  0
ARC
  5
17EEB
  8
AM_0
 10
690.25267341570293
 20
271.24340949424231
 30
0.0
 40
1.0
 50
2.6222840879529081
 51
88.000000000002785
1001
GENIUS_GENODEF_13
1002
{
1000
HIER
1070
     0
1002
}
1002
{
1000
MANEDIT
1070
     0
1002
}
1002
{
1000
NOSEL
1070
     0
1002
}
1002
{
1000
BEHIND
1070
     0
1002
}
1002
{
1000
REACTOR
1002
}
1001
GENIUS_GENOBJ-N-FIL_13
1002
{
1000
OWNER
1000
GEN
1002
}
  0
ARC
  5
17EEC
  8
AM_0
 10
580.36785978628893
 20
266.21074284236261
 30
0.0
 40
111.0
 50
2.5866332287798328
 51
2.6222840879529081
  0
LINE
  5
17EED
  8
AM_0
 10
689.38060112163464
 20
280.17230078845608
 30
0.0
 11
684.16184195570872
 21
279.99005770259009
 31
0.0
  0
LINE
  5
17EEE
  8
AM_0
 10
689.37111896926115
 20
282.23999019842898
 30
0.0
 11
683.48515463231229
 21
282.44553260227622
 31
0.0
  0
ARC
  5
17EEF
  8
AM_0
 10
689.33621947255835
 20
281.24059937140993
 30
0.0
 40
1.0
 50
7.8531780888061062
 51
88.000000000002785
1001
GENIUS_GENODEF_13
1002
{
1000
HIER
1070
     0
1002
}
1002
{
1000
MANEDIT
1070
     0
1002
}
1002
{
1000
NOSEL
1070
     0
1002
}
1002
{
1000
BEHIND
1070
     0
1002
}
1002
{
1000
REACTOR
1002
}
1001
GENIUS_GENOBJ-N-FIL_13
1002
{
1000
OWNER
1000
GEN
1002
}
  0
ARC
  5
17EF0
  8
AM_0
 10
580.36785978628893
 20
266.21074284236261
 30
0.0
 40
111.0
 50
7.8169478316945114
 51
7.8531780888126708
  0
ARC
  5
17EF1
  8
AM_0
 10
689.34570162493185
 20
281.17169161547531
 30
0.0
 40
1.0
 50
271.99999999999721
 51
7.8169478316944554
1001
GENIUS_GENODEF_13
1002
{
1000
HIER
1070
     0
1002
}
1002
{
1000
MANEDIT
1070
     0
1002
}
1002
{
1000
NOSEL
1070
     0
1002
}
1002
{
1000
BEHIND
1070
     0
1002
}
1002
{
1000
REACTOR
1002
}
1001
GENIUS_GENOBJ-N-FIL_13
1002
{
1000
OWNER
1000
GEN
1002
}
  0
LINE
  5
17EF2
  8
AM_0
 10
683.3678597862887
 20
300.1176942312199
 30
0.0
 11
683.36785978628893
 21
292.38227370352752
 31
0.0
  0
LINE
  5
17EF3
  8
AM_0
 10
687.51782948382777
 20
292.23735356832208
 30
0.0
 11
679.36755438372199
 21
292.52196744638718
 31
0.0
  0
LINE
  5
17EF4
  8
AM_0
 10
687.53416421815052
 20
290.16855691931852
 30
0.0
 11
680.64881384440912
 21
289.92811518604708
 31
0.0
  0
ARC
  5
17EF5
  8
AM_0
 10
580.36785978628893
 20
266.21074284236261
 30
0.0
 40
111.0
 50
13.11367014329905
 51
13.151118260648429
  0
ARC
  5
17EF6
  8
AM_0
 10
687.49926472144796
 20
291.16794774633757
 30
0.0
 40
1.0
 50
272.00000000000369
 51
13.11367014329887
1001
GENIUS_GENODEF_13
1002
{
1000
HIER
1070
     0
1002
}
1002
{
1000
MANEDIT
1070
     0
1002
}
1002
{
1000
NOSEL
1070
     0
1002
}
1002
{
1000
BEHIND
1070
     0
1002
}
1002
{
1000
REACTOR
1002
}
1001
GENIUS_GENOBJ-N-FIL_13
1002
{
1000
OWNER
1000
GEN
1002
}
  0
ARC
  5
17EF7
  8
AM_0
 10
687.4829299871252
 20
291.23796274130291
 30
0.0
 40
1.0
 50
13.151118260648429
 51
88.000000000002785
1001
GENIUS_GENODEF_13
1002
{
1000
HIER
1070
     0
1002
}
1002
{
1000
MANEDIT
1070
     0
1002
}
1002
{
1000
NOSEL
1070
     0
1002
}
1002
{
1000
BEHIND
1070
     0
1002
}
1002
{
1000
REACTOR
1002
}
1001
GENIUS_GENOBJ-N-FIL_13
1002
{
1000
OWNER
1000
GEN
1002
}
  0
ARC
  5
17EF8
  8
AM_0
 10
684.66691556675653
 20
301.16366780298489
 30
0.0
 40
1.0
 50
271.99999999999721
 51
18.527142314468641
1001
GENIUS_GENODEF_13
1002
{
1000
HIER
1070
     0
1002
}
1002
{
1000
MANEDIT
1070
     0
1002
}
1002
{
1000
NOSEL
1070
     0
1002
}
1002
{
1000
BEHIND
1070
     0
1002
}
1002
{
1000
REACTOR
1002
}
1001
GENIUS_GENOBJ-N-FIL_13
1002
{
1000
OWNER
1000
GEN
1002
}
  0
ARC
  5
17EF9
  8
AM_0
 10
580.36785978628893
 20
266.21074284236261
 30
0.0
 40
111.0
 50
18.527142314468641
 51
18.566580801896361
  0
ARC
  5
17EFA
  8
AM_0
 10
684.6428316624166
 20
301.23545183805248
 30
0.0
 40
1.0
 50
18.566580801903051
 51
87.999999999996248
1001
GENIUS_GENODEF_13
1002
{
1000
HIER
1070
     0
1002
}
1002
{
1000
MANEDIT
1070
     0
1002
}
1002
{
1000
NOSEL
1070
     0
1002
}
1002
{
1000
BEHIND
1070
     0
1002
}
1002
{
1000
REACTOR
1002
}
1001
GENIUS_GENOBJ-N-FIL_13
1002
{
1000
OWNER
1000
GEN
1002
}
  0
ARC
  5
17EFB
  8
AM_0
 10
662.80810500070072
 20
314.21074284236278
 30
0.0
 40
2.0
 50
235.1361620456955
 51
270.0
1001
GENIUS_GENODEF_13
1002
{
1000
HIER
1070
     0
1002
}
1002
{
1000
MANEDIT
1070
     0
1002
}
1002
{
1000
NOSEL
1070
     0
1002
}
1002
{
1000
BEHIND
1070
     0
1002
}
1002
{
1000
OTHER
1070
     0
1002
}
1002
{
1000
REACTOR
1002
}
1001
GENIUS_GENOBJ-N-FIL_13
1002
{
1000
OWNER
1000
GEN
1002
}
  0
LINE
  5
17EFC
  8
AM_0
 10
653.32567386324479
 20
324.37704727422442
 30
0.0
 11
653.08523212997318
 21
317.49169690048302
 31
0.0
  0
LINE
  5
17EFD
  8
AM_0
 10
655.39447051224806
 20
324.36071253990173
 30
0.0
 11
655.67908439031362
 21
316.21043743979573
 31
0.0
  0
LINE
  5
17EFE
  8
AM_0
 10
645.39710714235514
 20
326.21400202533511
 30
0.0
 11
645.60264954620243
 21
320.3280376883859
 31
0.0
  0
ARC
  5
17EFF
  8
AM_0
 10
654.32506469026373
 20
324.34214777752157
 30
0.0
 40
1.0
 50
76.886329856701593
 51
177.99999999999631
1001
GENIUS_GENODEF_13
1002
{
1000
HIER
1070
     0
1002
}
1002
{
1000
MANEDIT
1070
     0
1002
}
1002
{
1000
NOSEL
1070
     0
1002
}
1002
{
1000
BEHIND
1070
     0
1002
}
1002
{
1000
REACTOR
1002
}
1001
GENIUS_GENOBJ-N-FIL_13
1002
{
1000
OWNER
1000
GEN
1002
}
  0
ARC
  5
17F00
  8
AM_0
 10
654.39507968522923
 20
324.3258130431991
 30
0.0
 40
1.0
 50
1.999999999997129
 51
76.848881739344307
1001
GENIUS_GENODEF_13
1002
{
1000
HIER
1070
     0
1002
}
1002
{
1000
MANEDIT
1070
     0
1002
}
1002
{
1000
NOSEL
1070
     0
1002
}
1002
{
1000
BEHIND
1070
     0
1002
}
1002
{
1000
REACTOR
1002
}
1001
GENIUS_GENOBJ-N-FIL_13
1002
{
1000
OWNER
1000
GEN
1002
}
  0
ARC
  5
17F01
  8
AM_0
 10
629.36785978628893
 20
217.21074284236289
 30
0.0
 40
111.0
 50
76.848881739344307
 51
76.886329856701593
  0
LINE
  5
17F02
  8
AM_0
 10
665.39195960899804
 20
321.52061421519278
 30
0.0
 11
665.71706748120641
 21
312.21074284236278
 31
0.0
  0
LINE
  5
17F03
  8
AM_0
 10
663.32139391989188
 20
321.544698119533
 30
0.0
 11
662.99575310460875
 21
312.21956525382382
 31
0.0
  0
LINE
  5
17F04
  8
AM_0
 10
662.80810500070072
 20
312.21074284236278
 30
0.0
 11
670.36785978628893
 21
312.21074284236278
 31
0.0
  0
ARC
  5
17F05
  8
AM_0
 10
629.36785978628893
 20
217.21074284236289
 30
0.0
 40
111.0
 50
71.433419198104019
 51
71.472857685525582
  0
ARC
  5
17F06
  8
AM_0
 10
664.39256878197864
 20
321.48571471849033
 30
0.0
 40
1.0
 50
2.0000000000036531
 51
71.43341919809707
1001
GENIUS_GENODEF_13
1002
{
1000
HIER
1070
     0
1002
}
1002
{
1000
MANEDIT
1070
     0
1002
}
1002
{
1000
NOSEL
1070
     0
1002
}
1002
{
1000
BEHIND
1070
     0
1002
}
1002
{
1000
REACTOR
1002
}
1001
GENIUS_GENOBJ-N-FIL_13
1002
{
1000
OWNER
1000
GEN
1002
}
  0
ARC
  5
17F07
  8
AM_0
 10
664.32078474691116
 20
321.5097986228302
 30
0.0
 40
1.0
 50
71.472857685525582
 51
178.00000000000281
1001
GENIUS_GENODEF_13
1002
{
1000
HIER
1070
     0
1002
}
1002
{
1000
MANEDIT
1070
     0
1002
}
1002
{
1000
NOSEL
1070
     0
1002
}
1002
{
1000
BEHIND
1070
     0
1002
}
1002
{
1000
REACTOR
1002
}
1001
GENIUS_GENOBJ-N-FIL_13
1002
{
1000
OWNER
1000
GEN
1002
}
  0
LINE
  5
181C9
  8
AM_0
 10
576.36785809284424
 20
269.71054345462551
 30
0.0
 11
580.36785821205376
 21
269.71054345462551
 31
0.0
  0
LINE
  5
181CA
  8
AM_0
 10
576.36785809284424
 20
269.71054345462551
 30
0.0
 11
576.36785809284424
 21
229.71094226254471
 31
0.0
  0
LINE
  5
181CB
  8
AM_0
 10
576.36785809284424
 20
269.71054345462551
 30
0.0
 11
561.36785986247844
 21
264.7107428254119
 31
0.0
  0
LINE
  5
181CC
  8
AM_0
 10
561.36785986247844
 20
234.7107428254119
 30
0.0
 11
561.36785986247844
 21
264.7107428254119
 31
0.0
  0
LINE
  5
181CD
  8
AM_0
 10
576.36785809284424
 20
229.71094226254471
 30
0.0
 11
561.36785986247844
 21
234.7107428254119
 31
0.0
  0
LINE
  5
181CE
  8
AM_0
 10
576.36785809284424
 20
229.71094226254471
 30
0.0
 11
580.36785821205376
 21
229.71094226254471
 31
0.0
  0
LINE
  5
181CF
  8
0
 10
521.36785989675184
 20
237.7107428101433
 30
0.0
 11
521.36785981963658
 21
264.7107428101433
 31
0.0
  0
LINE
  5
181D0
  8
0
 10
521.36785986247844
 20
237.7107428101435
 30
0.0
 11
561.36785986247844
 21
237.7107428101435
 31
0.0
  0
LINE
  5
181D1
  8
0
 10
521.36785986247844
 20
264.71074281014347
 30
0.0
 11
553.36785981963681
 21
264.71074281014347
 31
0.0
  0
LINE
  5
181D2
  8
0
 10
521.36785986247844
 20
261.71074281014347
 30
0.0
 11
561.36785986247844
 21
261.71074280413058
 31
0.0
  0
LINE
  5
181D3
  8
0
 10
553.36785981963681
 20
264.71074281014347
 30
0.0
 11
553.36785981918592
 21
261.71074280533321
 31
0.0
  0
ARC
  5
182BB
  8
0
 10
354.20114798479881
 20
249.71074302725191
 30
0.0
 40
12.00000005996232
 50
109.47122053326621
 51
70.528779466733724
  0
CIRCLE
  5
182BC
  8
0
 10
354.20114798479881
 20
249.71074284236281
 30
0.0
 40
19.99980059118241
  0
CIRCLE
  5
182BD
  8
ｽﾝﾎﾟｳｾﾝ
 10
354.20114798479858
 20
249.71074284236281
 30
0.0
 40
4.0
  0
LINE
  5
182BE
  8
0
 10
350.20114798479869
 20
264.7107429672896
 30
0.0
 11
358.20114798479858
 21
264.7107429672896
 31
0.0
  0
LINE
  5
182BF
  8
0
 10
358.20114798479858
 20
257.7107429672896
 30
0.0
 11
350.20114798479869
 21
257.7107429672896
 31
0.0
  0
LINE
  5
182C0
  8
0
 10
350.20114798479869
 20
257.7107429672896
 30
0.0
 11
350.20114798479869
 21
264.7107429672896
 31
0.0
  0
LINE
  5
182C1
  8
0
 10
358.20114798479858
 20
264.7107429672896
 30
0.0
 11
358.20114798479858
 21
257.7107429672896
 31
0.0
  0
LINE
  5
189BC
  8
AM_0
 10
391.70114910238573
 20
466.68578932316098
 30
0.0
 11
316.70114686721172
 21
466.68578932316098
 31
0.0
  0
LINE
  5
189BD
  8
AM_0
 10
410.47928131675712
 20
470.68578944237038
 30
0.0
 11
258.9229857472962
 21
470.68578944237038
 31
0.0
  0
LINE
  5
189BE
  8
AM_0
 10
391.70114910238573
 20
564.68579224378846
 30
0.0
 11
316.70114686721172
 21
564.68579224378846
 31
0.0
  0
LINE
  5
189BF
  8
AM_0
 10
258.05026620938747
 20
560.68579212457939
 30
0.0
 11
411.35202859791968
 21
560.68579212457939
 31
0.0
  0
LINE
  5
189C0
  8
AM_0
 10
411.70114969843212
 20
540.6857917371492
 30
0.0
 11
257.70114510887481
 21
540.6857917371492
 31
0.0
  0
LINE
  5
189C1
  8
ﾁｭｳｼﾝｾﾝ1
 10
56.994229721950198
 20
515.68582670393448
 30
0.0
 11
416.7011496984324
 21
515.68578325435954
 31
0.0
1001
GENIUS_GENODEF_13
1002
{
1000
HIER
1070
     0
1002
}
1002
{
1000
MANEDIT
1070
     0
1002
}
1002
{
1000
NOSEL
1070
     0
1002
}
1002
{
1000
BEHIND
1070
     0
1002
}
1002
{
1000
REACTOR
1002
}
1001
GENIUS_GENOBJ-N-CEN_13
1002
{
1000
OWNER
1000
GEN
1002
}
  0
LINE
  5
189C2
  8
AM_0
 10
257.70114510887481
 20
540.6857917371492
 30
0.0
 11
258.9229857472962
 21
470.68578944237038
 31
0.0
  0
LINE
  5
189C3
  8
ｶｸﾚｾﾝ2
 10
272.70114555590948
 20
470.68578944237038
 30
0.0
 11
272.70114555590948
 21
560.68579212457939
 31
0.0
  0
LINE
  5
189C4
  8
ｶｸﾚｾﾝ2
 10
263.70114528768858
 20
470.68578944237038
 30
0.0
 11
263.70114528768858
 21
560.68579212457939
 31
0.0
  0
LINE
  5
189C5
  8
ﾁｭｳｼﾝｾﾝ1
 10
268.20114542179908
 20
467.68578944237032
 30
0.0
 11
268.20114542179908
 21
563.68579212457939
 31
0.0
  0
LINE
  5
189C6
  8
AM_0
 10
248.83872228438941
 20
460.15371822552379
 30
0.0
 11
248.83873754250379
 21
571.2178959979999
 31
0.0
  0
LINE
  5
189C7
  8
AM_0
 10
240.2011451088747
 20
459.68579670393427
 30
0.0
 11
240.2011451088747
 21
571.68581770393439
 31
0.0
  0
LINE
  5
189C8
  8
AM_0
 10
249.52277821735291
 20
570.0331007347138
 30
0.0
 11
254.90444190686739
 21
539.51214370069874
 31
0.0
1001
GENIUS_GENODEF_13
1002
{
1000
HIER
1070
     0
1002
}
1002
{
1000
MANEDIT
1070
     0
1002
}
1002
{
1000
NOSEL
1070
     0
1002
}
1002
{
1000
BEHIND
1070
     0
1002
}
1002
{
1000
REACTOR
1002
}
1001
GENIUS_GENOBJ-N-CEN_13
1002
{
1000
OWNER
1000
GEN
1002
}
  0
LINE
  5
189C9
  8
AM_0
 10
240.2011451088747
 20
571.68580720393425
 30
0.0
 11
247.55316221328371
 21
571.68580720393425
 31
0.0
  0
ARC
  5
189CA
  8
AM_0
 10
247.55316221328371
 20
569.68580720393436
 30
0.0
 40
2.0
 50
9.9999917840707582
 51
90.0
1001
GENIUS_GENOBJ-N-CEN_13
1002
{
1000
OWNER
1000
GEN
1002
}
1001
GENIUS_GENODEF_13
1002
{
1000
HIER
1070
     0
1002
}
1002
{
1000
MANEDIT
1070
     0
1002
}
1002
{
1000
NOSEL
1070
     0
1002
}
1002
{
1000
BEHIND
1070
     0
1002
}
1002
{
1000
OTHER
1070
     0
1002
}
1002
{
1000
REACTOR
1002
}
1001
GENIUS_GENOBJ-N-FIL_13
1002
{
1000
OWNER
1000
GEN
1002
}
  0
LINE
  5
189CB
  8
AM_0
 10
240.2011451088747
 20
547.62326470393441
 30
0.0
 11
248.8387343013527
 21
547.6254796990919
 31
0.0
  0
LINE
  5
189CC
  8
AM_0
 10
240.2011451088747
 20
561.68583270393435
 30
0.0
 11
248.8387362329762
 21
561.68581356117488
 31
0.0
  0
LINE
  5
189CD
  8
AM_0
 10
258.05026620938747
 20
560.68579212457928
 30
0.0
 11
257.70114510887481
 21
540.6857917371492
 31
0.0
  0
LINE
  5
189CE
  8
AM_0
 10
256.71844764999889
 20
538.6857917371492
 30
0.0
 11
255.88924968477991
 21
538.6857917371492
 31
0.0
  0
ARC
  5
189D0
  8
AM_0
 10
256.71844764999889
 20
539.6857917371492
 30
0.0
 40
1.0
 50
270.0
 51
0.9999885880236628
1001
GENIUS_GENOBJ-N-FIL_13
1002
{
1000
OWNER
1000
GEN
1002
}
1001
GENIUS_GENODEF_13
1002
{
1000
HIER
1070
     0
1002
}
1002
{
1000
MANEDIT
1070
     0
1002
}
1002
{
1000
NOSEL
1070
     0
1002
}
1002
{
1000
BEHIND
1070
     0
1002
}
1002
{
1000
OTHER
1070
     0
1002
}
1002
{
1000
REACTOR
1002
}
  0
LINE
  5
189D1
  8
AM_0
 10
316.70114686721172
 20
560.68579212457939
 30
0.0
 11
316.70114686721172
 21
564.68579224378846
 31
0.0
  0
LINE
  5
189D2
  8
AM_0
 10
249.52276263108709
 20
461.33851056616749
 30
0.0
 11
251.2321792940914
 21
471.03308608013742
 31
0.0
1001
GENIUS_GENODEF_13
1002
{
1000
HIER
1070
     0
1002
}
1002
{
1000
MANEDIT
1070
     0
1002
}
1002
{
1000
NOSEL
1070
     0
1002
}
1002
{
1000
BEHIND
1070
     0
1002
}
1002
{
1000
REACTOR
1002
}
1001
GENIUS_GENOBJ-N-CEN_13
1002
{
1000
OWNER
1000
GEN
1002
}
  0
LINE
  5
189D3
  8
AM_0
 10
240.2011451088747
 20
483.74585720393441
 30
0.0
 11
248.8387255255025
 21
483.74585720393441
 31
0.0
  0
LINE
  5
189D4
  8
AM_0
 10
240.2011451088747
 20
469.68580720393442
 30
0.0
 11
248.8387235939179
 21
469.68580720393442
 31
0.0
  0
LINE
  5
189D5
  8
AM_0
 10
256.9226810981628
 20
472.68578944237021
 30
0.0
 11
253.2017947503152
 21
472.68578944237021
 31
0.0
  0
ARC
  5
189D6
  8
AM_0
 10
253.2017947503152
 20
470.68578944237038
 30
0.0
 40
2.0
 50
90.0
 51
169.99999178406969
1001
GENIUS_GENOBJ-N-CEN_13
1002
{
1000
OWNER
1000
GEN
1002
}
1001
GENIUS_GENODEF_13
1002
{
1000
HIER
1070
     0
1002
}
1002
{
1000
MANEDIT
1070
     0
1002
}
1002
{
1000
NOSEL
1070
     0
1002
}
1002
{
1000
BEHIND
1070
     0
1002
}
1002
{
1000
OTHER
1070
     0
1002
}
1002
{
1000
REACTOR
1002
}
1001
GENIUS_GENOBJ-N-FIL_13
1002
{
1000
OWNER
1000
GEN
1002
}
  0
LINE
  5
189D8
  8
AM_0
 10
240.2011451088747
 20
459.68580720393447
 30
0.0
 11
247.55314717486331
 21
459.68580720393447
 31
0.0
  0
ARC
  5
189D9
  8
AM_0
 10
247.55314717486331
 20
461.6858072039343
 30
0.0
 40
2.0
 50
270.0
 51
349.99999178406978
1001
GENIUS_GENOBJ-N-CEN_13
1002
{
1000
OWNER
1000
GEN
1002
}
1001
GENIUS_GENOBJ-N-FIL_13
1002
{
1000
OWNER
1000
GEN
1002
}
1001
GENIUS_GENODEF_13
1002
{
1000
HIER
1070
     0
1002
}
1002
{
1000
MANEDIT
1070
     0
1002
}
1002
{
1000
NOSEL
1070
     0
1002
}
1002
{
1000
BEHIND
1070
     0
1002
}
1002
{
1000
OTHER
1070
     0
1002
}
1002
{
1000
REACTOR
1002
}
  0
LINE
  5
189DA
  8
AM_0
 10
316.70114686721172
 20
470.68578944237038
 30
0.0
 11
316.70114686721172
 21
466.68578932316098
 31
0.0
  0
LINE
  5
189DB
  8
ﾁｭｳｼﾝｾﾝ1
 10
354.20114798479881
 20
402.68579085966428
 30
0.0
 11
354.20114798479881
 21
569.68579224378846
 31
0.0
  0
LINE
  5
189DC
  8
AM_0
 10
411.70114969843218
 20
540.6857917371492
 30
0.0
 11
410.47928131675712
 21
470.68578944237038
 31
0.0
  0
LINE
  5
189DD
  8
ｶｸﾚｾﾝ2
 10
396.70114925139762
 20
470.68578944237038
 30
0.0
 11
396.70114925139762
 21
560.68579212457939
 31
0.0
  0
LINE
  5
189DE
  8
ｶｸﾚｾﾝ2
 10
405.7011495196183
 20
470.68578944237038
 30
0.0
 11
405.7011495196183
 21
560.68579212457939
 31
0.0
  0
LINE
  5
189DF
  8
ﾁｭｳｼﾝｾﾝ1
 10
401.2011493855079
 20
467.68578944237032
 30
0.0
 11
401.20114938550807
 21
563.68579212457939
 31
0.0
  0
LINE
  5
189E3
  8
AM_0
 10
391.70114910238573
 20
560.68579212457939
 30
0.0
 11
391.70114910238573
 21
564.68579224378846
 31
0.0
  0
LINE
  5
189E4
  8
AM_0
 10
411.35202859791968
 20
560.68579212457928
 30
0.0
 11
411.70114969843212
 21
540.6857917371492
 31
0.0
  0
LINE
  5
189E7
  8
AM_0
 10
391.70114910238573
 20
470.68578944237038
 30
0.0
 11
391.70114910238573
 21
466.68578932316098
 31
0.0
  0
LINE
  5
18B78
  8
AM_0
 10
334.20134737253591
 20
462.68578909003048
 30
0.0
 11
334.20134737253591
 21
466.68578920923977
 31
0.0
  0
LINE
  5
18B79
  8
AM_0
 10
334.20134737253591
 20
462.68578909003048
 30
0.0
 11
374.20094856461679
 21
462.68578909003031
 31
0.0
  0
LINE
  5
18B7A
  8
AM_0
 10
334.20134737253591
 20
462.68578909003048
 30
0.0
 11
339.20114800174957
 21
447.68579085966439
 31
0.0
  0
LINE
  5
18B7B
  8
AM_0
 10
369.20114800174957
 20
447.68579085966439
 30
0.0
 11
339.20114800174957
 21
447.68579085966439
 31
0.0
  0
LINE
  5
18B7C
  8
AM_0
 10
374.20094856461679
 20
462.68578909003031
 30
0.0
 11
369.20114800174957
 21
447.68579085966439
 31
0.0
  0
LINE
  5
18B7D
  8
AM_0
 10
374.20094856461679
 20
462.68578909003031
 30
0.0
 11
374.20094856461679
 21
466.6857892092396
 31
0.0
  0
LINE
  5
18B7E
  8
0
 10
366.20114801701823
 20
407.68579089393779
 30
0.0
 11
342.201148017018
 21
407.68579082539111
 31
0.0
  0
LINE
  5
18B7F
  8
0
 10
366.201148017018
 20
407.68579085966451
 30
0.0
 11
366.201148017018
 21
447.68579085966439
 31
0.0
  0
LINE
  5
18B81
  8
0
 10
342.201148017018
 20
407.68579085966462
 30
0.0
 11
342.2011480230309
 21
447.68579085966439
 31
0.0
  0
LINE
  5
18B82
  8
0
 10
350.20114798479869
 20
439.68579081637199
 30
0.0
 11
358.20114798479858
 21
439.68579081637199
 31
0.0
  0
LINE
  5
18BF4
  8
AM_0
 10
350.20114798479869
 20
407.68579084823989
 30
0.0
 11
350.20114798479869
 21
439.68579081637199
 31
0.0
  0
LINE
  5
18BF5
  8
AM_0
 10
358.20114798479858
 20
407.68579087108901
 30
0.0
 11
358.20114798479858
 21
439.68579081637199
 31
0.0
  0
ARC
  5
18BF6
  8
AM_0
 10
354.20114798479858
 20
439.68579081637199
 30
0.0
 40
3.9999999999999432
 50
0.0000000000008142
 51
179.99999999999841
  0
CIRCLE
  5
18BF9
  8
AM_0
 10
354.20114798479858
 20
249.71074284236281
 30
0.0
 40
3.399999999999999
  0
ARC
  5
18F28
  8
AM_0
 10
256.9226810981628
 20
470.68578944237038
 30
0.0
 40
2.0
 50
0.9999885880223155
 51
90.0
1001
GENIUS_GENOBJ-N-FIL_13
1002
{
1000
OWNER
1000
GEN
1002
}
1001
GENIUS_GENODEF_13
1002
{
1000
HIER
1070
     0
1002
}
1002
{
1000
MANEDIT
1070
     0
1002
}
1002
{
1000
NOSEL
1070
     0
1002
}
1002
{
1000
BEHIND
1070
     0
1002
}
1002
{
1000
OTHER
1070
     0
1002
}
1002
{
1000
REACTOR
1002
}
  0
ARC
  5
18F2C
  8
AM_0
 10
255.88924968477991
 20
539.6857917371492
 30
0.0
 40
1.0
 50
189.9999917840691
 51
270.0
1001
GENIUS_GENOBJ-N-CEN_13
1002
{
1000
OWNER
1000
GEN
1002
}
1001
GENIUS_GENODEF_13
1002
{
1000
HIER
1070
     0
1002
}
1002
{
1000
MANEDIT
1070
     0
1002
}
1002
{
1000
NOSEL
1070
     0
1002
}
1002
{
1000
BEHIND
1070
     0
1002
}
1002
{
1000
OTHER
1070
     0
1002
}
1002
{
1000
REACTOR
1002
}
1001
GENIUS_GENOBJ-N-FIL_13
1002
{
1000
OWNER
1000
GEN
1002
}
  0
LINE
  5
19646
  8
AM_0
 10
624.42748691354404
 20
331.21074386470099
 30
0.0
 11
627.62748691354386
 21
331.21074386470099
 31
0.0
  0
LINE
  5
19647
  8
AM_0
 10
627.62748691354386
 20
324.96074386470099
 30
0.0
 11
631.227486913544
 21
324.96074386470099
 31
0.0
  0
LINE
  5
19648
  8
AM_0
 10
627.62748691354386
 20
324.96074386470099
 30
0.0
 11
627.62748691354409
 21
326.99054656704249
 31
0.0
  0
LINE
  5
19649
  8
AM_0
 10
627.62748691354409
 20
330.44300724684251
 30
0.0
 11
627.62748691354386
 21
331.21074386470099
 31
0.0
  0
CIRCLE
  5
1964A
  8
AM_0
 10
629.42748691354404
 20
328.71677690694253
 30
0.0
 40
2.4939669577585151
  0
LINE
  5
1964B
  8
AM_0
 10
631.227486913544
 20
331.21074386470099
 30
0.0
 11
634.42748691354404
 21
331.21074386470099
 31
0.0
  0
LINE
  5
1964C
  8
AM_0
 10
629.4274869135437
 20
326.2228099491839
 30
0.0
 11
631.22748691354423
 21
326.22280994918412
 31
0.0
  0
LINE
  5
1964D
  8
AM_0
 10
629.4274869135437
 20
331.21074386470099
 30
0.0
 11
631.22748691354423
 21
331.21074386470121
 31
0.0
  0
LINE
  5
1964E
  8
AM_0
 10
631.227486913544
 20
324.96074386470099
 30
0.0
 11
631.227486913544
 21
326.9905465670422
 31
0.0
  0
LINE
  5
1964F
  8
AM_0
 10
631.227486913544
 20
330.44300724684268
 30
0.0
 11
631.227486913544
 21
331.21074386470099
 31
0.0
  0
LINE
  5
19650
  8
AM_0
 10
624.42748691354404
 20
328.09802946892552
 30
0.0
 11
624.42748691354404
 21
331.21074386470099
 31
0.0
  0
LINE
  5
19651
  8
AM_0
 10
634.42748691354404
 20
331.21074386470099
 30
0.0
 11
651.27826272336972
 21
331.21074386470099
 31
0.0
  0
LINE
  5
19652
  8
AM_0
 10
634.42748691354382
 20
328.09502330488738
 30
0.0
 11
634.42748691354404
 21
331.21074386470099
 31
0.0
  0
LINE
  5
19653
  8
AM_0
 10
635.49124010839148
 20
326.2228099491839
 30
0.0
 11
643.38902129653002
 21
326.2228099491839
 31
0.0
  0
LINE
  5
19654
  8
AM_0
 10
645.45642670866096
 20
326.2228099491839
 30
0.0
 11
650.4274869135437
 21
326.2228099491839
 31
0.0
  0
ARC
  5
19655
  8
AM_0
 10
650.4274869135437
 20
301.22280994918401
 30
0.0
 40
29.999999999999989
 50
2.2183585470436431
 51
88.374920016405966
1001
GENIUS_GENOBJ-N-FIL_13
1002
{
1000
OWNER
1000
GEN
1002
}
1001
GENIUS_GENODEF_13
1002
{
1000
HIER
1070
     0
1002
}
1002
{
1000
MANEDIT
1070
     0
1002
}
1002
{
1000
NOSEL
1070
     0
1002
}
1002
{
1000
BEHIND
1070
     0
1002
}
1002
{
1000
OTHER
1070
     0
1002
}
1002
{
1000
REACTOR
1002
}
  0
ARC
  5
19656
  8
AM_0
 10
650.4274869135437
 20
301.22280994918401
 30
0.0
 40
25.0
 50
57.467847186513559
 51
90.0
1001
GENIUS_GENOBJ-N-FIL_13
1002
{
1000
OWNER
1000
GEN
1002
}
1001
GENIUS_GENODEF_13
1002
{
1000
HIER
1070
     0
1002
}
1002
{
1000
MANEDIT
1070
     0
1002
}
1002
{
1000
NOSEL
1070
     0
1002
}
1002
{
1000
BEHIND
1070
     0
1002
}
1002
{
1000
OTHER
1070
     0
1002
}
1002
{
1000
REACTOR
1002
}
  0
ARC
  5
19657
  8
AM_0
 10
650.4274869135437
 20
301.22280994918401
 30
0.0
 40
25.0
 50
23.766519203098731
 51
53.155059700517981
1001
GENIUS_GENOBJ-N-FIL_13
1002
{
1000
OWNER
1000
GEN
1002
}
1001
GENIUS_GENODEF_13
1002
{
1000
HIER
1070
     0
1002
}
1002
{
1000
MANEDIT
1070
     0
1002
}
1002
{
1000
NOSEL
1070
     0
1002
}
1002
{
1000
BEHIND
1070
     0
1002
}
1002
{
1000
OTHER
1070
     0
1002
}
1002
{
1000
REACTOR
1002
}
  0
LINE
  5
19658
  8
AM_0
 10
597.96785356215207
 20
162.21074284012499
 30
0.0
 11
660.76785356215157
 21
162.21074284012499
 31
0.0
  0
LINE
  5
19659
  8
AM_0
 10
665.36785356215375
 20
175.21074284012479
 30
0.0
 11
593.36785356215375
 21
175.21074284012479
 31
0.0
  0
LINE
  5
1965A
  8
AM_0
 10
593.36785356215216
 20
179.21074284012491
 30
0.0
 11
623.86785356215239
 21
179.21074284012491
 31
0.0
  0
LINE
  5
1965B
  8
AM_0
 10
593.36785356215375
 20
190.77609669533069
 30
0.0
 11
593.36785356215375
 21
162.71074284012491
 31
0.0
  0
LINE
  5
1965C
  8
AM_0
 10
595.46785356215184
 20
173.74574284012499
 30
0.0
 11
595.46785356215184
 21
164.71074284012479
 31
0.0
  0
LINE
  5
1965D
  8
AM_0
 10
605.73770204313519
 20
175.21074284012479
 30
0.0
 11
605.73770204313519
 21
164.7107428401207
 31
0.0
  0
ARC
  5
1965E
  8
AM_0
 10
593.86785356215239
 20
162.71074284012491
 30
0.0
 40
0.5
 50
180.0
 51
270.0
  0
ARC
  5
1965F
  8
AM_0
 10
597.96785356215207
 20
164.71074284012479
 30
0.0
 40
2.4999999999999991
 50
180.0
 51
270.0
  0
LINE
  5
19660
  8
AM_0
 10
593.86785356215239
 20
162.21074284012499
 30
0.0
 11
597.96785356215207
 21
162.21074284012499
 31
0.0
  0
POLYLINE
  5
19661
  8
AM_0
 66
     1
 10
0.0
 20
0.0
 30
0.0
 70
     8
  0
VERTEX
  5
19662
  8
AM_0
 10
605.73743875910907
 20
164.71069577505091
 30
0.0
 70
    32
  0
VERTEX
  5
19663
  8
AM_0
 10
605.73743875910907
 20
164.70669577505089
 30
0.0
 70
    32
  0
VERTEX
  5
19664
  8
AM_0
 10
605.73743875910907
 20
164.70269577505101
 30
0.0
 70
    32
  0
VERTEX
  5
19665
  8
AM_0
 10
605.73743875910907
 20
164.69769577505099
 30
0.0
 70
    32
  0
VERTEX
  5
19666
  8
AM_0
 10
605.73743875910907
 20
164.6936957750508
 30
0.0
 70
    32
  0
VERTEX
  5
19667
  8
AM_0
 10
605.73743875910907
 20
164.68969577505101
 30
0.0
 70
    32
  0
VERTEX
  5
19668
  8
AM_0
 10
605.73743875910907
 20
164.68469577505101
 30
0.0
 70
    32
  0
VERTEX
  5
19669
  8
AM_0
 10
605.73843875910939
 20
164.68069577505111
 30
0.0
 70
    32
  0
VERTEX
  5
1966A
  8
AM_0
 10
605.73843875910939
 20
164.6766957750508
 30
0.0
 70
    32
  0
VERTEX
  5
1966B
  8
AM_0
 10
605.73843875910939
 20
164.67269577505081
 30
0.0
 70
    32
  0
VERTEX
  5
1966C
  8
AM_0
 10
605.73843875910939
 20
164.66769577505079
 30
0.0
 70
    32
  0
VERTEX
  5
1966D
  8
AM_0
 10
605.73843875910939
 20
164.66369577505051
 30
0.0
 70
    32
  0
VERTEX
  5
1966E
  8
AM_0
 10
605.73843875910939
 20
164.65969577505089
 30
0.0
 70
    32
  0
VERTEX
  5
1966F
  8
AM_0
 10
605.73843875910939
 20
164.65569577505079
 30
0.0
 70
    32
  0
VERTEX
  5
19670
  8
AM_0
 10
605.73843875910939
 20
164.65069577505091
 30
0.0
 70
    32
  0
VERTEX
  5
19671
  8
AM_0
 10
605.73843875910939
 20
164.6466957750508
 30
0.0
 70
    32
  0
VERTEX
  5
19672
  8
AM_0
 10
605.73843875910939
 20
164.64269577505101
 30
0.0
 70
    32
  0
VERTEX
  5
19673
  8
AM_0
 10
605.73843875910939
 20
164.63769577505059
 30
0.0
 70
    32
  0
VERTEX
  5
19674
  8
AM_0
 10
605.73843875910939
 20
164.63369577505111
 30
0.0
 70
    32
  0
VERTEX
  5
19675
  8
AM_0
 10
605.73843875910939
 20
164.62969577505069
 30
0.0
 70
    32
  0
VERTEX
  5
19676
  8
AM_0
 10
605.73843875910939
 20
164.62569577505079
 30
0.0
 70
    32
  0
VERTEX
  5
19677
  8
AM_0
 10
605.73843875910939
 20
164.62069577505099
 30
0.0
 70
    32
  0
VERTEX
  5
19678
  8
AM_0
 10
605.73843875910939
 20
164.6166957750508
 30
0.0
 70
    32
  0
VERTEX
  5
19679
  8
AM_0
 10
605.73843875910939
 20
164.6126957750509
 30
0.0
 70
    32
  0
VERTEX
  5
1967A
  8
AM_0
 10
605.73843875910939
 20
164.60869577505071
 30
0.0
 70
    32
  0
VERTEX
  5
1967B
  8
AM_0
 10
605.73943875910925
 20
164.60369577505091
 30
0.0
 70
    32
  0
VERTEX
  5
1967C
  8
AM_0
 10
605.73943875910925
 20
164.5996957750508
 30
0.0
 70
    32
  0
VERTEX
  5
1967D
  8
AM_0
 10
605.73943875910925
 20
164.59569577505101
 30
0.0
 70
    32
  0
VERTEX
  5
1967E
  8
AM_0
 10
605.73943875910925
 20
164.59169577505051
 30
0.0
 70
    32
  0
VERTEX
  5
1967F
  8
AM_0
 10
605.73943875910925
 20
164.586695775051
 30
0.0
 70
    32
  0
VERTEX
  5
19680
  8
AM_0
 10
605.73943875910925
 20
164.58269577505061
 30
0.0
 70
    32
  0
VERTEX
  5
19681
  8
AM_0
 10
605.73943875910925
 20
164.57869577505079
 30
0.0
 70
    32
  0
VERTEX
  5
19682
  8
AM_0
 10
605.73943875910925
 20
164.57369577505091
 30
0.0
 70
    32
  0
VERTEX
  5
19683
  8
AM_0
 10
605.73943875910925
 20
164.5696957750508
 30
0.0
 70
    32
  0
VERTEX
  5
19684
  8
AM_0
 10
605.73943875910925
 20
164.56569577505081
 30
0.0
 70
    32
  0
VERTEX
  5
19685
  8
AM_0
 10
605.74043875910934
 20
164.56169577505091
 30
0.0
 70
    32
  0
VERTEX
  5
19686
  8
AM_0
 10
605.74043875910934
 20
164.55669577505091
 30
0.0
 70
    32
  0
VERTEX
  5
19687
  8
AM_0
 10
605.74043875910934
 20
164.55269577505081
 30
0.0
 70
    32
  0
VERTEX
  5
19688
  8
AM_0
 10
605.74043875910934
 20
164.54869577505099
 30
0.0
 70
    32
  0
VERTEX
  5
19689
  8
AM_0
 10
605.74043875910934
 20
164.5446957750508
 30
0.0
 70
    32
  0
VERTEX
  5
1968A
  8
AM_0
 10
605.74043875910934
 20
164.539695775051
 30
0.0
 70
    32
  0
VERTEX
  5
1968B
  8
AM_0
 10
605.74043875910934
 20
164.53569577505061
 30
0.0
 70
    32
  0
VERTEX
  5
1968C
  8
AM_0
 10
605.74143875910931
 20
164.53169577505071
 30
0.0
 70
    32
  0
VERTEX
  5
1968D
  8
AM_0
 10
605.74143875910931
 20
164.5276957750508
 30
0.0
 70
    32
  0
VERTEX
  5
1968E
  8
AM_0
 10
605.74143875910931
 20
164.52269577505101
 30
0.0
 70
    32
  0
VERTEX
  5
1968F
  8
AM_0
 10
605.74143875910931
 20
164.51869577505079
 30
0.0
 70
    32
  0
VERTEX
  5
19690
  8
AM_0
 10
605.74143875910931
 20
164.51469577505091
 30
0.0
 70
    32
  0
VERTEX
  5
19691
  8
AM_0
 10
605.74143875910931
 20
164.509695775051
 30
0.0
 70
    32
  0
VERTEX
  5
19692
  8
AM_0
 10
605.74143875910931
 20
164.50569577505061
 30
0.0
 70
    32
  0
VERTEX
  5
19693
  8
AM_0
 10
605.74243875910918
 20
164.50169577505079
 30
0.0
 70
    32
  0
VERTEX
  5
19694
  8
AM_0
 10
605.74243875910918
 20
164.4976957750512
 30
0.0
 70
    32
  0
VERTEX
  5
19695
  8
AM_0
 10
605.74243875910918
 20
164.492695775051
 30
0.0
 70
    32
  0
VERTEX
  5
19696
  8
AM_0
 10
605.74243875910918
 20
164.48869577505059
 30
0.0
 70
    32
  0
VERTEX
  5
19697
  8
AM_0
 10
605.74243875910918
 20
164.48469577505091
 30
0.0
 70
    32
  0
VERTEX
  5
19698
  8
AM_0
 10
605.74343875910938
 20
164.48069577505061
 30
0.0
 70
    32
  0
VERTEX
  5
19699
  8
AM_0
 10
605.74343875910938
 20
164.47569577505089
 30
0.0
 70
    32
  0
VERTEX
  5
1969A
  8
AM_0
 10
605.74343875910938
 20
164.47169577505079
 30
0.0
 70
    32
  0
VERTEX
  5
1969B
  8
AM_0
 10
605.74343875910938
 20
164.4676957750508
 30
0.0
 70
    32
  0
VERTEX
  5
1969C
  8
AM_0
 10
605.74343875910938
 20
164.46369577505101
 30
0.0
 70
    32
  0
VERTEX
  5
1969D
  8
AM_0
 10
605.74343875910938
 20
164.45869577505059
 30
0.0
 70
    32
  0
VERTEX
  5
1969E
  8
AM_0
 10
605.74443875910902
 20
164.4546957750506
 30
0.0
 70
    32
  0
VERTEX
  5
1969F
  8
AM_0
 10
605.74443875910902
 20
164.45069577505109
 30
0.0
 70
    32
  0
VERTEX
  5
196A0
  8
AM_0
 10
605.74443875910902
 20
164.44669577505101
 30
0.0
 70
    32
  0
VERTEX
  5
196A1
  8
AM_0
 10
605.74443875910902
 20
164.44169577505079
 30
0.0
 70
    32
  0
VERTEX
  5
196A2
  8
AM_0
 10
605.74543875910922
 20
164.43769577505091
 30
0.0
 70
    32
  0
VERTEX
  5
196A3
  8
AM_0
 10
605.74543875910922
 20
164.43369577505061
 30
0.0
 70
    32
  0
VERTEX
  5
196A4
  8
AM_0
 10
605.74543875910922
 20
164.4286957750507
 30
0.0
 70
    32
  0
VERTEX
  5
196A5
  8
AM_0
 10
605.74543875910922
 20
164.42469577505079
 30
0.0
 70
    32
  0
VERTEX
  5
196A6
  8
AM_0
 10
605.74543875910922
 20
164.4206957750508
 30
0.0
 70
    32
  0
VERTEX
  5
196A7
  8
AM_0
 10
605.7464387591092
 20
164.41669577505061
 30
0.0
 70
    32
  0
VERTEX
  5
196A8
  8
AM_0
 10
605.7464387591092
 20
164.41169577505059
 30
0.0
 70
    32
  0
VERTEX
  5
196A9
  8
AM_0
 10
605.7464387591092
 20
164.40769577505091
 30
0.0
 70
    32
  0
VERTEX
  5
196AA
  8
AM_0
 10
605.7464387591092
 20
164.40369577505109
 30
0.0
 70
    32
  0
VERTEX
  5
196AB
  8
AM_0
 10
605.74743875910895
 20
164.39969577505099
 30
0.0
 70
    32
  0
VERTEX
  5
196AC
  8
AM_0
 10
605.74743875910895
 20
164.39469577505099
 30
0.0
 70
    32
  0
VERTEX
  5
196AD
  8
AM_0
 10
605.74743875910895
 20
164.39069577505069
 30
0.0
 70
    32
  0
VERTEX
  5
196AE
  8
AM_0
 10
605.74843875910915
 20
164.38669577505061
 30
0.0
 70
    32
  0
VERTEX
  5
196AF
  8
AM_0
 10
605.74843875910915
 20
164.38269577505091
 30
0.0
 70
    32
  0
VERTEX
  5
196B0
  8
AM_0
 10
605.74843875910915
 20
164.37769577505071
 30
0.0
 70
    32
  0
VERTEX
  5
196B1
  8
AM_0
 10
605.74843875910915
 20
164.37369577505081
 30
0.0
 70
    32
  0
VERTEX
  5
196B2
  8
AM_0
 10
605.74943875910924
 20
164.36969577505059
 30
0.0
 70
    32
  0
VERTEX
  5
196B3
  8
AM_0
 10
605.74943875910924
 20
164.36569577505099
 30
0.0
 70
    32
  0
VERTEX
  5
196B4
  8
AM_0
 10
605.74943875910924
 20
164.36069577505091
 30
0.0
 70
    32
  0
VERTEX
  5
196B5
  8
AM_0
 10
605.74943875910924
 20
164.35669577505089
 30
0.0
 70
    32
  0
VERTEX
  5
196B6
  8
AM_0
 10
605.75043875910933
 20
164.3526957750509
 30
0.0
 70
    32
  0
VERTEX
  5
196B7
  8
AM_0
 10
605.75043875910933
 20
164.3486957750508
 30
0.0
 70
    32
  0
VERTEX
  5
196B8
  8
AM_0
 10
605.75043875910933
 20
164.34369577505061
 30
0.0
 70
    32
  0
VERTEX
  5
196B9
  8
AM_0
 10
605.75143875910919
 20
164.33969577505101
 30
0.0
 70
    32
  0
VERTEX
  5
196BA
  8
AM_0
 10
605.75143875910919
 20
164.33569577505091
 30
0.0
 70
    32
  0
VERTEX
  5
196BB
  8
AM_0
 10
605.75143875910919
 20
164.33069577505071
 30
0.0
 70
    32
  0
VERTEX
  5
196BC
  8
AM_0
 10
605.75243875910928
 20
164.32669577505081
 30
0.0
 70
    32
  0
VERTEX
  5
196BD
  8
AM_0
 10
605.75243875910928
 20
164.32269577505059
 30
0.0
 70
    32
  0
VERTEX
  5
196BE
  8
AM_0
 10
605.75243875910928
 20
164.3186957750508
 30
0.0
 70
    32
  0
VERTEX
  5
196BF
  8
AM_0
 10
605.75343875910892
 20
164.31369577505069
 30
0.0
 70
    32
  0
VERTEX
  5
196C0
  8
AM_0
 10
605.75343875910892
 20
164.30969577505101
 30
0.0
 70
    32
  0
VERTEX
  5
196C1
  8
AM_0
 10
605.75343875910892
 20
164.30569577505111
 30
0.0
 70
    32
  0
VERTEX
  5
196C2
  8
AM_0
 10
605.75443875910923
 20
164.3016957750508
 30
0.0
 70
    32
  0
VERTEX
  5
196C3
  8
AM_0
 10
605.75443875910923
 20
164.29669577505081
 30
0.0
 70
    32
  0
VERTEX
  5
196C4
  8
AM_0
 10
605.75443875910923
 20
164.29269577505099
 30
0.0
 70
    32
  0
VERTEX
  5
196C5
  8
AM_0
 10
605.75543875910932
 20
164.28869577505091
 30
0.0
 70
    32
  0
VERTEX
  5
196C6
  8
AM_0
 10
605.75543875910932
 20
164.28469577505089
 30
0.0
 70
    32
  0
VERTEX
  5
196C7
  8
AM_0
 10
605.75543875910932
 20
164.2796957750507
 30
0.0
 70
    32
  0
VERTEX
  5
196C8
  8
AM_0
 10
605.75643875910919
 20
164.27569577505059
 30
0.0
 70
    32
  0
VERTEX
  5
196C9
  8
AM_0
 10
605.75643875910919
 20
164.271695775051
 30
0.0
 70
    32
  0
VERTEX
  5
196CA
  8
AM_0
 10
605.75743875910905
 20
164.26769577505101
 30
0.0
 70
    32
  0
VERTEX
  5
196CB
  8
AM_0
 10
605.75743875910905
 20
164.26269577505099
 30
0.0
 70
    32
  0
VERTEX
  5
196CC
  8
AM_0
 10
605.75743875910905
 20
164.25869577505111
 30
0.0
 70
    32
  0
VERTEX
  5
196CD
  8
AM_0
 10
605.75843875910925
 20
164.25469577505089
 30
0.0
 70
    32
  0
VERTEX
  5
196CE
  8
AM_0
 10
605.75843875910925
 20
164.25069577505101
 30
0.0
 70
    32
  0
VERTEX
  5
196CF
  8
AM_0
 10
605.75943875910923
 20
164.24569577505059
 30
0.0
 70
    32
  0
VERTEX
  5
196D0
  8
AM_0
 10
605.75943875910923
 20
164.241695775051
 30
0.0
 70
    32
  0
VERTEX
  5
196D1
  8
AM_0
 10
605.75943875910923
 20
164.2376957750509
 30
0.0
 70
    32
  0
VERTEX
  5
196D2
  8
AM_0
 10
605.76043875910921
 20
164.23369577505059
 30
0.0
 70
    32
  0
VERTEX
  5
196D3
  8
AM_0
 10
605.76043875910921
 20
164.2286957750506
 30
0.0
 70
    32
  0
VERTEX
  5
196D4
  8
AM_0
 10
605.7614387591093
 20
164.224695775051
 30
0.0
 70
    32
  0
VERTEX
  5
196D5
  8
AM_0
 10
605.7614387591093
 20
164.22069577505101
 30
0.0
 70
    32
  0
VERTEX
  5
196D6
  8
AM_0
 10
605.76243875910905
 20
164.21669577505091
 30
0.0
 70
    32
  0
VERTEX
  5
196D7
  8
AM_0
 10
605.76243875910905
 20
164.211695775051
 30
0.0
 70
    32
  0
VERTEX
  5
196D8
  8
AM_0
 10
605.76243875910905
 20
164.20769577505089
 30
0.0
 70
    32
  0
VERTEX
  5
196D9
  8
AM_0
 10
605.76343875910925
 20
164.20369577505079
 30
0.0
 70
    32
  0
VERTEX
  5
196DA
  8
AM_0
 10
605.76343875910925
 20
164.1996957750508
 30
0.0
 70
    32
  0
VERTEX
  5
196DB
  8
AM_0
 10
605.76443875910923
 20
164.194695775051
 30
0.0
 70
    32
  0
VERTEX
  5
196DC
  8
AM_0
 10
605.76443875910923
 20
164.19069577505061
 30
0.0
 70
    32
  0
VERTEX
  5
196DD
  8
AM_0
 10
605.76543875910909
 20
164.18669577505091
 30
0.0
 70
    32
  0
VERTEX
  5
196DE
  8
AM_0
 10
605.76543875910909
 20
164.18269577505109
 30
0.0
 70
    32
  0
VERTEX
  5
196DF
  8
AM_0
 10
605.76643875910929
 20
164.1786957750509
 30
0.0
 70
    32
  0
VERTEX
  5
196E0
  8
AM_0
 10
605.76643875910929
 20
164.17369577505099
 30
0.0
 70
    32
  0
VERTEX
  5
196E1
  8
AM_0
 10
605.76743875910927
 20
164.16969577505071
 30
0.0
 70
    32
  0
VERTEX
  5
196E2
  8
AM_0
 10
605.76743875910927
 20
164.16569577505061
 30
0.0
 70
    32
  0
VERTEX
  5
196E3
  8
AM_0
 10
605.76843875910924
 20
164.1616957750509
 30
0.0
 70
    32
  0
VERTEX
  5
196E4
  8
AM_0
 10
605.76843875910924
 20
164.15669577505059
 30
0.0
 70
    32
  0
VERTEX
  5
196E5
  8
AM_0
 10
605.76943875910945
 20
164.1526957750508
 30
0.0
 70
    32
  0
VERTEX
  5
196E6
  8
AM_0
 10
605.76943875910945
 20
164.14869577505081
 30
0.0
 70
    32
  0
VERTEX
  5
196E7
  8
AM_0
 10
605.77043875910931
 20
164.14469577505099
 30
0.0
 70
    32
  0
VERTEX
  5
196E8
  8
AM_0
 10
605.77043875910931
 20
164.1396957750508
 30
0.0
 70
    32
  0
VERTEX
  5
196E9
  8
AM_0
 10
605.77143875910895
 20
164.13569577505069
 30
0.0
 70
    32
  0
VERTEX
  5
196EA
  8
AM_0
 10
605.77143875910895
 20
164.1316957750509
 30
0.0
 70
    32
  0
VERTEX
  5
196EB
  8
AM_0
 10
605.77243875910915
 20
164.1276957750508
 30
0.0
 70
    32
  0
VERTEX
  5
196EC
  8
AM_0
 10
605.77243875910915
 20
164.12269577505111
 30
0.0
 70
    32
  0
VERTEX
  5
196ED
  8
AM_0
 10
605.77343875910924
 20
164.11869577505081
 30
0.0
 70
    32
  0
VERTEX
  5
196EE
  8
AM_0
 10
605.77343875910924
 20
164.1146957750509
 30
0.0
 70
    32
  0
VERTEX
  5
196EF
  8
AM_0
 10
605.77443875910922
 20
164.11069577505069
 30
0.0
 70
    32
  0
VERTEX
  5
196F0
  8
AM_0
 10
605.77443875910922
 20
164.1056957750508
 30
0.0
 70
    32
  0
VERTEX
  5
196F1
  8
AM_0
 10
605.77543875910897
 20
164.10169577505101
 30
0.0
 70
    32
  0
VERTEX
  5
196F2
  8
AM_0
 10
605.77543875910897
 20
164.09769577505079
 30
0.0
 70
    32
  0
VERTEX
  5
196F3
  8
AM_0
 10
605.7764387591094
 20
164.09369577505089
 30
0.0
 70
    32
  0
VERTEX
  5
196F4
  8
AM_0
 10
605.7764387591094
 20
164.0896957750509
 30
0.0
 70
    32
  0
VERTEX
  5
196F5
  8
AM_0
 10
605.77743875910915
 20
164.0846957750511
 30
0.0
 70
    32
  0
VERTEX
  5
196F6
  8
AM_0
 10
605.77843875910924
 20
164.0806957750508
 30
0.0
 70
    32
  0
VERTEX
  5
196F7
  8
AM_0
 10
605.77843875910924
 20
164.07669577505081
 30
0.0
 70
    32
  0
VERTEX
  5
196F8
  8
AM_0
 10
605.77943875910921
 20
164.0726957750507
 30
0.0
 70
    32
  0
VERTEX
  5
196F9
  8
AM_0
 10
605.77943875910921
 20
164.06769577505099
 30
0.0
 70
    32
  0
VERTEX
  5
196FA
  8
AM_0
 10
605.7804387591093
 20
164.06369577505089
 30
0.0
 70
    32
  0
VERTEX
  5
196FB
  8
AM_0
 10
605.7804387591093
 20
164.05969577505081
 30
0.0
 70
    32
  0
VERTEX
  5
196FC
  8
AM_0
 10
605.78143875910928
 20
164.05569577505079
 30
0.0
 70
    32
  0
VERTEX
  5
196FD
  8
AM_0
 10
605.78243875910925
 20
164.0506957750508
 30
0.0
 70
    32
  0
VERTEX
  5
196FE
  8
AM_0
 10
605.78243875910925
 20
164.04669577505101
 30
0.0
 70
    32
  0
VERTEX
  5
196FF
  8
AM_0
 10
605.78343875910923
 20
164.0426957750509
 30
0.0
 70
    32
  0
VERTEX
  5
19700
  8
AM_0
 10
605.78343875910923
 20
164.0386957750506
 30
0.0
 70
    32
  0
VERTEX
  5
19701
  8
AM_0
 10
605.78443875910909
 20
164.03469577505101
 30
0.0
 70
    32
  0
VERTEX
  5
19702
  8
AM_0
 10
605.78543875910896
 20
164.02969577505101
 30
0.0
 70
    32
  0
VERTEX
  5
19703
  8
AM_0
 10
605.78543875910896
 20
164.02569577505071
 30
0.0
 70
    32
  0
VERTEX
  5
19704
  8
AM_0
 10
605.78643875910916
 20
164.021695775051
 30
0.0
 70
    32
  0
VERTEX
  5
19705
  8
AM_0
 10
605.78643875910916
 20
164.0176957750511
 30
0.0
 70
    32
  0
VERTEX
  5
19706
  8
AM_0
 10
605.78743875910948
 20
164.0126957750507
 30
0.0
 70
    32
  0
VERTEX
  5
19707
  8
AM_0
 10
605.78843875910923
 20
164.0086957750508
 30
0.0
 70
    32
  0
VERTEX
  5
19708
  8
AM_0
 10
605.78843875910923
 20
164.004695775051
 30
0.0
 70
    32
  0
VERTEX
  5
19709
  8
AM_0
 10
605.78943875910898
 20
164.00069577505079
 30
0.0
 70
    32
  0
VERTEX
  5
1970A
  8
AM_0
 10
605.79043875910929
 20
163.99669577505091
 30
0.0
 70
    32
  0
VERTEX
  5
1970B
  8
AM_0
 10
605.79043875910929
 20
163.99169577505069
 30
0.0
 70
    32
  0
VERTEX
  5
1970C
  8
AM_0
 10
605.79143875910916
 20
163.9876957750509
 30
0.0
 70
    32
  0
VERTEX
  5
1970D
  8
AM_0
 10
605.79143875910916
 20
163.98369577505099
 30
0.0
 70
    32
  0
VERTEX
  5
1970E
  8
AM_0
 10
605.79243875910947
 20
163.979695775051
 30
0.0
 70
    32
  0
VERTEX
  5
1970F
  8
AM_0
 10
605.79343875910922
 20
163.974695775051
 30
0.0
 70
    32
  0
VERTEX
  5
19710
  8
AM_0
 10
605.79343875910922
 20
163.9706957750511
 30
0.0
 70
    32
  0
VERTEX
  5
19711
  8
AM_0
 10
605.79443875910931
 20
163.96669577505091
 30
0.0
 70
    32
  0
VERTEX
  5
19712
  8
AM_0
 10
605.79543875910929
 20
163.9626957750508
 30
0.0
 70
    32
  0
VERTEX
  5
19713
  8
AM_0
 10
605.79543875910929
 20
163.95869577505081
 30
0.0
 70
    32
  0
VERTEX
  5
19714
  8
AM_0
 10
605.79643875910915
 20
163.95369577505099
 30
0.0
 70
    32
  0
VERTEX
  5
19715
  8
AM_0
 10
605.79743875910935
 20
163.94969577505071
 30
0.0
 70
    32
  0
VERTEX
  5
19716
  8
AM_0
 10
605.79743875910935
 20
163.94569577505089
 30
0.0
 70
    32
  0
VERTEX
  5
19717
  8
AM_0
 10
605.7984387591091
 20
163.9416957750511
 30
0.0
 70
    32
  0
VERTEX
  5
19718
  8
AM_0
 10
605.79943875910931
 20
163.93669577505079
 30
0.0
 70
    32
  0
VERTEX
  5
19719
  8
AM_0
 10
605.79943875910931
 20
163.932695775051
 30
0.0
 70
    32
  0
VERTEX
  5
1971A
  8
AM_0
 10
605.80043875910917
 20
163.92869577505061
 30
0.0
 70
    32
  0
VERTEX
  5
1971B
  8
AM_0
 10
605.80143875910915
 20
163.92469577505071
 30
0.0
 70
    32
  0
VERTEX
  5
1971C
  8
AM_0
 10
605.80243875910924
 20
163.9206957750506
 30
0.0
 70
    32
  0
VERTEX
  5
1971D
  8
AM_0
 10
605.80243875910924
 20
163.91569577505081
 30
0.0
 70
    32
  0
VERTEX
  5
1971E
  8
AM_0
 10
605.80343875910899
 20
163.91169577505079
 30
0.0
 70
    32
  0
VERTEX
  5
1971F
  8
AM_0
 10
605.8044387591093
 20
163.9076957750508
 30
0.0
 70
    32
  0
VERTEX
  5
19720
  8
AM_0
 10
605.8044387591093
 20
163.90369577505101
 30
0.0
 70
    32
  0
VERTEX
  5
19721
  8
AM_0
 10
605.80543875910917
 20
163.8996957750507
 30
0.0
 70
    32
  0
VERTEX
  5
19722
  8
AM_0
 10
605.80643875910937
 20
163.8946957750511
 30
0.0
 70
    32
  0
VERTEX
  5
19723
  8
AM_0
 10
605.80743875910912
 20
163.89069577505089
 30
0.0
 70
    32
  0
VERTEX
  5
19724
  8
AM_0
 10
605.80743875910912
 20
163.88669577505081
 30
0.0
 70
    32
  0
VERTEX
  5
19725
  8
AM_0
 10
605.80843875910932
 20
163.88269577505071
 30
0.0
 70
    32
  0
VERTEX
  5
19726
  8
AM_0
 10
605.8094387591093
 20
163.87869577505089
 30
0.0
 70
    32
  0
VERTEX
  5
19727
  8
AM_0
 10
605.81043875910916
 20
163.87369577505089
 30
0.0
 70
    32
  0
VERTEX
  5
19728
  8
AM_0
 10
605.81043875910916
 20
163.86969577505079
 30
0.0
 70
    32
  0
VERTEX
  5
19729
  8
AM_0
 10
605.81143875910925
 20
163.86569577505099
 30
0.0
 70
    32
  0
VERTEX
  5
1972A
  8
AM_0
 10
605.81243875910911
 20
163.8616957750508
 30
0.0
 70
    32
  0
VERTEX
  5
1972B
  8
AM_0
 10
605.81343875910932
 20
163.85769577505059
 30
0.0
 70
    32
  0
VERTEX
  5
1972C
  8
AM_0
 10
605.81343875910932
 20
163.85269577505071
 30
0.0
 70
    32
  0
VERTEX
  5
1972D
  8
AM_0
 10
605.81443875910918
 20
163.84869577505091
 30
0.0
 70
    32
  0
VERTEX
  5
1972E
  8
AM_0
 10
605.81543875910916
 20
163.84469577505081
 30
0.0
 70
    32
  0
VERTEX
  5
1972F
  8
AM_0
 10
605.81643875910925
 20
163.84069577505079
 30
0.0
 70
    32
  0
VERTEX
  5
19730
  8
AM_0
 10
605.81643875910925
 20
163.836695775051
 30
0.0
 70
    32
  0
VERTEX
  5
19731
  8
AM_0
 10
605.81743875910934
 20
163.83169577505089
 30
0.0
 70
    32
  0
VERTEX
  5
19732
  8
AM_0
 10
605.81843875910931
 20
163.8276957750509
 30
0.0
 70
    32
  0
VERTEX
  5
19733
  8
AM_0
 10
605.81943875910918
 20
163.82369577505091
 30
0.0
 70
    32
  0
VERTEX
  5
19734
  8
AM_0
 10
605.82043875910938
 20
163.8196957750508
 30
0.0
 70
    32
  0
VERTEX
  5
19735
  8
AM_0
 10
605.82043875910938
 20
163.8156957750507
 30
0.0
 70
    32
  0
VERTEX
  5
19736
  8
AM_0
 10
605.82143875910901
 20
163.81069577505099
 30
0.0
 70
    32
  0
VERTEX
  5
19737
  8
AM_0
 10
605.82243875910922
 20
163.80669577505071
 30
0.0
 70
    32
  0
VERTEX
  5
19738
  8
AM_0
 10
605.82343875910931
 20
163.80269577505081
 30
0.0
 70
    32
  0
VERTEX
  5
19739
  8
AM_0
 10
605.82443875910906
 20
163.79869577505099
 30
0.0
 70
    32
  0
VERTEX
  5
1973A
  8
AM_0
 10
605.82443875910906
 20
163.7946957750506
 30
0.0
 70
    32
  0
VERTEX
  5
1973B
  8
AM_0
 10
605.82543875910915
 20
163.7896957750508
 30
0.0
 70
    32
  0
VERTEX
  5
1973C
  8
AM_0
 10
605.82643875910924
 20
163.7856957750509
 30
0.0
 70
    32
  0
VERTEX
  5
1973D
  8
AM_0
 10
605.82743875910933
 20
163.78169577505071
 30
0.0
 70
    32
  0
VERTEX
  5
1973E
  8
AM_0
 10
605.8284387591093
 20
163.7776957750508
 30
0.0
 70
    32
  0
VERTEX
  5
1973F
  8
AM_0
 10
605.82943875910917
 20
163.77369577505101
 30
0.0
 70
    32
  0
VERTEX
  5
19740
  8
AM_0
 10
605.82943875910917
 20
163.76969577505099
 30
0.0
 70
    32
  0
VERTEX
  5
19741
  8
AM_0
 10
605.83043875910892
 20
163.76469577505071
 30
0.0
 70
    32
  0
VERTEX
  5
19742
  8
AM_0
 10
605.83143875910923
 20
163.76069577505109
 30
0.0
 70
    32
  0
VERTEX
  5
19743
  8
AM_0
 10
605.83243875910932
 20
163.75669577505059
 30
0.0
 70
    32
  0
VERTEX
  5
19744
  8
AM_0
 10
605.83343875910919
 20
163.7526957750508
 30
0.0
 70
    32
  0
VERTEX
  5
19745
  8
AM_0
 10
605.83443875910939
 20
163.74869577505081
 30
0.0
 70
    32
  0
VERTEX
  5
19746
  8
AM_0
 10
605.83543875910925
 20
163.7436957750509
 30
0.0
 70
    32
  0
VERTEX
  5
19747
  8
AM_0
 10
605.83543875910925
 20
163.7396957750509
 30
0.0
 70
    32
  0
VERTEX
  5
19748
  8
AM_0
 10
605.83643875910923
 20
163.7356957750508
 30
0.0
 70
    32
  0
VERTEX
  5
19749
  8
AM_0
 10
605.83743875910932
 20
163.73169577505081
 30
0.0
 70
    32
  0
VERTEX
  5
1974A
  8
AM_0
 10
605.83843875910918
 20
163.72769577505079
 30
0.0
 70
    32
  0
VERTEX
  5
1974B
  8
AM_0
 10
605.83943875910904
 20
163.723695775051
 30
0.0
 70
    32
  0
VERTEX
  5
1974C
  8
AM_0
 10
605.84043875910925
 20
163.71869577505089
 30
0.0
 70
    32
  0
VERTEX
  5
1974D
  8
AM_0
 10
605.84143875910922
 20
163.71469577505059
 30
0.0
 70
    32
  0
VERTEX
  5
1974E
  8
AM_0
 10
605.84243875910931
 20
163.71069577505079
 30
0.0
 70
    32
  0
VERTEX
  5
1974F
  8
AM_0
 10
605.84343875910918
 20
163.706695775051
 30
0.0
 70
    32
  0
VERTEX
  5
19750
  8
AM_0
 10
605.84343875910918
 20
163.70269577505081
 30
0.0
 70
    32
  0
VERTEX
  5
19751
  8
AM_0
 10
605.84443875910893
 20
163.69869577505091
 30
0.0
 70
    32
  0
VERTEX
  5
19752
  8
AM_0
 10
605.84543875910924
 20
163.69369577505071
 30
0.0
 70
    32
  0
VERTEX
  5
19753
  8
AM_0
 10
605.84643875910922
 20
163.68969577505061
 30
0.0
 70
    32
  0
VERTEX
  5
19754
  8
AM_0
 10
605.8474387591092
 20
163.68569577505099
 30
0.0
 70
    32
  0
VERTEX
  5
19755
  8
AM_0
 10
605.84843875910894
 20
163.68169577505071
 30
0.0
 70
    32
  0
VERTEX
  5
19756
  8
AM_0
 10
605.84943875910926
 20
163.67769577505089
 30
0.0
 70
    32
  0
VERTEX
  5
19757
  8
AM_0
 10
605.85043875910924
 20
163.6736957750511
 30
0.0
 70
    32
  0
VERTEX
  5
19758
  8
AM_0
 10
605.85143875910921
 20
163.66869577505091
 30
0.0
 70
    32
  0
VERTEX
  5
19759
  8
AM_0
 10
605.85243875910908
 20
163.6646957750508
 30
0.0
 70
    32
  0
VERTEX
  5
1975A
  8
AM_0
 10
605.85343875910894
 20
163.66069577505081
 30
0.0
 70
    32
  0
VERTEX
  5
1975B
  8
AM_0
 10
605.85443875910926
 20
163.65669577505071
 30
0.0
 70
    32
  0
VERTEX
  5
1975C
  8
AM_0
 10
605.85543875910923
 20
163.65269577505069
 30
0.0
 70
    32
  0
VERTEX
  5
1975D
  8
AM_0
 10
605.85643875910932
 20
163.6486957750509
 30
0.0
 70
    32
  0
VERTEX
  5
1975E
  8
AM_0
 10
605.8574387591093
 20
163.64369577505079
 30
0.0
 70
    32
  0
VERTEX
  5
1975F
  8
AM_0
 10
605.85843875910928
 20
163.6396957750508
 30
0.0
 70
    32
  0
VERTEX
  5
19760
  8
AM_0
 10
605.85943875910925
 20
163.635695775051
 30
0.0
 70
    32
  0
VERTEX
  5
19761
  8
AM_0
 10
605.86043875910923
 20
163.6316957750507
 30
0.0
 70
    32
  0
VERTEX
  5
19762
  8
AM_0
 10
605.86143875910921
 20
163.62769577505091
 30
0.0
 70
    32
  0
VERTEX
  5
19763
  8
AM_0
 10
605.86243875910895
 20
163.62369577505081
 30
0.0
 70
    32
  0
VERTEX
  5
19764
  8
AM_0
 10
605.86343875910927
 20
163.61969577505079
 30
0.0
 70
    32
  0
VERTEX
  5
19765
  8
AM_0
 10
605.86443875910925
 20
163.61469577505071
 30
0.0
 70
    32
  0
VERTEX
  5
19766
  8
AM_0
 10
605.86543875910922
 20
163.61069577505091
 30
0.0
 70
    32
  0
VERTEX
  5
19767
  8
AM_0
 10
605.86643875910909
 20
163.60669577505061
 30
0.0
 70
    32
  0
VERTEX
  5
19768
  8
AM_0
 10
605.86743875910929
 20
163.6026957750509
 30
0.0
 70
    32
  0
VERTEX
  5
19769
  8
AM_0
 10
605.86843875910915
 20
163.5986957750508
 30
0.0
 70
    32
  0
VERTEX
  5
1976A
  8
AM_0
 10
605.86943875910924
 20
163.59469577505081
 30
0.0
 70
    32
  0
VERTEX
  5
1976B
  8
AM_0
 10
605.87043875910922
 20
163.58969577505059
 30
0.0
 70
    32
  0
VERTEX
  5
1976C
  8
AM_0
 10
605.87143875910897
 20
163.58569577505091
 30
0.0
 70
    32
  0
VERTEX
  5
1976D
  8
AM_0
 10
605.87243875910895
 20
163.58169577505089
 30
0.0
 70
    32
  0
VERTEX
  5
1976E
  8
AM_0
 10
605.87343875910915
 20
163.57769577505101
 30
0.0
 70
    32
  0
VERTEX
  5
1976F
  8
AM_0
 10
605.87443875910947
 20
163.57369577505079
 30
0.0
 70
    32
  0
VERTEX
  5
19770
  8
AM_0
 10
605.8754387591091
 20
163.56969577505069
 30
0.0
 70
    32
  0
VERTEX
  5
19771
  8
AM_0
 10
605.87643875910931
 20
163.5656957750509
 30
0.0
 70
    32
  0
VERTEX
  5
19772
  8
AM_0
 10
605.87743875910928
 20
163.56169577505079
 30
0.0
 70
    32
  0
VERTEX
  5
19773
  8
AM_0
 10
605.87843875910914
 20
163.5566957750508
 30
0.0
 70
    32
  0
VERTEX
  5
19774
  8
AM_0
 10
605.87943875910923
 20
163.55269577505081
 30
0.0
 70
    32
  0
VERTEX
  5
19775
  8
AM_0
 10
605.88043875910898
 20
163.54869577505099
 30
0.0
 70
    32
  0
VERTEX
  5
19776
  8
AM_0
 10
605.88243875910916
 20
163.54469577505091
 30
0.0
 70
    32
  0
VERTEX
  5
19777
  8
AM_0
 10
605.88343875910925
 20
163.54069577505081
 30
0.0
 70
    32
  0
VERTEX
  5
19778
  8
AM_0
 10
605.88443875910912
 20
163.53669577505079
 30
0.0
 70
    32
  0
VERTEX
  5
19779
  8
AM_0
 10
605.88543875910932
 20
163.53269577505071
 30
0.0
 70
    32
  0
VERTEX
  5
1977A
  8
AM_0
 10
605.8864387591093
 20
163.52869577505101
 30
0.0
 70
    32
  0
VERTEX
  5
1977B
  8
AM_0
 10
605.88743875910916
 20
163.5236957750507
 30
0.0
 70
    32
  0
VERTEX
  5
1977C
  8
AM_0
 10
605.88843875910925
 20
163.51969577505091
 30
0.0
 70
    32
  0
VERTEX
  5
1977D
  8
AM_0
 10
605.88943875910911
 20
163.5156957750506
 30
0.0
 70
    32
  0
VERTEX
  5
1977E
  8
AM_0
 10
605.89043875910932
 20
163.51169577505081
 30
0.0
 70
    32
  0
VERTEX
  5
1977F
  8
AM_0
 10
605.89243875910915
 20
163.50769577505091
 30
0.0
 70
    32
  0
VERTEX
  5
19780
  8
AM_0
 10
605.89343875910924
 20
163.50369577505069
 30
0.0
 70
    32
  0
VERTEX
  5
19781
  8
AM_0
 10
605.89443875910933
 20
163.49969577505109
 30
0.0
 70
    32
  0
VERTEX
  5
19782
  8
AM_0
 10
605.89543875910931
 20
163.49569577505099
 30
0.0
 70
    32
  0
VERTEX
  5
19783
  8
AM_0
 10
605.89643875910951
 20
163.49069577505099
 30
0.0
 70
    32
  0
VERTEX
  5
19784
  8
AM_0
 10
605.89743875910915
 20
163.48669577505069
 30
0.0
 70
    32
  0
VERTEX
  5
19785
  8
AM_0
 10
605.89843875910901
 20
163.4826957750511
 30
0.0
 70
    32
  0
VERTEX
  5
19786
  8
AM_0
 10
605.90043875910931
 20
163.47869577505091
 30
0.0
 70
    32
  0
VERTEX
  5
19787
  8
AM_0
 10
605.90143875910951
 20
163.4746957750508
 30
0.0
 70
    32
  0
VERTEX
  5
19788
  8
AM_0
 10
605.90243875910915
 20
163.47069577505101
 30
0.0
 70
    32
  0
VERTEX
  5
19789
  8
AM_0
 10
605.90343875910924
 20
163.46669577505091
 30
0.0
 70
    32
  0
VERTEX
  5
1978A
  8
AM_0
 10
605.90443875910933
 20
163.462695775051
 30
0.0
 70
    32
  0
VERTEX
  5
1978B
  8
AM_0
 10
605.9054387591093
 20
163.45869577505059
 30
0.0
 70
    32
  0
VERTEX
  5
1978C
  8
AM_0
 10
605.9074387591088
 20
163.45469577505079
 30
0.0
 70
    32
  0
VERTEX
  5
1978D
  8
AM_0
 10
605.90843875910923
 20
163.4496957750508
 30
0.0
 70
    32
  0
VERTEX
  5
1978E
  8
AM_0
 10
605.90943875910932
 20
163.44569577505061
 30
0.0
 70
    32
  0
VERTEX
  5
1978F
  8
AM_0
 10
605.9104387591093
 20
163.44169577505099
 30
0.0
 70
    32
  0
VERTEX
  5
19790
  8
AM_0
 10
605.91143875910905
 20
163.4376957750508
 30
0.0
 70
    32
  0
VERTEX
  5
19791
  8
AM_0
 10
605.91343875910923
 20
163.43369577505081
 30
0.0
 70
    32
  0
VERTEX
  5
19792
  8
AM_0
 10
605.91443875910932
 20
163.42969577505079
 30
0.0
 70
    32
  0
VERTEX
  5
19793
  8
AM_0
 10
605.91543875910918
 20
163.42569577505071
 30
0.0
 70
    32
  0
VERTEX
  5
19794
  8
AM_0
 10
605.91643875910916
 20
163.42169577505061
 30
0.0
 70
    32
  0
VERTEX
  5
19795
  8
AM_0
 10
605.91843875910922
 20
163.4176957750509
 30
0.0
 70
    32
  0
VERTEX
  5
19796
  8
AM_0
 10
605.91943875910931
 20
163.4136957750508
 30
0.0
 70
    32
  0
VERTEX
  5
19797
  8
AM_0
 10
605.92043875910917
 20
163.40969577505081
 30
0.0
 70
    32
  0
VERTEX
  5
19798
  8
AM_0
 10
605.92143875910949
 20
163.40469577505081
 30
0.0
 70
    32
  0
VERTEX
  5
19799
  8
AM_0
 10
605.92343875910922
 20
163.40069577505091
 30
0.0
 70
    32
  0
VERTEX
  5
1979A
  8
AM_0
 10
605.92443875910931
 20
163.3966957750508
 30
0.0
 70
    32
  0
VERTEX
  5
1979B
  8
AM_0
 10
605.92543875910894
 20
163.3926957750511
 30
0.0
 70
    32
  0
VERTEX
  5
1979C
  8
AM_0
 10
605.92643875910915
 20
163.38869577505099
 30
0.0
 70
    32
  0
VERTEX
  5
1979D
  8
AM_0
 10
605.92843875910921
 20
163.384695775051
 30
0.0
 70
    32
  0
VERTEX
  5
1979E
  8
AM_0
 10
605.92943875910919
 20
163.3806957750509
 30
0.0
 70
    32
  0
VERTEX
  5
1979F
  8
AM_0
 10
605.93043875910939
 20
163.37669577505079
 30
0.0
 70
    32
  0
VERTEX
  5
197A0
  8
AM_0
 10
605.93143875910926
 20
163.3726957750512
 30
0.0
 70
    32
  0
VERTEX
  5
197A1
  8
AM_0
 10
605.93343875910932
 20
163.36869577505081
 30
0.0
 70
    32
  0
VERTEX
  5
197A2
  8
AM_0
 10
605.93443875910918
 20
163.36469577505071
 30
0.0
 70
    32
  0
VERTEX
  5
197A3
  8
AM_0
 10
605.93543875910916
 20
163.36069577505091
 30
0.0
 70
    32
  0
VERTEX
  5
197A4
  8
AM_0
 10
605.93743875910923
 20
163.35669577505101
 30
0.0
 70
    32
  0
VERTEX
  5
197A5
  8
AM_0
 10
605.93843875910932
 20
163.35169577505101
 30
0.0
 70
    32
  0
VERTEX
  5
197A6
  8
AM_0
 10
605.93943875910895
 20
163.34769577505079
 30
0.0
 70
    32
  0
VERTEX
  5
197A7
  8
AM_0
 10
605.94143875910925
 20
163.34369577505069
 30
0.0
 70
    32
  0
VERTEX
  5
197A8
  8
AM_0
 10
605.94243875910922
 20
163.3396957750509
 30
0.0
 70
    32
  0
VERTEX
  5
197A9
  8
AM_0
 10
605.9434387591092
 20
163.33569577505079
 30
0.0
 70
    32
  0
VERTEX
  5
197AA
  8
AM_0
 10
605.94543875910927
 20
163.3316957750508
 30
0.0
 70
    32
  0
VERTEX
  5
197AB
  8
AM_0
 10
605.94643875910924
 20
163.32769577505101
 30
0.0
 70
    32
  0
VERTEX
  5
197AC
  8
AM_0
 10
605.94743875910922
 20
163.32369577505071
 30
0.0
 70
    32
  0
VERTEX
  5
197AD
  8
AM_0
 10
605.94943875910906
 20
163.31969577505089
 30
0.0
 70
    32
  0
VERTEX
  5
197AE
  8
AM_0
 10
605.95043875910915
 20
163.31569577505081
 30
0.0
 70
    32
  0
VERTEX
  5
197AF
  8
AM_0
 10
605.95143875910935
 20
163.31169577505079
 30
0.0
 70
    32
  0
VERTEX
  5
197B0
  8
AM_0
 10
605.95343875910919
 20
163.307695775051
 30
0.0
 70
    32
  0
VERTEX
  5
197B1
  8
AM_0
 10
605.95443875910939
 20
163.3036957750507
 30
0.0
 70
    32
  0
VERTEX
  5
197B2
  8
AM_0
 10
605.95543875910926
 20
163.29969577505079
 30
0.0
 70
    32
  0
VERTEX
  5
197B3
  8
AM_0
 10
605.95743875910898
 20
163.2956957750506
 30
0.0
 70
    32
  0
VERTEX
  5
197B4
  8
AM_0
 10
605.95843875910896
 20
163.29169577505061
 30
0.0
 70
    32
  0
VERTEX
  5
197B5
  8
AM_0
 10
605.96043875910925
 20
163.28769577505111
 30
0.0
 70
    32
  0
VERTEX
  5
197B6
  8
AM_0
 10
605.96143875910923
 20
163.28369577505069
 30
0.0
 70
    32
  0
VERTEX
  5
197B7
  8
AM_0
 10
605.9624387591092
 20
163.27969577505081
 30
0.0
 70
    32
  0
VERTEX
  5
197B8
  8
AM_0
 10
605.96443875910927
 20
163.27569577505079
 30
0.0
 70
    32
  0
VERTEX
  5
197B9
  8
AM_0
 10
605.96543875910925
 20
163.27169577505069
 30
0.0
 70
    32
  0
VERTEX
  5
197BA
  8
AM_0
 10
605.96743875910931
 20
163.2676957750511
 30
0.0
 70
    32
  0
VERTEX
  5
197BB
  8
AM_0
 10
605.96843875910895
 20
163.26369577505091
 30
0.0
 70
    32
  0
VERTEX
  5
197BC
  8
AM_0
 10
605.96943875910915
 20
163.259695775051
 30
0.0
 70
    32
  0
VERTEX
  5
197BD
  8
AM_0
 10
605.97143875910933
 20
163.2556957750509
 30
0.0
 70
    32
  0
VERTEX
  5
197BE
  8
AM_0
 10
605.97243875910931
 20
163.25169577505099
 30
0.0
 70
    32
  0
VERTEX
  5
197BF
  8
AM_0
 10
605.97443875910915
 20
163.24669577505091
 30
0.0
 70
    32
  0
VERTEX
  5
197C0
  8
AM_0
 10
605.97543875910901
 20
163.24269577505089
 30
0.0
 70
    32
  0
VERTEX
  5
197C1
  8
AM_0
 10
605.9774387591093
 20
163.2386957750511
 30
0.0
 70
    32
  0
VERTEX
  5
197C2
  8
AM_0
 10
605.97843875910928
 20
163.23469577505099
 30
0.0
 70
    32
  0
VERTEX
  5
197C3
  8
AM_0
 10
605.98043875910923
 20
163.23069577505049
 30
0.0
 70
    32
  0
VERTEX
  5
197C4
  8
AM_0
 10
605.98143875910932
 20
163.2266957750509
 30
0.0
 70
    32
  0
VERTEX
  5
197C5
  8
AM_0
 10
605.98343875910916
 20
163.22269577505079
 30
0.0
 70
    32
  0
VERTEX
  5
197C6
  8
AM_0
 10
605.98443875910891
 20
163.21869577505061
 30
0.0
 70
    32
  0
VERTEX
  5
197C7
  8
AM_0
 10
605.98643875910898
 20
163.21469577505101
 30
0.0
 70
    32
  0
VERTEX
  5
197C8
  8
AM_0
 10
605.9874387591093
 20
163.21069577505091
 30
0.0
 70
    32
  0
VERTEX
  5
197C9
  8
AM_0
 10
605.98943875910925
 20
163.2066957750508
 30
0.0
 70
    32
  0
VERTEX
  5
197CA
  8
AM_0
 10
605.99043875910922
 20
163.2026957750509
 30
0.0
 70
    32
  0
VERTEX
  5
197CB
  8
AM_0
 10
605.99243875910929
 20
163.19869577505071
 30
0.0
 70
    32
  0
VERTEX
  5
197CC
  8
AM_0
 10
605.99343875910915
 20
163.194695775051
 30
0.0
 70
    32
  0
VERTEX
  5
197CD
  8
AM_0
 10
605.99543875910911
 20
163.1906957750507
 30
0.0
 70
    32
  0
VERTEX
  5
197CE
  8
AM_0
 10
605.99643875910931
 20
163.18669577505079
 30
0.0
 70
    32
  0
VERTEX
  5
197CF
  8
AM_0
 10
605.99843875910892
 20
163.18369577505081
 30
0.0
 70
    32
  0
VERTEX
  5
197D0
  8
AM_0
 10
605.99943875910924
 20
163.1796957750509
 30
0.0
 70
    32
  0
VERTEX
  5
197D1
  8
AM_0
 10
606.00143875910931
 20
163.17569577505071
 30
0.0
 70
    32
  0
VERTEX
  5
197D2
  8
AM_0
 10
606.00243875910905
 20
163.17169577505081
 30
0.0
 70
    32
  0
VERTEX
  5
197D3
  8
AM_0
 10
606.00443875910923
 20
163.16769577505099
 30
0.0
 70
    32
  0
VERTEX
  5
197D4
  8
AM_0
 10
606.00543875910932
 20
163.1636957750508
 30
0.0
 70
    32
  0
VERTEX
  5
197D5
  8
AM_0
 10
606.00743875910894
 20
163.15969577505089
 30
0.0
 70
    32
  0
VERTEX
  5
197D6
  8
AM_0
 10
606.00943875910923
 20
163.15569577505079
 30
0.0
 70
    32
  0
VERTEX
  5
197D7
  8
AM_0
 10
606.01043875910932
 20
163.1516957750508
 30
0.0
 70
    32
  0
VERTEX
  5
197D8
  8
AM_0
 10
606.01243875910916
 20
163.14769577505101
 30
0.0
 70
    32
  0
VERTEX
  5
197D9
  8
AM_0
 10
606.01343875910936
 20
163.1436957750507
 30
0.0
 70
    32
  0
VERTEX
  5
197DA
  8
AM_0
 10
606.01543875910932
 20
163.13969577505091
 30
0.0
 70
    32
  0
VERTEX
  5
197DB
  8
AM_0
 10
606.01743875910938
 20
163.13569577505081
 30
0.0
 70
    32
  0
VERTEX
  5
197DC
  8
AM_0
 10
606.01843875910924
 20
163.13169577505079
 30
0.0
 70
    32
  0
VERTEX
  5
197DD
  8
AM_0
 10
606.02043875910931
 20
163.12769577505071
 30
0.0
 70
    32
  0
VERTEX
  5
197DE
  8
AM_0
 10
606.0214387591094
 20
163.12369577505069
 30
0.0
 70
    32
  0
VERTEX
  5
197DF
  8
AM_0
 10
606.02343875910924
 20
163.1196957750509
 30
0.0
 70
    32
  0
VERTEX
  5
197E0
  8
AM_0
 10
606.02543875910885
 20
163.11569577505099
 30
0.0
 70
    32
  0
VERTEX
  5
197E1
  8
AM_0
 10
606.0264387591094
 20
163.1116957750508
 30
0.0
 70
    32
  0
VERTEX
  5
197E2
  8
AM_0
 10
606.02843875910935
 20
163.10769577505059
 30
0.0
 70
    32
  0
VERTEX
  5
197E3
  8
AM_0
 10
606.03043875910919
 20
163.10369577505071
 30
0.0
 70
    32
  0
VERTEX
  5
197E4
  8
AM_0
 10
606.03143875910939
 20
163.09969577505089
 30
0.0
 70
    32
  0
VERTEX
  5
197E5
  8
AM_0
 10
606.03343875910923
 20
163.09569577505101
 30
0.0
 70
    32
  0
VERTEX
  5
197E6
  8
AM_0
 10
606.03543875910907
 20
163.09269577505069
 30
0.0
 70
    32
  0
VERTEX
  5
197E7
  8
AM_0
 10
606.03643875910939
 20
163.08869577505081
 30
0.0
 70
    32
  0
VERTEX
  5
197E8
  8
AM_0
 10
606.03843875910923
 20
163.0846957750511
 30
0.0
 70
    32
  0
VERTEX
  5
197E9
  8
AM_0
 10
606.04043875910918
 20
163.0806957750508
 30
0.0
 70
    32
  0
VERTEX
  5
197EA
  8
AM_0
 10
606.04143875910938
 20
163.07669577505089
 30
0.0
 70
    32
  0
VERTEX
  5
197EB
  8
AM_0
 10
606.04343875910911
 20
163.0726957750507
 30
0.0
 70
    32
  0
VERTEX
  5
197EC
  8
AM_0
 10
606.04543875910895
 20
163.06869577505091
 30
0.0
 70
    32
  0
VERTEX
  5
197ED
  8
AM_0
 10
606.04643875910926
 20
163.06469577505121
 30
0.0
 70
    32
  0
VERTEX
  5
197EE
  8
AM_0
 10
606.04843875910933
 20
163.06069577505059
 30
0.0
 70
    32
  0
VERTEX
  5
197EF
  8
AM_0
 10
606.05043875910928
 20
163.05669577505091
 30
0.0
 70
    32
  0
VERTEX
  5
197F0
  8
AM_0
 10
606.0524387591089
 20
163.05269577505081
 30
0.0
 70
    32
  0
VERTEX
  5
197F1
  8
AM_0
 10
606.05343875910921
 20
163.04869577505099
 30
0.0
 70
    32
  0
VERTEX
  5
197F2
  8
AM_0
 10
606.05543875910939
 20
163.04569577505069
 30
0.0
 70
    32
  0
VERTEX
  5
197F3
  8
AM_0
 10
606.05743875910923
 20
163.0416957750509
 30
0.0
 70
    32
  0
VERTEX
  5
197F4
  8
AM_0
 10
606.0594387591093
 20
163.03769577505111
 30
0.0
 70
    32
  0
VERTEX
  5
197F5
  8
AM_0
 10
606.06043875910927
 20
163.0336957750508
 30
0.0
 70
    32
  0
VERTEX
  5
197F6
  8
AM_0
 10
606.06243875910923
 20
163.02969577505101
 30
0.0
 70
    32
  0
VERTEX
  5
197F7
  8
AM_0
 10
606.06443875910929
 20
163.02569577505071
 30
0.0
 70
    32
  0
VERTEX
  5
197F8
  8
AM_0
 10
606.06643875910925
 20
163.02169577505089
 30
0.0
 70
    32
  0
VERTEX
  5
197F9
  8
AM_0
 10
606.06743875910922
 20
163.0176957750511
 30
0.0
 70
    32
  0
VERTEX
  5
197FA
  8
AM_0
 10
606.06943875910929
 20
163.01369577505079
 30
0.0
 70
    32
  0
VERTEX
  5
197FB
  8
AM_0
 10
606.07143875910924
 20
163.01069577505069
 30
0.0
 70
    32
  0
VERTEX
  5
197FC
  8
AM_0
 10
606.07343875910897
 20
163.0066957750509
 30
0.0
 70
    32
  0
VERTEX
  5
197FD
  8
AM_0
 10
606.07543875910949
 20
163.0026957750508
 30
0.0
 70
    32
  0
VERTEX
  5
197FE
  8
AM_0
 10
606.07643875910924
 20
162.99869577505069
 30
0.0
 70
    32
  0
VERTEX
  5
197FF
  8
AM_0
 10
606.0784387591093
 20
162.9946957750509
 30
0.0
 70
    32
  0
VERTEX
  5
19800
  8
AM_0
 10
606.08043875910926
 20
162.99069577505111
 30
0.0
 70
    32
  0
VERTEX
  5
19801
  8
AM_0
 10
606.08243875910898
 20
162.986695775051
 30
0.0
 70
    32
  0
VERTEX
  5
19802
  8
AM_0
 10
606.08443875910916
 20
162.98369577505099
 30
0.0
 70
    32
  0
VERTEX
  5
19803
  8
AM_0
 10
606.08543875910948
 20
162.97969577505111
 30
0.0
 70
    32
  0
VERTEX
  5
19804
  8
AM_0
 10
606.08743875910932
 20
162.97569577505061
 30
0.0
 70
    32
  0
VERTEX
  5
19805
  8
AM_0
 10
606.08943875910916
 20
162.97169577505079
 30
0.0
 70
    32
  0
VERTEX
  5
19806
  8
AM_0
 10
606.09143875910922
 20
162.96769577505069
 30
0.0
 70
    32
  0
VERTEX
  5
19807
  8
AM_0
 10
606.09343875910895
 20
162.96369577505101
 30
0.0
 70
    32
  0
VERTEX
  5
19808
  8
AM_0
 10
606.09543875910936
 20
162.9596957750511
 30
0.0
 70
    32
  0
VERTEX
  5
19809
  8
AM_0
 10
606.09743875910931
 20
162.956695775051
 30
0.0
 70
    32
  0
VERTEX
  5
1980A
  8
AM_0
 10
606.09943875910915
 20
162.95269577505081
 30
0.0
 70
    32
  0
VERTEX
  5
1980B
  8
AM_0
 10
606.10043875910924
 20
162.94869577505091
 30
0.0
 70
    32
  0
VERTEX
  5
1980C
  8
AM_0
 10
606.10243875910885
 20
162.94469577505089
 30
0.0
 70
    32
  0
VERTEX
  5
1980D
  8
AM_0
 10
606.10443875910937
 20
162.94069577505081
 30
0.0
 70
    32
  0
VERTEX
  5
1980E
  8
AM_0
 10
606.10643875910887
 20
162.93769577505071
 30
0.0
 70
    32
  0
VERTEX
  5
1980F
  8
AM_0
 10
606.10843875910939
 20
162.93369577505061
 30
0.0
 70
    32
  0
VERTEX
  5
19810
  8
AM_0
 10
606.11043875910923
 20
162.92969577505059
 30
0.0
 70
    32
  0
VERTEX
  5
19811
  8
AM_0
 10
606.11243875910918
 20
162.9256957750508
 30
0.0
 70
    32
  0
VERTEX
  5
19812
  8
AM_0
 10
606.11443875910925
 20
162.92169577505101
 30
0.0
 70
    32
  0
VERTEX
  5
19813
  8
AM_0
 10
606.11643875910931
 20
162.91869577505091
 30
0.0
 70
    32
  0
VERTEX
  5
19814
  8
AM_0
 10
606.11843875910938
 20
162.9146957750508
 30
0.0
 70
    32
  0
VERTEX
  5
19815
  8
AM_0
 10
606.12043875910888
 20
162.91069577505061
 30
0.0
 70
    32
  0
VERTEX
  5
19816
  8
AM_0
 10
606.12243875910895
 20
162.90669577505071
 30
0.0
 70
    32
  0
VERTEX
  5
19817
  8
AM_0
 10
606.12443875910924
 20
162.90269577505069
 30
0.0
 70
    32
  0
VERTEX
  5
19818
  8
AM_0
 10
606.12643875910919
 20
162.89969577505059
 30
0.0
 70
    32
  0
VERTEX
  5
19819
  8
AM_0
 10
606.12843875910937
 20
162.895695775051
 30
0.0
 70
    32
  0
VERTEX
  5
1981A
  8
AM_0
 10
606.13043875910932
 20
162.89169577505089
 30
0.0
 70
    32
  0
VERTEX
  5
1981B
  8
AM_0
 10
606.13243875910905
 20
162.88769577505059
 30
0.0
 70
    32
  0
VERTEX
  5
1981C
  8
AM_0
 10
606.13443875910923
 20
162.88369577505111
 30
0.0
 70
    32
  0
VERTEX
  5
1981D
  8
AM_0
 10
606.13643875910918
 20
162.88069577505081
 30
0.0
 70
    32
  0
VERTEX
  5
1981E
  8
AM_0
 10
606.13843875910891
 20
162.8766957750511
 30
0.0
 70
    32
  0
VERTEX
  5
1981F
  8
AM_0
 10
606.14043875910932
 20
162.87269577505111
 30
0.0
 70
    32
  0
VERTEX
  5
19820
  8
AM_0
 10
606.14243875910915
 20
162.86869577505101
 30
0.0
 70
    32
  0
VERTEX
  5
19821
  8
AM_0
 10
606.14443875910922
 20
162.86569577505099
 30
0.0
 70
    32
  0
VERTEX
  5
19822
  8
AM_0
 10
606.14643875910929
 20
162.86169577505089
 30
0.0
 70
    32
  0
VERTEX
  5
19823
  8
AM_0
 10
606.14843875910924
 20
162.85769577505079
 30
0.0
 70
    32
  0
VERTEX
  5
19824
  8
AM_0
 10
606.15043875910908
 20
162.8536957750508
 30
0.0
 70
    32
  0
VERTEX
  5
19825
  8
AM_0
 10
606.15243875910892
 20
162.85069577505089
 30
0.0
 70
    32
  0
VERTEX
  5
19826
  8
AM_0
 10
606.15443875910955
 20
162.8466957750507
 30
0.0
 70
    32
  0
VERTEX
  5
19827
  8
AM_0
 10
606.15643875910894
 20
162.8426957750506
 30
0.0
 70
    32
  0
VERTEX
  5
19828
  8
AM_0
 10
606.15843875910923
 20
162.8396957750507
 30
0.0
 70
    32
  0
VERTEX
  5
19829
  8
AM_0
 10
606.16143875910927
 20
162.83569577505071
 30
0.0
 70
    32
  0
VERTEX
  5
1982A
  8
AM_0
 10
606.16343875910923
 20
162.83169577505089
 30
0.0
 70
    32
  0
VERTEX
  5
1982B
  8
AM_0
 10
606.16543875910895
 20
162.82769577505081
 30
0.0
 70
    32
  0
VERTEX
  5
1982C
  8
AM_0
 10
606.16743875910925
 20
162.82469577505071
 30
0.0
 70
    32
  0
VERTEX
  5
1982D
  8
AM_0
 10
606.16943875910897
 20
162.82069577505089
 30
0.0
 70
    32
  0
VERTEX
  5
1982E
  8
AM_0
 10
606.17143875910915
 20
162.8166957750511
 30
0.0
 70
    32
  0
VERTEX
  5
1982F
  8
AM_0
 10
606.17343875910922
 20
162.8136957750508
 30
0.0
 70
    32
  0
VERTEX
  5
19830
  8
AM_0
 10
606.17543875910928
 20
162.80969577505061
 30
0.0
 70
    32
  0
VERTEX
  5
19831
  8
AM_0
 10
606.1784387591091
 20
162.80569577505091
 30
0.0
 70
    32
  0
VERTEX
  5
19832
  8
AM_0
 10
606.18043875910917
 20
162.80269577505081
 30
0.0
 70
    32
  0
VERTEX
  5
19833
  8
AM_0
 10
606.18243875910935
 20
162.7986957750509
 30
0.0
 70
    32
  0
VERTEX
  5
19834
  8
AM_0
 10
606.1844387591093
 20
162.79469577505071
 30
0.0
 70
    32
  0
VERTEX
  5
19835
  8
AM_0
 10
606.18643875910925
 20
162.79169577505081
 30
0.0
 70
    32
  0
VERTEX
  5
19836
  8
AM_0
 10
606.18943875910929
 20
162.78769577505099
 30
0.0
 70
    32
  0
VERTEX
  5
19837
  8
AM_0
 10
606.19143875910936
 20
162.78369577505089
 30
0.0
 70
    32
  0
VERTEX
  5
19838
  8
AM_0
 10
606.19343875910931
 20
162.7806957750509
 30
0.0
 70
    32
  0
VERTEX
  5
19839
  8
AM_0
 10
606.19543875910915
 20
162.7766957750506
 30
0.0
 70
    32
  0
VERTEX
  5
1983A
  8
AM_0
 10
606.19743875910899
 20
162.77269577505081
 30
0.0
 70
    32
  0
VERTEX
  5
1983B
  8
AM_0
 10
606.20043875910937
 20
162.7696957750511
 30
0.0
 70
    32
  0
VERTEX
  5
1983C
  8
AM_0
 10
606.20243875910933
 20
162.765695775051
 30
0.0
 70
    32
  0
VERTEX
  5
1983D
  8
AM_0
 10
606.20443875910917
 20
162.76169577505081
 30
0.0
 70
    32
  0
VERTEX
  5
1983E
  8
AM_0
 10
606.20643875910901
 20
162.75869577505111
 30
0.0
 70
    32
  0
VERTEX
  5
1983F
  8
AM_0
 10
606.2094387591095
 20
162.75469577505089
 30
0.0
 70
    32
  0
VERTEX
  5
19840
  8
AM_0
 10
606.21143875910923
 20
162.75169577505099
 30
0.0
 70
    32
  0
VERTEX
  5
19841
  8
AM_0
 10
606.21343875910918
 20
162.747695775051
 30
0.0
 70
    32
  0
VERTEX
  5
19842
  8
AM_0
 10
606.21543875910891
 20
162.7436957750509
 30
0.0
 70
    32
  0
VERTEX
  5
19843
  8
AM_0
 10
606.21843875910918
 20
162.7406957750508
 30
0.0
 70
    32
  0
VERTEX
  5
19844
  8
AM_0
 10
606.22043875910924
 20
162.73669577505069
 30
0.0
 70
    32
  0
VERTEX
  5
19845
  8
AM_0
 10
606.22243875910931
 20
162.7336957750509
 30
0.0
 70
    32
  0
VERTEX
  5
19846
  8
AM_0
 10
606.22543875910924
 20
162.72969577505111
 30
0.0
 70
    32
  0
VERTEX
  5
19847
  8
AM_0
 10
606.22743875910919
 20
162.72569577505081
 30
0.0
 70
    32
  0
VERTEX
  5
19848
  8
AM_0
 10
606.22943875910926
 20
162.72269577505111
 30
0.0
 70
    32
  0
VERTEX
  5
19849
  8
AM_0
 10
606.23243875910919
 20
162.71869577505089
 30
0.0
 70
    32
  0
VERTEX
  5
1984A
  8
AM_0
 10
606.23443875910925
 20
162.71569577505079
 30
0.0
 70
    32
  0
VERTEX
  5
1984B
  8
AM_0
 10
606.23643875910932
 20
162.711695775051
 30
0.0
 70
    32
  0
VERTEX
  5
1984C
  8
AM_0
 10
606.23943875910925
 20
162.70869577505059
 30
0.0
 70
    32
  0
VERTEX
  5
1984D
  8
AM_0
 10
606.2414387591092
 20
162.70469577505079
 30
0.0
 70
    32
  0
VERTEX
  5
1984E
  8
AM_0
 10
606.24443875910924
 20
162.7016957750505
 30
0.0
 70
    32
  0
VERTEX
  5
1984F
  8
AM_0
 10
606.24643875910908
 20
162.6976957750509
 30
0.0
 70
    32
  0
VERTEX
  5
19850
  8
AM_0
 10
606.24843875910915
 20
162.6936957750508
 30
0.0
 70
    32
  0
VERTEX
  5
19851
  8
AM_0
 10
606.25143875910896
 20
162.69069577505081
 30
0.0
 70
    32
  0
VERTEX
  5
19852
  8
AM_0
 10
606.25343875910914
 20
162.68669577505071
 30
0.0
 70
    32
  0
VERTEX
  5
19853
  8
AM_0
 10
606.25643875910885
 20
162.68369577505081
 30
0.0
 70
    32
  0
VERTEX
  5
19854
  8
AM_0
 10
606.25843875910925
 20
162.6796957750507
 30
0.0
 70
    32
  0
VERTEX
  5
19855
  8
AM_0
 10
606.2614387591093
 20
162.67669577505089
 30
0.0
 70
    32
  0
VERTEX
  5
19856
  8
AM_0
 10
606.26343875910948
 20
162.67269577505081
 30
0.0
 70
    32
  0
VERTEX
  5
19857
  8
AM_0
 10
606.26543875910897
 20
162.66969577505071
 30
0.0
 70
    32
  0
VERTEX
  5
19858
  8
AM_0
 10
606.26843875910924
 20
162.66569577505069
 30
0.0
 70
    32
  0
VERTEX
  5
19859
  8
AM_0
 10
606.27043875910931
 20
162.66269577505111
 30
0.0
 70
    32
  0
VERTEX
  5
1985A
  8
AM_0
 10
606.27343875910924
 20
162.658695775051
 30
0.0
 70
    32
  0
VERTEX
  5
1985B
  8
AM_0
 10
606.27543875910931
 20
162.65569577505099
 30
0.0
 70
    32
  0
VERTEX
  5
1985C
  8
AM_0
 10
606.27843875910924
 20
162.6526957750508
 30
0.0
 70
    32
  0
VERTEX
  5
1985D
  8
AM_0
 10
606.2804387591093
 20
162.64869577505101
 30
0.0
 70
    32
  0
VERTEX
  5
1985E
  8
AM_0
 10
606.283438759109
 20
162.64569577505071
 30
0.0
 70
    32
  0
VERTEX
  5
1985F
  8
AM_0
 10
606.2854387591093
 20
162.64169577505089
 30
0.0
 70
    32
  0
VERTEX
  5
19860
  8
AM_0
 10
606.28843875910923
 20
162.63869577505099
 30
0.0
 70
    32
  0
VERTEX
  5
19861
  8
AM_0
 10
606.29043875910929
 20
162.634695775051
 30
0.0
 70
    32
  0
VERTEX
  5
19862
  8
AM_0
 10
606.29343875910911
 20
162.63169577505059
 30
0.0
 70
    32
  0
VERTEX
  5
19863
  8
AM_0
 10
606.29643875910938
 20
162.628695775051
 30
0.0
 70
    32
  0
VERTEX
  5
19864
  8
AM_0
 10
606.29843875910944
 20
162.62469577505101
 30
0.0
 70
    32
  0
VERTEX
  5
19865
  8
AM_0
 10
606.30143875910915
 20
162.62169577505091
 30
0.0
 70
    32
  0
VERTEX
  5
19866
  8
AM_0
 10
606.30343875910921
 20
162.617695775051
 30
0.0
 70
    32
  0
VERTEX
  5
19867
  8
AM_0
 10
606.30643875910948
 20
162.61469577505059
 30
0.0
 70
    32
  0
VERTEX
  5
19868
  8
AM_0
 10
606.30943875910918
 20
162.61169577505061
 30
0.0
 70
    32
  0
VERTEX
  5
19869
  8
AM_0
 10
606.31143875910925
 20
162.60769577505101
 30
0.0
 70
    32
  0
VERTEX
  5
1986A
  8
AM_0
 10
606.31443875910907
 20
162.60469577505111
 30
0.0
 70
    32
  0
VERTEX
  5
1986B
  8
AM_0
 10
606.31643875910925
 20
162.60069577505089
 30
0.0
 70
    32
  0
VERTEX
  5
1986C
  8
AM_0
 10
606.31943875910895
 20
162.59769577505099
 30
0.0
 70
    32
  0
VERTEX
  5
1986D
  8
AM_0
 10
606.32243875910922
 20
162.59469577505089
 30
0.0
 70
    32
  0
VERTEX
  5
1986E
  8
AM_0
 10
606.32443875910894
 20
162.5906957750509
 30
0.0
 70
    32
  0
VERTEX
  5
1986F
  8
AM_0
 10
606.32743875910921
 20
162.587695775051
 30
0.0
 70
    32
  0
VERTEX
  5
19870
  8
AM_0
 10
606.33043875910926
 20
162.5846957750511
 30
0.0
 70
    32
  0
VERTEX
  5
19871
  8
AM_0
 10
606.33243875910932
 20
162.58069577505091
 30
0.0
 70
    32
  0
VERTEX
  5
19872
  8
AM_0
 10
606.33543875910925
 20
162.5776957750509
 30
0.0
 70
    32
  0
VERTEX
  5
19873
  8
AM_0
 10
606.33843875910918
 20
162.5746957750506
 30
0.0
 70
    32
  0
VERTEX
  5
19874
  8
AM_0
 10
606.34143875910922
 20
162.5716957750507
 30
0.0
 70
    32
  0
VERTEX
  5
19875
  8
AM_0
 10
606.34343875910895
 20
162.56769577505091
 30
0.0
 70
    32
  0
VERTEX
  5
19876
  8
AM_0
 10
606.34643875910911
 20
162.56469577505061
 30
0.0
 70
    32
  0
VERTEX
  5
19877
  8
AM_0
 10
606.34943875910915
 20
162.56169577505079
 30
0.0
 70
    32
  0
VERTEX
  5
19878
  8
AM_0
 10
606.3524387591093
 20
162.557695775051
 30
0.0
 70
    32
  0
VERTEX
  5
19879
  8
AM_0
 10
606.35443875910914
 20
162.55469577505059
 30
0.0
 70
    32
  0
VERTEX
  5
1987A
  8
AM_0
 10
606.3574387591093
 20
162.5516957750508
 30
0.0
 70
    32
  0
VERTEX
  5
1987B
  8
AM_0
 10
606.360438759109
 20
162.5486957750511
 30
0.0
 70
    32
  0
VERTEX
  5
1987C
  8
AM_0
 10
606.36343875910927
 20
162.5446957750506
 30
0.0
 70
    32
  0
VERTEX
  5
1987D
  8
AM_0
 10
606.36543875910922
 20
162.54169577505061
 30
0.0
 70
    32
  0
VERTEX
  5
1987E
  8
AM_0
 10
606.36843875910915
 20
162.5386957750508
 30
0.0
 70
    32
  0
VERTEX
  5
1987F
  8
AM_0
 10
606.37143875910897
 20
162.53569577505061
 30
0.0
 70
    32
  0
VERTEX
  5
19880
  8
AM_0
 10
606.37443875910924
 20
162.53269577505071
 30
0.0
 70
    32
  0
VERTEX
  5
19881
  8
AM_0
 10
606.37743875910917
 20
162.52869577505109
 30
0.0
 70
    32
  0
VERTEX
  5
19882
  8
AM_0
 10
606.38043875910898
 20
162.52569577505079
 30
0.0
 70
    32
  0
VERTEX
  5
19883
  8
AM_0
 10
606.38243875910916
 20
162.52269577505089
 30
0.0
 70
    32
  0
VERTEX
  5
19884
  8
AM_0
 10
606.38543875910932
 20
162.51969577505099
 30
0.0
 70
    32
  0
VERTEX
  5
19885
  8
AM_0
 10
606.38843875910925
 20
162.51669577505069
 30
0.0
 70
    32
  0
VERTEX
  5
19886
  8
AM_0
 10
606.39143875910929
 20
162.51369577505091
 30
0.0
 70
    32
  0
VERTEX
  5
19887
  8
AM_0
 10
606.39443875910945
 20
162.510695775051
 30
0.0
 70
    32
  0
VERTEX
  5
19888
  8
AM_0
 10
606.39743875910915
 20
162.50669577505059
 30
0.0
 70
    32
  0
VERTEX
  5
19889
  8
AM_0
 10
606.40043875910931
 20
162.50369577505089
 30
0.0
 70
    32
  0
VERTEX
  5
1988A
  8
AM_0
 10
606.40343875910935
 20
162.50069577505101
 30
0.0
 70
    32
  0
VERTEX
  5
1988B
  8
AM_0
 10
606.40643875910939
 20
162.49769577505111
 30
0.0
 70
    32
  0
VERTEX
  5
1988C
  8
AM_0
 10
606.40943875910932
 20
162.49469577505079
 30
0.0
 70
    32
  0
VERTEX
  5
1988D
  8
AM_0
 10
606.41243875910925
 20
162.49169577505069
 30
0.0
 70
    32
  0
VERTEX
  5
1988E
  8
AM_0
 10
606.41543875910918
 20
162.4886957750511
 30
0.0
 70
    32
  0
VERTEX
  5
1988F
  8
AM_0
 10
606.41843875910922
 20
162.48569577505091
 30
0.0
 70
    32
  0
VERTEX
  5
19890
  8
AM_0
 10
606.42143875910938
 20
162.4826957750509
 30
0.0
 70
    32
  0
VERTEX
  5
19891
  8
AM_0
 10
606.42443875910919
 20
162.479695775051
 30
0.0
 70
    32
  0
VERTEX
  5
19892
  8
AM_0
 10
606.42743875910924
 20
162.4766957750507
 30
0.0
 70
    32
  0
VERTEX
  5
19893
  8
AM_0
 10
606.43043875910951
 20
162.4736957750508
 30
0.0
 70
    32
  0
VERTEX
  5
19894
  8
AM_0
 10
606.43343875910932
 20
162.47069577505101
 30
0.0
 70
    32
  0
VERTEX
  5
19895
  8
AM_0
 10
606.43643875910925
 20
162.467695775051
 30
0.0
 70
    32
  0
VERTEX
  5
19896
  8
AM_0
 10
606.43943875910929
 20
162.46469577505059
 30
0.0
 70
    32
  0
VERTEX
  5
19897
  8
AM_0
 10
606.44243875910922
 20
162.46169577505111
 30
0.0
 70
    32
  0
VERTEX
  5
19898
  8
AM_0
 10
606.44543875910927
 20
162.4586957750507
 30
0.0
 70
    32
  0
VERTEX
  5
19899
  8
AM_0
 10
606.44843875910897
 20
162.45569577505091
 30
0.0
 70
    32
  0
VERTEX
  5
1989A
  8
AM_0
 10
606.45143875910924
 20
162.45269577505081
 30
0.0
 70
    32
  0
VERTEX
  5
1989B
  8
AM_0
 10
606.45443875910928
 20
162.44969577505071
 30
0.0
 70
    32
  0
VERTEX
  5
1989C
  8
AM_0
 10
606.45743875910932
 20
162.44669577505081
 30
0.0
 70
    32
  0
VERTEX
  5
1989D
  8
AM_0
 10
606.46043875910948
 20
162.4436957750508
 30
0.0
 70
    32
  0
VERTEX
  5
1989E
  8
AM_0
 10
606.46343875910929
 20
162.4406957750509
 30
0.0
 70
    32
  0
VERTEX
  5
1989F
  8
AM_0
 10
606.46743875910897
 20
162.4376957750506
 30
0.0
 70
    32
  0
VERTEX
  5
198A0
  8
AM_0
 10
606.47043875910947
 20
162.43469577505101
 30
0.0
 70
    32
  0
VERTEX
  5
198A1
  8
AM_0
 10
606.47343875910894
 20
162.4316957750508
 30
0.0
 70
    32
  0
VERTEX
  5
198A2
  8
AM_0
 10
606.4764387591091
 20
162.4296957750509
 30
0.0
 70
    32
  0
VERTEX
  5
198A3
  8
AM_0
 10
606.4794387591096
 20
162.4266957750508
 30
0.0
 70
    32
  0
VERTEX
  5
198A4
  8
AM_0
 10
606.4824387591093
 20
162.42369577505099
 30
0.0
 70
    32
  0
VERTEX
  5
198A5
  8
AM_0
 10
606.48643875910932
 20
162.42069577505089
 30
0.0
 70
    32
  0
VERTEX
  5
198A6
  8
AM_0
 10
606.48943875910936
 20
162.41769577505099
 30
0.0
 70
    32
  0
VERTEX
  5
198A7
  8
AM_0
 10
606.49243875910918
 20
162.41469577505109
 30
0.0
 70
    32
  0
VERTEX
  5
198A8
  8
AM_0
 10
606.49543875910922
 20
162.41269577505099
 30
0.0
 70
    32
  0
VERTEX
  5
198A9
  8
AM_0
 10
606.49943875910924
 20
162.40969577505089
 30
0.0
 70
    32
  0
VERTEX
  5
198AA
  8
AM_0
 10
606.50243875910917
 20
162.40669577505079
 30
0.0
 70
    32
  0
VERTEX
  5
198AB
  8
AM_0
 10
606.50543875910887
 20
162.40369577505101
 30
0.0
 70
    32
  0
VERTEX
  5
198AC
  8
AM_0
 10
606.50843875910937
 20
162.4016957750508
 30
0.0
 70
    32
  0
VERTEX
  5
198AD
  8
AM_0
 10
606.51243875910916
 20
162.3986957750507
 30
0.0
 70
    32
  0
VERTEX
  5
198AE
  8
AM_0
 10
606.51543875910932
 20
162.3956957750508
 30
0.0
 70
    32
  0
VERTEX
  5
198AF
  8
AM_0
 10
606.51843875910913
 20
162.3936957750509
 30
0.0
 70
    32
  0
VERTEX
  5
198B0
  8
AM_0
 10
606.52243875910926
 20
162.3906957750506
 30
0.0
 70
    32
  0
VERTEX
  5
198B1
  8
AM_0
 10
606.52543875910919
 20
162.38769577505099
 30
0.0
 70
    32
  0
VERTEX
  5
198B2
  8
AM_0
 10
606.52843875910924
 20
162.38569577505089
 30
0.0
 70
    32
  0
VERTEX
  5
198B3
  8
AM_0
 10
606.53243875910914
 20
162.38269577505091
 30
0.0
 70
    32
  0
VERTEX
  5
198B4
  8
AM_0
 10
606.53543875910896
 20
162.37969577505069
 30
0.0
 70
    32
  0
VERTEX
  5
198B5
  8
AM_0
 10
606.53843875910923
 20
162.3776957750506
 30
0.0
 70
    32
  0
VERTEX
  5
198B6
  8
AM_0
 10
606.54243875910925
 20
162.37469577505081
 30
0.0
 70
    32
  0
VERTEX
  5
198B7
  8
AM_0
 10
606.54543875910895
 20
162.372695775051
 30
0.0
 70
    32
  0
VERTEX
  5
198B8
  8
AM_0
 10
606.54943875910931
 20
162.36969577505079
 30
0.0
 70
    32
  0
VERTEX
  5
198B9
  8
AM_0
 10
606.55243875910924
 20
162.36669577505049
 30
0.0
 70
    32
  0
VERTEX
  5
198BA
  8
AM_0
 10
606.55543875910894
 20
162.36469577505079
 30
0.0
 70
    32
  0
VERTEX
  5
198BB
  8
AM_0
 10
606.55943875910896
 20
162.3616957750508
 30
0.0
 70
    32
  0
VERTEX
  5
198BC
  8
AM_0
 10
606.56243875910923
 20
162.3596957750508
 30
0.0
 70
    32
  0
VERTEX
  5
198BD
  8
AM_0
 10
606.56643875910925
 20
162.35669577505081
 30
0.0
 70
    32
  0
VERTEX
  5
198BE
  8
AM_0
 10
606.56943875910929
 20
162.35469577505111
 30
0.0
 70
    32
  0
VERTEX
  5
198BF
  8
AM_0
 10
606.57343875910885
 20
162.35169577505081
 30
0.0
 70
    32
  0
VERTEX
  5
198C0
  8
AM_0
 10
606.57643875910935
 20
162.3496957750508
 30
0.0
 70
    32
  0
VERTEX
  5
198C1
  8
AM_0
 10
606.58043875910926
 20
162.34769577505071
 30
0.0
 70
    32
  0
VERTEX
  5
198C2
  8
AM_0
 10
606.5834387591093
 20
162.34469577505081
 30
0.0
 70
    32
  0
VERTEX
  5
198C3
  8
AM_0
 10
606.58743875910932
 20
162.34269577505069
 30
0.0
 70
    32
  0
VERTEX
  5
198C4
  8
AM_0
 10
606.59043875910936
 20
162.33969577505101
 30
0.0
 70
    32
  0
VERTEX
  5
198C5
  8
AM_0
 10
606.59443875910915
 20
162.33769577505109
 30
0.0
 70
    32
  0
VERTEX
  5
198C6
  8
AM_0
 10
606.59843875910951
 20
162.33569577505079
 30
0.0
 70
    32
  0
VERTEX
  5
198C7
  8
AM_0
 10
606.60143875910921
 20
162.33269577505089
 30
0.0
 70
    32
  0
VERTEX
  5
198C8
  8
AM_0
 10
606.60543875910923
 20
162.3306957750506
 30
0.0
 70
    32
  0
VERTEX
  5
198C9
  8
AM_0
 10
606.60843875910916
 20
162.32869577505079
 30
0.0
 70
    32
  0
VERTEX
  5
198CA
  8
AM_0
 10
606.61243875910907
 20
162.325695775051
 30
0.0
 70
    32
  0
VERTEX
  5
198CB
  8
AM_0
 10
606.61643875910954
 20
162.3236957750506
 30
0.0
 70
    32
  0
VERTEX
  5
198CC
  8
AM_0
 10
606.61943875910924
 20
162.3216957750509
 30
0.0
 70
    32
  0
VERTEX
  5
198CD
  8
AM_0
 10
606.62343875910892
 20
162.319695775051
 30
0.0
 70
    32
  0
VERTEX
  5
198CE
  8
AM_0
 10
606.62743875910894
 20
162.3166957750511
 30
0.0
 70
    32
  0
VERTEX
  5
198CF
  8
AM_0
 10
606.63043875910932
 20
162.31469577505109
 30
0.0
 70
    32
  0
VERTEX
  5
198D0
  8
AM_0
 10
606.63443875910934
 20
162.31269577505091
 30
0.0
 70
    32
  0
VERTEX
  5
198D1
  8
AM_0
 10
606.63843875910925
 20
162.31069577505099
 30
0.0
 70
    32
  0
VERTEX
  5
198D2
  8
AM_0
 10
606.64143875910884
 20
162.30869577505081
 30
0.0
 70
    32
  0
VERTEX
  5
198D3
  8
AM_0
 10
606.64543875910908
 20
162.30669577505071
 30
0.0
 70
    32
  0
VERTEX
  5
198D4
  8
AM_0
 10
606.64943875910922
 20
162.30469577505079
 30
0.0
 70
    32
  0
VERTEX
  5
198D5
  8
AM_0
 10
606.65243875910915
 20
162.30169577505089
 30
0.0
 70
    32
  0
VERTEX
  5
198D6
  8
AM_0
 10
606.65643875910928
 20
162.29969577505079
 30
0.0
 70
    32
  0
VERTEX
  5
198D7
  8
AM_0
 10
606.6604387591093
 20
162.29769577505061
 30
0.0
 70
    32
  0
VERTEX
  5
198D8
  8
AM_0
 10
606.66443875910932
 20
162.29569577505069
 30
0.0
 70
    32
  0
VERTEX
  5
198D9
  8
AM_0
 10
606.66743875910925
 20
162.29369577505059
 30
0.0
 70
    32
  0
VERTEX
  5
198DA
  8
AM_0
 10
606.67143875910949
 20
162.29169577505061
 30
0.0
 70
    32
  0
VERTEX
  5
198DB
  8
AM_0
 10
606.67543875910917
 20
162.289695775051
 30
0.0
 70
    32
  0
VERTEX
  5
198DC
  8
AM_0
 10
606.6794387591093
 20
162.28769577505111
 30
0.0
 70
    32
  0
VERTEX
  5
198DD
  8
AM_0
 10
606.68343875910955
 20
162.28569577505061
 30
0.0
 70
    32
  0
VERTEX
  5
198DE
  8
AM_0
 10
606.68643875910914
 20
162.28469577505081
 30
0.0
 70
    32
  0
VERTEX
  5
198DF
  8
AM_0
 10
606.69043875910916
 20
162.28269577505091
 30
0.0
 70
    32
  0
VERTEX
  5
198E0
  8
AM_0
 10
606.69443875910918
 20
162.2806957750507
 30
0.0
 70
    32
  0
VERTEX
  5
198E1
  8
AM_0
 10
606.69843875910931
 20
162.27869577505101
 30
0.0
 70
    32
  0
VERTEX
  5
198E2
  8
AM_0
 10
606.70243875910921
 20
162.27669577505071
 30
0.0
 70
    32
  0
VERTEX
  5
198E3
  8
AM_0
 10
606.70643875910923
 20
162.27469577505079
 30
0.0
 70
    32
  0
VERTEX
  5
198E4
  8
AM_0
 10
606.71043875910925
 20
162.27369577505081
 30
0.0
 70
    32
  0
VERTEX
  5
198E5
  8
AM_0
 10
606.71343875910907
 20
162.2716957750508
 30
0.0
 70
    32
  0
VERTEX
  5
198E6
  8
AM_0
 10
606.71743875910931
 20
162.26969577505091
 30
0.0
 70
    32
  0
VERTEX
  5
198E7
  8
AM_0
 10
606.72143875910933
 20
162.2676957750511
 30
0.0
 70
    32
  0
VERTEX
  5
198E8
  8
AM_0
 10
606.72543875910924
 20
162.26669577505061
 30
0.0
 70
    32
  0
VERTEX
  5
198E9
  8
AM_0
 10
606.72943875910914
 20
162.26469577505071
 30
0.0
 70
    32
  0
VERTEX
  5
198EA
  8
AM_0
 10
606.73343875910928
 20
162.26269577505099
 30
0.0
 70
    32
  0
VERTEX
  5
198EB
  8
AM_0
 10
606.7374387591093
 20
162.26169577505081
 30
0.0
 70
    32
  0
VERTEX
  5
198EC
  8
AM_0
 10
606.7414387591092
 20
162.259695775051
 30
0.0
 70
    32
  0
VERTEX
  5
198ED
  8
AM_0
 10
606.74543875910899
 20
162.25769577505079
 30
0.0
 70
    32
  0
VERTEX
  5
198EE
  8
AM_0
 10
606.74943875910913
 20
162.2566957750509
 30
0.0
 70
    32
  0
VERTEX
  5
198EF
  8
AM_0
 10
606.75343875910914
 20
162.25469577505089
 30
0.0
 70
    32
  0
VERTEX
  5
198F0
  8
AM_0
 10
606.75743875910928
 20
162.2536957750508
 30
0.0
 70
    32
  0
VERTEX
  5
198F1
  8
AM_0
 10
606.7614387591093
 20
162.25169577505091
 30
0.0
 70
    32
  0
VERTEX
  5
198F2
  8
AM_0
 10
606.76543875910897
 20
162.2506957750511
 30
0.0
 70
    32
  0
VERTEX
  5
198F3
  8
AM_0
 10
606.76943875910922
 20
162.24869577505069
 30
0.0
 70
    32
  0
VERTEX
  5
198F4
  8
AM_0
 10
606.77343875910924
 20
162.2476957750512
 30
0.0
 70
    32
  0
VERTEX
  5
198F5
  8
AM_0
 10
606.77743875910892
 20
162.24669577505099
 30
0.0
 70
    32
  0
VERTEX
  5
198F6
  8
AM_0
 10
606.78143875910905
 20
162.24469577505059
 30
0.0
 70
    32
  0
VERTEX
  5
198F7
  8
AM_0
 10
606.7854387591093
 20
162.24369577505081
 30
0.0
 70
    32
  0
VERTEX
  5
198F8
  8
AM_0
 10
606.78943875910932
 20
162.242695775051
 30
0.0
 70
    32
  0
VERTEX
  5
198F9
  8
AM_0
 10
606.79343875910922
 20
162.24069577505111
 30
0.0
 70
    32
  0
VERTEX
  5
198FA
  8
AM_0
 10
606.79743875910935
 20
162.2396957750509
 30
0.0
 70
    32
  0
VERTEX
  5
198FB
  8
AM_0
 10
606.80143875910937
 20
162.23869577505101
 30
0.0
 70
    32
  0
VERTEX
  5
198FC
  8
AM_0
 10
606.80643875910937
 20
162.23769577505081
 30
0.0
 70
    32
  0
VERTEX
  5
198FD
  8
AM_0
 10
606.81043875910916
 20
162.23669577505089
 30
0.0
 70
    32
  0
VERTEX
  5
198FE
  8
AM_0
 10
606.81443875910918
 20
162.23469577505091
 30
0.0
 70
    32
  0
VERTEX
  5
198FF
  8
AM_0
 10
606.81843875910931
 20
162.23369577505071
 30
0.0
 70
    32
  0
VERTEX
  5
19900
  8
AM_0
 10
606.82243875910876
 20
162.23269577505079
 30
0.0
 70
    32
  0
VERTEX
  5
19901
  8
AM_0
 10
606.82643875910912
 20
162.23169577505101
 30
0.0
 70
    32
  0
VERTEX
  5
19902
  8
AM_0
 10
606.83043875910926
 20
162.23069577505061
 30
0.0
 70
    32
  0
VERTEX
  5
19903
  8
AM_0
 10
606.83443875910928
 20
162.22969577505111
 30
0.0
 70
    32
  0
VERTEX
  5
19904
  8
AM_0
 10
606.83943875910927
 20
162.22869577505091
 30
0.0
 70
    32
  0
VERTEX
  5
19905
  8
AM_0
 10
606.84343875910895
 20
162.22769577505079
 30
0.0
 70
    32
  0
VERTEX
  5
19906
  8
AM_0
 10
606.84743875910931
 20
162.2266957750509
 30
0.0
 70
    32
  0
VERTEX
  5
19907
  8
AM_0
 10
606.85143875910921
 20
162.22569577505081
 30
0.0
 70
    32
  0
VERTEX
  5
19908
  8
AM_0
 10
606.85543875910946
 20
162.22469577505089
 30
0.0
 70
    32
  0
VERTEX
  5
19909
  8
AM_0
 10
606.85943875910925
 20
162.22369577505069
 30
0.0
 70
    32
  0
VERTEX
  5
1990A
  8
AM_0
 10
606.86443875910959
 20
162.22369577505069
 30
0.0
 70
    32
  0
VERTEX
  5
1990B
  8
AM_0
 10
606.86843875910915
 20
162.22269577505079
 30
0.0
 70
    32
  0
VERTEX
  5
1990C
  8
AM_0
 10
606.87243875910883
 20
162.22169577505079
 30
0.0
 70
    32
  0
VERTEX
  5
1990D
  8
AM_0
 10
606.87643875910885
 20
162.2206957750511
 30
0.0
 70
    32
  0
VERTEX
  5
1990E
  8
AM_0
 10
606.88043875910932
 20
162.21969577505089
 30
0.0
 70
    32
  0
VERTEX
  5
1990F
  8
AM_0
 10
606.88543875910887
 20
162.21969577505089
 30
0.0
 70
    32
  0
VERTEX
  5
19910
  8
AM_0
 10
606.88943875910923
 20
162.21869577505069
 30
0.0
 70
    32
  0
VERTEX
  5
19911
  8
AM_0
 10
606.89343875910924
 20
162.21769577505069
 30
0.0
 70
    32
  0
VERTEX
  5
19912
  8
AM_0
 10
606.89743875910915
 20
162.21769577505069
 30
0.0
 70
    32
  0
VERTEX
  5
19913
  8
AM_0
 10
606.90243875910937
 20
162.21669577505099
 30
0.0
 70
    32
  0
VERTEX
  5
19914
  8
AM_0
 10
606.90643875910916
 20
162.2156957750509
 30
0.0
 70
    32
  0
VERTEX
  5
19915
  8
AM_0
 10
606.91043875910907
 20
162.2156957750509
 30
0.0
 70
    32
  0
VERTEX
  5
19916
  8
AM_0
 10
606.91443875910932
 20
162.2146957750509
 30
0.0
 70
    32
  0
VERTEX
  5
19917
  8
AM_0
 10
606.9194387591092
 20
162.2146957750509
 30
0.0
 70
    32
  0
VERTEX
  5
19918
  8
AM_0
 10
606.92343875910944
 20
162.21369577505061
 30
0.0
 70
    32
  0
VERTEX
  5
19919
  8
AM_0
 10
606.92743875910924
 20
162.21369577505061
 30
0.0
 70
    32
  0
VERTEX
  5
1991A
  8
AM_0
 10
606.93143875910926
 20
162.212695775051
 30
0.0
 70
    32
  0
VERTEX
  5
1991B
  8
AM_0
 10
606.93643875910925
 20
162.212695775051
 30
0.0
 70
    32
  0
VERTEX
  5
1991C
  8
AM_0
 10
606.94043875910893
 20
162.212695775051
 30
0.0
 70
    32
  0
VERTEX
  5
1991D
  8
AM_0
 10
606.94443875910895
 20
162.211695775051
 30
0.0
 70
    32
  0
VERTEX
  5
1991E
  8
AM_0
 10
606.94843875910931
 20
162.211695775051
 30
0.0
 70
    32
  0
VERTEX
  5
1991F
  8
AM_0
 10
606.9534387591093
 20
162.211695775051
 30
0.0
 70
    32
  0
VERTEX
  5
19920
  8
AM_0
 10
606.9574387591091
 20
162.211695775051
 30
0.0
 70
    32
  0
VERTEX
  5
19921
  8
AM_0
 10
606.96143875910923
 20
162.21069577505079
 30
0.0
 70
    32
  0
VERTEX
  5
19922
  8
AM_0
 10
606.96543875910925
 20
162.21069577505079
 30
0.0
 70
    32
  0
VERTEX
  5
19923
  8
AM_0
 10
606.97043875910936
 20
162.21069577505079
 30
0.0
 70
    32
  0
VERTEX
  5
19924
  8
AM_0
 10
606.97443875910915
 20
162.21069577505079
 30
0.0
 70
    32
  0
VERTEX
  5
19925
  8
AM_0
 10
606.97843875910917
 20
162.21069577505079
 30
0.0
 70
    32
  0
VERTEX
  5
19926
  8
AM_0
 10
606.98343875910916
 20
162.21069577505079
 30
0.0
 70
    32
  0
VERTEX
  5
19927
  8
AM_0
 10
606.98743875910918
 20
162.21069577505079
 30
0.0
 70
    32
  0
VERTEX
  5
19928
  8
AM_0
 10
606.99143875910931
 20
162.21069577505079
 30
0.0
 70
    32
  0
VERTEX
  5
19929
  8
AM_0
 10
606.99543875910922
 20
162.21069577505079
 30
0.0
 70
    32
  0
VERTEX
  5
1992A
  8
AM_0
 10
607.00043875910956
 20
162.21069577505079
 30
0.0
 70
    32
  0
VERTEX
  5
1992B
  8
AM_0
 10
607.00443875910923
 20
162.211695775051
 30
0.0
 70
    32
  0
VERTEX
  5
1992C
  8
AM_0
 10
607.00843875910925
 20
162.211695775051
 30
0.0
 70
    32
  0
VERTEX
  5
1992D
  8
AM_0
 10
607.01243875910893
 20
162.211695775051
 30
0.0
 70
    32
  0
VERTEX
  5
1992E
  8
AM_0
 10
607.01743875910893
 20
162.211695775051
 30
0.0
 70
    32
  0
VERTEX
  5
1992F
  8
AM_0
 10
607.02143875910895
 20
162.212695775051
 30
0.0
 70
    32
  0
VERTEX
  5
19930
  8
AM_0
 10
607.02543875910919
 20
162.212695775051
 30
0.0
 70
    32
  0
VERTEX
  5
19931
  8
AM_0
 10
607.02943875910933
 20
162.212695775051
 30
0.0
 70
    32
  0
VERTEX
  5
19932
  8
AM_0
 10
607.03443875910921
 20
162.21369577505061
 30
0.0
 70
    32
  0
VERTEX
  5
19933
  8
AM_0
 10
607.03843875910923
 20
162.21369577505061
 30
0.0
 70
    32
  0
VERTEX
  5
19934
  8
AM_0
 10
607.04243875910925
 20
162.21369577505061
 30
0.0
 70
    32
  0
VERTEX
  5
19935
  8
AM_0
 10
607.04643875910926
 20
162.2146957750509
 30
0.0
 70
    32
  0
VERTEX
  5
19936
  8
AM_0
 10
607.05143875910915
 20
162.2146957750509
 30
0.0
 70
    32
  0
VERTEX
  5
19937
  8
AM_0
 10
607.05543875910928
 20
162.2156957750509
 30
0.0
 70
    32
  0
VERTEX
  5
19938
  8
AM_0
 10
607.0594387591093
 20
162.2156957750509
 30
0.0
 70
    32
  0
VERTEX
  5
19939
  8
AM_0
 10
607.06343875910898
 20
162.21669577505099
 30
0.0
 70
    32
  0
VERTEX
  5
1993A
  8
AM_0
 10
607.06843875910931
 20
162.21669577505099
 30
0.0
 70
    32
  0
VERTEX
  5
1993B
  8
AM_0
 10
607.0724387591091
 20
162.21769577505069
 30
0.0
 70
    32
  0
VERTEX
  5
1993C
  8
AM_0
 10
607.07643875910935
 20
162.21769577505069
 30
0.0
 70
    32
  0
VERTEX
  5
1993D
  8
AM_0
 10
607.0804387591088
 20
162.21869577505069
 30
0.0
 70
    32
  0
VERTEX
  5
1993E
  8
AM_0
 10
607.08543875910937
 20
162.21869577505069
 30
0.0
 70
    32
  0
VERTEX
  5
1993F
  8
AM_0
 10
607.08943875910893
 20
162.21969577505089
 30
0.0
 70
    32
  0
VERTEX
  5
19940
  8
AM_0
 10
607.09343875910906
 20
162.21969577505089
 30
0.0
 70
    32
  0
VERTEX
  5
19941
  8
AM_0
 10
607.09743875910931
 20
162.2206957750511
 30
0.0
 70
    32
  0
SEQEND
  5
19942
  8
AM_0
  0
LINE
  5
19943
  8
AM_0
 10
604.86785356215375
 20
179.21074284012491
 30
0.0
 11
593.36785356215375
 21
179.21074284012491
 31
0.0
  0
LINE
  5
19944
  8
AM_0
 10
604.86785356215375
 20
190.5753641009745
 30
0.0
 11
604.86785356215375
 21
179.21074284012491
 31
0.0
  0
LINE
  5
19945
  8
AM_0
 10
604.28785356215235
 20
175.21074284012479
 30
0.0
 11
595.46785356215184
 21
173.74574284012499
 31
0.0
  0
LINE
  5
19946
  8
AM_0
 10
634.86785356215216
 20
179.21074284012491
 30
0.0
 11
665.36785356215205
 21
179.21074284012491
 31
0.0
  0
LINE
  5
19947
  8
AM_0
 10
623.86785356215239
 20
189.493956399897
 30
0.0
 11
634.86785356215216
 21
189.493956399897
 31
0.0
  0
LINE
  5
19948
  8
AM_0
 10
623.86785356215239
 20
175.21074284012499
 30
0.0
 11
623.86785356215239
 21
189.493956399897
 31
0.0
  0
LINE
  5
19949
  8
AM_0
 10
634.86785356215216
 20
189.493956399897
 30
0.0
 11
634.86785356215216
 21
175.21074284012499
 31
0.0
  0
LINE
  5
1994A
  8
AM_0
 10
665.36785356215375
 20
162.71074284012491
 30
0.0
 11
665.36785356215375
 21
189.78056514767721
 31
0.0
  0
LINE
  5
1994B
  8
AM_0
 10
652.99800508116891
 20
175.21074284012479
 30
0.0
 11
652.99800508116891
 21
164.71074284012479
 31
0.0
  0
LINE
  5
1994C
  8
AM_0
 10
663.26785356215169
 20
164.71074284012479
 30
0.0
 11
663.26785356215169
 21
173.74574284012499
 31
0.0
  0
POLYLINE
  5
1994D
  8
AM_0
 66
     1
 10
0.0
 20
0.0
 30
0.0
 70
     8
  0
VERTEX
  5
1994E
  8
AM_0
 10
651.85803875910915
 20
162.2206957750511
 30
0.0
 70
    32
  0
VERTEX
  5
1994F
  8
AM_0
 10
651.86223875910935
 20
162.22169577505079
 30
0.0
 70
    32
  0
VERTEX
  5
19950
  8
AM_0
 10
651.86653875910906
 20
162.22269577505079
 30
0.0
 70
    32
  0
VERTEX
  5
19951
  8
AM_0
 10
651.87073875910914
 20
162.22369577505069
 30
0.0
 70
    32
  0
VERTEX
  5
19952
  8
AM_0
 10
651.87503875910932
 20
162.22469577505089
 30
0.0
 70
    32
  0
VERTEX
  5
19953
  8
AM_0
 10
651.87923875910917
 20
162.22569577505081
 30
0.0
 70
    32
  0
VERTEX
  5
19954
  8
AM_0
 10
651.88353875910934
 20
162.2266957750509
 30
0.0
 70
    32
  0
VERTEX
  5
19955
  8
AM_0
 10
651.88773875910886
 20
162.22769577505079
 30
0.0
 70
    32
  0
VERTEX
  5
19956
  8
AM_0
 10
651.89193875910917
 20
162.22869577505091
 30
0.0
 70
    32
  0
VERTEX
  5
19957
  8
AM_0
 10
651.896238759109
 20
162.22969577505111
 30
0.0
 70
    32
  0
VERTEX
  5
19958
  8
AM_0
 10
651.90043875910931
 20
162.23069577505061
 30
0.0
 70
    32
  0
VERTEX
  5
19959
  8
AM_0
 10
651.90463875910916
 20
162.23169577505101
 30
0.0
 70
    32
  0
VERTEX
  5
1995A
  8
AM_0
 10
651.90893875910933
 20
162.23269577505079
 30
0.0
 70
    32
  0
VERTEX
  5
1995B
  8
AM_0
 10
651.91313875910964
 20
162.23369577505071
 30
0.0
 70
    32
  0
VERTEX
  5
1995C
  8
AM_0
 10
651.91733875910916
 20
162.23469577505091
 30
0.0
 70
    32
  0
VERTEX
  5
1995D
  8
AM_0
 10
651.92153875910878
 20
162.23569577505091
 30
0.0
 70
    32
  0
VERTEX
  5
1995E
  8
AM_0
 10
651.92573875910932
 20
162.23669577505089
 30
0.0
 70
    32
  0
VERTEX
  5
1995F
  8
AM_0
 10
651.92993875910918
 20
162.23869577505101
 30
0.0
 70
    32
  0
VERTEX
  5
19960
  8
AM_0
 10
651.93413875910892
 20
162.2396957750509
 30
0.0
 70
    32
  0
VERTEX
  5
19961
  8
AM_0
 10
651.93823875910925
 20
162.24069577505111
 30
0.0
 70
    32
  0
VERTEX
  5
19962
  8
AM_0
 10
651.94243875910934
 20
162.24169577505091
 30
0.0
 70
    32
  0
VERTEX
  5
19963
  8
AM_0
 10
651.94663875910919
 20
162.242695775051
 30
0.0
 70
    32
  0
VERTEX
  5
19964
  8
AM_0
 10
651.95073875910884
 20
162.24469577505059
 30
0.0
 70
    32
  0
VERTEX
  5
19965
  8
AM_0
 10
651.95493875910927
 20
162.24569577505071
 30
0.0
 70
    32
  0
VERTEX
  5
19966
  8
AM_0
 10
651.95903875910915
 20
162.24669577505099
 30
0.0
 70
    32
  0
VERTEX
  5
19967
  8
AM_0
 10
651.96313875910914
 20
162.24869577505069
 30
0.0
 70
    32
  0
VERTEX
  5
19968
  8
AM_0
 10
651.96723875910925
 20
162.2496957750509
 30
0.0
 70
    32
  0
VERTEX
  5
19969
  8
AM_0
 10
651.97143875910922
 20
162.2506957750511
 30
0.0
 70
    32
  0
VERTEX
  5
1996A
  8
AM_0
 10
651.97543875910924
 20
162.2526957750508
 30
0.0
 70
    32
  0
VERTEX
  5
1996B
  8
AM_0
 10
651.97953875910923
 20
162.2536957750508
 30
0.0
 70
    32
  0
VERTEX
  5
1996C
  8
AM_0
 10
651.98363875910911
 20
162.2556957750509
 30
0.0
 70
    32
  0
VERTEX
  5
1996D
  8
AM_0
 10
651.98773875910922
 20
162.2566957750509
 30
0.0
 70
    32
  0
VERTEX
  5
1996E
  8
AM_0
 10
651.99173875910913
 20
162.258695775051
 30
0.0
 70
    32
  0
VERTEX
  5
1996F
  8
AM_0
 10
651.99583875910923
 20
162.259695775051
 30
0.0
 70
    32
  0
VERTEX
  5
19970
  8
AM_0
 10
651.99983875910914
 20
162.26169577505081
 30
0.0
 70
    32
  0
VERTEX
  5
19971
  8
AM_0
 10
652.00383875910916
 20
162.26369577505099
 30
0.0
 70
    32
  0
VERTEX
  5
19972
  8
AM_0
 10
652.00783875910929
 20
162.26469577505071
 30
0.0
 70
    32
  0
VERTEX
  5
19973
  8
AM_0
 10
652.01183875910931
 20
162.26669577505061
 30
0.0
 70
    32
  0
VERTEX
  5
19974
  8
AM_0
 10
652.01583875910922
 20
162.2686957750507
 30
0.0
 70
    32
  0
VERTEX
  5
19975
  8
AM_0
 10
652.01983875910923
 20
162.27069577505071
 30
0.0
 70
    32
  0
VERTEX
  5
19976
  8
AM_0
 10
652.02373875910951
 20
162.2716957750508
 30
0.0
 70
    32
  0
VERTEX
  5
19977
  8
AM_0
 10
652.02773875910896
 20
162.27369577505081
 30
0.0
 70
    32
  0
VERTEX
  5
19978
  8
AM_0
 10
652.03163875910923
 20
162.27569577505091
 30
0.0
 70
    32
  0
VERTEX
  5
19979
  8
AM_0
 10
652.03563875910925
 20
162.2776957750508
 30
0.0
 70
    32
  0
VERTEX
  5
1997A
  8
AM_0
 10
652.03953875910929
 20
162.2796957750509
 30
0.0
 70
    32
  0
VERTEX
  5
1997B
  8
AM_0
 10
652.04343875910922
 20
162.28169577505059
 30
0.0
 70
    32
  0
VERTEX
  5
1997C
  8
AM_0
 10
652.04733875910938
 20
162.2836957750506
 30
0.0
 70
    32
  0
VERTEX
  5
1997D
  8
AM_0
 10
652.05123875910931
 20
162.28569577505061
 30
0.0
 70
    32
  0
VERTEX
  5
1997E
  8
AM_0
 10
652.05513875910924
 20
162.28769577505111
 30
0.0
 70
    32
  0
VERTEX
  5
1997F
  8
AM_0
 10
652.05903875910917
 20
162.289695775051
 30
0.0
 70
    32
  0
VERTEX
  5
19980
  8
AM_0
 10
652.06283875910924
 20
162.29169577505061
 30
0.0
 70
    32
  0
VERTEX
  5
19981
  8
AM_0
 10
652.06673875910917
 20
162.29369577505059
 30
0.0
 70
    32
  0
VERTEX
  5
19982
  8
AM_0
 10
652.07053875910924
 20
162.29569577505069
 30
0.0
 70
    32
  0
VERTEX
  5
19983
  8
AM_0
 10
652.0743387591092
 20
162.29769577505061
 30
0.0
 70
    32
  0
VERTEX
  5
19984
  8
AM_0
 10
652.07823875910901
 20
162.29969577505079
 30
0.0
 70
    32
  0
VERTEX
  5
19985
  8
AM_0
 10
652.08203875910931
 20
162.30169577505089
 30
0.0
 70
    32
  0
VERTEX
  5
19986
  8
AM_0
 10
652.08583875910892
 20
162.30369577505061
 30
0.0
 70
    32
  0
VERTEX
  5
19987
  8
AM_0
 10
652.08953875910925
 20
162.30569577505099
 30
0.0
 70
    32
  0
VERTEX
  5
19988
  8
AM_0
 10
652.09333875910909
 20
162.30769577505109
 30
0.0
 70
    32
  0
VERTEX
  5
19989
  8
AM_0
 10
652.09713875910893
 20
162.31069577505099
 30
0.0
 70
    32
  0
VERTEX
  5
1998A
  8
AM_0
 10
652.10083875910925
 20
162.31269577505091
 30
0.0
 70
    32
  0
VERTEX
  5
1998B
  8
AM_0
 10
652.10463875910932
 20
162.31469577505109
 30
0.0
 70
    32
  0
VERTEX
  5
1998C
  8
AM_0
 10
652.10833875910885
 20
162.3166957750511
 30
0.0
 70
    32
  0
VERTEX
  5
1998D
  8
AM_0
 10
652.11203875910928
 20
162.319695775051
 30
0.0
 70
    32
  0
VERTEX
  5
1998E
  8
AM_0
 10
652.11583875910924
 20
162.3216957750509
 30
0.0
 70
    32
  0
VERTEX
  5
1998F
  8
AM_0
 10
652.11953875910922
 20
162.3236957750506
 30
0.0
 70
    32
  0
VERTEX
  5
19990
  8
AM_0
 10
652.12313875910922
 20
162.325695775051
 30
0.0
 70
    32
  0
VERTEX
  5
19991
  8
AM_0
 10
652.12683875910886
 20
162.32869577505079
 30
0.0
 70
    32
  0
VERTEX
  5
19992
  8
AM_0
 10
652.1305387591093
 20
162.3306957750506
 30
0.0
 70
    32
  0
VERTEX
  5
19993
  8
AM_0
 10
652.13413875910931
 20
162.33269577505089
 30
0.0
 70
    32
  0
VERTEX
  5
19994
  8
AM_0
 10
652.13783875910917
 20
162.33569577505079
 30
0.0
 70
    32
  0
VERTEX
  5
19995
  8
AM_0
 10
652.14143875910929
 20
162.33769577505109
 30
0.0
 70
    32
  0
VERTEX
  5
19996
  8
AM_0
 10
652.14513875910939
 20
162.34069577505099
 30
0.0
 70
    32
  0
VERTEX
  5
19997
  8
AM_0
 10
652.14873875910928
 20
162.34269577505069
 30
0.0
 70
    32
  0
VERTEX
  5
19998
  8
AM_0
 10
652.15233875910951
 20
162.34469577505081
 30
0.0
 70
    32
  0
VERTEX
  5
19999
  8
AM_0
 10
652.15593875910929
 20
162.34769577505071
 30
0.0
 70
    32
  0
VERTEX
  5
1999A
  8
AM_0
 10
652.15943875910932
 20
162.3496957750508
 30
0.0
 70
    32
  0
VERTEX
  5
1999B
  8
AM_0
 10
652.16303875910921
 20
162.3526957750509
 30
0.0
 70
    32
  0
VERTEX
  5
1999C
  8
AM_0
 10
652.16663875910922
 20
162.35469577505111
 30
0.0
 70
    32
  0
VERTEX
  5
1999D
  8
AM_0
 10
652.17013875910925
 20
162.35769577505101
 30
0.0
 70
    32
  0
VERTEX
  5
1999E
  8
AM_0
 10
652.17363875910894
 20
162.3596957750508
 30
0.0
 70
    32
  0
VERTEX
  5
1999F
  8
AM_0
 10
652.17713875910931
 20
162.3626957750509
 30
0.0
 70
    32
  0
VERTEX
  5
199A0
  8
AM_0
 10
652.18073875910932
 20
162.36569577505099
 30
0.0
 70
    32
  0
VERTEX
  5
199A1
  8
AM_0
 10
652.18413875910915
 20
162.367695775051
 30
0.0
 70
    32
  0
VERTEX
  5
199A2
  8
AM_0
 10
652.18763875910929
 20
162.37069577505059
 30
0.0
 70
    32
  0
VERTEX
  5
199A3
  8
AM_0
 10
652.19113875910909
 20
162.372695775051
 30
0.0
 70
    32
  0
VERTEX
  5
199A4
  8
AM_0
 10
652.19463875910924
 20
162.37569577505101
 30
0.0
 70
    32
  0
VERTEX
  5
199A5
  8
AM_0
 10
652.19803875910918
 20
162.37869577505089
 30
0.0
 70
    32
  0
VERTEX
  5
199A6
  8
AM_0
 10
652.20153875910921
 20
162.38069577505101
 30
0.0
 70
    32
  0
VERTEX
  5
199A7
  8
AM_0
 10
652.20493875910961
 20
162.383695775051
 30
0.0
 70
    32
  0
VERTEX
  5
199A8
  8
AM_0
 10
652.20833875910898
 20
162.38669577505081
 30
0.0
 70
    32
  0
VERTEX
  5
199A9
  8
AM_0
 10
652.21173875910938
 20
162.38869577505091
 30
0.0
 70
    32
  0
VERTEX
  5
199AA
  8
AM_0
 10
652.21513875910932
 20
162.39169577505061
 30
0.0
 70
    32
  0
VERTEX
  5
199AB
  8
AM_0
 10
652.21853875910915
 20
162.39469577505091
 30
0.0
 70
    32
  0
VERTEX
  5
199AC
  8
AM_0
 10
652.22183875910923
 20
162.39769577505101
 30
0.0
 70
    32
  0
VERTEX
  5
199AD
  8
AM_0
 10
652.22523875910952
 20
162.3996957750509
 30
0.0
 70
    32
  0
VERTEX
  5
199AE
  8
AM_0
 10
652.22853875910914
 20
162.4026957750508
 30
0.0
 70
    32
  0
VERTEX
  5
199AF
  8
AM_0
 10
652.2319387591092
 20
162.40569577505079
 30
0.0
 70
    32
  0
VERTEX
  5
199B0
  8
AM_0
 10
652.23523875910928
 20
162.40869577505089
 30
0.0
 70
    32
  0
VERTEX
  5
199B1
  8
AM_0
 10
652.23853875910868
 20
162.41069577505061
 30
0.0
 70
    32
  0
VERTEX
  5
199B2
  8
AM_0
 10
652.24183875910921
 20
162.41369577505091
 30
0.0
 70
    32
  0
VERTEX
  5
199B3
  8
AM_0
 10
652.24513875910918
 20
162.41669577505081
 30
0.0
 70
    32
  0
VERTEX
  5
199B4
  8
AM_0
 10
652.24843875910892
 20
162.41969577505091
 30
0.0
 70
    32
  0
VERTEX
  5
199B5
  8
AM_0
 10
652.25173875910923
 20
162.42269577505081
 30
0.0
 70
    32
  0
VERTEX
  5
199B6
  8
AM_0
 10
652.25493875910922
 20
162.42569577505071
 30
0.0
 70
    32
  0
VERTEX
  5
199B7
  8
AM_0
 10
652.2582387591093
 20
162.4286957750507
 30
0.0
 70
    32
  0
VERTEX
  5
199B8
  8
AM_0
 10
652.26143875910896
 20
162.4316957750508
 30
0.0
 70
    32
  0
VERTEX
  5
199B9
  8
AM_0
 10
652.26463875910895
 20
162.43469577505101
 30
0.0
 70
    32
  0
VERTEX
  5
199BA
  8
AM_0
 10
652.26783875910917
 20
162.43669577505079
 30
0.0
 70
    32
  0
VERTEX
  5
199BB
  8
AM_0
 10
652.27103875910962
 20
162.43969577505101
 30
0.0
 70
    32
  0
VERTEX
  5
199BC
  8
AM_0
 10
652.27423875910938
 20
162.44269577505079
 30
0.0
 70
    32
  0
VERTEX
  5
199BD
  8
AM_0
 10
652.27743875910915
 20
162.44569577505061
 30
0.0
 70
    32
  0
VERTEX
  5
199BE
  8
AM_0
 10
652.28063875910948
 20
162.44869577505079
 30
0.0
 70
    32
  0
VERTEX
  5
199BF
  8
AM_0
 10
652.28373875910916
 20
162.45169577505081
 30
0.0
 70
    32
  0
VERTEX
  5
199C0
  8
AM_0
 10
652.28693875910915
 20
162.45469577505071
 30
0.0
 70
    32
  0
VERTEX
  5
199C1
  8
AM_0
 10
652.29003875910905
 20
162.45769577505101
 30
0.0
 70
    32
  0
VERTEX
  5
199C2
  8
AM_0
 10
652.2931387591093
 20
162.46069577505091
 30
0.0
 70
    32
  0
VERTEX
  5
199C3
  8
AM_0
 10
652.29633875910895
 20
162.46369577505081
 30
0.0
 70
    32
  0
VERTEX
  5
199C4
  8
AM_0
 10
652.29943875910953
 20
162.46669577505071
 30
0.0
 70
    32
  0
VERTEX
  5
199C5
  8
AM_0
 10
652.30253875910932
 20
162.46969577505061
 30
0.0
 70
    32
  0
VERTEX
  5
199C6
  8
AM_0
 10
652.30553875910914
 20
162.47269577505079
 30
0.0
 70
    32
  0
VERTEX
  5
199C7
  8
AM_0
 10
652.30863875910916
 20
162.4766957750507
 30
0.0
 70
    32
  0
VERTEX
  5
199C8
  8
AM_0
 10
652.31173875910952
 20
162.479695775051
 30
0.0
 70
    32
  0
VERTEX
  5
199C9
  8
AM_0
 10
652.31473875910945
 20
162.4826957750509
 30
0.0
 70
    32
  0
VERTEX
  5
199CA
  8
AM_0
 10
652.31783875910924
 20
162.48569577505091
 30
0.0
 70
    32
  0
VERTEX
  5
199CB
  8
AM_0
 10
652.32083875910917
 20
162.4886957750511
 30
0.0
 70
    32
  0
VERTEX
  5
199CC
  8
AM_0
 10
652.32383875910932
 20
162.49169577505069
 30
0.0
 70
    32
  0
VERTEX
  5
199CD
  8
AM_0
 10
652.32683875910925
 20
162.49469577505079
 30
0.0
 70
    32
  0
VERTEX
  5
199CE
  8
AM_0
 10
652.32983875910929
 20
162.49769577505111
 30
0.0
 70
    32
  0
VERTEX
  5
199CF
  8
AM_0
 10
652.33283875910934
 20
162.50169577505071
 30
0.0
 70
    32
  0
VERTEX
  5
199D0
  8
AM_0
 10
652.33583875910938
 20
162.50469577505081
 30
0.0
 70
    32
  0
VERTEX
  5
199D1
  8
AM_0
 10
652.33883875910931
 20
162.50769577505091
 30
0.0
 70
    32
  0
VERTEX
  5
199D2
  8
AM_0
 10
652.34173875910915
 20
162.510695775051
 30
0.0
 70
    32
  0
VERTEX
  5
199D3
  8
AM_0
 10
652.34473875910885
 20
162.51369577505091
 30
0.0
 70
    32
  0
VERTEX
  5
199D4
  8
AM_0
 10
652.34763875910926
 20
162.51669577505069
 30
0.0
 70
    32
  0
VERTEX
  5
199D5
  8
AM_0
 10
652.35063875910953
 20
162.5206957750508
 30
0.0
 70
    32
  0
VERTEX
  5
199D6
  8
AM_0
 10
652.35353875910937
 20
162.52369577505081
 30
0.0
 70
    32
  0
VERTEX
  5
199D7
  8
AM_0
 10
652.35643875910932
 20
162.52669577505071
 30
0.0
 70
    32
  0
VERTEX
  5
199D8
  8
AM_0
 10
652.35933875910939
 20
162.52969577505101
 30
0.0
 70
    32
  0
VERTEX
  5
199D9
  8
AM_0
 10
652.36223875910923
 20
162.53369577505089
 30
0.0
 70
    32
  0
VERTEX
  5
199DA
  8
AM_0
 10
652.36513875910896
 20
162.53669577505059
 30
0.0
 70
    32
  0
VERTEX
  5
199DB
  8
AM_0
 10
652.36793875910928
 20
162.539695775051
 30
0.0
 70
    32
  0
VERTEX
  5
199DC
  8
AM_0
 10
652.37083875910912
 20
162.5426957750509
 30
0.0
 70
    32
  0
VERTEX
  5
199DD
  8
AM_0
 10
652.37363875910921
 20
162.54669577505101
 30
0.0
 70
    32
  0
VERTEX
  5
199DE
  8
AM_0
 10
652.37653875910951
 20
162.54969577505079
 30
0.0
 70
    32
  0
VERTEX
  5
199DF
  8
AM_0
 10
652.37933875910915
 20
162.55269577505089
 30
0.0
 70
    32
  0
VERTEX
  5
199E0
  8
AM_0
 10
652.38213875910913
 20
162.55669577505071
 30
0.0
 70
    32
  0
VERTEX
  5
199E1
  8
AM_0
 10
652.3849387591091
 20
162.55969577505081
 30
0.0
 70
    32
  0
VERTEX
  5
199E2
  8
AM_0
 10
652.38773875910931
 20
162.56269577505091
 30
0.0
 70
    32
  0
VERTEX
  5
199E3
  8
AM_0
 10
652.39053875910918
 20
162.56669577505099
 30
0.0
 70
    32
  0
VERTEX
  5
199E4
  8
AM_0
 10
652.39333875910916
 20
162.56969577505069
 30
0.0
 70
    32
  0
VERTEX
  5
199E5
  8
AM_0
 10
652.39613875910868
 20
162.57269577505079
 30
0.0
 70
    32
  0
VERTEX
  5
199E6
  8
AM_0
 10
652.39883875910891
 20
162.57669577505061
 30
0.0
 70
    32
  0
VERTEX
  5
199E7
  8
AM_0
 10
652.40163875910923
 20
162.57969577505071
 30
0.0
 70
    32
  0
VERTEX
  5
199E8
  8
AM_0
 10
652.40433875910924
 20
162.58269577505081
 30
0.0
 70
    32
  0
VERTEX
  5
199E9
  8
AM_0
 10
652.40713875910933
 20
162.586695775051
 30
0.0
 70
    32
  0
VERTEX
  5
199EA
  8
AM_0
 10
652.40983875910933
 20
162.58969577505059
 30
0.0
 70
    32
  0
VERTEX
  5
199EB
  8
AM_0
 10
652.41253875910934
 20
162.59369577505089
 30
0.0
 70
    32
  0
VERTEX
  5
199EC
  8
AM_0
 10
652.41523875910934
 20
162.59669577505059
 30
0.0
 70
    32
  0
VERTEX
  5
199ED
  8
AM_0
 10
652.41793875910901
 20
162.59969577505089
 30
0.0
 70
    32
  0
VERTEX
  5
199EE
  8
AM_0
 10
652.42063875910912
 20
162.60369577505091
 30
0.0
 70
    32
  0
VERTEX
  5
199EF
  8
AM_0
 10
652.42333875910936
 20
162.60669577505081
 30
0.0
 70
    32
  0
VERTEX
  5
199F0
  8
AM_0
 10
652.42593875910939
 20
162.6106957750508
 30
0.0
 70
    32
  0
VERTEX
  5
199F1
  8
AM_0
 10
652.42863875910962
 20
162.61369577505101
 30
0.0
 70
    32
  0
VERTEX
  5
199F2
  8
AM_0
 10
652.43133875910917
 20
162.617695775051
 30
0.0
 70
    32
  0
VERTEX
  5
199F3
  8
AM_0
 10
652.43393875910897
 20
162.6206957750509
 30
0.0
 70
    32
  0
VERTEX
  5
199F4
  8
AM_0
 10
652.43653875910923
 20
162.62369577505081
 30
0.0
 70
    32
  0
VERTEX
  5
199F5
  8
AM_0
 10
652.43913875910926
 20
162.6276957750508
 30
0.0
 70
    32
  0
VERTEX
  5
199F6
  8
AM_0
 10
652.44183875910915
 20
162.6306957750509
 30
0.0
 70
    32
  0
VERTEX
  5
199F7
  8
AM_0
 10
652.44443875910929
 20
162.634695775051
 30
0.0
 70
    32
  0
VERTEX
  5
199F8
  8
AM_0
 10
652.44703875910932
 20
162.63769577505079
 30
0.0
 70
    32
  0
VERTEX
  5
199F9
  8
AM_0
 10
652.44953875910949
 20
162.64169577505089
 30
0.0
 70
    32
  0
VERTEX
  5
199FA
  8
AM_0
 10
652.45213875910895
 20
162.64469577505099
 30
0.0
 70
    32
  0
VERTEX
  5
199FB
  8
AM_0
 10
652.45473875910932
 20
162.64869577505101
 30
0.0
 70
    32
  0
VERTEX
  5
199FC
  8
AM_0
 10
652.45723875910915
 20
162.65169577505071
 30
0.0
 70
    32
  0
VERTEX
  5
199FD
  8
AM_0
 10
652.45983875910918
 20
162.65569577505099
 30
0.0
 70
    32
  0
VERTEX
  5
199FE
  8
AM_0
 10
652.46233875910923
 20
162.658695775051
 30
0.0
 70
    32
  0
VERTEX
  5
199FF
  8
AM_0
 10
652.46493875910915
 20
162.66269577505111
 30
0.0
 70
    32
  0
VERTEX
  5
19A00
  8
AM_0
 10
652.46743875910931
 20
162.66569577505069
 30
0.0
 70
    32
  0
VERTEX
  5
19A01
  8
AM_0
 10
652.46993875910914
 20
162.66969577505071
 30
0.0
 70
    32
  0
VERTEX
  5
19A02
  8
AM_0
 10
652.47243875910931
 20
162.67369577505099
 30
0.0
 70
    32
  0
VERTEX
  5
19A03
  8
AM_0
 10
652.47493875910948
 20
162.67669577505089
 30
0.0
 70
    32
  0
VERTEX
  5
19A04
  8
AM_0
 10
652.4774387591093
 20
162.68069577505099
 30
0.0
 70
    32
  0
VERTEX
  5
19A05
  8
AM_0
 10
652.47993875910925
 20
162.68369577505081
 30
0.0
 70
    32
  0
VERTEX
  5
19A06
  8
AM_0
 10
652.48233875910921
 20
162.6876957750508
 30
0.0
 70
    32
  0
VERTEX
  5
19A07
  8
AM_0
 10
652.48483875910915
 20
162.69069577505081
 30
0.0
 70
    32
  0
VERTEX
  5
19A08
  8
AM_0
 10
652.48723875910923
 20
162.6946957750508
 30
0.0
 70
    32
  0
VERTEX
  5
19A09
  8
AM_0
 10
652.48973875910895
 20
162.69869577505091
 30
0.0
 70
    32
  0
VERTEX
  5
19A0A
  8
AM_0
 10
652.49213875910914
 20
162.7016957750505
 30
0.0
 70
    32
  0
VERTEX
  5
19A0B
  8
AM_0
 10
652.49453875910922
 20
162.70569577505071
 30
0.0
 70
    32
  0
VERTEX
  5
19A0C
  8
AM_0
 10
652.49703875910927
 20
162.70869577505059
 30
0.0
 70
    32
  0
VERTEX
  5
19A0D
  8
AM_0
 10
652.49943875910935
 20
162.71269577505109
 30
0.0
 70
    32
  0
VERTEX
  5
19A0E
  8
AM_0
 10
652.50183875910898
 20
162.71669577505091
 30
0.0
 70
    32
  0
VERTEX
  5
19A0F
  8
AM_0
 10
652.50423875910917
 20
162.71969577505081
 30
0.0
 70
    32
  0
VERTEX
  5
19A10
  8
AM_0
 10
652.50663875910936
 20
162.72369577505091
 30
0.0
 70
    32
  0
VERTEX
  5
19A11
  8
AM_0
 10
652.50893875910924
 20
162.72769577505071
 30
0.0
 70
    32
  0
VERTEX
  5
19A12
  8
AM_0
 10
652.51133875910898
 20
162.7306957750508
 30
0.0
 70
    32
  0
VERTEX
  5
19A13
  8
AM_0
 10
652.51373875910895
 20
162.7346957750508
 30
0.0
 70
    32
  0
VERTEX
  5
19A14
  8
AM_0
 10
652.51603875910928
 20
162.7386957750511
 30
0.0
 70
    32
  0
VERTEX
  5
19A15
  8
AM_0
 10
652.51843875910913
 20
162.7416957750508
 30
0.0
 70
    32
  0
VERTEX
  5
19A16
  8
AM_0
 10
652.52073875910924
 20
162.74569577505099
 30
0.0
 70
    32
  0
VERTEX
  5
19A17
  8
AM_0
 10
652.52303875910911
 20
162.74969577505109
 30
0.0
 70
    32
  0
VERTEX
  5
19A18
  8
AM_0
 10
652.52533875910899
 20
162.75269577505071
 30
0.0
 70
    32
  0
VERTEX
  5
19A19
  8
AM_0
 10
652.52763875910932
 20
162.7566957750507
 30
0.0
 70
    32
  0
VERTEX
  5
19A1A
  8
AM_0
 10
652.53003875910929
 20
162.760695775051
 30
0.0
 70
    32
  0
VERTEX
  5
19A1B
  8
AM_0
 10
652.5322387591093
 20
162.76369577505091
 30
0.0
 70
    32
  0
VERTEX
  5
19A1C
  8
AM_0
 10
652.5345387591093
 20
162.76769577505101
 30
0.0
 70
    32
  0
VERTEX
  5
19A1D
  8
AM_0
 10
652.53683875910917
 20
162.7716957750508
 30
0.0
 70
    32
  0
VERTEX
  5
19A1E
  8
AM_0
 10
652.53913875910905
 20
162.7746957750507
 30
0.0
 70
    32
  0
VERTEX
  5
19A1F
  8
AM_0
 10
652.54143875910927
 20
162.77869577505101
 30
0.0
 70
    32
  0
VERTEX
  5
19A20
  8
AM_0
 10
652.54363875910917
 20
162.7826957750508
 30
0.0
 70
    32
  0
VERTEX
  5
19A21
  8
AM_0
 10
652.54593875910928
 20
162.78669577505079
 30
0.0
 70
    32
  0
VERTEX
  5
19A22
  8
AM_0
 10
652.54813875910895
 20
162.78969577505069
 30
0.0
 70
    32
  0
VERTEX
  5
19A23
  8
AM_0
 10
652.55033875910931
 20
162.79369577505079
 30
0.0
 70
    32
  0
VERTEX
  5
19A24
  8
AM_0
 10
652.55263875910919
 20
162.79769577505081
 30
0.0
 70
    32
  0
VERTEX
  5
19A25
  8
AM_0
 10
652.55483875910932
 20
162.80069577505091
 30
0.0
 70
    32
  0
VERTEX
  5
19A26
  8
AM_0
 10
652.55703875910933
 20
162.80469577505059
 30
0.0
 70
    32
  0
VERTEX
  5
19A27
  8
AM_0
 10
652.55923875910935
 20
162.80869577505081
 30
0.0
 70
    32
  0
VERTEX
  5
19A28
  8
AM_0
 10
652.56143875910925
 20
162.8126957750508
 30
0.0
 70
    32
  0
VERTEX
  5
19A29
  8
AM_0
 10
652.56363875910915
 20
162.8156957750507
 30
0.0
 70
    32
  0
VERTEX
  5
19A2A
  8
AM_0
 10
652.56573875910931
 20
162.81969577505069
 30
0.0
 70
    32
  0
VERTEX
  5
19A2B
  8
AM_0
 10
652.56793875910932
 20
162.82369577505079
 30
0.0
 70
    32
  0
VERTEX
  5
19A2C
  8
AM_0
 10
652.57013875910923
 20
162.82769577505081
 30
0.0
 70
    32
  0
VERTEX
  5
19A2D
  8
AM_0
 10
652.57223875910938
 20
162.83169577505089
 30
0.0
 70
    32
  0
VERTEX
  5
19A2E
  8
AM_0
 10
652.57443875910894
 20
162.83469577505099
 30
0.0
 70
    32
  0
VERTEX
  5
19A2F
  8
AM_0
 10
652.57653875910933
 20
162.83869577505081
 30
0.0
 70
    32
  0
VERTEX
  5
19A30
  8
AM_0
 10
652.57873875910923
 20
162.8426957750506
 30
0.0
 70
    32
  0
VERTEX
  5
19A31
  8
AM_0
 10
652.58083875910927
 20
162.8466957750507
 30
0.0
 70
    32
  0
VERTEX
  5
19A32
  8
AM_0
 10
652.58293875910886
 20
162.849695775051
 30
0.0
 70
    32
  0
VERTEX
  5
19A33
  8
AM_0
 10
652.58503875910924
 20
162.8536957750508
 30
0.0
 70
    32
  0
VERTEX
  5
19A34
  8
AM_0
 10
652.58713875910962
 20
162.85769577505079
 30
0.0
 70
    32
  0
VERTEX
  5
19A35
  8
AM_0
 10
652.58923875910909
 20
162.86169577505089
 30
0.0
 70
    32
  0
VERTEX
  5
19A36
  8
AM_0
 10
652.59133875910925
 20
162.86569577505099
 30
0.0
 70
    32
  0
VERTEX
  5
19A37
  8
AM_0
 10
652.59343875910918
 20
162.86969577505101
 30
0.0
 70
    32
  0
VERTEX
  5
19A38
  8
AM_0
 10
652.59553875910922
 20
162.87269577505111
 30
0.0
 70
    32
  0
VERTEX
  5
19A39
  8
AM_0
 10
652.59753875910951
 20
162.8766957750511
 30
0.0
 70
    32
  0
VERTEX
  5
19A3A
  8
AM_0
 10
652.59963875910898
 20
162.88069577505081
 30
0.0
 70
    32
  0
VERTEX
  5
19A3B
  8
AM_0
 10
652.60173875910925
 20
162.884695775051
 30
0.0
 70
    32
  0
VERTEX
  5
19A3C
  8
AM_0
 10
652.60373875910932
 20
162.88869577505079
 30
0.0
 70
    32
  0
VERTEX
  5
19A3D
  8
AM_0
 10
652.60583875910925
 20
162.89169577505089
 30
0.0
 70
    32
  0
VERTEX
  5
19A3E
  8
AM_0
 10
652.60783875910897
 20
162.895695775051
 30
0.0
 70
    32
  0
VERTEX
  5
19A3F
  8
AM_0
 10
652.60983875910915
 20
162.89969577505059
 30
0.0
 70
    32
  0
VERTEX
  5
19A40
  8
AM_0
 10
652.61183875910911
 20
162.90369577505109
 30
0.0
 70
    32
  0
VERTEX
  5
19A41
  8
AM_0
 10
652.61383875910917
 20
162.90769577505091
 30
0.0
 70
    32
  0
VERTEX
  5
19A42
  8
AM_0
 10
652.61583875910912
 20
162.91169577505079
 30
0.0
 70
    32
  0
VERTEX
  5
19A43
  8
AM_0
 10
652.6178387591093
 20
162.91569577505081
 30
0.0
 70
    32
  0
VERTEX
  5
19A44
  8
AM_0
 10
652.61983875910914
 20
162.91869577505091
 30
0.0
 70
    32
  0
VERTEX
  5
19A45
  8
AM_0
 10
652.62183875910932
 20
162.9226957750509
 30
0.0
 70
    32
  0
VERTEX
  5
19A46
  8
AM_0
 10
652.62383875910916
 20
162.926695775051
 30
0.0
 70
    32
  0
VERTEX
  5
19A47
  8
AM_0
 10
652.62583875910923
 20
162.93069577505079
 30
0.0
 70
    32
  0
VERTEX
  5
19A48
  8
AM_0
 10
652.62773875910932
 20
162.93469577505081
 30
0.0
 70
    32
  0
VERTEX
  5
19A49
  8
AM_0
 10
652.62973875910927
 20
162.93869577505089
 30
0.0
 70
    32
  0
VERTEX
  5
19A4A
  8
AM_0
 10
652.63163875910925
 20
162.94269577505099
 30
0.0
 70
    32
  0
VERTEX
  5
19A4B
  8
AM_0
 10
652.63363875910932
 20
162.94669577505101
 30
0.0
 70
    32
  0
VERTEX
  5
19A4C
  8
AM_0
 10
652.63553875910929
 20
162.95069577505109
 30
0.0
 70
    32
  0
VERTEX
  5
19A4D
  8
AM_0
 10
652.63743875910905
 20
162.95369577505099
 30
0.0
 70
    32
  0
VERTEX
  5
19A4E
  8
AM_0
 10
652.63943875910923
 20
162.95769577505061
 30
0.0
 70
    32
  0
VERTEX
  5
19A4F
  8
AM_0
 10
652.64133875910932
 20
162.961695775051
 30
0.0
 70
    32
  0
VERTEX
  5
19A50
  8
AM_0
 10
652.64323875910929
 20
162.96569577505079
 30
0.0
 70
    32
  0
VERTEX
  5
19A51
  8
AM_0
 10
652.64513875910939
 20
162.96969577505089
 30
0.0
 70
    32
  0
VERTEX
  5
19A52
  8
AM_0
 10
652.64703875910914
 20
162.973695775051
 30
0.0
 70
    32
  0
VERTEX
  5
19A53
  8
AM_0
 10
652.64893875910934
 20
162.97769577505071
 30
0.0
 70
    32
  0
VERTEX
  5
19A54
  8
AM_0
 10
652.65073875910923
 20
162.98169577505081
 30
0.0
 70
    32
  0
VERTEX
  5
19A55
  8
AM_0
 10
652.65263875910932
 20
162.98569577505069
 30
0.0
 70
    32
  0
VERTEX
  5
19A56
  8
AM_0
 10
652.65453875910907
 20
162.9896957750509
 30
0.0
 70
    32
  0
VERTEX
  5
19A57
  8
AM_0
 10
652.65633875910919
 20
162.99369577505081
 30
0.0
 70
    32
  0
VERTEX
  5
19A58
  8
AM_0
 10
652.65823875910917
 20
162.99669577505091
 30
0.0
 70
    32
  0
VERTEX
  5
19A59
  8
AM_0
 10
652.6600387591094
 20
163.0006957750509
 30
0.0
 70
    32
  0
VERTEX
  5
19A5A
  8
AM_0
 10
652.66193875910915
 20
163.00469577505089
 30
0.0
 70
    32
  0
VERTEX
  5
19A5B
  8
AM_0
 10
652.66373875910915
 20
163.00869577505071
 30
0.0
 70
    32
  0
VERTEX
  5
19A5C
  8
AM_0
 10
652.6655387591095
 20
163.01269577505079
 30
0.0
 70
    32
  0
VERTEX
  5
19A5D
  8
AM_0
 10
652.66743875910947
 20
163.01669577505089
 30
0.0
 70
    32
  0
VERTEX
  5
19A5E
  8
AM_0
 10
652.66923875910936
 20
163.0206957750506
 30
0.0
 70
    32
  0
VERTEX
  5
19A5F
  8
AM_0
 10
652.67103875910925
 20
163.02469577505059
 30
0.0
 70
    32
  0
VERTEX
  5
19A60
  8
AM_0
 10
652.67283875910925
 20
163.02869577505101
 30
0.0
 70
    32
  0
VERTEX
  5
19A61
  8
AM_0
 10
652.67463875910914
 20
163.0326957750508
 30
0.0
 70
    32
  0
VERTEX
  5
19A62
  8
AM_0
 10
652.67643875910915
 20
163.0366957750509
 30
0.0
 70
    32
  0
VERTEX
  5
19A63
  8
AM_0
 10
652.67813875910929
 20
163.04069577505061
 30
0.0
 70
    32
  0
VERTEX
  5
19A64
  8
AM_0
 10
652.67993875910952
 20
163.04469577505071
 30
0.0
 70
    32
  0
VERTEX
  5
19A65
  8
AM_0
 10
652.68173875910918
 20
163.04869577505099
 30
0.0
 70
    32
  0
VERTEX
  5
19A66
  8
AM_0
 10
652.68353875910918
 20
163.05269577505081
 30
0.0
 70
    32
  0
VERTEX
  5
19A67
  8
AM_0
 10
652.68523875910932
 20
163.05669577505091
 30
0.0
 70
    32
  0
VERTEX
  5
19A68
  8
AM_0
 10
652.68703875910933
 20
163.06069577505059
 30
0.0
 70
    32
  0
VERTEX
  5
19A69
  8
AM_0
 10
652.68873875910924
 20
163.06469577505121
 30
0.0
 70
    32
  0
VERTEX
  5
19A6A
  8
AM_0
 10
652.69043875910916
 20
163.06869577505091
 30
0.0
 70
    32
  0
VERTEX
  5
19A6B
  8
AM_0
 10
652.69223875910916
 20
163.0726957750507
 30
0.0
 70
    32
  0
VERTEX
  5
19A6C
  8
AM_0
 10
652.6939387591093
 20
163.07669577505089
 30
0.0
 70
    32
  0
VERTEX
  5
19A6D
  8
AM_0
 10
652.69563875910899
 20
163.0806957750508
 30
0.0
 70
    32
  0
VERTEX
  5
19A6E
  8
AM_0
 10
652.69733875910924
 20
163.0846957750511
 30
0.0
 70
    32
  0
VERTEX
  5
19A6F
  8
AM_0
 10
652.69903875910927
 20
163.08869577505081
 30
0.0
 70
    32
  0
VERTEX
  5
19A70
  8
AM_0
 10
652.70073875910919
 20
163.09269577505069
 30
0.0
 70
    32
  0
VERTEX
  5
19A71
  8
AM_0
 10
652.70243875910933
 20
163.0966957750509
 30
0.0
 70
    32
  0
VERTEX
  5
19A72
  8
AM_0
 10
652.70413875910913
 20
163.10069577505081
 30
0.0
 70
    32
  0
VERTEX
  5
19A73
  8
AM_0
 10
652.70583875910916
 20
163.10469577505111
 30
0.0
 70
    32
  0
VERTEX
  5
19A74
  8
AM_0
 10
652.7075387591093
 20
163.10869577505059
 30
0.0
 70
    32
  0
VERTEX
  5
19A75
  8
AM_0
 10
652.70923875910921
 20
163.1126957750509
 30
0.0
 70
    32
  0
VERTEX
  5
19A76
  8
AM_0
 10
652.71083875910892
 20
163.116695775051
 30
0.0
 70
    32
  0
VERTEX
  5
19A77
  8
AM_0
 10
652.71253875910929
 20
163.12069577505059
 30
0.0
 70
    32
  0
VERTEX
  5
19A78
  8
AM_0
 10
652.71413875910923
 20
163.12469577505109
 30
0.0
 70
    32
  0
VERTEX
  5
19A79
  8
AM_0
 10
652.71583875910892
 20
163.12869577505089
 30
0.0
 70
    32
  0
VERTEX
  5
19A7A
  8
AM_0
 10
652.71743875910931
 20
163.13269577505079
 30
0.0
 70
    32
  0
VERTEX
  5
19A7B
  8
AM_0
 10
652.71913875910923
 20
163.13669577505101
 30
0.0
 70
    32
  0
VERTEX
  5
19A7C
  8
AM_0
 10
652.72073875910894
 20
163.1406957750506
 30
0.0
 70
    32
  0
VERTEX
  5
19A7D
  8
AM_0
 10
652.72233875910922
 20
163.1446957750511
 30
0.0
 70
    32
  0
VERTEX
  5
19A7E
  8
AM_0
 10
652.72393875910893
 20
163.1486957750509
 30
0.0
 70
    32
  0
VERTEX
  5
19A7F
  8
AM_0
 10
652.72563875910919
 20
163.1526957750508
 30
0.0
 70
    32
  0
VERTEX
  5
19A80
  8
AM_0
 10
652.72723875910924
 20
163.15669577505079
 30
0.0
 70
    32
  0
VERTEX
  5
19A81
  8
AM_0
 10
652.72883875910907
 20
163.16069577505061
 30
0.0
 70
    32
  0
VERTEX
  5
19A82
  8
AM_0
 10
652.73043875910912
 20
163.16469577505109
 30
0.0
 70
    32
  0
VERTEX
  5
19A83
  8
AM_0
 10
652.7319387591092
 20
163.16869577505091
 30
0.0
 70
    32
  0
VERTEX
  5
19A84
  8
AM_0
 10
652.73353875910936
 20
163.17269577505081
 30
0.0
 70
    32
  0
VERTEX
  5
19A85
  8
AM_0
 10
652.73513875910908
 20
163.1766957750508
 30
0.0
 70
    32
  0
VERTEX
  5
19A86
  8
AM_0
 10
652.73673875910924
 20
163.18069577505111
 30
0.0
 70
    32
  0
VERTEX
  5
19A87
  8
AM_0
 10
652.73823875910909
 20
163.18469577505061
 30
0.0
 70
    32
  0
VERTEX
  5
19A88
  8
AM_0
 10
652.73983875910915
 20
163.1886957750508
 30
0.0
 70
    32
  0
VERTEX
  5
19A89
  8
AM_0
 10
652.74143875910909
 20
163.1936957750508
 30
0.0
 70
    32
  0
VERTEX
  5
19A8A
  8
AM_0
 10
652.74293875910939
 20
163.19769577505059
 30
0.0
 70
    32
  0
VERTEX
  5
19A8B
  8
AM_0
 10
652.74443875910924
 20
163.20169577505081
 30
0.0
 70
    32
  0
VERTEX
  5
19A8C
  8
AM_0
 10
652.7460387591093
 20
163.20569577505091
 30
0.0
 70
    32
  0
VERTEX
  5
19A8D
  8
AM_0
 10
652.74753875910937
 20
163.20969577505099
 30
0.0
 70
    32
  0
VERTEX
  5
19A8E
  8
AM_0
 10
652.74903875910923
 20
163.21369577505081
 30
0.0
 70
    32
  0
VERTEX
  5
19A8F
  8
AM_0
 10
652.75063875910951
 20
163.2176957750506
 30
0.0
 70
    32
  0
VERTEX
  5
19A90
  8
AM_0
 10
652.75213875910924
 20
163.2216957750507
 30
0.0
 70
    32
  0
VERTEX
  5
19A91
  8
AM_0
 10
652.75363875910909
 20
163.22569577505061
 30
0.0
 70
    32
  0
VERTEX
  5
19A92
  8
AM_0
 10
652.7551387591094
 20
163.229695775051
 30
0.0
 70
    32
  0
VERTEX
  5
19A93
  8
AM_0
 10
652.75663875910925
 20
163.23369577505079
 30
0.0
 70
    32
  0
VERTEX
  5
19A94
  8
AM_0
 10
652.75813875910899
 20
163.2376957750509
 30
0.0
 70
    32
  0
VERTEX
  5
19A95
  8
AM_0
 10
652.75963875910952
 20
163.24169577505111
 30
0.0
 70
    32
  0
VERTEX
  5
19A96
  8
AM_0
 10
652.76103875910906
 20
163.24569577505059
 30
0.0
 70
    32
  0
VERTEX
  5
19A97
  8
AM_0
 10
652.76253875910925
 20
163.25069577505101
 30
0.0
 70
    32
  0
VERTEX
  5
19A98
  8
AM_0
 10
652.76403875910933
 20
163.25469577505081
 30
0.0
 70
    32
  0
VERTEX
  5
19A99
  8
AM_0
 10
652.76553875910918
 20
163.25869577505111
 30
0.0
 70
    32
  0
VERTEX
  5
19A9A
  8
AM_0
 10
652.76693875910951
 20
163.2626957750509
 30
0.0
 70
    32
  0
VERTEX
  5
19A9B
  8
AM_0
 10
652.76843875910924
 20
163.26669577505089
 30
0.0
 70
    32
  0
VERTEX
  5
19A9C
  8
AM_0
 10
652.76983875910912
 20
163.2706957750508
 30
0.0
 70
    32
  0
VERTEX
  5
19A9D
  8
AM_0
 10
652.7713387591092
 20
163.27469577505099
 30
0.0
 70
    32
  0
VERTEX
  5
19A9E
  8
AM_0
 10
652.7727387591093
 20
163.27869577505109
 30
0.0
 70
    32
  0
VERTEX
  5
19A9F
  8
AM_0
 10
652.77413875910952
 20
163.28269577505091
 30
0.0
 70
    32
  0
VERTEX
  5
19AA0
  8
AM_0
 10
652.77553875910939
 20
163.2866957750507
 30
0.0
 70
    32
  0
VERTEX
  5
19AA1
  8
AM_0
 10
652.77703875910925
 20
163.29169577505061
 30
0.0
 70
    32
  0
VERTEX
  5
19AA2
  8
AM_0
 10
652.77843875910924
 20
163.2956957750506
 30
0.0
 70
    32
  0
VERTEX
  5
19AA3
  8
AM_0
 10
652.77983875910923
 20
163.29969577505079
 30
0.0
 70
    32
  0
VERTEX
  5
19AA4
  8
AM_0
 10
652.78123875910921
 20
163.3036957750507
 30
0.0
 70
    32
  0
VERTEX
  5
19AA5
  8
AM_0
 10
652.78263875910898
 20
163.307695775051
 30
0.0
 70
    32
  0
VERTEX
  5
19AA6
  8
AM_0
 10
652.78403875910919
 20
163.31169577505079
 30
0.0
 70
    32
  0
VERTEX
  5
19AA7
  8
AM_0
 10
652.7854387591093
 20
163.31569577505081
 30
0.0
 70
    32
  0
VERTEX
  5
19AA8
  8
AM_0
 10
652.78683875910929
 20
163.31969577505089
 30
0.0
 70
    32
  0
VERTEX
  5
19AA9
  8
AM_0
 10
652.7881387591093
 20
163.32369577505071
 30
0.0
 70
    32
  0
VERTEX
  5
19AAA
  8
AM_0
 10
652.78953875910929
 20
163.32869577505059
 30
0.0
 70
    32
  0
VERTEX
  5
19AAB
  8
AM_0
 10
652.79093875910905
 20
163.33269577505081
 30
0.0
 70
    32
  0
VERTEX
  5
19AAC
  8
AM_0
 10
652.79223875910918
 20
163.336695775051
 30
0.0
 70
    32
  0
VERTEX
  5
19AAD
  8
AM_0
 10
652.79363875910917
 20
163.3406957750509
 30
0.0
 70
    32
  0
VERTEX
  5
19AAE
  8
AM_0
 10
652.7949387591093
 20
163.34469577505089
 30
0.0
 70
    32
  0
VERTEX
  5
19AAF
  8
AM_0
 10
652.79633875910929
 20
163.34869577505069
 30
0.0
 70
    32
  0
VERTEX
  5
19AB0
  8
AM_0
 10
652.7976387591093
 20
163.35269577505079
 30
0.0
 70
    32
  0
VERTEX
  5
19AB1
  8
AM_0
 10
652.79893875910932
 20
163.35769577505101
 30
0.0
 70
    32
  0
VERTEX
  5
19AB2
  8
AM_0
 10
652.80033875910931
 20
163.36169577505089
 30
0.0
 70
    32
  0
VERTEX
  5
19AB3
  8
AM_0
 10
652.80163875910932
 20
163.36569577505111
 30
0.0
 70
    32
  0
VERTEX
  5
19AB4
  8
AM_0
 10
652.80293875910934
 20
163.3696957750509
 30
0.0
 70
    32
  0
VERTEX
  5
19AB5
  8
AM_0
 10
652.80423875910924
 20
163.37369577505081
 30
0.0
 70
    32
  0
VERTEX
  5
19AB6
  8
AM_0
 10
652.80553875910914
 20
163.3776957750508
 30
0.0
 70
    32
  0
VERTEX
  5
19AB7
  8
AM_0
 10
652.80683875910916
 20
163.38169577505059
 30
0.0
 70
    32
  0
VERTEX
  5
19AB8
  8
AM_0
 10
652.80813875910917
 20
163.38669577505061
 30
0.0
 70
    32
  0
VERTEX
  5
19AB9
  8
AM_0
 10
652.80943875910907
 20
163.39069577505069
 30
0.0
 70
    32
  0
VERTEX
  5
19ABA
  8
AM_0
 10
652.81073875910909
 20
163.39469577505091
 30
0.0
 70
    32
  0
VERTEX
  5
19ABB
  8
AM_0
 10
652.81203875910921
 20
163.39869577505061
 30
0.0
 70
    32
  0
VERTEX
  5
19ABC
  8
AM_0
 10
652.81333875910923
 20
163.4026957750508
 30
0.0
 70
    32
  0
VERTEX
  5
19ABD
  8
AM_0
 10
652.81453875910915
 20
163.40669577505071
 30
0.0
 70
    32
  0
VERTEX
  5
19ABE
  8
AM_0
 10
652.81583875910917
 20
163.41069577505061
 30
0.0
 70
    32
  0
VERTEX
  5
19ABF
  8
AM_0
 10
652.81713875910918
 20
163.41569577505061
 30
0.0
 70
    32
  0
VERTEX
  5
19AC0
  8
AM_0
 10
652.81833875910934
 20
163.4196957750508
 30
0.0
 70
    32
  0
VERTEX
  5
19AC1
  8
AM_0
 10
652.81963875910924
 20
163.42369577505099
 30
0.0
 70
    32
  0
VERTEX
  5
19AC2
  8
AM_0
 10
652.82083875910917
 20
163.42769577505089
 30
0.0
 70
    32
  0
VERTEX
  5
19AC3
  8
AM_0
 10
652.82213875910918
 20
163.43169577505071
 30
0.0
 70
    32
  0
VERTEX
  5
19AC4
  8
AM_0
 10
652.82333875910922
 20
163.43569577505099
 30
0.0
 70
    32
  0
VERTEX
  5
19AC5
  8
AM_0
 10
652.82453875910949
 20
163.44069577505061
 30
0.0
 70
    32
  0
VERTEX
  5
19AC6
  8
AM_0
 10
652.8258387591095
 20
163.444695775051
 30
0.0
 70
    32
  0
VERTEX
  5
19AC7
  8
AM_0
 10
652.82703875910886
 20
163.44869577505091
 30
0.0
 70
    32
  0
VERTEX
  5
19AC8
  8
AM_0
 10
652.82823875910924
 20
163.4526957750507
 30
0.0
 70
    32
  0
VERTEX
  5
19AC9
  8
AM_0
 10
652.82943875910939
 20
163.45669577505089
 30
0.0
 70
    32
  0
VERTEX
  5
19ACA
  8
AM_0
 10
652.83063875910909
 20
163.46069577505079
 30
0.0
 70
    32
  0
VERTEX
  5
19ACB
  8
AM_0
 10
652.83183875910925
 20
163.46569577505099
 30
0.0
 70
    32
  0
VERTEX
  5
19ACC
  8
AM_0
 10
652.83303875910917
 20
163.46969577505081
 30
0.0
 70
    32
  0
VERTEX
  5
19ACD
  8
AM_0
 10
652.83423875910898
 20
163.47369577505069
 30
0.0
 70
    32
  0
VERTEX
  5
19ACE
  8
AM_0
 10
652.83543875910925
 20
163.4776957750509
 30
0.0
 70
    32
  0
VERTEX
  5
19ACF
  8
AM_0
 10
652.83663875910952
 20
163.48169577505081
 30
0.0
 70
    32
  0
VERTEX
  5
19AD0
  8
AM_0
 10
652.83783875910922
 20
163.48669577505069
 30
0.0
 70
    32
  0
VERTEX
  5
19AD1
  8
AM_0
 10
652.8389387591094
 20
163.49069577505099
 30
0.0
 70
    32
  0
VERTEX
  5
19AD2
  8
AM_0
 10
652.84013875910932
 20
163.49469577505079
 30
0.0
 70
    32
  0
VERTEX
  5
19AD3
  8
AM_0
 10
652.84133875910925
 20
163.49869577505089
 30
0.0
 70
    32
  0
VERTEX
  5
19AD4
  8
AM_0
 10
652.84243875910931
 20
163.502695775051
 30
0.0
 70
    32
  0
VERTEX
  5
19AD5
  8
AM_0
 10
652.84363875910924
 20
163.5066957750507
 30
0.0
 70
    32
  0
VERTEX
  5
19AD6
  8
AM_0
 10
652.8447387591093
 20
163.51169577505081
 30
0.0
 70
    32
  0
VERTEX
  5
19AD7
  8
AM_0
 10
652.845938759109
 20
163.5156957750506
 30
0.0
 70
    32
  0
VERTEX
  5
19AD8
  8
AM_0
 10
652.84703875910918
 20
163.51969577505091
 30
0.0
 70
    32
  0
VERTEX
  5
19AD9
  8
AM_0
 10
652.84823875910922
 20
163.5236957750507
 30
0.0
 70
    32
  0
VERTEX
  5
19ADA
  8
AM_0
 10
652.84933875910917
 20
163.5276957750508
 30
0.0
 70
    32
  0
VERTEX
  5
19ADB
  8
AM_0
 10
652.85043875910924
 20
163.53269577505071
 30
0.0
 70
    32
  0
VERTEX
  5
19ADC
  8
AM_0
 10
652.8515387591093
 20
163.53669577505079
 30
0.0
 70
    32
  0
VERTEX
  5
19ADD
  8
AM_0
 10
652.85273875910923
 20
163.54069577505081
 30
0.0
 70
    32
  0
VERTEX
  5
19ADE
  8
AM_0
 10
652.85383875910952
 20
163.54469577505091
 30
0.0
 70
    32
  0
VERTEX
  5
19ADF
  8
AM_0
 10
652.85493875910913
 20
163.54869577505099
 30
0.0
 70
    32
  0
VERTEX
  5
19AE0
  8
AM_0
 10
652.85603875910931
 20
163.5536957750507
 30
0.0
 70
    32
  0
VERTEX
  5
19AE1
  8
AM_0
 10
652.85713875910915
 20
163.557695775051
 30
0.0
 70
    32
  0
VERTEX
  5
19AE2
  8
AM_0
 10
652.85823875910944
 20
163.56169577505079
 30
0.0
 70
    32
  0
VERTEX
  5
19AE3
  8
AM_0
 10
652.85933875910928
 20
163.5656957750509
 30
0.0
 70
    32
  0
VERTEX
  5
19AE4
  8
AM_0
 10
652.86033875910914
 20
163.57069577505089
 30
0.0
 70
    32
  0
VERTEX
  5
19AE5
  8
AM_0
 10
652.86143875910898
 20
163.57469577505071
 30
0.0
 70
    32
  0
VERTEX
  5
19AE6
  8
AM_0
 10
652.86253875910916
 20
163.57869577505079
 30
0.0
 70
    32
  0
VERTEX
  5
19AE7
  8
AM_0
 10
652.86363875910922
 20
163.58269577505089
 30
0.0
 70
    32
  0
VERTEX
  5
19AE8
  8
AM_0
 10
652.86463875910954
 20
163.58669577505111
 30
0.0
 70
    32
  0
VERTEX
  5
19AE9
  8
AM_0
 10
652.86573875910915
 20
163.59169577505071
 30
0.0
 70
    32
  0
VERTEX
  5
19AEA
  8
AM_0
 10
652.86673875910924
 20
163.59569577505101
 30
0.0
 70
    32
  0
VERTEX
  5
19AEB
  8
AM_0
 10
652.86783875910919
 20
163.5996957750508
 30
0.0
 70
    32
  0
VERTEX
  5
19AEC
  8
AM_0
 10
652.86883875910905
 20
163.6036957750508
 30
0.0
 70
    32
  0
VERTEX
  5
19AED
  8
AM_0
 10
652.86993875910935
 20
163.6076957750509
 30
0.0
 70
    32
  0
VERTEX
  5
19AEE
  8
AM_0
 10
652.87093875910955
 20
163.6126957750509
 30
0.0
 70
    32
  0
VERTEX
  5
19AEF
  8
AM_0
 10
652.8719387591093
 20
163.61669577505069
 30
0.0
 70
    32
  0
VERTEX
  5
19AF0
  8
AM_0
 10
652.87303875910925
 20
163.62069577505079
 30
0.0
 70
    32
  0
VERTEX
  5
19AF1
  8
AM_0
 10
652.87403875910923
 20
163.62469577505101
 30
0.0
 70
    32
  0
VERTEX
  5
19AF2
  8
AM_0
 10
652.87503875910932
 20
163.629695775051
 30
0.0
 70
    32
  0
VERTEX
  5
19AF3
  8
AM_0
 10
652.87603875910918
 20
163.63369577505111
 30
0.0
 70
    32
  0
VERTEX
  5
19AF4
  8
AM_0
 10
652.87703875910893
 20
163.63769577505059
 30
0.0
 70
    32
  0
VERTEX
  5
19AF5
  8
AM_0
 10
652.87803875910924
 20
163.64169577505089
 30
0.0
 70
    32
  0
VERTEX
  5
19AF6
  8
AM_0
 10
652.87903875910922
 20
163.6456957750508
 30
0.0
 70
    32
  0
VERTEX
  5
19AF7
  8
AM_0
 10
652.8800387591092
 20
163.65069577505079
 30
0.0
 70
    32
  0
VERTEX
  5
19AF8
  8
AM_0
 10
652.88103875910929
 20
163.65469577505061
 30
0.0
 70
    32
  0
VERTEX
  5
19AF9
  8
AM_0
 10
652.88203875910926
 20
163.65869577505089
 30
0.0
 70
    32
  0
VERTEX
  5
19AFA
  8
AM_0
 10
652.88293875910938
 20
163.66269577505111
 30
0.0
 70
    32
  0
VERTEX
  5
19AFB
  8
AM_0
 10
652.88393875910924
 20
163.6676957750509
 30
0.0
 70
    32
  0
VERTEX
  5
19AFC
  8
AM_0
 10
652.88493875910922
 20
163.67169577505101
 30
0.0
 70
    32
  0
VERTEX
  5
19AFD
  8
AM_0
 10
652.88583875910922
 20
163.675695775051
 30
0.0
 70
    32
  0
VERTEX
  5
19AFE
  8
AM_0
 10
652.88683875910897
 20
163.67969577505059
 30
0.0
 70
    32
  0
VERTEX
  5
19AFF
  8
AM_0
 10
652.88783875910883
 20
163.68469577505081
 30
0.0
 70
    32
  0
VERTEX
  5
19B00
  8
AM_0
 10
652.88873875910895
 20
163.68869577505089
 30
0.0
 70
    32
  0
VERTEX
  5
19B01
  8
AM_0
 10
652.88973875910938
 20
163.69269577505099
 30
0.0
 70
    32
  0
VERTEX
  5
19B02
  8
AM_0
 10
652.89063875910915
 20
163.6966957750507
 30
0.0
 70
    32
  0
VERTEX
  5
19B03
  8
AM_0
 10
652.89153875910927
 20
163.70169577505061
 30
0.0
 70
    32
  0
VERTEX
  5
19B04
  8
AM_0
 10
652.89253875910924
 20
163.70569577505091
 30
0.0
 70
    32
  0
VERTEX
  5
19B05
  8
AM_0
 10
652.89343875910924
 20
163.7096957750511
 30
0.0
 70
    32
  0
VERTEX
  5
19B06
  8
AM_0
 10
652.89433875910925
 20
163.71369577505061
 30
0.0
 70
    32
  0
VERTEX
  5
19B07
  8
AM_0
 10
652.89523875910925
 20
163.71869577505089
 30
0.0
 70
    32
  0
VERTEX
  5
19B08
  8
AM_0
 10
652.89613875910914
 20
163.72269577505099
 30
0.0
 70
    32
  0
VERTEX
  5
19B09
  8
AM_0
 10
652.89703875910925
 20
163.72669577505059
 30
0.0
 70
    32
  0
VERTEX
  5
19B0A
  8
AM_0
 10
652.89793875910925
 20
163.73069577505069
 30
0.0
 70
    32
  0
VERTEX
  5
19B0B
  8
AM_0
 10
652.89883875910925
 20
163.7356957750508
 30
0.0
 70
    32
  0
VERTEX
  5
19B0C
  8
AM_0
 10
652.89973875910925
 20
163.7396957750509
 30
0.0
 70
    32
  0
VERTEX
  5
19B0D
  8
AM_0
 10
652.90063875910914
 20
163.7436957750509
 30
0.0
 70
    32
  0
VERTEX
  5
19B0E
  8
AM_0
 10
652.90153875910914
 20
163.74769577505111
 30
0.0
 70
    32
  0
VERTEX
  5
19B0F
  8
AM_0
 10
652.90243875910926
 20
163.7526957750508
 30
0.0
 70
    32
  0
VERTEX
  5
19B10
  8
AM_0
 10
652.90333875910915
 20
163.75669577505059
 30
0.0
 70
    32
  0
VERTEX
  5
19B11
  8
AM_0
 10
652.90413875910963
 20
163.76069577505109
 30
0.0
 70
    32
  0
VERTEX
  5
19B12
  8
AM_0
 10
652.90503875910952
 20
163.76469577505071
 30
0.0
 70
    32
  0
VERTEX
  5
19B13
  8
AM_0
 10
652.90593875910918
 20
163.76969577505099
 30
0.0
 70
    32
  0
VERTEX
  5
19B14
  8
AM_0
 10
652.90673875910898
 20
163.77369577505101
 30
0.0
 70
    32
  0
VERTEX
  5
19B15
  8
AM_0
 10
652.90763875910886
 20
163.7776957750508
 30
0.0
 70
    32
  0
VERTEX
  5
19B16
  8
AM_0
 10
652.90843875910923
 20
163.78169577505071
 30
0.0
 70
    32
  0
VERTEX
  5
19B17
  8
AM_0
 10
652.90933875910923
 20
163.7866957750509
 30
0.0
 70
    32
  0
VERTEX
  5
19B18
  8
AM_0
 10
652.91013875910915
 20
163.79069577505061
 30
0.0
 70
    32
  0
VERTEX
  5
19B19
  8
AM_0
 10
652.91103875910915
 20
163.7946957750506
 30
0.0
 70
    32
  0
VERTEX
  5
19B1A
  8
AM_0
 10
652.91183875910917
 20
163.79869577505099
 30
0.0
 70
    32
  0
VERTEX
  5
19B1B
  8
AM_0
 10
652.91263875910931
 20
163.80369577505061
 30
0.0
 70
    32
  0
VERTEX
  5
19B1C
  8
AM_0
 10
652.91343875910911
 20
163.80769577505109
 30
0.0
 70
    32
  0
VERTEX
  5
19B1D
  8
AM_0
 10
652.91433875910923
 20
163.81169577505071
 30
0.0
 70
    32
  0
VERTEX
  5
19B1E
  8
AM_0
 10
652.91513875910937
 20
163.81669577505099
 30
0.0
 70
    32
  0
VERTEX
  5
19B1F
  8
AM_0
 10
652.91593875910928
 20
163.82069577505081
 30
0.0
 70
    32
  0
VERTEX
  5
19B20
  8
AM_0
 10
652.91673875910931
 20
163.8246957750508
 30
0.0
 70
    32
  0
VERTEX
  5
19B21
  8
AM_0
 10
652.91753875910922
 20
163.8286957750509
 30
0.0
 70
    32
  0
VERTEX
  5
19B22
  8
AM_0
 10
652.91833875910936
 20
163.8336957750509
 30
0.0
 70
    32
  0
VERTEX
  5
19B23
  8
AM_0
 10
652.91913875910939
 20
163.83769577505069
 30
0.0
 70
    32
  0
VERTEX
  5
19B24
  8
AM_0
 10
652.91993875910919
 20
163.84169577505079
 30
0.0
 70
    32
  0
VERTEX
  5
19B25
  8
AM_0
 10
652.92073875910921
 20
163.84569577505101
 30
0.0
 70
    32
  0
VERTEX
  5
19B26
  8
AM_0
 10
652.92153875910913
 20
163.85069577505081
 30
0.0
 70
    32
  0
VERTEX
  5
19B27
  8
AM_0
 10
652.92223875910929
 20
163.85469577505111
 30
0.0
 70
    32
  0
VERTEX
  5
19B28
  8
AM_0
 10
652.92303875910898
 20
163.8586957750509
 30
0.0
 70
    32
  0
VERTEX
  5
19B29
  8
AM_0
 10
652.92383875910912
 20
163.8636957750511
 30
0.0
 70
    32
  0
VERTEX
  5
19B2A
  8
AM_0
 10
652.92463875910926
 20
163.86769577505069
 30
0.0
 70
    32
  0
VERTEX
  5
19B2B
  8
AM_0
 10
652.92533875910931
 20
163.8716957750508
 30
0.0
 70
    32
  0
VERTEX
  5
19B2C
  8
AM_0
 10
652.92613875910934
 20
163.87569577505101
 30
0.0
 70
    32
  0
VERTEX
  5
19B2D
  8
AM_0
 10
652.92683875910939
 20
163.8806957750509
 30
0.0
 70
    32
  0
VERTEX
  5
19B2E
  8
AM_0
 10
652.92763875910907
 20
163.88469577505111
 30
0.0
 70
    32
  0
VERTEX
  5
19B2F
  8
AM_0
 10
652.92833875910924
 20
163.88869577505091
 30
0.0
 70
    32
  0
VERTEX
  5
19B30
  8
AM_0
 10
652.92913875910938
 20
163.8936957750509
 30
0.0
 70
    32
  0
VERTEX
  5
19B31
  8
AM_0
 10
652.92983875910932
 20
163.89769577505081
 30
0.0
 70
    32
  0
VERTEX
  5
19B32
  8
AM_0
 10
652.93053875910925
 20
163.9016957750508
 30
0.0
 70
    32
  0
VERTEX
  5
19B33
  8
AM_0
 10
652.93133875910939
 20
163.9056957750509
 30
0.0
 70
    32
  0
VERTEX
  5
19B34
  8
AM_0
 10
652.9320387591091
 20
163.9106957750509
 30
0.0
 70
    32
  0
VERTEX
  5
19B35
  8
AM_0
 10
652.93273875910916
 20
163.91469577505069
 30
0.0
 70
    32
  0
VERTEX
  5
19B36
  8
AM_0
 10
652.93343875910921
 20
163.91869577505079
 30
0.0
 70
    32
  0
VERTEX
  5
19B37
  8
AM_0
 10
652.93423875910935
 20
163.9236957750509
 30
0.0
 70
    32
  0
VERTEX
  5
19B38
  8
AM_0
 10
652.9349387591094
 20
163.92769577505081
 30
0.0
 70
    32
  0
VERTEX
  5
19B39
  8
AM_0
 10
652.93563875910922
 20
163.9316957750508
 30
0.0
 70
    32
  0
VERTEX
  5
19B3A
  8
AM_0
 10
652.93633875910916
 20
163.93569577505059
 30
0.0
 70
    32
  0
VERTEX
  5
19B3B
  8
AM_0
 10
652.93703875910921
 20
163.9406957750507
 30
0.0
 70
    32
  0
VERTEX
  5
19B3C
  8
AM_0
 10
652.93773875910915
 20
163.94469577505069
 30
0.0
 70
    32
  0
VERTEX
  5
19B3D
  8
AM_0
 10
652.93843875910909
 20
163.94869577505079
 30
0.0
 70
    32
  0
VERTEX
  5
19B3E
  8
AM_0
 10
652.93903875910917
 20
163.95369577505099
 30
0.0
 70
    32
  0
VERTEX
  5
19B3F
  8
AM_0
 10
652.93973875910922
 20
163.95769577505061
 30
0.0
 70
    32
  0
VERTEX
  5
19B40
  8
AM_0
 10
652.94043875910916
 20
163.96169577505111
 30
0.0
 70
    32
  0
VERTEX
  5
19B41
  8
AM_0
 10
652.94113875910932
 20
163.9656957750509
 30
0.0
 70
    32
  0
VERTEX
  5
19B42
  8
AM_0
 10
652.94183875910892
 20
163.9706957750511
 30
0.0
 70
    32
  0
VERTEX
  5
19B43
  8
AM_0
 10
652.94243875910922
 20
163.974695775051
 30
0.0
 70
    32
  0
VERTEX
  5
19B44
  8
AM_0
 10
652.94313875910905
 20
163.9786957750508
 30
0.0
 70
    32
  0
VERTEX
  5
19B45
  8
AM_0
 10
652.94373875910935
 20
163.98369577505099
 30
0.0
 70
    32
  0
VERTEX
  5
19B46
  8
AM_0
 10
652.94443875910929
 20
163.9876957750509
 30
0.0
 70
    32
  0
VERTEX
  5
19B47
  8
AM_0
 10
652.94513875910923
 20
163.99169577505069
 30
0.0
 70
    32
  0
VERTEX
  5
19B48
  8
AM_0
 10
652.9457387591093
 20
163.9956957750509
 30
0.0
 70
    32
  0
VERTEX
  5
19B49
  8
AM_0
 10
652.94633875910927
 20
164.00069577505079
 30
0.0
 70
    32
  0
VERTEX
  5
19B4A
  8
AM_0
 10
652.94703875910932
 20
164.004695775051
 30
0.0
 70
    32
  0
VERTEX
  5
19B4B
  8
AM_0
 10
652.94763875910905
 20
164.0086957750508
 30
0.0
 70
    32
  0
VERTEX
  5
19B4C
  8
AM_0
 10
652.94833875910922
 20
164.01369577505079
 30
0.0
 70
    32
  0
VERTEX
  5
19B4D
  8
AM_0
 10
652.9489387591093
 20
164.0176957750511
 30
0.0
 70
    32
  0
VERTEX
  5
19B4E
  8
AM_0
 10
652.94953875910937
 20
164.021695775051
 30
0.0
 70
    32
  0
VERTEX
  5
19B4F
  8
AM_0
 10
652.95013875910922
 20
164.02669577505091
 30
0.0
 70
    32
  0
VERTEX
  5
19B50
  8
AM_0
 10
652.9507387591093
 20
164.03069577505079
 30
0.0
 70
    32
  0
VERTEX
  5
19B51
  8
AM_0
 10
652.95143875910912
 20
164.03469577505101
 30
0.0
 70
    32
  0
VERTEX
  5
19B52
  8
AM_0
 10
652.95203875910931
 20
164.0396957750508
 30
0.0
 70
    32
  0
VERTEX
  5
19B53
  8
AM_0
 10
652.95263875910894
 20
164.04369577505091
 30
0.0
 70
    32
  0
VERTEX
  5
19B54
  8
AM_0
 10
652.95323875910924
 20
164.0476957750509
 30
0.0
 70
    32
  0
VERTEX
  5
19B55
  8
AM_0
 10
652.95383875910932
 20
164.051695775051
 30
0.0
 70
    32
  0
VERTEX
  5
19B56
  8
AM_0
 10
652.95443875910928
 20
164.0566957750508
 30
0.0
 70
    32
  0
VERTEX
  5
19B57
  8
AM_0
 10
652.95503875910913
 20
164.06069577505079
 30
0.0
 70
    32
  0
VERTEX
  5
19B58
  8
AM_0
 10
652.95563875910921
 20
164.06469577505109
 30
0.0
 70
    32
  0
VERTEX
  5
19B59
  8
AM_0
 10
652.95613875910931
 20
164.06969577505089
 30
0.0
 70
    32
  0
VERTEX
  5
19B5A
  8
AM_0
 10
652.95673875910916
 20
164.07369577505091
 30
0.0
 70
    32
  0
VERTEX
  5
19B5B
  8
AM_0
 10
652.95733875910923
 20
164.07769577505101
 30
0.0
 70
    32
  0
VERTEX
  5
19B5C
  8
AM_0
 10
652.95793875910931
 20
164.08269577505081
 30
0.0
 70
    32
  0
VERTEX
  5
19B5D
  8
AM_0
 10
652.9584387591093
 20
164.086695775051
 30
0.0
 70
    32
  0
VERTEX
  5
19B5E
  8
AM_0
 10
652.95903875910915
 20
164.09069577505079
 30
0.0
 70
    32
  0
VERTEX
  5
19B5F
  8
AM_0
 10
652.95963875910934
 20
164.09469577505089
 30
0.0
 70
    32
  0
VERTEX
  5
19B60
  8
AM_0
 10
652.96013875910921
 20
164.09969577505089
 30
0.0
 70
    32
  0
VERTEX
  5
19B61
  8
AM_0
 10
652.96073875910906
 20
164.10369577505071
 30
0.0
 70
    32
  0
VERTEX
  5
19B62
  8
AM_0
 10
652.96123875910951
 20
164.10769577505079
 30
0.0
 70
    32
  0
VERTEX
  5
19B63
  8
AM_0
 10
652.96183875910924
 20
164.11269577505081
 30
0.0
 70
    32
  0
VERTEX
  5
19B64
  8
AM_0
 10
652.96233875910934
 20
164.11669577505091
 30
0.0
 70
    32
  0
VERTEX
  5
19B65
  8
AM_0
 10
652.96283875910922
 20
164.12069577505071
 30
0.0
 70
    32
  0
VERTEX
  5
19B66
  8
AM_0
 10
652.96343875910895
 20
164.12569577505059
 30
0.0
 70
    32
  0
VERTEX
  5
19B67
  8
AM_0
 10
652.96393875910951
 20
164.12969577505089
 30
0.0
 70
    32
  0
VERTEX
  5
19B68
  8
AM_0
 10
652.96443875910916
 20
164.133695775051
 30
0.0
 70
    32
  0
VERTEX
  5
19B69
  8
AM_0
 10
652.96503875910935
 20
164.13869577505079
 30
0.0
 70
    32
  0
VERTEX
  5
19B6A
  8
AM_0
 10
652.96553875910934
 20
164.1426957750511
 30
0.0
 70
    32
  0
VERTEX
  5
19B6B
  8
AM_0
 10
652.96603875910932
 20
164.14669577505089
 30
0.0
 70
    32
  0
VERTEX
  5
19B6C
  8
AM_0
 10
652.96653875910931
 20
164.15169577505091
 30
0.0
 70
    32
  0
VERTEX
  5
19B6D
  8
AM_0
 10
652.96703875910907
 20
164.15569577505059
 30
0.0
 70
    32
  0
VERTEX
  5
19B6E
  8
AM_0
 10
652.96753875910917
 20
164.15969577505081
 30
0.0
 70
    32
  0
VERTEX
  5
19B6F
  8
AM_0
 10
652.96803875910939
 20
164.164695775051
 30
0.0
 70
    32
  0
VERTEX
  5
19B70
  8
AM_0
 10
652.96853875910915
 20
164.16869577505099
 30
0.0
 70
    32
  0
VERTEX
  5
19B71
  8
AM_0
 10
652.96903875910925
 20
164.17269577505081
 30
0.0
 70
    32
  0
VERTEX
  5
19B72
  8
AM_0
 10
652.9695387591097
 20
164.17669577505089
 30
0.0
 70
    32
  0
VERTEX
  5
19B73
  8
AM_0
 10
652.97003875910923
 20
164.18169577505071
 30
0.0
 70
    32
  0
VERTEX
  5
19B74
  8
AM_0
 10
652.97043875910936
 20
164.1856957750507
 30
0.0
 70
    32
  0
VERTEX
  5
19B75
  8
AM_0
 10
652.97093875910923
 20
164.18969577505109
 30
0.0
 70
    32
  0
VERTEX
  5
19B76
  8
AM_0
 10
652.97143875910911
 20
164.194695775051
 30
0.0
 70
    32
  0
VERTEX
  5
19B77
  8
AM_0
 10
652.97183875910923
 20
164.1986957750506
 30
0.0
 70
    32
  0
VERTEX
  5
19B78
  8
AM_0
 10
652.97233875910933
 20
164.2026957750511
 30
0.0
 70
    32
  0
VERTEX
  5
19B79
  8
AM_0
 10
652.97283875910921
 20
164.20769577505089
 30
0.0
 70
    32
  0
VERTEX
  5
19B7A
  8
AM_0
 10
652.97323875910922
 20
164.211695775051
 30
0.0
 70
    32
  0
VERTEX
  5
19B7B
  8
AM_0
 10
652.97363875910924
 20
164.21569577505099
 30
0.0
 70
    32
  0
VERTEX
  5
19B7C
  8
AM_0
 10
652.97413875910922
 20
164.22069577505101
 30
0.0
 70
    32
  0
VERTEX
  5
19B7D
  8
AM_0
 10
652.97453875910924
 20
164.224695775051
 30
0.0
 70
    32
  0
VERTEX
  5
19B7E
  8
AM_0
 10
652.97503875910934
 20
164.2286957750506
 30
0.0
 70
    32
  0
VERTEX
  5
19B7F
  8
AM_0
 10
652.97543875910924
 20
164.23369577505059
 30
0.0
 70
    32
  0
VERTEX
  5
19B80
  8
AM_0
 10
652.97583875910925
 20
164.2376957750509
 30
0.0
 70
    32
  0
VERTEX
  5
19B81
  8
AM_0
 10
652.97623875910915
 20
164.241695775051
 30
0.0
 70
    32
  0
VERTEX
  5
19B82
  8
AM_0
 10
652.97673875910925
 20
164.2466957750508
 30
0.0
 70
    32
  0
VERTEX
  5
19B83
  8
AM_0
 10
652.97713875910915
 20
164.25069577505101
 30
0.0
 70
    32
  0
VERTEX
  5
19B84
  8
AM_0
 10
652.97753875910928
 20
164.25469577505089
 30
0.0
 70
    32
  0
VERTEX
  5
19B85
  8
AM_0
 10
652.97793875910918
 20
164.25969577505111
 30
0.0
 70
    32
  0
VERTEX
  5
19B86
  8
AM_0
 10
652.97833875910896
 20
164.26369577505091
 30
0.0
 70
    32
  0
VERTEX
  5
19B87
  8
AM_0
 10
652.97873875910909
 20
164.26769577505101
 30
0.0
 70
    32
  0
VERTEX
  5
19B88
  8
AM_0
 10
652.97913875910922
 20
164.27269577505101
 30
0.0
 70
    32
  0
VERTEX
  5
19B89
  8
AM_0
 10
652.97943875910937
 20
164.2766957750508
 30
0.0
 70
    32
  0
VERTEX
  5
19B8A
  8
AM_0
 10
652.97983875910927
 20
164.28069577505079
 30
0.0
 70
    32
  0
VERTEX
  5
19B8B
  8
AM_0
 10
652.98023875910917
 20
164.28569577505061
 30
0.0
 70
    32
  0
VERTEX
  5
19B8C
  8
AM_0
 10
652.9806387591093
 20
164.28969577505109
 30
0.0
 70
    32
  0
VERTEX
  5
19B8D
  8
AM_0
 10
652.98093875910922
 20
164.29369577505091
 30
0.0
 70
    32
  0
VERTEX
  5
19B8E
  8
AM_0
 10
652.98133875910924
 20
164.29869577505079
 30
0.0
 70
    32
  0
VERTEX
  5
19B8F
  8
AM_0
 10
652.98173875910925
 20
164.30269577505081
 30
0.0
 70
    32
  0
VERTEX
  5
19B90
  8
AM_0
 10
652.98203875910895
 20
164.3066957750508
 30
0.0
 70
    32
  0
VERTEX
  5
19B91
  8
AM_0
 10
652.9824387591093
 20
164.31169577505079
 30
0.0
 70
    32
  0
VERTEX
  5
19B92
  8
AM_0
 10
652.98273875910922
 20
164.31569577505061
 30
0.0
 70
    32
  0
VERTEX
  5
19B93
  8
AM_0
 10
652.98303875910926
 20
164.319695775051
 30
0.0
 70
    32
  0
VERTEX
  5
19B94
  8
AM_0
 10
652.98343875910939
 20
164.32469577505091
 30
0.0
 70
    32
  0
VERTEX
  5
19B95
  8
AM_0
 10
652.98373875910875
 20
164.32869577505079
 30
0.0
 70
    32
  0
VERTEX
  5
19B96
  8
AM_0
 10
652.98403875910924
 20
164.33269577505101
 30
0.0
 70
    32
  0
VERTEX
  5
19B97
  8
AM_0
 10
652.98433875910928
 20
164.33769577505089
 30
0.0
 70
    32
  0
VERTEX
  5
19B98
  8
AM_0
 10
652.98473875910895
 20
164.34169577505091
 30
0.0
 70
    32
  0
VERTEX
  5
19B99
  8
AM_0
 10
652.9850387591091
 20
164.34569577505101
 30
0.0
 70
    32
  0
VERTEX
  5
19B9A
  8
AM_0
 10
652.98533875910925
 20
164.35069577505061
 30
0.0
 70
    32
  0
VERTEX
  5
19B9B
  8
AM_0
 10
652.98563875910929
 20
164.354695775051
 30
0.0
 70
    32
  0
VERTEX
  5
19B9C
  8
AM_0
 10
652.98593875910922
 20
164.35869577505079
 30
0.0
 70
    32
  0
VERTEX
  5
19B9D
  8
AM_0
 10
652.98623875910926
 20
164.3636957750511
 30
0.0
 70
    32
  0
VERTEX
  5
19B9E
  8
AM_0
 10
652.98653875910895
 20
164.36769577505089
 30
0.0
 70
    32
  0
VERTEX
  5
19B9F
  8
AM_0
 10
652.98683875910911
 20
164.37169577505091
 30
0.0
 70
    32
  0
VERTEX
  5
19BA0
  8
AM_0
 10
652.98713875910948
 20
164.3766957750511
 30
0.0
 70
    32
  0
VERTEX
  5
19BA1
  8
AM_0
 10
652.98733875910909
 20
164.38069577505081
 30
0.0
 70
    32
  0
VERTEX
  5
19BA2
  8
AM_0
 10
652.98763875910913
 20
164.384695775051
 30
0.0
 70
    32
  0
VERTEX
  5
19BA3
  8
AM_0
 10
652.98793875910951
 20
164.3896957750506
 30
0.0
 70
    32
  0
VERTEX
  5
19BA4
  8
AM_0
 10
652.98823875910875
 20
164.39369577505079
 30
0.0
 70
    32
  0
VERTEX
  5
19BA5
  8
AM_0
 10
652.98843875910961
 20
164.39769577505089
 30
0.0
 70
    32
  0
VERTEX
  5
19BA6
  8
AM_0
 10
652.9887387591092
 20
164.40269577505089
 30
0.0
 70
    32
  0
VERTEX
  5
19BA7
  8
AM_0
 10
652.98893875910915
 20
164.40669577505071
 30
0.0
 70
    32
  0
VERTEX
  5
19BA8
  8
AM_0
 10
652.98923875910907
 20
164.4106957750507
 30
0.0
 70
    32
  0
VERTEX
  5
19BA9
  8
AM_0
 10
652.98943875910925
 20
164.41569577505081
 30
0.0
 70
    32
  0
VERTEX
  5
19BAA
  8
AM_0
 10
652.98973875910951
 20
164.419695775051
 30
0.0
 70
    32
  0
VERTEX
  5
19BAB
  8
AM_0
 10
652.98993875910924
 20
164.4236957750511
 30
0.0
 70
    32
  0
VERTEX
  5
19BAC
  8
AM_0
 10
652.9902387591095
 20
164.4286957750507
 30
0.0
 70
    32
  0
VERTEX
  5
19BAD
  8
AM_0
 10
652.990438759109
 20
164.432695775051
 30
0.0
 70
    32
  0
VERTEX
  5
19BAE
  8
AM_0
 10
652.99063875910952
 20
164.43669577505079
 30
0.0
 70
    32
  0
VERTEX
  5
19BAF
  8
AM_0
 10
652.99083875910924
 20
164.44169577505079
 30
0.0
 70
    32
  0
VERTEX
  5
19BB0
  8
AM_0
 10
652.99113875910962
 20
164.44569577505101
 30
0.0
 70
    32
  0
VERTEX
  5
19BB1
  8
AM_0
 10
652.99133875910923
 20
164.44969577505091
 30
0.0
 70
    32
  0
VERTEX
  5
19BB2
  8
AM_0
 10
652.99153875910929
 20
164.4546957750506
 30
0.0
 70
    32
  0
VERTEX
  5
19BB3
  8
AM_0
 10
652.99173875910924
 20
164.45869577505059
 30
0.0
 70
    32
  0
VERTEX
  5
19BB4
  8
AM_0
 10
652.9919387591093
 20
164.462695775051
 30
0.0
 70
    32
  0
VERTEX
  5
19BB5
  8
AM_0
 10
652.99213875910925
 20
164.4676957750508
 30
0.0
 70
    32
  0
VERTEX
  5
19BB6
  8
AM_0
 10
652.99233875910932
 20
164.47169577505079
 30
0.0
 70
    32
  0
VERTEX
  5
19BB7
  8
AM_0
 10
652.99253875910927
 20
164.47569577505089
 30
0.0
 70
    32
  0
VERTEX
  5
19BB8
  8
AM_0
 10
652.9927387591091
 20
164.48069577505061
 30
0.0
 70
    32
  0
VERTEX
  5
19BB9
  8
AM_0
 10
652.99293875910962
 20
164.48469577505091
 30
0.0
 70
    32
  0
VERTEX
  5
19BBA
  8
AM_0
 10
652.99313875910912
 20
164.48869577505059
 30
0.0
 70
    32
  0
VERTEX
  5
19BBB
  8
AM_0
 10
652.99333875910929
 20
164.49369577505101
 30
0.0
 70
    32
  0
VERTEX
  5
19BBC
  8
AM_0
 10
652.99353875910924
 20
164.4976957750512
 30
0.0
 70
    32
  0
VERTEX
  5
19BBD
  8
AM_0
 10
652.99363875910922
 20
164.50169577505079
 30
0.0
 70
    32
  0
VERTEX
  5
19BBE
  8
AM_0
 10
652.99383875910962
 20
164.50669577505059
 30
0.0
 70
    32
  0
VERTEX
  5
19BBF
  8
AM_0
 10
652.99403875910923
 20
164.51069577505109
 30
0.0
 70
    32
  0
VERTEX
  5
19BC0
  8
AM_0
 10
652.99413875910932
 20
164.51569577505089
 30
0.0
 70
    32
  0
VERTEX
  5
19BC1
  8
AM_0
 10
652.9943387591095
 20
164.51969577505091
 30
0.0
 70
    32
  0
VERTEX
  5
19BC2
  8
AM_0
 10
652.99453875910922
 20
164.52369577505101
 30
0.0
 70
    32
  0
VERTEX
  5
19BC3
  8
AM_0
 10
652.99463875910931
 20
164.52869577505101
 30
0.0
 70
    32
  0
VERTEX
  5
19BC4
  8
AM_0
 10
652.99483875910914
 20
164.53269577505091
 30
0.0
 70
    32
  0
VERTEX
  5
19BC5
  8
AM_0
 10
652.99493875910912
 20
164.5366957750507
 30
0.0
 70
    32
  0
VERTEX
  5
19BC6
  8
AM_0
 10
652.9951387591093
 20
164.5416957750509
 30
0.0
 70
    32
  0
VERTEX
  5
19BC7
  8
AM_0
 10
652.99523875910938
 20
164.54569577505089
 30
0.0
 70
    32
  0
VERTEX
  5
19BC8
  8
AM_0
 10
652.99533875910925
 20
164.54969577505099
 30
0.0
 70
    32
  0
VERTEX
  5
19BC9
  8
AM_0
 10
652.99553875910897
 20
164.55469577505079
 30
0.0
 70
    32
  0
VERTEX
  5
19BCA
  8
AM_0
 10
652.99563875910962
 20
164.55869577505089
 30
0.0
 70
    32
  0
VERTEX
  5
19BCB
  8
AM_0
 10
652.99573875910914
 20
164.56269577505091
 30
0.0
 70
    32
  0
VERTEX
  5
19BCC
  8
AM_0
 10
652.99583875910912
 20
164.56769577505059
 30
0.0
 70
    32
  0
VERTEX
  5
19BCD
  8
AM_0
 10
652.99593875910932
 20
164.5716957750509
 30
0.0
 70
    32
  0
VERTEX
  5
19BCE
  8
AM_0
 10
652.99603875910952
 20
164.575695775051
 30
0.0
 70
    32
  0
VERTEX
  5
19BCF
  8
AM_0
 10
652.99623875910925
 20
164.580695775051
 30
0.0
 70
    32
  0
VERTEX
  5
19BD0
  8
AM_0
 10
652.99633875910899
 20
164.58469577505079
 30
0.0
 70
    32
  0
VERTEX
  5
19BD1
  8
AM_0
 10
652.99643875910931
 20
164.58869577505089
 30
0.0
 70
    32
  0
VERTEX
  5
19BD2
  8
AM_0
 10
652.9965387591094
 20
164.59369577505061
 30
0.0
 70
    32
  0
VERTEX
  5
19BD3
  8
AM_0
 10
652.9965387591094
 20
164.59769577505071
 30
0.0
 70
    32
  0
VERTEX
  5
19BD4
  8
AM_0
 10
652.99663875910915
 20
164.6016957750507
 30
0.0
 70
    32
  0
VERTEX
  5
19BD5
  8
AM_0
 10
652.99673875910923
 20
164.6066957750505
 30
0.0
 70
    32
  0
VERTEX
  5
19BD6
  8
AM_0
 10
652.99683875910932
 20
164.610695775051
 30
0.0
 70
    32
  0
VERTEX
  5
19BD7
  8
AM_0
 10
652.99693875910918
 20
164.61469577505079
 30
0.0
 70
    32
  0
VERTEX
  5
19BD8
  8
AM_0
 10
652.99693875910918
 20
164.61969577505079
 30
0.0
 70
    32
  0
VERTEX
  5
19BD9
  8
AM_0
 10
652.99703875910927
 20
164.62369577505061
 30
0.0
 70
    32
  0
VERTEX
  5
19BDA
  8
AM_0
 10
652.99713875910925
 20
164.627695775051
 30
0.0
 70
    32
  0
VERTEX
  5
19BDB
  8
AM_0
 10
652.99713875910925
 20
164.63269577505091
 30
0.0
 70
    32
  0
VERTEX
  5
19BDC
  8
AM_0
 10
652.99723875910877
 20
164.63669577505101
 30
0.0
 70
    32
  0
VERTEX
  5
19BDD
  8
AM_0
 10
652.99733875910897
 20
164.64169577505061
 30
0.0
 70
    32
  0
VERTEX
  5
19BDE
  8
AM_0
 10
652.99733875910897
 20
164.6456957750508
 30
0.0
 70
    32
  0
VERTEX
  5
19BDF
  8
AM_0
 10
652.99743875910951
 20
164.6496957750509
 30
0.0
 70
    32
  0
VERTEX
  5
19BE0
  8
AM_0
 10
652.99743875910951
 20
164.6546957750511
 30
0.0
 70
    32
  0
VERTEX
  5
19BE1
  8
AM_0
 10
652.99753875910915
 20
164.65869577505089
 30
0.0
 70
    32
  0
VERTEX
  5
19BE2
  8
AM_0
 10
652.99753875910915
 20
164.66269577505079
 30
0.0
 70
    32
  0
VERTEX
  5
19BE3
  8
AM_0
 10
652.99763875910912
 20
164.66769577505079
 30
0.0
 70
    32
  0
VERTEX
  5
19BE4
  8
AM_0
 10
652.99763875910912
 20
164.67169577505109
 30
0.0
 70
    32
  0
VERTEX
  5
19BE5
  8
AM_0
 10
652.99773875910932
 20
164.67569577505091
 30
0.0
 70
    32
  0
VERTEX
  5
19BE6
  8
AM_0
 10
652.99773875910932
 20
164.68069577505111
 30
0.0
 70
    32
  0
VERTEX
  5
19BE7
  8
AM_0
 10
652.99773875910932
 20
164.68469577505101
 30
0.0
 70
    32
  0
VERTEX
  5
19BE8
  8
AM_0
 10
652.99783875910953
 20
164.6886957750508
 30
0.0
 70
    32
  0
VERTEX
  5
19BE9
  8
AM_0
 10
652.99783875910953
 20
164.6936957750508
 30
0.0
 70
    32
  0
VERTEX
  5
19BEA
  8
AM_0
 10
652.9979387591095
 20
164.69769577505099
 30
0.0
 70
    32
  0
VERTEX
  5
19BEB
  8
AM_0
 10
652.9979387591095
 20
164.70169577505061
 30
0.0
 70
    32
  0
VERTEX
  5
19BEC
  8
AM_0
 10
652.9979387591095
 20
164.70669577505089
 30
0.0
 70
    32
  0
VERTEX
  5
19BED
  8
AM_0
 10
652.99803875910925
 20
164.71069577505091
 30
0.0
 70
    32
  0
SEQEND
  5
19BEE
  8
AM_0
  0
ARC
  5
19BEF
  8
AM_0
 10
664.86785356215216
 20
162.71074284012491
 30
0.0
 40
0.5
 50
270.0
 51
0.0
  0
LINE
  5
19BF0
  8
AM_0
 10
664.86785356215216
 20
162.21074284012499
 30
0.0
 11
660.76785356215157
 21
162.21074284012499
 31
0.0
  0
ARC
  5
19BF1
  8
AM_0
 10
660.76785356215157
 20
164.71074284012479
 30
0.0
 40
2.4999999999999991
 50
270.0
 51
0.0
  0
LINE
  5
19BF2
  8
AM_0
 10
654.4478535621522
 20
175.21074284012479
 30
0.0
 11
663.26785356215169
 21
173.74574284012499
 31
0.0
  0
LINE
  5
19BF3
  8
AM_0
 10
665.36785356215375
 20
179.21074284012491
 30
0.0
 11
653.86785356215387
 21
179.21074284012491
 31
0.0
  0
LINE
  5
19BF4
  8
AM_0
 10
653.86785356215387
 20
189.72006869893599
 30
0.0
 11
653.86785356215387
 21
179.21074284012491
 31
0.0
  0
ARC
  5
19BF5
  8
AM_0
 10
650.4274869135437
 20
231.19867671901829
 30
0.0
 40
29.999999999999989
 50
338.64558357337597
 51
357.78164145295642
1001
GENIUS_GENOBJ-N-FIL_13
1002
{
1000
OWNER
1000
GEN
1002
}
1001
GENIUS_GENODEF_13
1002
{
1000
HIER
1070
     0
1002
}
1002
{
1000
MANEDIT
1070
     0
1002
}
1002
{
1000
NOSEL
1070
     0
1002
}
1002
{
1000
BEHIND
1070
     0
1002
}
1002
{
1000
OTHER
1070
     0
1002
}
1002
{
1000
REACTOR
1002
}
  0
POLYLINE
  5
19F14
  8
AM_0
 66
     1
 10
0.0
 20
0.0
 30
0.0
  0
VERTEX
  5
19F15
  8
AM_0
 10
126.56113510887479
 20
266.21074333410132
 30
0.0
 42
-0.00039106649
  0
VERTEX
  5
19F16
  8
AM_0
 10
126.5587751088746
 20
266.52187333410131
 30
0.0
 42
-0.00035488198
  0
VERTEX
  5
19F17
  8
AM_0
 10
126.5568851088746
 20
266.83298333410119
 30
0.0
 42
-0.00039706113
  0
VERTEX
  5
19F18
  8
AM_0
 10
126.5554551088746
 20
267.14409333410129
 30
0.0
 42
-0.00038765718
  0
VERTEX
  5
19F19
  8
AM_0
 10
126.5545251088747
 20
267.45523333410131
 30
0.0
 42
-0.00040613432
  0
VERTEX
  5
19F1A
  8
AM_0
 10
126.5540751088747
 20
267.7663333341012
 30
0.0
 42
-0.00035573434
  0
VERTEX
  5
19F1B
  8
AM_0
 10
126.5541151088748
 20
268.0774433341013
 30
0.0
 42
-0.00038545884
  0
VERTEX
  5
19F1C
  8
AM_0
 10
126.5546051088747
 20
268.38857333410112
 30
0.0
 42
-0.00035501205
  0
VERTEX
  5
19F1D
  8
AM_0
 10
126.5555651088748
 20
268.69968333410122
 30
0.0
 42
-0.00040120779
  0
VERTEX
  5
19F1E
  8
AM_0
 10
126.5569851088746
 20
269.01091333410119
 30
0.0
 42
-0.00038317817
  0
VERTEX
  5
19F1F
  8
AM_0
 10
126.55889510887479
 20
269.32204333410129
 30
0.0
 42
-0.00035656084
  0
VERTEX
  5
19F20
  8
AM_0
 10
126.5612751088747
 20
269.63328333410129
 30
0.0
 42
-0.00040143615
  0
VERTEX
  5
19F21
  8
AM_0
 10
126.5641251088748
 20
269.94438333410119
 30
0.0
  0
SEQEND
  5
19F22
  8
AM_0
  0
LINE
  5
19F23
  8
AM_0
 10
111.2011451088747
 20
229.02568333410119
 30
0.0
 11
111.2011451088747
 21
303.39677333410111
 31
0.0
  0
LINE
  5
19F24
  8
AM_0
 10
66.201145108874698
 20
231.68168333410119
 30
0.0
 11
66.201145108874698
 21
300.73979333410142
 31
0.0
  0
LINE
  5
19F25
  8
AM_0
 10
65.699715008874705
 20
300.9492044298085
 30
0.0
 11
65.699715008874705
 21
231.4722822383938
 31
0.0
  0
LINE
  5
19F26
  8
AM_0
 10
59.701175108874722
 20
261.21074333410132
 30
0.0
 11
59.701175108874722
 21
271.21074333410132
 31
0.0
  0
LINE
  5
19F27
  8
AM_0
 10
116.2011451088747
 20
324.96074333410121
 30
0.0
 11
116.2011451088747
 21
207.46074333410129
 31
0.0
  0
LINE
  5
19F28
  8
AM_0
 10
124.2011451088747
 20
319.21074333410132
 30
0.0
 11
124.2011451088747
 21
213.21074333410129
 31
0.0
  0
LINE
  5
19F29
  8
AM_0
 10
60.699715008874698
 20
322.21074333410132
 30
0.0
 11
60.699715008874698
 21
210.21074333410129
 31
0.0
  0
LINE
  5
19F2A
  8
AM_0
 10
68.701145108874698
 20
213.42875333410129
 30
0.0
 11
68.701145108874698
 21
318.96074333410098
 31
0.0
  0
LINE
  5
19F2B
  8
AM_0
 10
232.2011451088747
 20
322.21074333410132
 30
0.0
 11
232.2011451088747
 21
210.21074333410129
 31
0.0
  0
LINE
  5
19F2C
  8
AM_0
 10
116.9011551088747
 20
223.02080333410129
 30
0.0
 11
123.1311351088748
 21
223.02080333410129
 31
0.0
  0
LINE
  5
19F2D
  8
AM_0
 10
116.2011451088747
 20
213.21074333410129
 30
0.0
 11
124.2011451088747
 21
213.21074333410129
 31
0.0
  0
LINE
  5
19F2E
  8
AM_0
 10
68.701145108874698
 20
232.56975333410119
 30
0.0
 11
111.2011451088747
 21
232.56975333410119
 31
0.0
  0
ARC
  5
19F2F
  8
AM_0
 10
70.699715008874705
 20
211.21074333410129
 30
0.0
 40
5.0
 50
179.99997999999789
 51
269.9999499999949
  0
ARC
  5
19F30
  8
AM_0
 10
69.699715008874719
 20
210.21074333410129
 30
0.0
 40
9.0
 50
179.99997999999789
 51
269.9999499999949
  0
LINE
  5
19F31
  8
AM_0
 10
68.201145108874698
 20
213.46074333410129
 30
0.0
 11
116.2011451088747
 21
213.46074333410129
 31
0.0
  0
LINE
  5
19F32
  8
AM_0
 10
68.701145108874698
 20
222.31975333410119
 30
0.0
 11
111.2011451088747
 21
222.31975333410119
 31
0.0
  0
LINE
  5
19F33
  8
AM_0
 10
66.201145108874698
 20
222.95781333410119
 30
0.0
 11
66.201145108874698
 21
215.46074333410129
 31
0.0
  0
LINE
  5
19F34
  8
AM_0
 10
65.699715008874705
 20
223.1672244298085
 30
0.0
 11
65.699715008874705
 21
211.21074333410129
 31
0.0
  0
ARC
  5
19F35
  8
AM_0
 10
68.201145108874698
 20
215.46074333410129
 30
0.0
 40
2.0
 50
179.99997999999789
 51
269.9999499999949
  0
ARC
  5
19F36
  8
AM_0
 10
67.101175108874713
 20
228.81975333410119
 30
0.0
 40
3.0
 50
89.999988999991061
 51
179.99997999999789
  0
ARC
  5
19F37
  8
AM_0
 10
67.101175108874713
 20
225.81975333410119
 30
0.0
 40
3.0
 50
179.99997999999789
 51
269.9999499999949
  0
LINE
  5
19F38
  8
AM_0
 10
67.401155108874718
 20
231.91972333410109
 30
0.0
 11
68.701145108874698
 21
231.91972333410109
 31
0.0
  0
LINE
  5
19F39
  8
AM_0
 10
67.101175108874713
 20
231.81975333410119
 30
0.0
 11
67.401155108874718
 21
231.81975333410119
 31
0.0
  0
LINE
  5
19F3A
  8
AM_0
 10
64.101175108874713
 20
228.81975333410119
 30
0.0
 11
64.101175108874713
 21
225.81975333410119
 31
0.0
  0
LINE
  5
19F3B
  8
AM_0
 10
67.401155108874718
 20
222.71977333410121
 30
0.0
 11
68.701145108874698
 21
222.71977333410121
 31
0.0
  0
LINE
  5
19F3C
  8
AM_0
 10
67.101175108874713
 20
222.81975333410119
 30
0.0
 11
67.401155108874718
 21
222.81975333410119
 31
0.0
  0
LINE
  5
19F3D
  8
AM_0
 10
67.401155108874718
 20
231.91972333410109
 30
0.0
 11
67.401155108874718
 21
222.71977333410121
 31
0.0
  0
LINE
  5
19F3E
  8
AM_0
 10
60.699715008874698
 20
261.21074333410132
 30
0.0
 11
59.701175108874722
 21
261.21074333410132
 31
0.0
  0
LINE
  5
19F3F
  8
AM_0
 10
66.201145108874698
 20
261.21074333410132
 30
0.0
 11
65.699715008874705
 21
261.21074333410132
 31
0.0
  0
LINE
  5
19F40
  8
AM_0
 10
111.2011451088747
 20
222.31975333410119
 30
0.0
 11
111.2011451088747
 21
213.46074333410129
 31
0.0
  0
LINE
  5
19F41
  8
AM_0
 10
91.201145108874698
 20
207.46074333410129
 30
0.0
 11
116.2011451088747
 21
207.46074333410129
 31
0.0
  0
LINE
  5
19F42
  8
AM_0
 10
69.699715008874719
 20
201.21074333410129
 30
0.0
 11
107.2011451088747
 21
201.21074333410129
 31
0.0
  0
LINE
  5
19F43
  8
AM_0
 10
70.699715008874705
 20
206.21074333410121
 30
0.0
 11
94.201145108874698
 21
206.21074333410121
 31
0.0
  0
LINE
  5
19F44
  8
AM_0
 10
91.201145108874698
 20
207.46074333410129
 30
0.0
 11
91.201145108874698
 21
213.46074333410129
 31
0.0
  0
LINE
  5
19F45
  8
AM_0
 10
104.2011451088747
 20
206.21074333410121
 30
0.0
 11
107.2011451088747
 21
206.21074333410121
 31
0.0
  0
LINE
  5
19F46
  8
AM_0
 10
94.201145108874698
 20
207.46074333410129
 30
0.0
 11
94.201145108874698
 21
201.21074333410129
 31
0.0
  0
LINE
  5
19F47
  8
AM_0
 10
104.2011451088747
 20
207.46074333410129
 30
0.0
 11
104.2011451088747
 21
201.21074333410129
 31
0.0
  0
LINE
  5
19F48
  8
AM_0
 10
107.2011451088747
 20
206.21074333410121
 30
0.0
 11
107.2011451088747
 21
201.21074333410129
 31
0.0
  0
LINE
  5
19F49
  8
AM_0
 10
225.5411751088748
 20
232.21074333410129
 30
0.0
 11
181.2011451088747
 21
232.21074333410129
 31
0.0
  0
LINE
  5
19F4A
  8
AM_0
 10
225.5411751088748
 20
230.21074333410129
 30
0.0
 11
181.2011451088747
 21
230.21074333410129
 31
0.0
  0
LINE
  5
19F4B
  8
AM_0
 10
181.2011451088747
 20
229.49077333410119
 30
0.0
 11
229.02115510887461
 21
229.49077333410119
 31
0.0
  0
LINE
  5
19F4C
  8
AM_0
 10
229.02115510887461
 20
232.84074333410109
 30
0.0
 11
211.1811251088748
 21
232.84074333410109
 31
0.0
  0
LINE
  5
19F4D
  8
AM_0
 10
225.5339751088747
 20
240.21074333410129
 30
0.0
 11
211.2011451088747
 21
240.21074333410129
 31
0.0
  0
LINE
  5
19F4E
  8
AM_0
 10
211.2011451088747
 20
239.7307633341012
 30
0.0
 11
229.2353851088746
 21
239.7307633341012
 31
0.0
  0
LINE
  5
19F4F
  8
AM_0
 10
225.5339751088747
 20
242.21074333410129
 30
0.0
 11
126.56113510887479
 21
242.21074333410129
 31
0.0
  0
LINE
  5
19F50
  8
AM_0
 10
125.6611651088747
 20
242.65068333410119
 30
0.0
 11
229.2353851088746
 21
242.65068333410119
 31
0.0
  0
LINE
  5
19F51
  8
AM_0
 10
217.9784338063007
 20
196.71074333410129
 30
0.0
 11
207.30330754045369
 21
196.71074333410129
 31
0.0
  0
LINE
  5
19F52
  8
AM_0
 10
213.10330754045481
 20
175.71074333410121
 30
0.0
 11
218.4784338063007
 21
175.71074333410121
 31
0.0
  0
LINE
  5
19F53
  8
AM_0
 10
218.9784338063007
 20
179.7107433341011
 30
0.0
 11
210.6033075404537
 21
179.7107433341011
 31
0.0
  0
LINE
  5
19F54
  8
AM_0
 10
214.7011451088747
 20
199.2107433341011
 30
0.0
 11
147.70114510887461
 21
199.2107433341011
 31
0.0
  0
LINE
  5
19F55
  8
AM_0
 10
212.7802257946598
 20
203.71074333410129
 30
0.0
 11
224.2173251088748
 21
203.71074333410129
 31
0.0
  0
LINE
  5
19F56
  8
AM_0
 10
127.4111651088747
 20
209.9307133341012
 30
0.0
 11
224.33115510887461
 21
209.9307133341012
 31
0.0
  0
LINE
  5
19F57
  8
ﾁｭｳｼﾝｾﾝ1
 10
146.80330754045369
 20
191.7107583341012
 30
0.0
 11
146.80330754045369
 21
167.7107583341012
 31
0.0
  0
LINE
  5
19F58
  8
AM_0
 10
203.20330754045469
 20
174.39653810680429
 30
0.0
 11
203.20330754045469
 21
178.4499307521881
 31
0.0
  0
LINE
  5
19F59
  8
AM_0
 10
179.80330754045551
 20
175.47690990284019
 30
0.0
 11
179.80330754045551
 21
188.9993671549033
 31
0.0
  0
LINE
  5
19F5A
  8
AM_0
 10
181.50666158592961
 20
191.71074333410121
 30
0.0
 11
181.50666158592961
 21
175.76712749905539
 31
0.0
  0
LINE
  5
19F5B
  8
AM_0
 10
175.59995349497461
 20
174.76074211003231
 30
0.0
 11
175.59995349497461
 21
191.71074333410121
 31
0.0
  0
LINE
  5
19F5C
  8
AM_0
 10
177.80330754045281
 20
191.71074333410121
 30
0.0
 11
177.80330754045281
 21
175.13614974556631
 31
0.0
  0
ARC
  5
19F5D
  8
AM_0
 10
146.80330754045369
 20
179.7107433341011
 30
0.0
 40
9.3000000000000007
 50
180.0
 51
0.0
  0
CIRCLE
  5
19F5E
  8
AM_0
 10
146.80330754045369
 20
179.7107433341011
 30
0.0
 40
6.299999999999998
  0
LINE
  5
19F5F
  8
AM_0
 10
131.70330754045369
 20
195.71074333410129
 30
0.0
 11
131.70330754045369
 21
172.71074333410129
 31
0.0
  0
LINE
  5
19F60
  8
AM_0
 10
168.19995349497461
 20
173.4999295281192
 30
0.0
 11
168.19995349497461
 21
191.7107433341024
 31
0.0
  0
LINE
  5
19F61
  8
AM_0
 10
170.3999534949746
 20
191.71074333410121
 30
0.0
 11
170.39995349497559
 21
173.8747657011202
 31
0.0
  0
LINE
  5
19F62
  8
AM_0
 10
171.8999534949746
 20
174.13033581907629
 30
0.0
 11
171.8999534949746
 21
191.71074333410121
 31
0.0
  0
LINE
  5
19F63
  8
AM_0
 10
174.09995349497461
 20
191.71074333410121
 30
0.0
 11
174.09995349497461
 21
174.50517199207721
 31
0.0
  0
LINE
  5
19F64
  8
AM_0
 10
166.19995349497461
 20
188.9993671549033
 30
0.0
 11
166.19995349497461
 21
173.15916937084521
 31
0.0
  0
LINE
  5
19F65
  8
AM_0
 10
134.30330754045369
 20
166.71074333410121
 30
0.0
 11
210.6033075404537
 21
179.7107433341011
 31
0.0
  0
LINE
  5
19F66
  8
AM_0
 10
134.30330754045369
 20
166.71074333410121
 30
0.0
 11
210.6033075404537
 21
179.7107433341011
 31
0.0
  0
LINE
  5
19F67
  8
AM_0
 10
134.22188375624259
 20
167.71074333410129
 30
0.0
 11
166.19995349497461
 21
173.15916937084521
 31
0.0
  0
LINE
  5
19F68
  8
AM_0
 10
210.10330754045481
 20
162.71074333410121
 30
0.0
 11
134.62900267729469
 21
162.71074333410121
 31
0.0
  0
LINE
  5
19F69
  8
AM_0
 10
210.9290026772947
 20
175.71074333410121
 30
0.0
 11
134.62900267729469
 21
162.71074333410121
 31
0.0
  0
ARC
  5
19F6A
  8
AM_0
 10
130.0033075404547
 20
171.41074333410219
 30
0.0
 40
0.3
 50
90.0
 51
180.0
  0
ARC
  5
19F6B
  8
AM_0
 10
131.20330754045469
 20
164.2107433341024
 30
0.0
 40
1.5
 50
180.00000000000651
 51
269.99999999998698
  0
LINE
  5
19F6C
  8
AM_0
 10
129.70330754045469
 20
171.41074333410219
 30
0.0
 11
129.70330754045469
 21
164.21074333410121
 31
0.0
  0
LINE
  5
19F6D
  8
AM_0
 10
130.20330754045369
 20
166.41074333410219
 30
0.0
 11
130.20330754045369
 21
164.21074333410121
 31
0.0
  0
LINE
  5
19F6E
  8
AM_0
 10
131.20330754045469
 20
162.71074333410121
 30
0.0
 11
131.50179343661171
 21
162.7107433341024
 31
0.0
  0
ARC
  5
19F6F
  8
AM_0
 10
131.70330754045369
 20
164.21074333410121
 30
0.0
 40
1.5
 50
180.0
 51
270.0
  0
LINE
  5
19F70
  8
AM_0
 10
131.70330754045369
 20
162.71074333410121
 30
0.0
 11
134.62900267729469
 21
162.71074333410121
 31
0.0
  0
ARC
  5
19F71
  8
AM_0
 10
130.9033075404536
 20
171.41074333410219
 30
0.0
 40
0.3
 50
0.0
 51
90.0
  0
LINE
  5
19F72
  8
AM_0
 10
131.60330754045361
 20
172.71074333410129
 30
0.0
 11
131.70330754045369
 21
172.71074333410129
 31
0.0
  0
LINE
  5
19F73
  8
AM_0
 10
131.4033075404536
 20
172.5107433341021
 30
0.0
 11
131.60330754045361
 21
172.71074333410129
 31
0.0
  0
LINE
  5
19F74
  8
AM_0
 10
131.20330754045369
 20
169.9063860148172
 30
0.0
 11
131.4033075404536
 21
169.9063860148172
 31
0.0
  0
LINE
  5
19F75
  8
AM_0
 10
131.4033075404536
 20
169.9063860148172
 30
0.0
 11
131.4033075404536
 21
172.5107433341021
 31
0.0
  0
LINE
  5
19F76
  8
AM_0
 10
130.50330754045359
 20
171.71074333410129
 30
0.0
 11
130.0033075404547
 21
171.71074333410129
 31
0.0
  0
LINE
  5
19F77
  8
AM_0
 10
130.9033075404536
 20
171.71074333410129
 30
0.0
 11
130.50330754045359
 21
171.71074333410129
 31
0.0
  0
LINE
  5
19F78
  8
AM_0
 10
131.4033075404536
 20
167.71074333410129
 30
0.0
 11
131.4033075404536
 21
168.70638601481721
 31
0.0
  0
LINE
  5
19F79
  8
AM_0
 10
130.20330754045369
 20
167.41074333410219
 30
0.0
 11
130.20330754045369
 21
166.71074333410121
 31
0.0
  0
ARC
  5
19F7A
  8
AM_0
 10
130.50330754045359
 20
166.41074333410219
 30
0.0
 40
0.3
 50
90.0
 51
180.0
  0
ARC
  5
19F7B
  8
AM_0
 10
130.50330754045359
 20
167.41074333410219
 30
0.0
 40
0.3
 50
90.0
 51
180.0
  0
LINE
  5
19F7C
  8
AM_0
 10
131.4033075404536
 20
168.70638601481721
 30
0.0
 11
131.20330754045369
 21
168.70638601481721
 31
0.0
  0
LINE
  5
19F7D
  8
AM_0
 10
130.20330754045369
 20
166.71074333410121
 30
0.0
 11
134.30330754045369
 21
166.71074333410121
 31
0.0
  0
LINE
  5
19F7E
  8
AM_0
 10
130.50330754045359
 20
166.71074333410121
 30
0.0
 11
134.30330754045369
 21
166.71074333410121
 31
0.0
  0
LINE
  5
19F7F
  8
AM_0
 10
134.22188375624259
 20
167.71074333410129
 30
0.0
 11
130.50330754045359
 21
167.71074333410129
 31
0.0
  0
LINE
  5
19F80
  8
AM_0
 10
131.70330754045369
 20
172.71074333410129
 30
0.0
 11
131.70330754045261
 21
167.71074333410129
 31
0.0
  0
LINE
  5
19F81
  8
AM_0
 10
131.20330754045369
 20
167.71074333410129
 30
0.0
 11
131.20330754045369
 21
171.41074333410219
 31
0.0
  0
LINE
  5
19F82
  8
AM_0
 10
131.4033075404536
 20
168.70638601481721
 30
0.0
 11
131.4033075404536
 21
169.9063860148172
 31
0.0
  0
LINE
  5
19F83
  8
AM_0
 10
171.8999534949746
 20
174.13033581907629
 30
0.0
 11
174.09995349497461
 21
174.50517199207721
 31
0.0
  0
LINE
  5
19F84
  8
AM_0
 10
168.19995349497461
 20
173.4999295281192
 30
0.0
 11
170.39995349497559
 21
173.8747657011202
 31
0.0
  0
LINE
  5
19F85
  8
AM_0
 10
175.59995349497461
 20
174.76074211003231
 30
0.0
 11
177.80330754045281
 21
175.13614974556631
 31
0.0
  0
LINE
  5
19F86
  8
AM_0
 10
179.80330754045551
 20
175.47690990284019
 30
0.0
 11
181.50666158592961
 21
175.76712749905539
 31
0.0
  0
LINE
  5
19F87
  8
AM_0
 10
202.33345905947181
 20
162.71074333410121
 30
0.0
 11
202.33345905947181
 21
174.24623393656941
 31
0.0
  0
ARC
  5
19F88
  8
AM_0
 10
210.10330754045481
 20
165.21074333410121
 30
0.0
 40
2.5
 50
270.0
 51
0.0
  0
ARC
  5
19F89
  8
AM_0
 10
213.10330754045481
 20
175.21074333410121
 30
0.0
 40
0.5
 50
90.0
 51
180.0
  0
LINE
  5
19F8A
  8
AM_0
 10
213.10330754045481
 20
175.71074333410121
 30
0.0
 11
210.9290026772947
 21
175.71074333410121
 31
0.0
  0
LINE
  5
19F8B
  8
AM_0
 10
212.60330754045481
 20
175.21074333410121
 30
0.0
 11
212.60330754045481
 21
165.21074333410121
 31
0.0
  0
LINE
  5
19F8C
  8
AM_0
 10
193.2011451088747
 20
240.21074333410129
 30
0.0
 11
126.56113510887479
 21
240.21074333410129
 31
0.0
  0
LINE
  5
19F8D
  8
AM_0
 10
181.2011451088747
 20
232.21074333410129
 30
0.0
 11
126.56113510887479
 21
232.21074333410129
 31
0.0
  0
LINE
  5
19F8E
  8
AM_0
 10
181.2011451088747
 20
230.21074333410129
 30
0.0
 11
126.56113510887479
 21
230.21074333410129
 31
0.0
  0
LINE
  5
19F8F
  8
AM_0
 10
125.6611651088747
 20
239.7207533341012
 30
0.0
 11
193.2011451088747
 21
239.7207533341012
 31
0.0
  0
LINE
  5
19F90
  8
AM_0
 10
125.8811351088748
 20
229.49077333410119
 30
0.0
 11
181.2011451088747
 21
229.49077333410119
 31
0.0
  0
LINE
  5
19F91
  8
AM_0
 10
125.8811351088748
 20
232.84074333410109
 30
0.0
 11
193.2211651088746
 21
232.84074333410109
 31
0.0
  0
LINE
  5
19F92
  8
AM_0
 10
200.1033075404537
 20
196.71074333410129
 30
0.0
 11
162.30330754045369
 21
196.71074333410129
 31
0.0
  0
LINE
  5
19F93
  8
AM_0
 10
129.56113510887479
 20
229.5607433341012
 30
0.0
 11
124.2011451088747
 21
218.12074333410129
 31
0.0
  0
LINE
  5
19F94
  8
ﾁｭｳｼﾝｾﾝ1
 10
134.80330754046301
 20
179.7107433341011
 30
0.0
 11
158.80330754044439
 21
179.7107433341011
 31
0.0
  0
LINE
  5
19F95
  8
AM_0
 10
127.1073951088747
 20
207.08073333410121
 30
0.0
 11
149.5337953075416
 21
207.08073333410121
 31
0.0
  0
LINE
  5
19F96
  8
AM_0
 10
137.50330754045359
 20
196.71074333410129
 30
0.0
 11
155.10330754045361
 21
196.71074333410129
 31
0.0
  0
LINE
  5
19F97
  8
AM_0
 10
137.50330754045359
 20
196.71074333410129
 30
0.0
 11
137.50330754045359
 21
179.7107433341011
 31
0.0
  0
LINE
  5
19F98
  8
AM_0
 10
132.70330754045369
 20
196.71074333410129
 30
0.0
 11
137.50330754045359
 21
196.71074333410129
 31
0.0
  0
ARC
  5
19F99
  8
AM_0
 10
132.70330754045369
 20
195.71074333410129
 30
0.0
 40
1.0
 50
90.0
 51
180.0
  0
LINE
  5
19F9A
  8
AM_0
 10
124.2011451088747
 20
216.77067333410119
 30
0.0
 11
125.4811151088747
 21
208.77073333410121
 31
0.0
  0
LINE
  5
19F9B
  8
AM_0
 10
124.2011451088747
 20
215.43068333410119
 30
0.0
 11
125.2103651088748
 21
208.7806533341012
 31
0.0
  0
LINE
  5
19F9C
  8
AM_0
 10
124.2011451088747
 20
215.43074333410129
 30
0.0
 11
125.1266251088748
 21
208.80412333410129
 31
0.0
  0
ARC
  5
19F9D
  8
AM_0
 10
127.4059851088748
 20
211.92998333410119
 30
0.0
 40
1.9992490000000001
 50
190.64310000000111
 51
270.14743000000129
  0
ARC
  5
19F9E
  8
AM_0
 10
127.45731510887479
 20
209.08110333410119
 30
0.0
 40
2.000420099999999
 50
188.92682000000141
 51
269.82270999999599
  0
ARC
  5
19F9F
  8
AM_0
 10
127.1877751088748
 20
209.08073333410121
 30
0.0
 40
2.0
 50
188.62962000000419
 51
269.999989999999
  0
ARC
  5
19FA0
  8
AM_0
 10
127.1073951088747
 20
209.08073333410121
 30
0.0
 40
2.0
 50
187.9504400000034
 51
269.999989999999
  0
LINE
  5
19FA1
  8
AM_0
 10
124.2011451088747
 20
218.1206833341013
 30
0.0
 11
125.4411351088747
 21
211.5606833341013
 31
0.0
  0
LINE
  5
19FA2
  8
AM_0
 10
147.70114510887461
 20
196.71074333410129
 30
0.0
 11
147.70114510887461
 21
199.2107433341011
 31
0.0
  0
LINE
  5
19FA3
  8
AM_0
 10
156.10330754045361
 20
196.71074333410129
 30
0.0
 11
156.10330754045361
 21
179.7107433341011
 31
0.0
  0
CIRCLE
  5
19FA4
  8
AM_0
 10
161.30330754045369
 20
179.7107433341011
 30
0.0
 40
0.75
  0
LINE
  5
19FA5
  8
AM_0
 10
162.30330754045369
 20
196.71074333410129
 30
0.0
 11
156.10330754045361
 21
196.71074333410129
 31
0.0
  0
LINE
  5
19FA6
  8
AM_0
 10
155.10330754045361
 20
196.71074333410129
 30
0.0
 11
156.10330754045361
 21
196.71074333410129
 31
0.0
  0
LINE
  5
19FA7
  8
AM_0
 10
151.20108510887479
 20
199.21071333410109
 30
0.0
 11
150.92042092153571
 21
209.9307133341012
 31
0.0
  0
ARC
  5
19FA8
  8
AM_0
 10
149.5337953075416
 20
205.58073333410121
 30
0.0
 40
1.5
 50
1.4997388638672591
 51
90.0
1001
GENIUS_GENODEF_13
1002
{
1000
HIER
1070
     0
1002
}
1002
{
1000
MANEDIT
1070
     0
1002
}
1002
{
1000
NOSEL
1070
     0
1002
}
1002
{
1000
BEHIND
1070
     0
1002
}
1002
{
1000
REACTOR
1002
}
1001
GENIUS_GENOBJ-N-FIL_13
1002
{
1000
OWNER
1000
GEN
1002
}
  0
LINE
  5
19FA9
  8
AM_0
 10
160.6398651088748
 20
262.21074333410132
 30
0.0
 11
126.56113510887479
 21
262.21074333410132
 31
0.0
  0
LINE
  5
19FAA
  8
AM_0
 10
160.6398651088748
 20
260.21074333410132
 30
0.0
 11
126.56113510887479
 21
260.21074333410132
 31
0.0
  0
LINE
  5
19FAB
  8
AM_0
 10
160.6398651088748
 20
252.21074333410121
 30
0.0
 11
126.56113510887479
 21
252.21074333410121
 31
0.0
  0
LINE
  5
19FAC
  8
AM_0
 10
160.6398651088748
 20
250.21074333410129
 30
0.0
 11
126.56113510887479
 21
250.21074333410129
 31
0.0
  0
LINE
  5
19FAD
  8
AM_0
 10
125.5311651088748
 20
249.8707733341013
 30
0.0
 11
161.87241510887469
 21
249.8707733341013
 31
0.0
  0
LINE
  5
19FAE
  8
AM_0
 10
125.4711651088746
 20
262.4807633341012
 30
0.0
 11
161.91983510887479
 21
262.4807633341012
 31
0.0
  0
LINE
  5
19FAF
  8
AM_0
 10
125.4711651088746
 20
259.94072333410128
 30
0.0
 11
161.91983510887479
 21
259.94072333410128
 31
0.0
  0
LINE
  5
19FB0
  8
AM_0
 10
125.5311651088748
 20
252.53068333410141
 30
0.0
 11
161.85983510887459
 21
252.53068333410141
 31
0.0
  0
POLYLINE
  5
19FB1
  8
AM_0
 66
     1
 10
0.0
 20
0.0
 30
0.0
  0
VERTEX
  5
19FB2
  8
AM_0
 10
127.0793851088747
 20
249.87016333410119
 30
0.0
 42
0.00073721992
  0
VERTEX
  5
19FB3
  8
AM_0
 10
127.12353510887461
 20
249.26775333410129
 30
0.0
 42
0.00074398496
  0
VERTEX
  5
19FB4
  8
AM_0
 10
127.1694651088746
 20
248.6654833341012
 30
0.0
 42
0.00073322625
  0
VERTEX
  5
19FB5
  8
AM_0
 10
127.21719510887461
 20
248.0631533341012
 30
0.0
 42
0.00073594289
  0
VERTEX
  5
19FB6
  8
AM_0
 10
127.26667510887469
 20
247.46116333410109
 30
0.0
 42
0.00074742568
  0
VERTEX
  5
19FB7
  8
AM_0
 10
127.3179451088747
 20
246.8593033341011
 30
0.0
 42
0.00073216749
  0
VERTEX
  5
19FB8
  8
AM_0
 10
127.3710051088746
 20
246.25749333410121
 30
0.0
 42
0.00074184065
  0
VERTEX
  5
19FB9
  8
AM_0
 10
127.4258251088747
 20
245.6559633341013
 30
0.0
 42
0.00072077528
  0
VERTEX
  5
19FBA
  8
AM_0
 10
127.4824051088746
 20
245.05473333410129
 30
0.0
 42
0.00074978179
  0
VERTEX
  5
19FBB
  8
AM_0
 10
127.5407451088747
 20
244.45353333410131
 30
0.0
 42
0.00074288888
  0
VERTEX
  5
19FBC
  8
AM_0
 10
127.6008951088747
 20
243.85251333410119
 30
0.0
 42
0.00072503679
  0
VERTEX
  5
19FBD
  8
AM_0
 10
127.66280510887459
 20
243.2517733341011
 30
0.0
 42
0.00074640584
  0
VERTEX
  5
19FBE
  8
AM_0
 10
127.7264751088746
 20
242.6511733341012
 30
0.0
  0
SEQEND
  5
19FBF
  8
AM_0
  0
ARC
  5
19FC0
  8
AM_0
 10
125.87430510887469
 20
231.16569333410129
 30
0.0
 40
1.675014
 50
89.766498999990276
 51
270.2335099999994
  0
ARC
  5
19FC1
  8
AM_0
 10
126.74576510887481
 20
231.21074333410121
 30
0.0
 40
1.0000138999999999
 50
89.691659999999231
 51
270.30834000000073
  0
POLYLINE
  5
19FC2
  8
AM_0
 66
     1
 10
0.0
 20
0.0
 30
0.0
  0
VERTEX
  5
19FC3
  8
AM_0
 10
128.0620451088748
 20
239.72770333410119
 30
0.0
 42
0.00068900015
  0
VERTEX
  5
19FC4
  8
AM_0
 10
128.13292510887459
 20
239.1529533341012
 30
0.0
 42
0.00070644648
  0
VERTEX
  5
19FC5
  8
AM_0
 10
128.20542510887481
 20
238.57827333410131
 30
0.0
 42
0.00069245587
  0
VERTEX
  5
19FC6
  8
AM_0
 10
128.27951510887459
 20
238.00395333410131
 30
0.0
 42
0.00069587802
  0
VERTEX
  5
19FC7
  8
AM_0
 10
128.3551951088748
 20
237.4298133341012
 30
0.0
 42
0.00068980012
  0
VERTEX
  5
19FC8
  8
AM_0
 10
128.43249510887469
 20
236.8558133341013
 30
0.0
 42
0.00072079193
  0
VERTEX
  5
19FC9
  8
AM_0
 10
128.51138510887469
 20
236.28203333410141
 30
0.0
 42
0.00071003147
  0
VERTEX
  5
19FCA
  8
AM_0
 10
128.59192510887459
 20
235.70855333410111
 30
0.0
 42
0.00072658712
  0
VERTEX
  5
19FCB
  8
AM_0
 10
128.67408510887481
 20
235.1354633341013
 30
0.0
 42
0.00069571059
  0
VERTEX
  5
19FCC
  8
AM_0
 10
128.75790510887461
 20
234.56242333410131
 30
0.0
 42
0.0007126617
  0
VERTEX
  5
19FCD
  8
AM_0
 10
128.8433351088747
 20
233.98966333410121
 30
0.0
 42
0.00071614574
  0
VERTEX
  5
19FCE
  8
AM_0
 10
128.93036510887461
 20
233.41731333410129
 30
0.0
 42
0.00072290803
  0
VERTEX
  5
19FCF
  8
AM_0
 10
129.0190751088746
 20
232.84501333410131
 30
0.0
  0
SEQEND
  5
19FD0
  8
AM_0
  0
ARC
  5
19FD1
  8
AM_0
 10
125.6611651088747
 20
241.18571333410119
 30
0.0
 40
1.465004
 50
90.00000299999769
 51
270.0
  0
ARC
  5
19FD2
  8
AM_0
 10
126.74576510887481
 20
241.21074333410129
 30
0.0
 40
1.0000138999999999
 50
89.691659999999231
 51
270.30834000000073
  0
POLYLINE
  5
19FD3
  8
AM_0
 66
     1
 10
0.0
 20
0.0
 30
0.0
  0
VERTEX
  5
19FD4
  8
AM_0
 10
126.6051951088748
 20
259.94035333410108
 30
0.0
 42
0.00076695235
  0
VERTEX
  5
19FD5
  8
AM_0
 10
126.6199951088747
 20
259.32259333410133
 30
0.0
 42
0.00073263043
  0
VERTEX
  5
19FD6
  8
AM_0
 10
126.6366351088747
 20
258.70499333410118
 30
0.0
 42
0.00076525988
  0
VERTEX
  5
19FD7
  8
AM_0
 10
126.6551251088747
 20
258.08732333410109
 30
0.0
 42
0.00075144488
  0
VERTEX
  5
19FD8
  8
AM_0
 10
126.6754951088746
 20
257.46972333410127
 30
0.0
 42
0.00076035096
  0
VERTEX
  5
19FD9
  8
AM_0
 10
126.6977351088746
 20
256.85229333410132
 30
0.0
 42
0.00075543154
  0
VERTEX
  5
19FDA
  8
AM_0
 10
126.7218351088747
 20
256.23491333410118
 30
0.0
 42
0.0007577325
  0
VERTEX
  5
19FDB
  8
AM_0
 10
126.7478151088746
 20
255.61751333410129
 30
0.0
 42
0.00076034585
  0
VERTEX
  5
19FDC
  8
AM_0
 10
126.7756651088748
 20
255.0001233341012
 30
0.0
 42
0.00074823143
  0
VERTEX
  5
19FDD
  8
AM_0
 10
126.80539510887481
 20
254.38273333410129
 30
0.0
 42
0.00074896605
  0
VERTEX
  5
19FDE
  8
AM_0
 10
126.8369551088747
 20
253.7656033341012
 30
0.0
 42
0.00076039763
  0
VERTEX
  5
19FDF
  8
AM_0
 10
126.8703751088746
 20
253.1485733341014
 30
0.0
 42
0.00075616127
  0
VERTEX
  5
19FE0
  8
AM_0
 10
126.9056751088746
 20
252.5315433341012
 30
0.0
  0
SEQEND
  5
19FE1
  8
AM_0
  0
ARC
  5
19FE2
  8
AM_0
 10
125.5311651088748
 20
251.2007333341013
 30
0.0
 40
1.3300049999999981
 50
90.00000299999769
 51
270.0
  0
ARC
  5
19FE3
  8
AM_0
 10
126.74576510887481
 20
251.21074333410129
 30
0.0
 40
1.0000138999999999
 50
89.691659999999231
 51
270.30834000000073
  0
POLYLINE
  5
19FE4
  8
AM_0
 66
     1
 10
0.0
 20
0.0
 30
0.0
  0
VERTEX
  5
19FE5
  8
AM_0
 10
126.56113510887479
 20
266.21074333410132
 30
0.0
 42
0.00039106589
  0
VERTEX
  5
19FE6
  8
AM_0
 10
126.5587751088746
 20
265.89960333410119
 30
0.0
 42
0.00035488584
  0
VERTEX
  5
19FE7
  8
AM_0
 10
126.5568851088746
 20
265.58849333410109
 30
0.0
 42
0.00039705232
  0
VERTEX
  5
19FE8
  8
AM_0
 10
126.5554551088746
 20
265.2773933341013
 30
0.0
 42
0.0003876649
  0
VERTEX
  5
19FE9
  8
AM_0
 10
126.5545251088747
 20
264.96625333410111
 30
0.0
 42
0.00040613779
  0
VERTEX
  5
19FEA
  8
AM_0
 10
126.5540751088747
 20
264.6551433341013
 30
0.0
 42
0.00035571855
  0
VERTEX
  5
19FEB
  8
AM_0
 10
126.5541151088748
 20
264.34404333410117
 30
0.0
 42
0.00038547358
  0
VERTEX
  5
19FEC
  8
AM_0
 10
126.5546051088747
 20
264.03290333410121
 30
0.0
 42
0.000355015
  0
VERTEX
  5
19FED
  8
AM_0
 10
126.5555651088748
 20
263.72180333410131
 30
0.0
 42
0.00040118616
  0
VERTEX
  5
19FEE
  8
AM_0
 10
126.5569851088746
 20
263.41057333410129
 30
0.0
 42
0.00038319867
  0
VERTEX
  5
19FEF
  8
AM_0
 10
126.55889510887479
 20
263.09943333410132
 30
0.0
 42
0.00035656356
  0
VERTEX
  5
19FF0
  8
AM_0
 10
126.5612751088747
 20
262.7882033341013
 30
0.0
 42
0.00040140992
  0
VERTEX
  5
19FF1
  8
AM_0
 10
126.5641251088748
 20
262.47709333410108
 30
0.0
  0
SEQEND
  5
19FF2
  8
AM_0
  0
ARC
  5
19FF3
  8
AM_0
 10
125.4653051088746
 20
261.21074333410132
 30
0.0
 40
1.2700129999999981
 50
89.736616999995078
 51
270.2633699999991
  0
ARC
  5
19FF4
  8
AM_0
 10
126.74576510887481
 20
261.21074333410132
 30
0.0
 40
1.0000138999999999
 50
89.691659999999231
 51
270.30834000000073
  0
ARC
  5
19FF5
  8
AM_0
 10
160.6398651088748
 20
251.21074333410129
 30
0.0
 40
1.000005699999998
 50
269.999989999999
 51
90.00000299999769
  0
ARC
  5
19FF6
  8
AM_0
 10
161.86612510887471
 20
251.2007333341013
 30
0.0
 40
1.3300148000000001
 50
269.7294199999987
 51
90.270567000000995
  0
ARC
  5
19FF7
  8
AM_0
 10
160.6398651088748
 20
261.21074333410132
 30
0.0
 40
1.000005699999998
 50
269.999989999999
 51
90.00000299999769
  0
ARC
  5
19FF8
  8
AM_0
 10
161.92807510887471
 20
261.21074333410132
 30
0.0
 40
1.2700266
 50
269.62931999999989
 51
90.370670000011231
  0
LINE
  5
19FF9
  8
AM_0
 10
190.41336967688471
 20
187.71074333410129
 30
0.0
 11
188.91336967688471
 21
187.71074333410129
 31
0.0
  0
LINE
  5
19FFA
  8
AM_0
 10
190.41336967688471
 20
191.71074333410121
 30
0.0
 11
188.91336967688471
 21
191.71074333410121
 31
0.0
  0
LINE
  5
19FFB
  8
AM_0
 10
179.80330754045551
 20
187.71074333410129
 30
0.0
 11
177.80330754045281
 21
187.71074333410129
 31
0.0
  0
LINE
  5
19FFC
  8
AM_0
 10
179.10330754045251
 20
191.71074333410121
 30
0.0
 11
177.80330754045281
 21
191.71074333410121
 31
0.0
  0
LINE
  5
19FFD
  8
AM_0
 10
171.8999534949746
 20
187.71074333410129
 30
0.0
 11
170.3999534949746
 21
187.71074333410129
 31
0.0
  0
LINE
  5
19FFE
  8
AM_0
 10
171.8999534949746
 20
191.71074333410121
 30
0.0
 11
170.3999534949746
 21
191.71074333410121
 31
0.0
  0
LINE
  5
19FFF
  8
AM_0
 10
166.8999534949746
 20
191.71074333410121
 30
0.0
 11
166.8999534949746
 21
189.6667192115072
 31
0.0
  0
LINE
  5
1A000
  8
AM_0
 10
168.19995349497461
 20
191.7107433341024
 30
0.0
 11
166.8999534949746
 21
191.71074333410121
 31
0.0
  0
LINE
  5
1A001
  8
AM_0
 10
168.19995349497461
 20
187.71074333410129
 30
0.0
 11
166.19995349497461
 21
187.71074333410129
 31
0.0
  0
LINE
  5
1A002
  8
AM_0
 10
166.8999534949746
 20
189.6667192115072
 30
0.0
 11
166.19995349497461
 21
188.9993671549033
 31
0.0
  0
LINE
  5
1A003
  8
AM_0
 10
175.59995349497461
 20
187.71074333410129
 30
0.0
 11
174.09995349497461
 21
187.71074333410129
 31
0.0
  0
LINE
  5
1A004
  8
AM_0
 10
175.59995349497461
 20
191.71074333410121
 30
0.0
 11
174.09995349497461
 21
191.71074333410121
 31
0.0
  0
LINE
  5
1A005
  8
AM_0
 10
183.00666158592961
 20
176.02269761701029
 30
0.0
 11
183.00666158592961
 21
191.71074333410121
 31
0.0
  0
LINE
  5
1A006
  8
AM_0
 10
185.21001563140771
 20
191.71074333410121
 30
0.0
 11
185.21001563140771
 21
176.39810525254421
 31
0.0
  0
LINE
  5
1A007
  8
AM_0
 10
186.71001563140771
 20
176.6536753704992
 30
0.0
 11
186.71001563140771
 21
191.71074333410121
 31
0.0
  0
LINE
  5
1A008
  8
AM_0
 10
188.91336967688471
 20
191.71074333410121
 30
0.0
 11
188.91336967688471
 21
177.02908300603221
 31
0.0
  0
LINE
  5
1A009
  8
AM_0
 10
183.00666158592961
 20
176.02269761701029
 30
0.0
 11
185.21001563140771
 21
176.39810525254421
 31
0.0
  0
LINE
  5
1A00A
  8
AM_0
 10
186.71001563140771
 20
176.6536753704992
 30
0.0
 11
188.91336967688471
 21
177.02908300603221
 31
0.0
  0
LINE
  5
1A00B
  8
AM_0
 10
183.00666158592961
 20
187.71074333410129
 30
0.0
 11
181.50666158592961
 21
187.71074333410129
 31
0.0
  0
LINE
  5
1A00C
  8
AM_0
 10
183.00666158592961
 20
191.71074333410121
 30
0.0
 11
181.50666158592961
 21
191.71074333410121
 31
0.0
  0
LINE
  5
1A00D
  8
AM_0
 10
179.80330754045551
 20
188.9993671549033
 30
0.0
 11
179.10330754045251
 21
189.6667192115072
 31
0.0
  0
LINE
  5
1A00E
  8
AM_0
 10
179.10330754045251
 20
189.6667192115072
 30
0.0
 11
179.10330754045251
 21
191.71074333410121
 31
0.0
  0
LINE
  5
1A00F
  8
AM_0
 10
186.71001563140771
 20
187.71074333410129
 30
0.0
 11
185.21001563140771
 21
187.71074333410129
 31
0.0
  0
LINE
  5
1A010
  8
AM_0
 10
186.71001563140771
 20
191.71074333410121
 30
0.0
 11
185.21001563140771
 21
191.71074333410121
 31
0.0
  0
LINE
  5
1A011
  8
AM_0
 10
207.30330754045369
 20
196.71074333410129
 30
0.0
 11
200.1033075404537
 21
196.71074333410129
 31
0.0
  0
LINE
  5
1A012
  8
AM_0
 10
194.11672372236171
 20
177.9156308774771
 30
0.0
 11
203.9784338063007
 21
179.59586981707309
 31
0.0
  0
LINE
  5
1A013
  8
AM_0
 10
192.61672372236171
 20
191.71074333410121
 30
0.0
 11
192.61672372236171
 21
177.66006075952109
 31
0.0
  0
LINE
  5
1A014
  8
AM_0
 10
190.41336967688471
 20
177.28465312398831
 30
0.0
 11
190.41336967688471
 21
191.71074333410121
 31
0.0
  0
LINE
  5
1A015
  8
AM_0
 10
194.11672372236171
 20
177.9156308774771
 30
0.0
 11
194.11672372236171
 21
191.71074333410121
 31
0.0
  0
CIRCLE
  5
1A016
  8
AM_0
 10
195.80330754045369
 20
179.7107433341011
 30
0.0
 40
0.75
  0
LINE
  5
1A017
  8
AM_0
 10
190.41336967688471
 20
177.28465312398831
 30
0.0
 11
192.61672372236171
 21
177.66006075952109
 31
0.0
  0
LINE
  5
1A018
  8
AM_0
 10
194.11672372236171
 20
187.71074333410129
 30
0.0
 11
192.61672372236171
 21
187.71074333410129
 31
0.0
  0
LINE
  5
1A019
  8
AM_0
 10
194.11672372236171
 20
191.71074333410121
 30
0.0
 11
192.61672372236171
 21
191.71074333410121
 31
0.0
  0
LINE
  5
1A01A
  8
AM_0
 10
203.9784338063007
 20
179.59586981707309
 30
0.0
 11
203.9784338063007
 21
196.71074333410129
 31
0.0
  0
LINE
  5
1A01B
  8
AM_0
 10
211.2011451088747
 20
199.21068333410119
 30
0.0
 11
211.48188423193781
 21
209.9307133341012
 31
0.0
  0
ARC
  5
1A01C
  8
AM_0
 10
212.7802257946598
 20
202.21074333410121
 30
0.0
 40
1.5
 50
90.0
 51
178.4998650936468
1001
GENIUS_GENODEF_13
1002
{
1000
HIER
1070
     0
1002
}
1002
{
1000
MANEDIT
1070
     0
1002
}
1002
{
1000
NOSEL
1070
     0
1002
}
1002
{
1000
BEHIND
1070
     0
1002
}
1002
{
1000
REACTOR
1002
}
1001
GENIUS_GENOBJ-N-FIL_13
1002
{
1000
OWNER
1000
GEN
1002
}
  0
ARC
  5
1A01D
  8
AM_0
 10
193.2011451088747
 20
233.71074333410129
 30
0.0
 40
1.5
 50
269.999989999999
 51
0.0000006832495047
  0
ARC
  5
1A01E
  8
AM_0
 10
193.2011451088747
 20
238.71074333410129
 30
0.0
 40
1.02
 50
0.0
 51
90.00000299999769
  0
ARC
  5
1A01F
  8
AM_0
 10
193.2011451088747
 20
238.71074333410129
 30
0.0
 40
1.5
 50
0.0
 51
90.00000299999769
  0
ARC
  5
1A020
  8
AM_0
 10
193.2211651088746
 20
233.85075333410111
 30
0.0
 40
1.0
 50
269.999989999999
 51
0.0000006832495047
  0
LINE
  5
1A021
  8
AM_0
 10
194.7011451088747
 20
238.71074333410129
 30
0.0
 11
194.7011451088747
 21
233.71074333410129
 31
0.0
  0
LINE
  5
1A022
  8
AM_0
 10
194.2211651088746
 20
238.71074333410129
 30
0.0
 11
194.2211651088746
 21
233.85075333410111
 31
0.0
  0
CIRCLE
  5
1A023
  8
AM_0
 10
199.7011451088747
 20
237.71074333410129
 30
0.0
 40
1.149999999999999
  0
CIRCLE
  5
1A024
  8
AM_0
 10
199.7011451088747
 20
237.71074333410129
 30
0.0
 40
1.1000000000000001
  0
ARC
  5
1A025
  8
AM_0
 10
211.2011451088747
 20
233.71074333410129
 30
0.0
 40
1.5
 50
179.999989999999
 51
270.0
  0
CIRCLE
  5
1A026
  8
AM_0
 10
204.7011451088747
 20
237.71074333410129
 30
0.0
 40
1.0
  0
LINE
  5
1A027
  8
AM_0
 10
210.1811251088748
 20
238.71074333410129
 30
0.0
 11
210.1811251088748
 21
233.85075333410111
 31
0.0
  0
LINE
  5
1A028
  8
AM_0
 10
209.7011451088747
 20
238.71074333410129
 30
0.0
 11
209.7011451088747
 21
233.71074333410129
 31
0.0
  0
ARC
  5
1A029
  8
AM_0
 10
211.1811251088748
 20
233.85075333410111
 30
0.0
 40
1.0
 50
179.999989999999
 51
270.0
  0
ARC
  5
1A02A
  8
AM_0
 10
211.2011451088747
 20
238.71074333410129
 30
0.0
 40
1.5
 50
90.00000299999769
 51
180.00001000000091
  0
ARC
  5
1A02B
  8
AM_0
 10
211.2011451088747
 20
238.71074333410129
 30
0.0
 40
1.02
 50
90.00000299999769
 51
180.00001000000091
  0
ARC
  5
1A02C
  8
AM_0
 10
218.4784338063007
 20
176.21074333410121
 30
0.0
 40
0.5
 50
270.0
 51
0.0
  0
LINE
  5
1A02D
  8
AM_0
 10
230.4068351088747
 20
226.8918033341011
 30
0.0
 11
226.26108510887479
 21
211.41069333410121
 31
0.0
  0
LINE
  5
1A02E
  8
AM_0
 10
232.2011451088747
 20
210.21074333410129
 30
0.0
 11
240.2011451088747
 21
210.21074333410129
 31
0.0
  0
LINE
  5
1A02F
  8
AM_0
 10
232.2011451088747
 20
220.21074333410129
 30
0.0
 11
240.2011451088747
 21
220.21074333410129
 31
0.0
  0
LINE
  5
1A030
  8
AM_0
 10
214.7011451088747
 20
196.71074333410129
 30
0.0
 11
214.7011451088747
 21
199.2107433341011
 31
0.0
  0
LINE
  5
1A031
  8
AM_0
 10
218.9784338063007
 20
179.7107433341011
 30
0.0
 11
218.9784338063007
 21
195.71074333410129
 31
0.0
  0
LINE
  5
1A032
  8
AM_0
 10
218.9784338063007
 20
179.7107433341011
 30
0.0
 11
218.9784338063007
 21
176.21074333410121
 31
0.0
  0
ARC
  5
1A033
  8
AM_0
 10
217.9784338063007
 20
195.71074333410129
 30
0.0
 40
1.0
 50
0.0
 51
90.0
  0
ARC
  5
1A034
  8
AM_0
 10
224.3263251088747
 20
211.9354733341012
 30
0.0
 40
2.0047290000000002
 50
270.13832000001082
 51
344.826500000002
  0
LINE
  5
1A035
  8
AM_0
 10
231.2011451088747
 20
213.21071333410109
 30
0.0
 11
225.47534510887479
 21
204.39375333410121
 31
0.0
  0
ARC
  5
1A036
  8
AM_0
 10
224.2173251088748
 20
205.21074333410129
 30
0.0
 40
1.5
 50
269.999989999999
 51
326.99999999999852
  0
LINE
  5
1A037
  8
AM_0
 10
226.74319510887469
 20
213.21074333410129
 30
0.0
 11
232.2011451088747
 21
213.21074333410129
 31
0.0
  0
LINE
  5
1A038
  8
AM_0
 10
232.2011451088747
 20
234.27080333410129
 30
0.0
 11
240.2011451088747
 21
234.27080333410129
 31
0.0
  0
ARC
  5
1A039
  8
AM_0
 10
225.54111510887469
 20
241.21074333410129
 30
0.0
 40
1.0000255999999981
 50
269.58947000000973
 51
90.410530999997775
  0
ARC
  5
1A03A
  8
AM_0
 10
225.5411751088748
 20
231.21074333410121
 30
0.0
 40
1.0
 50
269.999989999999
 51
90.00000299999769
  0
ARC
  5
1A03B
  8
AM_0
 10
229.02115510887461
 20
231.16569333410129
 30
0.0
 40
1.6750020000000001
 50
269.999989999999
 51
90.00000299999769
  0
ARC
  5
1A03C
  8
AM_0
 10
231.8543451088747
 20
226.48796333410121
 30
0.0
 40
1.5027759999999999
 50
90.122413000001615
 51
165.24357000000049
  0
ARC
  5
1A03D
  8
AM_0
 10
229.24112510887471
 20
241.1807133341012
 30
0.0
 40
1.460011199999999
 50
269.77524999999008
 51
90.224749999996845
  0
LINE
  5
1A03E
  8
AM_0
 10
116.2011451088747
 20
319.21074333410132
 30
0.0
 11
124.2011451088747
 21
319.21074333410132
 31
0.0
  0
LINE
  5
1A03F
  8
AM_0
 10
116.9011551088747
 20
309.40068333410119
 30
0.0
 11
123.1311351088748
 21
309.40068333410119
 31
0.0
  0
ARC
  5
1A040
  8
AM_0
 10
70.699715008874705
 20
321.21074333410132
 30
0.0
 40
5.0
 50
89.999988999991061
 51
180.0
  0
ARC
  5
1A041
  8
AM_0
 10
69.699715008874719
 20
322.21074333410132
 30
0.0
 40
9.0
 50
89.999988999991061
 51
179.99997999999789
  0
LINE
  5
1A042
  8
AM_0
 10
68.201145108874698
 20
318.96074333410098
 30
0.0
 11
116.2011451088747
 21
318.96074333410098
 31
0.0
  0
LINE
  5
1A043
  8
AM_0
 10
68.701145108874698
 20
310.10173333410108
 30
0.0
 11
111.2011451088747
 21
310.10173333410108
 31
0.0
  0
LINE
  5
1A044
  8
AM_0
 10
68.701145108874698
 20
299.85173333410108
 30
0.0
 11
111.2011451088747
 21
299.85173333410108
 31
0.0
  0
LINE
  5
1A045
  8
AM_0
 10
66.201145108874698
 20
309.46367333410109
 30
0.0
 11
66.201145108874698
 21
316.96074333410098
 31
0.0
  0
LINE
  5
1A046
  8
AM_0
 10
65.699715008874705
 20
309.25426223839378
 30
0.0
 11
65.699715008874705
 21
321.21074333410121
 31
0.0
  0
LINE
  5
1A047
  8
AM_0
 10
60.699715008874698
 20
271.21074333410132
 30
0.0
 11
59.701175108874722
 21
271.21074333410132
 31
0.0
  0
LINE
  5
1A048
  8
AM_0
 10
66.201145108874698
 20
271.21074333410132
 30
0.0
 11
65.699715008874705
 21
271.21074333410132
 31
0.0
  0
ARC
  5
1A049
  8
AM_0
 10
67.101175108874713
 20
303.60173333410108
 30
0.0
 40
3.0
 50
180.000020000002
 51
270.00001099999588
  0
ARC
  5
1A04A
  8
AM_0
 10
67.101175108874713
 20
306.6017333341012
 30
0.0
 40
3.0
 50
90.000049999992015
 51
180.000020000002
  0
LINE
  5
1A04B
  8
AM_0
 10
67.401155108874718
 20
309.70171333410121
 30
0.0
 11
68.701145108874698
 21
309.70171333410121
 31
0.0
  0
LINE
  5
1A04C
  8
AM_0
 10
67.101175108874713
 20
309.60173333410108
 30
0.0
 11
67.401155108874718
 21
309.60173333410108
 31
0.0
  0
LINE
  5
1A04D
  8
AM_0
 10
67.401155108874718
 20
300.50176333410121
 30
0.0
 11
68.701145108874698
 21
300.50176333410121
 31
0.0
  0
LINE
  5
1A04E
  8
AM_0
 10
67.101175108874713
 20
300.6017333341012
 30
0.0
 11
67.401155108874718
 21
300.6017333341012
 31
0.0
  0
LINE
  5
1A04F
  8
AM_0
 10
67.401155108874718
 20
300.50176333410121
 30
0.0
 11
67.401155108874718
 21
309.70171333410121
 31
0.0
  0
LINE
  5
1A050
  8
AM_0
 10
64.101175108874713
 20
303.60173333410108
 30
0.0
 11
64.101175108874713
 21
306.6017333341012
 31
0.0
  0
ARC
  5
1A051
  8
AM_0
 10
68.201145108874698
 20
316.96074333410098
 30
0.0
 40
2.0
 50
90.000049999992015
 51
180.000020000002
  0
LINE
  5
1A052
  8
AM_0
 10
111.2011451088747
 20
310.10173333410108
 30
0.0
 11
111.2011451088747
 21
318.96074333410098
 31
0.0
  0
LINE
  5
1A053
  8
AM_0
 10
91.201145108874698
 20
324.96074333410098
 30
0.0
 11
116.2011451088747
 21
324.96074333410098
 31
0.0
  0
LINE
  5
1A054
  8
AM_0
 10
69.699715008874719
 20
331.21074333410121
 30
0.0
 11
107.2011451088747
 21
331.21074333410121
 31
0.0
  0
LINE
  5
1A055
  8
AM_0
 10
70.699715008874705
 20
326.21074333410132
 30
0.0
 11
94.201145108874698
 21
326.21074333410132
 31
0.0
  0
LINE
  5
1A056
  8
AM_0
 10
91.201145108874698
 20
324.96074333410098
 30
0.0
 11
91.201145108874698
 21
318.96074333410098
 31
0.0
  0
LINE
  5
1A057
  8
AM_0
 10
104.2011451088747
 20
326.21074333410132
 30
0.0
 11
107.2011451088747
 21
326.21074333410132
 31
0.0
  0
LINE
  5
1A058
  8
AM_0
 10
94.201145108874698
 20
324.96074333410121
 30
0.0
 11
94.201145108874698
 21
331.21074333410121
 31
0.0
  0
LINE
  5
1A059
  8
AM_0
 10
104.2011451088747
 20
324.96074333410121
 30
0.0
 11
104.2011451088747
 21
331.21074333410121
 31
0.0
  0
LINE
  5
1A05A
  8
AM_0
 10
107.2011451088747
 20
326.21074333410132
 30
0.0
 11
107.2011451088747
 21
331.21074333410121
 31
0.0
  0
LINE
  5
1A05B
  8
AM_0
 10
225.5483151088747
 20
292.21074333410132
 30
0.0
 11
211.2011451088747
 21
292.21074333410132
 31
0.0
  0
LINE
  5
1A05C
  8
AM_0
 10
211.1811251088748
 20
299.57072333410122
 30
0.0
 11
229.02115510887461
 21
299.57072333410122
 31
0.0
  0
LINE
  5
1A05D
  8
AM_0
 10
211.2011451088747
 20
292.7007333341013
 30
0.0
 11
229.2468051088747
 21
292.7007333341013
 31
0.0
  0
LINE
  5
1A05E
  8
AM_0
 10
127.4111651088747
 20
322.49077333410122
 30
0.0
 11
224.33115510887461
 21
322.49077333410122
 31
0.0
  0
LINE
  5
1A05F
  8
AM_0
 10
127.4511451088747
 20
325.34074333410121
 30
0.0
 11
224.33115510887461
 21
325.34074333410121
 31
0.0
  0
LINE
  5
1A060
  8
AM_0
 10
127.4711651088746
 20
327.19072333410128
 30
0.0
 11
224.33115510887461
 21
327.19072333410128
 31
0.0
  0
LINE
  5
1A061
  8
AM_0
 10
127.4911251088747
 20
328.10075333410123
 30
0.0
 11
224.33121510887489
 21
328.10075333410123
 31
0.0
  0
LINE
  5
1A062
  8
AM_0
 10
225.5411751088748
 20
302.21074333410132
 30
0.0
 11
126.56113510887479
 21
302.21074333410132
 31
0.0
  0
LINE
  5
1A063
  8
AM_0
 10
225.5411751088748
 20
300.21074333410132
 30
0.0
 11
126.56113510887479
 21
300.21074333410132
 31
0.0
  0
LINE
  5
1A064
  8
AM_0
 10
225.5339751088747
 20
290.21074333410132
 30
0.0
 11
126.56113510887479
 21
290.21074333410132
 31
0.0
  0
LINE
  5
1A065
  8
AM_0
 10
125.8811351088748
 20
302.93071333410143
 30
0.0
 11
229.02115510887461
 21
302.93071333410143
 31
0.0
  0
LINE
  5
1A066
  8
AM_0
 10
125.6611651088747
 20
289.77080333410129
 30
0.0
 11
229.2353851088746
 21
289.77080333410129
 31
0.0
  0
LINE
  5
1A067
  8
AM_0
 10
193.2011451088747
 20
292.21074333410132
 30
0.0
 11
126.56113510887479
 21
292.21074333410132
 31
0.0
  0
LINE
  5
1A068
  8
AM_0
 10
125.8811351088748
 20
299.58073333410118
 30
0.0
 11
193.2211651088746
 21
299.58073333410118
 31
0.0
  0
LINE
  5
1A069
  8
AM_0
 10
125.6611651088747
 20
292.7007333341013
 30
0.0
 11
193.2011451088747
 21
292.7007333341013
 31
0.0
  0
LINE
  5
1A06A
  8
AM_0
 10
129.56113510887479
 20
302.86073333410121
 30
0.0
 11
124.2011451088747
 21
314.31071333410119
 31
0.0
  0
LINE
  5
1A06B
  8
AM_0
 10
160.6398651088748
 20
272.21074333410132
 30
0.0
 11
126.56113510887479
 21
272.21074333410132
 31
0.0
  0
LINE
  5
1A06C
  8
AM_0
 10
160.6398651088748
 20
282.21074333410132
 30
0.0
 11
126.56113510887479
 21
282.21074333410132
 31
0.0
  0
LINE
  5
1A06D
  8
AM_0
 10
160.6398651088748
 20
280.21074333410132
 30
0.0
 11
126.56113510887479
 21
280.21074333410132
 31
0.0
  0
LINE
  5
1A06E
  8
AM_0
 10
160.6398651088748
 20
270.21074333410132
 30
0.0
 11
126.56113510887479
 21
270.21074333410132
 31
0.0
  0
LINE
  5
1A06F
  8
AM_0
 10
125.4711651088746
 20
272.4807633341012
 30
0.0
 11
161.91983510887479
 21
272.4807633341012
 31
0.0
  0
LINE
  5
1A070
  8
AM_0
 10
125.4711651088746
 20
269.9507333341013
 30
0.0
 11
161.91983510887479
 21
269.9507333341013
 31
0.0
  0
LINE
  5
1A071
  8
AM_0
 10
125.5311651088748
 20
282.55070333410129
 30
0.0
 11
161.85983510887459
 21
282.55070333410129
 31
0.0
  0
LINE
  5
1A072
  8
AM_0
 10
125.5311651088748
 20
279.8907933341012
 30
0.0
 11
161.85983510887459
 21
279.8907933341012
 31
0.0
  0
POLYLINE
  5
1A073
  8
AM_0
 66
     1
 10
0.0
 20
0.0
 30
0.0
  0
VERTEX
  5
1A074
  8
AM_0
 10
127.0793851088747
 20
282.55131333410128
 30
0.0
 42
-0.0007337051
  0
VERTEX
  5
1A075
  8
AM_0
 10
127.1235251088747
 20
283.15373333410128
 30
0.0
 42
-0.00075211323
  0
VERTEX
  5
1A076
  8
AM_0
 10
127.1694651088746
 20
283.75612333410129
 30
0.0
 42
-0.0007297491
  0
VERTEX
  5
1A077
  8
AM_0
 10
127.21719510887461
 20
284.35832333410133
 30
0.0
 42
-0.00073593041
  0
VERTEX
  5
1A078
  8
AM_0
 10
127.26667510887469
 20
284.96031333410122
 30
0.0
 42
-0.00074742739
  0
VERTEX
  5
1A079
  8
AM_0
 10
127.3179451088747
 20
285.56218333410118
 30
0.0
 42
-0.00073217363
  0
VERTEX
  5
1A07A
  8
AM_0
 10
127.3710051088746
 20
286.1639833341012
 30
0.0
 42
-0.00073754168
  0
VERTEX
  5
1A07B
  8
AM_0
 10
127.4258251088747
 20
286.7655233341012
 30
0.0
 42
-0.00073075073
  0
VERTEX
  5
1A07C
  8
AM_0
 10
127.4824051088746
 20
287.3668833341012
 30
0.0
 42
-0.00074550816
  0
VERTEX
  5
1A07D
  8
AM_0
 10
127.5407451088747
 20
287.96794333410128
 30
0.0
 42
-0.00074288416
  0
VERTEX
  5
1A07E
  8
AM_0
 10
127.6008951088747
 20
288.5689633341014
 30
0.0
 42
-0.00072504001
  0
VERTEX
  5
1A07F
  8
AM_0
 10
127.66280510887459
 20
289.16971333410117
 30
0.0
 42
-0.00074640667
  0
VERTEX
  5
1A080
  8
AM_0
 10
127.7264751088746
 20
289.7703133341011
 30
0.0
  0
SEQEND
  5
1A081
  8
AM_0
  0
POLYLINE
  5
1A082
  8
AM_0
 66
     1
 10
0.0
 20
0.0
 30
0.0
  0
VERTEX
  5
1A083
  8
AM_0
 10
126.6051951088748
 20
272.4811233341012
 30
0.0
 42
-0.00076691992
  0
VERTEX
  5
1A084
  8
AM_0
 10
126.6199951088747
 20
273.09889333410132
 30
0.0
 42
-0.00073262792
  0
VERTEX
  5
1A085
  8
AM_0
 10
126.6366351088747
 20
273.71648333410133
 30
0.0
 42
-0.00076529537
  0
VERTEX
  5
1A086
  8
AM_0
 10
126.6551251088747
 20
274.33415333410119
 30
0.0
 42
-0.00075141097
  0
VERTEX
  5
1A087
  8
AM_0
 10
126.6754951088746
 20
274.95175333410123
 30
0.0
 42
-0.00075841687
  0
VERTEX
  5
1A088
  8
AM_0
 10
126.69772510887471
 20
275.56918333410118
 30
0.0
 42
-0.00075711788
  0
VERTEX
  5
1A089
  8
AM_0
 10
126.7218351088747
 20
276.18669333410128
 30
0.0
 42
-0.00075976003
  0
VERTEX
  5
1A08A
  8
AM_0
 10
126.74782510887459
 20
276.80408333410122
 30
0.0
 42
-0.00075797311
  0
VERTEX
  5
1A08B
  8
AM_0
 10
126.7756651088748
 20
277.42136333410127
 30
0.0
 42
-0.0007482613
  0
VERTEX
  5
1A08C
  8
AM_0
 10
126.80539510887481
 20
278.0387433341013
 30
0.0
 42
-0.00074893561
  0
VERTEX
  5
1A08D
  8
AM_0
 10
126.8369551088747
 20
278.65587333410139
 30
0.0
 42
-0.00076039839
  0
VERTEX
  5
1A08E
  8
AM_0
 10
126.8703751088746
 20
279.27290333410122
 30
0.0
 42
-0.00075618786
  0
VERTEX
  5
1A08F
  8
AM_0
 10
126.9056751088746
 20
279.8899433341013
 30
0.0
  0
SEQEND
  5
1A090
  8
AM_0
  0
ARC
  5
1A091
  8
AM_0
 10
126.74576510887481
 20
271.21074333410132
 30
0.0
 40
1.0000138999999999
 50
89.691659999999231
 51
270.30834000000073
  0
ARC
  5
1A092
  8
AM_0
 10
125.4653051088746
 20
271.21574333410109
 30
0.0
 40
1.2650129999999991
 50
89.735579000008244
 51
270.26441000000898
  0
ARC
  5
1A093
  8
AM_0
 10
125.5311651088748
 20
281.22075333410129
 30
0.0
 40
1.3300049999999981
 50
90.00000299999769
 51
270.0
  0
ARC
  5
1A094
  8
AM_0
 10
126.74576510887481
 20
281.21074333410121
 30
0.0
 40
1.0000138999999999
 50
89.691659999999231
 51
270.30834000000073
  0
ARC
  5
1A095
  8
AM_0
 10
125.8737551088747
 20
301.25578333410118
 30
0.0
 40
1.6750160000000001
 50
89.746145000004475
 51
270.25387000000092
  0
POLYLINE
  5
1A096
  8
AM_0
 66
     1
 10
0.0
 20
0.0
 30
0.0
  0
VERTEX
  5
1A097
  8
AM_0
 10
128.0620451088748
 20
292.69377333410108
 30
0.0
 42
-0.00068898288
  0
VERTEX
  5
1A098
  8
AM_0
 10
128.13292510887459
 20
293.26852333410108
 30
0.0
 42
-0.00070644354
  0
VERTEX
  5
1A099
  8
AM_0
 10
128.20542510887481
 20
293.84321333410128
 30
0.0
 42
-0.00069248071
  0
VERTEX
  5
1A09A
  8
AM_0
 10
128.27951510887459
 20
294.4175233341013
 30
0.0
 42
-0.00069585665
  0
VERTEX
  5
1A09B
  8
AM_0
 10
128.3551951088748
 20
294.99166333410119
 30
0.0
 42
-0.00068980191
  0
VERTEX
  5
1A09C
  8
AM_0
 10
128.43249510887469
 20
295.56566333410132
 30
0.0
 42
-0.00072080104
  0
VERTEX
  5
1A09D
  8
AM_0
 10
128.51138510887469
 20
296.13945333410118
 30
0.0
 42
-0.00071002307
  0
VERTEX
  5
1A09E
  8
AM_0
 10
128.59192510887459
 20
296.71292333410122
 30
0.0
 42
-0.00072659056
  0
VERTEX
  5
1A09F
  8
AM_0
 10
128.67408510887481
 20
297.28602333410129
 30
0.0
 42
-0.00069570481
  0
VERTEX
  5
1A0A0
  8
AM_0
 10
128.75790510887461
 20
297.8590533341013
 30
0.0
 42
-0.00071266935
  0
VERTEX
  5
1A0A1
  8
AM_0
 10
128.8433351088747
 20
298.4318233341013
 30
0.0
 42
-0.00071614426
  0
VERTEX
  5
1A0A2
  8
AM_0
 10
128.93036510887461
 20
299.00416333410118
 30
0.0
 42
-0.00072288975
  0
VERTEX
  5
1A0A3
  8
AM_0
 10
129.0190751088746
 20
299.57646333410128
 30
0.0
  0
SEQEND
  5
1A0A4
  8
AM_0
  0
ARC
  5
1A0A5
  8
AM_0
 10
125.6611651088747
 20
291.23576333410131
 30
0.0
 40
1.465004
 50
90.00000299999769
 51
270.0
  0
ARC
  5
1A0A6
  8
AM_0
 10
126.74576510887481
 20
291.21074333410132
 30
0.0
 40
1.0000138999999999
 50
89.691659999999231
 51
270.30834000000073
  0
ARC
  5
1A0A7
  8
AM_0
 10
126.74576510887481
 20
301.21074333410132
 30
0.0
 40
1.0000138999999999
 50
89.691659999999231
 51
270.30834000000073
  0
ARC
  5
1A0A8
  8
AM_0
 10
160.6398651088748
 20
271.21074333410132
 30
0.0
 40
1.000005699999998
 50
269.999989999999
 51
90.00000299999769
  0
ARC
  5
1A0A9
  8
AM_0
 10
161.92807510887471
 20
271.22075333410118
 30
0.0
 40
1.2700266
 50
269.62931999999989
 51
90.370670000011231
  0
ARC
  5
1A0AA
  8
AM_0
 10
160.6398651088748
 20
281.21074333410121
 30
0.0
 40
1.000005699999998
 50
269.999989999999
 51
90.00000299999769
  0
ARC
  5
1A0AB
  8
AM_0
 10
161.86612510887471
 20
281.22575333410111
 30
0.0
 40
1.3350147999999999
 50
269.7304299999999
 51
90.269555999994864
  0
LINE
  5
1A0AC
  8
AM_0
 10
124.2011451088747
 20
317.0007533341012
 30
0.0
 11
125.4911251088747
 21
325.49071333410132
 31
0.0
  0
LINE
  5
1A0AD
  8
AM_0
 10
124.2011451088747
 20
317.0007533341012
 30
0.0
 11
125.5111451088746
 21
326.38078333410118
 31
0.0
  0
LINE
  5
1A0AE
  8
AM_0
 10
124.2011451088747
 20
315.65077333410119
 30
0.0
 11
125.4811151088747
 21
323.66072333410119
 31
0.0
  0
ARC
  5
1A0AF
  8
AM_0
 10
127.3998751088747
 20
320.49663333410109
 30
0.0
 40
1.994108999999999
 50
89.675548000002749
 51
169.18776999999881
  0
LINE
  5
1A0B0
  8
AM_0
 10
124.2011451088747
 20
314.31077333410133
 30
0.0
 11
125.4411351088747
 21
320.87074333410141
 31
0.0
  0
ARC
  5
1A0B1
  8
AM_0
 10
127.4876451088746
 20
326.10515333410109
 30
0.0
 40
1.995633
 50
89.899708000008815
 51
172.06112999999951
  0
ARC
  5
1A0B2
  8
AM_0
 10
127.45139510887471
 20
323.34550333410118
 30
0.0
 40
1.9952829999999999
 50
90.006203999990333
 51
170.90835000000069
  0
ARC
  5
1A0B3
  8
AM_0
 10
127.4657351088747
 20
325.19401333410121
 30
0.0
 40
1.9967330000000001
 50
89.843967000005435
 51
171.4538799999973
  0
ARC
  5
1A0B4
  8
AM_0
 10
193.2011451088747
 20
298.71074333410132
 30
0.0
 40
1.5
 50
0.0
 51
90.00000299999769
  0
LINE
  5
1A0B5
  8
AM_0
 10
194.7011451088747
 20
293.71074333410121
 30
0.0
 11
194.7011451088747
 21
298.71074333410132
 31
0.0
  0
LINE
  5
1A0B6
  8
AM_0
 10
194.2211651088746
 20
293.71074333410121
 30
0.0
 11
194.2211651088746
 21
298.5707233341011
 31
0.0
  0
ARC
  5
1A0B7
  8
AM_0
 10
193.2211651088746
 20
298.5707233341011
 30
0.0
 40
1.0
 50
0.0
 51
90.00000299999769
  0
ARC
  5
1A0B8
  8
AM_0
 10
193.2011451088747
 20
293.71074333410121
 30
0.0
 40
1.5
 50
269.999989999999
 51
0.0000006832495047
  0
ARC
  5
1A0B9
  8
AM_0
 10
193.2011451088747
 20
293.71074333410121
 30
0.0
 40
1.02
 50
269.999989999999
 51
0.0000006832429909
  0
CIRCLE
  5
1A0BA
  8
AM_0
 10
199.7011451088747
 20
294.71074333410132
 30
0.0
 40
1.1000000000000001
  0
CIRCLE
  5
1A0BB
  8
AM_0
 10
199.7011451088747
 20
294.71074333410132
 30
0.0
 40
1.149999999999999
  0
ARC
  5
1A0BC
  8
AM_0
 10
211.2011451088747
 20
298.71074333410132
 30
0.0
 40
1.5
 50
90.00000299999769
 51
180.00001000000091
  0
CIRCLE
  5
1A0BD
  8
AM_0
 10
204.7011451088747
 20
294.71074333410132
 30
0.0
 40
1.0
  0
LINE
  5
1A0BE
  8
AM_0
 10
210.1811251088748
 20
293.71074333410121
 30
0.0
 11
210.1811251088748
 21
298.5707233341011
 31
0.0
  0
LINE
  5
1A0BF
  8
AM_0
 10
209.7011451088747
 20
293.71074333410121
 30
0.0
 11
209.7011451088747
 21
298.71074333410132
 31
0.0
  0
ARC
  5
1A0C0
  8
AM_0
 10
211.1811251088748
 20
298.5707233341011
 30
0.0
 40
1.0
 50
90.00000299999769
 51
180.00001000000091
  0
ARC
  5
1A0C1
  8
AM_0
 10
211.2011451088747
 20
293.71074333410121
 30
0.0
 40
1.5
 50
179.999989999999
 51
270.0
  0
ARC
  5
1A0C2
  8
AM_0
 10
211.2011451088747
 20
293.71074333410121
 30
0.0
 40
1.02
 50
179.999989999999
 51
270.0
  0
LINE
  5
1A0C3
  8
AM_0
 10
230.4068651088746
 20
308.37959333410129
 30
0.0
 11
226.26114510887459
 21
323.86073333410121
 31
0.0
  0
LINE
  5
1A0C4
  8
AM_0
 10
230.40689510887481
 20
311.13957333410133
 30
0.0
 11
226.2611751088748
 21
326.62068333410127
 31
0.0
  0
LINE
  5
1A0C5
  8
AM_0
 10
230.4068651088746
 20
310.2295733341013
 30
0.0
 11
226.26114510887459
 21
325.71068333410119
 31
0.0
  0
LINE
  5
1A0C6
  8
AM_0
 10
230.40115510887469
 20
305.55067333410108
 30
0.0
 11
226.26114510887459
 21
321.01069333410129
 31
0.0
  0
LINE
  5
1A0C7
  8
AM_0
 10
232.2011451088747
 20
298.1506833341013
 30
0.0
 11
240.2011451088747
 21
298.1506833341013
 31
0.0
  0
ARC
  5
1A0C8
  8
AM_0
 10
225.5411751088748
 20
301.21074333410132
 30
0.0
 40
1.0
 50
269.999989999999
 51
90.00000299999769
  0
ARC
  5
1A0C9
  8
AM_0
 10
225.54111510887469
 20
291.21074333410132
 30
0.0
 40
1.0000255999999981
 50
269.58947000000973
 51
90.410530999997775
  0
ARC
  5
1A0CA
  8
AM_0
 10
229.02115510887461
 20
301.25578333410118
 30
0.0
 40
1.6750020000000001
 50
269.999989999999
 51
90.00000299999769
  0
ARC
  5
1A0CB
  8
AM_0
 10
229.24112510887471
 20
291.24077333410122
 30
0.0
 40
1.460011199999999
 50
269.77524999999008
 51
90.224749999996845
  0
ARC
  5
1A0CC
  8
AM_0
 10
231.8543451088747
 20
311.54350333410127
 30
0.0
 40
1.5027759999999999
 50
194.7564299999994
 51
269.87757999999212
  0
ARC
  5
1A0CD
  8
AM_0
 10
231.8543451088747
 20
308.78349333410131
 30
0.0
 40
1.5027759999999999
 50
194.7564299999994
 51
269.87757999999212
  0
ARC
  5
1A0CE
  8
AM_0
 10
231.8543451088747
 20
310.63347333410132
 30
0.0
 40
1.5027759999999999
 50
194.7564299999994
 51
269.87757999999212
  0
ARC
  5
1A0CF
  8
AM_0
 10
231.8543451088747
 20
305.93352333410132
 30
0.0
 40
1.5027759999999999
 50
194.7564299999994
 51
269.87757999999212
  0
LINE
  5
1A0D0
  8
AM_0
 10
232.2011451088747
 20
322.21074333410132
 30
0.0
 11
240.2011451088747
 21
322.21074333410132
 31
0.0
  0
LINE
  5
1A0D1
  8
AM_0
 10
232.2011451088747
 20
312.21074333410132
 30
0.0
 11
240.2011451088747
 21
312.21074333410132
 31
0.0
  0
ARC
  5
1A0D2
  8
AM_0
 10
224.33121510887489
 20
320.49248333410122
 30
0.0
 40
1.9982919999999991
 50
15.03254799999611
 51
90.002631999994833
  0
ARC
  5
1A0D3
  8
AM_0
 10
224.3263251088747
 20
323.33598333410112
 30
0.0
 40
2.0047290000000002
 50
15.173495999996479
 51
89.861678000006705
  0
ARC
  5
1A0D4
  8
AM_0
 10
224.3263251088747
 20
326.09599333410131
 30
0.0
 40
2.0047290000000002
 50
15.173495999996479
 51
89.861678000006705
  0
ARC
  5
1A0D5
  8
AM_0
 10
224.3263251088747
 20
325.1859633341013
 30
0.0
 40
2.0047290000000002
 50
15.173495999996479
 51
89.861678000006705
  0
LINE
  5
1A0D6
  8
AM_0
 10
226.74112510887471
 20
319.21074333410132
 30
0.0
 11
232.2011451088747
 21
319.21074333410132
 31
0.0
  0
LINE
  5
1A0D7
  8
AM_0
 10
116.89117510887471
 20
558.88084410096758
 30
0.0
 11
123.1211551088746
 21
558.88084410096758
 31
0.0
  0
LINE
  5
1A0D8
  8
AM_0
 10
116.20117510887469
 20
568.69083310096755
 30
0.0
 11
124.20117510887469
 21
568.69083310096755
 31
0.0
  0
LINE
  5
1A0D9
  8
AM_0
 10
116.20117510887469
 20
568.68584410096776
 30
0.0
 11
124.20117510887469
 21
568.68584410096776
 31
0.0
  0
LINE
  5
1A0DA
  8
AM_0
 10
116.89117510887471
 20
472.50085010096768
 30
0.0
 11
123.1211551088746
 21
472.50085010096768
 31
0.0
  0
LINE
  5
1A0DB
  8
AM_0
 10
116.20117510887469
 20
462.69083010096762
 30
0.0
 11
124.20117510887469
 21
462.69083010096762
 31
0.0
  0
LINE
  5
1A0DC
  8
AM_0
 10
116.20117510887469
 20
462.6858401009676
 30
0.0
 11
124.20117510887469
 21
462.6858401009676
 31
0.0
  0
LINE
  5
1A0DD
  8
AM_0
 10
116.2011551088748
 20
458.68579560096759
 30
0.0
 11
116.2011551088748
 21
572.68581360096744
 31
0.0
  0
LINE
  5
1A0DE
  8
AM_0
 10
68.701135108874723
 20
539.66582160096743
 30
0.0
 11
68.701135108874951
 21
458.68579560096759
 31
0.0
  0
LINE
  5
1A0DF
  8
AM_0
 10
111.2011451088748
 20
507.6858096009675
 30
0.0
 11
111.2011451088748
 21
458.68579560096759
 31
0.0
  0
LINE
  5
1A0E0
  8
AM_0
 10
66.201145108874698
 20
472.42582560096741
 30
0.0
 11
66.201145108874698
 21
460.68583560096738
 31
0.0
  0
LINE
  5
1A0E1
  8
AM_0
 10
68.201155108874786
 20
458.68579560096759
 30
0.0
 11
116.2011551088748
 21
458.68579560096759
 31
0.0
  0
ARC
  5
1A0E2
  8
AM_0
 10
68.200645108874596
 20
460.68532560096759
 30
0.0
 40
1.9994960399999999
 50
179.98553999999999
 51
270.01445699999562
  0
LINE
  5
1A0E3
  8
AM_0
 10
80.041105108874604
 20
520.94582160096763
 30
0.0
 11
65.581165108874757
 21
565.45581660096764
 31
0.0
  0
LINE
  5
1A0E4
  8
AM_0
 10
75.2811551088746
 20
519.40581360096735
 30
0.0
 11
60.821155108874549
 21
563.91582360096743
 31
0.0
  0
LINE
  5
1A0E5
  8
AM_0
 10
68.701135108874723
 20
555.84582960096759
 30
0.0
 11
68.701135108874723
 21
572.68581360096744
 31
0.0
  0
LINE
  5
1A0E6
  8
AM_0
 10
68.701135108874723
 20
471.79582560096748
 30
0.0
 11
116.2011551088748
 21
471.79582560096748
 31
0.0
  0
LINE
  5
1A0E7
  8
AM_0
 10
68.701135108874723
 20
482.04582660096747
 30
0.0
 11
111.2011451088748
 21
482.04582660096747
 31
0.0
  0
LINE
  5
1A0E8
  8
AM_0
 10
66.201145108874698
 20
547.35582660096759
 30
0.0
 11
66.201145108874698
 21
481.15584060096762
 31
0.0
  0
ARC
  5
1A0E9
  8
AM_0
 10
67.096825108874782
 20
478.29565560096762
 30
0.0
 40
2.9956880400000001
 50
84.169629999990363
 51
179.99636000000251
  0
LINE
  5
1A0EA
  8
AM_0
 10
67.401145108874744
 20
481.39580160096762
 30
0.0
 11
67.401145108874744
 21
472.19581560096759
 31
0.0
  0
ARC
  5
1A0EB
  8
AM_0
 10
67.102825108874754
 20
475.29262560096748
 30
0.0
 40
3.0016479
 50
179.93865000000221
 51
275.70438699999039
  0
LINE
  5
1A0EC
  8
AM_0
 10
64.101175108874713
 20
478.29583560096762
 30
0.0
 11
64.101175108874713
 21
475.29583560096762
 31
0.0
  0
LINE
  5
1A0ED
  8
AM_0
 10
67.401145108874744
 20
472.19581560096759
 30
0.0
 11
68.701135108874723
 21
472.19581560096759
 31
0.0
  0
LINE
  5
1A0EE
  8
AM_0
 10
67.401145108874744
 20
481.39580160096762
 30
0.0
 11
68.701135108874723
 21
481.39580160096762
 31
0.0
  0
ARC
  5
1A0EF
  8
AM_0
 10
66.249865108874701
 20
553.18590360096744
 30
0.0
 40
4.0507442999999981
 50
135.0876599999992
 51
260.92820900000851
  0
LINE
  5
1A0F0
  8
ﾁｭｳｼﾝｾﾝ1
 10
99.201145108874698
 20
527.89782160096763
 30
0.0
 11
99.201145108874698
 21
503.47782560096772
 31
0.0
  0
ARC
  5
1A0F1
  8
AM_0
 10
83.848915108874507
 20
522.18291060096772
 30
0.0
 40
8.9970875999999969
 50
197.97879999999711
 51
270.01422500000149
  0
LINE
  5
1A0F2
  8
AM_0
 10
93.701155108874786
 20
518.18580960096745
 30
0.0
 11
93.701155108874786
 21
513.18584160096736
 31
0.0
  0
LINE
  5
1A0F3
  8
AM_0
 10
107.2011551088748
 20
518.18580960096745
 30
0.0
 11
107.2011551088748
 21
513.18584160096736
 31
0.0
  0
LINE
  5
1A0F4
  8
AM_0
 10
104.70113510887469
 20
518.18580960096745
 30
0.0
 11
104.70113510887469
 21
513.18584160096736
 31
0.0
  0
ARC
  5
1A0F5
  8
AM_0
 10
99.200665108874645
 20
515.68602360096736
 30
0.0
 40
8.000195699999999
 50
198.21097000000401
 51
270.00369900000231
  0
LINE
  5
1A0F6
  8
AM_0
 10
83.851105108874776
 20
513.18584160096736
 30
0.0
 11
93.701155108874786
 21
513.18584160096736
 31
0.0
  0
LINE
  5
1A0F7
  8
AM_0
 10
99.201145108874698
 20
507.6858096009675
 30
0.0
 11
116.2011551088748
 21
507.6858096009675
 31
0.0
  0
LINE
  5
1A0F8
  8
AM_0
 10
104.70113510887469
 20
513.18584160096736
 30
0.0
 11
107.2011551088748
 21
513.18584160096736
 31
0.0
  0
ARC
  5
1A0F9
  8
AM_0
 10
99.201145108874698
 20
515.6878236009677
 30
0.0
 40
4.998440399999998
 50
203.6109999999953
 51
336.3890009999987
  0
LINE
  5
1A0FA
  8
AM_0
 10
93.701155108874786
 20
513.68580960096745
 30
0.0
 11
104.70113510887469
 21
513.68580960096745
 31
0.0
  0
LINE
  5
1A0FB
  8
AM_0
 10
83.851105108874776
 20
518.18580960096745
 30
0.0
 11
93.701155108874786
 21
518.18580960096745
 31
0.0
  0
ARC
  5
1A0FC
  8
AM_0
 10
99.198715108874936
 20
515.68825260096764
 30
0.0
 40
7.9975721999999996
 50
89.982690000000787
 51
161.80265000000111
  0
ARC
  5
1A0FD
  8
AM_0
 10
83.844385108874675
 20
522.18620760096769
 30
0.0
 40
4.0003919999999971
 50
198.06320999999991
 51
270.09694499999563
  0
LINE
  5
1A0FE
  8
AM_0
 10
99.201145108874698
 20
523.68584160096759
 30
0.0
 11
116.2011551088748
 21
523.68584160096759
 31
0.0
  0
LINE
  5
1A0FF
  8
AM_0
 10
104.70113510887469
 20
518.18580960096745
 30
0.0
 11
107.2011551088748
 21
518.18580960096745
 31
0.0
  0
ARC
  5
1A100
  8
AM_0
 10
99.201145108874698
 20
515.6878236009677
 30
0.0
 40
4.9968401999999976
 50
23.568979999999812
 51
156.43102000000019
  0
LINE
  5
1A101
  8
AM_0
 10
93.701155108874786
 20
517.68584160096736
 30
0.0
 11
104.70113510887469
 21
517.68584160096736
 31
0.0
  0
LINE
  5
1A102
  8
AM_0
 10
68.701135108874723
 20
559.57582560096762
 30
0.0
 11
116.2011551088748
 21
559.57582560096762
 31
0.0
  0
LINE
  5
1A103
  8
AM_0
 10
68.201155108874786
 20
572.68581360096744
 30
0.0
 11
116.2011551088748
 21
572.68581360096744
 31
0.0
  0
ARC
  5
1A104
  8
AM_0
 10
68.198875108874745
 20
570.68813160096761
 30
0.0
 40
1.9976960999999991
 50
89.933829999996505
 51
180.0661700000033
  0
ARC
  5
1A105
  8
AM_0
 10
63.200095108874727
 20
564.68735460096764
 30
0.0
 40
3.001016099999998
 50
359.9708539990001
 51
174.86740000000231
  0
ARC
  5
1A106
  8
AM_0
 10
63.201145108874712
 20
564.68581260096755
 30
0.0
 40
2.5014601500000002
 50
17.927930000001311
 51
197.92792000000159
  0
ARC
  5
1A107
  8
AM_0
 10
59.912995108874718
 20
564.98816460096737
 30
0.0
 40
0.8023920299999998
 50
270.5824419999999
 51
354.10916500000002
  0
LINE
  5
1A108
  8
AM_0
 10
59.701135108874951
 20
564.18582660096763
 30
0.0
 11
59.92118510887461
 21
564.18582660096763
 31
0.0
  0
LINE
  5
1A109
  8
AM_0
 10
59.701135108874951
 20
564.18582660096763
 30
0.0
 11
59.701135108874951
 21
564.68581260096755
 31
0.0
  0
ARC
  5
1A10A
  8
AM_0
 10
59.911525108874798
 20
564.98686860096768
 30
0.0
 40
0.30119199
 50
271.82401299999327
 51
354.08517019999817
  0
LINE
  5
1A10B
  8
AM_0
 10
66.201145108874698
 20
563.53581960096767
 30
0.0
 11
66.201145108874698
 21
570.68581260096755
 31
0.0
  0
LINE
  5
1A10C
  8
AM_0
 10
111.2011451088748
 20
559.57582560096762
 30
0.0
 11
111.2011451088748
 21
572.68581360096744
 31
0.0
  0
LINE
  5
1A10D
  8
AM_0
 10
230.4011851088747
 20
476.35082010096772
 30
0.0
 11
226.25119510887481
 21
460.89083010096761
 31
0.0
  0
LINE
  5
1A10E
  8
AM_0
 10
129.52606232518681
 20
478.9658635386316
 30
0.0
 11
124.20117510887469
 21
467.59084010096763
 31
0.0
  0
LINE
  5
1A10F
  8
AM_0
 10
232.20117510887459
 20
459.6858401009676
 30
0.0
 11
232.20117510887459
 21
571.68584410096776
 31
0.0
  0
LINE
  5
1A110
  8
AM_0
 10
124.20117510887469
 20
462.69083010096762
 30
0.0
 11
124.20117510887469
 21
565.13082810096773
 31
0.0
  0
LINE
  5
1A111
  8
AM_0
 10
127.4011851088746
 20
459.40084010096763
 30
0.0
 11
224.32114510887459
 21
459.40084010096763
 31
0.0
  0
LINE
  5
1A112
  8
AM_0
 10
127.49115510887459
 20
453.80083010096769
 30
0.0
 11
161.20117510887459
 21
453.80083010096769
 31
0.0
  0
LINE
  5
1A113
  8
AM_0
 10
127.4711951088747
 20
454.71084010096757
 30
0.0
 11
161.20117510887459
 21
454.71084010096757
 31
0.0
  0
LINE
  5
1A114
  8
AM_0
 10
127.45117510887469
 20
456.5608401009676
 30
0.0
 11
161.20117510887459
 21
456.5608401009676
 31
0.0
  0
ARC
  5
1A115
  8
AM_0
 10
127.4495851088746
 20
458.55398010096769
 30
0.0
 40
1.9931281000000001
 50
189.03881999999959
 51
270.04662699999301
  0
LINE
  5
1A116
  8
AM_0
 10
124.20117510887469
 20
464.90086010096758
 30
0.0
 11
125.5111751088747
 21
455.52085010096761
 31
0.0
  0
LINE
  5
1A117
  8
AM_0
 10
124.2012351088747
 20
464.90082010096762
 30
0.0
 11
125.4912151088747
 21
456.41083010096759
 31
0.0
  0
ARC
  5
1A118
  8
AM_0
 10
127.4638751088747
 20
456.70541010096758
 30
0.0
 40
1.994588
 50
188.49291000000531
 51
270.20924699999762
  0
ARC
  5
1A119
  8
AM_0
 10
127.4858451088747
 20
455.7943201009677
 30
0.0
 40
1.9934921000000001
 50
187.8852599999974
 51
270.15390900000511
  0
ARC
  5
1A11A
  8
AM_0
 10
127.4040551088746
 20
461.39774010096761
 30
0.0
 40
1.9969039999999989
 50
190.58743999999859
 51
269.91652600000037
  0
LINE
  5
1A11B
  8
AM_0
 10
124.20117510887469
 20
466.25083010096762
 30
0.0
 11
125.4811451088746
 21
458.24084010096772
 31
0.0
  0
LINE
  5
1A11C
  8
AM_0
 10
124.20117510887469
 20
467.59083010096759
 30
0.0
 11
125.4411651088747
 21
461.03083010096771
 31
0.0
  0
ARC
  5
1A11D
  8
AM_0
 10
161.20074510887449
 20
458.56126010096762
 30
0.0
 40
2.000407899999999
 50
270.01165000000208
 51
359.98835099999928
  0
LINE
  5
1A11E
  8
AM_0
 10
163.20117510887459
 20
455.80085010096769
 30
0.0
 11
163.20117510887459
 21
459.40084010096763
 31
0.0
  0
ARC
  5
1A11F
  8
AM_0
 10
161.19958510887449
 20
456.7123901009677
 30
0.0
 40
2.0015439999999991
 50
270.04421600000092
 51
359.95578600099913
  0
ARC
  5
1A120
  8
AM_0
 10
161.19989510887461
 20
455.80213010096759
 30
0.0
 40
2.001287899999999
 50
270.03687399999552
 51
359.9631280009977
  0
LINE
  5
1A121
  8
AM_0
 10
232.20117510887459
 20
459.6858401009676
 30
0.0
 11
240.2011451088747
 21
459.6858401009676
 31
0.0
  0
ARC
  5
1A122
  8
AM_0
 10
224.31836510887479
 20
461.39944010096758
 30
0.0
 40
1.9986041000000001
 50
270.08048399999888
 51
345.25728400000071
  0
LINE
  5
1A123
  8
AM_0
 10
226.74115510887461
 20
462.69083010096762
 30
0.0
 11
232.20117510887459
 21
462.69083010096762
 31
0.0
  0
LINE
  5
1A124
  8
ｶｸﾚｾﾝ2
 10
217.20117510887459
 20
479.68579087212458
 30
0.0
 11
133.70117510887459
 21
479.68579087212481
 31
0.0
  0
LINE
  5
1A125
  8
ｶｸﾚｾﾝ2
 10
133.70117510887459
 20
551.6857908721247
 30
0.0
 11
217.20117510887459
 21
551.68579087212436
 31
0.0
  0
LINE
  5
1A126
  8
AM_0
 10
225.54116622161541
 20
479.68580983554438
 30
0.0
 11
126.56112622161849
 21
479.6858342705803
 31
0.0
  0
LINE
  5
1A127
  8
AM_0
 10
225.54116671535209
 20
481.68580983554421
 30
0.0
 11
126.5611267153551
 21
481.68583427058041
 31
0.0
  0
LINE
  5
1A128
  8
AM_0
 10
225.53396918403519
 20
491.68580983732141
 30
0.0
 11
126.56112918403841
 21
491.68583427058007
 31
0.0
  0
LINE
  5
1A129
  8
AM_0
 10
125.8811260438807
 20
478.96586443845069
 30
0.0
 11
229.02114604387751
 21
478.96583897644751
 31
0.0
  0
LINE
  5
1A12A
  8
AM_0
 10
125.66115929264561
 20
492.12577449275409
 30
0.0
 11
229.23537929264239
 21
492.12574892356071
 31
0.0
  0
LINE
  5
1A12B
  8
AM_0
 10
125.6611585693388
 20
489.19584449275408
 30
0.0
 11
229.2467985693356
 21
489.19581892074132
 31
0.0
  0
LINE
  5
1A12C
  8
AM_0
 10
225.5483086902986
 20
489.68580983378149
 30
0.0
 11
126.5611286903017
 21
489.68583427058007
 31
0.0
  0
LINE
  5
1A12D
  8
AM_0
 10
125.8811268708846
 20
482.31584443845082
 30
0.0
 11
229.02114687088149
 21
482.3158189764477
 31
0.0
  0
LINE
  5
1A12E
  8
AM_0
 10
125.5311610750595
 20
499.34587452484669
 30
0.0
 11
229.5297390314567
 21
499.34584885089271
 31
0.0
  0
LINE
  5
1A12F
  8
AM_0
 10
125.531161731707
 20
502.00578452484677
 30
0.0
 11
229.3782141896973
 21
502.00575888829962
 31
0.0
  0
LINE
  5
1A130
  8
AM_0
 10
125.47116356100859
 20
509.41581453965858
 30
0.0
 11
229.5872628145124
 21
509.41578883669229
 31
0.0
  0
LINE
  5
1A131
  8
AM_0
 10
125.4711641855929
 20
511.94584453965848
 30
0.0
 11
229.423976161599
 21
511.94581887700258
 31
0.0
  0
LINE
  5
1A132
  8
AM_0
 10
225.544510414813
 20
511.68580983471981
 30
0.0
 11
126.56113412140471
 21
511.68583427057939
 31
0.0
  0
LINE
  5
1A133
  8
AM_0
 10
225.5445099210763
 20
509.68580983471981
 30
0.0
 11
126.5611336276681
 21
509.68583427057951
 31
0.0
  0
LINE
  5
1A134
  8
AM_0
 10
225.544507946126
 20
501.68580983472009
 30
0.0
 11
126.5611316527215
 21
501.68583427057979
 31
0.0
  0
LINE
  5
1A135
  8
AM_0
 10
225.54450745241431
 20
499.68580983472009
 30
0.0
 11
126.56113115898491
 21
499.68583427057979
 31
0.0
  0
LINE
  5
1A136
  8
AM_0
 10
125.5311651088748
 20
529.36585819140771
 30
0.0
 11
229.37821756686819
 21
529.36585819140771
 31
0.0
  0
LINE
  5
1A137
  8
AM_0
 10
125.5311651088748
 20
532.02576819140756
 30
0.0
 11
229.5297430652752
 21
532.02576819140756
 31
0.0
  0
LINE
  5
1A138
  8
AM_0
 10
225.5445114022823
 20
529.68580819140755
 30
0.0
 11
126.56113510887479
 21
529.68580819140755
 31
0.0
  0
LINE
  5
1A139
  8
AM_0
 10
225.54451140230731
 20
531.68580819140777
 30
0.0
 11
126.56113510887479
 21
531.68580819140777
 31
0.0
  0
LINE
  5
1A13A
  8
AM_0
 10
125.4711651088746
 20
519.42579819140781
 30
0.0
 11
229.4239770848842
 21
519.42579819140781
 31
0.0
  0
LINE
  5
1A13B
  8
AM_0
 10
125.4711651088746
 20
521.9558281914077
 30
0.0
 11
229.5872643623816
 21
521.9558281914077
 31
0.0
  0
LINE
  5
1A13C
  8
AM_0
 10
225.54451140228591
 20
519.68580819140766
 30
0.0
 11
126.56113510887479
 21
519.68580819140766
 31
0.0
  0
LINE
  5
1A13D
  8
AM_0
 10
225.54451140228591
 20
521.68580819140755
 30
0.0
 11
126.56113510887479
 21
521.68580819140755
 31
0.0
  0
LINE
  5
1A13E
  8
AM_0
 10
125.6611651088747
 20
542.17579819140781
 30
0.0
 11
229.2468051088747
 21
542.17579819140781
 31
0.0
  0
LINE
  5
1A13F
  8
AM_0
 10
125.8811351088748
 20
549.05579819140769
 30
0.0
 11
229.02115510887461
 21
549.05579819140769
 31
0.0
  0
LINE
  5
1A140
  8
AM_0
 10
225.5483151088747
 20
541.68580819140755
 30
0.0
 11
126.56113510887479
 21
541.68580819140755
 31
0.0
  0
LINE
  5
1A141
  8
AM_0
 10
125.6611651088747
 20
539.24586819140757
 30
0.0
 11
229.2353851088746
 21
539.24586819140757
 31
0.0
  0
LINE
  5
1A142
  8
AM_0
 10
125.8811351088748
 20
552.40577819140788
 30
0.0
 11
229.02115510887461
 21
552.40577819140788
 31
0.0
  0
LINE
  5
1A143
  8
AM_0
 10
225.5339751088747
 20
539.68580819140777
 30
0.0
 11
126.56113510887479
 21
539.68580819140777
 31
0.0
  0
LINE
  5
1A144
  8
AM_0
 10
225.5411751088748
 20
549.68580819140755
 30
0.0
 11
126.56113510887479
 21
549.68580819140755
 31
0.0
  0
LINE
  5
1A145
  8
AM_0
 10
225.5411751088748
 20
551.68580819140777
 30
0.0
 11
126.56113510887479
 21
551.68580819140777
 31
0.0
  0
LINE
  5
1A146
  8
AM_0
 10
149.70117510887471
 20
477.46085010096772
 30
0.0
 11
232.20117510887459
 21
477.46085010096772
 31
0.0
  0
LINE
  5
1A147
  8
AM_0
 10
149.70117510887471
 20
553.91083510096769
 30
0.0
 11
232.20117510887459
 21
553.91083510096769
 31
0.0
  0
LINE
  5
1A148
  8
AM_0
 10
127.4011851088746
 20
571.97084710096772
 30
0.0
 11
224.32114510887459
 21
571.97084710096772
 31
0.0
  0
LINE
  5
1A149
  8
AM_0
 10
129.53072244815851
 20
552.40577819140788
 30
0.0
 11
124.2011151088747
 21
563.78081510096774
 31
0.0
  0
LINE
  5
1A14A
  8
ｶｸﾚｾﾝ2
 10
130.20117510887459
 20
483.18579087212458
 30
0.0
 11
130.20117510887459
 21
548.18579087212481
 31
0.0
  0
POLYLINE
  5
1A14B
  8
AM_0
 66
     1
 10
0.0
 20
0.0
 30
0.0
  0
VERTEX
  5
1A14C
  8
AM_0
 10
126.56113510887801
 20
515.68583427057933
 30
0.0
 42
0.00039106649
  0
VERTEX
  5
1A14D
  8
AM_0
 10
126.5587750320698
 20
515.37470427116193
 30
0.0
 42
0.00035488198
  0
VERTEX
  5
1A14E
  8
AM_0
 10
126.5568849552666
 20
515.06359427162863
 30
0.0
 42
0.00039706113
  0
VERTEX
  5
1A14F
  8
AM_0
 10
126.55545487846329
 20
514.75248427198164
 30
0.0
 42
0.00038765718
  0
VERTEX
  5
1A150
  8
AM_0
 10
126.5545248016527
 20
514.44134427221115
 30
0.0
 42
0.00040613432
  0
VERTEX
  5
1A151
  8
AM_0
 10
126.5540747248519
 20
514.13024427232233
 30
0.0
 42
0.00035573434
  0
VERTEX
  5
1A152
  8
AM_0
 10
126.55411464804889
 20
513.81913427231234
 30
0.0
 42
0.00038545884
  0
VERTEX
  5
1A153
  8
AM_0
 10
126.5546045712407
 20
513.50800427219144
 30
0.0
 42
0.00035501205
  0
VERTEX
  5
1A154
  8
AM_0
 10
126.5555644944375
 20
513.19689427195419
 30
0.0
 42
0.00040120779
  0
VERTEX
  5
1A155
  8
AM_0
 10
126.5569844176047
 20
512.88566427160401
 30
0.0
 42
0.00038317817
  0
VERTEX
  5
1A156
  8
AM_0
 10
126.5588943407965
 20
512.57453427113239
 30
0.0
 42
0.00035656084
  0
VERTEX
  5
1A157
  8
AM_0
 10
126.5612742639612
 20
512.26329427054486
 30
0.0
 42
0.00040143615
  0
VERTEX
  5
1A158
  8
AM_0
 10
126.5641241871606
 20
511.9521942698413
 30
0.0
  0
SEQEND
  5
1A159
  8
AM_0
  0
LINE
  5
1A15A
  8
AM_0
 10
149.7011151088748
 20
477.46084010096757
 30
0.0
 11
129.5236851088747
 21
478.96084010096769
 31
0.0
  0
ARC
  5
1A15B
  8
AM_0
 10
125.66115893099339
 20
490.66081449275418
 30
0.0
 40
1.465004
 50
89.999985855491758
 51
269.99998285548111
  0
ARC
  5
1A15C
  8
ｶｸﾚｾﾝ2
 10
133.70117510887459
 20
483.18579087212458
 30
0.0
 40
3.5
 50
180.0
 51
270.0
  0
ARC
  5
1A15D
  8
AM_0
 10
125.8737464573678
 20
480.6407944402726
 30
0.0
 40
1.6750160000000001
 50
89.746115855482216
 51
270.2538408554787
  0
ARC
  5
1A15E
  8
AM_0
 10
126.7457564684869
 20
480.68583422500109
 30
0.0
 40
1.0000138999999999
 50
89.691645855494613
 51
270.30832585548308
  0
ARC
  5
1A15F
  8
AM_0
 10
126.7457589371699
 20
490.6858342250008
 30
0.0
 40
1.0000138999999999
 50
89.691645855494613
 51
270.30832585548308
  0
POLYLINE
  5
1A160
  8
AM_0
 66
     1
 10
0.0
 20
0.0
 30
0.0
  0
VERTEX
  5
1A161
  8
AM_0
 10
128.0620385710568
 20
489.20280390005303
 30
0.0
 42
0.00068898288
  0
VERTEX
  5
1A162
  8
AM_0
 10
128.13291842916919
 20
488.62805388255492
 30
0.0
 42
0.00070644354
  0
VERTEX
  5
1A163
  8
AM_0
 10
128.20541828729651
 20
488.053363864657
 30
0.0
 42
0.00069248071
  0
VERTEX
  5
1A164
  8
AM_0
 10
128.2795081455175
 20
487.47905384636658
 30
0.0
 42
0.00069585665
  0
VERTEX
  5
1A165
  8
AM_0
 10
128.35518800378051
 20
486.90491382768357
 30
0.0
 42
0.00068980191
  0
VERTEX
  5
1A166
  8
AM_0
 10
128.43248786207809
 20
486.33091380860071
 30
0.0
 42
0.00072080104
  0
VERTEX
  5
1A167
  8
AM_0
 10
128.51137772042759
 20
485.75712378912539
 30
0.0
 42
0.00071002307
  0
VERTEX
  5
1A168
  8
AM_0
 10
128.591917578856
 20
485.18365376924271
 30
0.0
 42
0.00072659056
  0
VERTEX
  5
1A169
  8
AM_0
 10
128.67407743737579
 20
484.61055374895989
 30
0.0
 42
0.00069570481
  0
VERTEX
  5
1A16A
  8
AM_0
 10
128.75789729591281
 20
484.03752372826722
 30
0.0
 42
0.00071266935
  0
VERTEX
  5
1A16B
  8
AM_0
 10
128.8433271545141
 20
483.46475370717729
 30
0.0
 42
0.00071614426
  0
VERTEX
  5
1A16C
  8
AM_0
 10
128.9303570132214
 20
482.89241368569247
 30
0.0
 42
0.00072288975
  0
VERTEX
  5
1A16D
  8
AM_0
 10
129.01906687193861
 20
482.32011366379282
 30
0.0
  0
SEQEND
  5
1A16E
  8
AM_0
  0
POLYLINE
  5
1A16F
  8
AM_0
 66
     1
 10
0.0
 20
0.0
 30
0.0
  0
VERTEX
  5
1A170
  8
AM_0
 10
126.6051935609198
 20
509.41545425970253
 30
0.0
 42
0.00076691992
  0
VERTEX
  5
1A171
  8
AM_0
 10
126.6199934084118
 20
508.79768425604891
 30
0.0
 42
0.00073262792
  0
VERTEX
  5
1A172
  8
AM_0
 10
126.6366332559485
 20
508.18009425194077
 30
0.0
 42
0.00076529537
  0
VERTEX
  5
1A173
  8
AM_0
 10
126.6551231034652
 20
507.56242424737638
 30
0.0
 42
0.00075141097
  0
VERTEX
  5
1A174
  8
AM_0
 10
126.6754929509994
 20
506.94482424234781
 30
0.0
 42
0.00075841687
  0
VERTEX
  5
1A175
  8
AM_0
 10
126.6977227985755
 20
506.32739423685979
 30
0.0
 42
0.00075711788
  0
VERTEX
  5
1A176
  8
AM_0
 10
126.7218326461319
 20
505.70988423090779
 30
0.0
 42
0.00075976003
  0
VERTEX
  5
1A177
  8
AM_0
 10
126.74782249371781
 20
505.09249422449159
 30
0.0
 42
0.00075797311
  0
VERTEX
  5
1A178
  8
AM_0
 10
126.7756623413311
 20
504.47521421761883
 30
0.0
 42
0.0007482613
  0
VERTEX
  5
1A179
  8
AM_0
 10
126.8053921889195
 20
503.85783421027958
 30
0.0
 42
0.00074893561
  0
VERTEX
  5
1A17A
  8
AM_0
 10
126.8369520365695
 20
503.24070420248842
 30
0.0
 42
0.00076039839
  0
VERTEX
  5
1A17B
  8
AM_0
 10
126.87037188424451
 20
502.62367419423822
 30
0.0
 42
0.00075618786
  0
VERTEX
  5
1A17C
  8
AM_0
 10
126.9056717319168
 20
502.00663418552369
 30
0.0
  0
SEQEND
  5
1A17D
  8
AM_0
  0
ARC
  5
1A17E
  8
AM_0
 10
125.531161403382
 20
500.6758245248468
 30
0.0
 40
1.3300049999999981
 50
89.999985855491758
 51
269.99998285548111
  0
ARC
  5
1A17F
  8
AM_0
 10
126.7457614058532
 20
500.68583422500052
 30
0.0
 40
1.0000138999999999
 50
89.691645855494613
 51
270.30832585548308
  0
POLYLINE
  5
1A180
  8
AM_0
 66
     1
 10
0.0
 20
0.0
 30
0.0
  0
VERTEX
  5
1A181
  8
AM_0
 10
127.07938107490889
 20
499.34526414264008
 30
0.0
 42
0.0007337051
  0
VERTEX
  5
1A182
  8
AM_0
 10
127.12352092619049
 20
498.74284413174342
 30
0.0
 42
0.00075211323
  0
VERTEX
  5
1A183
  8
AM_0
 10
127.1694607774794
 20
498.14045412040252
 30
0.0
 42
0.0007297491
  0
VERTEX
  5
1A184
  8
AM_0
 10
127.2171906288154
 20
497.53825410861941
 30
0.0
 42
0.00073593041
  0
VERTEX
  5
1A185
  8
AM_0
 10
127.2666704802031
 20
496.93626409640427
 30
0.0
 42
0.00074742739
  0
VERTEX
  5
1A186
  8
AM_0
 10
127.31794033162051
 20
496.33439408374761
 30
0.0
 42
0.00073217363
  0
VERTEX
  5
1A187
  8
AM_0
 10
127.3710001830551
 20
495.73259407064859
 30
0.0
 42
0.00073754168
  0
VERTEX
  5
1A188
  8
AM_0
 10
127.42582003455389
 20
495.13105405711548
 30
0.0
 42
0.00073075073
  0
VERTEX
  5
1A189
  8
AM_0
 10
127.4823998860972
 20
494.52969404314757
 30
0.0
 42
0.00074550816
  0
VERTEX
  5
1A18A
  8
AM_0
 10
127.5407397377145
 20
493.92863402874531
 30
0.0
 42
0.00074288416
  0
VERTEX
  5
1A18B
  8
AM_0
 10
127.6008895893417
 20
493.3276140138961
 30
0.0
 42
0.00072504001
  0
VERTEX
  5
1A18C
  8
AM_0
 10
127.6627994410355
 20
492.7268639986126
 30
0.0
 42
0.00074640667
  0
VERTEX
  5
1A18D
  8
AM_0
 10
127.7264692927665
 20
492.12626398289439
 30
0.0
  0
SEQEND
  5
1A18E
  8
AM_0
  0
ARC
  5
1A18F
  8
AM_0
 10
125.46530387330201
 20
510.68083454110513
 30
0.0
 40
1.2650129999999991
 50
89.735575855488491
 51
270.2644068554892
  0
ARC
  5
1A190
  8
AM_0
 10
126.74576387453629
 20
510.68583422500012
 30
0.0
 40
1.0000138999999999
 50
89.691645855494613
 51
270.30832585548308
  0
LINE
  5
1A191
  8
AM_0
 10
149.70117510887471
 20
553.91083510096769
 30
0.0
 11
129.5283251088747
 21
552.41083510096769
 31
0.0
  0
POLYLINE
  5
1A192
  8
AM_0
 66
     1
 10
0.0
 20
0.0
 30
0.0
  0
VERTEX
  5
1A193
  8
AM_0
 10
127.0793851088747
 20
532.02637819140773
 30
0.0
 42
-0.0007337051
  0
VERTEX
  5
1A194
  8
AM_0
 10
127.1235251088747
 20
532.62879819140755
 30
0.0
 42
-0.00075211323
  0
VERTEX
  5
1A195
  8
AM_0
 10
127.1694651088746
 20
533.2311881914078
 30
0.0
 42
-0.0007297491
  0
VERTEX
  5
1A196
  8
AM_0
 10
127.21719510887461
 20
533.83338819140772
 30
0.0
 42
-0.00073593041
  0
VERTEX
  5
1A197
  8
AM_0
 10
127.26667510887469
 20
534.43537819140772
 30
0.0
 42
-0.00074742739
  0
VERTEX
  5
1A198
  8
AM_0
 10
127.3179451088747
 20
535.03724819140746
 30
0.0
 42
-0.00073217363
  0
VERTEX
  5
1A199
  8
AM_0
 10
127.3710051088746
 20
535.63904819140748
 30
0.0
 42
-0.00073754168
  0
VERTEX
  5
1A19A
  8
AM_0
 10
127.4258251088747
 20
536.24058819140771
 30
0.0
 42
-0.00073075073
  0
VERTEX
  5
1A19B
  8
AM_0
 10
127.4824051088746
 20
536.8419481914076
 30
0.0
 42
-0.00074550816
  0
VERTEX
  5
1A19C
  8
AM_0
 10
127.5407451088747
 20
537.44300819140756
 30
0.0
 42
-0.00074288416
  0
VERTEX
  5
1A19D
  8
AM_0
 10
127.6008951088747
 20
538.04402819140773
 30
0.0
 42
-0.00072504001
  0
VERTEX
  5
1A19E
  8
AM_0
 10
127.66280510887459
 20
538.64477819140768
 30
0.0
 42
-0.00074640667
  0
VERTEX
  5
1A19F
  8
AM_0
 10
127.7264751088746
 20
539.24537819140778
 30
0.0
  0
SEQEND
  5
1A1A0
  8
AM_0
  0
POLYLINE
  5
1A1A1
  8
AM_0
 66
     1
 10
0.0
 20
0.0
 30
0.0
  0
VERTEX
  5
1A1A2
  8
AM_0
 10
126.6051951088748
 20
521.9561881914077
 30
0.0
 42
-0.00076691992
  0
VERTEX
  5
1A1A3
  8
AM_0
 10
126.6199951088747
 20
522.57395819140766
 30
0.0
 42
-0.00073262792
  0
VERTEX
  5
1A1A4
  8
AM_0
 10
126.6366351088747
 20
523.19154819140772
 30
0.0
 42
-0.00076529537
  0
VERTEX
  5
1A1A5
  8
AM_0
 10
126.6551251088747
 20
523.80921819140747
 30
0.0
 42
-0.00075141097
  0
VERTEX
  5
1A1A6
  8
AM_0
 10
126.6754951088746
 20
524.42681819140773
 30
0.0
 42
-0.00075841687
  0
VERTEX
  5
1A1A7
  8
AM_0
 10
126.69772510887471
 20
525.04424819140775
 30
0.0
 42
-0.00075711788
  0
VERTEX
  5
1A1A8
  8
AM_0
 10
126.7218351088747
 20
525.66175819140778
 30
0.0
 42
-0.00075976003
  0
VERTEX
  5
1A1A9
  8
AM_0
 10
126.74782510887459
 20
526.27914819140756
 30
0.0
 42
-0.00075797311
  0
VERTEX
  5
1A1AA
  8
AM_0
 10
126.7756651088748
 20
526.89642819140772
 30
0.0
 42
-0.0007482613
  0
VERTEX
  5
1A1AB
  8
AM_0
 10
126.80539510887481
 20
527.51380819140775
 30
0.0
 42
-0.00074893561
  0
VERTEX
  5
1A1AC
  8
AM_0
 10
126.8369551088747
 20
528.13093819140772
 30
0.0
 42
-0.00076039839
  0
VERTEX
  5
1A1AD
  8
AM_0
 10
126.8703751088746
 20
528.74796819140772
 30
0.0
 42
-0.00075618786
  0
VERTEX
  5
1A1AE
  8
AM_0
 10
126.9056751088746
 20
529.36500819140781
 30
0.0
  0
SEQEND
  5
1A1AF
  8
AM_0
  0
ARC
  5
1A1B0
  8
AM_0
 10
126.74576510887481
 20
520.68580819140755
 30
0.0
 40
1.0000138999999999
 50
89.691659999999231
 51
270.30834000000073
  0
ARC
  5
1A1B1
  8
AM_0
 10
125.4653051088746
 20
520.69080819140765
 30
0.0
 40
1.2650129999999991
 50
89.735578999995226
 51
270.26440999999602
  0
POLYLINE
  5
1A1B2
  8
AM_0
 66
     1
 10
0.0
 20
0.0
 30
0.0
  0
VERTEX
  5
1A1B3
  8
AM_0
 10
126.56113510887479
 20
515.68580819140766
 30
0.0
 42
-0.00039106649
  0
VERTEX
  5
1A1B4
  8
AM_0
 10
126.5587751088746
 20
515.99693819140782
 30
0.0
 42
-0.00035488198
  0
VERTEX
  5
1A1B5
  8
AM_0
 10
126.5568851088746
 20
516.30804819140769
 30
0.0
 42
-0.00039706113
  0
VERTEX
  5
1A1B6
  8
AM_0
 10
126.5554551088746
 20
516.61915819140779
 30
0.0
 42
-0.00038765718
  0
VERTEX
  5
1A1B7
  8
AM_0
 10
126.5545251088747
 20
516.93029819140781
 30
0.0
 42
-0.00040613432
  0
VERTEX
  5
1A1B8
  8
AM_0
 10
126.5540751088747
 20
517.24139819140748
 30
0.0
 42
-0.00035573434
  0
VERTEX
  5
1A1B9
  8
AM_0
 10
126.5541151088748
 20
517.55250819140781
 30
0.0
 42
-0.00038545884
  0
VERTEX
  5
1A1BA
  8
AM_0
 10
126.5546051088747
 20
517.86363819140774
 30
0.0
 42
-0.00035501205
  0
VERTEX
  5
1A1BB
  8
AM_0
 10
126.5555651088748
 20
518.17474819140773
 30
0.0
 42
-0.00040120779
  0
VERTEX
  5
1A1BC
  8
AM_0
 10
126.5569851088746
 20
518.48597819140775
 30
0.0
 42
-0.00038317817
  0
VERTEX
  5
1A1BD
  8
AM_0
 10
126.55889510887479
 20
518.7971081914078
 30
0.0
 42
-0.00035656084
  0
VERTEX
  5
1A1BE
  8
AM_0
 10
126.5612751088747
 20
519.1083481914078
 30
0.0
 42
-0.00040143615
  0
VERTEX
  5
1A1BF
  8
AM_0
 10
126.5641251088748
 20
519.4194481914077
 30
0.0
  0
SEQEND
  5
1A1C0
  8
AM_0
  0
ARC
  5
1A1C1
  8
AM_0
 10
126.74576510887481
 20
530.68580819140777
 30
0.0
 40
1.0000138999999999
 50
89.691659999999231
 51
270.30834000000073
  0
ARC
  5
1A1C2
  8
AM_0
 10
125.5311651088748
 20
530.69581819140774
 30
0.0
 40
1.3300049999999981
 50
90.00000299999769
 51
270.0
  0
ARC
  5
1A1C3
  8
ｶｸﾚｾﾝ2
 10
133.70117510887459
 20
548.18579087212481
 30
0.0
 40
3.5
 50
90.0
 51
180.0
  0
POLYLINE
  5
1A1C4
  8
AM_0
 66
     1
 10
0.0
 20
0.0
 30
0.0
  0
VERTEX
  5
1A1C5
  8
AM_0
 10
128.0620451088748
 20
542.16883819140764
 30
0.0
 42
-0.00068898288
  0
VERTEX
  5
1A1C6
  8
AM_0
 10
128.13292510887459
 20
542.74358819140775
 30
0.0
 42
-0.00070644354
  0
VERTEX
  5
1A1C7
  8
AM_0
 10
128.20542510887481
 20
543.31827819140756
 30
0.0
 42
-0.00069248071
  0
VERTEX
  5
1A1C8
  8
AM_0
 10
128.27951510887459
 20
543.89258819140775
 30
0.0
 42
-0.00069585665
  0
VERTEX
  5
1A1C9
  8
AM_0
 10
128.3551951088748
 20
544.46672819140758
 30
0.0
 42
-0.00068980191
  0
VERTEX
  5
1A1CA
  8
AM_0
 10
128.43249510887469
 20
545.04072819140777
 30
0.0
 42
-0.00072080104
  0
VERTEX
  5
1A1CB
  8
AM_0
 10
128.51138510887469
 20
545.61451819140757
 30
0.0
 42
-0.00071002307
  0
VERTEX
  5
1A1CC
  8
AM_0
 10
128.59192510887459
 20
546.18798819140773
 30
0.0
 42
-0.00072659056
  0
VERTEX
  5
1A1CD
  8
AM_0
 10
128.67408510887481
 20
546.76108819140779
 30
0.0
 42
-0.00069570481
  0
VERTEX
  5
1A1CE
  8
AM_0
 10
128.75790510887461
 20
547.33411819140781
 30
0.0
 42
-0.00071266935
  0
VERTEX
  5
1A1CF
  8
AM_0
 10
128.8433351088747
 20
547.9068881914078
 30
0.0
 42
-0.00071614426
  0
VERTEX
  5
1A1D0
  8
AM_0
 10
128.93036510887461
 20
548.47922819140774
 30
0.0
 42
-0.00072288975
  0
VERTEX
  5
1A1D1
  8
AM_0
 10
129.0190751088746
 20
549.05152819140778
 30
0.0
  0
SEQEND
  5
1A1D2
  8
AM_0
  0
ARC
  5
1A1D3
  8
AM_0
 10
125.6611651088747
 20
540.71082819140759
 30
0.0
 40
1.465004
 50
90.00000299999769
 51
270.0
  0
ARC
  5
1A1D4
  8
AM_0
 10
126.74576510887481
 20
540.68580819140766
 30
0.0
 40
1.0000138999999999
 50
89.691659999999231
 51
270.30834000000073
  0
ARC
  5
1A1D5
  8
AM_0
 10
126.74576510887481
 20
550.68580819140755
 30
0.0
 40
1.0000138999999999
 50
89.691659999999231
 51
270.30834000000073
  0
ARC
  5
1A1D6
  8
AM_0
 10
125.8737551088747
 20
550.73084819140774
 30
0.0
 40
1.6750160000000001
 50
89.746145000004475
 51
270.25387000000092
  0
LINE
  5
1A1D7
  8
ﾁｭｳｼﾝｾﾝ1
 10
181.20117510887459
 20
475.0608132862709
 30
0.0
 11
181.20117510887459
 21
556.31081628627101
 31
0.0
  0
LINE
  5
1A1D8
  8
AM_0
 10
127.49115510887459
 20
577.58083310096765
 30
0.0
 11
161.20117510887459
 21
577.58083310096765
 31
0.0
  0
LINE
  5
1A1D9
  8
AM_0
 10
127.4711951088747
 20
576.66084210096756
 30
0.0
 11
161.20117510887459
 21
576.66084210096756
 31
0.0
  0
LINE
  5
1A1DA
  8
AM_0
 10
127.45117510887469
 20
574.82083810096765
 30
0.0
 11
161.20117510887459
 21
574.82083810096765
 31
0.0
  0
ARC
  5
1A1DB
  8
AM_0
 10
127.40582510887469
 20
569.9718391009676
 30
0.0
 40
1.9990078999999989
 50
90.133449999996998
 51
169.3625900000028
  0
LINE
  5
1A1DC
  8
AM_0
 10
124.20117510887469
 20
566.47081710096757
 30
0.0
 11
125.5111751088747
 21
575.85082210096755
 31
0.0
  0
LINE
  5
1A1DD
  8
AM_0
 10
124.2012351088747
 20
566.47084010096762
 30
0.0
 11
125.4912151088747
 21
574.97083210096764
 31
0.0
  0
LINE
  5
1A1DE
  8
AM_0
 10
124.20117510887469
 20
565.13084410096758
 30
0.0
 11
125.4811451088746
 21
573.13083610096771
 31
0.0
  0
LINE
  5
1A1DF
  8
AM_0
 10
124.20117510887469
 20
563.78085310096765
 30
0.0
 11
125.4411651088747
 21
570.3408501009676
 31
0.0
  0
ARC
  5
1A1E0
  8
AM_0
 10
127.4647251088747
 20
574.66350510096765
 30
0.0
 40
1.9973480999999991
 50
89.815320000002416
 51
171.14853000000031
  0
ARC
  5
1A1E1
  8
AM_0
 10
127.4932951088747
 20
575.5803601009676
 30
0.0
 40
2.0004758999999992
 50
90.060309999997457
 51
172.22953999999919
  0
ARC
  5
1A1E2
  8
AM_0
 10
127.4571551088746
 20
572.82066310096764
 30
0.0
 40
2.0001840999999998
 50
90.171470000000795
 51
171.07899999999739
  0
ARC
  5
1A1E3
  8
AM_0
 10
161.19788510887449
 20
574.65755410096767
 30
0.0
 40
2.003279899999999
 50
0.0937899999971395
 51
89.906210000002858
  0
ARC
  5
1A1E4
  8
AM_0
 10
161.1931851088745
 20
575.57283010096774
 30
0.0
 40
2.0080360999999991
 50
0.228789999999435
 51
89.771210000000551
  0
LINE
  5
1A1E5
  8
AM_0
 10
163.20117510887459
 20
575.58084010096775
 30
0.0
 11
163.20117510887459
 21
571.97084710096772
 31
0.0
  0
ARC
  5
1A1E6
  8
AM_0
 10
161.19397510887461
 20
572.81365910096747
 30
0.0
 40
2.0071799999999991
 50
0.2046199999977178
 51
89.795379999995774
  0
LINE
  5
1A1E7
  8
AM_0
 10
230.70117510887459
 20
553.91082710096771
 30
0.0
 11
226.2511651088746
 21
570.49082910096774
 31
0.0
  0
LINE
  5
1A1E8
  8
ｶｸﾚｾﾝ2
 10
214.70117510887459
 20
538.18579087212481
 30
0.0
 11
214.70117510887459
 21
493.18579087212458
 31
0.0
  0
LINE
  5
1A1E9
  8
AM_0
 10
232.20117510887459
 20
469.6858401009676
 30
0.0
 11
240.2011451088747
 21
469.6858401009676
 31
0.0
  0
LINE
  5
1A1EA
  8
AM_0
 10
232.20117510887459
 20
483.74583010096762
 30
0.0
 11
240.2011451088747
 21
483.74583010096762
 31
0.0
  0
ARC
  5
1A1EB
  8
ｶｸﾚｾﾝ2
 10
216.70117510887459
 20
493.1857908721247
 30
0.0
 40
2.0
 50
180.0
 51
270.0
  0
ARC
  5
1A1EC
  8
AM_0
 10
229.24111892975341
 20
490.65577892214372
 30
0.0
 40
1.460011199999999
 50
269.77523585549028
 51
90.224735855484042
  0
ARC
  5
1A1ED
  8
AM_0
 10
225.54110893716711
 20
490.68580983555898
 30
0.0
 40
1.0000255999999981
 50
269.58945485548259
 51
90.410515855483794
  0
ARC
  5
1A1EE
  8
AM_0
 10
225.54116646848391
 20
480.68580983554432
 30
0.0
 40
1.0
 50
269.99998285548111
 51
89.999995855492799
  0
ARC
  5
1A1EF
  8
ｶｸﾚｾﾝ2
 10
217.20117510887459
 20
481.68579087212481
 30
0.0
 40
2.0
 50
270.0
 51
0.0
  0
ARC
  5
1A1F0
  8
ｶｸﾚｾﾝ2
 10
217.20117510887459
 20
489.1857908721247
 30
0.0
 40
2.0
 50
0.0
 51
90.0
  0
LINE
  5
1A1F1
  8
ｶｸﾚｾﾝ2
 10
217.20117510887459
 20
491.18579087212458
 30
0.0
 11
216.70117510887459
 21
491.18579087212458
 31
0.0
  0
LINE
  5
1A1F2
  8
ｶｸﾚｾﾝ2
 10
219.20117510887459
 20
481.6857908721247
 30
0.0
 11
219.20117510887459
 21
489.18579087212458
 31
0.0
  0
ARC
  5
1A1F3
  8
AM_0
 10
229.02112628960501
 20
480.64079297645333
 30
0.0
 40
1.675026000120903
 50
270.0006727121953
 51
89.999295998816578
  0
ARC
  5
1A1F4
  8
AM_0
 10
231.85437510887459
 20
475.96307010096763
 30
0.0
 40
1.5027759999999999
 50
90.12240999999706
 51
165.24357000000049
  0
ARC
  5
1A1F5
  8
AM_0
 10
225.54113130585031
 20
500.68580983555358
 30
0.0
 40
1.000005699999998
 50
269.99998285548111
 51
89.999995855492799
  0
ARC
  5
1A1F6
  8
AM_0
 10
225.54113377453331
 20
510.6858098355533
 30
0.0
 40
1.000005699999998
 50
269.99998285548111
 51
89.999995855492799
  0
ARC
  5
1A1F7
  8
AM_0
 10
229.3661178021446
 20
500.67079889128559
 30
0.0
 40
1.3350147999999999
 50
269.73042985548369
 51
90.269555855491689
  0
ARC
  5
1A1F8
  8
AM_0
 10
229.42807027206209
 20
510.67579887599197
 30
0.0
 40
1.2700266
 50
269.62931585548409
 51
90.370665855482358
  0
LINE
  5
1A1F9
  8
AM_0
 10
232.20117510887459
 20
547.62583110096773
 30
0.0
 11
240.2011451088747
 21
547.62583110096773
 31
0.0
  0
ARC
  5
1A1FA
  8
AM_0
 10
225.54113500887479
 20
530.68580819140777
 30
0.0
 40
1.000005699999998
 50
269.999989999999
 51
90.00000299999769
  0
ARC
  5
1A1FB
  8
AM_0
 10
225.54113500887479
 20
520.68580819140755
 30
0.0
 40
1.000005699999998
 50
269.999989999999
 51
90.00000299999769
  0
ARC
  5
1A1FC
  8
AM_0
 10
229.42807150887481
 20
520.69581819140774
 30
0.0
 40
1.2700266
 50
269.62931999999989
 51
90.370669999998199
  0
ARC
  5
1A1FD
  8
AM_0
 10
229.36612150887481
 20
530.70081819140773
 30
0.0
 40
1.3350147999999999
 50
269.7304299999999
 51
90.269555999994864
  0
ARC
  5
1A1FE
  8
AM_0
 10
225.5411751088748
 20
550.68580819140755
 30
0.0
 40
1.0
 50
269.999989999999
 51
90.00000299999769
  0
ARC
  5
1A1FF
  8
AM_0
 10
225.54111510887469
 20
540.68580819140766
 30
0.0
 40
1.0000255999999981
 50
269.58946999999671
 51
90.410530999997775
  0
LINE
  5
1A200
  8
ｶｸﾚｾﾝ2
 10
219.20117510887459
 20
542.18579087212481
 30
0.0
 11
219.20117510887459
 21
549.6857908721247
 31
0.0
  0
LINE
  5
1A201
  8
ｶｸﾚｾﾝ2
 10
219.20117510887459
 20
542.18579087212481
 30
0.0
 11
219.20117510887459
 21
549.6857908721247
 31
0.0
  0
ARC
  5
1A202
  8
ｶｸﾚｾﾝ2
 10
217.20117510887459
 20
542.18579087212481
 30
0.0
 40
2.0
 50
270.0
 51
0.0
  0
LINE
  5
1A203
  8
ｶｸﾚｾﾝ2
 10
216.70117510887459
 20
540.18579087212481
 30
0.0
 11
217.20117510887459
 21
540.18579087212481
 31
0.0
  0
ARC
  5
1A204
  8
ｶｸﾚｾﾝ2
 10
216.70117510887459
 20
538.18579087212481
 30
0.0
 40
2.0
 50
90.0
 51
180.0
  0
ARC
  5
1A205
  8
ｶｸﾚｾﾝ2
 10
217.20117510887459
 20
549.6857908721247
 30
0.0
 40
2.0
 50
0.0
 51
90.0
  0
ARC
  5
1A206
  8
AM_0
 10
229.24112510887471
 20
540.71583819140767
 30
0.0
 40
1.460011199999999
 50
269.7752500000031
 51
90.224749999996845
  0
ARC
  5
1A207
  8
AM_0
 10
229.02113494110901
 20
550.73082419140712
 30
0.0
 40
1.675026000120903
 50
270.00068985666218
 51
89.999313143296447
  0
LINE
  5
1A208
  8
AM_0
 10
232.20117510887459
 20
561.68583610096755
 30
0.0
 11
240.2011451088747
 21
561.68583610096755
 31
0.0
  0
LINE
  5
1A209
  8
AM_0
 10
232.20117510887459
 20
571.68584410096776
 30
0.0
 11
240.2011451088747
 21
571.68584410096776
 31
0.0
  0
ARC
  5
1A20A
  8
AM_0
 10
224.31830510887471
 20
569.96870410096756
 30
0.0
 40
2.0021281000000002
 50
15.116699999995051
 51
89.918480000000116
  0
LINE
  5
1A20B
  8
AM_0
 10
226.74115510887461
 20
568.69083310096755
 30
0.0
 11
232.20117510887459
 21
568.69083310096755
 31
0.0
  0
TEXT
  5
1A334
  8
AM_0
 10
519.53830026402045
 20
516.54818752083042
 30
0.0
 40
10.0
  1
VC01-080BL~VC01-240BL
1001
ACAD
1000
MTEXTBEGIN
1070
    73
1070
     1
1070
    44
1040
1.0
1070
    74
1070
     0
1000
MTEXTEND
  0
VIEWPORT
  5
89
 67
     1
  8
VIEW
 10
210.0
 20
148.5
 30
0.0
 40
420.0
 41
297.0
 68
     1
 69
     1
1001
ACAD
1000
MVIEW
1002
{
1070
    16
1010
0.0
1020
0.0
1030
0.0
1010
0.0
1020
0.0
1030
1.0
1040
0.0
1040
297.0
1040
221.70154043645701
1040
148.5
1040
50.0
1040
0.0
1040
0.0
1070
     0
1070
   100
1070
     1
1070
     1
1070
     0
1070
     0
1070
     0
1070
     0
1040
0.0
1040
0.0
1040
0.0
1040
10.0
1040
10.0
1040
10.0
1040
10.0
1070
     0
1002
{
1002
}
1002
}
1001
GENIUS_GENOREF_13
1005
1B94
1001
GENIUS_GENSCREG_15
1000
PF
1040
1.0
1000
DF
1040
1.0
1000
MIN
1011
0.0
1021
0.0
1031
0.0
1021
0.0
1031
0.0
1000
MAX
1011
420.0
1021
0.0
1031
0.0
1021
297.0
1031
0.0
1000
FLAGS
1070
     4
  0
ENDSEC
  0
EOF
