  0
SECTION
  2
HEADER
  9
$ACADVER
  1
AC1009
  9
$INSBASE
 10
0.0
 20
0.0
 30
0.0
  9
$EXTMIN
 10
32.271928904661763
 20
147.06849765742911
 30
-0.0015258207003583
  9
$EXTMAX
 10
787.30217933934455
 20
614.58745883532708
 30
0.0000000349246037
  9
$LIMMIN
 10
0.0
 20
0.0
  9
$LIMMAX
 10
853.5
 20
555.00000000000011
  9
$ORTHOMODE
 70
     0
  9
$REGENMODE
 70
     1
  9
$FILLMODE
 70
     1
  9
$QTEXTMODE
 70
     0
  9
$MIRRTEXT
 70
     1
  9
$DRAGMODE
 70
     2
  9
$LTSCALE
 40
3.0
  9
$OSMODE
 70
   551
  9
$ATTMODE
 70
     1
  9
$TEXTSIZE
 40
2.5
  9
$TRACEWID
 40
1.0
  9
$TEXTSTYLE
  7
STANDARD
  9
$CLAYER
  8
AM_0
  9
$CELTYPE
  6
BYLAYER
  9
$CECOLOR
 62
   256
  9
$DIMSCALE
 40
3.0
  9
$DIMASZ
 40
2.5
  9
$DIMEXO
 40
1.0
  9
$DIMDLI
 40
7.0
  9
$DIMRND
 40
0.0
  9
$DIMDLE
 40
0.0
  9
$DIMEXE
 40
1.0
  9
$DIMTP
 40
0.1
  9
$DIMTM
 40
0.1000000001
  9
$DIMTXT
 40
2.5
  9
$DIMCEN
 40
0.0
  9
$DIMTSZ
 40
0.0
  9
$DIMTOL
 70
     0
  9
$DIMLIM
 70
     0
  9
$DIMTIH
 70
     0
  9
$DIMTOH
 70
     0
  9
$DIMSE1
 70
     0
  9
$DIMSE2
 70
     0
  9
$DIMTAD
 70
     3
  9
$DIMZIN
 70
     8
  9
$DIMBLK
  1

  9
$DIMASO
 70
     1
  9
$DIMSHO
 70
     1
  9
$DIMPOST
  1

  9
$DIMAPOST
  1
"
  9
$DIMALT
 70
     0
  9
$DIMALTD
 70
     2
  9
$DIMALTF
 40
0.0393701
  9
$DIMLFAC
 40
1.0
  9
$DIMTOFL
 70
     1
  9
$DIMTVP
 40
0.0
  9
$DIMTIX
 70
     0
  9
$DIMSOXD
 70
     0
  9
$DIMSAH
 70
     0
  9
$DIMBLK1
  1

  9
$DIMBLK2
  1

  9
$DIMSTYLE
  2
AM_JIS
  9
$DIMCLRD
 70
   256
  9
$DIMCLRE
 70
   256
  9
$DIMCLRT
 70
     4
  9
$DIMTFAC
 40
0.71
  9
$DIMGAP
 40
1.0
  9
$LUNITS
 70
     2
  9
$LUPREC
 70
     2
  9
$SKETCHINC
 40
1.0
  9
$FILLETRAD
 40
2.0
  9
$AUNITS
 70
     0
  9
$AUPREC
 70
     3
  9
$MENU
  1
.
  9
$ELEVATION
 40
0.0
  9
$PELEVATION
 40
0.0
  9
$THICKNESS
 40
0.0
  9
$LIMCHECK
 70
     0
  9
$BLIPMODE
 70
     0
  9
$CHAMFERA
 40
7.5
  9
$CHAMFERB
 40
7.5
  9
$SKPOLY
 70
     0
  9
$TDCREATE
 40
2452753.643349607
  9
$TDUPDATE
 40
2458543.4841909031
  9
$TDINDWG
 40
0.4326317245
  9
$TDUSRTIMER
 40
0.4326315278
  9
$USRTIMER
 70
     1
  9
$ANGBASE
 50
0.0
  9
$ANGDIR
 70
     0
  9
$PDMODE
 70
     0
  9
$PDSIZE
 40
0.0
  9
$PLINEWID
 40
0.0
  9
$COORDS
 70
     1
  9
$SPLFRAME
 70
     0
  9
$SPLINETYPE
 70
     6
  9
$SPLINESEGS
 70
     8
  9
$ATTDIA
 70
     1
  9
$ATTREQ
 70
     1
  9
$HANDLING
 70
     1
  9
$HANDSEED
  5
1A1C2
  9
$SURFTAB1
 70
     6
  9
$SURFTAB2
 70
     6
  9
$SURFTYPE
 70
     6
  9
$SURFU
 70
     6
  9
$SURFV
 70
     6
  9
$UCSNAME
  2

  9
$UCSORG
 10
0.0
 20
0.0
 30
0.0
  9
$UCSXDIR
 10
1.0
 20
0.0
 30
0.0
  9
$UCSYDIR
 10
0.0
 20
1.0
 30
0.0
  9
$PUCSNAME
  2

  9
$PUCSORG
 10
0.0
 20
0.0
 30
0.0
  9
$PUCSXDIR
 10
1.0
 20
0.0
 30
0.0
  9
$PUCSYDIR
 10
0.0
 20
1.0
 30
0.0
  9
$USERI1
 70
     0
  9
$USERI2
 70
     0
  9
$USERI3
 70
     0
  9
$USERI4
 70
     0
  9
$USERI5
 70
     0
  9
$USERR1
 40
0.0
  9
$USERR2
 40
0.0
  9
$USERR3
 40
0.0
  9
$USERR4
 40
0.0
  9
$USERR5
 40
0.0
  9
$WORLDVIEW
 70
     1
  9
$SHADEDGE
 70
     3
  9
$SHADEDIF
 70
    70
  9
$TILEMODE
 70
     1
  9
$MAXACTVP
 70
    48
  9
$PLIMCHECK
 70
     0
  9
$PEXTMIN
 10
1.0000000000000000E+020
 20
1.0000000000000000E+020
 30
1.0000000000000000E+020
  9
$PEXTMAX
 10
-1.0000000000000000E+020
 20
-1.0000000000000000E+020
 30
-1.0000000000000000E+020
  9
$PLIMMIN
 10
0.0
 20
0.0
  9
$PLIMMAX
 10
420.0
 20
297.0
  9
$UNITMODE
 70
     0
  9
$VISRETAIN
 70
     1
  9
$PLINEGEN
 70
     0
  9
$PSLTSCALE
 70
     1
  0
ENDSEC
  0
SECTION
  2
TABLES
  0
TABLE
  2
VPORT
 70
     1
  0
VPORT
  2
*ACTIVE
 70
     0
 10
0.0
 20
0.0
 11
1.0
 21
1.0
 12
409.7870541220031
 22
380.82797824637811
 13
0.0
 23
0.0
 14
7.5
 24
7.5
 15
30.0
 25
30.0
 16
0.0
 26
0.0
 36
1.0
 17
0.0
 27
0.0
 37
0.0
 40
470.72847349719711
 41
1.7571592210767459
 42
50.0
 43
0.0
 44
0.0
 50
0.0
 51
0.0
 71
    16
 72
   100
 73
     1
 74
     1
 75
     0
 76
     0
 77
     0
 78
     0
  0
ENDTAB
  0
TABLE
  2
LTYPE
 70
    21
  0
LTYPE
  2
CONTINUOUS
 70
     0
  3
Solid line
 72
    65
 73
     0
 40
0.0
  0
LTYPE
  2
PHANTOM2
 70
     0
  3
Phantom (.5x) ___ _ _ ___ _ _ ___ _ _ ___ _ _
 72
    65
 73
     6
 40
31.75
 49
15.875
 49
-3.174999999999998
 49
3.174999999999998
 49
-3.174999999999998
 49
3.174999999999998
 49
-3.174999999999998
  0
LTYPE
  2
CENTER
 70
     0
  3
Center ____ _ ____ _ ____ _ ____ _ ____ _ ____
 72
    65
 73
     4
 40
50.799999999999997
 49
31.75
 49
-6.3499999999999979
 49
6.3499999999999979
 49
-6.3499999999999979
  0
LTYPE
  2
ACANSTGBM
 70
     0
  3
__ . . __ . .
 72
    65
 73
     6
 40
9.0
 49
4.0
 49
-1.0
 49
1.0
 49
-1.0
 49
1.0
 49
-1.0
  0
LTYPE
  2
ACANSTGLM
 70
     0
  3
_ _ _ _ _
 72
    65
 73
     2
 40
3.0
 49
2.0
 49
-1.0
  0
LTYPE
  2
GEN3B
 70
     0
  3
 - - - - -
 72
    65
 73
     2
 40
1.0
 49
0.5
 49
-0.5
  0
LTYPE
  2
GEN7A
 70
     0
  3
__ . __ . __
 72
    65
 73
     4
 40
7.375
 49
4.75
 49
-0.875
 49
0.875
 49
-0.875
  0
LTYPE
  2
AM_ISO02W050
 70
     0
  3
__ __ __ __ __ __ __ __ __ __ __ __ __ __ __
 72
    65
 73
     2
 40
7.5
 49
6.0
 49
-1.5
  0
LTYPE
  2
AM_ISO08W050
 70
     0
  3
____ . ____ . ____ . ____ . ____ . ____ . ____
 72
    65
 73
     4
 40
18.0
 49
12.0
 49
-1.5
 49
3.0
 49
-1.5
  0
LTYPE
  2
AM_ISO09W050
 70
     0
  3
_____ . . _____ . . _____ . . ____ .. ____
 72
    65
 73
     6
 40
22.5
 49
12.0
 49
-1.5
 49
3.0
 49
-1.5
 49
3.0
 49
-1.5
  0
LTYPE
  2
AMCONSTR
 70
     0
  3
_______________________
 72
    65
 73
     2
 40
9999.0
 49
9999.0
 49
0.0
  0
LTYPE
  2
AM_ISO02W050X2
 70
     0
  3
 _ _ _ _ _ _ _ _ _ _ _ _
 72
    65
 73
     2
 40
3.75
 49
3.0
 49
-0.75
  0
LTYPE
  2
AM_ISO08W050X2
 70
     0
  3
__ . __ . __ . __ . __ . __
 72
    65
 73
     4
 40
9.0
 49
6.0
 49
-0.75
 49
1.5
 49
-0.75
  0
LTYPE
  2
AMZIGZAG
 70
     0
  3
/\/-/\/-/\/-/\/-/\/-/\/
 72
    65
 73
     2
 40
11.0001
 49
0.0001
 49
-11.0
  0
LTYPE
  2
ACJISTGB
 70
     0
  3
__ . . __ . .
 72
    65
 73
     6
 40
9.0
 49
4.0
 49
-1.0
 49
1.0
 49
-1.0
 49
1.0
 49
-1.0
  0
LTYPE
  2
ACJISTGL
 70
     0
  3
_ _ _ _ _
 72
    65
 73
     2
 40
3.0
 49
2.0
 49
-1.0
  0
LTYPE
  2
ACISOWELD
 70
     0
  3
_ _ _ _ _
 72
    65
 73
     2
 40
2.0
 49
2.0
 49
-1.0
  0
LTYPE
  2
ACISOTGB
 70
     0
  3
__ . . __ . .
 72
    65
 73
     6
 40
9.0
 49
4.0
 49
-1.0
 49
1.0
 49
-1.0
 49
1.0
 49
-1.0
  0
LTYPE
  2
ACISOTGL
 70
     0
  3
_ _ _ _ _
 72
    65
 73
     2
 40
3.0
 49
2.0
 49
-1.0
  0
LTYPE
  2
HIDDEN
 70
     0
  3
Hidden __ __ __ __ __ __ __ __ __ __ __ __ __ _
 72
    65
 73
     2
 40
9.5249999999999968
 49
6.3499999999999979
 49
-3.174999999999998
  0
ENDTAB
  0
TABLE
  2
LAYER
 70
     9
  0
LAYER
  2
0
 70
     0
 62
     7
  6
CONTINUOUS
  0
LAYER
  2
ｽﾝﾎﾟｳｾﾝ
 70
     0
 62
     2
  6
CONTINUOUS
  0
LAYER
  2
DEFPOINTS
 70
     0
 62
     7
  6
CONTINUOUS
  0
LAYER
  2
ｶｸﾚｾﾝ2
 70
     0
 62
     3
  6
GEN3B
  0
LAYER
  2
ﾁｭｳｼﾝｾﾝ1
 70
     0
 62
     1
  6
GEN7A
  0
LAYER
  2
AM_0
 70
     0
 62
     7
  6
CONTINUOUS
  0
LAYER
  2
AM_0N
 70
     0
 62
     7
  6
CONTINUOUS
  0
LAYER
  2
AM_5
 70
     0
 62
     2
  6
CONTINUOUS
  0
LAYER
  2
1
 70
     0
 62
     7
  6
CONTINUOUS
  0
ENDTAB
  0
TABLE
  2
STYLE
 70
     8
  0
STYLE
  2
STANDARD
 70
     0
 40
0.0
 41
0.8299999999999999
 50
0.0
 71
     0
 42
2.5
  3
txt.shx
  4
bigfont.shx
  0
STYLE
  2
ACANSTS
 70
     0
 40
1.0
 41
1.0
 50
0.0
 71
     0
 42
2.5
  3
romans.shx
  4
bigfont.shx
  0
STYLE
  2
ACANSGDT
 70
     0
 40
0.0
 41
1.0
 50
0.0
 71
     0
 42
2.5
  3
amgdtans.shx
  4

  0
STYLE
  2

 70
     1
 40
0.0
 41
1.0
 50
0.0
 71
     0
 42
2.5
  3
ltypeshp.shx
  4

  0
STYLE
  2
ACJISTS
 70
     0
 40
1.0
 41
1.0
 50
0.0
 71
     0
 42
2.5
  3
isocp.shx
  4
bigfont.shx
  0
STYLE
  2
ACJISGDT
 70
     0
 40
0.0
 41
1.0
 50
0.0
 71
     0
 42
2.5
  3
amgdt.shx
  4

  0
STYLE
  2
ACISOTS
 70
     0
 40
3.0
 41
1.0
 50
0.0
 71
     0
 42
2.5
  3
isocp.shx
  4
extfont.shx
  0
STYLE
  2
ACISOGDT
 70
     0
 40
0.0
 41
1.0
 50
0.0
 71
     0
 42
2.5
  3
amgdt.shx
  4

  0
ENDTAB
  0
TABLE
  2
VIEW
 70
    12
  0
VIEW
  2
GEN1
 70
     0
 40
95.824742268041234
 10
71.5
 20
137.08762886597941
 41
143.0
 11
0.0
 21
0.0
 31
1.0
 12
0.0
 22
0.0
 32
0.0
 42
50.0
 43
0.0
 44
0.0
 50
0.0
 71
     0
  0
VIEW
  2
GEN2
 70
     0
 40
95.824742268041234
 10
214.5
 20
137.08762886597941
 41
143.0
 11
0.0
 21
0.0
 31
1.0
 12
0.0
 22
0.0
 32
0.0
 42
50.0
 43
0.0
 44
0.0
 50
0.0
 71
     0
  0
VIEW
  2
GEN3
 70
     0
 40
95.824742268041234
 10
71.5
 20
47.912371134020603
 41
143.0
 11
0.0
 21
0.0
 31
1.0
 12
0.0
 22
0.0
 32
0.0
 42
50.0
 43
0.0
 44
0.0
 50
0.0
 71
     0
  0
VIEW
  2
GEN4
 70
     0
 40
95.824742268041234
 10
214.5
 20
47.912371134020603
 41
143.0
 11
0.0
 21
0.0
 31
1.0
 12
0.0
 22
0.0
 32
0.0
 42
50.0
 43
0.0
 44
0.0
 50
0.0
 71
     0
  0
VIEW
  2
GEN5
 70
     0
 40
95.824742268041234
 10
143.0
 20
92.500000000000057
 41
143.0
 11
0.0
 21
0.0
 31
1.0
 12
0.0
 22
0.0
 32
0.0
 42
50.0
 43
0.0
 44
0.0
 50
0.0
 71
     0
  0
VIEW
  2
GEN6
 70
     0
 40
191.64756804123709
 10
143.0
 20
92.5
 41
285.99714
 11
0.0
 21
0.0
 31
1.0
 12
0.0
 22
0.0
 32
0.0
 42
50.0
 43
0.0
 44
0.0
 50
0.0
 71
     0
  0
VIEW
  2
AM_VIEW1
 70
     0
 40
277.50000000000011
 10
249.64779005524869
 20
416.25000000000011
 41
499.29558011049721
 11
0.0
 21
0.0
 31
1.0
 12
0.0
 22
0.0
 32
0.0
 42
50.0
 43
0.0
 44
0.0
 50
0.0
 71
    16
  0
VIEW
  2
AM_VIEW2
 70
     0
 40
277.50000000000011
 10
603.85220994475117
 20
416.25000000000011
 41
499.29558011049721
 11
0.0
 21
0.0
 31
1.0
 12
0.0
 22
0.0
 32
0.0
 42
50.0
 43
0.0
 44
0.0
 50
0.0
 71
    16
  0
VIEW
  2
AM_VIEW3
 70
     0
 40
277.50000000000011
 10
249.64779005524869
 20
138.75
 41
499.29558011049721
 11
0.0
 21
0.0
 31
1.0
 12
0.0
 22
0.0
 32
0.0
 42
50.0
 43
0.0
 44
0.0
 50
0.0
 71
    16
  0
VIEW
  2
AM_VIEW4
 70
     0
 40
277.50000000000011
 10
603.85220994475117
 20
138.75
 41
499.29558011049721
 11
0.0
 21
0.0
 31
1.0
 12
0.0
 22
0.0
 32
0.0
 42
50.0
 43
0.0
 44
0.0
 50
0.0
 71
    16
  0
VIEW
  2
AM_VIEW5
 70
     0
 40
277.50000000000011
 10
426.75
 20
277.50000000000011
 41
499.2955801104971
 11
0.0
 21
0.0
 31
1.0
 12
0.0
 22
0.0
 32
0.0
 42
50.0
 43
0.0
 44
0.0
 50
0.0
 71
    16
  0
VIEW
  2
AM_VIEW6
 70
     0
 40
554.99445000000014
 10
426.75
 20
277.5
 41
998.5811743093924
 11
0.0
 21
0.0
 31
1.0
 12
0.0
 22
0.0
 32
0.0
 42
50.0
 43
0.0
 44
0.0
 50
0.0
 71
    16
  0
ENDTAB
  0
TABLE
  2
UCS
 70
     0
  0
ENDTAB
  0
TABLE
  2
APPID
 70
    97
  0
APPID
  2
ACAD
 70
     0
  0
APPID
  2
MCAD_NO_VIS
 70
     0
  0
APPID
  2
ACAD_TEMP_GRAPHIC
 70
     0
  0
APPID
  2
AD_DRAW
 70
     0
  0
APPID
  2
DESIGNERASSEMBLIES
 70
     0
  0
APPID
  2
ASURF_PCURVE_APPNAME
 70
     0
  0
APPID
  2
GENIUS_GE3SECT_13
 70
     0
  0
APPID
  2
GENIUS_GENCFG_13
 70
     0
  0
APPID
  2
GENIUS_GE3CFG0_13
 70
     0
  0
APPID
  2
GENIUS_GENCFG0_13
 70
     0
  0
APPID
  2
GENIUS_GENCFG1_13
 70
     0
  0
APPID
  2
GENIUS_GENCFG2_13
 70
     0
  0
APPID
  2
GENIUS_GENCFG3_13
 70
     0
  0
APPID
  2
GENIUS_GENCFG4_13
 70
     0
  0
APPID
  2
GENIUS_GEVCFG0_13
 70
     0
  0
APPID
  2
GENIUS_GENOENT_13
 70
     0
  0
APPID
  2
GENIUS_GENREC_14
 70
     0
  0
APPID
  2
GENIUS_GENODEF_13
 70
     0
  0
APPID
  2
GENIUS_GENOBJ-N-REC_13
 70
     0
  0
APPID
  2
GENIUS_GENHINW_13
 70
     0
  0
APPID
  2
GENIUS_FIRSTVISTXT_14
 70
     0
  0
APPID
  2
GENIUS_GENOBJ-N-LEADER_13
 70
     0
  0
APPID
  2
GENIUS_GENOREF_13
 70
     0
  0
APPID
  2
GENIUS_GENOLIS_13
 70
     0
  0
APPID
  2
GEV_VCCNULL_SWITCH_OFF
 70
     0
  0
APPID
  2
GENIUS_GENDTOL_13
 70
     0
  0
APPID
  2
GENIUS_GEFCFG0_13
 70
     0
  0
APPID
  2
GENIUS_GENOBJ-N-TIT_13
 70
     0
  0
APPID
  2
GENIUS_GENTITLE_13
 70
     0
  0
APPID
  2
GENIUS_GENZVEED_13
 70
     0
  0
APPID
  2
GENIUS_GENOBJ-N-SDF_13
 70
     0
  0
APPID
  2
GENIUS_GENSCREG_13
 70
     0
  0
APPID
  2
GENIUS_DUMCFG0_13
 70
     0
  0
APPID
  2
GEVID936201362
 70
     0
  0
APPID
  2
GEVDC
 70
     0
  0
APPID
  2
GEVCON
 70
     0
  0
APPID
  2
VCC
 70
     0
  0
APPID
  2
GEVPT
 70
     0
  0
APPID
  2
GEVIT
 70
     0
  0
APPID
  2
GENBH
 70
     0
  0
APPID
  2
GEVMK
 70
     0
  0
APPID
  2
GENIUS_GENBH_13
 70
     0
  0
APPID
  2
GENIUS_GENOBJ-NBEHI-BHF_13
 70
     0
  0
APPID
  2
GENIUS_GENOBJ-NBEHI-BHB_13
 70
     0
  0
APPID
  2
GENIUS_GENOBJ-F-DESC_13
 70
     0
  0
APPID
  2
GENIUS_GEFDESC_14
 70
     0
  0
APPID
  2
GENIUS_GENOBJ-F-PART_13
 70
     0
  0
APPID
  2
GENIUS_GEFSTDP_13
 70
     0
  0
APPID
  2
GENIUS_GEFPARTINS_13
 70
     0
  0
APPID
  2
GENIUS_GENTRA_14
 70
     0
  0
APPID
  2
GENIUS_GENINF13_13
 70
     0
  0
APPID
  2
GENIUS_GENOBJ-N-INFOPT_13
 70
     0
  0
APPID
  2
GENIUS_GENOBJ-N-RSSYM_13
 70
     0
  0
APPID
  2
GENIUS_GENSYMENT_13
 70
     0
  0
APPID
  2
GENIUS_GENSCSYM_13
 70
     0
  0
APPID
  2
GENIUS_GEFINFNAM_13
 70
     0
  0
APPID
  2
GENIUS_GENSCREG_15
 70
     0
  0
APPID
  2
GENIUS_GENOBJ-N-CEN_13
 70
     0
  0
APPID
  2
GENIUS_GENOBJ-N-CRS_13
 70
     0
  0
APPID
  2
GENIUS_GENOBJ-N-CRC_13
 70
     0
  0
APPID
  2
GENIUS_GENCRC_14
 70
     0
  0
APPID
  2
GEVID942827039
 70
     0
  0
APPID
  2
GEVID942827040
 70
     0
  0
APPID
  2
GEVID942827041
 70
     0
  0
APPID
  2
GENIUS_GENOBJ-F-SCPASSM_13
 70
     0
  0
APPID
  2
GENIUS_GENDIMSH_14
 70
     0
  0
APPID
  2
GENIUS_GENFIL_13
 70
     0
  0
APPID
  2
GENIUS_GENOBJ-N-CHA_13
 70
     0
  0
APPID
  2
GENIUS_GENOBJ-N-FIL_13
 70
     0
  0
APPID
  2
GEVID942827042
 70
     0
  0
APPID
  2
GEVID946020473
 70
     0
  0
APPID
  2
GEVID946020474
 70
     0
  0
APPID
  2
GEVID946020475
 70
     0
  0
APPID
  2
GENIUS_GENOBJ-N-HTC_13
 70
     0
  0
APPID
  2
GENIUS_GENHATCH_13
 70
     0
  0
APPID
  2
GEVID948854295
 70
     0
  0
APPID
  2
GEVID939402019
 70
     0
  0
APPID
  2
GEVID952919491
 70
     0
  0
APPID
  2
GEVID952919492
 70
     0
  0
APPID
  2
GENIUS_GEFWELD_13
 70
     0
  0
APPID
  2
GENIUS_GENOBJ-F-WELS_13
 70
     0
  0
APPID
  2
GEVID952919493
 70
     0
  0
APPID
  2
GENIUS_GENOBJ-N-RSBK_13
 70
     0
  0
APPID
  2
GENIUS_GENOBJ-N-LIB_13
 70
     0
  0
APPID
  2
GENIUS_GENSCALE_13
 70
     0
  0
APPID
  2
GEVID986376691
 70
     0
  0
APPID
  2
ACATTRIBSERVICES
 70
     0
  0
APPID
  2
DCO15
 70
     0
  0
APPID
  2
GEVID1088155249
 70
     0
  0
APPID
  2
ACADM_DIM_EDIT
 70
     0
  0
APPID
  2
AMDT_DM_ADJ
 70
     0
  0
APPID
  2
ACAD_MLEADERVER
 70
     0
  0
APPID
  2
ACAD_DSTYLE_DIMBREAK
 70
     0
  0
APPID
  2
ACAD_DSTYLE_DIMJAG
 70
     0
  0
APPID
  2
ACAD_NAV_VCDISPLAY
 70
     0
  0
APPID
  2
ACADANNOPO
 70
     0
  0
APPID
  2
ACAD_EXEMPT_FROM_CAD_STANDARDS
 70
     0
  0
ENDTAB
  0
TABLE
  2
DIMSTYLE
 70
    16
  0
DIMSTYLE
  2
STANDARD
 70
     0
  3

  4

  5

  6

  7

 40
1.0
 41
0.18
 42
0.0625
 43
0.38
 44
0.18
 45
0.0
 46
0.0
 47
0.0
 48
0.0
140
0.18
141
0.09
142
0.0
143
25.399999999999999
144
1.0
145
0.0
146
1.0
147
0.09
 71
     0
 72
     0
 73
     1
 74
     1
 75
     0
 76
     0
 77
     0
 78
     0
170
     0
171
     2
172
     0
173
     0
174
     0
175
     0
176
     0
177
     0
178
     0
  0
DIMSTYLE
  2
AM_JIS
 70
     0
  3

  4
"
  5

  6

  7

 40
1.0
 41
2.5
 42
1.0
 43
7.0
 44
1.0
 45
0.0
 46
0.0
 47
0.1
 48
0.1000000001
140
2.5
141
0.0
142
0.0
143
0.0393701
144
1.0
145
0.0
146
0.71
147
1.0
 71
     0
 72
     0
 73
     0
 74
     0
 75
     0
 76
     0
 77
     3
 78
     8
170
     0
171
     2
172
     1
173
     0
174
     0
175
     0
176
   256
177
   256
178
     4
  0
DIMSTYLE
  2
AM_JIS$3
 70
     0
  3

  4
"
  5

  6

  7

 40
1.0
 41
2.5
 42
1.0
 43
7.0
 44
1.0
 45
0.0
 46
0.0
 47
0.1
 48
0.1000000001
140
2.5
141
0.0
142
0.0
143
0.0393701
144
1.0
145
0.0
146
0.71
147
1.0
 71
     0
 72
     0
 73
     0
 74
     1
 75
     0
 76
     0
 77
     3
 78
     8
170
     0
171
     2
172
     0
173
     0
174
     0
175
     0
176
   256
177
   256
178
     4
  0
DIMSTYLE
  2
AM_JIS$4
 70
     0
  3

  4
"
  5

  6

  7

 40
1.0
 41
2.5
 42
1.0
 43
7.0
 44
1.0
 45
0.0
 46
0.0
 47
0.1
 48
0.1000000001
140
2.5
141
0.0
142
0.0
143
0.0393701
144
1.0
145
0.0
146
0.71
147
1.0
 71
     0
 72
     0
 73
     0
 74
     0
 75
     0
 76
     0
 77
     3
 78
     8
170
     0
171
     2
172
     0
173
     0
174
     0
175
     0
176
   256
177
   256
178
     4
  0
DIMSTYLE
  2
AM_JIS$6
 70
     0
  3

  4
"
  5

  6

  7

 40
1.0
 41
2.5
 42
1.0
 43
7.0
 44
1.0
 45
0.0
 46
0.0
 47
0.1
 48
0.1000000001
140
2.5
141
0.0
142
0.0
143
0.0393701
144
1.0
145
0.0
146
0.71
147
1.0
 71
     0
 72
     0
 73
     0
 74
     0
 75
     0
 76
     0
 77
     0
 78
     8
170
     0
171
     2
172
     1
173
     0
174
     0
175
     0
176
   256
177
   256
178
     4
  0
DIMSTYLE
  2
AM_JIS$7
 70
     0
  3

  4
"
  5

  6

  7

 40
1.0
 41
2.5
 42
1.0
 43
7.0
 44
1.0
 45
0.0
 46
0.0
 47
0.1
 48
0.1000000001
140
2.5
141
0.0
142
0.0
143
0.0393701
144
1.0
145
0.0
146
0.71
147
1.0
 71
     0
 72
     0
 73
     0
 74
     0
 75
     0
 76
     0
 77
     3
 78
     8
170
     0
171
     2
172
     1
173
     0
174
     0
175
     0
176
   256
177
   256
178
     4
  0
DIMSTYLE
  2
AM_JIS$SF
 70
     0
  3

  4
"
  5
OPEN30
  6
OPEN30
  7
OPEN30
 40
1.0
 41
2.5
 42
1.0
 43
10.0
 44
1.0
 45
0.0
 46
0.0
 47
0.1
 48
0.1
140
3.5
141
0.0
142
0.0
143
0.0393701
144
1.0
145
0.0
146
0.71
147
1.5
 71
     0
 72
     0
 73
     0
 74
     0
 75
     1
 76
     1
 77
     3
 78
     8
170
     0
171
     2
172
     1
173
     0
174
     0
175
     0
176
   256
177
   256
178
     4
  0
DIMSTYLE
  2
AM_JIS$SH
 70
     0
  3

  4
"
  5

  6
NONE
  7

 40
1.0
 41
2.5
 42
1.0
 43
10.0
 44
1.0
 45
0.0
 46
0.0
 47
0.1
 48
0.1
140
3.5
141
0.0
142
0.0
143
0.0393701
144
1.0
145
0.0
146
0.71
147
1.5
 71
     0
 72
     0
 73
     0
 74
     0
 75
     1
 76
     0
 77
     3
 78
     8
170
     0
171
     2
172
     1
173
     1
174
     0
175
     0
176
   256
177
   256
178
     4
  0
DIMSTYLE
  2
AM_ISO
 70
     0
  3

  4
"
  5

  6

  7

 40
1.0
 41
2.5
 42
1.0
 43
10.0
 44
1.0
 45
0.0
 46
0.0
 47
0.0
 48
0.000000001
140
3.0
141
0.0
142
0.0
143
0.0393701
144
1.0
145
0.0
146
0.71
147
1.299999999999998
 71
     1
 72
     0
 73
     0
 74
     0
 75
     0
 76
     0
 77
     1
 78
     8
170
     0
171
     2
172
     1
173
     0
174
     0
175
     0
176
   256
177
   256
178
     4
  0
DIMSTYLE
  2
AM_ISO$3
 70
     0
  3

  4
"
  5

  6

  7

 40
1.0
 41
2.5
 42
1.0
 43
10.0
 44
1.0
 45
0.0
 46
0.0
 47
0.0
 48
0.000000001
140
2.5
141
0.0
142
0.0
143
0.0393701
144
1.0
145
0.0
146
0.71
147
1.299999999999998
 71
     1
 72
     0
 73
     0
 74
     1
 75
     0
 76
     0
 77
     1
 78
     8
170
     0
171
     2
172
     0
173
     0
174
     0
175
     0
176
   256
177
   256
178
     4
  0
DIMSTYLE
  2
AM_ISO$4
 70
     0
  3

  4
"
  5

  6

  7

 40
1.0
 41
2.5
 42
1.0
 43
10.0
 44
1.0
 45
0.0
 46
0.0
 47
0.0
 48
0.000000001
140
2.5
141
0.0
142
0.0
143
0.0393701
144
1.0
145
0.0
146
0.71
147
1.299999999999998
 71
     1
 72
     0
 73
     0
 74
     1
 75
     0
 76
     0
 77
     1
 78
     8
170
     0
171
     2
172
     0
173
     0
174
     0
175
     0
176
   256
177
   256
178
     4
  0
DIMSTYLE
  2
AM_ISO$6
 70
     0
  3

  4
"
  5

  6

  7

 40
1.0
 41
2.5
 42
1.0
 43
10.0
 44
1.0
 45
0.0
 46
0.0
 47
0.0
 48
0.000000001
140
2.5
141
0.0
142
0.0
143
0.0393701
144
1.0
145
0.0
146
0.71
147
1.299999999999998
 71
     1
 72
     0
 73
     0
 74
     0
 75
     0
 76
     0
 77
     0
 78
     8
170
     0
171
     2
172
     1
173
     0
174
     0
175
     0
176
   256
177
   256
178
     4
  0
DIMSTYLE
  2
AM_ISO$7
 70
     0
  3

  4
"
  5

  6

  7

 40
1.0
 41
2.5
 42
1.0
 43
10.0
 44
1.0
 45
0.0
 46
0.0
 47
0.0
 48
0.000000001
140
2.5
141
0.0
142
0.0
143
0.0393701
144
1.0
145
0.0
146
0.71
147
1.299999999999998
 71
     1
 72
     0
 73
     0
 74
     0
 75
     0
 76
     0
 77
     1
 78
     8
170
     0
171
     2
172
     1
173
     0
174
     0
175
     0
176
   256
177
   256
178
     4
  0
DIMSTYLE
  2
AM_ISO$SF
 70
     0
  3

  4
"
  5

  6

  7

 40
1.0
 41
2.5
 42
1.0
 43
10.0
 44
1.0
 45
0.0
 46
0.0
 47
0.1
 48
0.1
140
3.5
141
0.0
142
0.0
143
0.0393701
144
1.0
145
0.0
146
0.71
147
1.5
 71
     0
 72
     0
 73
     0
 74
     0
 75
     1
 76
     1
 77
     1
 78
     8
170
     0
171
     2
172
     1
173
     0
174
     0
175
     0
176
   256
177
   256
178
     4
  0
DIMSTYLE
  2
AM_ISO$SH
 70
     0
  3

  4
"
  5

  6
GENAXEH
  7

 40
1.0
 41
2.5
 42
1.0
 43
10.0
 44
1.0
 45
0.0
 46
0.0
 47
0.1
 48
0.1
140
3.5
141
0.0
142
0.0
143
0.0393701
144
2.0
145
0.0
146
0.71
147
1.5
 71
     0
 72
     0
 73
     0
 74
     0
 75
     1
 76
     1
 77
     1
 78
     8
170
     0
171
     2
172
     1
173
     1
174
     0
175
     0
176
   256
177
   256
178
     4
  0
DIMSTYLE
  2
AM_JIS$0
 70
     0
  3

  4
"
  5

  6

  7

 40
1.0
 41
2.5
 42
1.0
 43
7.0
 44
1.0
 45
0.0
 46
0.0
 47
0.1
 48
0.1000000001
140
2.5
141
0.0
142
0.0
143
0.0393701
144
1.0
145
0.0
146
0.71
147
1.0
 71
     0
 72
     0
 73
     0
 74
     0
 75
     0
 76
     0
 77
     3
 78
     8
170
     0
171
     2
172
     1
173
     0
174
     0
175
     0
176
   256
177
   256
178
     4
  0
ENDTAB
  0
ENDSEC
  0
SECTION
  2
BLOCKS
  0
BLOCK
  8
0
  2
$MODEL_SPACE
 70
     0
 10
0.0
 20
0.0
 30
0.0
  3
$MODEL_SPACE
  1

  0
ENDBLK
  5
1A
  8
0
  0
BLOCK
 67
     1
  8
0
  2
$PAPER_SPACE
 70
     0
 10
0.0
 20
0.0
 30
0.0
  3
$PAPER_SPACE
  1

  0
ENDBLK
  5
17
 67
     1
  8
0
  0
BLOCK
  8
0
  2
_OPEN30
 70
     0
 10
0.0
 20
0.0
 30
0.0
  3
_OPEN30
  1

  0
LINE
  5
21C5
  8
0
 62
     0
 10
-1.0
 20
0.26794919
 30
0.0
 11
0.0
 21
0.0
 31
0.0
  0
LINE
  5
21C6
  8
0
 62
     0
 10
0.0
 20
0.0
 30
0.0
 11
-1.0
 21
-0.26794919
 31
0.0
  0
LINE
  5
21C7
  8
0
 62
     0
 10
0.0
 20
0.0
 30
0.0
 11
-1.0
 21
0.0
 31
0.0
  0
ENDBLK
  5
21C9
  8
0
  0
BLOCK
  8
0
  2
GENAXEH
 70
     0
 10
0.0
 20
0.0
 30
0.0
  3
GENAXEH
  1

  0
LINE
  5
21D0
  8
0
 10
-1.0
 20
0.0
 30
0.0
 11
1.0
 21
0.0
 31
0.0
  0
ENDBLK
  5
21D2
  8
0
  0
BLOCK
  8
0
  2
_NONE
 70
     0
 10
0.0
 20
0.0
 30
0.0
  3
_NONE
  1

  0
ENDBLK
  5
8193
  8
0
  0
BLOCK
  8
0
  2
NEW_BLOCK
 70
     0
 10
0.0
 20
0.0
 30
0.0
  3
NEW_BLOCK
  1

  0
LINE
  5
17AFE
  8
AM_0
 10
-0.899999999999977
 20
37.800000000000011
 30
0.0
 11
-0.899999999999977
 21
28.800000000000011
 31
0.0
  0
LINE
  5
17AFF
  8
AM_0
 10
-6.2999999999999527
 20
27.900000000000009
 30
0.0
 11
-6.2999999999999527
 21
38.700000000000031
 31
0.0
  0
LINE
  5
17B00
  8
AM_0
 10
-0.899999999999977
 20
28.800000000000011
 30
0.0
 11
-6.2999999999999527
 21
28.800000000000011
 31
0.0
  0
LINE
  5
17B01
  8
AM_0
 10
0.0
 20
27.900000000000009
 30
0.0
 11
-6.2999999999999527
 21
27.900000000000009
 31
0.0
  0
LINE
  5
17B02
  8
AM_0
 10
-6.2999999999999527
 20
37.800000000000011
 30
0.0
 11
-0.899999999999977
 21
37.800000000000011
 31
0.0
  0
LINE
  5
17B03
  8
AM_0
 10
0.0
 20
38.700000000000031
 30
0.0
 11
-6.2999999999999527
 21
38.700000000000031
 31
0.0
  0
LINE
  5
17B04
  8
AM_0
 10
-6.2999999999999527
 20
-27.900000000000009
 30
0.0
 11
-6.2999999999999527
 21
-38.700000000000031
 31
0.0
  0
LINE
  5
17B05
  8
AM_0
 10
-0.899999999999977
 20
-37.800000000000011
 30
0.0
 11
-0.899999999999977
 21
-28.800000000000011
 31
0.0
  0
LINE
  5
17B06
  8
AM_0
 10
0.0
 20
-38.700000000000031
 30
0.0
 11
-6.2999999999999527
 21
-38.700000000000031
 31
0.0
  0
LINE
  5
17B07
  8
AM_0
 10
-6.2999999999999527
 20
-37.800000000000011
 30
0.0
 11
-0.899999999999977
 21
-37.800000000000011
 31
0.0
  0
LINE
  5
17B08
  8
AM_0
 10
0.0
 20
-27.900000000000009
 30
0.0
 11
-6.2999999999999527
 21
-27.900000000000009
 31
0.0
  0
LINE
  5
17B09
  8
AM_0
 10
-0.899999999999977
 20
-28.800000000000011
 30
0.0
 11
-6.2999999999999527
 21
-28.800000000000011
 31
0.0
  0
ENDBLK
  5
17B0B
  8
0
  0
ENDSEC
  0
SECTION
  2
ENTITIES
  0
POINT
  5
1B94
  8
0
 10
0.0
 20
0.0
 30
0.0
1001
GENIUS_GENODEF_13
1002
{
1000
HIER
1070
     1
1002
}
1002
{
1000
MANEDIT
1070
     0
1002
}
1002
{
1000
NOSEL
1070
     0
1002
}
1002
{
1000
BEHIND
1070
     0
1002
}
1002
{
1000
REACTOR
1002
}
1001
GENIUS_GENOBJ-N-SDF_13
1002
{
1000
OWNER
1000
GEN
1002
}
1001
GENIUS_GENOENT_13
1002
{
1000
MYREF
1005
1B94
1002
}
1002
{
1000
GRP
1005
0
1002
}
1001
GENIUS_GENOLIS_13
1002
{
1000
ENT
1005
89
1002
}
  0
LINE
  5
17E9B
  8
AM_0
 10
398.72757012139391
 20
321.46685317814178
 30
0.0
 11
432.75700890337049
 21
321.46685317814178
 31
0.0
  0
LINE
  5
17E9C
  8
AM_0
 10
398.72757012139391
 20
205.46684972107269
 30
0.0
 11
432.75700890337049
 21
205.46684972107269
 31
0.0
  0
LINE
  5
17E9D
  8
ﾁｭｳｼﾝｾﾝ1
 10
32.282607288824458
 20
263.46685144960719
 30
0.0
 11
467.97757199893988
 21
263.46685144960702
 31
0.0
  0
LINE
  5
17E9E
  8
AM_0
 10
301.72753671298909
 20
327.46685335695588
 30
0.0
 11
449.72757164131178
 21
327.46685335695588
 31
0.0
  0
LINE
  5
17E9F
  8
AM_0
 10
301.72753671298909
 20
199.4668495422587
 30
0.0
 11
449.72757164131178
 21
199.4668495422587
 31
0.0
  0
CIRCLE
  5
17EA0
  8
AM_0
 10
398.7275701213938
 20
263.46685144960719
 30
0.0
 40
37.500001117587097
  0
LINE
  5
17EA3
  8
ﾁｭｳｼﾝｾﾝ1
 10
398.7275701213938
 20
333.71685335695571
 30
0.0
 11
398.72757012139368
 21
193.21684954225839
 31
0.0
  0
ARC
  5
17EA5
  8
AM_0
 10
675.88606288136452
 20
263.46685144960162
 30
0.0
 40
397.24800335175252
 50
173.3392856796832
 51
186.6607143203168
  0
LINE
  5
17EA6
  8
AM_0
 10
281.63805952961138
 20
309.19557008770119
 30
0.0
 11
281.6380595296128
 21
217.73813281151331
 31
0.0
  0
LINE
  5
17EA8
  8
AM_0
 10
263.22753635536151
 20
324.9668414496075
 30
0.0
 11
263.22753635536151
 21
201.96686144960719
 31
0.0
  0
LINE
  5
17EA9
  8
AM_0
 10
252.22753635536151
 20
199.96688644960699
 30
0.0
 11
252.22753635536151
 21
326.96684644960641
 31
0.0
  0
LINE
  5
17EAA
  8
AM_0
 10
289.72753635536139
 20
315.46685299932813
 30
0.0
 11
289.72753635536139
 21
211.46684989988631
 31
0.0
  0
LINE
  5
17EAB
  8
AM_0
 10
295.72753653417527
 20
298.49629026138672
 30
0.0
 11
295.72753653417527
 21
228.4374126378278
 31
0.0
  0
LINE
  5
17F5C
  8
AM_0
 10
284.2990707090479
 20
214.73813281151331
 30
0.0
 11
288.72753635536139
 21
214.73813281151331
 31
0.0
  0
ARC
  5
17F5D
  8
AM_0
 10
301.72753671298909
 20
211.46684989988631
 30
0.0
 40
12.00000035762791
 50
180.00000500895689
 51
270.000000683243
  0
LINE
  5
17F5E
  8
AM_0
 10
265.35412043283497
 20
201.96686144960719
 30
0.0
 11
293.43595930392502
 21
201.96686144960759
 31
0.0
  0
LINE
  5
17F80
  8
AM_0
 10
252.22753635536151
 20
199.96688644960699
 30
0.0
 11
261.354139182957
 21
199.96688644960699
 31
0.0
  0
LINE
  5
17F81
  8
AM_0
 10
252.22753635536151
 20
226.32687144960741
 30
0.0
 11
262.22753635536151
 21
226.32687144960741
 31
0.0
  0
LINE
  5
17F82
  8
AM_0
 10
252.22753635536151
 20
211.42686144960729
 30
0.0
 11
262.22753635536151
 21
211.42686144960729
 31
0.0
  0
LINE
  5
17F83
  8
AM_0
 10
252.22749508871101
 20
226.32686144962969
 30
0.0
 11
262.22749508870493
 21
226.32685033851851
 31
0.0
  0
LINE
  5
17F84
  8
AM_0
 10
252.22747853314419
 20
211.42685144963889
 30
0.0
 11
262.22747853313803
 21
211.42684033852771
 31
0.0
  0
ARC
  5
17F9F
  8
AM_0
 10
261.354139182957
 20
202.96688644960699
 30
0.0
 40
2.9999999999999978
 50
270.0
 51
323.12974425469667
1001
GENIUS_GENOBJ-N-FIL_13
1002
{
1000
OWNER
1000
GEN
1002
}
1001
GENIUS_GENODEF_13
1002
{
1000
HIER
1070
     0
1002
}
1002
{
1000
MANEDIT
1070
     0
1002
}
1002
{
1000
NOSEL
1070
     0
1002
}
1002
{
1000
BEHIND
1070
     0
1002
}
1002
{
1000
OTHER
1070
     0
1002
}
1002
{
1000
REACTOR
1002
}
  0
ARC
  5
17FA1
  8
AM_0
 10
284.2990707090479
 20
217.73813281151331
 30
0.0
 40
2.9999999999999978
 50
186.6607143203168
 51
270.0
1001
GENIUS_GENOBJ-N-FIL_13
1002
{
1000
OWNER
1000
GEN
1002
}
1001
GENIUS_GENODEF_13
1002
{
1000
HIER
1070
     0
1002
}
1002
{
1000
MANEDIT
1070
     0
1002
}
1002
{
1000
NOSEL
1070
     0
1002
}
1002
{
1000
BEHIND
1070
     0
1002
}
1002
{
1000
OTHER
1070
     0
1002
}
1002
{
1000
REACTOR
1002
}
  0
LINE
  5
17FB0
  8
AM_0
 10
318.6980994509305
 20
205.46684972107269
 30
0.0
 11
398.72757012139391
 21
205.46684972107269
 31
0.0
  0
ARC
  5
17FB1
  8
AM_0
 10
300.72753653417527
 20
228.4374126378278
 30
0.0
 40
5.0
 50
180.0
 51
273.37228728714382
1001
GENIUS_GENODEF_13
1002
{
1000
HIER
1070
     0
1002
}
1002
{
1000
MANEDIT
1070
     0
1002
}
1002
{
1000
NOSEL
1070
     0
1002
}
1002
{
1000
BEHIND
1070
     0
1002
}
1002
{
1000
OTHER
1070
     0
1002
}
1002
{
1000
REACTOR
1002
}
1001
GENIUS_GENOBJ-N-FIL_13
1002
{
1000
OWNER
1000
GEN
1002
}
  0
ARC
  5
17FB2
  8
AM_0
 10
318.6980994509305
 20
210.46684972107269
 30
0.0
 40
5.0
 50
176.62771271285609
 51
270.0
1001
GENIUS_GENOBJ-N-FIL_13
1002
{
1000
OWNER
1000
GEN
1002
}
1001
GENIUS_GENODEF_13
1002
{
1000
HIER
1070
     0
1002
}
1002
{
1000
MANEDIT
1070
     0
1002
}
1002
{
1000
NOSEL
1070
     0
1002
}
1002
{
1000
BEHIND
1070
     0
1002
}
1002
{
1000
OTHER
1070
     0
1002
}
1002
{
1000
REACTOR
1002
}
  0
LINE
  5
17FB3
  8
ﾁｭｳｼﾝｾﾝ1
 10
301.72753671298909
 20
219.9668501532062
 30
0.0
 11
301.72753671298909
 21
202.96684964656691
 31
0.0
  0
ARC
  5
17FB4
  8
AM_0
 10
293.43595930392507
 20
198.96686144960771
 30
0.0
 40
2.9999999999999978
 50
56.442621136830091
 51
90.0
1001
GENIUS_GENOBJ-N-FIL_13
1002
{
1000
OWNER
1000
GEN
1002
}
1001
GENIUS_GENODEF_13
1002
{
1000
HIER
1070
     0
1002
}
1002
{
1000
MANEDIT
1070
     0
1002
}
1002
{
1000
NOSEL
1070
     0
1002
}
1002
{
1000
BEHIND
1070
     0
1002
}
1002
{
1000
OTHER
1070
     0
1002
}
1002
{
1000
REACTOR
1002
}
  0
LINE
  5
17FB5
  8
ﾁｭｳｼﾝｾﾝ1
 10
293.22753645966952
 20
211.46684989988631
 30
0.0
 11
310.22756748388821
 21
211.46684989988631
 31
0.0
  0
ARC
  5
17FB6
  8
AM_0
 10
301.72753671298909
 20
211.46684989988631
 30
0.0
 40
12.0
 50
356.62771271285618
 51
93.37228728714382
  0
CIRCLE
  5
17FB7
  8
AM_0
 10
301.72753671298909
 20
211.46684989988631
 30
0.0
 40
5.5000001639127731
  0
LINE
  5
18033
  8
AM_0
 10
284.2990707090492
 20
312.19557008770141
 30
0.0
 11
288.72753635536139
 21
312.19557008770119
 31
0.0
  0
ARC
  5
18034
  8
AM_0
 10
301.72753671298909
 20
315.46685299932813
 30
0.0
 40
12.000000357627879
 50
90.000002504475205
 51
180.00000500895689
  0
LINE
  5
18035
  8
AM_0
 10
265.35414293295167
 20
324.96684144960739
 30
0.0
 11
293.43595930392507
 21
324.96684144960687
 31
0.0
  0
LINE
  5
18047
  8
AM_0
 10
252.22753635536159
 20
300.60683144960723
 30
0.0
 11
262.22753635536151
 21
300.60683144960723
 31
0.0
  0
ARC
  5
1805F
  8
AM_0
 10
284.2990707090492
 20
309.19557008770141
 30
0.0
 40
2.9999999999999978
 50
90.0
 51
173.3392856796832
1001
GENIUS_GENODEF_13
1002
{
1000
HIER
1070
     0
1002
}
1002
{
1000
MANEDIT
1070
     0
1002
}
1002
{
1000
NOSEL
1070
     0
1002
}
1002
{
1000
BEHIND
1070
     0
1002
}
1002
{
1000
OTHER
1070
     0
1002
}
1002
{
1000
REACTOR
1002
}
1001
GENIUS_GENOBJ-N-FIL_13
1002
{
1000
OWNER
1000
GEN
1002
}
  0
LINE
  5
18060
  8
AM_0
 10
252.22753635536159
 20
315.50684144960729
 30
0.0
 11
262.22753635536151
 21
315.50684144960729
 31
0.0
  0
LINE
  5
18061
  8
AM_0
 10
252.22753635536151
 20
326.96684644960681
 30
0.0
 11
261.354139182957
 21
326.96684644960681
 31
0.0
  0
ARC
  5
18077
  8
AM_0
 10
261.354139182957
 20
323.96684644960692
 30
0.0
 40
2.9999999999999978
 50
36.869826026160737
 51
90.0
1001
GENIUS_GENOBJ-N-FIL_13
1002
{
1000
OWNER
1000
GEN
1002
}
1001
GENIUS_GENODEF_13
1002
{
1000
HIER
1070
     0
1002
}
1002
{
1000
MANEDIT
1070
     0
1002
}
1002
{
1000
NOSEL
1070
     0
1002
}
1002
{
1000
BEHIND
1070
     0
1002
}
1002
{
1000
OTHER
1070
     0
1002
}
1002
{
1000
REACTOR
1002
}
  0
LINE
  5
1807B
  8
AM_0
 10
318.6980994509305
 20
321.46685317814178
 30
0.0
 11
398.72757012139391
 21
321.46685317814178
 31
0.0
  0
LINE
  5
1807C
  8
ﾁｭｳｼﾝｾﾝ1
 10
301.72753671298909
 20
323.96685325264758
 30
0.0
 11
301.72753671298909
 21
306.96685274600839
 31
0.0
  0
CIRCLE
  5
1807D
  8
AM_0
 10
301.72753671298909
 20
315.46685299932813
 30
0.0
 40
5.5000001639127731
  0
ARC
  5
1807E
  8
AM_0
 10
301.72753671298909
 20
315.46685299932813
 30
0.0
 40
12.0
 50
266.62771271285618
 51
3.3722872871438159
  0
ARC
  5
1807F
  8
AM_0
 10
300.72753653417539
 20
298.49629026138672
 30
0.0
 40
5.0
 50
86.627712712856194
 51
180.0
1001
GENIUS_GENOBJ-N-FIL_13
1002
{
1000
OWNER
1000
GEN
1002
}
1001
GENIUS_GENODEF_13
1002
{
1000
HIER
1070
     0
1002
}
1002
{
1000
MANEDIT
1070
     0
1002
}
1002
{
1000
NOSEL
1070
     0
1002
}
1002
{
1000
BEHIND
1070
     0
1002
}
1002
{
1000
OTHER
1070
     0
1002
}
1002
{
1000
REACTOR
1002
}
  0
LINE
  5
18080
  8
ﾁｭｳｼﾝｾﾝ1
 10
293.22753645966952
 20
315.46685299932813
 30
0.0
 11
310.22756748388821
 21
315.46685299932813
 31
0.0
  0
ARC
  5
18081
  8
AM_0
 10
293.43595930392507
 20
327.96684144960687
 30
0.0
 40
2.9999999999999978
 50
270.0
 51
303.55737886317002
1001
GENIUS_GENOBJ-N-FIL_13
1002
{
1000
OWNER
1000
GEN
1002
}
1001
GENIUS_GENODEF_13
1002
{
1000
HIER
1070
     0
1002
}
1002
{
1000
MANEDIT
1070
     0
1002
}
1002
{
1000
NOSEL
1070
     0
1002
}
1002
{
1000
BEHIND
1070
     0
1002
}
1002
{
1000
OTHER
1070
     0
1002
}
1002
{
1000
REACTOR
1002
}
  0
ARC
  5
18082
  8
AM_0
 10
318.6980994509305
 20
316.46685317814178
 30
0.0
 40
5.0
 50
90.0
 51
183.37228728714379
1001
GENIUS_GENOBJ-N-FIL_13
1002
{
1000
OWNER
1000
GEN
1002
}
1001
GENIUS_GENODEF_13
1002
{
1000
HIER
1070
     0
1002
}
1002
{
1000
MANEDIT
1070
     0
1002
}
1002
{
1000
NOSEL
1070
     0
1002
}
1002
{
1000
BEHIND
1070
     0
1002
}
1002
{
1000
OTHER
1070
     0
1002
}
1002
{
1000
REACTOR
1002
}
  0
LINE
  5
18089
  8
AM_0
 10
461.72757199893988
 20
315.46685299932813
 30
0.0
 11
461.72757199893988
 21
211.46684989988631
 31
0.0
  0
LINE
  5
1808A
  8
AM_0
 10
455.72757182012589
 20
298.49629026138678
 30
0.0
 11
455.72757182012589
 21
228.43741263782769
 31
0.0
  0
ARC
  5
1808D
  8
AM_0
 10
450.72757182012612
 20
228.43741263782769
 30
0.0
 40
5.0
 50
266.62771271285618
 51
0.0
1001
GENIUS_GENODEF_13
1002
{
1000
HIER
1070
     0
1002
}
1002
{
1000
MANEDIT
1070
     0
1002
}
1002
{
1000
NOSEL
1070
     0
1002
}
1002
{
1000
BEHIND
1070
     0
1002
}
1002
{
1000
OTHER
1070
     0
1002
}
1002
{
1000
REACTOR
1002
}
1001
GENIUS_GENOBJ-N-FIL_13
1002
{
1000
OWNER
1000
GEN
1002
}
  0
ARC
  5
1808E
  8
AM_0
 10
449.72757164131178
 20
211.46684989988631
 30
0.0
 40
12.000000357627879
 50
269.99999749551819
 51
0.0
  0
LINE
  5
1808F
  8
ﾁｭｳｼﾝｾﾝ1
 10
441.2275713879921
 20
211.46684989988631
 30
0.0
 11
458.22757189463181
 21
211.46684989988631
 31
0.0
  0
CIRCLE
  5
18090
  8
AM_0
 10
449.72757164131178
 20
211.46684989988631
 30
0.0
 40
5.5000001639127731
  0
ARC
  5
18091
  8
AM_0
 10
432.75700890337049
 20
210.46684972107269
 30
0.0
 40
5.0
 50
270.0
 51
3.3722872871438159
1001
GENIUS_GENODEF_13
1002
{
1000
HIER
1070
     0
1002
}
1002
{
1000
MANEDIT
1070
     0
1002
}
1002
{
1000
NOSEL
1070
     0
1002
}
1002
{
1000
BEHIND
1070
     0
1002
}
1002
{
1000
OTHER
1070
     0
1002
}
1002
{
1000
REACTOR
1002
}
1001
GENIUS_GENOBJ-N-FIL_13
1002
{
1000
OWNER
1000
GEN
1002
}
  0
LINE
  5
18092
  8
ﾁｭｳｼﾝｾﾝ1
 10
449.72757164131178
 20
219.9668501532062
 30
0.0
 11
449.72757164131178
 21
202.96684964656691
 31
0.0
  0
ARC
  5
18093
  8
AM_0
 10
449.72757164131178
 20
211.46684989988631
 30
0.0
 40
12.0
 50
86.627712712856194
 51
183.37228728714379
  0
LINE
  5
18096
  8
ﾁｭｳｼﾝｾﾝ1
 10
449.72757164131178
 20
323.96685325264758
 30
0.0
 11
449.72757164131178
 21
306.96685274600839
 31
0.0
  0
CIRCLE
  5
18097
  8
AM_0
 10
449.72757164131178
 20
315.46685299932813
 30
0.0
 40
5.5000001639127731
  0
ARC
  5
18098
  8
AM_0
 10
449.72757164131178
 20
315.46685299932813
 30
0.0
 40
12.0
 50
176.62771271285609
 51
273.37228728714382
  0
ARC
  5
18099
  8
AM_0
 10
450.72757182012612
 20
298.49629026138678
 30
0.0
 40
5.0
 50
0.0
 51
93.37228728714382
1001
GENIUS_GENODEF_13
1002
{
1000
HIER
1070
     0
1002
}
1002
{
1000
MANEDIT
1070
     0
1002
}
1002
{
1000
NOSEL
1070
     0
1002
}
1002
{
1000
BEHIND
1070
     0
1002
}
1002
{
1000
OTHER
1070
     0
1002
}
1002
{
1000
REACTOR
1002
}
1001
GENIUS_GENOBJ-N-FIL_13
1002
{
1000
OWNER
1000
GEN
1002
}
  0
ARC
  5
1809A
  8
AM_0
 10
449.72757164131178
 20
315.46685299932813
 30
0.0
 40
12.00000035762787
 50
0.0
 51
90.000002504475205
  0
LINE
  5
1809B
  8
ﾁｭｳｼﾝｾﾝ1
 10
441.2275713879921
 20
315.46685299932813
 30
0.0
 11
458.22757189463181
 21
315.46685299932813
 31
0.0
  0
ARC
  5
1809C
  8
AM_0
 10
432.75700890337049
 20
316.466853178142
 30
0.0
 40
5.0
 50
356.62771271285618
 51
90.0
1001
GENIUS_GENOBJ-N-FIL_13
1002
{
1000
OWNER
1000
GEN
1002
}
1001
GENIUS_GENODEF_13
1002
{
1000
HIER
1070
     0
1002
}
1002
{
1000
MANEDIT
1070
     0
1002
}
1002
{
1000
NOSEL
1070
     0
1002
}
1002
{
1000
BEHIND
1070
     0
1002
}
1002
{
1000
OTHER
1070
     0
1002
}
1002
{
1000
REACTOR
1002
}
  0
INSERT
  5
1809D
  8
AM_0
  2
NEW_BLOCK
 10
738.25778769087356
 20
263.4668514496073
 30
0.0
 41
1.1111111111110841
 42
1.1111111111110841
 43
1.1111111111110841
  0
ARC
  5
1809E
  8
AM_0
 10
689.27469623055958
 20
263.45685144960731
 30
0.0
 40
64.003665999999996
 50
325.87476838391399
 51
34.125231616086019
  0
LINE
  5
1809F
  8
AM_0
 10
742.2577954394776
 20
225.96685033202019
 30
0.0
 11
742.2577954394776
 21
300.96685256719439
 31
0.0
  0
LINE
  5
180A0
  8
AM_0
 10
640.25777714085132
 20
200.8283608133035
 30
0.0
 11
640.25777714085132
 21
326.1053726034898
 31
0.0
  0
LINE
  5
180A1
  8
AM_0
 10
718.25778709482711
 20
199.4668495422587
 30
0.0
 11
718.25778709482711
 21
327.46685335695588
 31
0.0
  0
LINE
  5
180A2
  8
ﾁｭｳｼﾝｾﾝ1
 10
689.25778623055999
 20
147.08101090789859
 30
0.0
 11
689.25778623055999
 21
333.71685166217281
 31
0.0
  0
LINE
  5
180A3
  8
AM_0
 10
636.2577846510369
 20
225.96685033202019
 30
0.0
 11
636.2577846510369
 21
300.96685256719439
 31
0.0
  0
LINE
  5
180A4
  8
AM_0
 10
738.25778769087356
 20
199.8159401288342
 30
0.0
 11
738.25778769087356
 21
327.1177627703803
 31
0.0
  0
ARC
  5
180A7
  8
AM_0
 10
689.27469623055958
 20
263.45685144960731
 30
0.0
 40
64.014987999999974
 50
145.9137920481208
 51
160.916775465418
  0
ARC
  5
180AB
  8
AM_0
 10
689.2311762305601
 20
263.4643614496074
 30
0.0
 40
63.989566999999987
 50
270.02382639558652
 51
276.22718035921889
  0
LINE
  5
180B1
  8
AM_0
 10
718.25778709482711
 20
199.4668495422587
 30
0.0
 11
640.25777714085132
 21
200.8283608133035
 31
0.0
  0
LINE
  5
180B3
  8
AM_0
 10
680.07436662364626
 20
200.13334596216851
 30
0.0
 11
696.17218571090916
 21
199.85235729755141
 31
0.0
  0
LINE
  5
180B4
  8
ﾁｭｳｼﾝｾﾝ1
 10
636.5077809555487
 20
211.46684989988631
 30
0.0
 11
742.00779150557128
 21
211.4668498998864
 31
0.0
  0
LINE
  5
180B5
  8
ｶｸﾚｾﾝ2
 10
640.25778477024608
 20
216.9668500637994
 30
0.0
 11
738.25779532026854
 21
216.9668500637994
 31
0.0
  0
LINE
  5
180B6
  8
ｶｸﾚｾﾝ2
 10
640.25778477024608
 20
205.9668497359738
 30
0.0
 11
738.25779532026854
 21
205.9668497359738
 31
0.0
  0
LINE
  5
180B7
  8
ﾁｭｳｼﾝｾﾝ1
 10
571.85844996075139
 20
263.46685144960742
 30
0.0
 11
759.52836144935452
 21
263.4668514496073
 31
0.0
  0
ARC
  5
180C2
  8
AM_0
 10
657.08899623056004
 20
197.54450144960731
 30
0.0
 40
2.0097484999999988
 50
1.777909999998595
 51
157.09034600000129
  0
ARC
  5
180C3
  8
AM_0
 10
654.25790623055968
 20
198.57408144960741
 30
0.0
 40
1.000226099999999
 50
179.2686670000009
 51
358.43981999999932
  0
LINE
  5
180C4
  8
AM_0
 10
653.18458657738245
 20
200.6027091315575
 30
0.0
 11
653.25778623055999
 21
198.54684144960731
 31
0.0
  0
LINE
  5
180C5
  8
AM_0
 10
655.31718038282247
 20
200.56548454341211
 30
0.0
 11
655.23779623055975
 21
198.32685144960729
 31
0.0
  0
ARC
  5
180C6
  8
AM_0
 10
642.76834623055981
 20
216.9773994496073
 30
0.0
 40
5.010561899999999
 50
180.12064999999691
 51
239.93027090092261
  0
ARC
  5
180C7
  8
AM_0
 10
634.75779623055973
 20
224.48357559255189
 30
0.0
 40
2.9999999999999978
 50
0.0
 51
29.631860164016871
1001
GENIUS_GENOBJ-N-FIL_13
1002
{
1000
OWNER
1000
GEN
1002
}
1001
GENIUS_GENODEF_13
1002
{
1000
HIER
1070
     0
1002
}
1002
{
1000
MANEDIT
1070
     0
1002
}
1002
{
1000
NOSEL
1070
     0
1002
}
1002
{
1000
BEHIND
1070
     0
1002
}
1002
{
1000
OTHER
1070
     0
1002
}
1002
{
1000
REACTOR
1002
}
  0
LINE
  5
180C8
  8
AM_0
 10
636.2577846510369
 20
225.96685033202019
 30
0.0
 11
640.25778477024608
 21
225.96685033202019
 31
0.0
  0
LINE
  5
180C9
  8
AM_0
 10
637.75779623055973
 20
216.96684844960731
 30
0.0
 11
637.75779623055973
 21
224.48357559255169
 31
0.0
  0
ARC
  5
180CC
  8
AM_0
 10
689.2311762305601
 20
263.4643614496074
 30
0.0
 40
63.989566999999987
 50
261.77281830828679
 51
270.02382639558652
  0
ARC
  5
180CE
  8
AM_0
 10
626.38696623055989
 20
238.46743644960739
 30
0.0
 40
1.000625599999998
 50
92.817069999998395
 51
269.4744600000011
  0
ARC
  5
180CF
  8
AM_0
 10
628.86131623055974
 20
238.45728144960739
 30
0.0
 40
1.090437399999999
 50
92.287669999999167
 51
269.814680000002
  0
LINE
  5
180D0
  8
AM_0
 10
627.75779623055973
 20
238.4668484496074
 30
0.0
 11
627.75779623055973
 21
229.20685444960739
 31
0.0
  0
LINE
  5
180D1
  8
AM_0
 10
636.25778623055999
 20
227.18038756578039
 30
0.0
 11
628.39779623055972
 21
227.46685644960741
 31
0.0
  0
LINE
  5
180D2
  8
AM_0
 10
634.85927247889674
 20
229.68588732797559
 30
0.0
 11
628.39779623055972
 21
229.46684844960731
 31
0.0
  0
LINE
  5
180D3
  8
AM_0
 10
627.75779623055973
 20
236.22685044960741
 30
0.0
 11
625.73779623055975
 21
236.08685144960731
 31
0.0
  0
LINE
  5
180D4
  8
AM_0
 10
627.75779623055973
 20
237.4068504496073
 30
0.0
 11
626.33780623055975
 21
237.4668484496074
 31
0.0
  0
ARC
  5
180D5
  8
AM_0
 10
625.75815623055985
 20
235.5869124496073
 30
0.0
 40
0.50035203
 50
92.331169999999602
 51
180.00710999999771
  0
LINE
  5
180D6
  8
AM_0
 10
625.25779623055973
 20
234.9668484496072
 30
0.0
 11
625.25779623055973
 21
235.58685144960739
 31
0.0
  0
ARC
  5
180D7
  8
AM_0
 10
628.44368623055971
 20
228.46736744960739
 30
0.0
 40
1.000534899999999
 50
92.6283099999971
 51
269.66321999999968
  0
LINE
  5
180D8
  8
AM_0
 10
627.75778623055965
 20
233.68684944960731
 30
0.0
 11
625.73779623055975
 21
233.82684944960729
 31
0.0
  0
ARC
  5
180D9
  8
AM_0
 10
625.77202623055973
 20
234.34010144960729
 30
0.0
 40
0.5143923799999999
 50
181.47632999999809
 51
266.1853900000005
  0
LINE
  5
180DA
  8
AM_0
 10
625.25779623055973
 20
234.9668484496072
 30
0.0
 11
625.25779623055973
 21
234.32684944960729
 31
0.0
  0
LINE
  5
180DB
  8
AM_0
 10
630.81239420544853
 20
237.30548180395829
 30
0.0
 11
628.81779623055979
 21
237.3668504496072
 31
0.0
  0
LINE
  5
180DE
  8
AM_0
 10
629.84394747634872
 20
239.58715645502139
 30
0.0
 11
626.33778623055969
 21
239.4668484496072
 31
0.0
  0
ARC
  5
180EC
  8
AM_0
 10
724.2576362305598
 20
198.57476144960739
 30
0.0
 40
1.000231299999998
 50
181.598942999999
 51
0.6925799999989949
  0
LINE
  5
180ED
  8
AM_0
 10
738.25778769087356
 20
199.8159401288342
 30
0.0
 11
718.25778709482711
 21
199.4668495422587
 31
0.0
  0
LINE
  5
180EE
  8
AM_0
 10
718.25778623055976
 20
199.46685144960739
 30
0.0
 11
696.17218571090882
 21
199.85235729755141
 31
0.0
  0
ARC
  5
180F1
  8
AM_0
 10
721.41614623055966
 20
197.5488714496075
 30
0.0
 40
1.9992131999999989
 50
22.901329999994228
 51
178.33797800000431
  0
LINE
  5
180F2
  8
AM_0
 10
723.21426381334913
 20
199.55336827786459
 30
0.0
 11
723.25775623055995
 21
198.32685144960729
 31
0.0
  0
LINE
  5
180F3
  8
AM_0
 10
725.29326976500295
 20
199.58965796098349
 30
0.0
 11
725.25775623055972
 21
198.5468514496074
 31
0.0
  0
LINE
  5
180F4
  8
AM_0
 10
742.2577954394776
 20
225.96685033202019
 30
0.0
 11
738.25779532026854
 21
225.96685033202019
 31
0.0
  0
ARC
  5
180F5
  8
AM_0
 10
735.76413623055964
 20
216.96050044960731
 30
0.0
 40
4.9936542999999984
 50
299.95791578702313
 51
0.0728599999961039
  0
ARC
  5
180F6
  8
AM_0
 10
743.75778623055965
 20
224.4557724710524
 30
0.0
 40
2.9999999999999978
 50
149.75537130699689
 51
180.0
1001
GENIUS_GENOBJ-N-FIL_13
1002
{
1000
OWNER
1000
GEN
1002
}
1001
GENIUS_GENODEF_13
1002
{
1000
HIER
1070
     0
1002
}
1002
{
1000
MANEDIT
1070
     0
1002
}
1002
{
1000
NOSEL
1070
     0
1002
}
1002
{
1000
BEHIND
1070
     0
1002
}
1002
{
1000
OTHER
1070
     0
1002
}
1002
{
1000
REACTOR
1002
}
  0
LINE
  5
180F7
  8
AM_0
 10
740.75778623055965
 20
224.4557724710524
 30
0.0
 11
740.75778623055965
 21
216.96684844960731
 31
0.0
  0
ARC
  5
180F8
  8
AM_0
 10
753.51782623055965
 20
248.46695144960731
 30
0.0
 40
1.000099699999998
 50
269.99821999999642
 51
88.855909999997095
  0
ARC
  5
180F9
  8
AM_0
 10
752.16244623055957
 20
238.4671614496074
 30
0.0
 40
1.000317799999999
 50
269.73379000000142
 51
87.974690000002326
  0
ARC
  5
180FA
  8
AM_0
 10
749.68808623055975
 20
238.4570294496074
 30
0.0
 40
1.0902267999999991
 50
269.45945999999799
 51
88.438189999999508
  0
LINE
  5
180FB
  8
AM_0
 10
750.75778623055965
 20
238.4668484496074
 30
0.0
 11
750.75778623055965
 21
229.20685444960739
 31
0.0
  0
LINE
  5
180FC
  8
AM_0
 10
747.63680617952468
 20
237.30281807803701
 30
0.0
 11
749.71780623055975
 21
237.3668504496072
 31
0.0
  0
LINE
  5
180FD
  8
AM_0
 10
742.25778623055965
 20
227.1796499448254
 30
0.0
 11
750.13778623055964
 21
227.46684844960731
 31
0.0
  0
LINE
  5
180FE
  8
AM_0
 10
743.59287672174605
 20
229.68871656676811
 30
0.0
 11
750.13778623055964
 21
229.46685644960721
 31
0.0
  0
ARC
  5
180FF
  8
AM_0
 10
752.77508623055974
 20
235.6043604496073
 30
0.0
 40
0.48302591
 50
357.92275099999972
 51
87.305360000000846
  0
LINE
  5
18100
  8
AM_0
 10
753.25778623055965
 20
234.9668484496072
 30
0.0
 11
753.25778623055965
 21
235.58685144960739
 31
0.0
  0
ARC
  5
18101
  8
AM_0
 10
752.76074623055968
 20
234.3225534496074
 30
0.0
 40
0.4970828599999999
 50
274.27614450000129
 51
0.4957440000002111
  0
LINE
  5
18102
  8
AM_0
 10
753.25778623055965
 20
234.9668484496072
 30
0.0
 11
753.25778623055965
 21
234.32684944960729
 31
0.0
  0
ARC
  5
18103
  8
AM_0
 10
750.10483623055973
 20
228.46541444960729
 30
0.0
 40
0.9985855199999996
 50
269.59630999999581
 51
70.522550000004287
  0
LINE
  5
18104
  8
AM_0
 10
750.75778623055965
 20
233.68684944960731
 30
0.0
 11
752.79779623055958
 21
233.82684944960729
 31
0.0
  0
LINE
  5
18105
  8
AM_0
 10
750.75781623055968
 20
236.22685044960741
 30
0.0
 11
752.79779623055958
 21
236.08685144960731
 31
0.0
  0
LINE
  5
18106
  8
AM_0
 10
750.75778623055965
 20
237.4068504496073
 30
0.0
 11
752.1977862305597
 21
237.46685644960741
 31
0.0
  0
LINE
  5
18107
  8
AM_0
 10
748.60760376664462
 20
239.59004083264941
 30
0.0
 11
752.19781623055974
 21
239.4668484496072
 31
0.0
  0
LINE
  5
18109
  8
AM_0
 10
751.17160195851545
 20
247.38353422188871
 30
0.0
 11
753.5377862305595
 21
247.4668514496073
 31
0.0
  0
ARC
  5
1810A
  8
AM_0
 10
754.1907062305595
 20
258.46699144960729
 30
0.0
 40
1.000225199999998
 50
269.26081999999792
 51
88.44765000000109
  0
LINE
  5
1810B
  8
AM_0
 10
752.93592673301316
 20
257.42264948876112
 30
0.0
 11
754.21777623055959
 21
257.46685144960742
 31
0.0
  0
LINE
  5
1810C
  8
AM_0
 10
751.68892239005993
 20
249.53060613481981
 30
0.0
 11
753.53781623055966
 21
249.46685144960739
 31
0.0
  0
LINE
  5
1810D
  8
AM_0
 10
753.09607729263143
 20
267.4242546873665
 30
0.0
 11
754.21780623055975
 21
267.46685144960742
 31
0.0
  0
LINE
  5
1810E
  8
AM_0
 10
752.93174881355924
 20
269.51119008646492
 30
0.0
 11
754.21777623055959
 21
269.46685144960719
 31
0.0
  0
ARC
  5
1810F
  8
AM_0
 10
754.19085623055969
 20
268.46671144960732
 30
0.0
 40
1.000223999999998
 50
271.54276079999562
 51
90.748769999995517
  0
LINE
  5
18110
  8
AM_0
 10
753.09791793413501
 20
259.49520247199177
 30
0.0
 11
754.21777623055959
 21
259.46685144960719
 31
0.0
  0
ARC
  5
18111
  8
AM_0
 10
689.24774623055964
 20
263.46050144960702
 30
0.0
 40
64.006351000000123
 50
83.71945637507504
 51
89.991012616410785
  0
LINE
  5
18112
  8
AM_0
 10
718.25778709482711
 20
327.46685335695588
 30
0.0
 11
640.25777714085132
 21
326.1053726034898
 31
0.0
  0
LINE
  5
18113
  8
ﾁｭｳｼﾝｾﾝ1
 10
636.50778095554847
 20
315.4668529993283
 30
0.0
 11
742.00779150557094
 21
315.4668529993283
 31
0.0
  0
LINE
  5
18114
  8
ｶｸﾚｾﾝ2
 10
640.25778477024608
 20
320.96685316324078
 30
0.0
 11
738.25779532026854
 21
320.96685316324078
 31
0.0
  0
LINE
  5
18115
  8
ｶｸﾚｾﾝ2
 10
640.25778477024608
 20
309.96685283541518
 30
0.0
 11
738.25779532026854
 21
309.96685283541518
 31
0.0
  0
ARC
  5
1811C
  8
AM_0
 10
642.76416623056002
 20
309.96047144960733
 30
0.0
 40
5.0063781999999977
 50
120.04217682435279
 51
179.92705000000001
  0
LINE
  5
1811D
  8
AM_0
 10
625.25779623055973
 20
291.9668514496073
 30
0.0
 11
625.25779623055973
 21
291.32685144960732
 31
0.0
  0
LINE
  5
1811E
  8
AM_0
 10
627.75779623055973
 20
297.72686144960733
 30
0.0
 11
627.75779623055973
 21
288.4668514496073
 31
0.0
  0
LINE
  5
18123
  8
AM_0
 10
627.75779623055973
 20
289.5068614496073
 30
0.0
 11
626.33780623055975
 21
289.4668514496073
 31
0.0
  0
LINE
  5
18124
  8
AM_0
 10
627.75778623055965
 20
290.68685144960739
 30
0.0
 11
625.73779623055975
 21
290.82685144960737
 31
0.0
  0
ARC
  5
18125
  8
AM_0
 10
625.77202623055973
 20
291.34011144960721
 30
0.0
 40
0.5143923799999999
 50
181.47632999999809
 51
266.1853900000005
  0
ARC
  5
18126
  8
AM_0
 10
626.38679623055987
 20
288.46627144960729
 30
0.0
 40
1.0006207999999981
 50
90.515970000001047
 51
267.19250000000471
  0
ARC
  5
18127
  8
AM_0
 10
628.86131623055974
 20
288.45728144960731
 30
0.0
 40
1.090437399999999
 50
92.287669999999167
 51
269.81468999999669
  0
LINE
  5
18128
  8
AM_0
 10
629.86136179329992
 20
287.34594453859711
 30
0.0
 11
626.33780623055975
 21
287.4668514496073
 31
0.0
  0
LINE
  5
18129
  8
AM_0
 10
630.83028080541658
 20
289.62425500019248
 30
0.0
 11
628.81779623055979
 21
289.54685144960717
 31
0.0
  0
LINE
  5
1812A
  8
AM_0
 10
637.75779623055973
 20
302.43012730666283
 30
0.0
 11
637.75779623055973
 21
309.96685144960742
 31
0.0
  0
LINE
  5
1812B
  8
AM_0
 10
636.25778623055965
 20
299.735415452236
 30
0.0
 11
628.39778623055975
 21
299.4668514496073
 31
0.0
  0
LINE
  5
1812C
  8
AM_0
 10
634.87485262100074
 20
297.22899311061047
 30
0.0
 11
628.39779623055972
 21
297.4668514496073
 31
0.0
  0
ARC
  5
1812D
  8
AM_0
 10
628.44351623055979
 20
298.4663314496072
 30
0.0
 40
1.000530599999998
 50
90.327200000001042
 51
267.38127000000151
  0
LINE
  5
1812E
  8
AM_0
 10
627.75778623055965
 20
293.24685144960722
 30
0.0
 11
625.73779623055975
 21
293.08684144960722
 31
0.0
  0
ARC
  5
1812F
  8
AM_0
 10
625.75815623055985
 20
292.58692144960719
 30
0.0
 40
0.50035203
 50
92.331169999999602
 51
180.00710999999771
  0
LINE
  5
18130
  8
AM_0
 10
625.25779623055973
 20
291.9668514496073
 30
0.0
 11
625.25779623055973
 21
292.58684144960728
 31
0.0
  0
ARC
  5
18131
  8
AM_0
 10
634.75779623055973
 20
302.43012730666283
 30
0.0
 40
2.9999999999999978
 50
330.80663173194762
 51
0.0
1001
GENIUS_GENOBJ-N-FIL_13
1002
{
1000
OWNER
1000
GEN
1002
}
1001
GENIUS_GENODEF_13
1002
{
1000
HIER
1070
     0
1002
}
1002
{
1000
MANEDIT
1070
     0
1002
}
1002
{
1000
NOSEL
1070
     0
1002
}
1002
{
1000
BEHIND
1070
     0
1002
}
1002
{
1000
OTHER
1070
     0
1002
}
1002
{
1000
REACTOR
1002
}
  0
LINE
  5
18132
  8
AM_0
 10
636.2577846510369
 20
300.96685256719439
 30
0.0
 11
640.25778477024608
 21
300.96685256719439
 31
0.0
  0
ARC
  5
18133
  8
AM_0
 10
674.25818623056011
 20
327.70616144960729
 30
0.0
 40
1.000413999999999
 50
2.331049999997969
 51
179.96048300000029
  0
ARC
  5
18134
  8
AM_0
 10
664.25802623055995
 20
326.35063944960717
 30
0.0
 40
1.000393499999999
 50
10.993529635258341
 51
179.0714379999965
  0
LINE
  5
18135
  8
AM_0
 10
673.22024213893951
 20
326.68070885892172
 30
0.0
 11
673.25778623055999
 21
327.74685744960721
 31
0.0
  0
ARC
  5
18136
  8
AM_0
 10
689.24774623055964
 20
263.46050144960702
 30
0.0
 40
64.006351000000123
 50
89.991012616410785
 51
98.280567367618843
  0
LINE
  5
18137
  8
AM_0
 10
675.29328088051693
 20
326.716894314407
 30
0.0
 11
675.25775623055972
 21
327.74685344960727
 31
0.0
  0
LINE
  5
18138
  8
AM_0
 10
685.2848311016653
 20
327.35804528462199
 30
0.0
 11
685.25778623055965
 21
328.42685344960739
 31
0.0
  0
LINE
  5
18139
  8
AM_0
 10
683.21529199403369
 20
327.19451588210768
 30
0.0
 11
683.25778623055987
 21
328.4268494496074
 31
0.0
  0
ARC
  5
1813A
  8
AM_0
 10
684.25833623055996
 20
328.3791084496072
 30
0.0
 40
1.0005847999999991
 50
2.7350400000044401
 51
179.5564910000007
  0
ARC
  5
1813D
  8
AM_0
 10
735.7683462305597
 20
309.9773914496073
 30
0.0
 40
4.9894699999999981
 50
359.87895100000162
 51
60.070185938252052
  0
LINE
  5
1813E
  8
AM_0
 10
753.25778623055965
 20
291.9668514496073
 30
0.0
 11
753.25778623055965
 21
291.32685144960732
 31
0.0
  0
LINE
  5
1813F
  8
AM_0
 10
750.75778623055965
 20
297.72686144960733
 30
0.0
 11
750.75778623055965
 21
288.4668514496073
 31
0.0
  0
LINE
  5
18140
  8
AM_0
 10
751.67920202993525
 20
277.40276158100761
 30
0.0
 11
753.53781623055966
 21
277.46685144960719
 31
0.0
  0
ARC
  5
18141
  8
AM_0
 10
753.51791623055965
 20
278.46676144960719
 30
0.0
 40
1.0000987999999991
 50
271.1393037999992
 51
90.006579999999261
  0
LINE
  5
18142
  8
AM_0
 10
751.16009788046324
 20
279.55057304234049
 30
0.0
 11
753.53781623055966
 21
279.4668514496073
 31
0.0
  0
LINE
  5
18143
  8
AM_0
 10
747.61862031160899
 20
289.62758129577492
 30
0.0
 11
749.71780623055975
 21
289.54685144960717
 31
0.0
  0
LINE
  5
18144
  8
AM_0
 10
748.59019162331219
 20
287.3430608317575
 30
0.0
 11
752.1977862305597
 21
287.4668514496073
 31
0.0
  0
ARC
  5
18146
  8
AM_0
 10
752.76074623055968
 20
291.32254144960717
 30
0.0
 40
0.4970828599999999
 50
274.27614450000129
 51
0.4957440000002111
  0
LINE
  5
18147
  8
AM_0
 10
750.75778623055965
 20
290.68685144960739
 30
0.0
 11
752.79779623055958
 21
290.82685144960737
 31
0.0
  0
LINE
  5
18148
  8
AM_0
 10
750.75778623055965
 20
289.50684144960741
 30
0.0
 11
752.1977862305597
 21
289.4668514496073
 31
0.0
  0
ARC
  5
18149
  8
AM_0
 10
752.16260623055928
 20
288.46654144960729
 30
0.0
 40
1.000315299999998
 50
272.01573779999671
 51
90.275789999997585
  0
ARC
  5
1814A
  8
AM_0
 10
749.68808623055975
 20
288.4570214496074
 30
0.0
 40
1.0902267999999991
 50
269.45943999999838
 51
88.438200000002624
  0
LINE
  5
1814B
  8
AM_0
 10
742.2577954394776
 20
300.96685256719439
 30
0.0
 11
738.25779532026854
 21
300.96685256719439
 31
0.0
  0
LINE
  5
1814C
  8
AM_0
 10
740.75778623055965
 20
309.96685144960742
 30
0.0
 11
740.75778623055965
 21
302.45793042816217
 31
0.0
  0
LINE
  5
1814D
  8
AM_0
 10
742.25778623055965
 20
299.73610004784018
 30
0.0
 11
750.13778623055964
 21
299.4668514496073
 31
0.0
  0
LINE
  5
1814E
  8
AM_0
 10
743.57744117070888
 20
297.22593414255817
 30
0.0
 11
750.13778623055964
 21
297.4668514496073
 31
0.0
  0
ARC
  5
1814F
  8
AM_0
 10
743.75778623055965
 20
302.45793042816217
 30
0.0
 40
2.9999999999999978
 50
180.0
 51
209.80345756372509
1001
GENIUS_GENODEF_13
1002
{
1000
HIER
1070
     0
1002
}
1002
{
1000
MANEDIT
1070
     0
1002
}
1002
{
1000
NOSEL
1070
     0
1002
}
1002
{
1000
BEHIND
1070
     0
1002
}
1002
{
1000
OTHER
1070
     0
1002
}
1002
{
1000
REACTOR
1002
}
1001
GENIUS_GENOBJ-N-FIL_13
1002
{
1000
OWNER
1000
GEN
1002
}
  0
ARC
  5
18150
  8
AM_0
 10
752.77508623055974
 20
292.60436144960738
 30
0.0
 40
0.48302591
 50
357.92275099999972
 51
87.305360000000846
  0
LINE
  5
18151
  8
AM_0
 10
753.25778623055965
 20
291.9668514496073
 30
0.0
 11
753.25778623055965
 21
292.58684144960728
 31
0.0
  0
ARC
  5
18152
  8
AM_0
 10
750.10626623055964
 20
298.4685414496073
 30
0.0
 40
0.9983469799999998
 50
289.39561000000361
 51
90.485539999999006
  0
LINE
  5
18153
  8
AM_0
 10
750.75778623055965
 20
293.24685144960722
 30
0.0
 11
752.79779623055958
 21
293.08684144960722
 31
0.0
  0
LINE
  5
18154
  8
AM_0
 10
738.25778769087356
 20
327.1177627703803
 30
0.0
 11
718.25778709482711
 21
327.46685335695588
 31
0.0
  0
LINE
  5
18155
  8
AM_0
 10
693.21738388150754
 20
327.36292227131071
 30
0.0
 11
693.25778623055976
 21
328.4268494496074
 31
0.0
  0
LINE
  5
18156
  8
AM_0
 10
695.30006667123382
 20
327.20071807941412
 30
0.0
 11
695.25778623055965
 21
328.4268494496074
 31
0.0
  0
ARC
  5
18157
  8
AM_0
 10
694.25720623055986
 20
328.37842944960732
 30
0.0
 40
1.000603799999999
 50
0.4821899999981778
 51
177.2262829999969
  0
LINE
  5
18158
  8
AM_0
 10
705.27562636418429
 20
327.24024431558399
 30
0.0
 11
705.25778623055965
 21
327.74685344960727
 31
0.0
  0
LINE
  5
18159
  8
AM_0
 10
703.23909351797886
 20
327.20469608043868
 30
0.0
 11
703.25778623055999
 21
327.74685344960727
 31
0.0
  0
ARC
  5
1815A
  8
AM_0
 10
704.25735623055982
 20
327.70548644960729
 30
0.0
 40
1.000428199999998
 50
0.0782199999979815
 51
177.63024800000301
  0
ARC
  5
18484
  8
AM_0
 10
689.27469623055958
 20
263.45685144960731
 30
0.0
 40
64.014987999999974
 50
199.06075530302689
 51
214.0862079518792
  0
LINE
  5
18485
  8
0
 10
579.25078014157521
 20
280.46685144960747
 30
0.0
 11
611.25078014157521
 21
280.46685144960747
 31
0.0
  0
LINE
  5
18486
  8
0
 10
579.25078014157521
 20
277.46685144960747
 30
0.0
 11
621.25078014157509
 21
277.46685144960747
 31
0.0
  0
LINE
  5
18487
  8
0
 10
579.25078014157521
 20
249.4668514496073
 30
0.0
 11
621.25078014157509
 21
249.4668514496073
 31
0.0
  0
LINE
  5
18488
  8
AM_0
 10
579.25078014157521
 20
249.4668514496073
 30
0.0
 11
579.25078014157521
 21
280.46685144960747
 31
0.0
  0
LINE
  5
18489
  8
0
 10
611.25078014157521
 20
280.46685144960747
 30
0.0
 11
611.25078014157521
 21
277.46685144960747
 31
0.0
  0
LINE
  5
1848A
  8
0
 10
621.25078014157509
 20
280.96685144960742
 30
0.0
 11
621.25078014157509
 21
245.96685144960739
 31
0.0
  0
LINE
  5
1848B
  8
0
 10
621.25078014157509
 20
280.96685144960742
 30
0.0
 11
632.25778453182727
 21
285.9668521201595
 31
0.0
  0
LINE
  5
1848C
  8
AM_0
 10
632.25778453182727
 20
285.9668521201595
 30
0.0
 11
632.25778453182727
 21
240.96685077905531
 31
0.0
  0
LINE
  5
1848D
  8
AM_0
 10
632.25778453182727
 20
285.9668521201595
 30
0.0
 11
636.2577846510369
 21
285.9668521201595
 31
0.0
  0
LINE
  5
1848E
  8
0
 10
621.25078014157509
 20
245.96685144960739
 30
0.0
 11
632.25778453182727
 21
240.96685077905531
 31
0.0
  0
LINE
  5
1848F
  8
AM_0
 10
632.25778453182727
 20
240.96685077905531
 30
0.0
 11
636.2577846510369
 21
240.96685077905531
 31
0.0
  0
CIRCLE
  5
1851C
  8
AM_0
 10
398.7275701213938
 20
263.46685380780269
 30
0.0
 40
22.50000067055224
  0
ARC
  5
1851D
  8
0
 10
398.7275701213938
 20
263.46685144960719
 30
0.0
 40
14.00000000000014
 50
106.6015495990207
 51
73.3984504009793
  0
CIRCLE
  5
1851E
  8
ｽﾝﾎﾟｳｾﾝ
 10
398.7275701213938
 20
263.46685144960719
 30
0.0
 40
4.0
  0
LINE
  5
1851F
  8
0
 10
394.72757012139368
 20
273.46685144960702
 30
0.0
 11
402.72757012139368
 21
273.46685144960702
 31
0.0
  0
LINE
  5
18520
  8
0
 10
394.72757012139368
 20
280.46685144960679
 30
0.0
 11
402.72757012139368
 21
280.46685144960679
 31
0.0
  0
LINE
  5
18521
  8
0
 10
394.72757012139368
 20
280.46685144960679
 30
0.0
 11
394.72757012139368
 21
273.46685144960702
 31
0.0
  0
LINE
  5
18522
  8
0
 10
402.72757012139368
 20
280.46685144960679
 30
0.0
 11
402.72757012139368
 21
273.46685144960702
 31
0.0
  0
CIRCLE
  5
186E3
  8
AM_0
 10
398.7275701213938
 20
263.46685380780269
 30
0.0
 40
3.399999999999999
  0
LINE
  5
1887C
  8
AM_0
 10
361.72757012139368
 20
596.65868300847967
 30
0.0
 11
369.72757012139402
 21
596.65868300847967
 31
0.0
  0
LINE
  5
1887D
  8
AM_0
 10
371.72757012139402
 20
590.65868300847978
 30
0.0
 11
359.72757012139368
 21
590.65868300847978
 31
0.0
  0
LINE
  5
1887E
  8
AM_0
 10
361.22756900380671
 20
495.65867996864301
 30
0.0
 11
436.22757123898072
 21
495.65867996864301
 31
0.0
  0
LINE
  5
1887F
  8
AM_0
 10
361.22756900380671
 20
601.65869075708395
 30
0.0
 11
436.22757123898072
 21
601.65869075708395
 31
0.0
  0
LINE
  5
18880
  8
AM_0
 10
291.08904762640651
 20
499.65867245845732
 30
0.0
 11
460.3660912454738
 21
499.65867245845732
 31
0.0
  0
LINE
  5
18881
  8
AM_0
 10
290.07662694193721
 20
597.65868300847978
 30
0.0
 11
461.37848141236429
 21
597.65868300847978
 31
0.0
  0
LINE
  5
18882
  8
AM_0
 10
289.72753635536162
 20
577.65868241243322
 30
0.0
 11
461.72757199893988
 21
577.65868241243322
 31
0.0
  0
LINE
  5
18883
  8
ﾁｭｳｼﾝｾﾝ1
 10
36.708697189472332
 20
548.65868154816621
 30
0.0
 11
467.97757199893999
 21
548.65868154816621
 31
0.0
1001
GENIUS_GENODEF_13
1002
{
1000
HIER
1070
     0
1002
}
1002
{
1000
MANEDIT
1070
     0
1002
}
1002
{
1000
NOSEL
1070
     0
1002
}
1002
{
1000
BEHIND
1070
     0
1002
}
1002
{
1000
REACTOR
1002
}
1001
GENIUS_GENOBJ-N-CEN_13
1002
{
1000
OWNER
1000
GEN
1002
}
  0
LINE
  5
18884
  8
AM_0
 10
263.22753635536151
 20
487.15868654816552
 30
0.0
 11
263.22753635536151
 21
610.15866654816591
 31
0.0
  0
LINE
  5
18885
  8
AM_0
 10
289.72753635543751
 20
577.65868241243322
 30
0.0
 11
291.08904762640651
 21
499.65867245845732
 31
0.0
  0
LINE
  5
18886
  8
ｶｸﾚｾﾝ2
 10
307.22753687690198
 20
499.65868008785242
 30
0.0
 11
307.22753687690198
 21
597.65869063787477
 31
0.0
  0
LINE
  5
18887
  8
ﾁｭｳｼﾝｾﾝ1
 10
301.72753671298909
 20
495.90867627315498
 30
0.0
 11
301.72753671298909
 21
601.4086868231775
 31
0.0
  0
LINE
  5
18888
  8
ｶｸﾚｾﾝ2
 10
296.22753654907649
 20
499.65868008785242
 30
0.0
 11
296.22753654907649
 21
597.65869063787477
 31
0.0
  0
LINE
  5
18889
  8
AM_0
 10
252.22753635536159
 20
484.65865154816561
 30
0.0
 11
252.22753635536159
 21
612.65866654816591
 31
0.0
  0
LINE
  5
1888A
  8
AM_0
 10
252.22753635536159
 20
585.7986565481657
 30
0.0
 11
262.22753635536162
 21
585.7986565481657
 31
0.0
  0
LINE
  5
1888B
  8
AM_0
 10
252.22749508871109
 20
585.79866654814327
 30
0.0
 11
262.22749508870493
 21
585.79867765925474
 31
0.0
  0
LINE
  5
1888C
  8
AM_0
 10
252.22753635536159
 20
600.69866654816565
 30
0.0
 11
262.22753635536162
 21
600.69866654816565
 31
0.0
  0
LINE
  5
1888D
  8
AM_0
 10
252.22747853314431
 20
600.69867654813424
 30
0.0
 11
262.22747853313808
 21
600.69868765924548
 31
0.0
  0
LINE
  5
1888E
  8
AM_0
 10
252.22753635536159
 20
612.65866654816591
 30
0.0
 11
261.35413918295711
 21
612.65866654816591
 31
0.0
  0
LINE
  5
1888F
  8
AM_0
 10
282.08616681091371
 20
577.48437092693803
 30
0.0
 11
279.38726340351019
 21
608.33297803366122
 31
0.0
  0
LINE
  5
18890
  8
AM_0
 10
266.22753635536151
 20
610.15866654816591
 30
0.0
 11
277.39487400732679
 21
610.1586665481658
 31
0.0
  0
ARC
  5
18891
  8
AM_0
 10
266.22753635536151
 20
613.15866654816591
 30
0.0
 40
2.9999999999999978
 50
215.68533471265459
 51
270.0
1001
GENIUS_GENOBJ-N-FIL_13
1002
{
1000
OWNER
1000
GEN
1002
}
1001
GENIUS_GENODEF_13
1002
{
1000
HIER
1070
     0
1002
}
1002
{
1000
MANEDIT
1070
     0
1002
}
1002
{
1000
NOSEL
1070
     0
1002
}
1002
{
1000
BEHIND
1070
     0
1002
}
1002
{
1000
OTHER
1070
     0
1002
}
1002
{
1000
REACTOR
1002
}
  0
ARC
  5
18892
  8
AM_0
 10
261.35413918295711
 20
609.65866654816602
 30
0.0
 40
2.9999999999999978
 50
35.68533471265463
 51
90.0
1001
GENIUS_GENOBJ-N-FIL_13
1002
{
1000
OWNER
1000
GEN
1002
}
1001
GENIUS_GENODEF_13
1002
{
1000
HIER
1070
     0
1002
}
1002
{
1000
MANEDIT
1070
     0
1002
}
1002
{
1000
NOSEL
1070
     0
1002
}
1002
{
1000
BEHIND
1070
     0
1002
}
1002
{
1000
OTHER
1070
     0
1002
}
1002
{
1000
REACTOR
1002
}
  0
ARC
  5
18893
  8
AM_0
 10
277.39487400732668
 20
608.15866654816568
 30
0.0
 40
2.0
 50
4.9999999999997433
 51
90.0
1001
GENIUS_GENOBJ-N-FIL_13
1002
{
1000
OWNER
1000
GEN
1002
}
1001
GENIUS_GENODEF_13
1002
{
1000
HIER
1070
     0
1002
}
1002
{
1000
MANEDIT
1070
     0
1002
}
1002
{
1000
NOSEL
1070
     0
1002
}
1002
{
1000
BEHIND
1070
     0
1002
}
1002
{
1000
OTHER
1070
     0
1002
}
1002
{
1000
REACTOR
1002
}
  0
ARC
  5
18894
  8
AM_0
 10
284.07855620709722
 20
577.65868241243322
 30
0.0
 40
2.0
 50
184.99999999999969
 51
270.0
1001
GENIUS_GENOBJ-N-FIL_13
1002
{
1000
OWNER
1000
GEN
1002
}
1001
GENIUS_GENODEF_13
1002
{
1000
HIER
1070
     0
1002
}
1002
{
1000
MANEDIT
1070
     0
1002
}
1002
{
1000
NOSEL
1070
     0
1002
}
1002
{
1000
BEHIND
1070
     0
1002
}
1002
{
1000
OTHER
1070
     0
1002
}
1002
{
1000
REACTOR
1002
}
  0
LINE
  5
18895
  8
AM_0
 10
290.07662694193721
 20
597.65868300847978
 30
0.0
 11
289.72753635536162
 21
577.65868241243322
 31
0.0
  0
ARC
  5
18896
  8
AM_0
 10
288.74483929428339
 20
576.65868241243322
 30
0.0
 40
1.0
 50
270.0
 51
1.000011773500677
1001
GENIUS_GENOBJ-N-FIL_13
1002
{
1000
OWNER
1000
GEN
1002
}
1001
GENIUS_GENODEF_13
1002
{
1000
HIER
1070
     0
1002
}
1002
{
1000
MANEDIT
1070
     0
1002
}
1002
{
1000
NOSEL
1070
     0
1002
}
1002
{
1000
BEHIND
1070
     0
1002
}
1002
{
1000
OTHER
1070
     0
1002
}
1002
{
1000
REACTOR
1002
}
  0
LINE
  5
18897
  8
AM_0
 10
284.07855620709722
 20
575.65868241243322
 30
0.0
 11
288.74483929428339
 21
575.65868241243322
 31
0.0
  0
LINE
  5
18898
  8
AM_0
 10
360.72757012139368
 20
590.65868300847978
 30
0.0
 11
360.72757012139368
 21
595.65868300847967
 31
0.0
  0
LINE
  5
18899
  8
AM_0
 10
359.72757012139368
 20
597.65868300847978
 30
0.0
 11
359.72757012139368
 21
590.65868300847978
 31
0.0
  0
ARC
  5
1889A
  8
AM_0
 10
361.72757012139368
 20
595.65868300847967
 30
0.0
 40
1.0
 50
90.0
 51
180.0
1001
GENIUS_GENOBJ-N-FIL_13
1002
{
1000
OWNER
1000
GEN
1002
}
1001
GENIUS_GENODEF_13
1002
{
1000
HIER
1070
     0
1002
}
1002
{
1000
MANEDIT
1070
     0
1002
}
1002
{
1000
NOSEL
1070
     0
1002
}
1002
{
1000
BEHIND
1070
     0
1002
}
1002
{
1000
OTHER
1070
     0
1002
}
1002
{
1000
REACTOR
1002
}
  0
LINE
  5
1889B
  8
AM_0
 10
361.22756900380671
 20
601.65869075708395
 30
0.0
 11
361.22756900380671
 21
597.65869063787477
 31
0.0
  0
LINE
  5
1889C
  8
AM_0
 10
252.22753635536159
 20
484.6586865481658
 30
0.0
 11
261.35413918295711
 21
484.6586865481658
 31
0.0
  0
LINE
  5
1889D
  8
AM_0
 10
252.22753635536159
 20
496.6186865481659
 30
0.0
 11
262.22753635536162
 21
496.6186865481659
 31
0.0
  0
LINE
  5
1889E
  8
AM_0
 10
252.22753635536159
 20
511.51869654816591
 30
0.0
 11
262.22753635536162
 21
511.51869654816591
 31
0.0
  0
LINE
  5
1889F
  8
AM_0
 10
276.06023246942863
 20
501.6586724584572
 30
0.0
 11
289.088742963144
 21
501.6586724584572
 31
0.0
  0
LINE
  5
188A0
  8
AM_0
 10
273.11871278110641
 20
488.98437506267038
 30
0.0
 11
274.06784307324511
 21
499.83298394395263
 31
0.0
  0
ARC
  5
188A1
  8
AM_0
 10
276.06023246942863
 20
499.65867245845732
 30
0.0
 40
2.0
 50
90.0
 51
175.0000000000002
1001
GENIUS_GENOBJ-N-FIL_13
1002
{
1000
OWNER
1000
GEN
1002
}
1001
GENIUS_GENODEF_13
1002
{
1000
HIER
1070
     0
1002
}
1002
{
1000
MANEDIT
1070
     0
1002
}
1002
{
1000
NOSEL
1070
     0
1002
}
1002
{
1000
BEHIND
1070
     0
1002
}
1002
{
1000
OTHER
1070
     0
1002
}
1002
{
1000
REACTOR
1002
}
  0
LINE
  5
188A2
  8
AM_0
 10
266.22753635536151
 20
487.1586865481658
 30
0.0
 11
271.1263233849229
 21
487.1586865481658
 31
0.0
  0
ARC
  5
188A3
  8
AM_0
 10
261.35413918295711
 20
487.6586865481658
 30
0.0
 40
2.9999999999999978
 50
270.0
 51
324.31466528734541
1001
GENIUS_GENOBJ-N-FIL_13
1002
{
1000
OWNER
1000
GEN
1002
}
1001
GENIUS_GENODEF_13
1002
{
1000
HIER
1070
     0
1002
}
1002
{
1000
MANEDIT
1070
     0
1002
}
1002
{
1000
NOSEL
1070
     0
1002
}
1002
{
1000
BEHIND
1070
     0
1002
}
1002
{
1000
OTHER
1070
     0
1002
}
1002
{
1000
REACTOR
1002
}
  0
ARC
  5
188A4
  8
AM_0
 10
266.22753635536151
 20
484.1586865481658
 30
0.0
 40
2.9999999999999978
 50
90.0
 51
144.31466528734541
1001
GENIUS_GENOBJ-N-FIL_13
1002
{
1000
OWNER
1000
GEN
1002
}
1001
GENIUS_GENODEF_13
1002
{
1000
HIER
1070
     0
1002
}
1002
{
1000
MANEDIT
1070
     0
1002
}
1002
{
1000
NOSEL
1070
     0
1002
}
1002
{
1000
BEHIND
1070
     0
1002
}
1002
{
1000
OTHER
1070
     0
1002
}
1002
{
1000
REACTOR
1002
}
  0
ARC
  5
188A5
  8
AM_0
 10
271.1263233849229
 20
489.1586865481658
 30
0.0
 40
2.0
 50
270.0
 51
355.00000000000028
1001
GENIUS_GENOBJ-N-FIL_13
1002
{
1000
OWNER
1000
GEN
1002
}
1001
GENIUS_GENODEF_13
1002
{
1000
HIER
1070
     0
1002
}
1002
{
1000
MANEDIT
1070
     0
1002
}
1002
{
1000
NOSEL
1070
     0
1002
}
1002
{
1000
BEHIND
1070
     0
1002
}
1002
{
1000
OTHER
1070
     0
1002
}
1002
{
1000
REACTOR
1002
}
  0
ARC
  5
188A6
  8
AM_0
 10
289.088742963144
 20
499.65867245845732
 30
0.0
 40
2.0
 50
1.0000117735560941
 51
90.0
1001
GENIUS_GENOBJ-N-FIL_13
1002
{
1000
OWNER
1000
GEN
1002
}
1001
GENIUS_GENODEF_13
1002
{
1000
HIER
1070
     0
1002
}
1002
{
1000
MANEDIT
1070
     0
1002
}
1002
{
1000
NOSEL
1070
     0
1002
}
1002
{
1000
BEHIND
1070
     0
1002
}
1002
{
1000
OTHER
1070
     0
1002
}
1002
{
1000
REACTOR
1002
}
  0
LINE
  5
188A7
  8
AM_0
 10
361.22756900380671
 20
495.65867996864301
 30
0.0
 11
361.22756900380671
 21
499.65868008785242
 31
0.0
  0
LINE
  5
188A8
  8
ﾁｭｳｼﾝｾﾝ1
 10
398.72757012139391
 20
433.65167545918121
 30
0.0
 11
398.7275701213938
 21
610.65869087629324
 31
0.0
  0
LINE
  5
188A9
  8
ｶｸﾚｾﾝ2
 10
444.22757147739878
 20
499.65868008785242
 30
0.0
 11
444.22757147739878
 21
597.65869063787477
 31
0.0
  0
LINE
  5
188AA
  8
ﾁｭｳｼﾝｾﾝ1
 10
449.72757164131201
 20
495.9086762731547
 30
0.0
 11
449.72757164131201
 21
601.40868682317716
 31
0.0
  0
LINE
  5
188AB
  8
ｶｸﾚｾﾝ2
 10
455.2275718052245
 20
499.65868008785242
 30
0.0
 11
455.2275718052245
 21
597.65869063787477
 31
0.0
  0
LINE
  5
188AC
  8
AM_0
 10
461.72757199893988
 20
577.65868241243322
 30
0.0
 11
460.3660912454738
 21
499.65867245845732
 31
0.0
  0
LINE
  5
188B0
  8
AM_0
 10
370.72757012139402
 20
595.65868300847967
 30
0.0
 11
370.72757012139402
 21
590.65868300847978
 31
0.0
  0
LINE
  5
188B1
  8
AM_0
 10
371.72757012139402
 20
597.65868300847978
 30
0.0
 11
371.72757012139402
 21
590.65868300847978
 31
0.0
  0
ARC
  5
188B2
  8
AM_0
 10
369.72757012139402
 20
595.65868300847967
 30
0.0
 40
1.0
 50
0.0
 51
90.0
1001
GENIUS_GENOBJ-N-FIL_13
1002
{
1000
OWNER
1000
GEN
1002
}
1001
GENIUS_GENODEF_13
1002
{
1000
HIER
1070
     0
1002
}
1002
{
1000
MANEDIT
1070
     0
1002
}
1002
{
1000
NOSEL
1070
     0
1002
}
1002
{
1000
BEHIND
1070
     0
1002
}
1002
{
1000
OTHER
1070
     0
1002
}
1002
{
1000
REACTOR
1002
}
  0
LINE
  5
188B3
  8
AM_0
 10
436.22757123898072
 20
601.65869075708395
 30
0.0
 11
436.22757123898072
 21
597.65869063787477
 31
0.0
  0
LINE
  5
188B4
  8
AM_0
 10
461.37848141236429
 20
597.65868300847978
 30
0.0
 11
461.72757199893988
 21
577.65868241243322
 31
0.0
  0
LINE
  5
188B7
  8
AM_0
 10
436.22757123898072
 20
495.65867996864301
 30
0.0
 11
436.22757123898072
 21
499.65868008785242
 31
0.0
  0
LINE
  5
18A99
  8
0
 10
384.72757012139368
 20
438.65167545918138
 30
0.0
 11
384.72757012139368
 21
480.65167545918138
 31
0.0
  0
LINE
  5
18A9A
  8
0
 10
412.72757012139363
 20
438.65167545918138
 30
0.0
 11
412.72757012139363
 21
480.65167545918138
 31
0.0
  0
LINE
  5
18A9B
  8
AM_0
 10
412.72757012139363
 20
438.65167545918138
 30
0.0
 11
384.72757012139368
 21
438.65167545918138
 31
0.0
  0
LINE
  5
18A9C
  8
0
 10
394.72757012139351
 20
470.65167545918121
 30
0.0
 11
402.72757012139368
 21
470.65167545918121
 31
0.0
  0
LINE
  5
18A9D
  8
0
 10
381.22757012139368
 20
480.65167545918138
 30
0.0
 11
416.22757012139351
 21
480.65167545918138
 31
0.0
  0
LINE
  5
18A9E
  8
0
 10
381.22757012139368
 20
480.65167545918138
 30
0.0
 11
376.22756945084149
 21
491.6586798494335
 31
0.0
  0
LINE
  5
18A9F
  8
AM_0
 10
376.22756945084149
 20
491.6586798494335
 30
0.0
 11
421.22757079194571
 21
491.6586798494335
 31
0.0
  0
LINE
  5
18AA0
  8
AM_0
 10
376.22756945084149
 20
491.6586798494335
 30
0.0
 11
376.22756945084149
 21
495.65867996864301
 31
0.0
  0
LINE
  5
18AA1
  8
0
 10
416.22757012139351
 20
480.65167545918138
 30
0.0
 11
421.22757079194571
 21
491.6586798494335
 31
0.0
  0
LINE
  5
18AA2
  8
AM_0
 10
421.22757079194571
 20
491.6586798494335
 30
0.0
 11
421.22757079194571
 21
495.65867996864301
 31
0.0
  0
LINE
  5
18AE3
  8
AM_0
 10
402.72757012139368
 20
438.65167545918138
 30
0.0
 11
402.72757012139368
 21
470.65167545918121
 31
0.0
  0
LINE
  5
18AEA
  8
AM_0
 10
394.72757012139368
 20
438.65167545918138
 30
0.0
 11
394.72757012139368
 21
470.65167545918121
 31
0.0
  0
ARC
  5
18AEB
  8
AM_0
 10
398.72757012139368
 20
470.65167545918121
 30
0.0
 40
4.0
 50
0.0
 51
180.0
  0
LINE
  5
190BC
  8
AM_0
 10
120.2275063553616
 20
484.76870154816601
 30
0.0
 11
173.22750635536161
 21
484.76870154816601
 31
0.0
  0
LINE
  5
190BD
  8
AM_0
 10
120.2275063553616
 20
483.41869154816612
 30
0.0
 11
173.22750635536161
 21
483.41869154816612
 31
0.0
  0
LINE
  5
190BE
  8
AM_0
 10
120.2275063553616
 20
482.7387015481662
 30
0.0
 11
173.22750635536161
 21
482.7387015481662
 31
0.0
  0
LINE
  5
190BF
  8
AM_0
 10
120.2275063553616
 20
612.54869254816606
 30
0.0
 11
173.22750635536161
 21
612.54869254816606
 31
0.0
  0
LINE
  5
190C0
  8
AM_0
 10
120.2275063553616
 20
613.89870654816616
 30
0.0
 11
173.22750635536161
 21
613.89870654816616
 31
0.0
  0
LINE
  5
190C1
  8
AM_0
 10
120.2275063553616
 20
614.56868854816605
 30
0.0
 11
173.22750635536161
 21
614.56868854816605
 31
0.0
  0
LINE
  5
190C2
  8
AM_0
 10
142.22750635536161
 20
595.00870154816619
 30
0.0
 11
244.22750635536161
 21
595.00870154816619
 31
0.0
  0
LINE
  5
190C3
  8
AM_0
 10
142.22750635536161
 20
502.30869154816622
 30
0.0
 11
244.22750635536161
 21
502.30869154816622
 31
0.0
  0
LINE
  5
190C4
  8
AM_0
 10
237.57753635536159
 20
584.65868154816633
 30
0.0
 11
102.7775563553616
 21
584.65868154816633
 31
0.0
  0
LINE
  5
190C5
  8
AM_0
 10
110.9074963553615
 20
511.93870154816608
 30
0.0
 11
241.04750635536161
 21
511.93870154816608
 31
0.0
  0
LINE
  5
190C6
  8
AM_0
 10
237.57753635536159
 20
512.65868154816621
 30
0.0
 11
111.7775563553616
 21
512.65868154816621
 31
0.0
  0
LINE
  5
190C7
  8
AM_0
 10
120.2275063553616
 20
486.79870154816609
 30
0.0
 11
237.0374963553617
 21
486.79870154816609
 31
0.0
  0
LINE
  5
190C8
  8
AM_0
 10
120.2275063553616
 20
610.51869354816597
 30
0.0
 11
237.0374963553617
 21
610.51869354816597
 31
0.0
  0
LINE
  5
190C9
  8
AM_0
 10
97.227506355361584
 20
491.22869154816613
 30
0.0
 11
97.227506355361584
 21
548.65868154816621
 31
0.0
  0
ARC
  5
190CA
  8
AM_0
 10
116.72713635536159
 20
603.13906254816618
 30
0.0
 40
1.5003600999999991
 50
270.01381500000002
 51
359.98618399999862
  0
LINE
  5
190CB
  8
AM_0
 10
101.44753635536161
 20
605.33870054816623
 30
0.0
 11
100.48751635536151
 21
600.87868654816623
 31
0.0
  0
LINE
  5
190CC
  8
AM_0
 10
97.227506355361584
 20
606.08868554816615
 30
0.0
 11
97.227506355361584
 21
548.65868154816621
 31
0.0
  0
ARC
  5
190CD
  8
AM_0
 10
120.22860635536161
 20
612.57226754816622
 30
0.0
 40
1.996427999999999
 50
90.032390000001968
 51
165.30536999999961
  0
ARC
  5
190CE
  8
AM_0
 10
120.22731635536159
 20
611.89887354816619
 30
0.0
 40
1.999824
 50
89.994939999998735
 51
180.00506000000121
  0
ARC
  5
190CF
  8
AM_0
 10
120.2300063553616
 20
610.54618254816614
 30
0.0
 40
2.0025157999999981
 50
90.071899999999786
 51
179.9281000000002
  0
ARC
  5
190D0
  8
AM_0
 10
120.22914635536149
 20
608.51705354816625
 30
0.0
 40
2.001640099999999
 50
90.046959999998165
 51
179.9530399999953
  0
LINE
  5
190D1
  8
AM_0
 10
103.3675163553615
 20
610.32869854816624
 30
0.0
 11
116.7275063553615
 21
610.32869854816624
 31
0.0
  0
LINE
  5
190D2
  8
AM_0
 10
103.33748635536161
 20
611.95870354816623
 30
0.0
 11
116.83748635536161
 21
611.95870354816623
 31
0.0
  0
LINE
  5
190D3
  8
AM_0
 10
103.3975463553615
 20
606.91870254816615
 30
0.0
 11
116.7275063553615
 21
606.91870254816615
 31
0.0
  0
LINE
  5
190D4
  8
AM_0
 10
101.3975463553615
 20
610.44868654816605
 30
0.0
 11
100.5175463553615
 21
606.90868554816609
 31
0.0
  0
ARC
  5
190D5
  8
AM_0
 10
103.3654463553615
 20
608.32676054816613
 30
0.0
 40
2.001947899999998
 50
89.940519999998955
 51
166.65886000000151
  0
ARC
  5
190D6
  8
AM_0
 10
103.3399263553616
 20
609.95438554816633
 30
0.0
 40
2.0043239999999991
 50
90.068910000001068
 51
165.72194999999999
  0
LINE
  5
190D7
  8
AM_0
 10
99.037496355361554
 20
603.75869154816633
 30
0.0
 11
101.0974963553616
 21
603.75869154816633
 31
0.0
  0
LINE
  5
190D8
  8
AM_0
 10
99.057516355361614
 20
605.77868854816631
 30
0.0
 11
100.7075463553616
 21
605.77868854816631
 31
0.0
  0
LINE
  5
190D9
  8
AM_0
 10
97.227506355361584
 20
606.08870054816623
 30
0.0
 11
100.04750635536161
 21
606.15870054816605
 31
0.0
  0
ARC
  5
190DA
  8
AM_0
 10
99.062466355361593
 20
607.28047354816624
 30
0.0
 40
1.501779999999999
 50
269.81061700000078
 51
345.66716400000053
  0
ARC
  5
190DB
  8
AM_0
 10
99.041836355361625
 20
605.25502954816614
 30
0.0
 40
1.4963319999999991
 50
269.83540999999917
 51
346.617561999999
  0
LINE
  5
190DC
  8
AM_0
 10
101.4175063553616
 20
608.78870554816615
 30
0.0
 11
100.4974663553615
 21
604.90870854816615
 31
0.0
  0
ARC
  5
190DD
  8
AM_0
 10
103.3994363553615
 20
604.92299054816624
 30
0.0
 40
1.995695899999999
 50
90.05521999999722
 51
167.9774699999997
  0
ARC
  5
190DE
  8
AM_0
 10
116.7289063553615
 20
611.82725654816625
 30
0.0
 40
1.498559999999999
 50
269.94488499999687
 51
0.055119999999415
  0
LINE
  5
190DF
  8
AM_0
 10
118.2275063553616
 20
610.54869954816616
 30
0.0
 11
118.2275063553616
 21
603.13869654816619
 31
0.0
  0
ARC
  5
190E0
  8
AM_0
 10
116.84621635536151
 20
613.45897854816633
 30
0.0
 40
1.5003120000000001
 50
269.66833699999898
 51
345.31696600000032
  0
ARC
  5
190E1
  8
AM_0
 10
116.7259763553616
 20
608.42021354816598
 30
0.0
 40
1.5015080999999979
 50
270.05754899999692
 51
359.94245300200021
  0
ARC
  5
190E2
  8
AM_0
 10
101.6875263553616
 20
573.67870154816615
 30
0.0
 40
1.4599999999999991
 50
90.0
 51
269.99999700000228
  0
LINE
  5
190E3
  8
AM_0
 10
237.57753635536159
 20
582.65869154816596
 30
0.0
 11
102.7775563553616
 21
582.65869154816596
 31
0.0
  0
LINE
  5
190E4
  8
AM_0
 10
240.1724763553616
 20
574.65869564816614
 30
0.0
 11
102.7775563553616
 21
574.65870154816616
 31
0.0
  0
LINE
  5
190E5
  8
AM_0
 10
240.17247640772169
 20
572.65868744816623
 30
0.0
 11
102.7775563553616
 21
572.6586815481661
 31
0.0
  0
LINE
  5
190E6
  8
AM_0
 10
101.6875263553616
 20
575.13869154816632
 30
0.0
 11
241.26250635536169
 21
575.13870154816595
 31
0.0
  0
LINE
  5
190E7
  8
AM_0
 10
142.22756635536149
 20
595.00869154816598
 30
0.0
 11
107.2275663553615
 21
592.97869154816624
 31
0.0
  0
LINE
  5
190E8
  8
AM_0
 10
107.2275063553616
 20
597.00869154816633
 30
0.0
 11
107.2275063553616
 21
585.31869116029759
 31
0.0
  0
ARC
  5
190E9
  8
AM_0
 10
106.3977263553615
 20
590.25157154816623
 30
0.0
 40
5.0021839000000003
 50
279.54857499999889
 51
354.57547400000249
  0
LINE
  5
190EA
  8
AM_0
 10
97.227506355361584
 20
591.34869154816613
 30
0.0
 11
107.2275063553616
 21
591.34869154816613
 31
0.0
  0
LINE
  5
190EB
  8
AM_0
 10
97.227506355361584
 20
597.00869154816633
 30
0.0
 11
107.2275063553616
 21
597.00869154816633
 31
0.0
  0
LINE
  5
190EC
  8
AM_0
 10
103.4574863553615
 20
601.63869654816631
 30
0.0
 11
116.7275063553615
 21
601.63869654816631
 31
0.0
  0
LINE
  5
190ED
  8
AM_0
 10
99.017476355361637
 20
599.68869154816605
 30
0.0
 11
101.4375263553615
 21
599.68869154816605
 31
0.0
  0
ARC
  5
190EE
  8
AM_0
 10
99.017666355361598
 20
601.19148454816604
 30
0.0
 40
1.5027881000000001
 50
269.9953320000032
 51
347.98665799999748
  0
LINE
  5
190EF
  8
AM_0
 10
100.94753635536161
 20
597.00869154816633
 30
0.0
 11
101.4875763553616
 21
599.99871254816605
 31
0.0
  0
ARC
  5
190F0
  8
AM_0
 10
103.4544963553616
 20
599.63907054816605
 30
0.0
 40
1.9996280999999989
 50
89.914670000000115
 51
169.6392399999975
  0
ARC
  5
190F1
  8
AM_0
 10
106.8577563553616
 20
586.31219154816631
 30
0.0
 40
6.007896399999999
 50
45.382730000005701
 51
86.471550000001656
  0
ARC
  5
190F2
  8
AM_0
 10
110.3740463553615
 20
589.86760154816614
 30
0.0
 40
1.007376
 50
354.93659510000271
 51
45.709679999997569
  0
LINE
  5
190F3
  8
AM_0
 10
97.227506355361584
 20
582.95869154816614
 30
0.0
 11
100.3975463553615
 21
582.95869154816614
 31
0.0
  0
ARC
  5
190F4
  8
AM_0
 10
102.77755898528331
 20
583.6586985981661
 30
0.0
 40
1.000007050003423
 50
90.000150682346145
 51
269.99984931765221
  0
ARC
  5
190F5
  8
AM_0
 10
101.9074963553615
 20
583.70370154816612
 30
0.0
 40
1.6750081000000001
 50
90.0
 51
269.99999700000228
  0
ARC
  5
190F6
  8
AM_0
 10
102.7775563553616
 20
573.65869154816608
 30
0.0
 40
1.0000040999999991
 50
90.0
 51
269.99999700000228
  0
ARC
  5
190F7
  8
AM_0
 10
119.2275063553616
 20
583.65870154816605
 30
0.0
 40
1.0000040999999991
 50
90.0
 51
269.99999700000228
  0
ARC
  5
190F8
  8
AM_0
 10
119.2275063553616
 20
573.65869154816608
 30
0.0
 40
1.0000040999999991
 50
90.0
 51
269.99999700000228
  0
LINE
  5
190F9
  8
AM_0
 10
240.1624820022401
 20
552.65870351749516
 30
0.0
 11
102.7874963553615
 21
552.65868154816621
 31
0.0
  0
LINE
  5
190FA
  8
AM_0
 10
101.4975263553616
 20
552.38869154816621
 30
0.0
 11
241.4525064218588
 21
552.38869754816596
 31
0.0
  0
LINE
  5
190FB
  8
AM_0
 10
101.4975263553616
 20
544.91869154816618
 30
0.0
 11
241.45250635536161
 21
544.91871554816612
 31
0.0
  0
LINE
  5
190FC
  8
AM_0
 10
101.4975263553616
 20
542.38869154816621
 30
0.0
 11
241.45250642159701
 21
542.38870754816605
 31
0.0
  0
LINE
  5
190FD
  8
AM_0
 10
240.16248189752051
 20
544.65869957792427
 30
0.0
 11
102.7874963553615
 21
544.65870154816605
 31
0.0
  0
LINE
  5
190FE
  8
AM_0
 10
240.1624820022401
 20
542.65870351749538
 30
0.0
 11
102.7874963553615
 21
542.65868154816621
 31
0.0
  0
LINE
  5
190FF
  8
AM_0
 10
101.4975263553616
 20
554.92869154816606
 30
0.0
 11
241.45250635536161
 21
554.92870554816614
 31
0.0
  0
LINE
  5
19100
  8
AM_0
 10
101.6875263553616
 20
572.21868154816605
 30
0.0
 11
241.262506431807
 21
572.21870154816622
 31
0.0
  0
LINE
  5
19101
  8
AM_0
 10
101.5575163553616
 20
564.99870154816631
 30
0.0
 11
241.39251635536161
 21
564.99868154816625
 31
0.0
  0
LINE
  5
19102
  8
AM_0
 10
240.16248189752051
 20
564.65867957792454
 30
0.0
 11
102.7874963553615
 21
564.65868154816599
 31
0.0
  0
LINE
  5
19103
  8
AM_0
 10
101.5575163553616
 20
562.33869154816614
 30
0.0
 11
241.3925164250002
 21
562.33868154816605
 31
0.0
  0
LINE
  5
19104
  8
AM_0
 10
240.16248189752051
 20
554.65869957792449
 30
0.0
 11
102.7874963553615
 21
554.65868154816621
 31
0.0
  0
LINE
  5
19105
  8
AM_0
 10
240.1624820022401
 20
562.65868351749532
 30
0.0
 11
102.7874963553615
 21
562.65870154816605
 31
0.0
  0
ARC
  5
19106
  8
AM_0
 10
102.77883635536161
 20
563.65868154816621
 30
0.0
 40
1.000035999999999
 50
89.500709999998364
 51
270.49928399999988
  0
ARC
  5
19107
  8
AM_0
 10
101.5575163553616
 20
563.66868154816598
 30
0.0
 40
1.3300000000000001
 50
90.0
 51
269.99999700000228
  0
ARC
  5
19108
  8
AM_0
 10
119.2275063553616
 20
563.65868154816621
 30
0.0
 40
1.0000040999999991
 50
90.0
 51
269.99999700000228
  0
ARC
  5
19109
  8
AM_0
 10
101.4975263553616
 20
553.65870154816616
 30
0.0
 40
1.270003999999999
 50
90.0
 51
269.99999700000228
  0
ARC
  5
1910A
  8
AM_0
 10
102.77883635536161
 20
553.65870154816616
 30
0.0
 40
1.000035999999999
 50
89.500709999998364
 51
270.49928399999988
  0
ARC
  5
1910B
  8
AM_0
 10
102.77883635536161
 20
543.65870154816605
 30
0.0
 40
1.000035999999999
 50
89.500709999998364
 51
270.49928399999988
  0
ARC
  5
1910C
  8
AM_0
 10
101.4975263553616
 20
543.65371154816614
 30
0.0
 40
1.265004
 50
90.0
 51
269.99999700000228
  0
ARC
  5
1910D
  8
AM_0
 10
119.2275063553616
 20
553.65870154816616
 30
0.0
 40
1.0000040999999991
 50
90.0
 51
269.99999700000228
  0
ARC
  5
1910E
  8
AM_0
 10
119.2275063553616
 20
543.65870154816605
 30
0.0
 40
1.0000040999999991
 50
90.0
 51
269.99999700000228
  0
ARC
  5
1910F
  8
AM_0
 10
106.3924163553615
 20
507.06092154816611
 30
0.0
 40
5.0078917000000001
 50
5.4746799999993279
 51
80.401279999998295
  0
LINE
  5
19110
  8
AM_0
 10
107.2275063553616
 20
500.30871154816612
 30
0.0
 11
107.2275063553616
 21
514.34870154816622
 31
0.0
  0
LINE
  5
19111
  8
AM_0
 10
101.5575163553616
 20
534.97869154816624
 30
0.0
 11
241.39251635536161
 21
534.97869154816624
 31
0.0
  0
LINE
  5
19112
  8
AM_0
 10
101.5575163553616
 20
532.31870154816613
 30
0.0
 11
241.3925164250002
 21
532.31869154816604
 31
0.0
  0
LINE
  5
19113
  8
AM_0
 10
110.6875263553615
 20
525.09869154816624
 30
0.0
 11
241.25751635536159
 21
525.09869154816624
 31
0.0
  0
LINE
  5
19114
  8
AM_0
 10
110.6875263553615
 20
522.16871154816613
 30
0.0
 11
241.2575164320688
 21
522.16869154816618
 31
0.0
  0
LINE
  5
19115
  8
AM_0
 10
240.16248189752051
 20
534.65867957792454
 30
0.0
 11
102.7874963553615
 21
534.65870154816605
 31
0.0
  0
LINE
  5
19116
  8
AM_0
 10
240.1624820022401
 20
532.65868351749532
 30
0.0
 11
102.7874963553615
 21
532.65870154816616
 31
0.0
  0
LINE
  5
19117
  8
AM_0
 10
240.1674863553616
 20
524.65870564816623
 30
0.0
 11
111.7775563553616
 21
524.65868154816621
 31
0.0
  0
LINE
  5
19118
  8
AM_0
 10
240.16748640772161
 20
522.65869744816587
 30
0.0
 11
111.7775563553616
 21
522.65870154816605
 31
0.0
  0
LINE
  5
19119
  8
AM_0
 10
237.57751735523931
 20
514.65869990243414
 30
0.0
 11
111.7775563553616
 21
514.65870154816605
 31
0.0
  0
ARC
  5
1911A
  8
AM_0
 10
101.5575163553616
 20
533.64869154816597
 30
0.0
 40
1.3300000000000001
 50
90.0
 51
269.99999700000228
  0
ARC
  5
1911B
  8
AM_0
 10
102.77883635536161
 20
533.65868154816621
 30
0.0
 40
1.000035999999999
 50
89.500709999998364
 51
270.49928399999988
  0
ARC
  5
1911C
  8
AM_0
 10
119.2275063553616
 20
533.65868154816621
 30
0.0
 40
1.0000040999999991
 50
90.0
 51
269.99999700000228
  0
LINE
  5
1911D
  8
AM_0
 10
97.227506355361584
 20
514.34870154816622
 30
0.0
 11
107.2275063553616
 21
514.34870154816622
 31
0.0
  0
ARC
  5
1911E
  8
AM_0
 10
111.7775563553616
 20
523.65870154816605
 30
0.0
 40
1.0000040999999991
 50
90.0
 51
269.99999700000228
  0
ARC
  5
1911F
  8
AM_0
 10
110.6875263553615
 20
523.63369154816621
 30
0.0
 40
1.4650000000000001
 50
90.0
 51
269.99999700000228
  0
ARC
  5
19120
  8
AM_0
 10
119.2275063553616
 20
523.65870154816605
 30
0.0
 40
1.0000040999999991
 50
90.0
 51
269.99999700000228
  0
ARC
  5
19121
  8
AM_0
 10
111.7775563553616
 20
513.65870154816605
 30
0.0
 40
1.0000040999999991
 50
90.0
 51
269.99999700000228
  0
ARC
  5
19122
  8
AM_0
 10
110.9074963553615
 20
513.61370154816609
 30
0.0
 40
1.6750081000000001
 50
90.0
 51
269.99999700000228
  0
ARC
  5
19123
  8
AM_0
 10
119.2275063553616
 20
513.65870154816605
 30
0.0
 40
1.0000040999999991
 50
90.0
 51
269.99999700000228
  0
LINE
  5
19124
  8
AM_0
 10
142.22750635536161
 20
502.308711548166
 30
0.0
 11
107.2275063553616
 21
504.3387115481662
 31
0.0
  0
ARC
  5
19125
  8
AM_0
 10
120.2300063553616
 20
484.73354154816599
 30
0.0
 40
1.994844099999999
 50
194.36279999999951
 51
269.92834200000209
  0
ARC
  5
19126
  8
AM_0
 10
120.22206635536151
 20
485.41326154816608
 30
0.0
 40
1.9945760999999991
 50
179.84400999999721
 51
270.15599200000003
  0
ARC
  5
19127
  8
AM_0
 10
120.22475635536161
 20
486.76591154816617
 30
0.0
 40
1.9972080000000001
 50
179.91986000000111
 51
270.08014299999962
  0
ARC
  5
19128
  8
AM_0
 10
120.22390635536151
 20
488.79508154816608
 30
0.0
 40
1.996383999999999
 50
179.89615999999739
 51
270.103837
  0
ARC
  5
19129
  8
AM_0
 10
116.7218263553616
 20
494.17303154816608
 30
0.0
 40
1.505676
 50
0.2155299999989793
 51
89.784480000001125
  0
ARC
  5
1912A
  8
AM_0
 10
103.44936635536151
 20
497.67213154816608
 30
0.0
 40
1.993431999999999
 50
190.21196999999981
 51
270.23411600000071
  0
LINE
  5
1912B
  8
AM_0
 10
101.44753635536161
 20
491.96870154816622
 30
0.0
 11
100.48751635536151
 21
496.43870154816608
 31
0.0
  0
LINE
  5
1912C
  8
AM_0
 10
97.227506355361584
 20
500.30871154816612
 30
0.0
 11
107.2275063553616
 21
500.30871154816612
 31
0.0
  0
LINE
  5
1912D
  8
AM_0
 10
97.227506355361584
 20
505.96870154816622
 30
0.0
 11
107.2275063553616
 21
505.96870154816622
 31
0.0
  0
LINE
  5
1912E
  8
AM_0
 10
99.017476355361637
 20
497.61871154816612
 30
0.0
 11
101.4375263553615
 21
497.61871154816612
 31
0.0
  0
ARC
  5
1912F
  8
AM_0
 10
99.018706355361616
 20
496.11456154816619
 30
0.0
 40
1.50414
 50
12.44475000000339
 51
90.045750000001433
  0
LINE
  5
19130
  8
AM_0
 10
100.94753635536161
 20
500.308691548166
 30
0.0
 11
101.4875763553616
 21
497.3186915481661
 31
0.0
  0
ARC
  5
19131
  8
AM_0
 10
110.3774063553616
 20
507.44854154816608
 30
0.0
 40
1.004135999999999
 50
314.20256399999943
 51
5.151160000004384
  0
ARC
  5
19132
  8
AM_0
 10
106.8487163553616
 20
510.9906415481662
 30
0.0
 40
6.0039081999999979
 50
273.61728599999782
 51
314.77630699999952
  0
LINE
  5
19133
  8
AM_0
 10
103.33748635536161
 20
485.35870154816621
 30
0.0
 11
116.83748635536161
 21
485.35870154816621
 31
0.0
  0
LINE
  5
19134
  8
AM_0
 10
103.3675163553615
 20
486.9887015481662
 30
0.0
 11
116.7275063553615
 21
486.9887015481662
 31
0.0
  0
LINE
  5
19135
  8
AM_0
 10
103.3975463553615
 20
490.38869154816621
 30
0.0
 11
116.7275063553615
 21
490.38869154816621
 31
0.0
  0
LINE
  5
19136
  8
AM_0
 10
103.4574863553615
 20
495.67870154816609
 30
0.0
 11
116.7275063553615
 21
495.67870154816609
 31
0.0
  0
LINE
  5
19137
  8
AM_0
 10
101.39748635536159
 20
486.86868154816619
 30
0.0
 11
100.51747635536159
 21
490.39867154816619
 31
0.0
  0
ARC
  5
19138
  8
AM_0
 10
103.3603163553616
 20
488.98415154816621
 30
0.0
 40
1.9954841000000001
 50
193.19407999999851
 51
270.20654200000092
  0
LINE
  5
19139
  8
AM_0
 10
99.057516355361614
 20
491.53869154816601
 30
0.0
 11
100.7075463553616
 21
491.53869154816601
 31
0.0
  0
LINE
  5
1913A
  8
AM_0
 10
97.227446355361636
 20
491.22869154816613
 30
0.0
 11
100.04750635536161
 21
491.15870154816622
 31
0.0
  0
ARC
  5
1913B
  8
AM_0
 10
99.055806355361611
 20
490.0315915481662
 30
0.0
 40
1.5070961
 50
14.09782000000339
 51
89.935179999998283
  0
LINE
  5
1913C
  8
AM_0
 10
99.037496355361554
 20
493.55871154816612
 30
0.0
 11
101.0974963553616
 21
493.55871154816612
 31
0.0
  0
ARC
  5
1913D
  8
AM_0
 10
99.036706355361645
 20
492.05589154816607
 30
0.0
 40
1.5028081
 50
13.577820000002429
 51
89.969209999998441
  0
ARC
  5
1913E
  8
AM_0
 10
103.3991963553616
 20
492.38409154816623
 30
0.0
 40
1.9953879999999991
 50
192.01538000000019
 51
269.9519330000021
  0
LINE
  5
1913F
  8
AM_0
 10
101.4175063553616
 20
488.52869154816608
 30
0.0
 11
100.4974663553615
 21
492.40868154816621
 31
0.0
  0
ARC
  5
19140
  8
AM_0
 10
103.33480635536159
 20
487.3564715481661
 30
0.0
 40
1.9977800999999991
 50
194.13223000000309
 51
270.07691900000231
  0
LINE
  5
19141
  8
AM_0
 10
118.2275063553616
 20
486.76870154816618
 30
0.0
 11
118.2275063553616
 21
494.17870154816609
 31
0.0
  0
ARC
  5
19142
  8
AM_0
 10
116.7257363553616
 20
488.8869115481661
 30
0.0
 40
1.5017959999999979
 50
0.0685499999989572
 51
89.931450000001036
  0
ARC
  5
19143
  8
AM_0
 10
116.8411463553616
 20
483.85180154816601
 30
0.0
 40
1.506888
 50
14.876930000005091
 51
90.137770000000501
  0
ARC
  5
19144
  8
AM_0
 10
116.7236563553616
 20
485.48486154816612
 30
0.0
 40
1.503848099999999
 50
0.1464000000030106
 51
89.853599999996987
  0
LINE
  5
19145
  8
AM_0
 10
244.22750635536161
 20
485.65868654816569
 30
0.0
 11
244.22750637155431
 21
611.65865552400066
 31
0.0
  0
LINE
  5
19146
  8
ﾁｭｳｼﾝｾﾝ1
 10
193.22750635536161
 20
509.65868154816621
 30
0.0
 11
193.22750635536161
 21
587.65868154816633
 31
0.0
1001
GENIUS_GENODEF_13
1002
{
1000
HIER
1070
     0
1002
}
1002
{
1000
MANEDIT
1070
     0
1002
}
1002
{
1000
NOSEL
1070
     0
1002
}
1002
{
1000
BEHIND
1070
     0
1002
}
1002
{
1000
REACTOR
1002
}
1001
GENIUS_GENOBJ-N-CEN_13
1002
{
1000
OWNER
1000
GEN
1002
}
  0
LINE
  5
1914D
  8
AM_0
 10
241.03752635536159
 20
607.57870654816622
 30
0.0
 11
242.47753635536159
 21
600.87870954816606
 31
0.0
  0
LINE
  5
1914E
  8
AM_0
 10
238.96752635536171
 20
609.03870554816615
 30
0.0
 11
242.4275163553616
 21
596.11869954816621
 31
0.0
  0
ARC
  5
1914F
  8
AM_0
 10
173.22664635536159
 20
612.56782654816629
 30
0.0
 40
2.0008759
 50
0.025110000002395
 51
89.9748899999976
  0
ARC
  5
19150
  8
AM_0
 10
173.22518635536159
 20
611.8963565481663
 30
0.0
 40
2.002332
 50
0.066740000001314
 51
89.933259999998697
  0
ARC
  5
19151
  8
AM_0
 10
173.22249635536161
 20
610.5436875481663
 30
0.0
 40
2.0050240000000001
 50
0.1434100000013043
 51
89.856589999998704
  0
LINE
  5
19152
  8
AM_0
 10
175.22750635536161
 20
612.56869654816614
 30
0.0
 11
175.22750635536161
 21
610.51869354816597
 31
0.0
  0
LINE
  5
19153
  8
AM_0
 10
238.9374963553617
 20
609.15870054816605
 30
0.0
 11
244.22750635536161
 21
609.15870054816605
 31
0.0
  0
ARC
  5
19154
  8
AM_0
 10
237.03292635536161
 20
608.51428354816608
 30
0.0
 40
2.0044159999999991
 50
15.16665999999929
 51
89.868520000001183
  0
ARC
  5
19155
  8
AM_0
 10
239.07683635536159
 20
607.15216254816596
 30
0.0
 40
2.0065319999999991
 50
12.27313000000423
 51
89.980730000003206
  0
LINE
  5
19156
  8
AM_0
 10
245.22750635536161
 20
612.65866654816602
 30
0.0
 11
252.22753635536159
 21
612.65866654816602
 31
0.0
  0
ARC
  5
19157
  8
AM_0
 10
245.22768635536161
 20
611.65847554816594
 30
0.0
 40
1.000179999999999
 50
90.010320000000135
 51
179.98968999999451
  0
LINE
  5
19158
  8
AM_0
 10
101.9074963553615
 20
585.37870154816596
 30
0.0
 11
241.04750635536161
 21
585.37870154816596
 31
0.0
  0
LINE
  5
19159
  8
AM_0
 10
243.9375263553616
 20
599.68869154816605
 30
0.0
 11
241.5275263553616
 21
599.68869154816605
 31
0.0
  0
ARC
  5
1915A
  8
AM_0
 10
243.8728263553617
 20
596.50469354816607
 30
0.0
 40
1.495995999999999
 50
194.95233999999479
 51
270.17829300000022
  0
LINE
  5
1915B
  8
AM_0
 10
245.22750635536161
 20
600.69870154816624
 30
0.0
 11
252.22753635536159
 21
600.69870154816624
 31
0.0
  0
ARC
  5
1915C
  8
AM_0
 10
245.22698635536159
 20
599.69922054816595
 30
0.0
 40
0.9994760199999999
 50
89.970079999999669
 51
180.0299099999979
  0
ARC
  5
1915D
  8
AM_0
 10
243.93459635536161
 20
601.18802754816613
 30
0.0
 40
1.499328
 50
191.90615999999929
 51
270.11184899999989
  0
ARC
  5
1915E
  8
AM_0
 10
241.04750635536161
 20
583.70370154816612
 30
0.0
 40
1.675
 50
269.99999700000228
 51
90.0
  0
LINE
  5
1915F
  8
AM_0
 10
241.04750635536161
 20
582.02869154816631
 30
0.0
 11
101.9074963553615
 21
582.02869154816631
 31
0.0
  0
ARC
  5
19160
  8
AM_0
 10
237.5693263553616
 20
583.65870154816605
 30
0.0
 40
1.000031899999998
 50
270.46929999999787
 51
89.530700000002156
  0
LINE
  5
19161
  8
AM_0
 10
244.22750635536161
 20
585.80870154816614
 30
0.0
 11
252.22753635536159
 21
585.80870154816614
 31
0.0
  0
ARC
  5
19165
  8
AM_0
 10
173.22689635536159
 20
484.73931154816609
 30
0.0
 40
2.000623899999999
 50
270.01782400000212
 51
359.9821759990013
  0
ARC
  5
19166
  8
AM_0
 10
173.23043635536149
 20
485.41578154816619
 30
0.0
 40
1.9970881
 50
269.91637499999922
 51
0.0836200000014677
  0
ARC
  5
19167
  8
AM_0
 10
173.22774635536149
 20
486.76843154816601
 30
0.0
 40
1.9997199999999991
 50
269.99193799999972
 51
0.0080600000040016
  0
LINE
  5
19168
  8
AM_0
 10
175.22750635536161
 20
484.7387015481662
 30
0.0
 11
175.22750635536161
 21
486.79870154816609
 31
0.0
  0
ARC
  5
19169
  8
AM_0
 10
241.04750635536161
 20
513.61370154816609
 30
0.0
 40
1.675
 50
269.99999700000228
 51
90.0
  0
LINE
  5
1916A
  8
AM_0
 10
241.04750635536161
 20
515.28870154816605
 30
0.0
 11
110.9074963553615
 21
515.28870154816605
 31
0.0
  0
ARC
  5
1916B
  8
AM_0
 10
237.5693263553616
 20
513.65870154816605
 30
0.0
 40
1.000031899999998
 50
270.46929999999787
 51
89.530700000002156
  0
LINE
  5
1916C
  8
AM_0
 10
244.22750635536161
 20
511.50869154816598
 30
0.0
 11
252.22753635536159
 21
511.50869154816598
 31
0.0
  0
LINE
  5
1916D
  8
AM_0
 10
238.96752635536171
 20
488.27869154816619
 30
0.0
 11
242.4275163553616
 21
501.1987115481661
 31
0.0
  0
LINE
  5
1916E
  8
AM_0
 10
241.0374963553617
 20
489.73866154816619
 30
0.0
 11
242.47750635536161
 21
496.43865154816609
 31
0.0
  0
LINE
  5
1916F
  8
AM_0
 10
243.9375263553616
 20
497.61871154816612
 30
0.0
 11
241.5275263553616
 21
497.61871154816612
 31
0.0
  0
LINE
  5
19170
  8
AM_0
 10
245.22750635536161
 20
496.61869154816623
 30
0.0
 11
252.22753635536159
 21
496.61869154816623
 31
0.0
  0
ARC
  5
19171
  8
AM_0
 10
243.8777763553617
 20
500.80630154816618
 30
0.0
 40
1.502391899999999
 50
90.009360000000058
 51
164.8599899999985
  0
ARC
  5
19172
  8
AM_0
 10
245.2219163553616
 20
497.61308154816618
 30
0.0
 40
0.9944000200000001
 50
179.6764900000021
 51
270.323509
  0
ARC
  5
19173
  8
AM_0
 10
243.93334635536169
 20
496.11822154816599
 30
0.0
 40
1.500475999999999
 50
89.841720000000251
 51
167.6677700000013
  0
LINE
  5
19174
  8
AM_0
 10
238.9374963553617
 20
488.15870154816599
 30
0.0
 11
244.22750635536161
 21
488.15870154816599
 31
0.0
  0
ARC
  5
19175
  8
AM_0
 10
239.0819663553616
 20
490.15887154816608
 30
0.0
 40
2.0001799999999981
 50
269.87248500000197
 51
347.87364800000222
  0
ARC
  5
19176
  8
AM_0
 10
237.03795635536159
 20
488.79650154816608
 30
0.0
 40
1.997795899999999
 50
269.9864190000028
 51
344.97840299999831
  0
LINE
  5
19177
  8
AM_0
 10
245.22750635536161
 20
484.6586865481658
 30
0.0
 11
252.22753635536159
 21
484.6586865481658
 31
0.0
  0
ARC
  5
19178
  8
AM_0
 10
245.2225563553616
 20
485.65372654816582
 30
0.0
 40
0.9950640200000001
 50
179.714940000002
 51
270.28506199999953
  0
ARC
  5
19179
  8
AM_0
 10
241.25751635536159
 20
523.63369154816621
 30
0.0
 40
1.4650000000000001
 50
270.00000299999761
 51
90.0
  0
ARC
  5
1917A
  8
AM_0
 10
240.1674863553616
 20
523.65870154816605
 30
0.0
 40
1.0000040999999991
 50
270.00000299999761
 51
90.0
  0
ARC
  5
1917B
  8
AM_0
 10
240.1711963553617
 20
533.65868154816621
 30
0.0
 40
1.000035999999999
 50
269.50071600000012
 51
90.499290000001622
  0
ARC
  5
1917C
  8
AM_0
 10
241.39251635536161
 20
533.64869154816597
 30
0.0
 40
1.3300000000000001
 50
270.00000299999761
 51
90.0
  0
ARC
  5
1917D
  8
AM_0
 10
241.45250635536161
 20
543.65371154816614
 30
0.0
 40
1.265004
 50
270.00000299999761
 51
90.0
  0
ARC
  5
1917E
  8
AM_0
 10
240.1711963553617
 20
543.65870154816605
 30
0.0
 40
1.000035999999999
 50
269.50071600000012
 51
90.499290000001622
  0
ARC
  5
1917F
  8
AM_0
 10
240.1711963553617
 20
553.65870154816616
 30
0.0
 40
1.000035999999999
 50
269.50071600000012
 51
90.499290000001622
  0
ARC
  5
19180
  8
AM_0
 10
241.45250635536161
 20
553.65870154816616
 30
0.0
 40
1.270003999999999
 50
270.00000299999761
 51
90.0
  0
ARC
  5
19181
  8
AM_0
 10
241.39251635536161
 20
563.66868154816598
 30
0.0
 40
1.3300000000000001
 50
270.00000299999761
 51
90.0
  0
ARC
  5
19182
  8
AM_0
 10
240.1711963553617
 20
563.65868154816621
 30
0.0
 40
1.000035999999999
 50
269.50071600000012
 51
90.499290000001622
  0
ARC
  5
19183
  8
AM_0
 10
240.1724763553616
 20
573.65869154816608
 30
0.0
 40
1.0000040999999991
 50
270.00000299999761
 51
90.0
  0
ARC
  5
19184
  8
AM_0
 10
241.26250635536169
 20
573.67870154816615
 30
0.0
 40
1.4599999999999991
 50
270.00000299999761
 51
90.0
  0
LINE
  5
19185
  8
ｶｸﾚｾﾝ2
 10
145.7275063553615
 20
584.65865823346917
 30
0.0
 11
229.22750635536161
 21
584.65865823346917
 31
0.0
  0
LINE
  5
19186
  8
ｶｸﾚｾﾝ2
 10
229.22750635536161
 20
512.65865823346928
 30
0.0
 11
145.7275063553615
 21
512.65865823346928
 31
0.0
  0
ARC
  5
19187
  8
ｶｸﾚｾﾝ2
 10
145.7275063553615
 20
516.1586582334694
 30
0.0
 40
3.5
 50
180.0
 51
270.0
  0
ARC
  5
19188
  8
ｶｸﾚｾﾝ2
 10
145.7275063553615
 20
581.15865823346951
 30
0.0
 40
3.5
 50
90.0
 51
180.0
  0
LINE
  5
19189
  8
ｶｸﾚｾﾝ2
 10
142.22750635536161
 20
516.1586582334694
 30
0.0
 11
142.22750635536261
 21
581.15865823346951
 31
0.0
  0
ARC
  5
1918A
  8
ｶｸﾚｾﾝ2
 10
228.72750635536161
 20
526.15865823346917
 30
0.0
 40
2.0
 50
180.0
 51
270.0
  0
ARC
  5
1918B
  8
ｶｸﾚｾﾝ2
 10
229.22750635536161
 20
514.65865823346951
 30
0.0
 40
2.0
 50
270.0
 51
0.0
  0
LINE
  5
1918C
  8
ｶｸﾚｾﾝ2
 10
229.22750635536161
 20
524.1586582334694
 30
0.0
 11
228.72750635536161
 21
524.1586582334694
 31
0.0
  0
ARC
  5
1918D
  8
ｶｸﾚｾﾝ2
 10
229.22750635536161
 20
522.15865823346917
 30
0.0
 40
2.0
 50
0.0
 51
90.0
  0
LINE
  5
1918E
  8
ｶｸﾚｾﾝ2
 10
231.22750635536161
 20
514.65865823346951
 30
0.0
 11
231.22750635536161
 21
522.15865823346917
 31
0.0
  0
ARC
  5
1918F
  8
ｶｸﾚｾﾝ2
 10
228.72750635536161
 20
571.15865823346951
 30
0.0
 40
2.0
 50
90.0
 51
180.0
  0
LINE
  5
19190
  8
ｶｸﾚｾﾝ2
 10
226.72750635536161
 20
571.15865823346951
 30
0.0
 11
226.72750635536161
 21
526.15865823346917
 31
0.0
  0
LINE
  5
19191
  8
ｶｸﾚｾﾝ2
 10
213.7777588870556
 20
584.65865823346917
 30
0.0
 11
215.22750635536161
 21
584.65865823346917
 31
0.0
  0
LINE
  5
19192
  8
ｶｸﾚｾﾝ2
 10
213.7777588870556
 20
584.65865823346917
 30
0.0
 11
215.22750635536161
 21
584.65865823346917
 31
0.0
  0
ARC
  5
19193
  8
ｶｸﾚｾﾝ2
 10
229.22750635536161
 20
575.15865823346928
 30
0.0
 40
2.0
 50
270.0
 51
0.0
  0
LINE
  5
19194
  8
ｶｸﾚｾﾝ2
 10
228.72750635536161
 20
573.15865823346951
 30
0.0
 11
229.22750635536161
 21
573.15865823346951
 31
0.0
  0
ARC
  5
19195
  8
ｶｸﾚｾﾝ2
 10
229.22750635536161
 20
582.6586582334694
 30
0.0
 40
2.0
 50
0.0
 51
90.0
  0
LINE
  5
19196
  8
ｶｸﾚｾﾝ2
 10
231.22750635536161
 20
575.15865823346928
 30
0.0
 11
231.22750635536161
 21
582.6586582334694
 31
0.0
  0
LINE
  5
19197
  8
ｶｸﾚｾﾝ2
 10
231.22750635536161
 20
575.15865823346928
 30
0.0
 11
231.22750635536161
 21
582.6586582334694
 31
0.0
  0
LINE
  5
19198
  8
AM_0
 10
138.22759635536161
 20
309.8168164496069
 30
0.0
 11
107.22753635536129
 21
307.78681644960699
 31
0.0
  0
LINE
  5
19199
  8
AM_0
 10
120.22753635536149
 20
199.57682644960681
 30
0.0
 11
161.55395635536141
 21
199.57682644960681
 31
0.0
  0
LINE
  5
1919A
  8
AM_0
 10
138.22759635536161
 20
217.11692644960701
 30
0.0
 11
107.2275963553613
 21
219.14692644960701
 31
0.0
  0
LINE
  5
1919B
  8
AM_0
 10
205.22753635536131
 20
289.46684644960698
 30
0.0
 11
111.7775263553615
 21
289.46684644960698
 31
0.0
  0
LINE
  5
1919C
  8
AM_0
 10
205.22753635536131
 20
297.46684644960698
 30
0.0
 11
111.7775263553615
 21
297.46684644960698
 31
0.0
  0
LINE
  5
1919D
  8
AM_0
 10
205.22753635536131
 20
237.466846449607
 30
0.0
 11
111.7631863553613
 21
237.466846449607
 31
0.0
  0
LINE
  5
1919E
  8
AM_0
 10
101.4975563553612
 20
257.19682644960699
 30
0.0
 11
173.96264635536161
 21
257.19682644960699
 31
0.0
  0
LINE
  5
1919F
  8
AM_0
 10
110.6875563553612
 20
239.9067864496071
 30
0.0
 11
241.26177635536121
 21
239.9067864496071
 31
0.0
  0
LINE
  5
191A0
  8
AM_0
 10
237.56036635536131
 20
239.466846449607
 30
0.0
 11
111.7631863553613
 21
239.466846449607
 31
0.0
  0
LINE
  5
191A1
  8
AM_0
 10
101.5575563553614
 20
247.12687644960701
 30
0.0
 11
173.8988063553613
 21
247.12687644960701
 31
0.0
  0
LINE
  5
191A2
  8
AM_0
 10
172.66961635536131
 20
247.466846449607
 30
0.0
 11
102.7775263553615
 21
247.466846449607
 31
0.0
  0
LINE
  5
191A3
  8
AM_0
 10
101.5575563553614
 20
249.78678644960709
 30
0.0
 11
173.8988063553613
 21
249.78678644960709
 31
0.0
  0
LINE
  5
191A4
  8
AM_0
 10
172.66961635536131
 20
259.46684644960698
 30
0.0
 11
102.7775263553615
 21
259.46684644960698
 31
0.0
  0
LINE
  5
191A5
  8
AM_0
 10
172.66961635536131
 20
257.46684644960698
 30
0.0
 11
102.7775263553615
 21
257.46684644960698
 31
0.0
  0
LINE
  5
191A6
  8
AM_0
 10
101.4975563553612
 20
259.73686644960691
 30
0.0
 11
173.96264635536161
 21
259.73686644960691
 31
0.0
  0
LINE
  5
191A7
  8
AM_0
 10
101.4975563553612
 20
267.20683644960701
 30
0.0
 11
173.96264635536161
 21
267.20683644960701
 31
0.0
  0
LINE
  5
191A8
  8
AM_0
 10
101.4975563553612
 20
269.74687644960699
 30
0.0
 11
173.96264635536161
 21
269.74687644960699
 31
0.0
  0
LINE
  5
191A9
  8
AM_0
 10
101.5575563553614
 20
277.14689644960691
 30
0.0
 11
173.88622635536149
 21
277.14689644960691
 31
0.0
  0
LINE
  5
191AA
  8
AM_0
 10
101.5575563553614
 20
279.81681644960707
 30
0.0
 11
173.8988063553613
 21
279.81681644960707
 31
0.0
  0
LINE
  5
191AB
  8
AM_0
 10
110.6875563553612
 20
287.03678644960712
 30
0.0
 11
241.26177635536121
 21
287.03678644960712
 31
0.0
  0
LINE
  5
191AC
  8
AM_0
 10
110.6875563553612
 20
289.95683644960701
 30
0.0
 11
205.22753635536131
 21
289.95683644960701
 31
0.0
  0
LINE
  5
191AD
  8
AM_0
 10
110.8975163553614
 20
296.83683644960701
 30
0.0
 11
205.24755635536141
 21
296.83683644960701
 31
0.0
  0
LINE
  5
191AE
  8
AM_0
 10
110.8975163553614
 20
300.1968264496071
 30
0.0
 11
241.04754635536119
 21
300.1968264496071
 31
0.0
  0
LINE
  5
191AF
  8
AM_0
 10
205.22753635536131
 20
229.466846449607
 30
0.0
 11
111.7631863553613
 21
229.466846449607
 31
0.0
  0
LINE
  5
191B0
  8
AM_0
 10
110.6875563553612
 20
236.98686644960691
 30
0.0
 11
205.22753635536131
 21
236.98686644960691
 31
0.0
  0
LINE
  5
191B1
  8
AM_0
 10
172.66961635536131
 20
267.46684644960698
 30
0.0
 11
102.7775263553615
 21
267.46684644960698
 31
0.0
  0
LINE
  5
191B2
  8
AM_0
 10
172.66961635536131
 20
269.46684644960709
 30
0.0
 11
102.7775263553615
 21
269.46684644960709
 31
0.0
  0
LINE
  5
191B3
  8
AM_0
 10
172.66625635536141
 20
277.46684644960698
 30
0.0
 11
102.7775263553615
 21
277.46684644960698
 31
0.0
  0
LINE
  5
191B4
  8
AM_0
 10
172.66625635536141
 20
279.46684644960698
 30
0.0
 11
102.7775263553615
 21
279.46684644960698
 31
0.0
  0
LINE
  5
191B5
  8
AM_0
 10
237.56036635536131
 20
287.46684644960698
 30
0.0
 11
111.7775263553615
 21
287.46684644960698
 31
0.0
  0
LINE
  5
191B6
  8
AM_0
 10
237.56756635536141
 20
299.46684644960698
 30
0.0
 11
111.7775263553615
 21
299.46684644960698
 31
0.0
  0
LINE
  5
191B7
  8
AM_0
 10
120.22753635536149
 20
327.35685644960699
 30
0.0
 11
238.74749635536139
 21
327.35685644960699
 31
0.0
  0
LINE
  5
191B8
  8
AM_0
 10
120.22753635536149
 20
328.71684644960692
 30
0.0
 11
238.45519635536129
 21
328.71684644960692
 31
0.0
  0
LINE
  5
191B9
  8
AM_0
 10
120.22753635536149
 20
329.386886449607
 30
0.0
 11
238.31121635536121
 21
329.386886449607
 31
0.0
  0
LINE
  5
191BA
  8
AM_0
 10
120.22753635536149
 20
325.32682644960698
 30
0.0
 11
237.0375363553612
 21
325.32682644960698
 31
0.0
  0
LINE
  5
191BB
  8
AM_0
 10
172.66961635536131
 20
249.466846449607
 30
0.0
 11
102.7775263553615
 21
249.466846449607
 31
0.0
  0
LINE
  5
191BC
  8
AM_0
 10
120.22753635536149
 20
201.60685644960699
 30
0.0
 11
237.0375363553612
 21
201.60685644960699
 31
0.0
  0
LINE
  5
191BD
  8
AM_0
 10
110.8975163553614
 20
226.74687644960699
 30
0.0
 11
193.22753635536131
 21
226.74687644960699
 31
0.0
  0
LINE
  5
191BE
  8
AM_0
 10
193.22753635536131
 20
227.466846449607
 30
0.0
 11
111.7631863553613
 21
227.466846449607
 31
0.0
  0
LINE
  5
191BF
  8
AM_0
 10
110.8975163553614
 20
230.10685644960711
 30
0.0
 11
205.24755635536141
 21
230.10685644960711
 31
0.0
  0
LINE
  5
191C0
  8
AM_0
 10
46.726106255361387
 20
298.20530754531421
 30
0.0
 11
46.726106255361387
 21
228.7283853538996
 31
0.0
  0
LINE
  5
191C1
  8
AM_0
 10
47.227536355361487
 20
228.9377864496069
 30
0.0
 11
47.227536355361487
 21
297.99589644960707
 31
0.0
  0
LINE
  5
191C2
  8
AM_0
 10
92.227536355361494
 20
226.2817864496069
 30
0.0
 11
92.227536355361494
 21
300.65287644960682
 31
0.0
  0
LINE
  5
191C3
  8
AM_0
 10
49.727536355361501
 20
210.684856449607
 30
0.0
 11
49.727536355361501
 21
316.21684644960681
 31
0.0
  0
LINE
  5
191C4
  8
AM_0
 10
41.726106255361387
 20
319.46684644960709
 30
0.0
 11
41.726106255361387
 21
207.466846449607
 31
0.0
  0
LINE
  5
191C5
  8
AM_0
 10
97.227536355361494
 20
204.71684644960689
 30
0.0
 11
97.227536355361494
 21
263.46684644960698
 31
0.0
  0
LINE
  5
191C6
  8
AM_0
 10
49.227536355361501
 20
210.716846449607
 30
0.0
 11
97.227536355361494
 21
210.716846449607
 31
0.0
  0
LINE
  5
191C7
  8
AM_0
 10
49.727536355361501
 20
229.8258564496069
 30
0.0
 11
92.227536355361494
 21
229.8258564496069
 31
0.0
  0
LINE
  5
191C8
  8
AM_0
 10
49.727536355361501
 20
219.5758564496069
 30
0.0
 11
92.227536355361494
 21
219.5758564496069
 31
0.0
  0
LINE
  5
191C9
  8
AM_0
 10
85.227536355361536
 20
203.466846449607
 30
0.0
 11
88.227536355361494
 21
203.466846449607
 31
0.0
  0
LINE
  5
191CA
  8
AM_0
 10
72.227536355361494
 20
204.716846449607
 30
0.0
 11
97.227536355361494
 21
204.716846449607
 31
0.0
  0
LINE
  5
191CB
  8
AM_0
 10
50.726106255361387
 20
198.46684644960689
 30
0.0
 11
88.227536355361494
 21
198.46684644960689
 31
0.0
  0
LINE
  5
191CC
  8
AM_0
 10
45.127566355361289
 20
226.0758564496069
 30
0.0
 11
45.127566355361289
 21
223.0758564496069
 31
0.0
  0
LINE
  5
191CD
  8
AM_0
 10
48.427546355361301
 20
229.175826449607
 30
0.0
 11
48.427546355361301
 21
219.97587644960689
 31
0.0
  0
LINE
  5
191CE
  8
AM_0
 10
51.726106255361387
 20
203.466846449607
 30
0.0
 11
75.227536355361522
 21
203.466846449607
 31
0.0
  0
LINE
  5
191CF
  8
AM_0
 10
46.726106255361387
 20
220.42332754531421
 30
0.0
 11
46.726106255361387
 21
208.466846449607
 31
0.0
  0
ARC
  5
191D0
  8
AM_0
 10
51.726106255361387
 20
208.466846449607
 30
0.0
 40
5.0
 50
179.99997999999789
 51
269.99995000000149
  0
ARC
  5
191D1
  8
AM_0
 10
50.726106255361387
 20
207.466846449607
 30
0.0
 40
9.0
 50
179.99997999999789
 51
269.99995000000149
  0
LINE
  5
191D2
  8
AM_0
 10
47.227536355361487
 20
220.21391644960701
 30
0.0
 11
47.227536355361487
 21
212.716846449607
 31
0.0
  0
ARC
  5
191D3
  8
AM_0
 10
49.227536355361501
 20
212.716846449607
 30
0.0
 40
2.0
 50
179.99997999999789
 51
269.99995000000149
  0
ARC
  5
191D4
  8
AM_0
 10
48.127566355361282
 20
223.0758564496069
 30
0.0
 40
3.0
 50
179.99997999999789
 51
269.99995000000149
  0
LINE
  5
191D5
  8
AM_0
 10
48.127566355361282
 20
220.0758564496069
 30
0.0
 11
48.427546355361301
 21
220.0758564496069
 31
0.0
  0
LINE
  5
191D6
  8
AM_0
 10
48.427546355361301
 20
219.97587644960689
 30
0.0
 11
49.727536355361501
 21
219.97587644960689
 31
0.0
  0
LINE
  5
191D7
  8
AM_0
 10
72.227536355361494
 20
204.716846449607
 30
0.0
 11
72.227536355361494
 21
210.716846449607
 31
0.0
  0
LINE
  5
191D8
  8
AM_0
 10
85.227536355361536
 20
204.716846449607
 30
0.0
 11
85.227536355361536
 21
198.46684644960689
 31
0.0
  0
LINE
  5
191D9
  8
AM_0
 10
75.227536355361522
 20
204.716846449607
 30
0.0
 11
75.227536355361522
 21
198.46684644960689
 31
0.0
  0
ARC
  5
191DA
  8
AM_0
 10
48.127566355361282
 20
226.0758564496069
 30
0.0
 40
3.0
 50
89.999988999997555
 51
179.99997999999789
  0
LINE
  5
191DB
  8
AM_0
 10
48.127566355361282
 20
229.0758564496069
 30
0.0
 11
48.427546355361301
 21
229.0758564496069
 31
0.0
  0
LINE
  5
191DC
  8
AM_0
 10
48.427546355361301
 20
229.175826449607
 30
0.0
 11
49.727536355361501
 21
229.175826449607
 31
0.0
  0
LINE
  5
191DD
  8
AM_0
 10
107.22753635536129
 20
215.1168664496069
 30
0.0
 11
107.22753635536129
 21
229.16679644960701
 31
0.0
  0
ARC
  5
191DE
  8
AM_0
 10
106.3903763553612
 20
221.87833644960691
 30
0.0
 40
4.9991421999999961
 50
5.3780268999994201
 51
80.360064999999054
  0
ARC
  5
191DF
  8
AM_0
 10
110.3683463553614
 20
222.25651644960701
 30
0.0
 40
1.0032491999999991
 50
314.98118999999872
 51
5.1676434000008582
  0
LINE
  5
191E0
  8
AM_0
 10
102.92815635536159
 20
201.79679644960689
 30
0.0
 11
116.97027635536141
 21
201.79679644960689
 31
0.0
  0
LINE
  5
191E1
  8
AM_0
 10
110.9873663553612
 20
210.48686644960691
 30
0.0
 11
116.72753635536149
 21
210.48686644960691
 31
0.0
  0
LINE
  5
191E2
  8
AM_0
 10
110.9251663553614
 20
205.20683644960701
 30
0.0
 11
116.72753635536149
 21
205.20683644960701
 31
0.0
  0
LINE
  5
191E3
  8
AM_0
 10
109.1718163553612
 20
206.77689644960691
 30
0.0
 11
108.21185635536111
 21
211.2468764496069
 31
0.0
  0
ARC
  5
191E4
  8
AM_0
 10
99.040766355361285
 20
206.8691864496071
 30
0.0
 40
1.497715799999999
 50
13.42437900000278
 51
90.122644999997888
  0
LINE
  5
191E5
  8
AM_0
 10
99.057556355361385
 20
206.346846449607
 30
0.0
 11
100.70751635536131
 21
206.346846449607
 31
0.0
  0
LINE
  5
191E6
  8
AM_0
 10
97.227536355361494
 20
206.03687644960709
 30
0.0
 11
100.04754635536121
 21
205.97688644960681
 31
0.0
  0
LINE
  5
191E7
  8
AM_0
 10
99.037536355361226
 20
208.3668664496069
 30
0.0
 11
108.83031635536121
 21
208.3668664496069
 31
0.0
  0
ARC
  5
191E8
  8
AM_0
 10
99.055236355361345
 20
204.848556449607
 30
0.0
 40
1.4982997
 50
14.229740000004741
 51
89.910950000001222
  0
LINE
  5
191E9
  8
AM_0
 10
88.227536355361494
 20
203.466846449607
 30
0.0
 11
88.227536355361494
 21
198.46684644960689
 31
0.0
  0
LINE
  5
191EA
  8
AM_0
 10
100.9888863553615
 20
203.30787644960691
 30
0.0
 11
100.5075663553614
 21
205.2169064496068
 31
0.0
  0
ARC
  5
191EB
  8
AM_0
 10
102.92815635536159
 20
203.79679644960689
 30
0.0
 40
2.0
 50
194.15074999999959
 51
269.999989999999
  0
ARC
  5
191EC
  8
AM_0
 10
103.3643763553614
 20
203.79740644960691
 30
0.0
 40
2.0005671999999981
 50
193.30958999999561
 51
269.80430999999942
  0
LINE
  5
191ED
  8
AM_0
 10
101.41753635536131
 20
203.336806449607
 30
0.0
 11
100.4975563553612
 21
207.2168764496069
 31
0.0
  0
ARC
  5
191EE
  8
AM_0
 10
111.12487635536149
 20
207.1938964496068
 30
0.0
 40
1.997119399999999
 50
192.05524000000179
 51
270.1986299999989
  0
LINE
  5
191EF
  8
AM_0
 10
97.227536355361494
 20
220.77689644960691
 30
0.0
 11
107.22753635536129
 21
220.77689644960691
 31
0.0
  0
LINE
  5
191F0
  8
AM_0
 10
97.227536355361494
 20
215.1168664496069
 30
0.0
 11
107.22753635536129
 21
215.1168664496069
 31
0.0
  0
LINE
  5
191F1
  8
AM_0
 10
92.227536355361494
 20
219.5758564496069
 30
0.0
 11
92.227536355361494
 21
210.716846449607
 31
0.0
  0
ARC
  5
191F2
  8
AM_0
 10
106.96069635536099
 20
216.20683644960701
 30
0.0
 40
1.5
 50
10.237378999998841
 51
79.75211000000192
  0
ARC
  5
191F3
  8
AM_0
 10
111.1869463553612
 20
212.4720864496071
 30
0.0
 40
1.9952742999999991
 50
189.96478000000059
 51
269.85141999999991
  0
LINE
  5
191F4
  8
AM_0
 10
106.74181635536129
 20
212.426806449607
 30
0.0
 11
109.16180635536151
 21
212.426806449607
 31
0.0
  0
ARC
  5
191F5
  8
AM_0
 10
106.7443863553612
 20
210.92448644960709
 30
0.0
 40
1.502416299999999
 50
12.391887000000411
 51
90.098617000002335
  0
LINE
  5
191F6
  8
AM_0
 10
108.4367663553612
 20
216.47349644960701
 30
0.0
 11
109.22179635536121
 21
212.12681644960691
 31
0.0
  0
ARC
  5
191F7
  8
AM_0
 10
106.8472263553615
 20
225.81217644960699
 30
0.0
 40
6.0073843
 50
273.62973999999741
 51
314.76384999999613
  0
LINE
  5
191F8
  8
AM_0
 10
118.22753635536149
 20
201.5778064496071
 30
0.0
 11
118.22753635536149
 21
208.98686644960691
 31
0.0
  0
ARC
  5
191F9
  8
AM_0
 10
120.2284563553612
 20
201.5778064496071
 30
0.0
 40
2.0009109999999981
 50
180.00001000000091
 51
269.97390999999652
  0
ARC
  5
191FA
  8
AM_0
 10
116.97027635536141
 20
200.296796449607
 30
0.0
 40
1.5
 50
21.461708999997729
 51
90.00000299999769
  0
ARC
  5
191FB
  8
AM_0
 10
116.7244263553614
 20
203.70365644960691
 30
0.0
 40
1.503128599999999
 50
0.119129649995689
 51
89.880869999998822
  0
ARC
  5
191FC
  8
AM_0
 10
120.2275963553613
 20
203.60685644960699
 30
0.0
 40
2.0000371999999991
 50
180.0010599999959
 51
269.99892999999639
  0
ARC
  5
191FD
  8
AM_0
 10
116.7255863553612
 20
208.984906449607
 30
0.0
 40
1.501982699999999
 50
0.075587202000581
 51
89.924413000004805
  0
ARC
  5
191FE
  8
AM_0
 10
110.68182635536139
 20
238.43681644960699
 30
0.0
 40
1.460011199999999
 50
89.775248000004495
 51
270.22473999999698
  0
ARC
  5
191FF
  8
AM_0
 10
111.7703863553613
 20
238.466846449607
 30
0.0
 40
1.000025599999997
 50
89.589474000000749
 51
270.41051999999962
  0
ARC
  5
19200
  8
AM_0
 10
111.7703863553613
 20
228.466846449607
 30
0.0
 40
1.000025599999997
 50
89.589474000000749
 51
270.41051999999962
  0
LINE
  5
19201
  8
AM_0
 10
97.227536355361494
 20
229.16679644960701
 30
0.0
 11
107.22753635536129
 21
229.16679644960701
 31
0.0
  0
ARC
  5
19202
  8
AM_0
 10
110.8975163553614
 20
228.41679644960689
 30
0.0
 40
1.6800002000000001
 50
90.00000299999769
 51
270.0
  0
ARC
  5
19203
  8
AM_0
 10
102.7775263553615
 20
248.466846449607
 30
0.0
 40
1.000005699999998
 50
90.00000299999769
 51
270.0
  0
ARC
  5
19204
  8
AM_0
 10
101.55126635536131
 20
248.45683644960701
 30
0.0
 40
1.3300148000000001
 50
89.729417999999583
 51
270.27059000000321
  0
ARC
  5
19205
  8
AM_0
 10
119.2203363553617
 20
228.466846449607
 30
0.0
 40
1.0000259
 50
89.587534000000247
 51
270.4124599999987
  0
ARC
  5
19206
  8
AM_0
 10
119.2203363553617
 20
238.466846449607
 30
0.0
 40
1.0000259
 50
89.587534000000247
 51
270.4124599999987
  0
ARC
  5
19207
  8
AM_0
 10
119.2203363553617
 20
248.466846449607
 30
0.0
 40
1.0000259
 50
89.587534000000247
 51
270.4124599999987
  0
LINE
  5
19208
  8
AM_0
 10
72.227536355361494
 20
322.21684644960681
 30
0.0
 11
72.227536355361494
 21
316.21684644960681
 31
0.0
  0
ARC
  5
19209
  8
AM_0
 10
51.726106255361387
 20
318.46684644960698
 30
0.0
 40
5.0
 50
89.999988999997555
 51
180.0
  0
ARC
  5
1920A
  8
AM_0
 10
50.726106255361387
 20
319.46684644960709
 30
0.0
 40
9.0
 50
89.999988999997555
 51
179.99997999999789
  0
ARC
  5
1920B
  8
AM_0
 10
111.12487635536149
 20
319.73978644960698
 30
0.0
 40
1.997119399999999
 50
89.801366999998493
 51
167.94475999999821
  0
ARC
  5
1920C
  8
AM_0
 10
99.047116355361595
 20
322.09220644960698
 30
0.0
 40
1.505448699999999
 50
270.39686999999992
 51
345.9524700000004
  0
LINE
  5
1920D
  8
AM_0
 10
101.41753635536131
 20
323.59684644960703
 30
0.0
 11
100.4974963553616
 21
319.726856449607
 31
0.0
  0
LINE
  5
1920E
  8
AM_0
 10
97.227536355361494
 20
322.21684644960698
 30
0.0
 11
97.227536355361494
 21
263.46684644960698
 31
0.0
  0
LINE
  5
1920F
  8
AM_0
 10
118.22753635536149
 20
325.35685644960699
 30
0.0
 11
118.22753635536149
 21
317.9568364496069
 31
0.0
  0
LINE
  5
19210
  8
AM_0
 10
49.227536355361501
 20
316.21684644960681
 30
0.0
 11
97.227536355361494
 21
316.21684644960681
 31
0.0
  0
LINE
  5
19211
  8
AM_0
 10
49.727536355361501
 20
297.10783644960691
 30
0.0
 11
92.227536355361494
 21
297.10783644960691
 31
0.0
  0
LINE
  5
19212
  8
AM_0
 10
49.727536355361501
 20
307.35783644960679
 30
0.0
 11
92.227536355361494
 21
307.35783644960679
 31
0.0
  0
LINE
  5
19213
  8
AM_0
 10
40.727566355361418
 20
258.46684644960698
 30
0.0
 11
40.727566355361418
 21
268.46684644960698
 31
0.0
  0
LINE
  5
19214
  8
AM_0
 10
41.726106255361387
 20
258.46684644960698
 30
0.0
 11
40.727566355361418
 21
258.46684644960698
 31
0.0
  0
LINE
  5
19215
  8
AM_0
 10
47.227536355361487
 20
258.46684644960698
 30
0.0
 11
46.726106255361387
 21
258.46684644960698
 31
0.0
  0
LINE
  5
19216
  8
AM_0
 10
41.726106255361387
 20
268.46684644960698
 30
0.0
 11
40.727566355361418
 21
268.46684644960698
 31
0.0
  0
LINE
  5
19217
  8
AM_0
 10
47.227536355361487
 20
268.46684644960698
 30
0.0
 11
46.726106255361387
 21
268.46684644960698
 31
0.0
  0
LINE
  5
19218
  8
AM_0
 10
48.427546355361301
 20
297.75786644960692
 30
0.0
 11
48.427546355361301
 21
306.95781644960681
 31
0.0
  0
ARC
  5
19219
  8
AM_0
 10
48.127566355361282
 20
303.85783644960691
 30
0.0
 40
3.0
 50
90.000049999998495
 51
180.000020000002
  0
ARC
  5
1921A
  8
AM_0
 10
48.127566355361282
 20
300.85783644960679
 30
0.0
 40
3.0
 50
180.000020000002
 51
270.00001100000242
  0
LINE
  5
1921B
  8
AM_0
 10
45.127566355361289
 20
300.85783644960679
 30
0.0
 11
45.127566355361289
 21
303.85783644960691
 31
0.0
  0
LINE
  5
1921C
  8
AM_0
 10
48.127566355361282
 20
297.85783644960691
 30
0.0
 11
48.427546355361301
 21
297.85783644960691
 31
0.0
  0
LINE
  5
1921D
  8
AM_0
 10
48.427546355361301
 20
297.75786644960692
 30
0.0
 11
49.727536355361501
 21
297.75786644960692
 31
0.0
  0
LINE
  5
1921E
  8
AM_0
 10
46.726106255361387
 20
306.51036535389949
 30
0.0
 11
46.726106255361387
 21
318.46684644960681
 31
0.0
  0
LINE
  5
1921F
  8
AM_0
 10
47.227536355361487
 20
306.7197764496068
 30
0.0
 11
47.227536355361487
 21
314.21684644960681
 31
0.0
  0
LINE
  5
19220
  8
AM_0
 10
48.127566355361282
 20
306.85783644960679
 30
0.0
 11
48.427546355361301
 21
306.85783644960679
 31
0.0
  0
LINE
  5
19221
  8
AM_0
 10
48.427546355361301
 20
306.95781644960681
 30
0.0
 11
49.727536355361501
 21
306.95781644960681
 31
0.0
  0
ARC
  5
19222
  8
AM_0
 10
49.227536355361501
 20
314.21684644960681
 30
0.0
 40
2.0
 50
90.000049999998495
 51
180.000020000002
  0
ARC
  5
19223
  8
AM_0
 10
119.2203363553617
 20
288.46684644960692
 30
0.0
 40
1.0000259
 50
89.587534000000247
 51
270.4124599999987
  0
ARC
  5
19224
  8
AM_0
 10
111.7703863553613
 20
288.46684644960692
 30
0.0
 40
1.000025599999997
 50
89.589474000000749
 51
270.41051999999962
  0
ARC
  5
19225
  8
AM_0
 10
110.68182635536139
 20
288.4968764496071
 30
0.0
 40
1.460011199999999
 50
89.775248000004495
 51
270.22473999999698
  0
ARC
  5
19226
  8
AM_0
 10
102.7775263553615
 20
258.46684644960698
 30
0.0
 40
1.000005699999998
 50
90.00000299999769
 51
270.0
  0
ARC
  5
19227
  8
AM_0
 10
101.4893163553613
 20
258.46684644960698
 30
0.0
 40
1.2700266
 50
89.629321000002776
 51
270.37068999999542
  0
ARC
  5
19228
  8
AM_0
 10
102.7775263553615
 20
268.46684644960698
 30
0.0
 40
1.000005699999998
 50
90.00000299999769
 51
270.0
  0
ARC
  5
19229
  8
AM_0
 10
101.4893163553613
 20
268.47685644960688
 30
0.0
 40
1.2700266
 50
89.629327999996249
 51
270.37065999999629
  0
ARC
  5
1922A
  8
AM_0
 10
102.7775263553615
 20
278.46684644960698
 30
0.0
 40
1.000005699999998
 50
90.00000299999769
 51
270.0
  0
ARC
  5
1922B
  8
AM_0
 10
101.55126635536131
 20
278.48185644960699
 30
0.0
 40
1.3350147999999991
 50
89.730434999997087
 51
270.2695700000001
  0
ARC
  5
1922C
  8
AM_0
 10
119.2203363553617
 20
258.46684644960698
 30
0.0
 40
1.0000259
 50
89.587534000000247
 51
270.4124599999987
  0
ARC
  5
1922D
  8
AM_0
 10
119.2203363553617
 20
268.46684644960698
 30
0.0
 40
1.0000259
 50
89.587534000000247
 51
270.4124599999987
  0
ARC
  5
1922E
  8
AM_0
 10
119.2203363553617
 20
278.46684644960698
 30
0.0
 40
1.0000259
 50
89.587534000000247
 51
270.4124599999987
  0
ARC
  5
1922F
  8
AM_0
 10
110.3694463553613
 20
304.687546449607
 30
0.0
 40
1.002184699999999
 50
354.8038600000034
 51
45.047306999999407
  0
ARC
  5
19230
  8
AM_0
 10
111.7703863553613
 20
298.46684644960709
 30
0.0
 40
1.000025599999997
 50
89.589474000000749
 51
270.41051999999962
  0
ARC
  5
19231
  8
AM_0
 10
106.38311635536159
 20
305.06107644960701
 30
0.0
 40
5.0059714
 50
279.71097999999728
 51
354.67887999999812
  0
LINE
  5
19232
  8
AM_0
 10
111.18182635536139
 20
316.45683644960701
 30
0.0
 11
116.72753635536149
 21
316.45683644960701
 31
0.0
  0
LINE
  5
19233
  8
AM_0
 10
107.22753635536129
 20
311.8168164496069
 30
0.0
 11
107.22753635536129
 21
297.7768964496068
 31
0.0
  0
LINE
  5
19234
  8
AM_0
 10
97.227536355361494
 20
297.7768964496068
 30
0.0
 11
107.22753635536129
 21
297.7768964496068
 31
0.0
  0
ARC
  5
19235
  8
AM_0
 10
110.8975163553614
 20
298.516886449607
 30
0.0
 40
1.6800002000000001
 50
90.00000299999769
 51
270.0
  0
LINE
  5
19236
  8
AM_0
 10
99.057556355361385
 20
320.58683644960689
 30
0.0
 11
100.70751635536131
 21
320.58683644960689
 31
0.0
  0
LINE
  5
19237
  8
AM_0
 10
97.227536355361494
 20
320.89683644960678
 30
0.0
 11
100.04754635536121
 21
320.96684644960698
 31
0.0
  0
LINE
  5
19238
  8
AM_0
 10
99.037536355361226
 20
318.56681644960679
 30
0.0
 11
108.83031635536121
 21
318.56681644960679
 31
0.0
  0
LINE
  5
19239
  8
AM_0
 10
97.227536355361494
 20
311.8168164496069
 30
0.0
 11
107.22753635536129
 21
311.8168164496069
 31
0.0
  0
LINE
  5
1923A
  8
AM_0
 10
97.227536355361494
 20
306.15678644960713
 30
0.0
 11
107.22753635536129
 21
306.15678644960713
 31
0.0
  0
ARC
  5
1923B
  8
AM_0
 10
99.032716355361373
 20
320.07169644960697
 30
0.0
 40
1.5048382
 50
270.18264000000067
 51
346.75308000000138
  0
LINE
  5
1923C
  8
AM_0
 10
92.227536355361494
 20
307.35783644960679
 30
0.0
 11
92.227536355361494
 21
316.21684644960681
 31
0.0
  0
LINE
  5
1923D
  8
AM_0
 10
108.4368263553613
 20
310.46021644960678
 30
0.0
 11
109.2218663553615
 21
314.806896449607
 31
0.0
  0
ARC
  5
1923E
  8
AM_0
 10
106.8485063553612
 20
301.13432644960699
 30
0.0
 40
6.0044340999999992
 50
45.225577999995338
 51
86.380821999996144
  0
ARC
  5
1923F
  8
AM_0
 10
106.96069635536099
 20
310.72685644960711
 30
0.0
 40
1.5
 50
280.24788999999811
 51
349.76261999999929
  0
ARC
  5
19240
  8
AM_0
 10
111.1869463553612
 20
314.46159644960687
 30
0.0
 40
1.9952742999999991
 50
90.148580000000095
 51
170.03521999999941
  0
LINE
  5
19241
  8
AM_0
 10
106.74181635536129
 20
314.50687644960698
 30
0.0
 11
109.16180635536151
 21
314.50687644960698
 31
0.0
  0
ARC
  5
19242
  8
AM_0
 10
106.7443863553612
 20
316.00919644960692
 30
0.0
 40
1.502416299999999
 50
269.90137999999553
 51
347.60813000000081
  0
LINE
  5
19243
  8
AM_0
 10
109.1718163553612
 20
320.15684644960697
 30
0.0
 11
108.21185635536111
 21
315.68687644960693
 31
0.0
  0
ARC
  5
19244
  8
AM_0
 10
119.2203363553617
 20
298.46684644960709
 30
0.0
 40
1.0000259
 50
89.587534000000247
 51
270.4124599999987
  0
ARC
  5
19245
  8
AM_0
 10
116.72381635536129
 20
317.96061644960679
 30
0.0
 40
1.5037541000000001
 50
270.14287000000098
 51
359.85713999999871
  0
LINE
  5
19246
  8
AM_0
 10
85.227536355361536
 20
323.46684644960709
 30
0.0
 11
88.227536355361494
 21
323.46684644960709
 31
0.0
  0
LINE
  5
19247
  8
AM_0
 10
50.726106255361387
 20
328.46684644960698
 30
0.0
 11
88.227536355361494
 21
328.46684644960698
 31
0.0
  0
LINE
  5
19248
  8
AM_0
 10
72.227536355361494
 20
322.21684644960681
 30
0.0
 11
97.227536355361494
 21
322.21684644960681
 31
0.0
  0
LINE
  5
19249
  8
AM_0
 10
51.726106255361387
 20
323.46684644960709
 30
0.0
 11
75.227536355361522
 21
323.46684644960709
 31
0.0
  0
LINE
  5
1924A
  8
AM_0
 10
75.227536355361522
 20
322.21684644960698
 30
0.0
 11
75.227536355361522
 21
328.46684644960698
 31
0.0
  0
LINE
  5
1924B
  8
AM_0
 10
85.227536355361536
 20
322.21684644960698
 30
0.0
 11
85.227536355361536
 21
328.46684644960698
 31
0.0
  0
LINE
  5
1924C
  8
AM_0
 10
103.3375263553614
 20
326.766886449607
 30
0.0
 11
116.8375263553616
 21
326.766886449607
 31
0.0
  0
LINE
  5
1924D
  8
AM_0
 10
103.35754635536129
 20
325.136886449607
 30
0.0
 11
116.72753635536149
 21
325.136886449607
 31
0.0
  0
LINE
  5
1924E
  8
AM_0
 10
111.11797635536141
 20
321.73686644960679
 30
0.0
 11
116.72753635536149
 21
321.73686644960679
 31
0.0
  0
LINE
  5
1924F
  8
AM_0
 10
88.227536355361494
 20
323.46684644960709
 30
0.0
 11
88.227536355361494
 21
328.46684644960698
 31
0.0
  0
LINE
  5
19250
  8
AM_0
 10
101.3975163553614
 20
325.25687644960692
 30
0.0
 11
100.5075063553613
 21
321.726856449607
 31
0.0
  0
ARC
  5
19251
  8
AM_0
 10
103.3323963553612
 20
324.77226644960678
 30
0.0
 40
1.994612099999999
 50
89.851991999995747
 51
165.93886000000381
  0
ARC
  5
19252
  8
AM_0
 10
103.3577863553612
 20
323.14457644960692
 30
0.0
 40
1.9922863
 50
90.007721000000544
 51
166.87839000000349
  0
ARC
  5
19253
  8
AM_0
 10
120.2213163553613
 20
327.39030644960701
 30
0.0
 40
1.9964978999999961
 50
89.821482000000245
 51
165.6006099999997
  0
ARC
  5
19254
  8
AM_0
 10
116.8324563553615
 20
328.27201644960689
 30
0.0
 40
1.505230099999999
 50
270.19421
 51
345.17177999999871
  0
ARC
  5
19255
  8
AM_0
 10
116.72063635536119
 20
326.64372644960702
 30
0.0
 40
1.506942899999999
 50
270.2633699999991
 51
359.73663000000079
  0
ARC
  5
19256
  8
AM_0
 10
116.72265635536129
 20
323.24174644960698
 30
0.0
 40
1.504891299999997
 50
270.18592999999731
 51
359.81406999999621
  0
ARC
  5
19257
  8
AM_0
 10
120.2216763553613
 20
325.36271644960698
 30
0.0
 40
1.994130499999996
 50
89.831106000002478
 51
180.16889000000049
  0
ARC
  5
19258
  8
AM_0
 10
120.2208263553614
 20
323.33353644960698
 30
0.0
 40
1.9933081999999991
 50
89.807323000004203
 51
180.19266999999849
  0
ARC
  5
19259
  8
AM_0
 10
120.22399635536129
 20
326.72038644960702
 30
0.0
 40
1.996488899999999
 50
89.899148000001659
 51
180.1008499999989
  0
LINE
  5
1925A
  8
AM_0
 10
244.22753635536131
 20
200.966846449607
 30
0.0
 11
244.22753635536131
 21
325.96684644960698
 31
0.0
  0
LINE
  5
1925B
  8
AM_0
 10
223.20751635536129
 20
230.10685644960711
 30
0.0
 11
241.04754635536119
 21
230.10685644960711
 31
0.0
  0
LINE
  5
1925C
  8
AM_0
 10
223.22753635536151
 20
236.98686644960691
 30
0.0
 11
241.26177635536121
 21
236.98686644960691
 31
0.0
  0
LINE
  5
1925D
  8
AM_0
 10
237.56756635536141
 20
229.466846449607
 30
0.0
 11
223.22753635536151
 21
229.466846449607
 31
0.0
  0
LINE
  5
1925E
  8
AM_0
 10
237.56036635536131
 20
237.466846449607
 30
0.0
 11
223.22753635536151
 21
237.466846449607
 31
0.0
  0
LINE
  5
1925F
  8
AM_0
 10
224.74114635536111
 20
193.46684644960681
 30
0.0
 11
236.24371635536141
 21
193.46684644960681
 31
0.0
  0
LINE
  5
19260
  8
AM_0
 10
237.56756635536141
 20
227.466846449607
 30
0.0
 11
193.22753635536131
 21
227.466846449607
 31
0.0
  0
LINE
  5
19261
  8
AM_0
 10
193.22753635536131
 20
226.74687644960699
 30
0.0
 11
241.04754635536119
 21
226.74687644960699
 31
0.0
  0
LINE
  5
19262
  8
AM_0
 10
138.22753635536151
 20
217.1168664496069
 30
0.0
 11
244.22753635536131
 21
217.1168664496069
 31
0.0
  0
ARC
  5
19263
  8
AM_0
 10
224.74114635536111
 20
191.96684644960681
 30
0.0
 40
1.5
 50
90.00000299999769
 51
178.4999999999973
  0
LINE
  5
19264
  8
AM_0
 10
223.16209836549521
 20
188.9668464496072
 30
0.0
 11
223.49310635536131
 21
201.6069164496069
 31
0.0
  0
LINE
  5
19265
  8
AM_0
 10
163.29306985728169
 20
188.9668464496072
 30
0.0
 11
162.96203635536131
 21
201.6068264496069
 31
0.0
  0
LINE
  5
19266
  8
AM_0
 10
226.72753635536151
 20
188.96684644960729
 30
0.0
 11
159.72753635536151
 21
188.96684644960729
 31
0.0
  0
LINE
  5
19267
  8
AM_0
 10
184.14905604403521
 20
181.46684644960709
 30
0.0
 11
182.64905604403509
 21
181.46684644960709
 31
0.0
  0
LINE
  5
19268
  8
AM_0
 10
184.14905604403521
 20
177.46684644960669
 30
0.0
 11
182.64905604403509
 21
177.4668464496072
 31
0.0
  0
LINE
  5
19269
  8
AM_0
 10
222.35241008951451
 20
152.46684644960709
 30
0.0
 11
146.87810522635479
 21
152.46684644960749
 31
0.0
  0
LINE
  5
1926A
  8
AM_0
 10
146.55241008951339
 20
156.46684644960749
 30
0.0
 11
222.852410089514
 21
169.46684644960669
 31
0.0
  0
LINE
  5
1926B
  8
AM_0
 10
146.55241008951339
 20
156.46684644960749
 30
0.0
 11
222.852410089514
 21
169.46684644960669
 31
0.0
  0
LINE
  5
1926C
  8
AM_0
 10
223.17810522635551
 20
165.46684644960689
 30
0.0
 11
146.87810522635479
 21
152.46684644960749
 31
0.0
  0
LINE
  5
1926D
  8
AM_0
 10
149.75241008951389
 20
186.46684644960749
 30
0.0
 11
230.22753635536111
 21
186.46684644960709
 31
0.0
  0
LINE
  5
1926E
  8
ﾁｭｳｼﾝｾﾝ1
 10
159.0524100895139
 20
181.4668464496074
 30
0.0
 11
159.0524100895139
 21
157.4668464496074
 31
0.0
  0
LINE
  5
1926F
  8
AM_0
 10
143.95241008951359
 20
185.4668464496074
 30
0.0
 11
143.95241008951379
 21
157.46684644960749
 31
0.0
  0
LINE
  5
19270
  8
AM_0
 10
141.95241008951459
 20
161.46684644960749
 30
0.0
 11
141.9524100895147
 21
153.96684644960749
 31
0.0
  0
ARC
  5
19271
  8
AM_0
 10
159.0524100895139
 20
169.4668464496074
 30
0.0
 40
9.2999999999997076
 50
180.0
 51
0.0
  0
LINE
  5
19272
  8
AM_0
 10
146.47098630530309
 20
157.46684644960749
 30
0.0
 11
178.4490560440351
 21
162.9152724863506
 31
0.0
  0
ARC
  5
19273
  8
AM_0
 10
143.95241008951399
 20
153.96684644960749
 30
0.0
 40
1.499999999999998
 50
180.0
 51
270.0
  0
ARC
  5
19274
  8
AM_0
 10
143.45241008951459
 20
153.96684644960749
 30
0.0
 40
1.5000000000001099
 50
180.0
 51
269.99999999999352
  0
LINE
  5
19275
  8
AM_0
 10
142.45241008951339
 20
156.46684644960749
 30
0.0
 11
146.55241008951339
 21
156.46684644960749
 31
0.0
  0
LINE
  5
19276
  8
AM_0
 10
146.47098630530309
 20
157.46684644960749
 30
0.0
 11
142.45241008951339
 21
157.46684644960749
 31
0.0
  0
LINE
  5
19277
  8
AM_0
 10
142.7524100895142
 20
156.46684644960749
 30
0.0
 11
146.55241008951339
 21
156.46684644960749
 31
0.0
  0
LINE
  5
19278
  8
AM_0
 10
143.45241008951459
 20
152.46684644960749
 30
0.0
 11
143.75089598567149
 21
152.46684644960749
 31
0.0
  0
LINE
  5
19279
  8
AM_0
 10
143.95241008951399
 20
152.46684644960749
 30
0.0
 11
146.87810522635479
 21
152.46684644960749
 31
0.0
  0
LINE
  5
1927A
  8
AM_0
 10
142.45241008951339
 20
157.46684644960749
 30
0.0
 11
142.45241008951339
 21
153.96684644960749
 31
0.0
  0
LINE
  5
1927B
  8
ﾁｭｳｼﾝｾﾝ1
 10
147.05241008951401
 20
169.4668464496074
 30
0.0
 11
171.05241008951401
 21
169.4668464496074
 31
0.0
  0
CIRCLE
  5
1927C
  8
AM_0
 10
159.0524100895139
 20
169.4668464496074
 30
0.0
 40
6.2999999999996117
  0
LINE
  5
1927D
  8
AM_0
 10
149.75241008951389
 20
186.46684644960749
 30
0.0
 11
149.75241008951349
 21
169.4668464496074
 31
0.0
  0
LINE
  5
1927E
  8
AM_0
 10
143.95241008951359
 20
161.46684644960749
 30
0.0
 11
142.7524100895142
 21
161.46684644960749
 31
0.0
  0
LINE
  5
1927F
  8
AM_0
 10
142.7524100895142
 20
161.46684644960749
 30
0.0
 11
141.95241008951459
 21
161.46684644960749
 31
0.0
  0
LINE
  5
19280
  8
AM_0
 10
144.95241008951339
 20
186.46684644960749
 30
0.0
 11
149.75241008951389
 21
186.46684644960749
 31
0.0
  0
ARC
  5
19281
  8
AM_0
 10
144.95241008951339
 20
185.4668464496074
 30
0.0
 40
1.0
 50
90.0
 51
180.0
  0
LINE
  5
19282
  8
AM_0
 10
180.44905604403539
 20
163.25603264362459
 30
0.0
 11
180.44905604403539
 21
181.46684644960749
 31
0.0
  0
LINE
  5
19283
  8
AM_0
 10
178.4490560440351
 20
181.46684644960709
 30
0.0
 11
178.4490560440351
 21
162.9152724863506
 31
0.0
  0
LINE
  5
19284
  8
AM_0
 10
182.64905604403509
 20
181.46684644960709
 30
0.0
 11
182.64905604403509
 21
163.6308688166263
 31
0.0
  0
LINE
  5
19285
  8
AM_0
 10
168.35241008951371
 20
186.46684644960709
 30
0.0
 11
168.35241008951371
 21
169.46684644960709
 31
0.0
  0
LINE
  5
19286
  8
AM_0
 10
180.44905604403539
 20
163.25603264362459
 30
0.0
 11
182.64905604403509
 21
163.6308688166263
 31
0.0
  0
LINE
  5
19287
  8
AM_0
 10
159.72753635536151
 20
188.96684644960729
 30
0.0
 11
159.72753635536151
 21
186.46684644960709
 31
0.0
  0
LINE
  5
19288
  8
AM_0
 10
180.44905604403539
 20
181.46684644960749
 30
0.0
 11
178.4490560440351
 21
181.46684644960709
 31
0.0
  0
LINE
  5
19289
  8
AM_0
 10
180.44905604403539
 20
177.4668464496072
 30
0.0
 11
178.4490560440351
 21
177.4668464496072
 31
0.0
  0
LINE
  5
1928A
  8
AM_0
 10
224.85241008951471
 20
164.96684644960709
 30
0.0
 11
224.85241008951471
 21
154.96684644960709
 31
0.0
  0
LINE
  5
1928B
  8
AM_0
 10
214.58256160853119
 20
152.46684644960709
 30
0.0
 11
214.58256160853119
 21
164.00233705207521
 31
0.0
  0
ARC
  5
1928C
  8
AM_0
 10
222.35241008951451
 20
154.96684644960709
 30
0.0
 40
2.5
 50
270.0
 51
0.0
  0
LINE
  5
1928D
  8
AM_0
 10
206.36582627142209
 20
167.67173399298221
 30
0.0
 11
216.2275363553608
 21
169.3519729325788
 31
0.0
  0
LINE
  5
1928E
  8
AM_0
 10
201.16247222594461
 20
181.46684644960709
 30
0.0
 11
201.16247222594441
 21
166.785186121538
 31
0.0
  0
LINE
  5
1928F
  8
AM_0
 10
202.66247222594461
 20
167.04075623949339
 30
0.0
 11
202.66247222594461
 21
181.46684644960709
 31
0.0
  0
LINE
  5
19290
  8
AM_0
 10
204.86582627142209
 20
181.46684644960709
 30
0.0
 11
204.86582627142209
 21
167.4161638750268
 31
0.0
  0
LINE
  5
19291
  8
AM_0
 10
206.36582627142209
 20
167.67173399298221
 30
0.0
 11
206.36582627142209
 21
181.46684644960709
 31
0.0
  0
LINE
  5
19292
  8
AM_0
 10
190.05241008951259
 20
181.46684644960709
 30
0.0
 11
190.05241008951259
 21
164.8922528610712
 31
0.0
  0
LINE
  5
19293
  8
AM_0
 10
192.05241008951589
 20
165.23301301834559
 30
0.0
 11
192.05241008951609
 21
181.4668464496099
 31
0.0
  0
LINE
  5
19294
  8
AM_0
 10
193.75576413498999
 20
181.46684644960709
 30
0.0
 11
193.7557641349899
 21
165.5232306145603
 31
0.0
  0
LINE
  5
19295
  8
AM_0
 10
195.2557641349899
 20
165.77880073251541
 30
0.0
 11
195.2557641349901
 21
181.46684644960709
 31
0.0
  0
LINE
  5
19296
  8
AM_0
 10
197.45911818046761
 20
181.46684644960709
 30
0.0
 11
197.45911818046741
 21
166.1542083680489
 31
0.0
  0
LINE
  5
19297
  8
AM_0
 10
198.95911818046741
 20
166.40977848600451
 30
0.0
 11
198.95911818046741
 21
181.46684644960709
 31
0.0
  0
LINE
  5
19298
  8
AM_0
 10
184.14905604403521
 20
163.88643893458141
 30
0.0
 11
184.14905604403521
 21
181.46684644960709
 31
0.0
  0
LINE
  5
19299
  8
AM_0
 10
186.34905604403519
 20
181.46684644960709
 30
0.0
 11
186.34905604403519
 21
164.26127510758241
 31
0.0
  0
LINE
  5
1929A
  8
AM_0
 10
187.84905604403519
 20
164.51684522553779
 30
0.0
 11
187.84905604403519
 21
181.46684644960709
 31
0.0
  0
LINE
  5
1929B
  8
AM_0
 10
195.2557641349899
 20
165.77880073251541
 30
0.0
 11
197.45911818046741
 21
166.1542083680489
 31
0.0
  0
LINE
  5
1929C
  8
AM_0
 10
187.84905604403519
 20
164.51684522553779
 30
0.0
 11
190.05241008951259
 21
164.8922528610712
 31
0.0
  0
LINE
  5
1929D
  8
AM_0
 10
184.14905604403521
 20
163.88643893458141
 30
0.0
 11
186.34905604403519
 21
164.26127510758241
 31
0.0
  0
LINE
  5
1929E
  8
AM_0
 10
192.05241008951589
 20
165.23301301834559
 30
0.0
 11
193.7557641349899
 21
165.5232306145603
 31
0.0
  0
LINE
  5
1929F
  8
AM_0
 10
198.95911818046741
 20
166.40977848600451
 30
0.0
 11
201.16247222594441
 21
166.785186121538
 31
0.0
  0
LINE
  5
192A0
  8
AM_0
 10
202.66247222594461
 20
167.04075623949339
 30
0.0
 11
204.86582627142209
 21
167.4161638750268
 31
0.0
  0
LINE
  5
192A1
  8
AM_0
 10
187.84905604403519
 20
181.46684644960709
 30
0.0
 11
186.34905604403519
 21
181.46684644960709
 31
0.0
  0
LINE
  5
192A2
  8
AM_0
 10
187.84905604403519
 20
177.46684644960669
 30
0.0
 11
186.34905604403519
 21
177.46684644960669
 31
0.0
  0
LINE
  5
192A3
  8
AM_0
 10
192.05241008951609
 20
181.46684644960709
 30
0.0
 11
190.05241008951259
 21
181.46684644960709
 31
0.0
  0
LINE
  5
192A4
  8
AM_0
 10
192.05241008951609
 20
177.46684644960669
 30
0.0
 11
190.05241008951259
 21
177.46684644960669
 31
0.0
  0
LINE
  5
192A5
  8
AM_0
 10
195.2557641349901
 20
181.46684644960709
 30
0.0
 11
193.75576413498999
 21
181.46684644960709
 31
0.0
  0
LINE
  5
192A6
  8
AM_0
 10
195.25576413499039
 20
177.46684644960669
 30
0.0
 11
193.75576413498999
 21
177.46684644960669
 31
0.0
  0
LINE
  5
192A7
  8
AM_0
 10
202.66247222594461
 20
181.46684644960709
 30
0.0
 11
201.16247222594461
 21
181.46684644960709
 31
0.0
  0
LINE
  5
192A8
  8
AM_0
 10
202.66247222594461
 20
177.46684644960669
 30
0.0
 11
201.16247222594461
 21
177.46684644960669
 31
0.0
  0
LINE
  5
192A9
  8
AM_0
 10
198.95911818046741
 20
181.46684644960709
 30
0.0
 11
197.45911818046761
 21
181.46684644960709
 31
0.0
  0
LINE
  5
192AA
  8
AM_0
 10
198.95911818046741
 20
177.46684644960669
 30
0.0
 11
197.45911818046761
 21
177.46684644960669
 31
0.0
  0
LINE
  5
192AB
  8
AM_0
 10
206.36582627142209
 20
181.46684644960709
 30
0.0
 11
204.86582627142209
 21
181.46684644960709
 31
0.0
  0
LINE
  5
192AC
  8
AM_0
 10
206.36582627142209
 20
177.46684644960669
 30
0.0
 11
204.86582627142209
 21
177.46684644960669
 31
0.0
  0
LINE
  5
192AD
  8
AM_0
 10
231.2275363553608
 20
169.46684644960709
 30
0.0
 11
231.2275363553608
 21
185.46684644960681
 31
0.0
  0
LINE
  5
192AE
  8
AM_0
 10
216.2275363553608
 20
169.3519729325788
 30
0.0
 11
216.2275363553608
 21
186.46684644960709
 31
0.0
  0
LINE
  5
192AF
  8
AM_0
 10
215.4524100895149
 20
164.15264122230971
 30
0.0
 11
215.45241008951459
 21
168.20603386769329
 31
0.0
  0
LINE
  5
192B0
  8
AM_0
 10
231.2275363553608
 20
169.46684644960709
 30
0.0
 11
231.2275363553608
 21
165.96684644960689
 31
0.0
  0
LINE
  5
192B1
  8
AM_0
 10
225.35241008951451
 20
165.46684644960689
 30
0.0
 11
230.727536355361
 21
165.46684644960689
 31
0.0
  0
ARC
  5
192B2
  8
AM_0
 10
225.35241008951451
 20
164.96684644960709
 30
0.0
 40
0.5
 50
90.0
 51
180.0
  0
LINE
  5
192B3
  8
AM_0
 10
225.35241008951451
 20
165.46684644960689
 30
0.0
 11
223.17810522635551
 21
165.46684644960689
 31
0.0
  0
ARC
  5
192B4
  8
AM_0
 10
230.727536355361
 20
165.96684644960689
 30
0.0
 40
0.5
 50
270.0
 51
0.0
  0
LINE
  5
192B5
  8
AM_0
 10
231.2275363553608
 20
169.46684644960709
 30
0.0
 11
222.852410089514
 21
169.46684644960669
 31
0.0
  0
ARC
  5
192B6
  8
AM_0
 10
230.22753635536111
 20
185.46684644960681
 30
0.0
 40
1.0
 50
0.0
 51
90.0
  0
LINE
  5
192B7
  8
AM_0
 10
226.72753635536151
 20
188.96684644960729
 30
0.0
 11
226.72753635536151
 21
186.46684644960709
 31
0.0
  0
ARC
  5
192B8
  8
AM_0
 10
161.55395635536141
 20
198.07682644960681
 30
0.0
 40
1.5
 50
1.5000027000022329
 51
90.00000299999769
  0
ARC
  5
192B9
  8
AM_0
 10
172.66625635536141
 20
248.466846449607
 30
0.0
 40
1.000005699999998
 50
269.999989999999
 51
90.00000299999769
  0
ARC
  5
192BA
  8
AM_0
 10
173.89251635536129
 20
248.45683644960701
 30
0.0
 40
1.3300148000000001
 50
269.7294199999987
 51
90.270567000000995
  0
LINE
  5
192BB
  8
AM_0
 10
206.24755635536141
 20
235.966846449607
 30
0.0
 11
206.24755635536141
 21
231.10685644960699
 31
0.0
  0
LINE
  5
192BC
  8
AM_0
 10
206.72753635536131
 20
235.966846449607
 30
0.0
 11
206.72753635536131
 21
230.966846449607
 31
0.0
  0
ARC
  5
192BD
  8
AM_0
 10
205.24755635536141
 20
231.10685644960699
 30
0.0
 40
1.0
 50
269.999989999999
 51
0.0000006832495047
  0
ARC
  5
192BE
  8
AM_0
 10
205.22753635536131
 20
230.966846449607
 30
0.0
 40
1.5
 50
269.999989999999
 51
0.0000006832495047
  0
ARC
  5
192BF
  8
AM_0
 10
205.22753635536131
 20
235.966846449607
 30
0.0
 40
1.02
 50
0.0
 51
90.00000299999769
  0
ARC
  5
192C0
  8
AM_0
 10
205.22753635536131
 20
235.966846449607
 30
0.0
 40
1.5
 50
0.0
 51
90.00000299999769
  0
CIRCLE
  5
192C1
  8
AM_0
 10
211.72753635536131
 20
234.966846449607
 30
0.0
 40
1.149999999999999
  0
CIRCLE
  5
192C2
  8
AM_0
 10
211.72753635536131
 20
234.966846449607
 30
0.0
 40
1.1000000000000001
  0
CIRCLE
  5
192C3
  8
AM_0
 10
216.72753635536131
 20
234.966846449607
 30
0.0
 40
1.0
  0
LINE
  5
192C4
  8
AM_0
 10
222.20751635536141
 20
235.966846449607
 30
0.0
 11
222.20751635536141
 21
231.10685644960699
 31
0.0
  0
LINE
  5
192C5
  8
AM_0
 10
221.72753635536131
 20
235.966846449607
 30
0.0
 11
221.72753635536131
 21
230.966846449607
 31
0.0
  0
ARC
  5
192C6
  8
AM_0
 10
223.20751635536129
 20
231.10685644960699
 30
0.0
 40
1.0
 50
179.999989999999
 51
270.0
  0
ARC
  5
192C7
  8
AM_0
 10
223.22753635536151
 20
230.966846449607
 30
0.0
 40
1.5
 50
179.999989999999
 51
270.0
  0
ARC
  5
192C8
  8
AM_0
 10
223.22753635536151
 20
235.966846449607
 30
0.0
 40
1.02
 50
90.00000299999769
 51
180.00001000000091
  0
ARC
  5
192C9
  8
AM_0
 10
223.22753635536151
 20
235.966846449607
 30
0.0
 40
1.5
 50
90.00000299999769
 51
180.00001000000091
  0
LINE
  5
192CA
  8
AM_0
 10
238.96752635536129
 20
203.09690644960699
 30
0.0
 11
242.4275163553614
 21
216.00687644960701
 31
0.0
  0
ARC
  5
192CB
  8
AM_0
 10
245.22057635536129
 20
200.95988644960681
 30
0.0
 40
0.99304521
 50
179.5973099999994
 51
270.40268000000009
  0
LINE
  5
192CC
  8
AM_0
 10
238.93755635536129
 20
202.966846449607
 30
0.0
 11
244.22753635536131
 21
202.966846449607
 31
0.0
  0
LINE
  5
192CD
  8
AM_0
 10
243.22753635536139
 20
202.966906449607
 30
0.0
 11
237.5017363553616
 21
194.14997644960681
 31
0.0
  0
ARC
  5
192CE
  8
AM_0
 10
236.24371635536141
 20
194.966846449607
 30
0.0
 40
1.5
 50
269.999989999999
 51
326.99999999999801
  0
ARC
  5
192CF
  8
AM_0
 10
237.02880635536121
 20
203.61308644960701
 30
0.0
 40
2.0062942999999991
 50
270.24932999999891
 51
345.08843999999732
  0
LINE
  5
192D0
  8
AM_0
 10
245.22753635536139
 20
199.96684644960681
 30
0.0
 11
252.22753635536151
 21
199.96684644960681
 31
0.0
  0
ARC
  5
192D1
  8
AM_0
 10
245.21990635536119
 20
212.41923644960701
 30
0.0
 40
0.99237448
 50
179.55801999999801
 51
270.4419699999965
  0
ARC
  5
192D2
  8
AM_0
 10
243.87121635536141
 20
215.623096449607
 30
0.0
 40
1.4937901
 50
89.756423999995206
 51
165.1129200000008
  0
LINE
  5
192D3
  8
AM_0
 10
245.22753635536139
 20
211.426806449607
 30
0.0
 11
252.22753635536151
 21
211.426806449607
 31
0.0
  0
ARC
  5
192D4
  8
AM_0
 10
237.56756635536141
 20
228.466846449607
 30
0.0
 40
1.0000040999999991
 50
269.999989999999
 51
90.00000299999769
  0
ARC
  5
192D5
  8
AM_0
 10
241.04754635536119
 20
228.426806449607
 30
0.0
 40
1.6800077
 50
269.999989999999
 51
90.00000299999769
  0
ARC
  5
192D6
  8
AM_0
 10
237.5675063553613
 20
238.466846449607
 30
0.0
 40
1.000025599999997
 50
269.5894700000033
 51
90.410530999997775
  0
ARC
  5
192D7
  8
AM_0
 10
241.26751635536129
 20
238.43681644960699
 30
0.0
 40
1.460011199999999
 50
269.77524999999667
 51
90.224750000003354
  0
LINE
  5
192D8
  8
AM_0
 10
244.22753635536131
 20
226.3168164496069
 30
0.0
 11
252.22753635536151
 21
226.3168164496069
 31
0.0
  0
LINE
  5
192D9
  8
AM_0
 10
223.22753635536151
 20
289.95683644960701
 30
0.0
 11
241.27325635536141
 21
289.95683644960701
 31
0.0
  0
LINE
  5
192DA
  8
AM_0
 10
223.20751635536129
 20
296.83683644960701
 30
0.0
 11
241.04754635536119
 21
296.83683644960701
 31
0.0
  0
LINE
  5
192DB
  8
AM_0
 10
237.57470635536151
 20
289.46684644960698
 30
0.0
 11
223.22753635536151
 21
289.46684644960698
 31
0.0
  0
LINE
  5
192DC
  8
AM_0
 10
237.56756635536141
 20
297.46684644960698
 30
0.0
 11
223.22753635536151
 21
297.46684644960698
 31
0.0
  0
LINE
  5
192DD
  8
AM_0
 10
138.22753635536151
 20
309.8168164496069
 30
0.0
 11
244.22753635536131
 21
309.8168164496069
 31
0.0
  0
ARC
  5
192DE
  8
AM_0
 10
172.66625635536141
 20
258.46684644960698
 30
0.0
 40
1.000005699999998
 50
269.999989999999
 51
90.00000299999769
  0
ARC
  5
192DF
  8
AM_0
 10
173.95446635536129
 20
258.46684644960698
 30
0.0
 40
1.2700266
 50
269.62931999999989
 51
90.370670000004708
  0
ARC
  5
192E0
  8
AM_0
 10
172.66625635536141
 20
268.46684644960698
 30
0.0
 40
1.000005699999998
 50
269.999989999999
 51
90.00000299999769
  0
ARC
  5
192E1
  8
AM_0
 10
173.95446635536129
 20
268.47685644960688
 30
0.0
 40
1.2700266
 50
269.62931999999989
 51
90.370670000004708
  0
ARC
  5
192E2
  8
AM_0
 10
172.66625635536141
 20
278.46684644960698
 30
0.0
 40
1.000005699999998
 50
269.999989999999
 51
90.00000299999769
  0
ARC
  5
192E3
  8
AM_0
 10
173.89251635536129
 20
278.48185644960699
 30
0.0
 40
1.3350147999999991
 50
269.7304299999999
 51
90.269556000001415
  0
ARC
  5
192E4
  8
AM_0
 10
205.24755635536141
 20
295.82682644960698
 30
0.0
 40
1.0
 50
0.0
 51
90.00000299999769
  0
ARC
  5
192E5
  8
AM_0
 10
205.22753635536131
 20
295.96684644960698
 30
0.0
 40
1.5
 50
0.0
 51
90.00000299999769
  0
LINE
  5
192E6
  8
AM_0
 10
206.72753635536131
 20
290.96684644960698
 30
0.0
 11
206.72753635536131
 21
295.96684644960698
 31
0.0
  0
LINE
  5
192E7
  8
AM_0
 10
206.24755635536141
 20
290.96684644960698
 30
0.0
 11
206.24755635536141
 21
295.82682644960698
 31
0.0
  0
ARC
  5
192E8
  8
AM_0
 10
205.22753635536131
 20
290.96684644960698
 30
0.0
 40
1.02
 50
269.999989999999
 51
0.0000006832429909
  0
ARC
  5
192E9
  8
AM_0
 10
205.22753635536131
 20
290.96684644960698
 30
0.0
 40
1.5
 50
269.999989999999
 51
0.0000006832495047
  0
CIRCLE
  5
192EA
  8
AM_0
 10
211.72753635536131
 20
291.96684644960698
 30
0.0
 40
1.1000000000000001
  0
CIRCLE
  5
192EB
  8
AM_0
 10
211.72753635536131
 20
291.96684644960698
 30
0.0
 40
1.149999999999999
  0
CIRCLE
  5
192EC
  8
AM_0
 10
216.72753635536131
 20
291.96684644960698
 30
0.0
 40
1.0
  0
ARC
  5
192ED
  8
AM_0
 10
223.20751635536129
 20
295.82682644960698
 30
0.0
 40
1.0
 50
90.00000299999769
 51
180.00001000000091
  0
ARC
  5
192EE
  8
AM_0
 10
223.22753635536151
 20
295.96684644960698
 30
0.0
 40
1.5
 50
90.00000299999769
 51
180.00001000000091
  0
LINE
  5
192EF
  8
AM_0
 10
222.20751635536141
 20
290.96684644960698
 30
0.0
 11
222.20751635536141
 21
295.82682644960698
 31
0.0
  0
ARC
  5
192F0
  8
AM_0
 10
223.22753635536151
 20
290.96684644960698
 30
0.0
 40
1.02
 50
179.999989999999
 51
270.0
  0
LINE
  5
192F1
  8
AM_0
 10
221.72753635536131
 20
290.96684644960698
 30
0.0
 11
221.72753635536131
 21
295.96684644960698
 31
0.0
  0
ARC
  5
192F2
  8
AM_0
 10
223.22753635536151
 20
290.96684644960698
 30
0.0
 40
1.5
 50
179.999989999999
 51
270.0
  0
LINE
  5
192F3
  8
AM_0
 10
239.77773635536141
 20
328.20203644960691
 30
0.0
 11
242.46758635536119
 21
315.68681644960702
 31
0.0
  0
LINE
  5
192F4
  8
AM_0
 10
238.9675563553613
 20
323.84678644960678
 30
0.0
 11
242.4275463553613
 21
310.92683644960698
 31
0.0
  0
ARC
  5
192F5
  8
AM_0
 10
237.5675063553613
 20
288.46684644960692
 30
0.0
 40
1.000025599999997
 50
269.5894700000033
 51
90.410530999997775
  0
ARC
  5
192F6
  8
AM_0
 10
241.26751635536129
 20
288.4968764496071
 30
0.0
 40
1.460011199999999
 50
269.77524999999667
 51
90.224750000003354
  0
ARC
  5
192F7
  8
AM_0
 10
241.04754635536119
 20
298.516886449607
 30
0.0
 40
1.6800077
 50
269.999989999999
 51
90.00000299999769
  0
ARC
  5
192F8
  8
AM_0
 10
237.56756635536141
 20
298.46684644960709
 30
0.0
 40
1.0000040999999991
 50
269.999989999999
 51
90.00000299999769
  0
LINE
  5
192F9
  8
AM_0
 10
244.22753635536131
 20
300.6168664496069
 30
0.0
 11
252.22753635536151
 21
300.6168664496069
 31
0.0
  0
ARC
  5
192FA
  8
AM_0
 10
245.2266263553613
 20
314.50773644960702
 30
0.0
 40
0.9990923399999999
 50
89.947921999999295
 51
180.05208000000431
  0
ARC
  5
192FB
  8
AM_0
 10
243.87768635536119
 20
311.31913644960702
 30
0.0
 40
1.5022733999999991
 50
195.1365099999966
 51
269.99411999999722
  0
ARC
  5
192FC
  8
AM_0
 10
243.93322635536151
 20
316.00712644960697
 30
0.0
 40
1.500286
 50
192.32630999999509
 51
270.16416999999529
  0
LINE
  5
192FD
  8
AM_0
 10
243.93755635536149
 20
314.50687644960698
 30
0.0
 11
241.5175763553614
 21
314.50687644960698
 31
0.0
  0
LINE
  5
192FE
  8
AM_0
 10
245.22753635536139
 20
315.50687644960698
 30
0.0
 11
252.22753635536151
 21
315.50687644960698
 31
0.0
  0
ARC
  5
192FF
  8
AM_0
 10
245.22735635536151
 20
325.967086449607
 30
0.0
 40
0.99980682
 50
89.988930999997422
 51
180.0110699999974
  0
LINE
  5
19300
  8
AM_0
 10
240.68798635536129
 20
323.96684644960692
 30
0.0
 11
244.22753635536131
 21
323.96684644960692
 31
0.0
  0
ARC
  5
19301
  8
AM_0
 10
238.31121635536121
 20
327.88688644960689
 30
0.0
 40
1.5
 50
12.12979200000205
 51
90.00000299999769
  0
ARC
  5
19302
  8
AM_0
 10
237.03698635536151
 20
323.32768644960697
 30
0.0
 40
1.9991226
 50
15.05079100000003
 51
89.984388999999666
  0
ARC
  5
19303
  8
AM_0
 10
238.74749635536139
 20
325.85685644960699
 30
0.0
 40
1.5
 50
12.12979200000205
 51
90.00000299999769
  0
ARC
  5
19304
  8
AM_0
 10
238.45519635536129
 20
327.21684644960698
 30
0.0
 40
1.5
 50
12.12979200000205
 51
90.00000299999769
  0
LINE
  5
19305
  8
AM_0
 10
245.22753635536139
 20
326.96684644960681
 30
0.0
 11
252.22753635536151
 21
326.96684644960681
 31
0.0
  0
LINE
  5
19306
  8
AM_0
 10
49.727536355361607
 20
572.63285319409056
 30
0.0
 11
49.727536355361607
 21
491.65868754816609
 31
0.0
  0
LINE
  5
19307
  8
AM_0
 10
47.227576355361748
 20
505.408677548166
 30
0.0
 11
47.227576355361748
 21
493.65866754816602
 31
0.0
  0
LINE
  5
19308
  8
AM_0
 10
92.227576355361734
 20
540.65868054816588
 30
0.0
 11
92.227576355361734
 21
491.65868754816609
 31
0.0
  0
LINE
  5
19309
  8
AM_0
 10
56.307526355361787
 20
552.37868154816613
 30
0.0
 11
41.847526355361772
 21
596.88867654816602
 31
0.0
  0
LINE
  5
1930A
  8
AM_0
 10
61.06753635536176
 20
553.92867054816622
 30
0.0
 11
46.607536355361731
 21
598.42867254816576
 31
0.0
  0
LINE
  5
1930B
  8
AM_0
 10
49.727536355361607
 20
605.65866654816602
 30
0.0
 11
49.727536355361607
 21
588.82701236559444
 31
0.0
  0
LINE
  5
1930C
  8
AM_0
 10
92.227576355361734
 20
592.54866654816612
 30
0.0
 11
92.227576355361734
 21
605.65866654816602
 31
0.0
  0
LINE
  5
1930D
  8
AM_0
 10
49.227526355361647
 20
605.65866654816602
 30
0.0
 11
97.227526355361633
 21
605.65866654816602
 31
0.0
  0
ARC
  5
1930E
  8
AM_0
 10
44.227576355361741
 20
597.65868054816599
 30
0.0
 40
2.5014680099999991
 50
17.927930000001162
 51
197.92792000000139
  0
ARC
  5
1930F
  8
AM_0
 10
44.226676355361739
 20
597.66409854816629
 30
0.0
 40
3.0008441999999982
 50
359.89645599999858
 51
174.94180999999989
  0
LINE
  5
19310
  8
AM_0
 10
40.727536355361607
 20
597.15866754816614
 30
0.0
 11
40.937536355361658
 21
597.15866754816614
 31
0.0
  0
LINE
  5
19311
  8
AM_0
 10
40.727536355361607
 20
597.15866754816614
 30
0.0
 11
40.727536355361607
 21
597.65868054816599
 31
0.0
  0
ARC
  5
19312
  8
AM_0
 10
40.93516635536173
 20
597.96300354816628
 30
0.0
 40
0.304344
 50
270.4521829999976
 51
353.5222409000009
  0
ARC
  5
19313
  8
AM_0
 10
40.935946355361573
 20
597.9637505481661
 30
0.0
 40
0.8050760400000001
 50
270.11153400000148
 51
354.64936809999932
  0
ARC
  5
19314
  8
AM_0
 10
49.2222763553617
 20
603.6639605481663
 30
0.0
 40
1.9947200399999989
 50
89.848120000002893
 51
180.15187
  0
LINE
  5
19315
  8
AM_0
 10
47.227576355361748
 20
596.51866854816615
 30
0.0
 11
47.227576355361748
 21
603.65868354816632
 31
0.0
  0
LINE
  5
19316
  8
AM_0
 10
49.727536355361607
 20
592.54866654816612
 30
0.0
 11
97.227526355361633
 21
592.54866654816612
 31
0.0
  0
LINE
  5
19317
  8
AM_0
 10
49.727536355361607
 20
504.7686875481661
 30
0.0
 11
97.227526355361633
 21
504.7686875481661
 31
0.0
  0
LINE
  5
19318
  8
AM_0
 10
80.227576355361748
 20
556.65867954816611
 30
0.0
 11
97.227526355361633
 21
556.65867954816611
 31
0.0
  0
LINE
  5
19319
  8
AM_0
 10
80.227576355361748
 20
540.65868054816588
 30
0.0
 11
97.227526355361633
 21
540.65868054816588
 31
0.0
  0
LINE
  5
1931A
  8
AM_0
 10
47.227576355361748
 20
580.338657548166
 30
0.0
 11
47.227576355361748
 21
514.1286815481659
 31
0.0
  0
ARC
  5
1931B
  8
AM_0
 10
64.8699763553617
 20
555.16218954816611
 30
0.0
 40
9.0035201999999952
 50
198.0085499999997
 51
269.98447199999538
  0
LINE
  5
1931C
  8
ﾁｭｳｼﾝｾﾝ1
 10
80.227576355361748
 20
561.46621228048468
 30
0.0
 11
80.227576355361748
 21
535.85115081584775
 31
0.0
  0
LINE
  5
1931D
  8
AM_0
 10
74.727526355361647
 20
551.1586805481661
 30
0.0
 11
74.727526355361647
 21
546.15867954816611
 31
0.0
  0
LINE
  5
1931E
  8
AM_0
 10
88.227526355361647
 20
551.1586805481661
 30
0.0
 11
88.227526355361647
 21
546.15867954816611
 31
0.0
  0
LINE
  5
1931F
  8
AM_0
 10
85.727536355361622
 20
551.1586805481661
 30
0.0
 11
85.727536355361622
 21
546.15867954816611
 31
0.0
  0
LINE
  5
19320
  8
AM_0
 10
64.867546355361696
 20
551.1586805481661
 30
0.0
 11
74.727526355361647
 21
551.1586805481661
 31
0.0
  0
ARC
  5
19321
  8
AM_0
 10
47.275606355361667
 20
586.15855854816607
 30
0.0
 40
4.0504481999999991
 50
135.07940000000309
 51
260.93647999999939
  0
LINE
  5
19322
  8
AM_0
 10
49.727536355361607
 20
588.81867054816587
 30
0.0
 11
49.727536355361607
 21
592.54866654816612
 31
0.0
  0
ARC
  5
19323
  8
AM_0
 10
64.874116355361707
 20
555.1591985481665
 30
0.0
 40
4.0005161999999981
 50
197.91393000000031
 51
269.90591199999182
  0
LINE
  5
19324
  8
AM_0
 10
74.727526355361647
 20
550.65867954816611
 30
0.0
 11
85.727536355361622
 21
550.65867954816611
 31
0.0
  0
ARC
  5
19325
  8
AM_0
 10
80.222506355361574
 20
548.66466054816613
 30
0.0
 40
7.9940046000000002
 50
89.964180000002173
 51
161.82115999999769
  0
ARC
  5
19326
  8
AM_0
 10
80.227576355361748
 20
548.66469354816638
 30
0.0
 40
4.9952319000000003
 50
23.526710000001671
 51
156.47329999999539
  0
LINE
  5
19327
  8
AM_0
 10
85.727536355361622
 20
551.1586805481661
 30
0.0
 11
88.227526355361647
 21
551.1586805481661
 31
0.0
  0
LINE
  5
19328
  8
AM_0
 10
49.727536355361607
 20
515.01866454816604
 30
0.0
 11
92.227576355361734
 21
515.01866454816604
 31
0.0
  0
LINE
  5
19329
  8
AM_0
 10
64.867546355361696
 20
546.15867954816611
 30
0.0
 11
74.727526355361647
 21
546.15867954816611
 31
0.0
  0
LINE
  5
1932A
  8
AM_0
 10
45.127546355361673
 20
511.26866754816632
 30
0.0
 11
45.127546355361673
 21
508.26866754816638
 31
0.0
  0
LINE
  5
1932B
  8
AM_0
 10
48.427546355361642
 20
514.36866954816605
 30
0.0
 11
48.427546355361642
 21
505.1686775481661
 31
0.0
  0
ARC
  5
1932C
  8
AM_0
 10
48.125296355361691
 20
511.2761675481662
 30
0.0
 40
2.9977641899999981
 50
84.213409999997097
 51
180.14354999999841
  0
LINE
  5
1932D
  8
AM_0
 10
48.427546355361642
 20
514.36866954816605
 30
0.0
 11
49.727536355361607
 21
514.36866954816605
 31
0.0
  0
ARC
  5
1932E
  8
AM_0
 10
48.12535635536176
 20
508.27118754816621
 30
0.0
 40
2.99777994
 50
180.04789
 51
275.78611700000209
  0
LINE
  5
1932F
  8
AM_0
 10
48.427546355361642
 20
505.1686775481661
 30
0.0
 11
49.727536355361607
 21
505.1686775481661
 31
0.0
  0
ARC
  5
19330
  8
AM_0
 10
80.228266355361598
 20
548.6605715481661
 30
0.0
 40
8.0019083999999996
 50
198.21983999999759
 51
269.99482700000908
  0
LINE
  5
19331
  8
AM_0
 10
74.727526355361647
 20
546.6586805481661
 30
0.0
 11
85.727536355361622
 21
546.6586805481661
 31
0.0
  0
ARC
  5
19332
  8
AM_0
 10
80.227576355361748
 20
548.66469354816638
 30
0.0
 40
5.0000519999999984
 50
203.6532300000008
 51
336.34676999999931
  0
LINE
  5
19333
  8
AM_0
 10
85.727536355361622
 20
546.15867954816611
 30
0.0
 11
88.227526355361647
 21
546.15867954816611
 31
0.0
  0
LINE
  5
19334
  8
AM_0
 10
49.227526355361647
 20
491.65868754816609
 30
0.0
 11
97.227526355361633
 21
491.65868754816609
 31
0.0
  0
ARC
  5
19335
  8
AM_0
 10
49.228066355361648
 20
493.65923754816629
 30
0.0
 40
2.0005360199999989
 50
180.0153199999981
 51
269.98467100000192
  0
ARC
  5
1933A
  8
AM_0
 10
265.35412043283497
 20
199.96686144960719
 30
0.0
 40
2.0
 50
90.000000000001606
 51
143.1297442546975
1001
GENIUS_GENODEF_13
1002
{
1000
HIER
1070
     0
1002
}
1002
{
1000
MANEDIT
1070
     0
1002
}
1002
{
1000
NOSEL
1070
     0
1002
}
1002
{
1000
BEHIND
1070
     0
1002
}
1002
{
1000
OTHER
1070
     0
1002
}
1002
{
1000
REACTOR
1002
}
1001
GENIUS_GENOBJ-N-FIL_13
1002
{
1000
OWNER
1000
GEN
1002
}
  0
ARC
  5
1933C
  8
AM_0
 10
265.35414293295167
 20
326.9668414496075
 30
0.0
 40
2.0
 50
216.8698260261605
 51
269.99999999999841
1001
GENIUS_GENODEF_13
1002
{
1000
HIER
1070
     0
1002
}
1002
{
1000
MANEDIT
1070
     0
1002
}
1002
{
1000
NOSEL
1070
     0
1002
}
1002
{
1000
BEHIND
1070
     0
1002
}
1002
{
1000
OTHER
1070
     0
1002
}
1002
{
1000
REACTOR
1002
}
1001
GENIUS_GENOBJ-N-FIL_13
1002
{
1000
OWNER
1000
GEN
1002
}
  0
LINE
  5
19A44
  8
AM_0
 10
695.29200985317095
 20
328.45685194134569
 30
0.0
 11
703.62892764498565
 21
328.45685194134569
 31
0.0
  0
ARC
  5
19A46
  8
AM_0
 10
689.2929513194855
 20
325.95685194134592
 30
0.0
 40
2.4999999999999969
 50
36.318373132786469
 51
143.66321700904169
  0
LINE
  5
19A47
  8
AM_0
 10
689.2929513194855
 20
328.45685194134569
 30
0.0
 11
693.29463685139297
 21
328.45685194134569
 31
0.0
  0
LINE
  5
19A49
  8
AM_0
 10
687.49295131948509
 20
328.45685194134569
 30
0.0
 11
687.49295131948486
 21
327.69178709863519
 31
0.0
  0
LINE
  5
19A4D
  8
AM_0
 10
687.49295131948531
 20
328.45685194134597
 30
0.0
 11
685.29126578757769
 21
328.45685194134569
 31
0.0
  0
LINE
  5
19A50
  8
AM_0
 10
691.09295131948556
 20
328.45685194134569
 30
0.0
 11
691.09295131948591
 21
327.69178709863519
 31
0.0
  0
ARC
  5
19A52
  8
AM_0
 10
710.2929513194855
 20
298.4689180258286
 30
0.0
 40
29.999999999999979
 50
75.043338795978542
 51
88.374920016412489
1001
GENIUS_GENOBJ-N-FIL_13
1002
{
1000
OWNER
1000
GEN
1002
}
1001
GENIUS_GENODEF_13
1002
{
1000
HIER
1070
     0
1002
}
1002
{
1000
MANEDIT
1070
     0
1002
}
1002
{
1000
NOSEL
1070
     0
1002
}
1002
{
1000
BEHIND
1070
     0
1002
}
1002
{
1000
OTHER
1070
     0
1002
}
1002
{
1000
REACTOR
1002
}
  0
LINE
  5
19A53
  8
AM_0
 10
704.95611499398512
 20
328.45685194134569
 30
0.0
 11
711.14372712931106
 21
328.45685194134569
 31
0.0
  0
LINE
  5
19A57
  8
AM_0
 10
659.27604131948544
 20
193.45697144960741
 30
0.0
 11
719.32605131948549
 21
193.45697144960741
 31
0.0
  0
LINE
  5
19A58
  8
1
  6
CONTINUOUS
 62
     7
 10
708.15778623056258
 20
186.46685144960281
 30
0.0
 11
670.35778623056274
 21
186.46685144960281
 31
0.0
  0
LINE
  5
19A59
  8
1
  6
CONTINUOUS
 62
     7
 10
657.85778623055944
 20
152.4668514496031
 30
0.0
 11
720.65778623055905
 21
152.4668514496031
 31
0.0
  0
LINE
  5
19A5A
  8
1
  6
CONTINUOUS
 62
     7
 10
725.25778623056135
 20
165.46685144960281
 30
0.0
 11
653.25778623056124
 21
165.46685144960281
 31
0.0
  0
LINE
  5
19A5B
  8
0
 10
655.75779385995395
 20
188.9795514496077
 30
0.0
 11
722.75777860116455
 21
188.9795514496077
 31
0.0
  0
LINE
  5
19A5C
  8
1
  6
CONTINUOUS
 62
     7
 10
653.25778623055999
 20
169.46685144960301
 30
0.0
 11
683.75778623055976
 21
169.46685144960301
 31
0.0
  0
LINE
  5
19A5D
  8
1
  6
CONTINUOUS
 62
     7
 10
653.25778623056124
 20
185.46685144960301
 30
0.0
 11
653.25778623056124
 21
152.9668514496029
 31
0.0
  0
LINE
  5
19A5E
  8
1
  6
CONTINUOUS
 62
     7
 10
664.75778623056101
 20
185.46685144960301
 30
0.0
 11
664.75778623056101
 21
169.46685144960301
 31
0.0
  0
LINE
  5
19A5F
  8
1
  6
CONTINUOUS
 62
     7
 10
655.35778623055944
 20
164.00185144960309
 30
0.0
 11
655.35778623055944
 21
154.96685144960281
 31
0.0
  0
LINE
  5
19A60
  8
1
  6
CONTINUOUS
 62
     7
 10
665.62763471154233
 20
165.46685144960281
 30
0.0
 11
665.62763471154233
 21
154.96685144959881
 31
0.0
  0
POLYLINE
  5
19A61
  8
1
 62
     7
 66
     1
 10
0.0
 20
0.0
 30
0.0
 70
     8
  0
VERTEX
  5
19A62
  8
1
 62
     7
 10
665.62737142751689
 20
154.96680438452901
 30
0.0
 70
    32
  0
VERTEX
  5
19A63
  8
1
 62
     7
 10
665.62737142751689
 20
154.96280438452879
 30
0.0
 70
    32
  0
VERTEX
  5
19A64
  8
1
 62
     7
 10
665.62737142751689
 20
154.958804384529
 30
0.0
 70
    32
  0
VERTEX
  5
19A65
  8
1
 62
     7
 10
665.62737142751689
 20
154.95380438452901
 30
0.0
 70
    32
  0
VERTEX
  5
19A66
  8
1
 62
     7
 10
665.62737142751689
 20
154.9498043845289
 30
0.0
 70
    32
  0
VERTEX
  5
19A67
  8
1
 62
     7
 10
665.62737142751689
 20
154.94580438452951
 30
0.0
 70
    32
  0
VERTEX
  5
19A68
  8
1
 62
     7
 10
665.62737142751689
 20
154.94080438452909
 30
0.0
 70
    32
  0
VERTEX
  5
19A69
  8
1
 62
     7
 10
665.62837142751675
 20
154.93680438452901
 30
0.0
 70
    32
  0
VERTEX
  5
19A6A
  8
1
 62
     7
 10
665.62837142751675
 20
154.93280438452891
 30
0.0
 70
    32
  0
VERTEX
  5
19A6B
  8
1
 62
     7
 10
665.62837142751675
 20
154.92880438452909
 30
0.0
 70
    32
  0
VERTEX
  5
19A6C
  8
1
 62
     7
 10
665.62837142751675
 20
154.92380438452909
 30
0.0
 70
    32
  0
VERTEX
  5
19A6D
  8
1
 62
     7
 10
665.62837142751675
 20
154.9198043845289
 30
0.0
 70
    32
  0
VERTEX
  5
19A6E
  8
1
 62
     7
 10
665.62837142751675
 20
154.9158043845288
 30
0.0
 70
    32
  0
VERTEX
  5
19A6F
  8
1
 62
     7
 10
665.62837142751675
 20
154.91180438452901
 30
0.0
 70
    32
  0
VERTEX
  5
19A70
  8
1
 62
     7
 10
665.62837142751675
 20
154.90680438452901
 30
0.0
 70
    32
  0
VERTEX
  5
19A71
  8
1
 62
     7
 10
665.62837142751675
 20
154.90280438452891
 30
0.0
 70
    32
  0
VERTEX
  5
19A72
  8
1
 62
     7
 10
665.62837142751675
 20
154.89880438452909
 30
0.0
 70
    32
  0
VERTEX
  5
19A73
  8
1
 62
     7
 10
665.62837142751675
 20
154.89380438452909
 30
0.0
 70
    32
  0
VERTEX
  5
19A74
  8
1
 62
     7
 10
665.62837142751675
 20
154.88980438452899
 30
0.0
 70
    32
  0
VERTEX
  5
19A75
  8
1
 62
     7
 10
665.62837142751675
 20
154.8858043845288
 30
0.0
 70
    32
  0
VERTEX
  5
19A76
  8
1
 62
     7
 10
665.62837142751675
 20
154.881804384529
 30
0.0
 70
    32
  0
VERTEX
  5
19A77
  8
1
 62
     7
 10
665.62837142751675
 20
154.87680438452901
 30
0.0
 70
    32
  0
VERTEX
  5
19A78
  8
1
 62
     7
 10
665.62837142751675
 20
154.87280438452891
 30
0.0
 70
    32
  0
VERTEX
  5
19A79
  8
1
 62
     7
 10
665.62837142751675
 20
154.8688043845288
 30
0.0
 70
    32
  0
VERTEX
  5
19A7A
  8
1
 62
     7
 10
665.62837142751675
 20
154.86480438452929
 30
0.0
 70
    32
  0
VERTEX
  5
19A7B
  8
1
 62
     7
 10
665.6293714275165
 20
154.85980438452901
 30
0.0
 70
    32
  0
VERTEX
  5
19A7C
  8
1
 62
     7
 10
665.6293714275165
 20
154.85580438452891
 30
0.0
 70
    32
  0
VERTEX
  5
19A7D
  8
1
 62
     7
 10
665.6293714275165
 20
154.85180438452909
 30
0.0
 70
    32
  0
VERTEX
  5
19A7E
  8
1
 62
     7
 10
665.6293714275165
 20
154.8478043845293
 30
0.0
 70
    32
  0
VERTEX
  5
19A7F
  8
1
 62
     7
 10
665.6293714275165
 20
154.8428043845289
 30
0.0
 70
    32
  0
VERTEX
  5
19A80
  8
1
 62
     7
 10
665.6293714275165
 20
154.8388043845288
 30
0.0
 70
    32
  0
VERTEX
  5
19A81
  8
1
 62
     7
 10
665.6293714275165
 20
154.83480438452901
 30
0.0
 70
    32
  0
VERTEX
  5
19A82
  8
1
 62
     7
 10
665.6293714275165
 20
154.82980438452901
 30
0.0
 70
    32
  0
VERTEX
  5
19A83
  8
1
 62
     7
 10
665.6293714275165
 20
154.82580438452891
 30
0.0
 70
    32
  0
VERTEX
  5
19A84
  8
1
 62
     7
 10
665.6293714275165
 20
154.82180438452869
 30
0.0
 70
    32
  0
VERTEX
  5
19A85
  8
1
 62
     7
 10
665.63037142751682
 20
154.8178043845293
 30
0.0
 70
    32
  0
VERTEX
  5
19A86
  8
1
 62
     7
 10
665.63037142751682
 20
154.81280438452899
 30
0.0
 70
    32
  0
VERTEX
  5
19A87
  8
1
 62
     7
 10
665.63037142751682
 20
154.8088043845288
 30
0.0
 70
    32
  0
VERTEX
  5
19A88
  8
1
 62
     7
 10
665.63037142751682
 20
154.80480438452901
 30
0.0
 70
    32
  0
VERTEX
  5
19A89
  8
1
 62
     7
 10
665.63037142751682
 20
154.8008043845289
 30
0.0
 70
    32
  0
VERTEX
  5
19A8A
  8
1
 62
     7
 10
665.63037142751682
 20
154.79580438452891
 30
0.0
 70
    32
  0
VERTEX
  5
19A8B
  8
1
 62
     7
 10
665.63037142751682
 20
154.7918043845288
 30
0.0
 70
    32
  0
VERTEX
  5
19A8C
  8
1
 62
     7
 10
665.63137142751668
 20
154.7878043845293
 30
0.0
 70
    32
  0
VERTEX
  5
19A8D
  8
1
 62
     7
 10
665.63137142751668
 20
154.78380438452879
 30
0.0
 70
    32
  0
VERTEX
  5
19A8E
  8
1
 62
     7
 10
665.63137142751668
 20
154.77880438452891
 30
0.0
 70
    32
  0
VERTEX
  5
19A8F
  8
1
 62
     7
 10
665.63137142751668
 20
154.77480438452909
 30
0.0
 70
    32
  0
VERTEX
  5
19A90
  8
1
 62
     7
 10
665.63137142751668
 20
154.7708043845293
 30
0.0
 70
    32
  0
VERTEX
  5
19A91
  8
1
 62
     7
 10
665.63137142751668
 20
154.76580438452891
 30
0.0
 70
    32
  0
VERTEX
  5
19A92
  8
1
 62
     7
 10
665.63137142751668
 20
154.7618043845288
 30
0.0
 70
    32
  0
VERTEX
  5
19A93
  8
1
 62
     7
 10
665.63237142751689
 20
154.75780438452901
 30
0.0
 70
    32
  0
VERTEX
  5
19A94
  8
1
 62
     7
 10
665.63237142751689
 20
154.75380438452919
 30
0.0
 70
    32
  0
VERTEX
  5
19A95
  8
1
 62
     7
 10
665.63237142751689
 20
154.74880438452891
 30
0.0
 70
    32
  0
VERTEX
  5
19A96
  8
1
 62
     7
 10
665.63237142751689
 20
154.74480438452909
 30
0.0
 70
    32
  0
VERTEX
  5
19A97
  8
1
 62
     7
 10
665.63237142751689
 20
154.7408043845293
 30
0.0
 70
    32
  0
VERTEX
  5
19A98
  8
1
 62
     7
 10
665.63337142751652
 20
154.73680438452919
 30
0.0
 70
    32
  0
VERTEX
  5
19A99
  8
1
 62
     7
 10
665.63337142751652
 20
154.7318043845288
 30
0.0
 70
    32
  0
VERTEX
  5
19A9A
  8
1
 62
     7
 10
665.63337142751652
 20
154.7278043845287
 30
0.0
 70
    32
  0
VERTEX
  5
19A9B
  8
1
 62
     7
 10
665.63337142751652
 20
154.7238043845289
 30
0.0
 70
    32
  0
VERTEX
  5
19A9C
  8
1
 62
     7
 10
665.63337142751652
 20
154.719804384529
 30
0.0
 70
    32
  0
VERTEX
  5
19A9D
  8
1
 62
     7
 10
665.63337142751652
 20
154.7148043845288
 30
0.0
 70
    32
  0
VERTEX
  5
19A9E
  8
1
 62
     7
 10
665.63437142751661
 20
154.7108043845293
 30
0.0
 70
    32
  0
VERTEX
  5
19A9F
  8
1
 62
     7
 10
665.63437142751661
 20
154.70680438452919
 30
0.0
 70
    32
  0
VERTEX
  5
19AA0
  8
1
 62
     7
 10
665.63437142751661
 20
154.70280438452909
 30
0.0
 70
    32
  0
VERTEX
  5
19AA1
  8
1
 62
     7
 10
665.63437142751661
 20
154.69780438452909
 30
0.0
 70
    32
  0
VERTEX
  5
19AA2
  8
1
 62
     7
 10
665.63537142751682
 20
154.6938043845293
 30
0.0
 70
    32
  0
VERTEX
  5
19AA3
  8
1
 62
     7
 10
665.63537142751682
 20
154.68980438452911
 30
0.0
 70
    32
  0
VERTEX
  5
19AA4
  8
1
 62
     7
 10
665.63537142751682
 20
154.6848043845288
 30
0.0
 70
    32
  0
VERTEX
  5
19AA5
  8
1
 62
     7
 10
665.63537142751682
 20
154.68080438452901
 30
0.0
 70
    32
  0
VERTEX
  5
19AA6
  8
1
 62
     7
 10
665.63537142751682
 20
154.67680438452891
 30
0.0
 70
    32
  0
VERTEX
  5
19AA7
  8
1
 62
     7
 10
665.63637142751668
 20
154.67280438452909
 30
0.0
 70
    32
  0
VERTEX
  5
19AA8
  8
1
 62
     7
 10
665.63637142751668
 20
154.66780438452881
 30
0.0
 70
    32
  0
VERTEX
  5
19AA9
  8
1
 62
     7
 10
665.63637142751668
 20
154.6638043845293
 30
0.0
 70
    32
  0
VERTEX
  5
19AAA
  8
1
 62
     7
 10
665.63637142751668
 20
154.6598043845292
 30
0.0
 70
    32
  0
VERTEX
  5
19AAB
  8
1
 62
     7
 10
665.63737142751688
 20
154.65580438452901
 30
0.0
 70
    32
  0
VERTEX
  5
19AAC
  8
1
 62
     7
 10
665.63737142751688
 20
154.65080438452901
 30
0.0
 70
    32
  0
VERTEX
  5
19AAD
  8
1
 62
     7
 10
665.63737142751688
 20
154.64680438452891
 30
0.0
 70
    32
  0
VERTEX
  5
19AAE
  8
1
 62
     7
 10
665.63837142751652
 20
154.64280438452909
 30
0.0
 70
    32
  0
VERTEX
  5
19AAF
  8
1
 62
     7
 10
665.63837142751652
 20
154.63880438452901
 30
0.0
 70
    32
  0
VERTEX
  5
19AB0
  8
1
 62
     7
 10
665.63837142751652
 20
154.6338043845293
 30
0.0
 70
    32
  0
VERTEX
  5
19AB1
  8
1
 62
     7
 10
665.63837142751652
 20
154.62980438452891
 30
0.0
 70
    32
  0
VERTEX
  5
19AB2
  8
1
 62
     7
 10
665.63937142751683
 20
154.62580438452909
 30
0.0
 70
    32
  0
VERTEX
  5
19AB3
  8
1
 62
     7
 10
665.63937142751683
 20
154.6218043845289
 30
0.0
 70
    32
  0
VERTEX
  5
19AB4
  8
1
 62
     7
 10
665.63937142751683
 20
154.6168043845293
 30
0.0
 70
    32
  0
VERTEX
  5
19AB5
  8
1
 62
     7
 10
665.63937142751683
 20
154.6128043845292
 30
0.0
 70
    32
  0
VERTEX
  5
19AB6
  8
1
 62
     7
 10
665.6403714275167
 20
154.60880438452901
 30
0.0
 70
    32
  0
VERTEX
  5
19AB7
  8
1
 62
     7
 10
665.6403714275167
 20
154.6048043845289
 30
0.0
 70
    32
  0
VERTEX
  5
19AB8
  8
1
 62
     7
 10
665.6403714275167
 20
154.59980438452891
 30
0.0
 70
    32
  0
VERTEX
  5
19AB9
  8
1
 62
     7
 10
665.64137142751667
 20
154.59580438452909
 30
0.0
 70
    32
  0
VERTEX
  5
19ABA
  8
1
 62
     7
 10
665.64137142751667
 20
154.59180438452901
 30
0.0
 70
    32
  0
VERTEX
  5
19ABB
  8
1
 62
     7
 10
665.64137142751667
 20
154.5868043845293
 30
0.0
 70
    32
  0
VERTEX
  5
19ABC
  8
1
 62
     7
 10
665.64237142751676
 20
154.5828043845292
 30
0.0
 70
    32
  0
VERTEX
  5
19ABD
  8
1
 62
     7
 10
665.64237142751676
 20
154.57880438452901
 30
0.0
 70
    32
  0
VERTEX
  5
19ABE
  8
1
 62
     7
 10
665.64237142751676
 20
154.5748043845289
 30
0.0
 70
    32
  0
VERTEX
  5
19ABF
  8
1
 62
     7
 10
665.64337142751651
 20
154.56980438452919
 30
0.0
 70
    32
  0
VERTEX
  5
19AC0
  8
1
 62
     7
 10
665.64337142751651
 20
154.56580438452909
 30
0.0
 70
    32
  0
VERTEX
  5
19AC1
  8
1
 62
     7
 10
665.64337142751651
 20
154.56180438452901
 30
0.0
 70
    32
  0
VERTEX
  5
19AC2
  8
1
 62
     7
 10
665.64437142751683
 20
154.55780438452891
 30
0.0
 70
    32
  0
VERTEX
  5
19AC3
  8
1
 62
     7
 10
665.64437142751683
 20
154.5528043845292
 30
0.0
 70
    32
  0
VERTEX
  5
19AC4
  8
1
 62
     7
 10
665.64437142751683
 20
154.54880438452909
 30
0.0
 70
    32
  0
VERTEX
  5
19AC5
  8
1
 62
     7
 10
665.64537142751669
 20
154.5448043845289
 30
0.0
 70
    32
  0
VERTEX
  5
19AC6
  8
1
 62
     7
 10
665.64537142751669
 20
154.5408043845288
 30
0.0
 70
    32
  0
VERTEX
  5
19AC7
  8
1
 62
     7
 10
665.64537142751669
 20
154.5358043845292
 30
0.0
 70
    32
  0
VERTEX
  5
19AC8
  8
1
 62
     7
 10
665.64637142751678
 20
154.53180438452901
 30
0.0
 70
    32
  0
VERTEX
  5
19AC9
  8
1
 62
     7
 10
665.64637142751678
 20
154.52780438452891
 30
0.0
 70
    32
  0
VERTEX
  5
19ACA
  8
1
 62
     7
 10
665.64737142751653
 20
154.52380438452869
 30
0.0
 70
    32
  0
VERTEX
  5
19ACB
  8
1
 62
     7
 10
665.64737142751653
 20
154.51880438452909
 30
0.0
 70
    32
  0
VERTEX
  5
19ACC
  8
1
 62
     7
 10
665.64737142751653
 20
154.51480438452899
 30
0.0
 70
    32
  0
VERTEX
  5
19ACD
  8
1
 62
     7
 10
665.64837142751674
 20
154.5108043845288
 30
0.0
 70
    32
  0
VERTEX
  5
19ACE
  8
1
 62
     7
 10
665.64837142751674
 20
154.506804384529
 30
0.0
 70
    32
  0
VERTEX
  5
19ACF
  8
1
 62
     7
 10
665.64937142751683
 20
154.50180438452901
 30
0.0
 70
    32
  0
VERTEX
  5
19AD0
  8
1
 62
     7
 10
665.64937142751683
 20
154.49780438452891
 30
0.0
 70
    32
  0
VERTEX
  5
19AD1
  8
1
 62
     7
 10
665.64937142751683
 20
154.4938043845288
 30
0.0
 70
    32
  0
VERTEX
  5
19AD2
  8
1
 62
     7
 10
665.65037142751692
 20
154.48980438452929
 30
0.0
 70
    32
  0
VERTEX
  5
19AD3
  8
1
 62
     7
 10
665.65037142751692
 20
154.48480438452901
 30
0.0
 70
    32
  0
VERTEX
  5
19AD4
  8
1
 62
     7
 10
665.65137142751655
 20
154.48080438452891
 30
0.0
 70
    32
  0
VERTEX
  5
19AD5
  8
1
 62
     7
 10
665.65137142751655
 20
154.47680438452909
 30
0.0
 70
    32
  0
VERTEX
  5
19AD6
  8
1
 62
     7
 10
665.65237142751664
 20
154.4728043845289
 30
0.0
 70
    32
  0
VERTEX
  5
19AD7
  8
1
 62
     7
 10
665.65237142751664
 20
154.4678043845289
 30
0.0
 70
    32
  0
VERTEX
  5
19AD8
  8
1
 62
     7
 10
665.65237142751664
 20
154.4638043845288
 30
0.0
 70
    32
  0
VERTEX
  5
19AD9
  8
1
 62
     7
 10
665.65337142751673
 20
154.45980438452901
 30
0.0
 70
    32
  0
VERTEX
  5
19ADA
  8
1
 62
     7
 10
665.65337142751673
 20
154.45580438452919
 30
0.0
 70
    32
  0
VERTEX
  5
19ADB
  8
1
 62
     7
 10
665.65437142751671
 20
154.45080438452891
 30
0.0
 70
    32
  0
VERTEX
  5
19ADC
  8
1
 62
     7
 10
665.65437142751671
 20
154.4468043845288
 30
0.0
 70
    32
  0
VERTEX
  5
19ADD
  8
1
 62
     7
 10
665.65537142751691
 20
154.44280438452901
 30
0.0
 70
    32
  0
VERTEX
  5
19ADE
  8
1
 62
     7
 10
665.65537142751691
 20
154.43880438452919
 30
0.0
 70
    32
  0
VERTEX
  5
19ADF
  8
1
 62
     7
 10
665.65637142751655
 20
154.434804384529
 30
0.0
 70
    32
  0
VERTEX
  5
19AE0
  8
1
 62
     7
 10
665.65637142751655
 20
154.42980438452901
 30
0.0
 70
    32
  0
VERTEX
  5
19AE1
  8
1
 62
     7
 10
665.65737142751675
 20
154.4258043845293
 30
0.0
 70
    32
  0
VERTEX
  5
19AE2
  8
1
 62
     7
 10
665.65737142751675
 20
154.421804384529
 30
0.0
 70
    32
  0
VERTEX
  5
19AE3
  8
1
 62
     7
 10
665.65837142751695
 20
154.41780438452901
 30
0.0
 70
    32
  0
VERTEX
  5
19AE4
  8
1
 62
     7
 10
665.65837142751695
 20
154.4128043845293
 30
0.0
 70
    32
  0
VERTEX
  5
19AE5
  8
1
 62
     7
 10
665.65937142751704
 20
154.40880438452919
 30
0.0
 70
    32
  0
VERTEX
  5
19AE6
  8
1
 62
     7
 10
665.65937142751704
 20
154.40480438452909
 30
0.0
 70
    32
  0
VERTEX
  5
19AE7
  8
1
 62
     7
 10
665.66037142751645
 20
154.4008043845289
 30
0.0
 70
    32
  0
VERTEX
  5
19AE8
  8
1
 62
     7
 10
665.66037142751645
 20
154.3958043845289
 30
0.0
 70
    32
  0
VERTEX
  5
19AE9
  8
1
 62
     7
 10
665.66137142751677
 20
154.39180438452911
 30
0.0
 70
    32
  0
VERTEX
  5
19AEA
  8
1
 62
     7
 10
665.66137142751677
 20
154.38780438452901
 30
0.0
 70
    32
  0
VERTEX
  5
19AEB
  8
1
 62
     7
 10
665.66237142751675
 20
154.3838043845289
 30
0.0
 70
    32
  0
VERTEX
  5
19AEC
  8
1
 62
     7
 10
665.66237142751675
 20
154.37880438452919
 30
0.0
 70
    32
  0
VERTEX
  5
19AED
  8
1
 62
     7
 10
665.66337142751684
 20
154.37480438452911
 30
0.0
 70
    32
  0
VERTEX
  5
19AEE
  8
1
 62
     7
 10
665.66337142751684
 20
154.37080438452901
 30
0.0
 70
    32
  0
VERTEX
  5
19AEF
  8
1
 62
     7
 10
665.66437142751647
 20
154.36680438452879
 30
0.0
 70
    32
  0
VERTEX
  5
19AF0
  8
1
 62
     7
 10
665.66437142751647
 20
154.3618043845288
 30
0.0
 70
    32
  0
VERTEX
  5
19AF1
  8
1
 62
     7
 10
665.66537142751645
 20
154.357804384529
 30
0.0
 70
    32
  0
VERTEX
  5
19AF2
  8
1
 62
     7
 10
665.66537142751645
 20
154.3538043845289
 30
0.0
 70
    32
  0
VERTEX
  5
19AF3
  8
1
 62
     7
 10
665.66637142751676
 20
154.3498043845288
 30
0.0
 70
    32
  0
VERTEX
  5
19AF4
  8
1
 62
     7
 10
665.66637142751676
 20
154.345804384529
 30
0.0
 70
    32
  0
VERTEX
  5
19AF5
  8
1
 62
     7
 10
665.66737142751629
 20
154.34080438452901
 30
0.0
 70
    32
  0
VERTEX
  5
19AF6
  8
1
 62
     7
 10
665.66837142751695
 20
154.3368043845289
 30
0.0
 70
    32
  0
VERTEX
  5
19AF7
  8
1
 62
     7
 10
665.66837142751695
 20
154.33280438452871
 30
0.0
 70
    32
  0
VERTEX
  5
19AF8
  8
1
 62
     7
 10
665.66937142751647
 20
154.32880438452889
 30
0.0
 70
    32
  0
VERTEX
  5
19AF9
  8
1
 62
     7
 10
665.66937142751647
 20
154.3238043845289
 30
0.0
 70
    32
  0
VERTEX
  5
19AFA
  8
1
 62
     7
 10
665.67037142751644
 20
154.31980438452879
 30
0.0
 70
    32
  0
VERTEX
  5
19AFB
  8
1
 62
     7
 10
665.67037142751644
 20
154.31580438452929
 30
0.0
 70
    32
  0
VERTEX
  5
19AFC
  8
1
 62
     7
 10
665.67137142751665
 20
154.31180438452921
 30
0.0
 70
    32
  0
VERTEX
  5
19AFD
  8
1
 62
     7
 10
665.67237142751674
 20
154.3068043845289
 30
0.0
 70
    32
  0
VERTEX
  5
19AFE
  8
1
 62
     7
 10
665.67237142751674
 20
154.30280438452911
 30
0.0
 70
    32
  0
VERTEX
  5
19AFF
  8
1
 62
     7
 10
665.67337142751683
 20
154.29880438452901
 30
0.0
 70
    32
  0
VERTEX
  5
19B00
  8
1
 62
     7
 10
665.67337142751683
 20
154.29480438452919
 30
0.0
 70
    32
  0
VERTEX
  5
19B01
  8
1
 62
     7
 10
665.67437142751646
 20
154.290804384529
 30
0.0
 70
    32
  0
VERTEX
  5
19B02
  8
1
 62
     7
 10
665.67537142751644
 20
154.2858043845294
 30
0.0
 70
    32
  0
VERTEX
  5
19B03
  8
1
 62
     7
 10
665.67537142751644
 20
154.28180438452929
 30
0.0
 70
    32
  0
VERTEX
  5
19B04
  8
1
 62
     7
 10
665.67637142751676
 20
154.27780438452911
 30
0.0
 70
    32
  0
VERTEX
  5
19B05
  8
1
 62
     7
 10
665.67637142751676
 20
154.273804384529
 30
0.0
 70
    32
  0
VERTEX
  5
19B06
  8
1
 62
     7
 10
665.67737142751685
 20
154.26880438452901
 30
0.0
 70
    32
  0
VERTEX
  5
19B07
  8
1
 62
     7
 10
665.67837142751682
 20
154.26480438452921
 30
0.0
 70
    32
  0
VERTEX
  5
19B08
  8
1
 62
     7
 10
665.67837142751682
 20
154.26080438452911
 30
0.0
 70
    32
  0
VERTEX
  5
19B09
  8
1
 62
     7
 10
665.6793714275168
 20
154.25680438452889
 30
0.0
 70
    32
  0
VERTEX
  5
19B0A
  8
1
 62
     7
 10
665.68037142751666
 20
154.25280438452879
 30
0.0
 70
    32
  0
VERTEX
  5
19B0B
  8
1
 62
     7
 10
665.68037142751666
 20
154.2478043845291
 30
0.0
 70
    32
  0
VERTEX
  5
19B0C
  8
1
 62
     7
 10
665.68137142751698
 20
154.243804384529
 30
0.0
 70
    32
  0
VERTEX
  5
19B0D
  8
1
 62
     7
 10
665.68137142751698
 20
154.2398043845289
 30
0.0
 70
    32
  0
VERTEX
  5
19B0E
  8
1
 62
     7
 10
665.68237142751684
 20
154.23580438452939
 30
0.0
 70
    32
  0
VERTEX
  5
19B0F
  8
1
 62
     7
 10
665.68337142751648
 20
154.23080438452911
 30
0.0
 70
    32
  0
VERTEX
  5
19B10
  8
1
 62
     7
 10
665.68337142751648
 20
154.226804384529
 30
0.0
 70
    32
  0
VERTEX
  5
19B11
  8
1
 62
     7
 10
665.68437142751611
 20
154.2228043845291
 30
0.0
 70
    32
  0
VERTEX
  5
19B12
  8
1
 62
     7
 10
665.68537142751666
 20
154.21880438452899
 30
0.0
 70
    32
  0
VERTEX
  5
19B13
  8
1
 62
     7
 10
665.68537142751666
 20
154.2148043845292
 30
0.0
 70
    32
  0
VERTEX
  5
19B14
  8
1
 62
     7
 10
665.68637142751697
 20
154.20980438452889
 30
0.0
 70
    32
  0
VERTEX
  5
19B15
  8
1
 62
     7
 10
665.68737142751684
 20
154.20580438452879
 30
0.0
 70
    32
  0
VERTEX
  5
19B16
  8
1
 62
     7
 10
665.68737142751684
 20
154.20180438452931
 30
0.0
 70
    32
  0
VERTEX
  5
19B17
  8
1
 62
     7
 10
665.68837142751681
 20
154.19780438452921
 30
0.0
 70
    32
  0
VERTEX
  5
19B18
  8
1
 62
     7
 10
665.68937142751679
 20
154.19280438452881
 30
0.0
 70
    32
  0
VERTEX
  5
19B19
  8
1
 62
     7
 10
665.68937142751679
 20
154.18880438452911
 30
0.0
 70
    32
  0
VERTEX
  5
19B1A
  8
1
 62
     7
 10
665.69037142751665
 20
154.18480438452889
 30
0.0
 70
    32
  0
VERTEX
  5
19B1B
  8
1
 62
     7
 10
665.69137142751674
 20
154.1808043845291
 30
0.0
 70
    32
  0
VERTEX
  5
19B1C
  8
1
 62
     7
 10
665.6923714275166
 20
154.17680438452899
 30
0.0
 70
    32
  0
VERTEX
  5
19B1D
  8
1
 62
     7
 10
665.6923714275166
 20
154.171804384529
 30
0.0
 70
    32
  0
VERTEX
  5
19B1E
  8
1
 62
     7
 10
665.69337142751635
 20
154.16780438452889
 30
0.0
 70
    32
  0
VERTEX
  5
19B1F
  8
1
 62
     7
 10
665.69437142751644
 20
154.1638043845291
 30
0.0
 70
    32
  0
VERTEX
  5
19B20
  8
1
 62
     7
 10
665.69437142751644
 20
154.15980438452891
 30
0.0
 70
    32
  0
VERTEX
  5
19B21
  8
1
 62
     7
 10
665.6953714275171
 20
154.15580438452881
 30
0.0
 70
    32
  0
VERTEX
  5
19B22
  8
1
 62
     7
 10
665.69637142751674
 20
154.15080438452921
 30
0.0
 70
    32
  0
VERTEX
  5
19B23
  8
1
 62
     7
 10
665.69737142751649
 20
154.14680438452899
 30
0.0
 70
    32
  0
VERTEX
  5
19B24
  8
1
 62
     7
 10
665.69737142751649
 20
154.14280438452889
 30
0.0
 70
    32
  0
VERTEX
  5
19B25
  8
1
 62
     7
 10
665.6983714275168
 20
154.13880438452881
 30
0.0
 70
    32
  0
VERTEX
  5
19B26
  8
1
 62
     7
 10
665.69937142751655
 20
154.13480438452899
 30
0.0
 70
    32
  0
VERTEX
  5
19B27
  8
1
 62
     7
 10
665.70037142751687
 20
154.129804384529
 30
0.0
 70
    32
  0
VERTEX
  5
19B28
  8
1
 62
     7
 10
665.70037142751687
 20
154.12580438452889
 30
0.0
 70
    32
  0
VERTEX
  5
19B29
  8
1
 62
     7
 10
665.70137142751662
 20
154.1218043845289
 30
0.0
 70
    32
  0
VERTEX
  5
19B2A
  8
1
 62
     7
 10
665.70237142751637
 20
154.11780438452931
 30
0.0
 70
    32
  0
VERTEX
  5
19B2B
  8
1
 62
     7
 10
665.7033714275168
 20
154.11380438452909
 30
0.0
 70
    32
  0
VERTEX
  5
19B2C
  8
1
 62
     7
 10
665.7033714275168
 20
154.10880438452881
 30
0.0
 70
    32
  0
VERTEX
  5
19B2D
  8
1
 62
     7
 10
665.70437142751666
 20
154.1048043845293
 30
0.0
 70
    32
  0
VERTEX
  5
19B2E
  8
1
 62
     7
 10
665.70537142751687
 20
154.1008043845292
 30
0.0
 70
    32
  0
VERTEX
  5
19B2F
  8
1
 62
     7
 10
665.70637142751661
 20
154.09680438452909
 30
0.0
 70
    32
  0
VERTEX
  5
19B30
  8
1
 62
     7
 10
665.70637142751661
 20
154.0928043845289
 30
0.0
 70
    32
  0
VERTEX
  5
19B31
  8
1
 62
     7
 10
665.70737142751682
 20
154.08780438452931
 30
0.0
 70
    32
  0
VERTEX
  5
19B32
  8
1
 62
     7
 10
665.70837142751668
 20
154.08380438452909
 30
0.0
 70
    32
  0
VERTEX
  5
19B33
  8
1
 62
     7
 10
665.70937142751688
 20
154.07980438452901
 30
0.0
 70
    32
  0
VERTEX
  5
19B34
  8
1
 62
     7
 10
665.71037142751652
 20
154.07580438452891
 30
0.0
 70
    32
  0
VERTEX
  5
19B35
  8
1
 62
     7
 10
665.71037142751652
 20
154.0718043845288
 30
0.0
 70
    32
  0
VERTEX
  5
19B36
  8
1
 62
     7
 10
665.7113714275165
 20
154.06680438452909
 30
0.0
 70
    32
  0
VERTEX
  5
19B37
  8
1
 62
     7
 10
665.71237142751681
 20
154.06280438452899
 30
0.0
 70
    32
  0
VERTEX
  5
19B38
  8
1
 62
     7
 10
665.71337142751668
 20
154.0588043845288
 30
0.0
 70
    32
  0
VERTEX
  5
19B39
  8
1
 62
     7
 10
665.71437142751688
 20
154.05480438452909
 30
0.0
 70
    32
  0
VERTEX
  5
19B3A
  8
1
 62
     7
 10
665.71437142751688
 20
154.05080438452919
 30
0.0
 70
    32
  0
VERTEX
  5
19B3B
  8
1
 62
     7
 10
665.71537142751674
 20
154.0458043845293
 30
0.0
 70
    32
  0
VERTEX
  5
19B3C
  8
1
 62
     7
 10
665.71637142751683
 20
154.041804384529
 30
0.0
 70
    32
  0
VERTEX
  5
19B3D
  8
1
 62
     7
 10
665.71737142751681
 20
154.0378043845293
 30
0.0
 70
    32
  0
VERTEX
  5
19B3E
  8
1
 62
     7
 10
665.71837142751667
 20
154.03380438452919
 30
0.0
 70
    32
  0
VERTEX
  5
19B3F
  8
1
 62
     7
 10
665.71937142751688
 20
154.02980438452909
 30
0.0
 70
    32
  0
VERTEX
  5
19B40
  8
1
 62
     7
 10
665.71937142751688
 20
154.0258043845289
 30
0.0
 70
    32
  0
VERTEX
  5
19B41
  8
1
 62
     7
 10
665.72037142751651
 20
154.0208043845289
 30
0.0
 70
    32
  0
VERTEX
  5
19B42
  8
1
 62
     7
 10
665.72137142751683
 20
154.01680438452911
 30
0.0
 70
    32
  0
VERTEX
  5
19B43
  8
1
 62
     7
 10
665.7223714275168
 20
154.01280438452901
 30
0.0
 70
    32
  0
VERTEX
  5
19B44
  8
1
 62
     7
 10
665.72337142751667
 20
154.0088043845289
 30
0.0
 70
    32
  0
VERTEX
  5
19B45
  8
1
 62
     7
 10
665.72437142751664
 20
154.00480438452871
 30
0.0
 70
    32
  0
VERTEX
  5
19B46
  8
1
 62
     7
 10
665.72537142751673
 20
153.99980438452911
 30
0.0
 70
    32
  0
VERTEX
  5
19B47
  8
1
 62
     7
 10
665.72537142751673
 20
153.99580438452901
 30
0.0
 70
    32
  0
VERTEX
  5
19B48
  8
1
 62
     7
 10
665.72637142751682
 20
153.99180438452919
 30
0.0
 70
    32
  0
VERTEX
  5
19B49
  8
1
 62
     7
 10
665.72737142751691
 20
153.9878043845294
 30
0.0
 70
    32
  0
VERTEX
  5
19B4A
  8
1
 62
     7
 10
665.72837142751666
 20
153.98380438452929
 30
0.0
 70
    32
  0
VERTEX
  5
19B4B
  8
1
 62
     7
 10
665.72937142751653
 20
153.9798043845291
 30
0.0
 70
    32
  0
VERTEX
  5
19B4C
  8
1
 62
     7
 10
665.73037142751673
 20
153.9748043845288
 30
0.0
 70
    32
  0
VERTEX
  5
19B4D
  8
1
 62
     7
 10
665.73137142751682
 20
153.970804384529
 30
0.0
 70
    32
  0
VERTEX
  5
19B4E
  8
1
 62
     7
 10
665.73237142751691
 20
153.96680438452881
 30
0.0
 70
    32
  0
VERTEX
  5
19B4F
  8
1
 62
     7
 10
665.73337142751654
 20
153.96280438452899
 30
0.0
 70
    32
  0
VERTEX
  5
19B50
  8
1
 62
     7
 10
665.73337142751654
 20
153.95880438452889
 30
0.0
 70
    32
  0
VERTEX
  5
19B51
  8
1
 62
     7
 10
665.73437142751629
 20
153.95480438452881
 30
0.0
 70
    32
  0
VERTEX
  5
19B52
  8
1
 62
     7
 10
665.73537142751707
 20
153.9498043845291
 30
0.0
 70
    32
  0
VERTEX
  5
19B53
  8
1
 62
     7
 10
665.73637142751704
 20
153.945804384529
 30
0.0
 70
    32
  0
VERTEX
  5
19B54
  8
1
 62
     7
 10
665.73737142751645
 20
153.94180438452889
 30
0.0
 70
    32
  0
VERTEX
  5
19B55
  8
1
 62
     7
 10
665.73837142751665
 20
153.9378043845291
 30
0.0
 70
    32
  0
VERTEX
  5
19B56
  8
1
 62
     7
 10
665.73937142751674
 20
153.93380438452931
 30
0.0
 70
    32
  0
VERTEX
  5
19B57
  8
1
 62
     7
 10
665.74037142751683
 20
153.92980438452921
 30
0.0
 70
    32
  0
VERTEX
  5
19B58
  8
1
 62
     7
 10
665.7413714275167
 20
153.92480438452881
 30
0.0
 70
    32
  0
VERTEX
  5
19B59
  8
1
 62
     7
 10
665.74237142751645
 20
153.92080438452899
 30
0.0
 70
    32
  0
VERTEX
  5
19B5A
  8
1
 62
     7
 10
665.74337142751642
 20
153.9168043845292
 30
0.0
 70
    32
  0
VERTEX
  5
19B5B
  8
1
 62
     7
 10
665.74437142751685
 20
153.9128043845291
 30
0.0
 70
    32
  0
VERTEX
  5
19B5C
  8
1
 62
     7
 10
665.74537142751694
 20
153.90880438452899
 30
0.0
 70
    32
  0
VERTEX
  5
19B5D
  8
1
 62
     7
 10
665.74637142751658
 20
153.9048043845288
 30
0.0
 70
    32
  0
VERTEX
  5
19B5E
  8
1
 62
     7
 10
665.74737142751644
 20
153.89980438452881
 30
0.0
 70
    32
  0
VERTEX
  5
19B5F
  8
1
 62
     7
 10
665.74837142751664
 20
153.8958043845291
 30
0.0
 70
    32
  0
VERTEX
  5
19B60
  8
1
 62
     7
 10
665.74937142751673
 20
153.89180438452919
 30
0.0
 70
    32
  0
VERTEX
  5
19B61
  8
1
 62
     7
 10
665.75037142751682
 20
153.88780438452881
 30
0.0
 70
    32
  0
VERTEX
  5
19B62
  8
1
 62
     7
 10
665.75137142751657
 20
153.8838043845293
 30
0.0
 70
    32
  0
VERTEX
  5
19B63
  8
1
 62
     7
 10
665.75237142751644
 20
153.87980438452919
 30
0.0
 70
    32
  0
VERTEX
  5
19B64
  8
1
 62
     7
 10
665.75337142751675
 20
153.87580438452909
 30
0.0
 70
    32
  0
VERTEX
  5
19B65
  8
1
 62
     7
 10
665.75437142751696
 20
153.8708043845287
 30
0.0
 70
    32
  0
VERTEX
  5
19B66
  8
1
 62
     7
 10
665.75537142751671
 20
153.8668043845289
 30
0.0
 70
    32
  0
VERTEX
  5
19B67
  8
1
 62
     7
 10
665.75637142751657
 20
153.86280438452911
 30
0.0
 70
    32
  0
VERTEX
  5
19B68
  8
1
 62
     7
 10
665.75737142751677
 20
153.85880438452901
 30
0.0
 70
    32
  0
VERTEX
  5
19B69
  8
1
 62
     7
 10
665.75837142751675
 20
153.8548043845289
 30
0.0
 70
    32
  0
VERTEX
  5
19B6A
  8
1
 62
     7
 10
665.75937142751684
 20
153.8508043845288
 30
0.0
 70
    32
  0
VERTEX
  5
19B6B
  8
1
 62
     7
 10
665.76037142751659
 20
153.84580438452909
 30
0.0
 70
    32
  0
VERTEX
  5
19B6C
  8
1
 62
     7
 10
665.76137142751622
 20
153.84180438452901
 30
0.0
 70
    32
  0
VERTEX
  5
19B6D
  8
1
 62
     7
 10
665.76237142751665
 20
153.83780438452919
 30
0.0
 70
    32
  0
VERTEX
  5
19B6E
  8
1
 62
     7
 10
665.76337142751674
 20
153.8338043845294
 30
0.0
 70
    32
  0
VERTEX
  5
19B6F
  8
1
 62
     7
 10
665.76437142751683
 20
153.82980438452921
 30
0.0
 70
    32
  0
VERTEX
  5
19B70
  8
1
 62
     7
 10
665.76537142751647
 20
153.82580438452911
 30
0.0
 70
    32
  0
VERTEX
  5
19B71
  8
1
 62
     7
 10
665.7663714275169
 20
153.821804384529
 30
0.0
 70
    32
  0
VERTEX
  5
19B72
  8
1
 62
     7
 10
665.76737142751665
 20
153.8178043845289
 30
0.0
 70
    32
  0
VERTEX
  5
19B73
  8
1
 62
     7
 10
665.76837142751674
 20
153.81280438452879
 30
0.0
 70
    32
  0
VERTEX
  5
19B74
  8
1
 62
     7
 10
665.7693714275166
 20
153.80880438452911
 30
0.0
 70
    32
  0
VERTEX
  5
19B75
  8
1
 62
     7
 10
665.77037142751635
 20
153.80480438452889
 30
0.0
 70
    32
  0
VERTEX
  5
19B76
  8
1
 62
     7
 10
665.77237142751653
 20
153.80080438452879
 30
0.0
 70
    32
  0
VERTEX
  5
19B77
  8
1
 62
     7
 10
665.77337142751674
 20
153.79680438452931
 30
0.0
 70
    32
  0
VERTEX
  5
19B78
  8
1
 62
     7
 10
665.7743714275166
 20
153.79280438452909
 30
0.0
 70
    32
  0
VERTEX
  5
19B79
  8
1
 62
     7
 10
665.7753714275168
 20
153.7888043845291
 30
0.0
 70
    32
  0
VERTEX
  5
19B7A
  8
1
 62
     7
 10
665.77637142751666
 20
153.78480438452891
 30
0.0
 70
    32
  0
VERTEX
  5
19B7B
  8
1
 62
     7
 10
665.77737142751675
 20
153.77980438452931
 30
0.0
 70
    32
  0
VERTEX
  5
19B7C
  8
1
 62
     7
 10
665.77837142751673
 20
153.77580438452921
 30
0.0
 70
    32
  0
VERTEX
  5
19B7D
  8
1
 62
     7
 10
665.77937142751648
 20
153.77180438452899
 30
0.0
 70
    32
  0
VERTEX
  5
19B7E
  8
1
 62
     7
 10
665.7803714275168
 20
153.76780438452889
 30
0.0
 70
    32
  0
VERTEX
  5
19B7F
  8
1
 62
     7
 10
665.78237142751675
 20
153.76380438452881
 30
0.0
 70
    32
  0
VERTEX
  5
19B80
  8
1
 62
     7
 10
665.78337142751661
 20
153.7598043845293
 30
0.0
 70
    32
  0
VERTEX
  5
19B81
  8
1
 62
     7
 10
665.78437142751682
 20
153.7558043845292
 30
0.0
 70
    32
  0
VERTEX
  5
19B82
  8
1
 62
     7
 10
665.78537142751679
 20
153.75180438452901
 30
0.0
 70
    32
  0
VERTEX
  5
19B83
  8
1
 62
     7
 10
665.78637142751666
 20
153.7468043845291
 30
0.0
 70
    32
  0
VERTEX
  5
19B84
  8
1
 62
     7
 10
665.78737142751652
 20
153.74280438452919
 30
0.0
 70
    32
  0
VERTEX
  5
19B85
  8
1
 62
     7
 10
665.78837142751661
 20
153.73880438452909
 30
0.0
 70
    32
  0
VERTEX
  5
19B86
  8
1
 62
     7
 10
665.79037142751679
 20
153.73480438452901
 30
0.0
 70
    32
  0
VERTEX
  5
19B87
  8
1
 62
     7
 10
665.79137142751665
 20
153.73080438452891
 30
0.0
 70
    32
  0
VERTEX
  5
19B88
  8
1
 62
     7
 10
665.79237142751651
 20
153.72680438452909
 30
0.0
 70
    32
  0
VERTEX
  5
19B89
  8
1
 62
     7
 10
665.7933714275166
 20
153.7228043845289
 30
0.0
 70
    32
  0
VERTEX
  5
19B8A
  8
1
 62
     7
 10
665.79437142751681
 20
153.71880438452911
 30
0.0
 70
    32
  0
VERTEX
  5
19B8B
  8
1
 62
     7
 10
665.79537142751667
 20
153.714804384529
 30
0.0
 70
    32
  0
VERTEX
  5
19B8C
  8
1
 62
     7
 10
665.79737142751651
 20
153.7108043845289
 30
0.0
 70
    32
  0
VERTEX
  5
19B8D
  8
1
 62
     7
 10
665.79837142751683
 20
153.70580438452919
 30
0.0
 70
    32
  0
VERTEX
  5
19B8E
  8
1
 62
     7
 10
665.7993714275168
 20
153.70180438452911
 30
0.0
 70
    32
  0
VERTEX
  5
19B8F
  8
1
 62
     7
 10
665.80037142751667
 20
153.69780438452901
 30
0.0
 70
    32
  0
VERTEX
  5
19B90
  8
1
 62
     7
 10
665.80137142751653
 20
153.69380438452879
 30
0.0
 70
    32
  0
VERTEX
  5
19B91
  8
1
 62
     7
 10
665.80337142751682
 20
153.689804384529
 30
0.0
 70
    32
  0
VERTEX
  5
19B92
  8
1
 62
     7
 10
665.8043714275168
 20
153.68580438452921
 30
0.0
 70
    32
  0
VERTEX
  5
19B93
  8
1
 62
     7
 10
665.80537142751666
 20
153.6818043845291
 30
0.0
 70
    32
  0
VERTEX
  5
19B94
  8
1
 62
     7
 10
665.80637142751652
 20
153.677804384529
 30
0.0
 70
    32
  0
VERTEX
  5
19B95
  8
1
 62
     7
 10
665.80837142751682
 20
153.67380438452881
 30
0.0
 70
    32
  0
VERTEX
  5
19B96
  8
1
 62
     7
 10
665.80937142751668
 20
153.6698043845287
 30
0.0
 70
    32
  0
VERTEX
  5
19B97
  8
1
 62
     7
 10
665.81037142751643
 20
153.6658043845292
 30
0.0
 70
    32
  0
VERTEX
  5
19B98
  8
1
 62
     7
 10
665.81137142751675
 20
153.66080438452889
 30
0.0
 70
    32
  0
VERTEX
  5
19B99
  8
1
 62
     7
 10
665.81337142751704
 20
153.65680438452881
 30
0.0
 70
    32
  0
VERTEX
  5
19B9A
  8
1
 62
     7
 10
665.81437142751656
 20
153.65280438452899
 30
0.0
 70
    32
  0
VERTEX
  5
19B9B
  8
1
 62
     7
 10
665.81537142751665
 20
153.6488043845292
 30
0.0
 70
    32
  0
VERTEX
  5
19B9C
  8
1
 62
     7
 10
665.81637142751674
 20
153.6448043845291
 30
0.0
 70
    32
  0
VERTEX
  5
19B9D
  8
1
 62
     7
 10
665.81837142751681
 20
153.64080438452891
 30
0.0
 70
    32
  0
VERTEX
  5
19B9E
  8
1
 62
     7
 10
665.81937142751644
 20
153.6368043845288
 30
0.0
 70
    32
  0
VERTEX
  5
19B9F
  8
1
 62
     7
 10
665.82037142751687
 20
153.63280438452929
 30
0.0
 70
    32
  0
VERTEX
  5
19BA0
  8
1
 62
     7
 10
665.82137142751685
 20
153.62880438452919
 30
0.0
 70
    32
  0
VERTEX
  5
19BA1
  8
1
 62
     7
 10
665.82337142751669
 20
153.62480438452911
 30
0.0
 70
    32
  0
VERTEX
  5
19BA2
  8
1
 62
     7
 10
665.82437142751644
 20
153.62080438452901
 30
0.0
 70
    32
  0
VERTEX
  5
19BA3
  8
1
 62
     7
 10
665.82537142751676
 20
153.61680438452879
 30
0.0
 70
    32
  0
VERTEX
  5
19BA4
  8
1
 62
     7
 10
665.82737142751682
 20
153.612804384529
 30
0.0
 70
    32
  0
VERTEX
  5
19BA5
  8
1
 62
     7
 10
665.82837142751657
 20
153.607804384529
 30
0.0
 70
    32
  0
VERTEX
  5
19BA6
  8
1
 62
     7
 10
665.82937142751643
 20
153.6038043845289
 30
0.0
 70
    32
  0
VERTEX
  5
19BA7
  8
1
 62
     7
 10
665.83137142751684
 20
153.5998043845288
 30
0.0
 70
    32
  0
VERTEX
  5
19BA8
  8
1
 62
     7
 10
665.83237142751682
 20
153.595804384529
 30
0.0
 70
    32
  0
VERTEX
  5
19BA9
  8
1
 62
     7
 10
665.83337142751657
 20
153.5918043845289
 30
0.0
 70
    32
  0
VERTEX
  5
19BAA
  8
1
 62
     7
 10
665.83537142751675
 20
153.58780438452911
 30
0.0
 70
    32
  0
VERTEX
  5
19BAB
  8
1
 62
     7
 10
665.83637142751684
 20
153.58380438452889
 30
0.0
 70
    32
  0
VERTEX
  5
19BAC
  8
1
 62
     7
 10
665.8373714275167
 20
153.57980438452881
 30
0.0
 70
    32
  0
VERTEX
  5
19BAD
  8
1
 62
     7
 10
665.83937142751688
 20
153.57580438452899
 30
0.0
 70
    32
  0
VERTEX
  5
19BAE
  8
1
 62
     7
 10
665.84037142751708
 20
153.57180438452889
 30
0.0
 70
    32
  0
VERTEX
  5
19BAF
  8
1
 62
     7
 10
665.84137142751683
 20
153.5678043845291
 30
0.0
 70
    32
  0
VERTEX
  5
19BB0
  8
1
 62
     7
 10
665.8433714275169
 20
153.56380438452891
 30
0.0
 70
    32
  0
VERTEX
  5
19BB1
  8
1
 62
     7
 10
665.84437142751676
 20
153.5598043845288
 30
0.0
 70
    32
  0
VERTEX
  5
19BB2
  8
1
 62
     7
 10
665.84537142751674
 20
153.55580438452941
 30
0.0
 70
    32
  0
VERTEX
  5
19BB3
  8
1
 62
     7
 10
665.84737142751646
 20
153.55180438452919
 30
0.0
 70
    32
  0
VERTEX
  5
19BB4
  8
1
 62
     7
 10
665.84837142751644
 20
153.54780438452909
 30
0.0
 70
    32
  0
VERTEX
  5
19BB5
  8
1
 62
     7
 10
665.85037142751673
 20
153.54380438452901
 30
0.0
 70
    32
  0
VERTEX
  5
19BB6
  8
1
 62
     7
 10
665.8513714275166
 20
153.53980438452879
 30
0.0
 70
    32
  0
VERTEX
  5
19BB7
  8
1
 62
     7
 10
665.8523714275168
 20
153.535804384529
 30
0.0
 70
    32
  0
VERTEX
  5
19BB8
  8
1
 62
     7
 10
665.85437142751675
 20
153.5318043845289
 30
0.0
 70
    32
  0
VERTEX
  5
19BB9
  8
1
 62
     7
 10
665.85537142751673
 20
153.52780438452911
 30
0.0
 70
    32
  0
VERTEX
  5
19BBA
  8
1
 62
     7
 10
665.8573714275168
 20
153.523804384529
 30
0.0
 70
    32
  0
VERTEX
  5
19BBB
  8
1
 62
     7
 10
665.85837142751677
 20
153.5198043845289
 30
0.0
 70
    32
  0
VERTEX
  5
19BBC
  8
1
 62
     7
 10
665.85937142751675
 20
153.51580438452899
 30
0.0
 70
    32
  0
VERTEX
  5
19BBD
  8
1
 62
     7
 10
665.86137142751681
 20
153.51180438452931
 30
0.0
 70
    32
  0
VERTEX
  5
19BBE
  8
1
 62
     7
 10
665.86237142751679
 20
153.50780438452909
 30
0.0
 70
    32
  0
VERTEX
  5
19BBF
  8
1
 62
     7
 10
665.86437142751629
 20
153.50280438452879
 30
0.0
 70
    32
  0
VERTEX
  5
19BC0
  8
1
 62
     7
 10
665.86537142751661
 20
153.498804384529
 30
0.0
 70
    32
  0
VERTEX
  5
19BC1
  8
1
 62
     7
 10
665.86737142751679
 20
153.4948043845292
 30
0.0
 70
    32
  0
VERTEX
  5
19BC2
  8
1
 62
     7
 10
665.86837142751665
 20
153.4908043845291
 30
0.0
 70
    32
  0
VERTEX
  5
19BC3
  8
1
 62
     7
 10
665.87037142751683
 20
153.48680438452891
 30
0.0
 70
    32
  0
VERTEX
  5
19BC4
  8
1
 62
     7
 10
665.87137142751681
 20
153.48280438452881
 30
0.0
 70
    32
  0
VERTEX
  5
19BC5
  8
1
 62
     7
 10
665.87337142751664
 20
153.47880438452941
 30
0.0
 70
    32
  0
VERTEX
  5
19BC6
  8
1
 62
     7
 10
665.87437142751651
 20
153.47480438452919
 30
0.0
 70
    32
  0
VERTEX
  5
19BC7
  8
1
 62
     7
 10
665.8763714275168
 20
153.47080438452909
 30
0.0
 70
    32
  0
VERTEX
  5
19BC8
  8
1
 62
     7
 10
665.87737142751666
 20
153.46680438452901
 30
0.0
 70
    32
  0
VERTEX
  5
19BC9
  8
1
 62
     7
 10
665.87937142751673
 20
153.46280438452879
 30
0.0
 70
    32
  0
VERTEX
  5
19BCA
  8
1
 62
     7
 10
665.88037142751648
 20
153.4588043845294
 30
0.0
 70
    32
  0
VERTEX
  5
19BCB
  8
1
 62
     7
 10
665.88237142751666
 20
153.4548043845289
 30
0.0
 70
    32
  0
VERTEX
  5
19BCC
  8
1
 62
     7
 10
665.88337142751652
 20
153.45080438452911
 30
0.0
 70
    32
  0
VERTEX
  5
19BCD
  8
1
 62
     7
 10
665.88537142751682
 20
153.446804384529
 30
0.0
 70
    32
  0
VERTEX
  5
19BCE
  8
1
 62
     7
 10
665.88637142751679
 20
153.44280438452881
 30
0.0
 70
    32
  0
VERTEX
  5
19BCF
  8
1
 62
     7
 10
665.88837142751618
 20
153.43980438452891
 30
0.0
 70
    32
  0
VERTEX
  5
19BD0
  8
1
 62
     7
 10
665.88937142751695
 20
153.43580438452881
 30
0.0
 70
    32
  0
VERTEX
  5
19BD1
  8
1
 62
     7
 10
665.89137142751645
 20
153.4318043845293
 30
0.0
 70
    32
  0
VERTEX
  5
19BD2
  8
1
 62
     7
 10
665.89237142751665
 20
153.4278043845292
 30
0.0
 70
    32
  0
VERTEX
  5
19BD3
  8
1
 62
     7
 10
665.89437142751683
 20
153.42380438452909
 30
0.0
 70
    32
  0
VERTEX
  5
19BD4
  8
1
 62
     7
 10
665.89537142751681
 20
153.4198043845289
 30
0.0
 70
    32
  0
VERTEX
  5
19BD5
  8
1
 62
     7
 10
665.8973714275163
 20
153.4158043845288
 30
0.0
 70
    32
  0
VERTEX
  5
19BD6
  8
1
 62
     7
 10
665.89937142751705
 20
153.41180438452929
 30
0.0
 70
    32
  0
VERTEX
  5
19BD7
  8
1
 62
     7
 10
665.9003714275168
 20
153.40780438452919
 30
0.0
 70
    32
  0
VERTEX
  5
19BD8
  8
1
 62
     7
 10
665.90237142751675
 20
153.403804384529
 30
0.0
 70
    32
  0
VERTEX
  5
19BD9
  8
1
 62
     7
 10
665.90337142751673
 20
153.39980438452901
 30
0.0
 70
    32
  0
VERTEX
  5
19BDA
  8
1
 62
     7
 10
665.9053714275168
 20
153.39580438452879
 30
0.0
 70
    32
  0
VERTEX
  5
19BDB
  8
1
 62
     7
 10
665.90737142751675
 20
153.391804384529
 30
0.0
 70
    32
  0
VERTEX
  5
19BDC
  8
1
 62
     7
 10
665.90837142751684
 20
153.38780438452889
 30
0.0
 70
    32
  0
VERTEX
  5
19BDD
  8
1
 62
     7
 10
665.91037142751668
 20
153.3838043845291
 30
0.0
 70
    32
  0
VERTEX
  5
19BDE
  8
1
 62
     7
 10
665.91137142751688
 20
153.379804384529
 30
0.0
 70
    32
  0
VERTEX
  5
19BDF
  8
1
 62
     7
 10
665.91337142751684
 20
153.3758043845292
 30
0.0
 70
    32
  0
VERTEX
  5
19BE0
  8
1
 62
     7
 10
665.91537142751622
 20
153.37180438452941
 30
0.0
 70
    32
  0
VERTEX
  5
19BE1
  8
1
 62
     7
 10
665.91637142751699
 20
153.36780438452931
 30
0.0
 70
    32
  0
VERTEX
  5
19BE2
  8
1
 62
     7
 10
665.91837142751683
 20
153.36380438452909
 30
0.0
 70
    32
  0
VERTEX
  5
19BE3
  8
1
 62
     7
 10
665.9203714275169
 20
153.35980438452901
 30
0.0
 70
    32
  0
VERTEX
  5
19BE4
  8
1
 62
     7
 10
665.92137142751676
 20
153.35580438452891
 30
0.0
 70
    32
  0
VERTEX
  5
19BE5
  8
1
 62
     7
 10
665.9233714275166
 20
153.35180438452909
 30
0.0
 70
    32
  0
VERTEX
  5
19BE6
  8
1
 62
     7
 10
665.92537142751689
 20
153.34880438452879
 30
0.0
 70
    32
  0
VERTEX
  5
19BE7
  8
1
 62
     7
 10
665.92637142751676
 20
153.344804384529
 30
0.0
 70
    32
  0
VERTEX
  5
19BE8
  8
1
 62
     7
 10
665.92837142751659
 20
153.34080438452909
 30
0.0
 70
    32
  0
VERTEX
  5
19BE9
  8
1
 62
     7
 10
665.93037142751655
 20
153.3368043845291
 30
0.0
 70
    32
  0
VERTEX
  5
19BEA
  8
1
 62
     7
 10
665.93137142751675
 20
153.33280438452891
 30
0.0
 70
    32
  0
VERTEX
  5
19BEB
  8
1
 62
     7
 10
665.93337142751625
 20
153.32880438452881
 30
0.0
 70
    32
  0
VERTEX
  5
19BEC
  8
1
 62
     7
 10
665.93537142751688
 20
153.32480438452939
 30
0.0
 70
    32
  0
VERTEX
  5
19BED
  8
1
 62
     7
 10
665.93637142751675
 20
153.3208043845292
 30
0.0
 70
    32
  0
VERTEX
  5
19BEE
  8
1
 62
     7
 10
665.9383714275167
 20
153.31680438452909
 30
0.0
 70
    32
  0
VERTEX
  5
19BEF
  8
1
 62
     7
 10
665.94037142751677
 20
153.31280438452899
 30
0.0
 70
    32
  0
VERTEX
  5
19BF0
  8
1
 62
     7
 10
665.9423714275166
 20
153.3088043845288
 30
0.0
 70
    32
  0
VERTEX
  5
19BF1
  8
1
 62
     7
 10
665.94337142751669
 20
153.30480438452901
 30
0.0
 70
    32
  0
VERTEX
  5
19BF2
  8
1
 62
     7
 10
665.94537142751665
 20
153.30180438452879
 30
0.0
 70
    32
  0
VERTEX
  5
19BF3
  8
1
 62
     7
 10
665.94737142751683
 20
153.297804384529
 30
0.0
 70
    32
  0
VERTEX
  5
19BF4
  8
1
 62
     7
 10
665.94937142751678
 20
153.2938043845291
 30
0.0
 70
    32
  0
VERTEX
  5
19BF5
  8
1
 62
     7
 10
665.95037142751676
 20
153.28980438452911
 30
0.0
 70
    32
  0
VERTEX
  5
19BF6
  8
1
 62
     7
 10
665.95237142751671
 20
153.28580438452889
 30
0.0
 70
    32
  0
VERTEX
  5
19BF7
  8
1
 62
     7
 10
665.95437142751678
 20
153.28180438452881
 30
0.0
 70
    32
  0
VERTEX
  5
19BF8
  8
1
 62
     7
 10
665.95637142751673
 20
153.2778043845293
 30
0.0
 70
    32
  0
VERTEX
  5
19BF9
  8
1
 62
     7
 10
665.95737142751659
 20
153.2738043845292
 30
0.0
 70
    32
  0
VERTEX
  5
19BFA
  8
1
 62
     7
 10
665.95937142751666
 20
153.2698043845291
 30
0.0
 70
    32
  0
VERTEX
  5
19BFB
  8
1
 62
     7
 10
665.96137142751684
 20
153.26680438452911
 30
0.0
 70
    32
  0
VERTEX
  5
19BFC
  8
1
 62
     7
 10
665.9633714275169
 20
153.26280438452901
 30
0.0
 70
    32
  0
VERTEX
  5
19BFD
  8
1
 62
     7
 10
665.96537142751674
 20
153.2588043845289
 30
0.0
 70
    32
  0
VERTEX
  5
19BFE
  8
1
 62
     7
 10
665.96637142751683
 20
153.2548043845286
 30
0.0
 70
    32
  0
VERTEX
  5
19BFF
  8
1
 62
     7
 10
665.96837142751644
 20
153.25080438452929
 30
0.0
 70
    32
  0
VERTEX
  5
19C00
  8
1
 62
     7
 10
665.97037142751674
 20
153.24680438452921
 30
0.0
 70
    32
  0
VERTEX
  5
19C01
  8
1
 62
     7
 10
665.9723714275168
 20
153.24280438452899
 30
0.0
 70
    32
  0
VERTEX
  5
19C02
  8
1
 62
     7
 10
665.97437142751699
 20
153.23980438452909
 30
0.0
 70
    32
  0
VERTEX
  5
19C03
  8
1
 62
     7
 10
665.97537142751685
 20
153.23580438452899
 30
0.0
 70
    32
  0
VERTEX
  5
19C04
  8
1
 62
     7
 10
665.9773714275168
 20
153.2318043845288
 30
0.0
 70
    32
  0
VERTEX
  5
19C05
  8
1
 62
     7
 10
665.97937142751675
 20
153.2278043845287
 30
0.0
 70
    32
  0
VERTEX
  5
19C06
  8
1
 62
     7
 10
665.98137142751648
 20
153.2238043845289
 30
0.0
 70
    32
  0
VERTEX
  5
19C07
  8
1
 62
     7
 10
665.98337142751643
 20
153.21980438452911
 30
0.0
 70
    32
  0
VERTEX
  5
19C08
  8
1
 62
     7
 10
665.98537142751684
 20
153.21580438452901
 30
0.0
 70
    32
  0
VERTEX
  5
19C09
  8
1
 62
     7
 10
665.98737142751679
 20
153.21280438452911
 30
0.0
 70
    32
  0
VERTEX
  5
19C0A
  8
1
 62
     7
 10
665.98937142751686
 20
153.20880438452889
 30
0.0
 70
    32
  0
VERTEX
  5
19C0B
  8
1
 62
     7
 10
665.99037142751683
 20
153.20480438452881
 30
0.0
 70
    32
  0
VERTEX
  5
19C0C
  8
1
 62
     7
 10
665.99237142751622
 20
153.20080438452899
 30
0.0
 70
    32
  0
VERTEX
  5
19C0D
  8
1
 62
     7
 10
665.99437142751685
 20
153.1968043845292
 30
0.0
 70
    32
  0
VERTEX
  5
19C0E
  8
1
 62
     7
 10
665.99637142751681
 20
153.1938043845289
 30
0.0
 70
    32
  0
VERTEX
  5
19C0F
  8
1
 62
     7
 10
665.99837142751664
 20
153.1898043845292
 30
0.0
 70
    32
  0
VERTEX
  5
19C10
  8
1
 62
     7
 10
666.00037142751637
 20
153.18580438452901
 30
0.0
 70
    32
  0
VERTEX
  5
19C11
  8
1
 62
     7
 10
666.00237142751689
 20
153.1818043845289
 30
0.0
 70
    32
  0
VERTEX
  5
19C12
  8
1
 62
     7
 10
666.00437142751673
 20
153.1778043845294
 30
0.0
 70
    32
  0
VERTEX
  5
19C13
  8
1
 62
     7
 10
666.00637142751668
 20
153.17480438452881
 30
0.0
 70
    32
  0
VERTEX
  5
19C14
  8
1
 62
     7
 10
666.00837142751675
 20
153.17080438452899
 30
0.0
 70
    32
  0
VERTEX
  5
19C15
  8
1
 62
     7
 10
666.01037142751625
 20
153.1668043845292
 30
0.0
 70
    32
  0
VERTEX
  5
19C16
  8
1
 62
     7
 10
666.01237142751688
 20
153.1628043845291
 30
0.0
 70
    32
  0
VERTEX
  5
19C17
  8
1
 62
     7
 10
666.01437142751638
 20
153.15880438452899
 30
0.0
 70
    32
  0
VERTEX
  5
19C18
  8
1
 62
     7
 10
666.01637142751667
 20
153.15580438452901
 30
0.0
 70
    32
  0
VERTEX
  5
19C19
  8
1
 62
     7
 10
666.01837142751651
 20
153.1518043845289
 30
0.0
 70
    32
  0
VERTEX
  5
19C1A
  8
1
 62
     7
 10
666.02037142751669
 20
153.1478043845288
 30
0.0
 70
    32
  0
VERTEX
  5
19C1B
  8
1
 62
     7
 10
666.02237142751687
 20
153.14380438452901
 30
0.0
 70
    32
  0
VERTEX
  5
19C1C
  8
1
 62
     7
 10
666.02437142751683
 20
153.13980438452921
 30
0.0
 70
    32
  0
VERTEX
  5
19C1D
  8
1
 62
     7
 10
666.02637142751666
 20
153.13680438452889
 30
0.0
 70
    32
  0
VERTEX
  5
19C1E
  8
1
 62
     7
 10
666.02837142751639
 20
153.13280438452909
 30
0.0
 70
    32
  0
VERTEX
  5
19C1F
  8
1
 62
     7
 10
666.03037142751668
 20
153.12880438452899
 30
0.0
 70
    32
  0
VERTEX
  5
19C20
  8
1
 62
     7
 10
666.03237142751675
 20
153.12480438452889
 30
0.0
 70
    32
  0
VERTEX
  5
19C21
  8
1
 62
     7
 10
666.03437142751682
 20
153.1218043845289
 30
0.0
 70
    32
  0
VERTEX
  5
19C22
  8
1
 62
     7
 10
666.03637142751677
 20
153.1178043845288
 30
0.0
 70
    32
  0
VERTEX
  5
19C23
  8
1
 62
     7
 10
666.03837142751684
 20
153.113804384529
 30
0.0
 70
    32
  0
VERTEX
  5
19C24
  8
1
 62
     7
 10
666.0403714275169
 20
153.1098043845289
 30
0.0
 70
    32
  0
VERTEX
  5
19C25
  8
1
 62
     7
 10
666.04237142751629
 20
153.10680438452891
 30
0.0
 70
    32
  0
VERTEX
  5
19C26
  8
1
 62
     7
 10
666.04437142751704
 20
153.10280438452921
 30
0.0
 70
    32
  0
VERTEX
  5
19C27
  8
1
 62
     7
 10
666.04637142751665
 20
153.09880438452899
 30
0.0
 70
    32
  0
VERTEX
  5
19C28
  8
1
 62
     7
 10
666.04837142751683
 20
153.09580438452909
 30
0.0
 70
    32
  0
VERTEX
  5
19C29
  8
1
 62
     7
 10
666.05137142751641
 20
153.09180438452901
 30
0.0
 70
    32
  0
VERTEX
  5
19C2A
  8
1
 62
     7
 10
666.05337142751705
 20
153.08780438452879
 30
0.0
 70
    32
  0
VERTEX
  5
19C2B
  8
1
 62
     7
 10
666.05537142751643
 20
153.083804384529
 30
0.0
 70
    32
  0
VERTEX
  5
19C2C
  8
1
 62
     7
 10
666.05737142751684
 20
153.08080438452879
 30
0.0
 70
    32
  0
VERTEX
  5
19C2D
  8
1
 62
     7
 10
666.05937142751657
 20
153.07680438452931
 30
0.0
 70
    32
  0
VERTEX
  5
19C2E
  8
1
 62
     7
 10
666.06137142751697
 20
153.07280438452909
 30
0.0
 70
    32
  0
VERTEX
  5
19C2F
  8
1
 62
     7
 10
666.06337142751681
 20
153.06980438452891
 30
0.0
 70
    32
  0
VERTEX
  5
19C30
  8
1
 62
     7
 10
666.06537142751665
 20
153.065804384529
 30
0.0
 70
    32
  0
VERTEX
  5
19C31
  8
1
 62
     7
 10
666.06837142751647
 20
153.06180438452901
 30
0.0
 70
    32
  0
VERTEX
  5
19C32
  8
1
 62
     7
 10
666.07037142751665
 20
153.058804384529
 30
0.0
 70
    32
  0
VERTEX
  5
19C33
  8
1
 62
     7
 10
666.07237142751683
 20
153.05480438452889
 30
0.0
 70
    32
  0
VERTEX
  5
19C34
  8
1
 62
     7
 10
666.07437142751667
 20
153.05080438452879
 30
0.0
 70
    32
  0
VERTEX
  5
19C35
  8
1
 62
     7
 10
666.07637142751673
 20
153.04780438452889
 30
0.0
 70
    32
  0
VERTEX
  5
19C36
  8
1
 62
     7
 10
666.07937142751666
 20
153.0438043845291
 30
0.0
 70
    32
  0
VERTEX
  5
19C37
  8
1
 62
     7
 10
666.08137142751673
 20
153.03980438452891
 30
0.0
 70
    32
  0
VERTEX
  5
19C38
  8
1
 62
     7
 10
666.08337142751679
 20
153.03680438452901
 30
0.0
 70
    32
  0
VERTEX
  5
19C39
  8
1
 62
     7
 10
666.08537142751675
 20
153.0328043845289
 30
0.0
 70
    32
  0
VERTEX
  5
19C3A
  8
1
 62
     7
 10
666.08737142751625
 20
153.02880438452911
 30
0.0
 70
    32
  0
VERTEX
  5
19C3B
  8
1
 62
     7
 10
666.09037142751686
 20
153.0258043845291
 30
0.0
 70
    32
  0
VERTEX
  5
19C3C
  8
1
 62
     7
 10
666.09237142751681
 20
153.02180438452899
 30
0.0
 70
    32
  0
VERTEX
  5
19C3D
  8
1
 62
     7
 10
666.09437142751699
 20
153.01780438452889
 30
0.0
 70
    32
  0
VERTEX
  5
19C3E
  8
1
 62
     7
 10
666.09637142751637
 20
153.01480438452899
 30
0.0
 70
    32
  0
VERTEX
  5
19C3F
  8
1
 62
     7
 10
666.09937142751687
 20
153.0108043845288
 30
0.0
 70
    32
  0
VERTEX
  5
19C40
  8
1
 62
     7
 10
666.10137142751682
 20
153.0078043845289
 30
0.0
 70
    32
  0
VERTEX
  5
19C41
  8
1
 62
     7
 10
666.10337142751666
 20
153.00380438452939
 30
0.0
 70
    32
  0
VERTEX
  5
19C42
  8
1
 62
     7
 10
666.1053714275165
 20
152.99980438452931
 30
0.0
 70
    32
  0
VERTEX
  5
19C43
  8
1
 62
     7
 10
666.10837142751666
 20
152.99680438452901
 30
0.0
 70
    32
  0
VERTEX
  5
19C44
  8
1
 62
     7
 10
666.11037142751684
 20
152.99280438452891
 30
0.0
 70
    32
  0
VERTEX
  5
19C45
  8
1
 62
     7
 10
666.11237142751668
 20
152.98980438452901
 30
0.0
 70
    32
  0
VERTEX
  5
19C46
  8
1
 62
     7
 10
666.11537142751683
 20
152.98580438452919
 30
0.0
 70
    32
  0
VERTEX
  5
19C47
  8
1
 62
     7
 10
666.1173714275169
 20
152.98180438452911
 30
0.0
 70
    32
  0
VERTEX
  5
19C48
  8
1
 62
     7
 10
666.11937142751674
 20
152.9788043845291
 30
0.0
 70
    32
  0
VERTEX
  5
19C49
  8
1
 62
     7
 10
666.12237142751667
 20
152.97480438452899
 30
0.0
 70
    32
  0
VERTEX
  5
19C4A
  8
1
 62
     7
 10
666.12437142751673
 20
152.97180438452909
 30
0.0
 70
    32
  0
VERTEX
  5
19C4B
  8
1
 62
     7
 10
666.12637142751691
 20
152.9678043845289
 30
0.0
 70
    32
  0
VERTEX
  5
19C4C
  8
1
 62
     7
 10
666.12937142751684
 20
152.964804384529
 30
0.0
 70
    32
  0
VERTEX
  5
19C4D
  8
1
 62
     7
 10
666.13137142751646
 20
152.9608043845289
 30
0.0
 70
    32
  0
VERTEX
  5
19C4E
  8
1
 62
     7
 10
666.13437142751684
 20
152.95780438452891
 30
0.0
 70
    32
  0
VERTEX
  5
19C4F
  8
1
 62
     7
 10
666.13637142751656
 20
152.95380438452881
 30
0.0
 70
    32
  0
VERTEX
  5
19C50
  8
1
 62
     7
 10
666.13837142751663
 20
152.94980438452939
 30
0.0
 70
    32
  0
VERTEX
  5
19C51
  8
1
 62
     7
 10
666.14137142751656
 20
152.9468043845288
 30
0.0
 70
    32
  0
VERTEX
  5
19C52
  8
1
 62
     7
 10
666.14337142751685
 20
152.9428043845293
 30
0.0
 70
    32
  0
VERTEX
  5
19C53
  8
1
 62
     7
 10
666.14637142751621
 20
152.939804384529
 30
0.0
 70
    32
  0
VERTEX
  5
19C54
  8
1
 62
     7
 10
666.14837142751708
 20
152.93580438452921
 30
0.0
 70
    32
  0
VERTEX
  5
19C55
  8
1
 62
     7
 10
666.15137142751689
 20
152.93280438452899
 30
0.0
 70
    32
  0
VERTEX
  5
19C56
  8
1
 62
     7
 10
666.15337142751673
 20
152.9288043845292
 30
0.0
 70
    32
  0
VERTEX
  5
19C57
  8
1
 62
     7
 10
666.15537142751646
 20
152.9258043845293
 30
0.0
 70
    32
  0
VERTEX
  5
19C58
  8
1
 62
     7
 10
666.15837142751684
 20
152.92180438452911
 30
0.0
 70
    32
  0
VERTEX
  5
19C59
  8
1
 62
     7
 10
666.16037142751679
 20
152.91880438452921
 30
0.0
 70
    32
  0
VERTEX
  5
19C5A
  8
1
 62
     7
 10
666.16337142751684
 20
152.91480438452911
 30
0.0
 70
    32
  0
VERTEX
  5
19C5B
  8
1
 62
     7
 10
666.16537142751679
 20
152.91180438452909
 30
0.0
 70
    32
  0
VERTEX
  5
19C5C
  8
1
 62
     7
 10
666.1683714275166
 20
152.90880438452879
 30
0.0
 70
    32
  0
VERTEX
  5
19C5D
  8
1
 62
     7
 10
666.17037142751678
 20
152.90480438452909
 30
0.0
 70
    32
  0
VERTEX
  5
19C5E
  8
1
 62
     7
 10
666.17337142751637
 20
152.9018043845291
 30
0.0
 70
    32
  0
VERTEX
  5
19C5F
  8
1
 62
     7
 10
666.17537142751667
 20
152.897804384529
 30
0.0
 70
    32
  0
VERTEX
  5
19C60
  8
1
 62
     7
 10
666.17837142751648
 20
152.8948043845291
 30
0.0
 70
    32
  0
VERTEX
  5
19C61
  8
1
 62
     7
 10
666.18037142751666
 20
152.89080438452891
 30
0.0
 70
    32
  0
VERTEX
  5
19C62
  8
1
 62
     7
 10
666.18337142751682
 20
152.88780438452901
 30
0.0
 70
    32
  0
VERTEX
  5
19C63
  8
1
 62
     7
 10
666.18637142751686
 20
152.8848043845291
 30
0.0
 70
    32
  0
VERTEX
  5
19C64
  8
1
 62
     7
 10
666.18837142751681
 20
152.88080438452889
 30
0.0
 70
    32
  0
VERTEX
  5
19C65
  8
1
 62
     7
 10
666.19137142751663
 20
152.87780438452899
 30
0.0
 70
    32
  0
VERTEX
  5
19C66
  8
1
 62
     7
 10
666.19337142751681
 20
152.87380438452891
 30
0.0
 70
    32
  0
VERTEX
  5
19C67
  8
1
 62
     7
 10
666.19637142751674
 20
152.87080438452901
 30
0.0
 70
    32
  0
VERTEX
  5
19C68
  8
1
 62
     7
 10
666.19937142751689
 20
152.86780438452899
 30
0.0
 70
    32
  0
VERTEX
  5
19C69
  8
1
 62
     7
 10
666.20137142751673
 20
152.86380438452889
 30
0.0
 70
    32
  0
VERTEX
  5
19C6A
  8
1
 62
     7
 10
666.20437142751643
 20
152.86080438452899
 30
0.0
 70
    32
  0
VERTEX
  5
19C6B
  8
1
 62
     7
 10
666.20637142751684
 20
152.8568043845288
 30
0.0
 70
    32
  0
VERTEX
  5
19C6C
  8
1
 62
     7
 10
666.20937142751643
 20
152.8538043845289
 30
0.0
 70
    32
  0
VERTEX
  5
19C6D
  8
1
 62
     7
 10
666.21237142751681
 20
152.850804384529
 30
0.0
 70
    32
  0
VERTEX
  5
19C6E
  8
1
 62
     7
 10
666.21437142751643
 20
152.84680438452881
 30
0.0
 70
    32
  0
VERTEX
  5
19C6F
  8
1
 62
     7
 10
666.21737142751681
 20
152.84380438452891
 30
0.0
 70
    32
  0
VERTEX
  5
19C70
  8
1
 62
     7
 10
666.22037142751685
 20
152.84080438452901
 30
0.0
 70
    32
  0
VERTEX
  5
19C71
  8
1
 62
     7
 10
666.22237142751669
 20
152.83680438452919
 30
0.0
 70
    32
  0
VERTEX
  5
19C72
  8
1
 62
     7
 10
666.22537142751708
 20
152.83380438452889
 30
0.0
 70
    32
  0
VERTEX
  5
19C73
  8
1
 62
     7
 10
666.22837142751689
 20
152.83080438452899
 30
0.0
 70
    32
  0
VERTEX
  5
19C74
  8
1
 62
     7
 10
666.23137142751659
 20
152.82780438452909
 30
0.0
 70
    32
  0
VERTEX
  5
19C75
  8
1
 62
     7
 10
666.23337142751689
 20
152.8238043845289
 30
0.0
 70
    32
  0
VERTEX
  5
19C76
  8
1
 62
     7
 10
666.2363714275167
 20
152.820804384529
 30
0.0
 70
    32
  0
VERTEX
  5
19C77
  8
1
 62
     7
 10
666.23937142751674
 20
152.8178043845291
 30
0.0
 70
    32
  0
VERTEX
  5
19C78
  8
1
 62
     7
 10
666.24237142751656
 20
152.81380438452891
 30
0.0
 70
    32
  0
VERTEX
  5
19C79
  8
1
 62
     7
 10
666.24437142751674
 20
152.81080438452901
 30
0.0
 70
    32
  0
VERTEX
  5
19C7A
  8
1
 62
     7
 10
666.24737142751678
 20
152.80780438452911
 30
0.0
 70
    32
  0
VERTEX
  5
19C7B
  8
1
 62
     7
 10
666.25037142751626
 20
152.80480438452921
 30
0.0
 70
    32
  0
VERTEX
  5
19C7C
  8
1
 62
     7
 10
666.25337142751675
 20
152.80080438452899
 30
0.0
 70
    32
  0
VERTEX
  5
19C7D
  8
1
 62
     7
 10
666.25537142751659
 20
152.79780438452909
 30
0.0
 70
    32
  0
VERTEX
  5
19C7E
  8
1
 62
     7
 10
666.25837142751641
 20
152.79480438452879
 30
0.0
 70
    32
  0
VERTEX
  5
19C7F
  8
1
 62
     7
 10
666.26137142751679
 20
152.7918043845292
 30
0.0
 70
    32
  0
VERTEX
  5
19C80
  8
1
 62
     7
 10
666.26437142751683
 20
152.78880438452899
 30
0.0
 70
    32
  0
VERTEX
  5
19C81
  8
1
 62
     7
 10
666.26737142751665
 20
152.7848043845292
 30
0.0
 70
    32
  0
VERTEX
  5
19C82
  8
1
 62
     7
 10
666.27037142751681
 20
152.7818043845289
 30
0.0
 70
    32
  0
VERTEX
  5
19C83
  8
1
 62
     7
 10
666.27237142751642
 20
152.77880438452931
 30
0.0
 70
    32
  0
VERTEX
  5
19C84
  8
1
 62
     7
 10
666.27537142751703
 20
152.77580438452901
 30
0.0
 70
    32
  0
VERTEX
  5
19C85
  8
1
 62
     7
 10
666.27837142751673
 20
152.7728043845288
 30
0.0
 70
    32
  0
VERTEX
  5
19C86
  8
1
 62
     7
 10
666.28137142751643
 20
152.76980438452881
 30
0.0
 70
    32
  0
VERTEX
  5
19C87
  8
1
 62
     7
 10
666.28437142751704
 20
152.76680438452891
 30
0.0
 70
    32
  0
VERTEX
  5
19C88
  8
1
 62
     7
 10
666.28737142751675
 20
152.76280438452881
 30
0.0
 70
    32
  0
VERTEX
  5
19C89
  8
1
 62
     7
 10
666.29037142751667
 20
152.75980438452919
 30
0.0
 70
    32
  0
VERTEX
  5
19C8A
  8
1
 62
     7
 10
666.29337142751683
 20
152.75680438452889
 30
0.0
 70
    32
  0
VERTEX
  5
19C8B
  8
1
 62
     7
 10
666.29637142751687
 20
152.75380438452899
 30
0.0
 70
    32
  0
VERTEX
  5
19C8C
  8
1
 62
     7
 10
666.2993714275168
 20
152.75080438452909
 30
0.0
 70
    32
  0
VERTEX
  5
19C8D
  8
1
 62
     7
 10
666.30237142751685
 20
152.7478043845291
 30
0.0
 70
    32
  0
VERTEX
  5
19C8E
  8
1
 62
     7
 10
666.30537142751689
 20
152.7448043845292
 30
0.0
 70
    32
  0
VERTEX
  5
19C8F
  8
1
 62
     7
 10
666.30837142751659
 20
152.7418043845293
 30
0.0
 70
    32
  0
VERTEX
  5
19C90
  8
1
 62
     7
 10
666.31137142751686
 20
152.738804384529
 30
0.0
 70
    32
  0
VERTEX
  5
19C91
  8
1
 62
     7
 10
666.31437142751668
 20
152.7358043845291
 30
0.0
 70
    32
  0
VERTEX
  5
19C92
  8
1
 62
     7
 10
666.31737142751683
 20
152.7328043845292
 30
0.0
 70
    32
  0
VERTEX
  5
19C93
  8
1
 62
     7
 10
666.32037142751676
 20
152.72980438452919
 30
0.0
 70
    32
  0
VERTEX
  5
19C94
  8
1
 62
     7
 10
666.32337142751692
 20
152.72680438452889
 30
0.0
 70
    32
  0
VERTEX
  5
19C95
  8
1
 62
     7
 10
666.32637142751639
 20
152.72380438452899
 30
0.0
 70
    32
  0
VERTEX
  5
19C96
  8
1
 62
     7
 10
666.32937142751678
 20
152.72080438452909
 30
0.0
 70
    32
  0
VERTEX
  5
19C97
  8
1
 62
     7
 10
666.33237142751682
 20
152.71780438452919
 30
0.0
 70
    32
  0
VERTEX
  5
19C98
  8
1
 62
     7
 10
666.33537142751652
 20
152.7148043845292
 30
0.0
 70
    32
  0
VERTEX
  5
19C99
  8
1
 62
     7
 10
666.33837142751679
 20
152.7118043845289
 30
0.0
 70
    32
  0
VERTEX
  5
19C9A
  8
1
 62
     7
 10
666.34137142751683
 20
152.708804384529
 30
0.0
 70
    32
  0
VERTEX
  5
19C9B
  8
1
 62
     7
 10
666.34437142751665
 20
152.70580438452879
 30
0.0
 70
    32
  0
VERTEX
  5
19C9C
  8
1
 62
     7
 10
666.3473714275168
 20
152.7028043845292
 30
0.0
 70
    32
  0
VERTEX
  5
19C9D
  8
1
 62
     7
 10
666.35037142751673
 20
152.6998043845289
 30
0.0
 70
    32
  0
VERTEX
  5
19C9E
  8
1
 62
     7
 10
666.35337142751678
 20
152.696804384529
 30
0.0
 70
    32
  0
VERTEX
  5
19C9F
  8
1
 62
     7
 10
666.35737142751691
 20
152.6938043845291
 30
0.0
 70
    32
  0
VERTEX
  5
19CA0
  8
1
 62
     7
 10
666.36037142751684
 20
152.69080438452909
 30
0.0
 70
    32
  0
VERTEX
  5
19CA1
  8
1
 62
     7
 10
666.36337142751643
 20
152.6878043845291
 30
0.0
 70
    32
  0
VERTEX
  5
19CA2
  8
1
 62
     7
 10
666.36637142751647
 20
152.68580438452881
 30
0.0
 70
    32
  0
VERTEX
  5
19CA3
  8
1
 62
     7
 10
666.36937142751685
 20
152.68280438452891
 30
0.0
 70
    32
  0
VERTEX
  5
19CA4
  8
1
 62
     7
 10
666.37237142751667
 20
152.67980438452889
 30
0.0
 70
    32
  0
VERTEX
  5
19CA5
  8
1
 62
     7
 10
666.3763714275168
 20
152.67680438452899
 30
0.0
 70
    32
  0
VERTEX
  5
19CA6
  8
1
 62
     7
 10
666.37937142751684
 20
152.67380438452909
 30
0.0
 70
    32
  0
VERTEX
  5
19CA7
  8
1
 62
     7
 10
666.38237142751666
 20
152.67080438452911
 30
0.0
 70
    32
  0
VERTEX
  5
19CA8
  8
1
 62
     7
 10
666.38537142751636
 20
152.66880438452941
 30
0.0
 70
    32
  0
VERTEX
  5
19CA9
  8
1
 62
     7
 10
666.38937142751683
 20
152.6658043845288
 30
0.0
 70
    32
  0
VERTEX
  5
19CAA
  8
1
 62
     7
 10
666.39237142751665
 20
152.6628043845289
 30
0.0
 70
    32
  0
VERTEX
  5
19CAB
  8
1
 62
     7
 10
666.39537142751635
 20
152.65980438452931
 30
0.0
 70
    32
  0
VERTEX
  5
19CAC
  8
1
 62
     7
 10
666.39837142751674
 20
152.65780438452919
 30
0.0
 70
    32
  0
VERTEX
  5
19CAD
  8
1
 62
     7
 10
666.40237142751687
 20
152.654804384529
 30
0.0
 70
    32
  0
VERTEX
  5
19CAE
  8
1
 62
     7
 10
666.40537142751668
 20
152.65180438452941
 30
0.0
 70
    32
  0
VERTEX
  5
19CAF
  8
1
 62
     7
 10
666.40837142751639
 20
152.64980438452901
 30
0.0
 70
    32
  0
VERTEX
  5
19CB0
  8
1
 62
     7
 10
666.41237142751652
 20
152.64680438452899
 30
0.0
 70
    32
  0
VERTEX
  5
19CB1
  8
1
 62
     7
 10
666.41537142751667
 20
152.64380438452909
 30
0.0
 70
    32
  0
VERTEX
  5
19CB2
  8
1
 62
     7
 10
666.41837142751683
 20
152.64180438452939
 30
0.0
 70
    32
  0
VERTEX
  5
19CB3
  8
1
 62
     7
 10
666.42237142751662
 20
152.63880438452881
 30
0.0
 70
    32
  0
VERTEX
  5
19CB4
  8
1
 62
     7
 10
666.42537142751689
 20
152.6358043845288
 30
0.0
 70
    32
  0
VERTEX
  5
19CB5
  8
1
 62
     7
 10
666.42837142751682
 20
152.6338043845291
 30
0.0
 70
    32
  0
VERTEX
  5
19CB6
  8
1
 62
     7
 10
666.43237142751684
 20
152.6308043845292
 30
0.0
 70
    32
  0
VERTEX
  5
19CB7
  8
1
 62
     7
 10
666.43537142751643
 20
152.6288043845295
 30
0.0
 70
    32
  0
VERTEX
  5
19CB8
  8
1
 62
     7
 10
666.43937142751645
 20
152.6258043845292
 30
0.0
 70
    32
  0
VERTEX
  5
19CB9
  8
1
 62
     7
 10
666.44237142751683
 20
152.62280438452891
 30
0.0
 70
    32
  0
VERTEX
  5
19CBA
  8
1
 62
     7
 10
666.44537142751642
 20
152.62080438452921
 30
0.0
 70
    32
  0
VERTEX
  5
19CBB
  8
1
 62
     7
 10
666.44937142751678
 20
152.61780438452919
 30
0.0
 70
    32
  0
VERTEX
  5
19CBC
  8
1
 62
     7
 10
666.45237142751682
 20
152.6158043845289
 30
0.0
 70
    32
  0
VERTEX
  5
19CBD
  8
1
 62
     7
 10
666.45637142751696
 20
152.61280438452891
 30
0.0
 70
    32
  0
VERTEX
  5
19CBE
  8
1
 62
     7
 10
666.45937142751666
 20
152.61080438452919
 30
0.0
 70
    32
  0
VERTEX
  5
19CBF
  8
1
 62
     7
 10
666.46337142751645
 20
152.60780438452889
 30
0.0
 70
    32
  0
VERTEX
  5
19CC0
  8
1
 62
     7
 10
666.46637142751683
 20
152.60580438452891
 30
0.0
 70
    32
  0
VERTEX
  5
19CC1
  8
1
 62
     7
 10
666.47037142751674
 20
152.6038043845291
 30
0.0
 70
    32
  0
VERTEX
  5
19CC2
  8
1
 62
     7
 10
666.47337142751667
 20
152.6008043845292
 30
0.0
 70
    32
  0
VERTEX
  5
19CC3
  8
1
 62
     7
 10
666.47737142751691
 20
152.59880438452879
 30
0.0
 70
    32
  0
VERTEX
  5
19CC4
  8
1
 62
     7
 10
666.48037142751673
 20
152.59580438452889
 30
0.0
 70
    32
  0
VERTEX
  5
19CC5
  8
1
 62
     7
 10
666.48437142751686
 20
152.59380438452911
 30
0.0
 70
    32
  0
VERTEX
  5
19CC6
  8
1
 62
     7
 10
666.488371427517
 20
152.5918043845287
 30
0.0
 70
    32
  0
VERTEX
  5
19CC7
  8
1
 62
     7
 10
666.49137142751681
 20
152.5888043845288
 30
0.0
 70
    32
  0
VERTEX
  5
19CC8
  8
1
 62
     7
 10
666.49537142751683
 20
152.5868043845291
 30
0.0
 70
    32
  0
VERTEX
  5
19CC9
  8
1
 62
     7
 10
666.49837142751664
 20
152.58480438452901
 30
0.0
 70
    32
  0
VERTEX
  5
19CCA
  8
1
 62
     7
 10
666.50237142751689
 20
152.58180438452911
 30
0.0
 70
    32
  0
VERTEX
  5
19CCB
  8
1
 62
     7
 10
666.50637142751691
 20
152.57980438452901
 30
0.0
 70
    32
  0
VERTEX
  5
19CCC
  8
1
 62
     7
 10
666.50937142751684
 20
152.57780438452889
 30
0.0
 70
    32
  0
VERTEX
  5
19CCD
  8
1
 62
     7
 10
666.5133714275164
 20
152.57580438452891
 30
0.0
 70
    32
  0
VERTEX
  5
19CCE
  8
1
 62
     7
 10
666.51737142751642
 20
152.57280438452901
 30
0.0
 70
    32
  0
VERTEX
  5
19CCF
  8
1
 62
     7
 10
666.52037142751669
 20
152.5708043845292
 30
0.0
 70
    32
  0
VERTEX
  5
19CD0
  8
1
 62
     7
 10
666.52437142751683
 20
152.56880438452879
 30
0.0
 70
    32
  0
VERTEX
  5
19CD1
  8
1
 62
     7
 10
666.52837142751684
 20
152.56680438452909
 30
0.0
 70
    32
  0
VERTEX
  5
19CD2
  8
1
 62
     7
 10
666.53137142751609
 20
152.5648043845294
 30
0.0
 70
    32
  0
VERTEX
  5
19CD3
  8
1
 62
     7
 10
666.53537142751657
 20
152.56280438452899
 30
0.0
 70
    32
  0
VERTEX
  5
19CD4
  8
1
 62
     7
 10
666.53937142751658
 20
152.56080438452921
 30
0.0
 70
    32
  0
VERTEX
  5
19CD5
  8
1
 62
     7
 10
666.54237142751674
 20
152.55780438452899
 30
0.0
 70
    32
  0
VERTEX
  5
19CD6
  8
1
 62
     7
 10
666.54637142751665
 20
152.55580438452921
 30
0.0
 70
    32
  0
VERTEX
  5
19CD7
  8
1
 62
     7
 10
666.55037142751678
 20
152.5538043845288
 30
0.0
 70
    32
  0
VERTEX
  5
19CD8
  8
1
 62
     7
 10
666.55437142751691
 20
152.55180438452879
 30
0.0
 70
    32
  0
VERTEX
  5
19CD9
  8
1
 62
     7
 10
666.55737142751684
 20
152.54980438452901
 30
0.0
 70
    32
  0
VERTEX
  5
19CDA
  8
1
 62
     7
 10
666.56137142751675
 20
152.547804384529
 30
0.0
 70
    32
  0
VERTEX
  5
19CDB
  8
1
 62
     7
 10
666.56537142751699
 20
152.54580438452891
 30
0.0
 70
    32
  0
VERTEX
  5
19CDC
  8
1
 62
     7
 10
666.56937142751667
 20
152.54380438452921
 30
0.0
 70
    32
  0
VERTEX
  5
19CDD
  8
1
 62
     7
 10
666.5733714275168
 20
152.5418043845288
 30
0.0
 70
    32
  0
VERTEX
  5
19CDE
  8
1
 62
     7
 10
666.57637142751662
 20
152.54080438452891
 30
0.0
 70
    32
  0
VERTEX
  5
19CDF
  8
1
 62
     7
 10
666.58037142751664
 20
152.53880438452879
 30
0.0
 70
    32
  0
VERTEX
  5
19CE0
  8
1
 62
     7
 10
666.58437142751688
 20
152.53680438452909
 30
0.0
 70
    32
  0
VERTEX
  5
19CE1
  8
1
 62
     7
 10
666.58837142751668
 20
152.53480438452911
 30
0.0
 70
    32
  0
VERTEX
  5
19CE2
  8
1
 62
     7
 10
666.59237142751704
 20
152.53280438452899
 30
0.0
 70
    32
  0
VERTEX
  5
19CE3
  8
1
 62
     7
 10
666.59637142751683
 20
152.53080438452889
 30
0.0
 70
    32
  0
VERTEX
  5
19CE4
  8
1
 62
     7
 10
666.60037142751685
 20
152.52980438452909
 30
0.0
 70
    32
  0
VERTEX
  5
19CE5
  8
1
 62
     7
 10
666.60337142751655
 20
152.5278043845293
 30
0.0
 70
    32
  0
VERTEX
  5
19CE6
  8
1
 62
     7
 10
666.60737142751657
 20
152.5258043845289
 30
0.0
 70
    32
  0
VERTEX
  5
19CE7
  8
1
 62
     7
 10
666.61137142751681
 20
152.5238043845292
 30
0.0
 70
    32
  0
VERTEX
  5
19CE8
  8
1
 62
     7
 10
666.61537142751683
 20
152.522804384529
 30
0.0
 70
    32
  0
VERTEX
  5
19CE9
  8
1
 62
     7
 10
666.61937142751708
 20
152.5208043845293
 30
0.0
 70
    32
  0
VERTEX
  5
19CEA
  8
1
 62
     7
 10
666.62337142751664
 20
152.51880438452889
 30
0.0
 70
    32
  0
VERTEX
  5
19CEB
  8
1
 62
     7
 10
666.62737142751678
 20
152.517804384529
 30
0.0
 70
    32
  0
VERTEX
  5
19CEC
  8
1
 62
     7
 10
666.63137142751691
 20
152.51580438452891
 30
0.0
 70
    32
  0
VERTEX
  5
19CED
  8
1
 62
     7
 10
666.63537142751625
 20
152.5138043845289
 30
0.0
 70
    32
  0
VERTEX
  5
19CEE
  8
1
 62
     7
 10
666.63937142751649
 20
152.51280438452901
 30
0.0
 70
    32
  0
VERTEX
  5
19CEF
  8
1
 62
     7
 10
666.64337142751629
 20
152.51080438452931
 30
0.0
 70
    32
  0
VERTEX
  5
19CF0
  8
1
 62
     7
 10
666.64737142751665
 20
152.5098043845291
 30
0.0
 70
    32
  0
VERTEX
  5
19CF1
  8
1
 62
     7
 10
666.65137142751678
 20
152.50780438452901
 30
0.0
 70
    32
  0
VERTEX
  5
19CF2
  8
1
 62
     7
 10
666.65537142751691
 20
152.50680438452909
 30
0.0
 70
    32
  0
VERTEX
  5
19CF3
  8
1
 62
     7
 10
666.65937142751682
 20
152.5048043845288
 30
0.0
 70
    32
  0
VERTEX
  5
19CF4
  8
1
 62
     7
 10
666.66337142751684
 20
152.50380438452919
 30
0.0
 70
    32
  0
VERTEX
  5
19CF5
  8
1
 62
     7
 10
666.66737142751617
 20
152.50280438452899
 30
0.0
 70
    32
  0
VERTEX
  5
19CF6
  8
1
 62
     7
 10
666.67137142751653
 20
152.50080438452929
 30
0.0
 70
    32
  0
VERTEX
  5
19CF7
  8
1
 62
     7
 10
666.67537142751655
 20
152.49980438452911
 30
0.0
 70
    32
  0
VERTEX
  5
19CF8
  8
1
 62
     7
 10
666.6793714275168
 20
152.49880438452891
 30
0.0
 70
    32
  0
VERTEX
  5
19CF9
  8
1
 62
     7
 10
666.68337142751682
 20
152.49680438452921
 30
0.0
 70
    32
  0
VERTEX
  5
19CFA
  8
1
 62
     7
 10
666.68737142751695
 20
152.49580438452861
 30
0.0
 70
    32
  0
VERTEX
  5
19CFB
  8
1
 62
     7
 10
666.69137142751674
 20
152.49480438452909
 30
0.0
 70
    32
  0
VERTEX
  5
19CFC
  8
1
 62
     7
 10
666.69637142751685
 20
152.4938043845292
 30
0.0
 70
    32
  0
VERTEX
  5
19CFD
  8
1
 62
     7
 10
666.70037142751664
 20
152.49280438452899
 30
0.0
 70
    32
  0
VERTEX
  5
19CFE
  8
1
 62
     7
 10
666.70437142751666
 20
152.49080438452901
 30
0.0
 70
    32
  0
VERTEX
  5
19CFF
  8
1
 62
     7
 10
666.70837142751691
 20
152.48980438452909
 30
0.0
 70
    32
  0
VERTEX
  5
19D00
  8
1
 62
     7
 10
666.71237142751625
 20
152.48880438452889
 30
0.0
 70
    32
  0
VERTEX
  5
19D01
  8
1
 62
     7
 10
666.71637142751626
 20
152.4878043845294
 30
0.0
 70
    32
  0
VERTEX
  5
19D02
  8
1
 62
     7
 10
666.72037142751651
 20
152.4868043845288
 30
0.0
 70
    32
  0
VERTEX
  5
19D03
  8
1
 62
     7
 10
666.72437142751664
 20
152.48580438452899
 30
0.0
 70
    32
  0
VERTEX
  5
19D04
  8
1
 62
     7
 10
666.72937142751664
 20
152.48480438452879
 30
0.0
 70
    32
  0
VERTEX
  5
19D05
  8
1
 62
     7
 10
666.73337142751677
 20
152.48380438452909
 30
0.0
 70
    32
  0
VERTEX
  5
19D06
  8
1
 62
     7
 10
666.7373714275169
 20
152.482804384529
 30
0.0
 70
    32
  0
VERTEX
  5
19D07
  8
1
 62
     7
 10
666.74137142751681
 20
152.4818043845288
 30
0.0
 70
    32
  0
VERTEX
  5
19D08
  8
1
 62
     7
 10
666.74537142751683
 20
152.48080438452899
 30
0.0
 70
    32
  0
VERTEX
  5
19D09
  8
1
 62
     7
 10
666.74937142751673
 20
152.4798043845291
 30
0.0
 70
    32
  0
VERTEX
  5
19D0A
  8
1
 62
     7
 10
666.75437142751684
 20
152.4798043845291
 30
0.0
 70
    32
  0
VERTEX
  5
19D0B
  8
1
 62
     7
 10
666.75837142751675
 20
152.4788043845289
 30
0.0
 70
    32
  0
VERTEX
  5
19D0C
  8
1
 62
     7
 10
666.7623714275162
 20
152.4778043845287
 30
0.0
 70
    32
  0
VERTEX
  5
19D0D
  8
1
 62
     7
 10
666.76637142751679
 20
152.4768043845292
 30
0.0
 70
    32
  0
VERTEX
  5
19D0E
  8
1
 62
     7
 10
666.77037142751635
 20
152.475804384529
 30
0.0
 70
    32
  0
VERTEX
  5
19D0F
  8
1
 62
     7
 10
666.77537142751635
 20
152.475804384529
 30
0.0
 70
    32
  0
VERTEX
  5
19D10
  8
1
 62
     7
 10
666.77937142751682
 20
152.4748043845288
 30
0.0
 70
    32
  0
VERTEX
  5
19D11
  8
1
 62
     7
 10
666.78337142751684
 20
152.4738043845293
 30
0.0
 70
    32
  0
VERTEX
  5
19D12
  8
1
 62
     7
 10
666.78737142751675
 20
152.4738043845293
 30
0.0
 70
    32
  0
VERTEX
  5
19D13
  8
1
 62
     7
 10
666.79237142751674
 20
152.4728043845291
 30
0.0
 70
    32
  0
VERTEX
  5
19D14
  8
1
 62
     7
 10
666.79637142751665
 20
152.47180438452889
 30
0.0
 70
    32
  0
VERTEX
  5
19D15
  8
1
 62
     7
 10
666.80037142751667
 20
152.47180438452889
 30
0.0
 70
    32
  0
VERTEX
  5
19D16
  8
1
 62
     7
 10
666.80437142751703
 20
152.470804384529
 30
0.0
 70
    32
  0
VERTEX
  5
19D17
  8
1
 62
     7
 10
666.80937142751691
 20
152.470804384529
 30
0.0
 70
    32
  0
VERTEX
  5
19D18
  8
1
 62
     7
 10
666.8133714275167
 20
152.46980438452911
 30
0.0
 70
    32
  0
VERTEX
  5
19D19
  8
1
 62
     7
 10
666.81737142751683
 20
152.46980438452911
 30
0.0
 70
    32
  0
VERTEX
  5
19D1A
  8
1
 62
     7
 10
666.82137142751674
 20
152.46880438452891
 30
0.0
 70
    32
  0
VERTEX
  5
19D1B
  8
1
 62
     7
 10
666.82637142751673
 20
152.46880438452891
 30
0.0
 70
    32
  0
VERTEX
  5
19D1C
  8
1
 62
     7
 10
666.83037142751641
 20
152.46880438452891
 30
0.0
 70
    32
  0
VERTEX
  5
19D1D
  8
1
 62
     7
 10
666.83437142751677
 20
152.4678043845289
 30
0.0
 70
    32
  0
VERTEX
  5
19D1E
  8
1
 62
     7
 10
666.83837142751656
 20
152.4678043845289
 30
0.0
 70
    32
  0
VERTEX
  5
19D1F
  8
1
 62
     7
 10
666.84337142751679
 20
152.4678043845289
 30
0.0
 70
    32
  0
VERTEX
  5
19D20
  8
1
 62
     7
 10
666.84737142751635
 20
152.4678043845289
 30
0.0
 70
    32
  0
VERTEX
  5
19D21
  8
1
 62
     7
 10
666.8513714275166
 20
152.46680438452921
 30
0.0
 70
    32
  0
VERTEX
  5
19D22
  8
1
 62
     7
 10
666.85537142751673
 20
152.46680438452921
 30
0.0
 70
    32
  0
VERTEX
  5
19D23
  8
1
 62
     7
 10
666.86037142751684
 20
152.46680438452921
 30
0.0
 70
    32
  0
VERTEX
  5
19D24
  8
1
 62
     7
 10
666.86437142751686
 20
152.46680438452921
 30
0.0
 70
    32
  0
VERTEX
  5
19D25
  8
1
 62
     7
 10
666.86837142751665
 20
152.46680438452921
 30
0.0
 70
    32
  0
VERTEX
  5
19D26
  8
1
 62
     7
 10
666.87337142751664
 20
152.46680438452921
 30
0.0
 70
    32
  0
VERTEX
  5
19D27
  8
1
 62
     7
 10
666.87737142751666
 20
152.46680438452921
 30
0.0
 70
    32
  0
VERTEX
  5
19D28
  8
1
 62
     7
 10
666.8813714275168
 20
152.46680438452921
 30
0.0
 70
    32
  0
VERTEX
  5
19D29
  8
1
 62
     7
 10
666.88537142751682
 20
152.46680438452921
 30
0.0
 70
    32
  0
VERTEX
  5
19D2A
  8
1
 62
     7
 10
666.89037142751681
 20
152.46680438452921
 30
0.0
 70
    32
  0
VERTEX
  5
19D2B
  8
1
 62
     7
 10
666.89437142751683
 20
152.4678043845289
 30
0.0
 70
    32
  0
VERTEX
  5
19D2C
  8
1
 62
     7
 10
666.89837142751674
 20
152.4678043845289
 30
0.0
 70
    32
  0
VERTEX
  5
19D2D
  8
1
 62
     7
 10
666.90237142751653
 20
152.4678043845289
 30
0.0
 70
    32
  0
VERTEX
  5
19D2E
  8
1
 62
     7
 10
666.90737142751641
 20
152.4678043845289
 30
0.0
 70
    32
  0
VERTEX
  5
19D2F
  8
1
 62
     7
 10
666.91137142751666
 20
152.46880438452891
 30
0.0
 70
    32
  0
VERTEX
  5
19D30
  8
1
 62
     7
 10
666.91537142751656
 20
152.46880438452891
 30
0.0
 70
    32
  0
VERTEX
  5
19D31
  8
1
 62
     7
 10
666.91937142751669
 20
152.46880438452891
 30
0.0
 70
    32
  0
VERTEX
  5
19D32
  8
1
 62
     7
 10
666.92437142751646
 20
152.46980438452911
 30
0.0
 70
    32
  0
VERTEX
  5
19D33
  8
1
 62
     7
 10
666.92837142751671
 20
152.46980438452911
 30
0.0
 70
    32
  0
VERTEX
  5
19D34
  8
1
 62
     7
 10
666.93237142751684
 20
152.46980438452911
 30
0.0
 70
    32
  0
VERTEX
  5
19D35
  8
1
 62
     7
 10
666.93637142751697
 20
152.470804384529
 30
0.0
 70
    32
  0
VERTEX
  5
19D36
  8
1
 62
     7
 10
666.94137142751674
 20
152.470804384529
 30
0.0
 70
    32
  0
VERTEX
  5
19D37
  8
1
 62
     7
 10
666.94537142751665
 20
152.47180438452889
 30
0.0
 70
    32
  0
VERTEX
  5
19D38
  8
1
 62
     7
 10
666.94937142751678
 20
152.47180438452889
 30
0.0
 70
    32
  0
VERTEX
  5
19D39
  8
1
 62
     7
 10
666.95337142751634
 20
152.4728043845291
 30
0.0
 70
    32
  0
VERTEX
  5
19D3A
  8
1
 62
     7
 10
666.95837142751679
 20
152.4728043845291
 30
0.0
 70
    32
  0
VERTEX
  5
19D3B
  8
1
 62
     7
 10
666.96237142751681
 20
152.4738043845293
 30
0.0
 70
    32
  0
VERTEX
  5
19D3C
  8
1
 62
     7
 10
666.96637142751683
 20
152.4738043845293
 30
0.0
 70
    32
  0
VERTEX
  5
19D3D
  8
1
 62
     7
 10
666.97037142751662
 20
152.4748043845288
 30
0.0
 70
    32
  0
VERTEX
  5
19D3E
  8
1
 62
     7
 10
666.97537142751673
 20
152.4748043845288
 30
0.0
 70
    32
  0
VERTEX
  5
19D3F
  8
1
 62
     7
 10
666.97937142751653
 20
152.475804384529
 30
0.0
 70
    32
  0
VERTEX
  5
19D40
  8
1
 62
     7
 10
666.98337142751643
 20
152.475804384529
 30
0.0
 70
    32
  0
VERTEX
  5
19D41
  8
1
 62
     7
 10
666.98737142751668
 20
152.4768043845292
 30
0.0
 70
    32
  0
SEQEND
  5
19D42
  8
1
 62
     7
  0
ARC
  5
19D43
  8
1
  6
CONTINUOUS
 62
     7
 10
657.85778623055944
 20
154.96685144960281
 30
0.0
 40
2.4999999999999991
 50
180.0
 51
270.0
  0
LINE
  5
19D44
  8
1
  6
CONTINUOUS
 62
     7
 10
653.75778623055987
 20
152.4668514496031
 30
0.0
 11
657.85778623055944
 21
152.4668514496031
 31
0.0
  0
ARC
  5
19D45
  8
1
  6
CONTINUOUS
 62
     7
 10
653.75778623055987
 20
152.9668514496029
 30
0.0
 40
0.5
 50
180.0
 51
270.0
  0
LINE
  5
19D46
  8
1
  6
CONTINUOUS
 62
     7
 10
664.17778623055983
 20
165.46685144960281
 30
0.0
 11
655.35778623055944
 21
164.00185144960309
 31
0.0
  0
LINE
  5
19D47
  8
1
  6
CONTINUOUS
 62
     7
 10
664.75778623056101
 20
169.46685144960301
 30
0.0
 11
653.25778623056124
 21
169.46685144960301
 31
0.0
  0
LINE
  5
19D48
  8
AM_0
 10
659.27604131948544
 20
193.45697144960741
 30
0.0
 11
676.12489131948564
 21
193.45697144960741
 31
0.0
  0
LINE
  5
19D49
  8
1
  6
CONTINUOUS
 62
     7
 10
670.35778623056274
 20
186.46685144960281
 30
0.0
 11
664.75778623056101
 21
186.46685144960281
 31
0.0
  0
LINE
  5
19D4A
  8
AM_0
 10
655.75779385995395
 20
186.47955144960761
 30
0.0
 11
655.75779385995395
 21
188.9795514496077
 31
0.0
  0
LINE
  5
19D4B
  8
1
  6
CONTINUOUS
 62
     7
 10
663.15778623056246
 20
186.46685144960281
 30
0.0
 11
654.25778623056135
 21
186.46685144960281
 31
0.0
  0
ARC
  5
19D4C
  8
1
  6
CONTINUOUS
 62
     7
 10
654.25778623056135
 20
185.46685144960301
 30
0.0
 40
0.9999999999998864
 50
90.0
 51
180.0
  0
ARC
  5
19D4D
  8
1
  6
CONTINUOUS
 62
     7
 10
663.75778623056124
 20
185.46685144960301
 30
0.0
 40
0.9999999999999998
 50
0.0
 51
90.0
  0
LINE
  5
19D4E
  8
1
  6
CONTINUOUS
 62
     7
 10
664.75778623056101
 20
186.46685144960281
 30
0.0
 11
663.75778623056124
 21
186.46685144960281
 31
0.0
  0
LINE
  5
19D4F
  8
1
  6
CONTINUOUS
 62
     7
 10
663.75778623056124
 20
186.46685144960281
 30
0.0
 11
663.15778623056246
 21
186.46685144960281
 31
0.0
  0
LINE
  5
19D50
  8
1
  6
CONTINUOUS
 62
     7
 10
713.75778623056124
 20
185.46685144960301
 30
0.0
 11
713.75778623056124
 21
169.46685144960301
 31
0.0
  0
LINE
  5
19D51
  8
1
  6
CONTINUOUS
 62
     7
 10
725.25778623056135
 20
152.9668514496029
 30
0.0
 11
725.25778623056135
 21
185.46685144960301
 31
0.0
  0
LINE
  5
19D52
  8
1
  6
CONTINUOUS
 62
     7
 10
694.75778623055999
 20
179.75006500937491
 30
0.0
 11
694.75778623055999
 21
165.46685144960321
 31
0.0
  0
LINE
  5
19D53
  8
1
  6
CONTINUOUS
 62
     7
 10
683.75778623055942
 20
165.46685144960321
 30
0.0
 11
683.75778623055942
 21
179.75006500937491
 31
0.0
  0
LINE
  5
19D54
  8
1
  6
CONTINUOUS
 62
     7
 10
694.75778623055999
 20
169.46685144960301
 30
0.0
 11
725.25778623055965
 21
169.46685144960301
 31
0.0
  0
LINE
  5
19D55
  8
1
  6
CONTINUOUS
 62
     7
 10
714.3377862305598
 20
165.46685144960281
 30
0.0
 11
723.15778623055905
 21
164.00185144960309
 31
0.0
  0
LINE
  5
19D56
  8
1
  6
CONTINUOUS
 62
     7
 10
725.25778623056135
 20
169.46685144960301
 30
0.0
 11
713.75778623056124
 21
169.46685144960301
 31
0.0
  0
LINE
  5
19D57
  8
1
  6
CONTINUOUS
 62
     7
 10
712.88793774957628
 20
165.46685144960281
 30
0.0
 11
712.88793774957628
 21
154.96685144960281
 31
0.0
  0
POLYLINE
  5
19D58
  8
1
 62
     7
 66
     1
 10
0.0
 20
0.0
 30
0.0
 70
     8
  0
VERTEX
  5
19D59
  8
1
 62
     7
 10
711.74797142751663
 20
152.4768043845292
 30
0.0
 70
    32
  0
VERTEX
  5
19D5A
  8
1
 62
     7
 10
711.75217142751694
 20
152.4778043845287
 30
0.0
 70
    32
  0
VERTEX
  5
19D5B
  8
1
 62
     7
 10
711.75647142751643
 20
152.4788043845289
 30
0.0
 70
    32
  0
VERTEX
  5
19D5C
  8
1
 62
     7
 10
711.76067142751617
 20
152.4798043845291
 30
0.0
 70
    32
  0
VERTEX
  5
19D5D
  8
1
 62
     7
 10
711.76497142751634
 20
152.48080438452899
 30
0.0
 70
    32
  0
VERTEX
  5
19D5E
  8
1
 62
     7
 10
711.76917142751665
 20
152.4818043845288
 30
0.0
 70
    32
  0
VERTEX
  5
19D5F
  8
1
 62
     7
 10
711.77347142751682
 20
152.482804384529
 30
0.0
 70
    32
  0
VERTEX
  5
19D60
  8
1
 62
     7
 10
711.77767142751679
 20
152.48380438452909
 30
0.0
 70
    32
  0
VERTEX
  5
19D61
  8
1
 62
     7
 10
711.78187142751665
 20
152.48480438452879
 30
0.0
 70
    32
  0
VERTEX
  5
19D62
  8
1
 62
     7
 10
711.78617142751636
 20
152.48580438452899
 30
0.0
 70
    32
  0
VERTEX
  5
19D63
  8
1
 62
     7
 10
711.79037142751667
 20
152.4868043845288
 30
0.0
 70
    32
  0
VERTEX
  5
19D64
  8
1
 62
     7
 10
711.79457142751664
 20
152.4878043845294
 30
0.0
 70
    32
  0
VERTEX
  5
19D65
  8
1
 62
     7
 10
711.79887142751681
 20
152.48880438452889
 30
0.0
 70
    32
  0
VERTEX
  5
19D66
  8
1
 62
     7
 10
711.80307142751667
 20
152.48980438452909
 30
0.0
 70
    32
  0
VERTEX
  5
19D67
  8
1
 62
     7
 10
711.8072714275163
 20
152.49080438452901
 30
0.0
 70
    32
  0
VERTEX
  5
19D68
  8
1
 62
     7
 10
711.81147142751615
 20
152.49180438452879
 30
0.0
 70
    32
  0
VERTEX
  5
19D69
  8
1
 62
     7
 10
711.81567142751658
 20
152.49280438452899
 30
0.0
 70
    32
  0
VERTEX
  5
19D6A
  8
1
 62
     7
 10
711.81987142751643
 20
152.49480438452909
 30
0.0
 70
    32
  0
VERTEX
  5
19D6B
  8
1
 62
     7
 10
711.82407142751617
 20
152.49580438452861
 30
0.0
 70
    32
  0
VERTEX
  5
19D6C
  8
1
 62
     7
 10
711.82817142751696
 20
152.49680438452921
 30
0.0
 70
    32
  0
VERTEX
  5
19D6D
  8
1
 62
     7
 10
711.83237142751682
 20
152.49780438452939
 30
0.0
 70
    32
  0
VERTEX
  5
19D6E
  8
1
 62
     7
 10
711.83657142751656
 20
152.49880438452891
 30
0.0
 70
    32
  0
VERTEX
  5
19D6F
  8
1
 62
     7
 10
711.8406714275161
 20
152.50080438452929
 30
0.0
 70
    32
  0
VERTEX
  5
19D70
  8
1
 62
     7
 10
711.84487142751709
 20
152.50180438452921
 30
0.0
 70
    32
  0
VERTEX
  5
19D71
  8
1
 62
     7
 10
711.84897142751674
 20
152.50280438452899
 30
0.0
 70
    32
  0
VERTEX
  5
19D72
  8
1
 62
     7
 10
711.85307142751628
 20
152.5048043845288
 30
0.0
 70
    32
  0
VERTEX
  5
19D73
  8
1
 62
     7
 10
711.85717142751673
 20
152.50580438452931
 30
0.0
 70
    32
  0
VERTEX
  5
19D74
  8
1
 62
     7
 10
711.86137142751681
 20
152.50680438452909
 30
0.0
 70
    32
  0
VERTEX
  5
19D75
  8
1
 62
     7
 10
711.86537142751683
 20
152.5088043845289
 30
0.0
 70
    32
  0
VERTEX
  5
19D76
  8
1
 62
     7
 10
711.86947142751615
 20
152.5098043845291
 30
0.0
 70
    32
  0
VERTEX
  5
19D77
  8
1
 62
     7
 10
711.87357142751648
 20
152.5118043845288
 30
0.0
 70
    32
  0
VERTEX
  5
19D78
  8
1
 62
     7
 10
711.87767142751636
 20
152.51280438452901
 30
0.0
 70
    32
  0
VERTEX
  5
19D79
  8
1
 62
     7
 10
711.88167142751649
 20
152.51480438452941
 30
0.0
 70
    32
  0
VERTEX
  5
19D7A
  8
1
 62
     7
 10
711.8857714275166
 20
152.51580438452891
 30
0.0
 70
    32
  0
VERTEX
  5
19D7B
  8
1
 62
     7
 10
711.88977142751628
 20
152.517804384529
 30
0.0
 70
    32
  0
VERTEX
  5
19D7C
  8
1
 62
     7
 10
711.89377142751664
 20
152.5198043845291
 30
0.0
 70
    32
  0
VERTEX
  5
19D7D
  8
1
 62
     7
 10
711.89777142751677
 20
152.5208043845293
 30
0.0
 70
    32
  0
VERTEX
  5
19D7E
  8
1
 62
     7
 10
711.90177142751691
 20
152.522804384529
 30
0.0
 70
    32
  0
VERTEX
  5
19D7F
  8
1
 62
     7
 10
711.90577142751692
 20
152.52480438452909
 30
0.0
 70
    32
  0
VERTEX
  5
19D80
  8
1
 62
     7
 10
711.90977142751694
 20
152.5268043845291
 30
0.0
 70
    32
  0
VERTEX
  5
19D81
  8
1
 62
     7
 10
711.9136714275171
 20
152.5278043845293
 30
0.0
 70
    32
  0
VERTEX
  5
19D82
  8
1
 62
     7
 10
711.91767142751644
 20
152.52980438452909
 30
0.0
 70
    32
  0
VERTEX
  5
19D83
  8
1
 62
     7
 10
711.92157142751682
 20
152.53180438452881
 30
0.0
 70
    32
  0
VERTEX
  5
19D84
  8
1
 62
     7
 10
711.92557142751696
 20
152.53380438452919
 30
0.0
 70
    32
  0
VERTEX
  5
19D85
  8
1
 62
     7
 10
711.92947142751666
 20
152.53580438452889
 30
0.0
 70
    32
  0
VERTEX
  5
19D86
  8
1
 62
     7
 10
711.93337142751682
 20
152.5378043845293
 30
0.0
 70
    32
  0
VERTEX
  5
19D87
  8
1
 62
     7
 10
711.93727142751686
 20
152.53980438452899
 30
0.0
 70
    32
  0
VERTEX
  5
19D88
  8
1
 62
     7
 10
711.94117142751679
 20
152.5418043845288
 30
0.0
 70
    32
  0
VERTEX
  5
19D89
  8
1
 62
     7
 10
711.94507142751684
 20
152.54380438452921
 30
0.0
 70
    32
  0
VERTEX
  5
19D8A
  8
1
 62
     7
 10
711.94897142751665
 20
152.54580438452891
 30
0.0
 70
    32
  0
VERTEX
  5
19D8B
  8
1
 62
     7
 10
711.95277142751684
 20
152.547804384529
 30
0.0
 70
    32
  0
VERTEX
  5
19D8C
  8
1
 62
     7
 10
711.95667142751665
 20
152.54980438452901
 30
0.0
 70
    32
  0
VERTEX
  5
19D8D
  8
1
 62
     7
 10
711.9604714275165
 20
152.55180438452879
 30
0.0
 70
    32
  0
VERTEX
  5
19D8E
  8
1
 62
     7
 10
711.96427142751656
 20
152.5538043845288
 30
0.0
 70
    32
  0
VERTEX
  5
19D8F
  8
1
 62
     7
 10
711.96817142751638
 20
152.55580438452921
 30
0.0
 70
    32
  0
VERTEX
  5
19D90
  8
1
 62
     7
 10
711.97197142751691
 20
152.55780438452899
 30
0.0
 70
    32
  0
VERTEX
  5
19D91
  8
1
 62
     7
 10
711.97577142751675
 20
152.559804384529
 30
0.0
 70
    32
  0
VERTEX
  5
19D92
  8
1
 62
     7
 10
711.97947142751696
 20
152.5618043845291
 30
0.0
 70
    32
  0
VERTEX
  5
19D93
  8
1
 62
     7
 10
711.98327142751691
 20
152.56380438452919
 30
0.0
 70
    32
  0
VERTEX
  5
19D94
  8
1
 62
     7
 10
711.9870714275163
 20
152.56680438452909
 30
0.0
 70
    32
  0
VERTEX
  5
19D95
  8
1
 62
     7
 10
711.99077142751662
 20
152.56880438452879
 30
0.0
 70
    32
  0
VERTEX
  5
19D96
  8
1
 62
     7
 10
711.99457142751635
 20
152.5708043845292
 30
0.0
 70
    32
  0
VERTEX
  5
19D97
  8
1
 62
     7
 10
711.99827142751644
 20
152.57280438452901
 30
0.0
 70
    32
  0
VERTEX
  5
19D98
  8
1
 62
     7
 10
712.00197142751665
 20
152.57580438452891
 30
0.0
 70
    32
  0
VERTEX
  5
19D99
  8
1
 62
     7
 10
712.00577142751683
 20
152.57780438452889
 30
0.0
 70
    32
  0
VERTEX
  5
19D9A
  8
1
 62
     7
 10
712.00947142751659
 20
152.57980438452901
 30
0.0
 70
    32
  0
VERTEX
  5
19D9B
  8
1
 62
     7
 10
712.01307142751682
 20
152.58180438452911
 30
0.0
 70
    32
  0
VERTEX
  5
19D9C
  8
1
 62
     7
 10
712.01677142751635
 20
152.58480438452901
 30
0.0
 70
    32
  0
VERTEX
  5
19D9D
  8
1
 62
     7
 10
712.02047142751678
 20
152.5868043845291
 30
0.0
 70
    32
  0
VERTEX
  5
19D9E
  8
1
 62
     7
 10
712.02407142751656
 20
152.5888043845288
 30
0.0
 70
    32
  0
VERTEX
  5
19D9F
  8
1
 62
     7
 10
712.02777142751665
 20
152.5918043845287
 30
0.0
 70
    32
  0
VERTEX
  5
19DA0
  8
1
 62
     7
 10
712.03137142751689
 20
152.59380438452911
 30
0.0
 70
    32
  0
VERTEX
  5
19DA1
  8
1
 62
     7
 10
712.03507142751664
 20
152.59680438452909
 30
0.0
 70
    32
  0
VERTEX
  5
19DA2
  8
1
 62
     7
 10
712.03867142751665
 20
152.59880438452879
 30
0.0
 70
    32
  0
VERTEX
  5
19DA3
  8
1
 62
     7
 10
712.04227142751699
 20
152.6008043845292
 30
0.0
 70
    32
  0
VERTEX
  5
19DA4
  8
1
 62
     7
 10
712.04587142751654
 20
152.6038043845291
 30
0.0
 70
    32
  0
VERTEX
  5
19DA5
  8
1
 62
     7
 10
712.04937142751692
 20
152.60580438452891
 30
0.0
 70
    32
  0
VERTEX
  5
19DA6
  8
1
 62
     7
 10
712.05297142751692
 20
152.60880438452881
 30
0.0
 70
    32
  0
VERTEX
  5
19DA7
  8
1
 62
     7
 10
712.0565714275167
 20
152.61080438452919
 30
0.0
 70
    32
  0
VERTEX
  5
19DA8
  8
1
 62
     7
 10
712.06007142751673
 20
152.61380438452909
 30
0.0
 70
    32
  0
VERTEX
  5
19DA9
  8
1
 62
     7
 10
712.06357142751654
 20
152.6158043845289
 30
0.0
 70
    32
  0
VERTEX
  5
19DAA
  8
1
 62
     7
 10
712.06707142751679
 20
152.6188043845288
 30
0.0
 70
    32
  0
VERTEX
  5
19DAB
  8
1
 62
     7
 10
712.0706714275168
 20
152.6218043845291
 30
0.0
 70
    32
  0
VERTEX
  5
19DAC
  8
1
 62
     7
 10
712.07407142751674
 20
152.62380438452911
 30
0.0
 70
    32
  0
VERTEX
  5
19DAD
  8
1
 62
     7
 10
712.07757142751666
 20
152.62680438452901
 30
0.0
 70
    32
  0
VERTEX
  5
19DAE
  8
1
 62
     7
 10
712.08107142751635
 20
152.6288043845295
 30
0.0
 70
    32
  0
VERTEX
  5
19DAF
  8
1
 62
     7
 10
712.08457142751683
 20
152.631804384529
 30
0.0
 70
    32
  0
VERTEX
  5
19DB0
  8
1
 62
     7
 10
712.08797142751678
 20
152.63480438452899
 30
0.0
 70
    32
  0
VERTEX
  5
19DB1
  8
1
 62
     7
 10
712.09147142751658
 20
152.636804384529
 30
0.0
 70
    32
  0
VERTEX
  5
19DB2
  8
1
 62
     7
 10
712.09487142751686
 20
152.63980438452899
 30
0.0
 70
    32
  0
VERTEX
  5
19DB3
  8
1
 62
     7
 10
712.09827142751635
 20
152.64280438452889
 30
0.0
 70
    32
  0
VERTEX
  5
19DB4
  8
1
 62
     7
 10
712.10167142751675
 20
152.64480438452901
 30
0.0
 70
    32
  0
VERTEX
  5
19DB5
  8
1
 62
     7
 10
712.1050714275168
 20
152.64780438452919
 30
0.0
 70
    32
  0
VERTEX
  5
19DB6
  8
1
 62
     7
 10
712.10847142751675
 20
152.65080438452921
 30
0.0
 70
    32
  0
VERTEX
  5
19DB7
  8
1
 62
     7
 10
712.11177142751649
 20
152.65380438452911
 30
0.0
 70
    32
  0
VERTEX
  5
19DB8
  8
1
 62
     7
 10
712.11517142751677
 20
152.65580438452909
 30
0.0
 70
    32
  0
VERTEX
  5
19DB9
  8
1
 62
     7
 10
712.11847142751662
 20
152.65880438452871
 30
0.0
 70
    32
  0
VERTEX
  5
19DBA
  8
1
 62
     7
 10
712.12187142751657
 20
152.66180438452901
 30
0.0
 70
    32
  0
VERTEX
  5
19DBB
  8
1
 62
     7
 10
712.12517142751665
 20
152.6648043845293
 30
0.0
 70
    32
  0
VERTEX
  5
19DBC
  8
1
 62
     7
 10
712.12847142751605
 20
152.666804384529
 30
0.0
 70
    32
  0
VERTEX
  5
19DBD
  8
1
 62
     7
 10
712.13177142751681
 20
152.6698043845289
 30
0.0
 70
    32
  0
VERTEX
  5
19DBE
  8
1
 62
     7
 10
712.13507142751689
 20
152.67280438452889
 30
0.0
 70
    32
  0
VERTEX
  5
19DBF
  8
1
 62
     7
 10
712.13837142751629
 20
152.67580438452879
 30
0.0
 70
    32
  0
VERTEX
  5
19DC0
  8
1
 62
     7
 10
712.14167142751694
 20
152.67880438452909
 30
0.0
 70
    32
  0
VERTEX
  5
19DC1
  8
1
 62
     7
 10
712.14487142751693
 20
152.68180438452899
 30
0.0
 70
    32
  0
VERTEX
  5
19DC2
  8
1
 62
     7
 10
712.14817142751679
 20
152.68480438452889
 30
0.0
 70
    32
  0
VERTEX
  5
19DC3
  8
1
 62
     7
 10
712.1513714275161
 20
152.6878043845291
 30
0.0
 70
    32
  0
VERTEX
  5
19DC4
  8
1
 62
     7
 10
712.15457142751632
 20
152.69080438452909
 30
0.0
 70
    32
  0
VERTEX
  5
19DC5
  8
1
 62
     7
 10
712.15777142751688
 20
152.6928043845289
 30
0.0
 70
    32
  0
VERTEX
  5
19DC6
  8
1
 62
     7
 10
712.16097142751687
 20
152.6958043845294
 30
0.0
 70
    32
  0
VERTEX
  5
19DC7
  8
1
 62
     7
 10
712.16417142751675
 20
152.6988043845291
 30
0.0
 70
    32
  0
VERTEX
  5
19DC8
  8
1
 62
     7
 10
712.16737142751674
 20
152.70180438452931
 30
0.0
 70
    32
  0
VERTEX
  5
19DC9
  8
1
 62
     7
 10
712.17057142751673
 20
152.7048043845289
 30
0.0
 70
    32
  0
VERTEX
  5
19DCA
  8
1
 62
     7
 10
712.17367142751664
 20
152.7078043845288
 30
0.0
 70
    32
  0
VERTEX
  5
19DCB
  8
1
 62
     7
 10
712.17687142751686
 20
152.7108043845291
 30
0.0
 70
    32
  0
VERTEX
  5
19DCC
  8
1
 62
     7
 10
712.17997142751688
 20
152.713804384529
 30
0.0
 70
    32
  0
VERTEX
  5
19DCD
  8
1
 62
     7
 10
712.18307142751678
 20
152.71680438452901
 30
0.0
 70
    32
  0
VERTEX
  5
19DCE
  8
1
 62
     7
 10
712.18627142751677
 20
152.71980438452891
 30
0.0
 70
    32
  0
VERTEX
  5
19DCF
  8
1
 62
     7
 10
712.18937142751679
 20
152.72280438452881
 30
0.0
 70
    32
  0
VERTEX
  5
19DD0
  8
1
 62
     7
 10
712.19247142751658
 20
152.72580438452911
 30
0.0
 70
    32
  0
VERTEX
  5
19DD1
  8
1
 62
     7
 10
712.19547142751628
 20
152.72880438452941
 30
0.0
 70
    32
  0
VERTEX
  5
19DD2
  8
1
 62
     7
 10
712.19857142751675
 20
152.7328043845292
 30
0.0
 70
    32
  0
VERTEX
  5
19DD3
  8
1
 62
     7
 10
712.20167142751689
 20
152.7358043845291
 30
0.0
 70
    32
  0
VERTEX
  5
19DD4
  8
1
 62
     7
 10
712.20467142751681
 20
152.738804384529
 30
0.0
 70
    32
  0
VERTEX
  5
19DD5
  8
1
 62
     7
 10
712.20777142751683
 20
152.7418043845293
 30
0.0
 70
    32
  0
VERTEX
  5
19DD6
  8
1
 62
     7
 10
712.21077142751631
 20
152.7448043845292
 30
0.0
 70
    32
  0
VERTEX
  5
19DD7
  8
1
 62
     7
 10
712.21377142751692
 20
152.7478043845291
 30
0.0
 70
    32
  0
VERTEX
  5
19DD8
  8
1
 62
     7
 10
712.21677142751673
 20
152.75080438452909
 30
0.0
 70
    32
  0
VERTEX
  5
19DD9
  8
1
 62
     7
 10
712.21977142751632
 20
152.75380438452899
 30
0.0
 70
    32
  0
VERTEX
  5
19DDA
  8
1
 62
     7
 10
712.22277142751682
 20
152.75780438452909
 30
0.0
 70
    32
  0
VERTEX
  5
19DDB
  8
1
 62
     7
 10
712.22577142751675
 20
152.760804384529
 30
0.0
 70
    32
  0
VERTEX
  5
19DDC
  8
1
 62
     7
 10
712.22877142751668
 20
152.76380438452901
 30
0.0
 70
    32
  0
VERTEX
  5
19DDD
  8
1
 62
     7
 10
712.23167142751618
 20
152.76680438452891
 30
0.0
 70
    32
  0
VERTEX
  5
19DDE
  8
1
 62
     7
 10
712.23467142751645
 20
152.76980438452881
 30
0.0
 70
    32
  0
VERTEX
  5
19DDF
  8
1
 62
     7
 10
712.23757142751685
 20
152.7728043845288
 30
0.0
 70
    32
  0
VERTEX
  5
19DE0
  8
1
 62
     7
 10
712.2405714275169
 20
152.7768043845289
 30
0.0
 70
    32
  0
VERTEX
  5
19DE1
  8
1
 62
     7
 10
712.24347142751685
 20
152.7798043845288
 30
0.0
 70
    32
  0
VERTEX
  5
19DE2
  8
1
 62
     7
 10
712.24637142751692
 20
152.7828043845287
 30
0.0
 70
    32
  0
VERTEX
  5
19DE3
  8
1
 62
     7
 10
712.24927142751676
 20
152.785804384529
 30
0.0
 70
    32
  0
VERTEX
  5
19DE4
  8
1
 62
     7
 10
712.25217142751649
 20
152.78980438452879
 30
0.0
 70
    32
  0
VERTEX
  5
19DE5
  8
1
 62
     7
 10
712.25507142751633
 20
152.79280438452881
 30
0.0
 70
    32
  0
VERTEX
  5
19DE6
  8
1
 62
     7
 10
712.2578714275171
 20
152.79580438452939
 30
0.0
 70
    32
  0
VERTEX
  5
19DE7
  8
1
 62
     7
 10
712.2607714275166
 20
152.79880438452889
 30
0.0
 70
    32
  0
VERTEX
  5
19DE8
  8
1
 62
     7
 10
712.26357142751681
 20
152.80280438452911
 30
0.0
 70
    32
  0
VERTEX
  5
19DE9
  8
1
 62
     7
 10
712.26647142751665
 20
152.80580438452941
 30
0.0
 70
    32
  0
VERTEX
  5
19DEA
  8
1
 62
     7
 10
712.26927142751686
 20
152.80880438452891
 30
0.0
 70
    32
  0
VERTEX
  5
19DEB
  8
1
 62
     7
 10
712.27207142751683
 20
152.8128043845287
 30
0.0
 70
    32
  0
VERTEX
  5
19DEC
  8
1
 62
     7
 10
712.27487142751681
 20
152.815804384529
 30
0.0
 70
    32
  0
VERTEX
  5
19DED
  8
1
 62
     7
 10
712.27767142751668
 20
152.8188043845293
 30
0.0
 70
    32
  0
VERTEX
  5
19DEE
  8
1
 62
     7
 10
712.28047142751689
 20
152.82280438452941
 30
0.0
 70
    32
  0
VERTEX
  5
19DEF
  8
1
 62
     7
 10
712.28327142751675
 20
152.82580438452899
 30
0.0
 70
    32
  0
VERTEX
  5
19DF0
  8
1
 62
     7
 10
712.28607142751605
 20
152.82880438452929
 30
0.0
 70
    32
  0
VERTEX
  5
19DF1
  8
1
 62
     7
 10
712.28877142751617
 20
152.83280438452911
 30
0.0
 70
    32
  0
VERTEX
  5
19DF2
  8
1
 62
     7
 10
712.29157142751683
 20
152.83580438452901
 30
0.0
 70
    32
  0
VERTEX
  5
19DF3
  8
1
 62
     7
 10
712.29427142751683
 20
152.83880438452891
 30
0.0
 70
    32
  0
VERTEX
  5
19DF4
  8
1
 62
     7
 10
712.29707142751681
 20
152.8428043845291
 30
0.0
 70
    32
  0
VERTEX
  5
19DF5
  8
1
 62
     7
 10
712.29977142751682
 20
152.84580438452929
 30
0.0
 70
    32
  0
VERTEX
  5
19DF6
  8
1
 62
     7
 10
712.30247142751671
 20
152.8498043845288
 30
0.0
 70
    32
  0
VERTEX
  5
19DF7
  8
1
 62
     7
 10
712.30517142751683
 20
152.85280438452901
 30
0.0
 70
    32
  0
VERTEX
  5
19DF8
  8
1
 62
     7
 10
712.3078714275166
 20
152.85580438452899
 30
0.0
 70
    32
  0
VERTEX
  5
19DF9
  8
1
 62
     7
 10
712.31057142751649
 20
152.8598043845291
 30
0.0
 70
    32
  0
VERTEX
  5
19DFA
  8
1
 62
     7
 10
712.31327142751661
 20
152.862804384529
 30
0.0
 70
    32
  0
VERTEX
  5
19DFB
  8
1
 62
     7
 10
712.31587142751675
 20
152.86680438452879
 30
0.0
 70
    32
  0
VERTEX
  5
19DFC
  8
1
 62
     7
 10
712.31857142751687
 20
152.86980438452909
 30
0.0
 70
    32
  0
VERTEX
  5
19DFD
  8
1
 62
     7
 10
712.32127142751699
 20
152.87380438452891
 30
0.0
 70
    32
  0
VERTEX
  5
19DFE
  8
1
 62
     7
 10
712.32387142751634
 20
152.87680438452881
 30
0.0
 70
    32
  0
VERTEX
  5
19DFF
  8
1
 62
     7
 10
712.32647142751648
 20
152.87980438452871
 30
0.0
 70
    32
  0
VERTEX
  5
19E00
  8
1
 62
     7
 10
712.32907142751685
 20
152.8838043845289
 30
0.0
 70
    32
  0
VERTEX
  5
19E01
  8
1
 62
     7
 10
712.33177142751686
 20
152.8868043845288
 30
0.0
 70
    32
  0
VERTEX
  5
19E02
  8
1
 62
     7
 10
712.33437142751677
 20
152.89080438452891
 30
0.0
 70
    32
  0
VERTEX
  5
19E03
  8
1
 62
     7
 10
712.3369714275168
 20
152.89380438452889
 30
0.0
 70
    32
  0
VERTEX
  5
19E04
  8
1
 62
     7
 10
712.33947142751686
 20
152.897804384529
 30
0.0
 70
    32
  0
VERTEX
  5
19E05
  8
1
 62
     7
 10
712.34207142751688
 20
152.9008043845289
 30
0.0
 70
    32
  0
VERTEX
  5
19E06
  8
1
 62
     7
 10
712.3446714275168
 20
152.90480438452909
 30
0.0
 70
    32
  0
VERTEX
  5
19E07
  8
1
 62
     7
 10
712.34717142751674
 20
152.90780438452899
 30
0.0
 70
    32
  0
VERTEX
  5
19E08
  8
1
 62
     7
 10
712.34977142751666
 20
152.91180438452909
 30
0.0
 70
    32
  0
VERTEX
  5
19E09
  8
1
 62
     7
 10
712.3522714275166
 20
152.91480438452911
 30
0.0
 70
    32
  0
VERTEX
  5
19E0A
  8
1
 62
     7
 10
712.35487142751617
 20
152.91880438452921
 30
0.0
 70
    32
  0
VERTEX
  5
19E0B
  8
1
 62
     7
 10
712.3573714275168
 20
152.92180438452911
 30
0.0
 70
    32
  0
VERTEX
  5
19E0C
  8
1
 62
     7
 10
712.35987142751651
 20
152.9258043845293
 30
0.0
 70
    32
  0
VERTEX
  5
19E0D
  8
1
 62
     7
 10
712.36237142751679
 20
152.92980438452901
 30
0.0
 70
    32
  0
VERTEX
  5
19E0E
  8
1
 62
     7
 10
712.36487142751673
 20
152.93280438452899
 30
0.0
 70
    32
  0
VERTEX
  5
19E0F
  8
1
 62
     7
 10
712.36737142751679
 20
152.9368043845291
 30
0.0
 70
    32
  0
VERTEX
  5
19E10
  8
1
 62
     7
 10
712.36987142751684
 20
152.939804384529
 30
0.0
 70
    32
  0
VERTEX
  5
19E11
  8
1
 62
     7
 10
712.37227142751692
 20
152.94380438452879
 30
0.0
 70
    32
  0
VERTEX
  5
19E12
  8
1
 62
     7
 10
712.37477142751663
 20
152.9468043845288
 30
0.0
 70
    32
  0
VERTEX
  5
19E13
  8
1
 62
     7
 10
712.37717142751694
 20
152.95080438452891
 30
0.0
 70
    32
  0
VERTEX
  5
19E14
  8
1
 62
     7
 10
712.37967142751643
 20
152.95480438452901
 30
0.0
 70
    32
  0
VERTEX
  5
19E15
  8
1
 62
     7
 10
712.38207142751605
 20
152.95780438452891
 30
0.0
 70
    32
  0
VERTEX
  5
19E16
  8
1
 62
     7
 10
712.38447142751693
 20
152.9618043845291
 30
0.0
 70
    32
  0
VERTEX
  5
19E17
  8
1
 62
     7
 10
712.38697142751676
 20
152.964804384529
 30
0.0
 70
    32
  0
VERTEX
  5
19E18
  8
1
 62
     7
 10
712.38937142751683
 20
152.96880438452919
 30
0.0
 70
    32
  0
VERTEX
  5
19E19
  8
1
 62
     7
 10
712.39177142751635
 20
152.9728043845293
 30
0.0
 70
    32
  0
VERTEX
  5
19E1A
  8
1
 62
     7
 10
712.39417142751677
 20
152.97580438452891
 30
0.0
 70
    32
  0
VERTEX
  5
19E1B
  8
1
 62
     7
 10
712.39657142751662
 20
152.97980438452899
 30
0.0
 70
    32
  0
VERTEX
  5
19E1C
  8
1
 62
     7
 10
712.39887142751684
 20
152.98380438452881
 30
0.0
 70
    32
  0
VERTEX
  5
19E1D
  8
1
 62
     7
 10
712.40127142751612
 20
152.98680438452899
 30
0.0
 70
    32
  0
VERTEX
  5
19E1E
  8
1
 62
     7
 10
712.40367142751631
 20
152.9908043845289
 30
0.0
 70
    32
  0
VERTEX
  5
19E1F
  8
1
 62
     7
 10
712.40597142751665
 20
152.994804384529
 30
0.0
 70
    32
  0
VERTEX
  5
19E20
  8
1
 62
     7
 10
712.40837142751684
 20
152.99780438452891
 30
0.0
 70
    32
  0
VERTEX
  5
19E21
  8
1
 62
     7
 10
712.41067142751695
 20
153.00180438452901
 30
0.0
 70
    32
  0
VERTEX
  5
19E22
  8
1
 62
     7
 10
712.41297142751682
 20
153.0058043845292
 30
0.0
 70
    32
  0
VERTEX
  5
19E23
  8
1
 62
     7
 10
712.41527142751625
 20
153.0088043845291
 30
0.0
 70
    32
  0
VERTEX
  5
19E24
  8
1
 62
     7
 10
712.4175714275168
 20
153.0128043845292
 30
0.0
 70
    32
  0
VERTEX
  5
19E25
  8
1
 62
     7
 10
712.41997142751711
 20
153.016804384529
 30
0.0
 70
    32
  0
VERTEX
  5
19E26
  8
1
 62
     7
 10
712.4221714275169
 20
153.01980438452929
 30
0.0
 70
    32
  0
VERTEX
  5
19E27
  8
1
 62
     7
 10
712.42447142751666
 20
153.0238043845294
 30
0.0
 70
    32
  0
VERTEX
  5
19E28
  8
1
 62
     7
 10
712.42677142751666
 20
153.02780438452891
 30
0.0
 70
    32
  0
VERTEX
  5
19E29
  8
1
 62
     7
 10
712.42907142751687
 20
153.03080438452881
 30
0.0
 70
    32
  0
VERTEX
  5
19E2A
  8
1
 62
     7
 10
712.43137142751652
 20
153.03480438452891
 30
0.0
 70
    32
  0
VERTEX
  5
19E2B
  8
1
 62
     7
 10
712.43357142751688
 20
153.0388043845291
 30
0.0
 70
    32
  0
VERTEX
  5
19E2C
  8
1
 62
     7
 10
712.43587142751664
 20
153.04280438452909
 30
0.0
 70
    32
  0
VERTEX
  5
19E2D
  8
1
 62
     7
 10
712.43807142751689
 20
153.04580438452911
 30
0.0
 70
    32
  0
VERTEX
  5
19E2E
  8
1
 62
     7
 10
712.44027142751668
 20
153.0498043845293
 30
0.0
 70
    32
  0
VERTEX
  5
19E2F
  8
1
 62
     7
 10
712.4425714275169
 20
153.05380438452869
 30
0.0
 70
    32
  0
VERTEX
  5
19E30
  8
1
 62
     7
 10
712.44477142751668
 20
153.0568043845293
 30
0.0
 70
    32
  0
VERTEX
  5
19E31
  8
1
 62
     7
 10
712.44697142751681
 20
153.06080438452881
 30
0.0
 70
    32
  0
VERTEX
  5
19E32
  8
1
 62
     7
 10
712.44917142751694
 20
153.06480438452891
 30
0.0
 70
    32
  0
VERTEX
  5
19E33
  8
1
 62
     7
 10
712.45137142751685
 20
153.0688043845291
 30
0.0
 70
    32
  0
VERTEX
  5
19E34
  8
1
 62
     7
 10
712.45357142751629
 20
153.071804384529
 30
0.0
 70
    32
  0
VERTEX
  5
19E35
  8
1
 62
     7
 10
712.45567142751645
 20
153.07580438452911
 30
0.0
 70
    32
  0
VERTEX
  5
19E36
  8
1
 62
     7
 10
712.45787142751692
 20
153.07980438452921
 30
0.0
 70
    32
  0
VERTEX
  5
19E37
  8
1
 62
     7
 10
712.46007142751671
 20
153.083804384529
 30
0.0
 70
    32
  0
VERTEX
  5
19E38
  8
1
 62
     7
 10
712.46217142751686
 20
153.08780438452879
 30
0.0
 70
    32
  0
VERTEX
  5
19E39
  8
1
 62
     7
 10
712.46437142751631
 20
153.09080438452909
 30
0.0
 70
    32
  0
VERTEX
  5
19E3A
  8
1
 62
     7
 10
712.46647142751658
 20
153.09480438452891
 30
0.0
 70
    32
  0
VERTEX
  5
19E3B
  8
1
 62
     7
 10
712.46867142751626
 20
153.09880438452899
 30
0.0
 70
    32
  0
VERTEX
  5
19E3C
  8
1
 62
     7
 10
712.47077142751664
 20
153.10280438452921
 30
0.0
 70
    32
  0
VERTEX
  5
19E3D
  8
1
 62
     7
 10
712.47287142751645
 20
153.10580438452911
 30
0.0
 70
    32
  0
VERTEX
  5
19E3E
  8
1
 62
     7
 10
712.47497142751695
 20
153.1098043845289
 30
0.0
 70
    32
  0
VERTEX
  5
19E3F
  8
1
 62
     7
 10
712.4770714275171
 20
153.113804384529
 30
0.0
 70
    32
  0
VERTEX
  5
19E40
  8
1
 62
     7
 10
712.47917142751669
 20
153.1178043845288
 30
0.0
 70
    32
  0
VERTEX
  5
19E41
  8
1
 62
     7
 10
712.48127142751696
 20
153.1218043845289
 30
0.0
 70
    32
  0
VERTEX
  5
19E42
  8
1
 62
     7
 10
712.48337142751711
 20
153.12580438452909
 30
0.0
 70
    32
  0
VERTEX
  5
19E43
  8
1
 62
     7
 10
712.4854714275167
 20
153.12880438452899
 30
0.0
 70
    32
  0
VERTEX
  5
19E44
  8
1
 62
     7
 10
712.48747142751677
 20
153.13280438452909
 30
0.0
 70
    32
  0
VERTEX
  5
19E45
  8
1
 62
     7
 10
712.48957142751681
 20
153.13680438452889
 30
0.0
 70
    32
  0
VERTEX
  5
19E46
  8
1
 62
     7
 10
712.49167142751674
 20
153.14080438452939
 30
0.0
 70
    32
  0
VERTEX
  5
19E47
  8
1
 62
     7
 10
712.49367142751692
 20
153.14480438452881
 30
0.0
 70
    32
  0
VERTEX
  5
19E48
  8
1
 62
     7
 10
712.49577142751673
 20
153.1478043845288
 30
0.0
 70
    32
  0
VERTEX
  5
19E49
  8
1
 62
     7
 10
712.4977714275168
 20
153.1518043845289
 30
0.0
 70
    32
  0
VERTEX
  5
19E4A
  8
1
 62
     7
 10
712.49977142751675
 20
153.15580438452901
 30
0.0
 70
    32
  0
VERTEX
  5
19E4B
  8
1
 62
     7
 10
712.50177142751636
 20
153.1598043845292
 30
0.0
 70
    32
  0
VERTEX
  5
19E4C
  8
1
 62
     7
 10
712.50377142751643
 20
153.16380438452899
 30
0.0
 70
    32
  0
VERTEX
  5
19E4D
  8
1
 62
     7
 10
712.50577142751649
 20
153.16780438452909
 30
0.0
 70
    32
  0
VERTEX
  5
19E4E
  8
1
 62
     7
 10
712.50777142751679
 20
153.17180438452891
 30
0.0
 70
    32
  0
VERTEX
  5
19E4F
  8
1
 62
     7
 10
712.50977142751606
 20
153.17480438452881
 30
0.0
 70
    32
  0
VERTEX
  5
19E50
  8
1
 62
     7
 10
712.51177142751681
 20
153.17880438452889
 30
0.0
 70
    32
  0
VERTEX
  5
19E51
  8
1
 62
     7
 10
712.51377142751699
 20
153.18280438452911
 30
0.0
 70
    32
  0
VERTEX
  5
19E52
  8
1
 62
     7
 10
712.51577142751682
 20
153.18680438452921
 30
0.0
 70
    32
  0
VERTEX
  5
19E53
  8
1
 62
     7
 10
712.51767142751658
 20
153.190804384529
 30
0.0
 70
    32
  0
VERTEX
  5
19E54
  8
1
 62
     7
 10
712.51967142751676
 20
153.19480438452879
 30
0.0
 70
    32
  0
VERTEX
  5
19E55
  8
1
 62
     7
 10
712.52157142751651
 20
153.1988043845289
 30
0.0
 70
    32
  0
VERTEX
  5
19E56
  8
1
 62
     7
 10
712.52357142751669
 20
153.20280438452909
 30
0.0
 70
    32
  0
VERTEX
  5
19E57
  8
1
 62
     7
 10
712.52547142751621
 20
153.20680438452919
 30
0.0
 70
    32
  0
VERTEX
  5
19E58
  8
1
 62
     7
 10
712.52737142751675
 20
153.20980438452909
 30
0.0
 70
    32
  0
VERTEX
  5
19E59
  8
1
 62
     7
 10
712.52937142751694
 20
153.21380438452891
 30
0.0
 70
    32
  0
VERTEX
  5
19E5A
  8
1
 62
     7
 10
712.53127142751669
 20
153.21780438452939
 30
0.0
 70
    32
  0
VERTEX
  5
19E5B
  8
1
 62
     7
 10
712.53317142751632
 20
153.22180438452881
 30
0.0
 70
    32
  0
VERTEX
  5
19E5C
  8
1
 62
     7
 10
712.5350714275171
 20
153.225804384529
 30
0.0
 70
    32
  0
VERTEX
  5
19E5D
  8
1
 62
     7
 10
712.53697142751673
 20
153.2298043845291
 30
0.0
 70
    32
  0
VERTEX
  5
19E5E
  8
1
 62
     7
 10
712.53887142751694
 20
153.2338043845289
 30
0.0
 70
    32
  0
VERTEX
  5
19E5F
  8
1
 62
     7
 10
712.54067142751694
 20
153.237804384529
 30
0.0
 70
    32
  0
VERTEX
  5
19E60
  8
1
 62
     7
 10
712.54257142751658
 20
153.24180438452879
 30
0.0
 70
    32
  0
VERTEX
  5
19E61
  8
1
 62
     7
 10
712.54447142751656
 20
153.24580438452901
 30
0.0
 70
    32
  0
VERTEX
  5
19E62
  8
1
 62
     7
 10
712.54627142751667
 20
153.24980438452911
 30
0.0
 70
    32
  0
VERTEX
  5
19E63
  8
1
 62
     7
 10
712.54817142751665
 20
153.25280438452899
 30
0.0
 70
    32
  0
VERTEX
  5
19E64
  8
1
 62
     7
 10
712.54997142751699
 20
153.2568043845292
 30
0.0
 70
    32
  0
VERTEX
  5
19E65
  8
1
 62
     7
 10
712.55187142751697
 20
153.26080438452891
 30
0.0
 70
    32
  0
VERTEX
  5
19E66
  8
1
 62
     7
 10
712.55367142751686
 20
153.2648043845287
 30
0.0
 70
    32
  0
VERTEX
  5
19E67
  8
1
 62
     7
 10
712.55547142751675
 20
153.26880438452889
 30
0.0
 70
    32
  0
VERTEX
  5
19E68
  8
1
 62
     7
 10
712.55737142751684
 20
153.272804384529
 30
0.0
 70
    32
  0
VERTEX
  5
19E69
  8
1
 62
     7
 10
712.55917142751673
 20
153.2768043845291
 30
0.0
 70
    32
  0
VERTEX
  5
19E6A
  8
1
 62
     7
 10
712.56097142751719
 20
153.28080438452929
 30
0.0
 70
    32
  0
VERTEX
  5
19E6B
  8
1
 62
     7
 10
712.56277142751674
 20
153.28480438452911
 30
0.0
 70
    32
  0
VERTEX
  5
19E6C
  8
1
 62
     7
 10
712.56457142751674
 20
153.28880438452879
 30
0.0
 70
    32
  0
VERTEX
  5
19E6D
  8
1
 62
     7
 10
712.56637142751674
 20
153.29280438452901
 30
0.0
 70
    32
  0
VERTEX
  5
19E6E
  8
1
 62
     7
 10
712.56807142751643
 20
153.29680438452911
 30
0.0
 70
    32
  0
VERTEX
  5
19E6F
  8
1
 62
     7
 10
712.56987142751677
 20
153.3008043845289
 30
0.0
 70
    32
  0
VERTEX
  5
19E70
  8
1
 62
     7
 10
712.57167142751666
 20
153.30480438452901
 30
0.0
 70
    32
  0
VERTEX
  5
19E71
  8
1
 62
     7
 10
712.57347142751689
 20
153.3088043845288
 30
0.0
 70
    32
  0
VERTEX
  5
19E72
  8
1
 62
     7
 10
712.57517142751681
 20
153.31280438452899
 30
0.0
 70
    32
  0
VERTEX
  5
19E73
  8
1
 62
     7
 10
712.5769714275167
 20
153.31680438452909
 30
0.0
 70
    32
  0
VERTEX
  5
19E74
  8
1
 62
     7
 10
712.57867142751638
 20
153.3208043845292
 30
0.0
 70
    32
  0
VERTEX
  5
19E75
  8
1
 62
     7
 10
712.58037142751698
 20
153.32480438452939
 30
0.0
 70
    32
  0
VERTEX
  5
19E76
  8
1
 62
     7
 10
712.58217142751676
 20
153.32880438452881
 30
0.0
 70
    32
  0
VERTEX
  5
19E77
  8
1
 62
     7
 10
712.58387142751712
 20
153.33280438452891
 30
0.0
 70
    32
  0
VERTEX
  5
19E78
  8
1
 62
     7
 10
712.58557142751636
 20
153.3368043845291
 30
0.0
 70
    32
  0
VERTEX
  5
19E79
  8
1
 62
     7
 10
712.58727142751684
 20
153.34080438452909
 30
0.0
 70
    32
  0
VERTEX
  5
19E7A
  8
1
 62
     7
 10
712.58897142751653
 20
153.344804384529
 30
0.0
 70
    32
  0
VERTEX
  5
19E7B
  8
1
 62
     7
 10
712.59067142751667
 20
153.34880438452879
 30
0.0
 70
    32
  0
VERTEX
  5
19E7C
  8
1
 62
     7
 10
712.59237142751658
 20
153.35280438452889
 30
0.0
 70
    32
  0
VERTEX
  5
19E7D
  8
1
 62
     7
 10
712.59407142751638
 20
153.356804384529
 30
0.0
 70
    32
  0
VERTEX
  5
19E7E
  8
1
 62
     7
 10
712.59577142751664
 20
153.36080438452919
 30
0.0
 70
    32
  0
VERTEX
  5
19E7F
  8
1
 62
     7
 10
712.59747142751689
 20
153.36480438452901
 30
0.0
 70
    32
  0
VERTEX
  5
19E80
  8
1
 62
     7
 10
712.59917142751692
 20
153.3688043845288
 30
0.0
 70
    32
  0
VERTEX
  5
19E81
  8
1
 62
     7
 10
712.60077142751675
 20
153.37280438452891
 30
0.0
 70
    32
  0
VERTEX
  5
19E82
  8
1
 62
     7
 10
712.60247142751678
 20
153.37680438452909
 30
0.0
 70
    32
  0
VERTEX
  5
19E83
  8
1
 62
     7
 10
712.60407142751683
 20
153.3808043845292
 30
0.0
 70
    32
  0
VERTEX
  5
19E84
  8
1
 62
     7
 10
712.60577142751606
 20
153.38480438452899
 30
0.0
 70
    32
  0
VERTEX
  5
19E85
  8
1
 62
     7
 10
712.60737142751691
 20
153.3888043845287
 30
0.0
 70
    32
  0
VERTEX
  5
19E86
  8
1
 62
     7
 10
712.60907142751682
 20
153.39280438452889
 30
0.0
 70
    32
  0
VERTEX
  5
19E87
  8
1
 62
     7
 10
712.61067142751654
 20
153.39680438452899
 30
0.0
 70
    32
  0
VERTEX
  5
19E88
  8
1
 62
     7
 10
712.61227142751682
 20
153.40080438452921
 30
0.0
 70
    32
  0
VERTEX
  5
19E89
  8
1
 62
     7
 10
712.6138714275163
 20
153.40480438452931
 30
0.0
 70
    32
  0
VERTEX
  5
19E8A
  8
1
 62
     7
 10
712.61557142751656
 20
153.40880438452871
 30
0.0
 70
    32
  0
VERTEX
  5
19E8B
  8
1
 62
     7
 10
712.61717142751684
 20
153.4128043845289
 30
0.0
 70
    32
  0
VERTEX
  5
19E8C
  8
1
 62
     7
 10
712.61877142751621
 20
153.416804384529
 30
0.0
 70
    32
  0
VERTEX
  5
19E8D
  8
1
 62
     7
 10
712.62037142751683
 20
153.42080438452911
 30
0.0
 70
    32
  0
VERTEX
  5
19E8E
  8
1
 62
     7
 10
712.62187142751657
 20
153.4248043845289
 30
0.0
 70
    32
  0
VERTEX
  5
19E8F
  8
1
 62
     7
 10
712.62347142751685
 20
153.42880438452869
 30
0.0
 70
    32
  0
VERTEX
  5
19E90
  8
1
 62
     7
 10
712.62507142751667
 20
153.43280438452891
 30
0.0
 70
    32
  0
VERTEX
  5
19E91
  8
1
 62
     7
 10
712.62667142751684
 20
153.43680438452901
 30
0.0
 70
    32
  0
VERTEX
  5
19E92
  8
1
 62
     7
 10
712.62817142751646
 20
153.44080438452909
 30
0.0
 70
    32
  0
VERTEX
  5
19E93
  8
1
 62
     7
 10
712.62977142751674
 20
153.44480438452919
 30
0.0
 70
    32
  0
VERTEX
  5
19E94
  8
1
 62
     7
 10
712.63137142751623
 20
153.4498043845289
 30
0.0
 70
    32
  0
VERTEX
  5
19E95
  8
1
 62
     7
 10
712.6328714275171
 20
153.45380438452901
 30
0.0
 70
    32
  0
VERTEX
  5
19E96
  8
1
 62
     7
 10
712.63437142751695
 20
153.4578043845292
 30
0.0
 70
    32
  0
VERTEX
  5
19E97
  8
1
 62
     7
 10
712.63597142751667
 20
153.46180438452899
 30
0.0
 70
    32
  0
VERTEX
  5
19E98
  8
1
 62
     7
 10
712.63747142751674
 20
153.46580438452941
 30
0.0
 70
    32
  0
VERTEX
  5
19E99
  8
1
 62
     7
 10
712.63897142751614
 20
153.46980438452891
 30
0.0
 70
    32
  0
VERTEX
  5
19E9A
  8
1
 62
     7
 10
712.64057142751676
 20
153.47380438452899
 30
0.0
 70
    32
  0
VERTEX
  5
19E9B
  8
1
 62
     7
 10
712.64207142751661
 20
153.47780438452921
 30
0.0
 70
    32
  0
VERTEX
  5
19E9C
  8
1
 62
     7
 10
712.64357142751646
 20
153.48180438452931
 30
0.0
 70
    32
  0
VERTEX
  5
19E9D
  8
1
 62
     7
 10
712.64507142751677
 20
153.48580438452939
 30
0.0
 70
    32
  0
VERTEX
  5
19E9E
  8
1
 62
     7
 10
712.64657142751707
 20
153.4898043845289
 30
0.0
 70
    32
  0
VERTEX
  5
19E9F
  8
1
 62
     7
 10
712.64807142751647
 20
153.493804384529
 30
0.0
 70
    32
  0
VERTEX
  5
19EA0
  8
1
 62
     7
 10
712.64957142751678
 20
153.4978043845291
 30
0.0
 70
    32
  0
VERTEX
  5
19EA1
  8
1
 62
     7
 10
712.65097142751699
 20
153.50180438452929
 30
0.0
 70
    32
  0
VERTEX
  5
19EA2
  8
1
 62
     7
 10
712.65247142751673
 20
153.50680438452889
 30
0.0
 70
    32
  0
VERTEX
  5
19EA3
  8
1
 62
     7
 10
712.65397142751681
 20
153.51080438452911
 30
0.0
 70
    32
  0
VERTEX
  5
19EA4
  8
1
 62
     7
 10
712.65547142751655
 20
153.51480438452921
 30
0.0
 70
    32
  0
VERTEX
  5
19EA5
  8
1
 62
     7
 10
712.65687142751699
 20
153.51880438452901
 30
0.0
 70
    32
  0
VERTEX
  5
19EA6
  8
1
 62
     7
 10
712.65837142751604
 20
153.5228043845288
 30
0.0
 70
    32
  0
VERTEX
  5
19EA7
  8
1
 62
     7
 10
712.65977142751626
 20
153.5268043845289
 30
0.0
 70
    32
  0
VERTEX
  5
19EA8
  8
1
 62
     7
 10
712.66127142751679
 20
153.53080438452901
 30
0.0
 70
    32
  0
VERTEX
  5
19EA9
  8
1
 62
     7
 10
712.66267142751667
 20
153.5348043845292
 30
0.0
 70
    32
  0
VERTEX
  5
19EAA
  8
1
 62
     7
 10
712.66407142751677
 20
153.53880438452899
 30
0.0
 70
    32
  0
VERTEX
  5
19EAB
  8
1
 62
     7
 10
712.66547142751688
 20
153.54280438452881
 30
0.0
 70
    32
  0
VERTEX
  5
19EAC
  8
1
 62
     7
 10
712.66697142751627
 20
153.54780438452909
 30
0.0
 70
    32
  0
VERTEX
  5
19EAD
  8
1
 62
     7
 10
712.66837142751683
 20
153.55180438452919
 30
0.0
 70
    32
  0
VERTEX
  5
19EAE
  8
1
 62
     7
 10
712.66977142751671
 20
153.55580438452941
 30
0.0
 70
    32
  0
VERTEX
  5
19EAF
  8
1
 62
     7
 10
712.67117142751681
 20
153.5598043845288
 30
0.0
 70
    32
  0
VERTEX
  5
19EB0
  8
1
 62
     7
 10
712.67257142751691
 20
153.56380438452891
 30
0.0
 70
    32
  0
VERTEX
  5
19EB1
  8
1
 62
     7
 10
712.6739714275169
 20
153.5678043845291
 30
0.0
 70
    32
  0
VERTEX
  5
19EB2
  8
1
 62
     7
 10
712.67537142751667
 20
153.57180438452889
 30
0.0
 70
    32
  0
VERTEX
  5
19EB3
  8
1
 62
     7
 10
712.67677142751609
 20
153.57580438452899
 30
0.0
 70
    32
  0
VERTEX
  5
19EB4
  8
1
 62
     7
 10
712.67807142751678
 20
153.57980438452881
 30
0.0
 70
    32
  0
VERTEX
  5
19EB5
  8
1
 62
     7
 10
712.67947142751609
 20
153.58480438452909
 30
0.0
 70
    32
  0
VERTEX
  5
19EB6
  8
1
 62
     7
 10
712.68087142751665
 20
153.58880438452931
 30
0.0
 70
    32
  0
VERTEX
  5
19EB7
  8
1
 62
     7
 10
712.68217142751666
 20
153.59280438452899
 30
0.0
 70
    32
  0
VERTEX
  5
19EB8
  8
1
 62
     7
 10
712.68357142751665
 20
153.59680438452881
 30
0.0
 70
    32
  0
VERTEX
  5
19EB9
  8
1
 62
     7
 10
712.68487142751667
 20
153.600804384529
 30
0.0
 70
    32
  0
VERTEX
  5
19EBA
  8
1
 62
     7
 10
712.68627142751666
 20
153.6048043845291
 30
0.0
 70
    32
  0
VERTEX
  5
19EBB
  8
1
 62
     7
 10
712.68757142751667
 20
153.60880438452921
 30
0.0
 70
    32
  0
VERTEX
  5
19EBC
  8
1
 62
     7
 10
712.6888714275168
 20
153.61380438452889
 30
0.0
 70
    32
  0
VERTEX
  5
19EBD
  8
1
 62
     7
 10
712.69027142751679
 20
153.61780438452899
 30
0.0
 70
    32
  0
VERTEX
  5
19EBE
  8
1
 62
     7
 10
712.69157142751692
 20
153.62180438452921
 30
0.0
 70
    32
  0
VERTEX
  5
19EBF
  8
1
 62
     7
 10
712.69287142751693
 20
153.62580438452929
 30
0.0
 70
    32
  0
VERTEX
  5
19EC0
  8
1
 62
     7
 10
712.69417142751695
 20
153.62980438452911
 30
0.0
 70
    32
  0
VERTEX
  5
19EC1
  8
1
 62
     7
 10
712.69547142751662
 20
153.6338043845289
 30
0.0
 70
    32
  0
VERTEX
  5
19EC2
  8
1
 62
     7
 10
712.69677142751675
 20
153.63780438452901
 30
0.0
 70
    32
  0
VERTEX
  5
19EC3
  8
1
 62
     7
 10
712.69807142751699
 20
153.64280438452931
 30
0.0
 70
    32
  0
VERTEX
  5
19EC4
  8
1
 62
     7
 10
712.69937142751621
 20
153.64680438452879
 30
0.0
 70
    32
  0
VERTEX
  5
19EC5
  8
1
 62
     7
 10
712.70067142751691
 20
153.6508043845289
 30
0.0
 70
    32
  0
VERTEX
  5
19EC6
  8
1
 62
     7
 10
712.70197142751681
 20
153.65480438452909
 30
0.0
 70
    32
  0
VERTEX
  5
19EC7
  8
1
 62
     7
 10
712.70327142751648
 20
153.65880438452919
 30
0.0
 70
    32
  0
VERTEX
  5
19EC8
  8
1
 62
     7
 10
712.7044714275163
 20
153.66280438452901
 30
0.0
 70
    32
  0
VERTEX
  5
19EC9
  8
1
 62
     7
 10
712.70577142751665
 20
153.6668043845288
 30
0.0
 70
    32
  0
VERTEX
  5
19ECA
  8
1
 62
     7
 10
712.70707142751712
 20
153.671804384529
 30
0.0
 70
    32
  0
VERTEX
  5
19ECB
  8
1
 62
     7
 10
712.70827142751682
 20
153.6758043845293
 30
0.0
 70
    32
  0
VERTEX
  5
19ECC
  8
1
 62
     7
 10
712.70957142751683
 20
153.6798043845294
 30
0.0
 70
    32
  0
VERTEX
  5
19ECD
  8
1
 62
     7
 10
712.71077142751699
 20
153.6838043845292
 30
0.0
 70
    32
  0
VERTEX
  5
19ECE
  8
1
 62
     7
 10
712.71207142751689
 20
153.6878043845289
 30
0.0
 70
    32
  0
VERTEX
  5
19ECF
  8
1
 62
     7
 10
712.71327142751682
 20
153.69180438452909
 30
0.0
 70
    32
  0
VERTEX
  5
19ED0
  8
1
 62
     7
 10
712.71447142751663
 20
153.6968043845288
 30
0.0
 70
    32
  0
VERTEX
  5
19ED1
  8
1
 62
     7
 10
712.71577142751698
 20
153.70080438452891
 30
0.0
 70
    32
  0
VERTEX
  5
19ED2
  8
1
 62
     7
 10
712.7169714275168
 20
153.70480438452901
 30
0.0
 70
    32
  0
VERTEX
  5
19ED3
  8
1
 62
     7
 10
712.71817142751684
 20
153.7088043845292
 30
0.0
 70
    32
  0
VERTEX
  5
19ED4
  8
1
 62
     7
 10
712.71937142751653
 20
153.71280438452891
 30
0.0
 70
    32
  0
VERTEX
  5
19ED5
  8
1
 62
     7
 10
712.72057142751612
 20
153.7168043845291
 30
0.0
 70
    32
  0
VERTEX
  5
19ED6
  8
1
 62
     7
 10
712.72177142751673
 20
153.72180438452909
 30
0.0
 70
    32
  0
VERTEX
  5
19ED7
  8
1
 62
     7
 10
712.72297142751665
 20
153.7258043845292
 30
0.0
 70
    32
  0
VERTEX
  5
19ED8
  8
1
 62
     7
 10
712.72417142751635
 20
153.72980438452899
 30
0.0
 70
    32
  0
VERTEX
  5
19ED9
  8
1
 62
     7
 10
712.72537142751673
 20
153.73380438452881
 30
0.0
 70
    32
  0
VERTEX
  5
19EDA
  8
1
 62
     7
 10
712.72657142751689
 20
153.73780438452931
 30
0.0
 70
    32
  0
VERTEX
  5
19EDB
  8
1
 62
     7
 10
712.72777142751681
 20
153.74280438452919
 30
0.0
 70
    32
  0
VERTEX
  5
19EDC
  8
1
 62
     7
 10
712.72887142751711
 20
153.7468043845291
 30
0.0
 70
    32
  0
VERTEX
  5
19EDD
  8
1
 62
     7
 10
712.73007142751669
 20
153.75080438452881
 30
0.0
 70
    32
  0
VERTEX
  5
19EDE
  8
1
 62
     7
 10
712.73127142751684
 20
153.754804384529
 30
0.0
 70
    32
  0
VERTEX
  5
19EDF
  8
1
 62
     7
 10
712.73237142751691
 20
153.7588043845291
 30
0.0
 70
    32
  0
VERTEX
  5
19EE0
  8
1
 62
     7
 10
712.73357142751695
 20
153.7628043845292
 30
0.0
 70
    32
  0
VERTEX
  5
19EE1
  8
1
 62
     7
 10
712.73467142751679
 20
153.76780438452889
 30
0.0
 70
    32
  0
VERTEX
  5
19EE2
  8
1
 62
     7
 10
712.73587142751671
 20
153.77180438452899
 30
0.0
 70
    32
  0
VERTEX
  5
19EE3
  8
1
 62
     7
 10
712.73697142751666
 20
153.77580438452921
 30
0.0
 70
    32
  0
VERTEX
  5
19EE4
  8
1
 62
     7
 10
712.73817142751636
 20
153.77980438452931
 30
0.0
 70
    32
  0
VERTEX
  5
19EE5
  8
1
 62
     7
 10
712.73927142751666
 20
153.78380438452911
 30
0.0
 70
    32
  0
VERTEX
  5
19EE6
  8
1
 62
     7
 10
712.74037142751649
 20
153.7888043845291
 30
0.0
 70
    32
  0
VERTEX
  5
19EE7
  8
1
 62
     7
 10
712.74147142751656
 20
153.79280438452909
 30
0.0
 70
    32
  0
VERTEX
  5
19EE8
  8
1
 62
     7
 10
712.74267142751683
 20
153.79680438452931
 30
0.0
 70
    32
  0
VERTEX
  5
19EE9
  8
1
 62
     7
 10
712.74377142751666
 20
153.80080438452879
 30
0.0
 70
    32
  0
VERTEX
  5
19EEA
  8
1
 62
     7
 10
712.74487142751684
 20
153.80480438452889
 30
0.0
 70
    32
  0
VERTEX
  5
19EEB
  8
1
 62
     7
 10
712.74597142751668
 20
153.80980438452929
 30
0.0
 70
    32
  0
VERTEX
  5
19EEC
  8
1
 62
     7
 10
712.74707142751663
 20
153.81380438452899
 30
0.0
 70
    32
  0
VERTEX
  5
19EED
  8
1
 62
     7
 10
712.74817142751692
 20
153.8178043845289
 30
0.0
 70
    32
  0
VERTEX
  5
19EEE
  8
1
 62
     7
 10
712.74927142751687
 20
153.821804384529
 30
0.0
 70
    32
  0
VERTEX
  5
19EEF
  8
1
 62
     7
 10
712.75027142751605
 20
153.826804384529
 30
0.0
 70
    32
  0
VERTEX
  5
19EF0
  8
1
 62
     7
 10
712.7513714275168
 20
153.83080438452879
 30
0.0
 70
    32
  0
VERTEX
  5
19EF1
  8
1
 62
     7
 10
712.75247142751664
 20
153.83480438452889
 30
0.0
 70
    32
  0
VERTEX
  5
19EF2
  8
1
 62
     7
 10
712.75357142751693
 20
153.838804384529
 30
0.0
 70
    32
  0
VERTEX
  5
19EF3
  8
1
 62
     7
 10
712.75457142751725
 20
153.84280438452919
 30
0.0
 70
    32
  0
VERTEX
  5
19EF4
  8
1
 62
     7
 10
712.75567142751606
 20
153.84780438452881
 30
0.0
 70
    32
  0
VERTEX
  5
19EF5
  8
1
 62
     7
 10
712.75667142751649
 20
153.851804384529
 30
0.0
 70
    32
  0
VERTEX
  5
19EF6
  8
1
 62
     7
 10
712.7577714275169
 20
153.85580438452911
 30
0.0
 70
    32
  0
VERTEX
  5
19EF7
  8
1
 62
     7
 10
712.75877142751665
 20
153.85980438452921
 30
0.0
 70
    32
  0
VERTEX
  5
19EF8
  8
1
 62
     7
 10
712.75987142751694
 20
153.8638043845294
 30
0.0
 70
    32
  0
VERTEX
  5
19EF9
  8
1
 62
     7
 10
712.7608714275168
 20
153.868804384529
 30
0.0
 70
    32
  0
VERTEX
  5
19EFA
  8
1
 62
     7
 10
712.76187142751644
 20
153.8728043845291
 30
0.0
 70
    32
  0
VERTEX
  5
19EFB
  8
1
 62
     7
 10
712.76297142751673
 20
153.8768043845289
 30
0.0
 70
    32
  0
VERTEX
  5
19EFC
  8
1
 62
     7
 10
712.76397142751694
 20
153.88080438452911
 30
0.0
 70
    32
  0
VERTEX
  5
19EFD
  8
1
 62
     7
 10
712.76497142751691
 20
153.88580438452911
 30
0.0
 70
    32
  0
VERTEX
  5
19EFE
  8
1
 62
     7
 10
712.76597142751655
 20
153.88980438452921
 30
0.0
 70
    32
  0
VERTEX
  5
19EFF
  8
1
 62
     7
 10
712.7669714275163
 20
153.89380438452901
 30
0.0
 70
    32
  0
VERTEX
  5
19F00
  8
1
 62
     7
 10
712.76797142751661
 20
153.8978043845288
 30
0.0
 70
    32
  0
VERTEX
  5
19F01
  8
1
 62
     7
 10
712.76897142751682
 20
153.9018043845289
 30
0.0
 70
    32
  0
VERTEX
  5
19F02
  8
1
 62
     7
 10
712.76997142751645
 20
153.90680438452921
 30
0.0
 70
    32
  0
VERTEX
  5
19F03
  8
1
 62
     7
 10
712.77097142751677
 20
153.9108043845294
 30
0.0
 70
    32
  0
VERTEX
  5
19F04
  8
1
 62
     7
 10
712.77197142751686
 20
153.91480438452919
 30
0.0
 70
    32
  0
VERTEX
  5
19F05
  8
1
 62
     7
 10
712.77287142751686
 20
153.91880438452901
 30
0.0
 70
    32
  0
VERTEX
  5
19F06
  8
1
 62
     7
 10
712.77387142751684
 20
153.92380438452929
 30
0.0
 70
    32
  0
VERTEX
  5
19F07
  8
1
 62
     7
 10
712.77487142751681
 20
153.9278043845294
 30
0.0
 70
    32
  0
VERTEX
  5
19F08
  8
1
 62
     7
 10
712.77577142751693
 20
153.9318043845289
 30
0.0
 70
    32
  0
VERTEX
  5
19F09
  8
1
 62
     7
 10
712.77677142751656
 20
153.93580438452901
 30
0.0
 70
    32
  0
VERTEX
  5
19F0A
  8
1
 62
     7
 10
712.77777142751631
 20
153.940804384529
 30
0.0
 70
    32
  0
VERTEX
  5
19F0B
  8
1
 62
     7
 10
712.7786714275162
 20
153.94480438452879
 30
0.0
 70
    32
  0
VERTEX
  5
19F0C
  8
1
 62
     7
 10
712.77967142751675
 20
153.9488043845289
 30
0.0
 70
    32
  0
VERTEX
  5
19F0D
  8
1
 62
     7
 10
712.78057142751697
 20
153.95280438452909
 30
0.0
 70
    32
  0
VERTEX
  5
19F0E
  8
1
 62
     7
 10
712.78147142751664
 20
153.95780438452871
 30
0.0
 70
    32
  0
VERTEX
  5
19F0F
  8
1
 62
     7
 10
712.78247142751661
 20
153.9618043845289
 30
0.0
 70
    32
  0
VERTEX
  5
19F10
  8
1
 62
     7
 10
712.78337142751684
 20
153.96580438452901
 30
0.0
 70
    32
  0
VERTEX
  5
19F11
  8
1
 62
     7
 10
712.78427142751673
 20
153.96980438452911
 30
0.0
 70
    32
  0
VERTEX
  5
19F12
  8
1
 62
     7
 10
712.78517142751662
 20
153.9748043845288
 30
0.0
 70
    32
  0
VERTEX
  5
19F13
  8
1
 62
     7
 10
712.78607142751673
 20
153.9788043845289
 30
0.0
 70
    32
  0
VERTEX
  5
19F14
  8
1
 62
     7
 10
712.78697142751673
 20
153.982804384529
 30
0.0
 70
    32
  0
VERTEX
  5
19F15
  8
1
 62
     7
 10
712.78787142751662
 20
153.98680438452919
 30
0.0
 70
    32
  0
VERTEX
  5
19F16
  8
1
 62
     7
 10
712.78877142751674
 20
153.99180438452919
 30
0.0
 70
    32
  0
VERTEX
  5
19F17
  8
1
 62
     7
 10
712.78967142751628
 20
153.99580438452901
 30
0.0
 70
    32
  0
VERTEX
  5
19F18
  8
1
 62
     7
 10
712.79057142751662
 20
153.99980438452911
 30
0.0
 70
    32
  0
VERTEX
  5
19F19
  8
1
 62
     7
 10
712.79147142751674
 20
154.00380438452919
 30
0.0
 70
    32
  0
VERTEX
  5
19F1A
  8
1
 62
     7
 10
712.79237142751617
 20
154.0088043845289
 30
0.0
 70
    32
  0
VERTEX
  5
19F1B
  8
1
 62
     7
 10
712.79327142751663
 20
154.01280438452901
 30
0.0
 70
    32
  0
VERTEX
  5
19F1C
  8
1
 62
     7
 10
712.79407142751711
 20
154.01680438452911
 30
0.0
 70
    32
  0
VERTEX
  5
19F1D
  8
1
 62
     7
 10
712.79497142751711
 20
154.0208043845289
 30
0.0
 70
    32
  0
VERTEX
  5
19F1E
  8
1
 62
     7
 10
712.79587142751689
 20
154.0258043845289
 30
0.0
 70
    32
  0
VERTEX
  5
19F1F
  8
1
 62
     7
 10
712.79667142751646
 20
154.02980438452909
 30
0.0
 70
    32
  0
VERTEX
  5
19F20
  8
1
 62
     7
 10
712.7975714275168
 20
154.03380438452919
 30
0.0
 70
    32
  0
VERTEX
  5
19F21
  8
1
 62
     7
 10
712.79837142751683
 20
154.0378043845293
 30
0.0
 70
    32
  0
VERTEX
  5
19F22
  8
1
 62
     7
 10
712.7992714275166
 20
154.04280438452901
 30
0.0
 70
    32
  0
VERTEX
  5
19F23
  8
1
 62
     7
 10
712.80007142751685
 20
154.04680438452911
 30
0.0
 70
    32
  0
VERTEX
  5
19F24
  8
1
 62
     7
 10
712.80097142751697
 20
154.05080438452919
 30
0.0
 70
    32
  0
VERTEX
  5
19F25
  8
1
 62
     7
 10
712.80177142751666
 20
154.05480438452909
 30
0.0
 70
    32
  0
VERTEX
  5
19F26
  8
1
 62
     7
 10
712.8025714275168
 20
154.059804384529
 30
0.0
 70
    32
  0
VERTEX
  5
19F27
  8
1
 62
     7
 10
712.80337142751682
 20
154.06380438452919
 30
0.0
 70
    32
  0
VERTEX
  5
19F28
  8
1
 62
     7
 10
712.80427142751682
 20
154.06780438452901
 30
0.0
 70
    32
  0
VERTEX
  5
19F29
  8
1
 62
     7
 10
712.80507142751674
 20
154.07280438452889
 30
0.0
 70
    32
  0
VERTEX
  5
19F2A
  8
1
 62
     7
 10
712.80587142751688
 20
154.07680438452911
 30
0.0
 70
    32
  0
VERTEX
  5
19F2B
  8
1
 62
     7
 10
712.8066714275169
 20
154.0808043845289
 30
0.0
 70
    32
  0
VERTEX
  5
19F2C
  8
1
 62
     7
 10
712.80747142751648
 20
154.08480438452901
 30
0.0
 70
    32
  0
VERTEX
  5
19F2D
  8
1
 62
     7
 10
712.80827142751673
 20
154.089804384529
 30
0.0
 70
    32
  0
VERTEX
  5
19F2E
  8
1
 62
     7
 10
712.80907142751653
 20
154.09380438452911
 30
0.0
 70
    32
  0
VERTEX
  5
19F2F
  8
1
 62
     7
 10
712.80987142751678
 20
154.0978043845289
 30
0.0
 70
    32
  0
VERTEX
  5
19F30
  8
1
 62
     7
 10
712.81067142751692
 20
154.10180438452909
 30
0.0
 70
    32
  0
VERTEX
  5
19F31
  8
1
 62
     7
 10
712.81147142751615
 20
154.10680438452911
 30
0.0
 70
    32
  0
VERTEX
  5
19F32
  8
1
 62
     7
 10
712.81217142751677
 20
154.11080438452919
 30
0.0
 70
    32
  0
VERTEX
  5
19F33
  8
1
 62
     7
 10
712.8129714275168
 20
154.11480438452929
 30
0.0
 70
    32
  0
VERTEX
  5
19F34
  8
1
 62
     7
 10
712.81377142751637
 20
154.119804384529
 30
0.0
 70
    32
  0
VERTEX
  5
19F35
  8
1
 62
     7
 10
712.81457142751674
 20
154.12380438452911
 30
0.0
 70
    32
  0
VERTEX
  5
19F36
  8
1
 62
     7
 10
712.81527142751668
 20
154.12780438452921
 30
0.0
 70
    32
  0
VERTEX
  5
19F37
  8
1
 62
     7
 10
712.81607142751659
 20
154.1318043845294
 30
0.0
 70
    32
  0
VERTEX
  5
19F38
  8
1
 62
     7
 10
712.81677142751698
 20
154.136804384529
 30
0.0
 70
    32
  0
VERTEX
  5
19F39
  8
1
 62
     7
 10
712.81757142751655
 20
154.14080438452919
 30
0.0
 70
    32
  0
VERTEX
  5
19F3A
  8
1
 62
     7
 10
712.81827142751649
 20
154.1448043845289
 30
0.0
 70
    32
  0
VERTEX
  5
19F3B
  8
1
 62
     7
 10
712.81907142751675
 20
154.14980438452901
 30
0.0
 70
    32
  0
VERTEX
  5
19F3C
  8
1
 62
     7
 10
712.8197714275168
 20
154.15380438452911
 30
0.0
 70
    32
  0
VERTEX
  5
19F3D
  8
1
 62
     7
 10
712.82047142751605
 20
154.1578043845289
 30
0.0
 70
    32
  0
VERTEX
  5
19F3E
  8
1
 62
     7
 10
712.82127142751699
 20
154.16180438452901
 30
0.0
 70
    32
  0
VERTEX
  5
19F3F
  8
1
 62
     7
 10
712.82197142751681
 20
154.166804384529
 30
0.0
 70
    32
  0
VERTEX
  5
19F40
  8
1
 62
     7
 10
712.82267142751618
 20
154.17080438452911
 30
0.0
 70
    32
  0
VERTEX
  5
19F41
  8
1
 62
     7
 10
712.82337142751692
 20
154.1748043845289
 30
0.0
 70
    32
  0
VERTEX
  5
19F42
  8
1
 62
     7
 10
712.8241714275166
 20
154.17980438452889
 30
0.0
 70
    32
  0
VERTEX
  5
19F43
  8
1
 62
     7
 10
712.82487142751711
 20
154.18380438452911
 30
0.0
 70
    32
  0
VERTEX
  5
19F44
  8
1
 62
     7
 10
712.82557142751693
 20
154.18780438452919
 30
0.0
 70
    32
  0
VERTEX
  5
19F45
  8
1
 62
     7
 10
712.82627142751653
 20
154.19180438452929
 30
0.0
 70
    32
  0
VERTEX
  5
19F46
  8
1
 62
     7
 10
712.82697142751681
 20
154.196804384529
 30
0.0
 70
    32
  0
VERTEX
  5
19F47
  8
1
 62
     7
 10
712.82767142751675
 20
154.20080438452911
 30
0.0
 70
    32
  0
VERTEX
  5
19F48
  8
1
 62
     7
 10
712.82837142751657
 20
154.2048043845293
 30
0.0
 70
    32
  0
VERTEX
  5
19F49
  8
1
 62
     7
 10
712.82897142751665
 20
154.20980438452889
 30
0.0
 70
    32
  0
VERTEX
  5
19F4A
  8
1
 62
     7
 10
712.82967142751681
 20
154.213804384529
 30
0.0
 70
    32
  0
VERTEX
  5
19F4B
  8
1
 62
     7
 10
712.83037142751675
 20
154.21780438452919
 30
0.0
 70
    32
  0
VERTEX
  5
19F4C
  8
1
 62
     7
 10
712.83107142751658
 20
154.22180438452901
 30
0.0
 70
    32
  0
VERTEX
  5
19F4D
  8
1
 62
     7
 10
712.83177142751651
 20
154.226804384529
 30
0.0
 70
    32
  0
VERTEX
  5
19F4E
  8
1
 62
     7
 10
712.83237142751682
 20
154.23080438452911
 30
0.0
 70
    32
  0
VERTEX
  5
19F4F
  8
1
 62
     7
 10
712.83307142751676
 20
154.2348043845289
 30
0.0
 70
    32
  0
VERTEX
  5
19F50
  8
1
 62
     7
 10
712.83367142751695
 20
154.2398043845289
 30
0.0
 70
    32
  0
VERTEX
  5
19F51
  8
1
 62
     7
 10
712.83437142751666
 20
154.243804384529
 30
0.0
 70
    32
  0
VERTEX
  5
19F52
  8
1
 62
     7
 10
712.83507142751682
 20
154.2478043845291
 30
0.0
 70
    32
  0
VERTEX
  5
19F53
  8
1
 62
     7
 10
712.83567142751713
 20
154.2518043845289
 30
0.0
 70
    32
  0
VERTEX
  5
19F54
  8
1
 62
     7
 10
712.83627142751652
 20
154.25680438452889
 30
0.0
 70
    32
  0
VERTEX
  5
19F55
  8
1
 62
     7
 10
712.8369714275168
 20
154.26080438452911
 30
0.0
 70
    32
  0
VERTEX
  5
19F56
  8
1
 62
     7
 10
712.83757142751665
 20
154.26480438452921
 30
0.0
 70
    32
  0
VERTEX
  5
19F57
  8
1
 62
     7
 10
712.83827142751693
 20
154.26980438452881
 30
0.0
 70
    32
  0
VERTEX
  5
19F58
  8
1
 62
     7
 10
712.83887142751678
 20
154.273804384529
 30
0.0
 70
    32
  0
VERTEX
  5
19F59
  8
1
 62
     7
 10
712.83947142751663
 20
154.27780438452911
 30
0.0
 70
    32
  0
VERTEX
  5
19F5A
  8
1
 62
     7
 10
712.84007142751693
 20
154.28280438452879
 30
0.0
 70
    32
  0
VERTEX
  5
19F5B
  8
1
 62
     7
 10
712.84067142751667
 20
154.28680438452889
 30
0.0
 70
    32
  0
VERTEX
  5
19F5C
  8
1
 62
     7
 10
712.84137142751661
 20
154.290804384529
 30
0.0
 70
    32
  0
VERTEX
  5
19F5D
  8
1
 62
     7
 10
712.84197142751668
 20
154.29580438452899
 30
0.0
 70
    32
  0
VERTEX
  5
19F5E
  8
1
 62
     7
 10
712.84257142751653
 20
154.29980438452881
 30
0.0
 70
    32
  0
VERTEX
  5
19F5F
  8
1
 62
     7
 10
712.84317142751638
 20
154.303804384529
 30
0.0
 70
    32
  0
VERTEX
  5
19F60
  8
1
 62
     7
 10
712.84377142751714
 20
154.30780438452911
 30
0.0
 70
    32
  0
VERTEX
  5
19F61
  8
1
 62
     7
 10
712.84437142751653
 20
154.3128043845287
 30
0.0
 70
    32
  0
VERTEX
  5
19F62
  8
1
 62
     7
 10
712.84497142751684
 20
154.31680438452889
 30
0.0
 70
    32
  0
VERTEX
  5
19F63
  8
1
 62
     7
 10
712.84557142751692
 20
154.320804384529
 30
0.0
 70
    32
  0
VERTEX
  5
19F64
  8
1
 62
     7
 10
712.84607142751679
 20
154.32580438452899
 30
0.0
 70
    32
  0
VERTEX
  5
19F65
  8
1
 62
     7
 10
712.84667142751698
 20
154.32980438452881
 30
0.0
 70
    32
  0
VERTEX
  5
19F66
  8
1
 62
     7
 10
712.84727142751683
 20
154.33380438452889
 30
0.0
 70
    32
  0
VERTEX
  5
19F67
  8
1
 62
     7
 10
712.84787142751645
 20
154.33880438452891
 30
0.0
 70
    32
  0
VERTEX
  5
19F68
  8
1
 62
     7
 10
712.84837142751678
 20
154.34280438452899
 30
0.0
 70
    32
  0
VERTEX
  5
19F69
  8
1
 62
     7
 10
712.84897142751674
 20
154.34680438452889
 30
0.0
 70
    32
  0
VERTEX
  5
19F6A
  8
1
 62
     7
 10
712.84957142751693
 20
154.350804384529
 30
0.0
 70
    32
  0
VERTEX
  5
19F6B
  8
1
 62
     7
 10
712.85007142751647
 20
154.35580438452931
 30
0.0
 70
    32
  0
VERTEX
  5
19F6C
  8
1
 62
     7
 10
712.85067142751643
 20
154.35980438452879
 30
0.0
 70
    32
  0
VERTEX
  5
19F6D
  8
1
 62
     7
 10
712.8511714275171
 20
154.36380438452889
 30
0.0
 70
    32
  0
VERTEX
  5
19F6E
  8
1
 62
     7
 10
712.85177142751695
 20
154.36880438452889
 30
0.0
 70
    32
  0
VERTEX
  5
19F6F
  8
1
 62
     7
 10
712.85227142751694
 20
154.37280438452899
 30
0.0
 70
    32
  0
VERTEX
  5
19F70
  8
1
 62
     7
 10
712.8527714275167
 20
154.37680438452881
 30
0.0
 70
    32
  0
VERTEX
  5
19F71
  8
1
 62
     7
 10
712.85337142751621
 20
154.38180438452909
 30
0.0
 70
    32
  0
VERTEX
  5
19F72
  8
1
 62
     7
 10
712.85387142751711
 20
154.38580438452931
 30
0.0
 70
    32
  0
VERTEX
  5
19F73
  8
1
 62
     7
 10
712.85437142751675
 20
154.38980438452941
 30
0.0
 70
    32
  0
VERTEX
  5
19F74
  8
1
 62
     7
 10
712.85497142751706
 20
154.3948043845291
 30
0.0
 70
    32
  0
VERTEX
  5
19F75
  8
1
 62
     7
 10
712.85547142751682
 20
154.3988043845292
 30
0.0
 70
    32
  0
VERTEX
  5
19F76
  8
1
 62
     7
 10
712.85597142751669
 20
154.40280438452899
 30
0.0
 70
    32
  0
VERTEX
  5
19F77
  8
1
 62
     7
 10
712.85647142751634
 20
154.40780438452899
 30
0.0
 70
    32
  0
VERTEX
  5
19F78
  8
1
 62
     7
 10
712.85697142751667
 20
154.41180438452909
 30
0.0
 70
    32
  0
VERTEX
  5
19F79
  8
1
 62
     7
 10
712.85747142751688
 20
154.41580438452891
 30
0.0
 70
    32
  0
VERTEX
  5
19F7A
  8
1
 62
     7
 10
712.85797142751687
 20
154.42080438452891
 30
0.0
 70
    32
  0
VERTEX
  5
19F7B
  8
1
 62
     7
 10
712.85847142751629
 20
154.4248043845291
 30
0.0
 70
    32
  0
VERTEX
  5
19F7C
  8
1
 62
     7
 10
712.85897142751685
 20
154.4288043845292
 30
0.0
 70
    32
  0
VERTEX
  5
19F7D
  8
1
 62
     7
 10
712.85947142751706
 20
154.43280438452931
 30
0.0
 70
    32
  0
VERTEX
  5
19F7E
  8
1
 62
     7
 10
712.85997142751683
 20
154.43780438452899
 30
0.0
 70
    32
  0
VERTEX
  5
19F7F
  8
1
 62
     7
 10
712.86037142751695
 20
154.44180438452909
 30
0.0
 70
    32
  0
VERTEX
  5
19F80
  8
1
 62
     7
 10
712.86087142751649
 20
154.4458043845292
 30
0.0
 70
    32
  0
VERTEX
  5
19F81
  8
1
 62
     7
 10
712.86137142751681
 20
154.45080438452891
 30
0.0
 70
    32
  0
VERTEX
  5
19F82
  8
1
 62
     7
 10
712.86177142751694
 20
154.45480438452901
 30
0.0
 70
    32
  0
VERTEX
  5
19F83
  8
1
 62
     7
 10
712.8622714275167
 20
154.45880438452909
 30
0.0
 70
    32
  0
VERTEX
  5
19F84
  8
1
 62
     7
 10
712.86277142751692
 20
154.4638043845288
 30
0.0
 70
    32
  0
VERTEX
  5
19F85
  8
1
 62
     7
 10
712.86317142751614
 20
154.4678043845289
 30
0.0
 70
    32
  0
VERTEX
  5
19F86
  8
1
 62
     7
 10
712.86357142751683
 20
154.47180438452909
 30
0.0
 70
    32
  0
VERTEX
  5
19F87
  8
1
 62
     7
 10
712.86407142751682
 20
154.47680438452909
 30
0.0
 70
    32
  0
VERTEX
  5
19F88
  8
1
 62
     7
 10
712.86447142751683
 20
154.48080438452891
 30
0.0
 70
    32
  0
VERTEX
  5
19F89
  8
1
 62
     7
 10
712.86497142751682
 20
154.48480438452901
 30
0.0
 70
    32
  0
VERTEX
  5
19F8A
  8
1
 62
     7
 10
712.86537142751661
 20
154.48980438452929
 30
0.0
 70
    32
  0
VERTEX
  5
19F8B
  8
1
 62
     7
 10
712.86577142751707
 20
154.4938043845288
 30
0.0
 70
    32
  0
VERTEX
  5
19F8C
  8
1
 62
     7
 10
712.86617142751675
 20
154.49780438452891
 30
0.0
 70
    32
  0
VERTEX
  5
19F8D
  8
1
 62
     7
 10
712.86667142751685
 20
154.5028043845293
 30
0.0
 70
    32
  0
VERTEX
  5
19F8E
  8
1
 62
     7
 10
712.86707142751698
 20
154.506804384529
 30
0.0
 70
    32
  0
VERTEX
  5
19F8F
  8
1
 62
     7
 10
712.86747142751676
 20
154.5108043845288
 30
0.0
 70
    32
  0
VERTEX
  5
19F90
  8
1
 62
     7
 10
712.86787142751666
 20
154.51580438452919
 30
0.0
 70
    32
  0
VERTEX
  5
19F91
  8
1
 62
     7
 10
712.86827142751656
 20
154.51980438452901
 30
0.0
 70
    32
  0
VERTEX
  5
19F92
  8
1
 62
     7
 10
712.86867142751612
 20
154.52380438452869
 30
0.0
 70
    32
  0
VERTEX
  5
19F93
  8
1
 62
     7
 10
712.86907142751636
 20
154.52880438452911
 30
0.0
 70
    32
  0
VERTEX
  5
19F94
  8
1
 62
     7
 10
712.86937142751685
 20
154.53280438452919
 30
0.0
 70
    32
  0
VERTEX
  5
19F95
  8
1
 62
     7
 10
712.86977142751687
 20
154.53680438452901
 30
0.0
 70
    32
  0
VERTEX
  5
19F96
  8
1
 62
     7
 10
712.87017142751699
 20
154.541804384529
 30
0.0
 70
    32
  0
VERTEX
  5
19F97
  8
1
 62
     7
 10
712.87057142751667
 20
154.54580438452911
 30
0.0
 70
    32
  0
VERTEX
  5
19F98
  8
1
 62
     7
 10
712.87087142751693
 20
154.5498043845293
 30
0.0
 70
    32
  0
VERTEX
  5
19F99
  8
1
 62
     7
 10
712.87127142751683
 20
154.55480438452889
 30
0.0
 70
    32
  0
VERTEX
  5
19F9A
  8
1
 62
     7
 10
712.8716714275173
 20
154.55880438452911
 30
0.0
 70
    32
  0
VERTEX
  5
19F9B
  8
1
 62
     7
 10
712.87197142751688
 20
154.56280438452919
 30
0.0
 70
    32
  0
VERTEX
  5
19F9C
  8
1
 62
     7
 10
712.87237142751667
 20
154.5678043845289
 30
0.0
 70
    32
  0
VERTEX
  5
19F9D
  8
1
 62
     7
 10
712.87267142751682
 20
154.571804384529
 30
0.0
 70
    32
  0
VERTEX
  5
19F9E
  8
1
 62
     7
 10
712.8729714275172
 20
154.57580438452911
 30
0.0
 70
    32
  0
VERTEX
  5
19F9F
  8
1
 62
     7
 10
712.87337142751653
 20
154.58080438452879
 30
0.0
 70
    32
  0
VERTEX
  5
19FA0
  8
1
 62
     7
 10
712.87367142751657
 20
154.58480438452889
 30
0.0
 70
    32
  0
VERTEX
  5
19FA1
  8
1
 62
     7
 10
712.87397142751684
 20
154.588804384529
 30
0.0
 70
    32
  0
VERTEX
  5
19FA2
  8
1
 62
     7
 10
712.87427142751687
 20
154.59380438452939
 30
0.0
 70
    32
  0
VERTEX
  5
19FA3
  8
1
 62
     7
 10
712.87467142751689
 20
154.59780438452881
 30
0.0
 70
    32
  0
VERTEX
  5
19FA4
  8
1
 62
     7
 10
712.87497142751658
 20
154.601804384529
 30
0.0
 70
    32
  0
VERTEX
  5
19FA5
  8
1
 62
     7
 10
712.87527142751674
 20
154.606804384529
 30
0.0
 70
    32
  0
VERTEX
  5
19FA6
  8
1
 62
     7
 10
712.87557142751632
 20
154.6108043845291
 30
0.0
 70
    32
  0
VERTEX
  5
19FA7
  8
1
 62
     7
 10
712.87587142751636
 20
154.6148043845289
 30
0.0
 70
    32
  0
VERTEX
  5
19FA8
  8
1
 62
     7
 10
712.87617142751674
 20
154.6198043845292
 30
0.0
 70
    32
  0
VERTEX
  5
19FA9
  8
1
 62
     7
 10
712.87647142751655
 20
154.623804384529
 30
0.0
 70
    32
  0
VERTEX
  5
19FAA
  8
1
 62
     7
 10
712.87677142751647
 20
154.62780438452879
 30
0.0
 70
    32
  0
VERTEX
  5
19FAB
  8
1
 62
     7
 10
712.87707142751674
 20
154.63280438452909
 30
0.0
 70
    32
  0
VERTEX
  5
19FAC
  8
1
 62
     7
 10
712.87727142751612
 20
154.63680438452889
 30
0.0
 70
    32
  0
VERTEX
  5
19FAD
  8
1
 62
     7
 10
712.87757142751684
 20
154.64080438452939
 30
0.0
 70
    32
  0
VERTEX
  5
19FAE
  8
1
 62
     7
 10
712.87787142751699
 20
154.6458043845291
 30
0.0
 70
    32
  0
VERTEX
  5
19FAF
  8
1
 62
     7
 10
712.87817142751635
 20
154.64980438452909
 30
0.0
 70
    32
  0
VERTEX
  5
19FB0
  8
1
 62
     7
 10
712.87837142751721
 20
154.653804384529
 30
0.0
 70
    32
  0
VERTEX
  5
19FB1
  8
1
 62
     7
 10
712.87867142751668
 20
154.65880438452899
 30
0.0
 70
    32
  0
VERTEX
  5
19FB2
  8
1
 62
     7
 10
712.8788714275172
 20
154.6628043845291
 30
0.0
 70
    32
  0
VERTEX
  5
19FB3
  8
1
 62
     7
 10
712.87917142751689
 20
154.6668043845292
 30
0.0
 70
    32
  0
VERTEX
  5
19FB4
  8
1
 62
     7
 10
712.87937142751673
 20
154.67180438452891
 30
0.0
 70
    32
  0
VERTEX
  5
19FB5
  8
1
 62
     7
 10
712.87967142751677
 20
154.67580438452899
 30
0.0
 70
    32
  0
VERTEX
  5
19FB6
  8
1
 62
     7
 10
712.87987142751638
 20
154.67980438452909
 30
0.0
 70
    32
  0
VERTEX
  5
19FB7
  8
1
 62
     7
 10
712.88017142751687
 20
154.6848043845288
 30
0.0
 70
    32
  0
VERTEX
  5
19FB8
  8
1
 62
     7
 10
712.88037142751637
 20
154.68880438452891
 30
0.0
 70
    32
  0
VERTEX
  5
19FB9
  8
1
 62
     7
 10
712.88057142751677
 20
154.6928043845291
 30
0.0
 70
    32
  0
VERTEX
  5
19FBA
  8
1
 62
     7
 10
712.88077142751683
 20
154.69780438452909
 30
0.0
 70
    32
  0
VERTEX
  5
19FBB
  8
1
 62
     7
 10
712.88107142751664
 20
154.70180438452891
 30
0.0
 70
    32
  0
VERTEX
  5
19FBC
  8
1
 62
     7
 10
712.88127142751659
 20
154.70580438452899
 30
0.0
 70
    32
  0
VERTEX
  5
19FBD
  8
1
 62
     7
 10
712.88147142751643
 20
154.7108043845293
 30
0.0
 70
    32
  0
VERTEX
  5
19FBE
  8
1
 62
     7
 10
712.88167142751695
 20
154.7148043845288
 30
0.0
 70
    32
  0
VERTEX
  5
19FBF
  8
1
 62
     7
 10
712.88187142751656
 20
154.71880438452891
 30
0.0
 70
    32
  0
VERTEX
  5
19FC0
  8
1
 62
     7
 10
712.88207142751673
 20
154.7238043845289
 30
0.0
 70
    32
  0
VERTEX
  5
19FC1
  8
1
 62
     7
 10
712.88227142751691
 20
154.7278043845287
 30
0.0
 70
    32
  0
VERTEX
  5
19FC2
  8
1
 62
     7
 10
712.88247142751675
 20
154.7318043845288
 30
0.0
 70
    32
  0
VERTEX
  5
19FC3
  8
1
 62
     7
 10
712.88267142751613
 20
154.73680438452919
 30
0.0
 70
    32
  0
VERTEX
  5
19FC4
  8
1
 62
     7
 10
712.88287142751699
 20
154.7408043845293
 30
0.0
 70
    32
  0
VERTEX
  5
19FC5
  8
1
 62
     7
 10
712.88307142751648
 20
154.74480438452909
 30
0.0
 70
    32
  0
VERTEX
  5
19FC6
  8
1
 62
     7
 10
712.88327142751677
 20
154.74980438452911
 30
0.0
 70
    32
  0
VERTEX
  5
19FC7
  8
1
 62
     7
 10
712.88347142751627
 20
154.75380438452919
 30
0.0
 70
    32
  0
VERTEX
  5
19FC8
  8
1
 62
     7
 10
712.88357142751624
 20
154.75780438452901
 30
0.0
 70
    32
  0
VERTEX
  5
19FC9
  8
1
 62
     7
 10
712.88377142751665
 20
154.76280438452901
 30
0.0
 70
    32
  0
VERTEX
  5
19FCA
  8
1
 62
     7
 10
712.8839714275166
 20
154.766804384529
 30
0.0
 70
    32
  0
VERTEX
  5
19FCB
  8
1
 62
     7
 10
712.8840714275168
 20
154.77180438452879
 30
0.0
 70
    32
  0
VERTEX
  5
19FCC
  8
1
 62
     7
 10
712.88427142751721
 20
154.7758043845289
 30
0.0
 70
    32
  0
VERTEX
  5
19FCD
  8
1
 62
     7
 10
712.88447142751659
 20
154.77980438452909
 30
0.0
 70
    32
  0
VERTEX
  5
19FCE
  8
1
 62
     7
 10
712.88457142751668
 20
154.78480438452911
 30
0.0
 70
    32
  0
VERTEX
  5
19FCF
  8
1
 62
     7
 10
712.88477142751674
 20
154.78880438452919
 30
0.0
 70
    32
  0
VERTEX
  5
19FD0
  8
1
 62
     7
 10
712.88487142751706
 20
154.79280438452901
 30
0.0
 70
    32
  0
VERTEX
  5
19FD1
  8
1
 62
     7
 10
712.88507142751666
 20
154.797804384529
 30
0.0
 70
    32
  0
VERTEX
  5
19FD2
  8
1
 62
     7
 10
712.88517142751675
 20
154.80180438452879
 30
0.0
 70
    32
  0
VERTEX
  5
19FD3
  8
1
 62
     7
 10
712.88527142751695
 20
154.8058043845289
 30
0.0
 70
    32
  0
VERTEX
  5
19FD4
  8
1
 62
     7
 10
712.8854714275169
 20
154.81080438452921
 30
0.0
 70
    32
  0
VERTEX
  5
19FD5
  8
1
 62
     7
 10
712.88557142751711
 20
154.814804384529
 30
0.0
 70
    32
  0
VERTEX
  5
19FD6
  8
1
 62
     7
 10
712.88567142751674
 20
154.81880438452879
 30
0.0
 70
    32
  0
VERTEX
  5
19FD7
  8
1
 62
     7
 10
712.8857714275166
 20
154.82380438452921
 30
0.0
 70
    32
  0
VERTEX
  5
19FD8
  8
1
 62
     7
 10
712.8858714275168
 20
154.827804384529
 30
0.0
 70
    32
  0
VERTEX
  5
19FD9
  8
1
 62
     7
 10
712.88597142751689
 20
154.83180438452911
 30
0.0
 70
    32
  0
VERTEX
  5
19FDA
  8
1
 62
     7
 10
712.88617142751627
 20
154.8368043845291
 30
0.0
 70
    32
  0
VERTEX
  5
19FDB
  8
1
 62
     7
 10
712.88627142751648
 20
154.84080438452921
 30
0.0
 70
    32
  0
VERTEX
  5
19FDC
  8
1
 62
     7
 10
712.88637142751634
 20
154.844804384529
 30
0.0
 70
    32
  0
VERTEX
  5
19FDD
  8
1
 62
     7
 10
712.88647142751711
 20
154.84980438452899
 30
0.0
 70
    32
  0
VERTEX
  5
19FDE
  8
1
 62
     7
 10
712.88647142751711
 20
154.8538043845291
 30
0.0
 70
    32
  0
VERTEX
  5
19FDF
  8
1
 62
     7
 10
712.88657142751686
 20
154.85780438452929
 30
0.0
 70
    32
  0
VERTEX
  5
19FE0
  8
1
 62
     7
 10
712.8866714275166
 20
154.86280438452891
 30
0.0
 70
    32
  0
VERTEX
  5
19FE1
  8
1
 62
     7
 10
712.88677142751681
 20
154.8668043845291
 30
0.0
 70
    32
  0
VERTEX
  5
19FE2
  8
1
 62
     7
 10
712.88687142751689
 20
154.87080438452921
 30
0.0
 70
    32
  0
VERTEX
  5
19FE3
  8
1
 62
     7
 10
712.88687142751689
 20
154.87580438452881
 30
0.0
 70
    32
  0
VERTEX
  5
19FE4
  8
1
 62
     7
 10
712.88697142751676
 20
154.879804384529
 30
0.0
 70
    32
  0
VERTEX
  5
19FE5
  8
1
 62
     7
 10
712.88707142751684
 20
154.8838043845291
 30
0.0
 70
    32
  0
VERTEX
  5
19FE6
  8
1
 62
     7
 10
712.88707142751684
 20
154.8888043845291
 30
0.0
 70
    32
  0
VERTEX
  5
19FE7
  8
1
 62
     7
 10
712.88717142751682
 20
154.89280438452889
 30
0.0
 70
    32
  0
VERTEX
  5
19FE8
  8
1
 62
     7
 10
712.88727142751679
 20
154.89780438452919
 30
0.0
 70
    32
  0
VERTEX
  5
19FE9
  8
1
 62
     7
 10
712.88727142751679
 20
154.90180438452941
 30
0.0
 70
    32
  0
VERTEX
  5
19FEA
  8
1
 62
     7
 10
712.88737142751711
 20
154.90580438452881
 30
0.0
 70
    32
  0
VERTEX
  5
19FEB
  8
1
 62
     7
 10
712.88737142751711
 20
154.9108043845292
 30
0.0
 70
    32
  0
VERTEX
  5
19FEC
  8
1
 62
     7
 10
712.88747142751674
 20
154.91480438452891
 30
0.0
 70
    32
  0
VERTEX
  5
19FED
  8
1
 62
     7
 10
712.88747142751674
 20
154.9188043845291
 30
0.0
 70
    32
  0
VERTEX
  5
19FEE
  8
1
 62
     7
 10
712.88757142751695
 20
154.92380438452909
 30
0.0
 70
    32
  0
VERTEX
  5
19FEF
  8
1
 62
     7
 10
712.88757142751695
 20
154.9278043845292
 30
0.0
 70
    32
  0
VERTEX
  5
19FF0
  8
1
 62
     7
 10
712.88767142751692
 20
154.93180438452899
 30
0.0
 70
    32
  0
VERTEX
  5
19FF1
  8
1
 62
     7
 10
712.88767142751692
 20
154.93680438452901
 30
0.0
 70
    32
  0
VERTEX
  5
19FF2
  8
1
 62
     7
 10
712.88767142751692
 20
154.94080438452909
 30
0.0
 70
    32
  0
VERTEX
  5
19FF3
  8
1
 62
     7
 10
712.88777142751678
 20
154.94480438452931
 30
0.0
 70
    32
  0
VERTEX
  5
19FF4
  8
1
 62
     7
 10
712.88777142751678
 20
154.9498043845289
 30
0.0
 70
    32
  0
VERTEX
  5
19FF5
  8
1
 62
     7
 10
712.88787142751676
 20
154.95380438452901
 30
0.0
 70
    32
  0
VERTEX
  5
19FF6
  8
1
 62
     7
 10
712.88787142751676
 20
154.9578043845292
 30
0.0
 70
    32
  0
VERTEX
  5
19FF7
  8
1
 62
     7
 10
712.88787142751676
 20
154.96280438452879
 30
0.0
 70
    32
  0
VERTEX
  5
19FF8
  8
1
 62
     7
 10
712.88797142751696
 20
154.96680438452901
 30
0.0
 70
    32
  0
SEQEND
  5
19FF9
  8
1
 62
     7
  0
LINE
  5
19FFA
  8
1
  6
CONTINUOUS
 62
     7
 10
723.15778623055905
 20
154.96685144960281
 30
0.0
 11
723.15778623055905
 21
164.00185144960309
 31
0.0
  0
ARC
  5
19FFB
  8
1
  6
CONTINUOUS
 62
     7
 10
724.75778623055987
 20
152.9668514496029
 30
0.0
 40
0.5
 50
270.0
 51
0.0
  0
ARC
  5
19FFC
  8
1
  6
CONTINUOUS
 62
     7
 10
720.65778623055905
 20
154.96685144960281
 30
0.0
 40
2.4999999999999991
 50
270.0
 51
0.0
  0
LINE
  5
19FFD
  8
1
  6
CONTINUOUS
 62
     7
 10
724.75778623055987
 20
152.4668514496031
 30
0.0
 11
720.65778623055905
 21
152.4668514496031
 31
0.0
  0
LINE
  5
19FFE
  8
1
  6
CONTINUOUS
 62
     7
 10
724.25778623056158
 20
186.46685144960281
 30
0.0
 11
715.35778623056035
 21
186.46685144960281
 31
0.0
  0
LINE
  5
19FFF
  8
1
  6
CONTINUOUS
 62
     7
 10
683.75778623055942
 20
179.75006500937491
 30
0.0
 11
694.75778623055999
 21
179.75006500937491
 31
0.0
  0
LINE
  5
1A000
  8
1
  6
CONTINUOUS
 62
     7
 10
713.75778623056124
 20
186.46685144960281
 30
0.0
 11
708.15778623056258
 21
186.46685144960281
 31
0.0
  0
ARC
  5
1A001
  8
1
  6
CONTINUOUS
 62
     7
 10
714.75778623056101
 20
185.46685144960301
 30
0.0
 40
0.9999999999998864
 50
90.0
 51
180.0
  0
LINE
  5
1A002
  8
1
  6
CONTINUOUS
 62
     7
 10
713.75778623056124
 20
186.46685144960281
 30
0.0
 11
714.75778623056101
 21
186.46685144960281
 31
0.0
  0
LINE
  5
1A003
  8
1
  6
CONTINUOUS
 62
     7
 10
715.35778623056035
 20
186.46685144960281
 30
0.0
 11
714.75778623056101
 21
186.46685144960281
 31
0.0
  0
LINE
  5
1A004
  8
AM_0
 10
722.75777860116455
 20
186.47955144960761
 30
0.0
 11
722.75777860116455
 21
188.9795514496077
 31
0.0
  0
ARC
  5
1A005
  8
1
  6
CONTINUOUS
 62
     7
 10
724.25778623056158
 20
185.46685144960301
 30
0.0
 40
0.9999999999999998
 50
0.0
 51
90.0
  0
LINE
  5
1A006
  8
AM_0
 10
719.27604131948544
 20
188.9668514496139
 30
0.0
 11
719.55158158928532
 21
199.48930982755249
 31
0.0
  0
LINE
  5
1A007
  8
AM_0
 10
659.27604131948578
 20
188.96685144960131
 30
0.0
 11
658.97398841295001
 21
200.50178657640129
 31
0.0
  0
TEXT
  5
1A165
  8
AM_0
 10
583.9343189014271
 20
530.17067204579246
 30
0.0
 40
10.0
  1
VC04-007BL~VC04-060BL
1001
ACAD
1000
MTEXTBEGIN
1070
    73
1070
     1
1070
    44
1040
1.0
1070
    74
1070
     0
1000
MTEXTEND
  0
VIEWPORT
  5
89
 67
     1
  8
0
 10
210.0
 20
148.5
 30
0.0
 40
420.0
 41
297.0
 68
     1
 69
     1
1001
ACAD
1000
MVIEW
1002
{
1070
    16
1010
0.0
1020
0.0
1030
0.0
1010
0.0
1020
0.0
1030
1.0
1040
0.0
1040
297.0
1040
221.70154043645701
1040
148.5
1040
50.0
1040
0.0
1040
0.0
1070
     0
1070
   100
1070
     1
1070
     1
1070
     0
1070
     0
1070
     0
1070
     0
1040
0.0
1040
0.0
1040
0.0
1040
10.0
1040
10.0
1040
10.0
1040
10.0
1070
     0
1002
{
1002
}
1002
}
1001
GENIUS_GENOREF_13
1005
1B94
1001
GENIUS_GENSCREG_15
1000
PF
1040
1.0
1000
DF
1040
1.0
1000
MIN
1011
0.0
1021
0.0
1031
0.0
1021
0.0
1031
0.0
1000
MAX
1011
420.0
1021
0.0
1031
0.0
1021
297.0
1031
0.0
1000
FLAGS
1070
     4
  0
ENDSEC
  0
EOF
