  0
SECTION
  2
HEADER
  9
$ACADVER
  1
AC1009
  9
$INSBASE
 10
0.0
 20
0.0
 30
0.0
  9
$EXTMIN
 10
63.723383103873857
 20
155.0187736851417
 30
-0.000000000000013
  9
$EXTMAX
 10
724.85508911772047
 20
616.36961157272719
 30
0.0000000000000023
  9
$LIMMIN
 10
0.0
 20
0.0
  9
$LIMMAX
 10
853.5
 20
555.00000000000011
  9
$ORTHOMODE
 70
     0
  9
$REGENMODE
 70
     1
  9
$FILLMODE
 70
     1
  9
$QTEXTMODE
 70
     0
  9
$MIRRTEXT
 70
     1
  9
$DRAGMODE
 70
     2
  9
$LTSCALE
 40
3.0
  9
$OSMODE
 70
   551
  9
$ATTMODE
 70
     1
  9
$TEXTSIZE
 40
2.5
  9
$TRACEWID
 40
1.0
  9
$TEXTSTYLE
  7
STANDARD
  9
$CLAYER
  8
AM_0
  9
$CELTYPE
  6
BYLAYER
  9
$CECOLOR
 62
   256
  9
$DIMSCALE
 40
3.0
  9
$DIMASZ
 40
2.5
  9
$DIMEXO
 40
1.0
  9
$DIMDLI
 40
7.0
  9
$DIMRND
 40
0.0
  9
$DIMDLE
 40
0.0
  9
$DIMEXE
 40
1.0
  9
$DIMTP
 40
0.1
  9
$DIMTM
 40
0.1000000001
  9
$DIMTXT
 40
2.5
  9
$DIMCEN
 40
0.0
  9
$DIMTSZ
 40
0.0
  9
$DIMTOL
 70
     0
  9
$DIMLIM
 70
     0
  9
$DIMTIH
 70
     0
  9
$DIMTOH
 70
     0
  9
$DIMSE1
 70
     0
  9
$DIMSE2
 70
     0
  9
$DIMTAD
 70
     3
  9
$DIMZIN
 70
     8
  9
$DIMBLK
  1

  9
$DIMASO
 70
     1
  9
$DIMSHO
 70
     1
  9
$DIMPOST
  1

  9
$DIMAPOST
  1
"
  9
$DIMALT
 70
     0
  9
$DIMALTD
 70
     2
  9
$DIMALTF
 40
0.0393701
  9
$DIMLFAC
 40
1.0
  9
$DIMTOFL
 70
     1
  9
$DIMTVP
 40
0.0
  9
$DIMTIX
 70
     0
  9
$DIMSOXD
 70
     0
  9
$DIMSAH
 70
     0
  9
$DIMBLK1
  1

  9
$DIMBLK2
  1

  9
$DIMSTYLE
  2
AM_JIS
  9
$DIMCLRD
 70
   256
  9
$DIMCLRE
 70
   256
  9
$DIMCLRT
 70
     4
  9
$DIMTFAC
 40
0.71
  9
$DIMGAP
 40
1.0
  9
$LUNITS
 70
     2
  9
$LUPREC
 70
     2
  9
$SKETCHINC
 40
1.0
  9
$FILLETRAD
 40
11.0
  9
$AUNITS
 70
     0
  9
$AUPREC
 70
     3
  9
$MENU
  1
.
  9
$ELEVATION
 40
0.0
  9
$PELEVATION
 40
0.0
  9
$THICKNESS
 40
0.0
  9
$LIMCHECK
 70
     0
  9
$BLIPMODE
 70
     0
  9
$CHAMFERA
 40
7.5
  9
$CHAMFERB
 40
7.5
  9
$SKPOLY
 70
     0
  9
$TDCREATE
 40
2452753.643349607
  9
$TDUPDATE
 40
2458543.4931006599
  9
$TDINDWG
 40
0.2448570023
  9
$TDUSRTIMER
 40
0.2448568056
  9
$USRTIMER
 70
     1
  9
$ANGBASE
 50
0.0
  9
$ANGDIR
 70
     0
  9
$PDMODE
 70
     0
  9
$PDSIZE
 40
0.0
  9
$PLINEWID
 40
0.0
  9
$COORDS
 70
     1
  9
$SPLFRAME
 70
     0
  9
$SPLINETYPE
 70
     6
  9
$SPLINESEGS
 70
     8
  9
$ATTDIA
 70
     1
  9
$ATTREQ
 70
     1
  9
$HANDLING
 70
     1
  9
$HANDSEED
  5
F5F3
  9
$SURFTAB1
 70
     6
  9
$SURFTAB2
 70
     6
  9
$SURFTYPE
 70
     6
  9
$SURFU
 70
     6
  9
$SURFV
 70
     6
  9
$UCSNAME
  2

  9
$UCSORG
 10
0.0
 20
0.0
 30
0.0
  9
$UCSXDIR
 10
1.0
 20
0.0
 30
0.0
  9
$UCSYDIR
 10
0.0
 20
1.0
 30
0.0
  9
$PUCSNAME
  2

  9
$PUCSORG
 10
0.0
 20
0.0
 30
0.0
  9
$PUCSXDIR
 10
1.0
 20
0.0
 30
0.0
  9
$PUCSYDIR
 10
0.0
 20
1.0
 30
0.0
  9
$USERI1
 70
     0
  9
$USERI2
 70
     0
  9
$USERI3
 70
     0
  9
$USERI4
 70
     0
  9
$USERI5
 70
     0
  9
$USERR1
 40
0.0
  9
$USERR2
 40
0.0
  9
$USERR3
 40
0.0
  9
$USERR4
 40
0.0
  9
$USERR5
 40
0.0
  9
$WORLDVIEW
 70
     1
  9
$SHADEDGE
 70
     3
  9
$SHADEDIF
 70
    70
  9
$TILEMODE
 70
     1
  9
$MAXACTVP
 70
    48
  9
$PLIMCHECK
 70
     0
  9
$PEXTMIN
 10
1.0000000000000000E+020
 20
1.0000000000000000E+020
 30
1.0000000000000000E+020
  9
$PEXTMAX
 10
-1.0000000000000000E+020
 20
-1.0000000000000000E+020
 30
-1.0000000000000000E+020
  9
$PLIMMIN
 10
0.0
 20
0.0
  9
$PLIMMAX
 10
420.0
 20
297.0
  9
$UNITMODE
 70
     0
  9
$VISRETAIN
 70
     1
  9
$PLINEGEN
 70
     0
  9
$PSLTSCALE
 70
     1
  0
ENDSEC
  0
SECTION
  2
TABLES
  0
TABLE
  2
VPORT
 70
     1
  0
VPORT
  2
*ACTIVE
 70
     0
 10
0.0
 20
0.0
 11
1.0
 21
1.0
 12
394.28923611079722
 22
385.6941926289345
 13
0.0
 23
0.0
 14
7.5
 24
7.5
 15
30.0
 25
30.0
 16
0.0
 26
0.0
 36
1.0
 17
0.0
 27
0.0
 37
0.0
 40
464.51800611107018
 41
1.7571592210767459
 42
50.0
 43
0.0
 44
0.0
 50
0.0
 51
0.0
 71
    16
 72
   100
 73
     1
 74
     1
 75
     0
 76
     0
 77
     0
 78
     0
  0
ENDTAB
  0
TABLE
  2
LTYPE
 70
    21
  0
LTYPE
  2
CONTINUOUS
 70
     0
  3
Solid line
 72
    65
 73
     0
 40
0.0
  0
LTYPE
  2
HIDDEN
 70
     0
  3
Hidden __ __ __ __ __ __ __ __ __ __ __ __ __ _
 72
    65
 73
     2
 40
9.5249999999999968
 49
6.3499999999999979
 49
-3.174999999999998
  0
LTYPE
  2
PHANTOM2
 70
     0
  3
Phantom (.5x) ___ _ _ ___ _ _ ___ _ _ ___ _ _
 72
    65
 73
     6
 40
31.75
 49
15.875
 49
-3.174999999999998
 49
3.174999999999998
 49
-3.174999999999998
 49
3.174999999999998
 49
-3.174999999999998
  0
LTYPE
  2
CENTER
 70
     0
  3
Center ____ _ ____ _ ____ _ ____ _ ____ _ ____
 72
    65
 73
     4
 40
50.799999999999997
 49
31.75
 49
-6.3499999999999979
 49
6.3499999999999979
 49
-6.3499999999999979
  0
LTYPE
  2
ACANSTGBM
 70
     0
  3
__ . . __ . .
 72
    65
 73
     6
 40
9.0
 49
4.0
 49
-1.0
 49
1.0
 49
-1.0
 49
1.0
 49
-1.0
  0
LTYPE
  2
ACANSTGLM
 70
     0
  3
_ _ _ _ _
 72
    65
 73
     2
 40
3.0
 49
2.0
 49
-1.0
  0
LTYPE
  2
GEN3B
 70
     0
  3
 - - - - -
 72
    65
 73
     2
 40
1.0
 49
0.5
 49
-0.5
  0
LTYPE
  2
GEN7A
 70
     0
  3
__ . __ . __
 72
    65
 73
     4
 40
7.375
 49
4.75
 49
-0.875
 49
0.875
 49
-0.875
  0
LTYPE
  2
AM_ISO02W050
 70
     0
  3
__ __ __ __ __ __ __ __ __ __ __ __ __ __ __
 72
    65
 73
     2
 40
7.5
 49
6.0
 49
-1.5
  0
LTYPE
  2
AM_ISO08W050
 70
     0
  3
____ . ____ . ____ . ____ . ____ . ____ . ____
 72
    65
 73
     4
 40
18.0
 49
12.0
 49
-1.5
 49
3.0
 49
-1.5
  0
LTYPE
  2
AM_ISO09W050
 70
     0
  3
_____ . . _____ . . _____ . . ____ .. ____
 72
    65
 73
     6
 40
22.5
 49
12.0
 49
-1.5
 49
3.0
 49
-1.5
 49
3.0
 49
-1.5
  0
LTYPE
  2
AMCONSTR
 70
     0
  3
_______________________
 72
    65
 73
     2
 40
9999.0
 49
9999.0
 49
0.0
  0
LTYPE
  2
AM_ISO02W050X2
 70
     0
  3
 _ _ _ _ _ _ _ _ _ _ _ _
 72
    65
 73
     2
 40
3.75
 49
3.0
 49
-0.75
  0
LTYPE
  2
AM_ISO08W050X2
 70
     0
  3
__ . __ . __ . __ . __ . __
 72
    65
 73
     4
 40
9.0
 49
6.0
 49
-0.75
 49
1.5
 49
-0.75
  0
LTYPE
  2
AMZIGZAG
 70
     0
  3
/\/-/\/-/\/-/\/-/\/-/\/
 72
    65
 73
     2
 40
11.0001
 49
0.0001
 49
-11.0
  0
LTYPE
  2
ACJISTGB
 70
     0
  3
__ . . __ . .
 72
    65
 73
     6
 40
9.0
 49
4.0
 49
-1.0
 49
1.0
 49
-1.0
 49
1.0
 49
-1.0
  0
LTYPE
  2
ACJISTGL
 70
     0
  3
_ _ _ _ _
 72
    65
 73
     2
 40
3.0
 49
2.0
 49
-1.0
  0
LTYPE
  2
ACISOWELD
 70
     0
  3
_ _ _ _ _
 72
    65
 73
     2
 40
2.0
 49
2.0
 49
-1.0
  0
LTYPE
  2
ACISOTGB
 70
     0
  3
__ . . __ . .
 72
    65
 73
     6
 40
9.0
 49
4.0
 49
-1.0
 49
1.0
 49
-1.0
 49
1.0
 49
-1.0
  0
LTYPE
  2
ACISOTGL
 70
     0
  3
_ _ _ _ _
 72
    65
 73
     2
 40
3.0
 49
2.0
 49
-1.0
  0
ENDTAB
  0
TABLE
  2
LAYER
 70
     8
  0
LAYER
  2
0
 70
     0
 62
     7
  6
CONTINUOUS
  0
LAYER
  2
ｽﾝﾎﾟｳｾﾝ
 70
     0
 62
     2
  6
CONTINUOUS
  0
LAYER
  2
DEFPOINTS
 70
     0
 62
     7
  6
CONTINUOUS
  0
LAYER
  2
ｶｸﾚｾﾝ2
 70
     0
 62
     3
  6
GEN3B
  0
LAYER
  2
ﾁｭｳｼﾝｾﾝ1
 70
     0
 62
     1
  6
GEN7A
  0
LAYER
  2
AM_0
 70
     0
 62
     7
  6
CONTINUOUS
  0
LAYER
  2
AM_0N
 70
     0
 62
     7
  6
CONTINUOUS
  0
LAYER
  2
AM_5
 70
     0
 62
     2
  6
CONTINUOUS
  0
ENDTAB
  0
TABLE
  2
STYLE
 70
     8
  0
STYLE
  2
STANDARD
 70
     0
 40
0.0
 41
0.8299999999999999
 50
0.0
 71
     0
 42
2.5
  3
txt.shx
  4
bigfont.shx
  0
STYLE
  2
ACANSTS
 70
     0
 40
1.0
 41
1.0
 50
0.0
 71
     0
 42
2.5
  3
romans.shx
  4
bigfont.shx
  0
STYLE
  2
ACANSGDT
 70
     0
 40
0.0
 41
1.0
 50
0.0
 71
     0
 42
2.5
  3
amgdtans.shx
  4

  0
STYLE
  2

 70
     1
 40
0.0
 41
1.0
 50
0.0
 71
     0
 42
2.5
  3
ltypeshp.shx
  4

  0
STYLE
  2
ACJISTS
 70
     0
 40
1.0
 41
1.0
 50
0.0
 71
     0
 42
2.5
  3
isocp.shx
  4
bigfont.shx
  0
STYLE
  2
ACJISGDT
 70
     0
 40
0.0
 41
1.0
 50
0.0
 71
     0
 42
2.5
  3
amgdt.shx
  4

  0
STYLE
  2
ACISOTS
 70
     0
 40
3.0
 41
1.0
 50
0.0
 71
     0
 42
2.5
  3
isocp.shx
  4
extfont.shx
  0
STYLE
  2
ACISOGDT
 70
     0
 40
0.0
 41
1.0
 50
0.0
 71
     0
 42
2.5
  3
amgdt.shx
  4

  0
ENDTAB
  0
TABLE
  2
VIEW
 70
    12
  0
VIEW
  2
GEN1
 70
     0
 40
95.824742268041234
 10
71.5
 20
137.08762886597941
 41
143.0
 11
0.0
 21
0.0
 31
1.0
 12
0.0
 22
0.0
 32
0.0
 42
50.0
 43
0.0
 44
0.0
 50
0.0
 71
     0
  0
VIEW
  2
GEN2
 70
     0
 40
95.824742268041234
 10
214.5
 20
137.08762886597941
 41
143.0
 11
0.0
 21
0.0
 31
1.0
 12
0.0
 22
0.0
 32
0.0
 42
50.0
 43
0.0
 44
0.0
 50
0.0
 71
     0
  0
VIEW
  2
GEN3
 70
     0
 40
95.824742268041234
 10
71.5
 20
47.912371134020603
 41
143.0
 11
0.0
 21
0.0
 31
1.0
 12
0.0
 22
0.0
 32
0.0
 42
50.0
 43
0.0
 44
0.0
 50
0.0
 71
     0
  0
VIEW
  2
GEN4
 70
     0
 40
95.824742268041234
 10
214.5
 20
47.912371134020603
 41
143.0
 11
0.0
 21
0.0
 31
1.0
 12
0.0
 22
0.0
 32
0.0
 42
50.0
 43
0.0
 44
0.0
 50
0.0
 71
     0
  0
VIEW
  2
GEN5
 70
     0
 40
95.824742268041234
 10
143.0
 20
92.500000000000057
 41
143.0
 11
0.0
 21
0.0
 31
1.0
 12
0.0
 22
0.0
 32
0.0
 42
50.0
 43
0.0
 44
0.0
 50
0.0
 71
     0
  0
VIEW
  2
GEN6
 70
     0
 40
191.64756804123709
 10
143.0
 20
92.5
 41
285.99714
 11
0.0
 21
0.0
 31
1.0
 12
0.0
 22
0.0
 32
0.0
 42
50.0
 43
0.0
 44
0.0
 50
0.0
 71
     0
  0
VIEW
  2
AM_VIEW1
 70
     0
 40
277.50000000000011
 10
249.64779005524869
 20
416.25000000000011
 41
499.29558011049721
 11
0.0
 21
0.0
 31
1.0
 12
0.0
 22
0.0
 32
0.0
 42
50.0
 43
0.0
 44
0.0
 50
0.0
 71
    16
  0
VIEW
  2
AM_VIEW2
 70
     0
 40
277.50000000000011
 10
603.85220994475117
 20
416.25000000000011
 41
499.29558011049721
 11
0.0
 21
0.0
 31
1.0
 12
0.0
 22
0.0
 32
0.0
 42
50.0
 43
0.0
 44
0.0
 50
0.0
 71
    16
  0
VIEW
  2
AM_VIEW3
 70
     0
 40
277.50000000000011
 10
249.64779005524869
 20
138.75
 41
499.29558011049721
 11
0.0
 21
0.0
 31
1.0
 12
0.0
 22
0.0
 32
0.0
 42
50.0
 43
0.0
 44
0.0
 50
0.0
 71
    16
  0
VIEW
  2
AM_VIEW4
 70
     0
 40
277.50000000000011
 10
603.85220994475117
 20
138.75
 41
499.29558011049721
 11
0.0
 21
0.0
 31
1.0
 12
0.0
 22
0.0
 32
0.0
 42
50.0
 43
0.0
 44
0.0
 50
0.0
 71
    16
  0
VIEW
  2
AM_VIEW5
 70
     0
 40
277.50000000000011
 10
426.75
 20
277.50000000000011
 41
499.2955801104971
 11
0.0
 21
0.0
 31
1.0
 12
0.0
 22
0.0
 32
0.0
 42
50.0
 43
0.0
 44
0.0
 50
0.0
 71
    16
  0
VIEW
  2
AM_VIEW6
 70
     0
 40
554.99445000000014
 10
426.75
 20
277.5
 41
998.5811743093924
 11
0.0
 21
0.0
 31
1.0
 12
0.0
 22
0.0
 32
0.0
 42
50.0
 43
0.0
 44
0.0
 50
0.0
 71
    16
  0
ENDTAB
  0
TABLE
  2
UCS
 70
     0
  0
ENDTAB
  0
TABLE
  2
APPID
 70
    96
  0
APPID
  2
ACAD
 70
     0
  0
APPID
  2
MCAD_NO_VIS
 70
     0
  0
APPID
  2
ACAD_TEMP_GRAPHIC
 70
     0
  0
APPID
  2
AD_DRAW
 70
     0
  0
APPID
  2
DESIGNERASSEMBLIES
 70
     0
  0
APPID
  2
ASURF_PCURVE_APPNAME
 70
     0
  0
APPID
  2
GENIUS_GE3SECT_13
 70
     0
  0
APPID
  2
GENIUS_GENCFG_13
 70
     0
  0
APPID
  2
GENIUS_GE3CFG0_13
 70
     0
  0
APPID
  2
GENIUS_GENCFG0_13
 70
     0
  0
APPID
  2
GENIUS_GENCFG1_13
 70
     0
  0
APPID
  2
GENIUS_GENCFG2_13
 70
     0
  0
APPID
  2
GENIUS_GENCFG3_13
 70
     0
  0
APPID
  2
GENIUS_GENCFG4_13
 70
     0
  0
APPID
  2
GENIUS_GEVCFG0_13
 70
     0
  0
APPID
  2
GENIUS_GENOENT_13
 70
     0
  0
APPID
  2
GENIUS_GENREC_14
 70
     0
  0
APPID
  2
GENIUS_GENODEF_13
 70
     0
  0
APPID
  2
GENIUS_GENOBJ-N-REC_13
 70
     0
  0
APPID
  2
GENIUS_GENHINW_13
 70
     0
  0
APPID
  2
GENIUS_FIRSTVISTXT_14
 70
     0
  0
APPID
  2
GENIUS_GENOBJ-N-LEADER_13
 70
     0
  0
APPID
  2
GENIUS_GENOREF_13
 70
     0
  0
APPID
  2
GENIUS_GENOLIS_13
 70
     0
  0
APPID
  2
GEV_VCCNULL_SWITCH_OFF
 70
     0
  0
APPID
  2
GENIUS_GENDTOL_13
 70
     0
  0
APPID
  2
GENIUS_GEFCFG0_13
 70
     0
  0
APPID
  2
GENIUS_GENOBJ-N-TIT_13
 70
     0
  0
APPID
  2
GENIUS_GENTITLE_13
 70
     0
  0
APPID
  2
GENIUS_GENZVEED_13
 70
     0
  0
APPID
  2
GENIUS_GENOBJ-N-SDF_13
 70
     0
  0
APPID
  2
GENIUS_GENSCREG_13
 70
     0
  0
APPID
  2
GENIUS_DUMCFG0_13
 70
     0
  0
APPID
  2
GEVID936201362
 70
     0
  0
APPID
  2
GEVDC
 70
     0
  0
APPID
  2
GEVCON
 70
     0
  0
APPID
  2
VCC
 70
     0
  0
APPID
  2
GEVPT
 70
     0
  0
APPID
  2
GEVIT
 70
     0
  0
APPID
  2
GENBH
 70
     0
  0
APPID
  2
GEVMK
 70
     0
  0
APPID
  2
GENIUS_GENBH_13
 70
     0
  0
APPID
  2
GENIUS_GENOBJ-NBEHI-BHF_13
 70
     0
  0
APPID
  2
GENIUS_GENOBJ-NBEHI-BHB_13
 70
     0
  0
APPID
  2
GENIUS_GENOBJ-F-DESC_13
 70
     0
  0
APPID
  2
GENIUS_GEFDESC_14
 70
     0
  0
APPID
  2
GENIUS_GENOBJ-F-PART_13
 70
     0
  0
APPID
  2
GENIUS_GEFSTDP_13
 70
     0
  0
APPID
  2
GENIUS_GEFPARTINS_13
 70
     0
  0
APPID
  2
GENIUS_GENTRA_14
 70
     0
  0
APPID
  2
GENIUS_GENINF13_13
 70
     0
  0
APPID
  2
GENIUS_GENOBJ-N-INFOPT_13
 70
     0
  0
APPID
  2
GENIUS_GENOBJ-N-RSSYM_13
 70
     0
  0
APPID
  2
GENIUS_GENSYMENT_13
 70
     0
  0
APPID
  2
GENIUS_GENSCSYM_13
 70
     0
  0
APPID
  2
GENIUS_GEFINFNAM_13
 70
     0
  0
APPID
  2
GENIUS_GENSCREG_15
 70
     0
  0
APPID
  2
GENIUS_GENOBJ-N-CEN_13
 70
     0
  0
APPID
  2
GENIUS_GENOBJ-N-CRS_13
 70
     0
  0
APPID
  2
GENIUS_GENOBJ-N-CRC_13
 70
     0
  0
APPID
  2
GENIUS_GENCRC_14
 70
     0
  0
APPID
  2
GEVID942827039
 70
     0
  0
APPID
  2
GEVID942827040
 70
     0
  0
APPID
  2
GEVID942827041
 70
     0
  0
APPID
  2
GENIUS_GENOBJ-F-SCPASSM_13
 70
     0
  0
APPID
  2
GENIUS_GENDIMSH_14
 70
     0
  0
APPID
  2
GENIUS_GENFIL_13
 70
     0
  0
APPID
  2
GENIUS_GENOBJ-N-CHA_13
 70
     0
  0
APPID
  2
GENIUS_GENOBJ-N-FIL_13
 70
     0
  0
APPID
  2
GEVID942827042
 70
     0
  0
APPID
  2
GEVID946020473
 70
     0
  0
APPID
  2
GEVID946020474
 70
     0
  0
APPID
  2
GEVID946020475
 70
     0
  0
APPID
  2
GENIUS_GENOBJ-N-HTC_13
 70
     0
  0
APPID
  2
GENIUS_GENHATCH_13
 70
     0
  0
APPID
  2
GEVID948854295
 70
     0
  0
APPID
  2
GEVID939402019
 70
     0
  0
APPID
  2
GEVID952919491
 70
     0
  0
APPID
  2
GEVID952919492
 70
     0
  0
APPID
  2
GENIUS_GEFWELD_13
 70
     0
  0
APPID
  2
GENIUS_GENOBJ-F-WELS_13
 70
     0
  0
APPID
  2
GEVID952919493
 70
     0
  0
APPID
  2
GENIUS_GENOBJ-N-RSBK_13
 70
     0
  0
APPID
  2
GENIUS_GENOBJ-N-LIB_13
 70
     0
  0
APPID
  2
GENIUS_GENSCALE_13
 70
     0
  0
APPID
  2
GEVID986376691
 70
     0
  0
APPID
  2
ACATTRIBSERVICES
 70
     0
  0
APPID
  2
DCO15
 70
     0
  0
APPID
  2
ACADM_DIM_EDIT
 70
     0
  0
APPID
  2
AMDT_DM_ADJ
 70
     0
  0
APPID
  2
ACAD_MLEADERVER
 70
     0
  0
APPID
  2
ACAD_DSTYLE_DIMBREAK
 70
     0
  0
APPID
  2
ACAD_DSTYLE_DIMJAG
 70
     0
  0
APPID
  2
ACAD_NAV_VCDISPLAY
 70
     0
  0
APPID
  2
ACADANNOPO
 70
     0
  0
APPID
  2
ACAD_EXEMPT_FROM_CAD_STANDARDS
 70
     0
  0
ENDTAB
  0
TABLE
  2
DIMSTYLE
 70
    16
  0
DIMSTYLE
  2
STANDARD
 70
     0
  3

  4

  5

  6

  7

 40
1.0
 41
0.18
 42
0.0625
 43
0.38
 44
0.18
 45
0.0
 46
0.0
 47
0.0
 48
0.0
140
0.18
141
0.09
142
0.0
143
25.399999999999999
144
1.0
145
0.0
146
1.0
147
0.09
 71
     0
 72
     0
 73
     1
 74
     1
 75
     0
 76
     0
 77
     0
 78
     0
170
     0
171
     2
172
     0
173
     0
174
     0
175
     0
176
     0
177
     0
178
     0
  0
DIMSTYLE
  2
AM_JIS
 70
     0
  3

  4
"
  5

  6

  7

 40
1.0
 41
2.5
 42
1.0
 43
7.0
 44
1.0
 45
0.0
 46
0.0
 47
0.1
 48
0.1000000001
140
2.5
141
0.0
142
0.0
143
0.0393701
144
1.0
145
0.0
146
0.71
147
1.0
 71
     0
 72
     0
 73
     0
 74
     0
 75
     0
 76
     0
 77
     3
 78
     8
170
     0
171
     2
172
     1
173
     0
174
     0
175
     0
176
   256
177
   256
178
     4
  0
DIMSTYLE
  2
AM_JIS$3
 70
     0
  3

  4
"
  5

  6

  7

 40
1.0
 41
2.5
 42
1.0
 43
7.0
 44
1.0
 45
0.0
 46
0.0
 47
0.1
 48
0.1000000001
140
2.5
141
0.0
142
0.0
143
0.0393701
144
1.0
145
0.0
146
0.71
147
1.0
 71
     0
 72
     0
 73
     0
 74
     1
 75
     0
 76
     0
 77
     3
 78
     8
170
     0
171
     2
172
     0
173
     0
174
     0
175
     0
176
   256
177
   256
178
     4
  0
DIMSTYLE
  2
AM_JIS$4
 70
     0
  3

  4
"
  5

  6

  7

 40
1.0
 41
2.5
 42
1.0
 43
7.0
 44
1.0
 45
0.0
 46
0.0
 47
0.1
 48
0.1000000001
140
2.5
141
0.0
142
0.0
143
0.0393701
144
1.0
145
0.0
146
0.71
147
1.0
 71
     0
 72
     0
 73
     0
 74
     0
 75
     0
 76
     0
 77
     3
 78
     8
170
     0
171
     2
172
     0
173
     0
174
     0
175
     0
176
   256
177
   256
178
     4
  0
DIMSTYLE
  2
AM_JIS$6
 70
     0
  3

  4
"
  5

  6

  7

 40
1.0
 41
2.5
 42
1.0
 43
7.0
 44
1.0
 45
0.0
 46
0.0
 47
0.1
 48
0.1000000001
140
2.5
141
0.0
142
0.0
143
0.0393701
144
1.0
145
0.0
146
0.71
147
1.0
 71
     0
 72
     0
 73
     0
 74
     0
 75
     0
 76
     0
 77
     0
 78
     8
170
     0
171
     2
172
     1
173
     0
174
     0
175
     0
176
   256
177
   256
178
     4
  0
DIMSTYLE
  2
AM_JIS$7
 70
     0
  3

  4
"
  5

  6

  7

 40
1.0
 41
2.5
 42
1.0
 43
7.0
 44
1.0
 45
0.0
 46
0.0
 47
0.1
 48
0.1000000001
140
2.5
141
0.0
142
0.0
143
0.0393701
144
1.0
145
0.0
146
0.71
147
1.0
 71
     0
 72
     0
 73
     0
 74
     0
 75
     0
 76
     0
 77
     3
 78
     8
170
     0
171
     2
172
     1
173
     0
174
     0
175
     0
176
   256
177
   256
178
     4
  0
DIMSTYLE
  2
AM_JIS$SF
 70
     0
  3

  4
"
  5
OPEN30
  6
OPEN30
  7
OPEN30
 40
1.0
 41
2.5
 42
1.0
 43
10.0
 44
1.0
 45
0.0
 46
0.0
 47
0.1
 48
0.1
140
3.5
141
0.0
142
0.0
143
0.0393701
144
1.0
145
0.0
146
0.71
147
1.5
 71
     0
 72
     0
 73
     0
 74
     0
 75
     1
 76
     1
 77
     3
 78
     8
170
     0
171
     2
172
     1
173
     0
174
     0
175
     0
176
   256
177
   256
178
     4
  0
DIMSTYLE
  2
AM_JIS$SH
 70
     0
  3

  4
"
  5

  6
NONE
  7

 40
1.0
 41
2.5
 42
1.0
 43
10.0
 44
1.0
 45
0.0
 46
0.0
 47
0.1
 48
0.1
140
3.5
141
0.0
142
0.0
143
0.0393701
144
1.0
145
0.0
146
0.71
147
1.5
 71
     0
 72
     0
 73
     0
 74
     0
 75
     1
 76
     0
 77
     3
 78
     8
170
     0
171
     2
172
     1
173
     1
174
     0
175
     0
176
   256
177
   256
178
     4
  0
DIMSTYLE
  2
AM_ISO
 70
     0
  3

  4
"
  5

  6

  7

 40
1.0
 41
2.5
 42
1.0
 43
10.0
 44
1.0
 45
0.0
 46
0.0
 47
0.0
 48
0.000000001
140
3.0
141
0.0
142
0.0
143
0.0393701
144
1.0
145
0.0
146
0.71
147
1.299999999999998
 71
     1
 72
     0
 73
     0
 74
     0
 75
     0
 76
     0
 77
     1
 78
     8
170
     0
171
     2
172
     1
173
     0
174
     0
175
     0
176
   256
177
   256
178
     4
  0
DIMSTYLE
  2
AM_ISO$3
 70
     0
  3

  4
"
  5

  6

  7

 40
1.0
 41
2.5
 42
1.0
 43
10.0
 44
1.0
 45
0.0
 46
0.0
 47
0.0
 48
0.000000001
140
2.5
141
0.0
142
0.0
143
0.0393701
144
1.0
145
0.0
146
0.71
147
1.299999999999998
 71
     1
 72
     0
 73
     0
 74
     1
 75
     0
 76
     0
 77
     1
 78
     8
170
     0
171
     2
172
     0
173
     0
174
     0
175
     0
176
   256
177
   256
178
     4
  0
DIMSTYLE
  2
AM_ISO$4
 70
     0
  3

  4
"
  5

  6

  7

 40
1.0
 41
2.5
 42
1.0
 43
10.0
 44
1.0
 45
0.0
 46
0.0
 47
0.0
 48
0.000000001
140
2.5
141
0.0
142
0.0
143
0.0393701
144
1.0
145
0.0
146
0.71
147
1.299999999999998
 71
     1
 72
     0
 73
     0
 74
     1
 75
     0
 76
     0
 77
     1
 78
     8
170
     0
171
     2
172
     0
173
     0
174
     0
175
     0
176
   256
177
   256
178
     4
  0
DIMSTYLE
  2
AM_ISO$6
 70
     0
  3

  4
"
  5

  6

  7

 40
1.0
 41
2.5
 42
1.0
 43
10.0
 44
1.0
 45
0.0
 46
0.0
 47
0.0
 48
0.000000001
140
2.5
141
0.0
142
0.0
143
0.0393701
144
1.0
145
0.0
146
0.71
147
1.299999999999998
 71
     1
 72
     0
 73
     0
 74
     0
 75
     0
 76
     0
 77
     0
 78
     8
170
     0
171
     2
172
     1
173
     0
174
     0
175
     0
176
   256
177
   256
178
     4
  0
DIMSTYLE
  2
AM_ISO$7
 70
     0
  3

  4
"
  5

  6

  7

 40
1.0
 41
2.5
 42
1.0
 43
10.0
 44
1.0
 45
0.0
 46
0.0
 47
0.0
 48
0.000000001
140
2.5
141
0.0
142
0.0
143
0.0393701
144
1.0
145
0.0
146
0.71
147
1.299999999999998
 71
     1
 72
     0
 73
     0
 74
     0
 75
     0
 76
     0
 77
     1
 78
     8
170
     0
171
     2
172
     1
173
     0
174
     0
175
     0
176
   256
177
   256
178
     4
  0
DIMSTYLE
  2
AM_ISO$SF
 70
     0
  3

  4
"
  5

  6

  7

 40
1.0
 41
2.5
 42
1.0
 43
10.0
 44
1.0
 45
0.0
 46
0.0
 47
0.1
 48
0.1
140
3.5
141
0.0
142
0.0
143
0.0393701
144
1.0
145
0.0
146
0.71
147
1.5
 71
     0
 72
     0
 73
     0
 74
     0
 75
     1
 76
     1
 77
     1
 78
     8
170
     0
171
     2
172
     1
173
     0
174
     0
175
     0
176
   256
177
   256
178
     4
  0
DIMSTYLE
  2
AM_ISO$SH
 70
     0
  3

  4
"
  5

  6
GENAXEH
  7

 40
1.0
 41
2.5
 42
1.0
 43
10.0
 44
1.0
 45
0.0
 46
0.0
 47
0.1
 48
0.1
140
3.5
141
0.0
142
0.0
143
0.0393701
144
2.0
145
0.0
146
0.71
147
1.5
 71
     0
 72
     0
 73
     0
 74
     0
 75
     1
 76
     1
 77
     1
 78
     8
170
     0
171
     2
172
     1
173
     1
174
     0
175
     0
176
   256
177
   256
178
     4
  0
DIMSTYLE
  2
AM_JIS$0
 70
     0
  3

  4
"
  5

  6

  7

 40
1.0
 41
2.5
 42
1.0
 43
7.0
 44
1.0
 45
0.0
 46
0.0
 47
0.1
 48
0.1000000001
140
2.5
141
0.0
142
0.0
143
0.0393701
144
1.0
145
0.0
146
0.71
147
1.0
 71
     0
 72
     0
 73
     0
 74
     0
 75
     0
 76
     0
 77
     3
 78
     8
170
     0
171
     2
172
     1
173
     0
174
     0
175
     0
176
   256
177
   256
178
     4
  0
ENDTAB
  0
ENDSEC
  0
SECTION
  2
BLOCKS
  0
BLOCK
  8
0
  2
$MODEL_SPACE
 70
     0
 10
0.0
 20
0.0
 30
0.0
  3
$MODEL_SPACE
  1

  0
ENDBLK
  5
1A
  8
0
  0
BLOCK
 67
     1
  8
0
  2
$PAPER_SPACE
 70
     0
 10
0.0
 20
0.0
 30
0.0
  3
$PAPER_SPACE
  1

  0
ENDBLK
  5
17
 67
     1
  8
0
  0
BLOCK
  8
0
  2
_OPEN30
 70
     0
 10
0.0
 20
0.0
 30
0.0
  3
_OPEN30
  1

  0
LINE
  5
21C5
  8
0
 62
     0
 10
-1.0
 20
0.26794919
 30
0.0
 11
0.0
 21
0.0
 31
0.0
  0
LINE
  5
21C6
  8
0
 62
     0
 10
0.0
 20
0.0
 30
0.0
 11
-1.0
 21
-0.26794919
 31
0.0
  0
LINE
  5
21C7
  8
0
 62
     0
 10
0.0
 20
0.0
 30
0.0
 11
-1.0
 21
0.0
 31
0.0
  0
ENDBLK
  5
21C9
  8
0
  0
BLOCK
  8
0
  2
GENAXEH
 70
     0
 10
0.0
 20
0.0
 30
0.0
  3
GENAXEH
  1

  0
LINE
  5
21D0
  8
0
 10
-1.0
 20
0.0
 30
0.0
 11
1.0
 21
0.0
 31
0.0
  0
ENDBLK
  5
21D2
  8
0
  0
BLOCK
  8
0
  2
_NONE
 70
     0
 10
0.0
 20
0.0
 30
0.0
  3
_NONE
  1

  0
ENDBLK
  5
8193
  8
0
  0
ENDSEC
  0
SECTION
  2
ENTITIES
  0
POINT
  5
1B94
  8
0
 10
0.0
 20
0.0
 30
0.0
1001
GENIUS_GENODEF_13
1002
{
1000
HIER
1070
     1
1002
}
1002
{
1000
MANEDIT
1070
     0
1002
}
1002
{
1000
NOSEL
1070
     0
1002
}
1002
{
1000
BEHIND
1070
     0
1002
}
1002
{
1000
REACTOR
1002
}
1001
GENIUS_GENOBJ-N-SDF_13
1002
{
1000
OWNER
1000
GEN
1002
}
1001
GENIUS_GENOENT_13
1002
{
1000
MYREF
1005
1B94
1002
}
1002
{
1000
GRP
1005
0
1002
}
1001
GENIUS_GENOLIS_13
1002
{
1000
ENT
1005
89
1002
}
  0
LINE
  5
8809
  8
AM_0
 10
287.18501253070542
 20
214.58932958584219
 30
0.0
 11
404.18501628579799
 21
214.58932958584219
 31
0.0
  0
LINE
  5
880A
  8
AM_0
 10
287.18501253070542
 20
316.58933262567899
 30
0.0
 11
404.18501628579799
 21
316.58933262567899
 31
0.0
  0
LINE
  5
880B
  8
AM_0
 10
303.18501253070542
 20
220.5893297646561
 30
0.0
 11
386.1850159579725
 21
220.5893297646561
 31
0.0
  0
LINE
  5
880C
  8
AM_0
 10
303.18501253070542
 20
310.58933244686523
 30
0.0
 11
386.1850159579725
 21
310.58933244686523
 31
0.0
  0
LINE
  5
880D
  8
ﾁｭｳｼﾝｾﾝ1
 10
418.18501628579799
 20
265.58933110576049
 30
0.0
 11
63.741911082808429
 21
265.58933110576049
 31
0.0
  0
ARC
  5
88AF
  8
AM_0
 10
303.18501253070542
 20
305.58933244686523
 30
0.0
 40
5.0
 50
90.0
 51
180.0000005336085
1001
GENIUS_GENODEF_13
1002
{
1000
HIER
1070
     0
1002
}
1002
{
1000
MANEDIT
1070
     0
1002
}
1002
{
1000
NOSEL
1070
     0
1002
}
1002
{
1000
BEHIND
1070
     0
1002
}
1002
{
1000
OTHER
1070
     0
1002
}
1002
{
1000
REACTOR
1002
}
1001
GENIUS_GENOBJ-N-FIL_13
1002
{
1000
OWNER
1000
GEN
1002
}
  0
CIRCLE
  5
88B0
  8
AM_0
 10
287.18501253070542
 20
305.58933229785339
 30
0.0
 40
4.5000001341104507
  0
ARC
  5
88B1
  8
AM_0
 10
287.18501253070542
 20
305.58933229785339
 30
0.0
 40
11.00000032782555
 50
90.000002504478445
 51
180.00000500895689
  0
LINE
  5
88B2
  8
ﾁｭｳｼﾝｾﾝ1
 10
287.18501253070542
 20
298.08933207433603
 30
0.0
 11
287.18501253070542
 21
313.08933252137098
 31
0.0
  0
LINE
  5
88B7
  8
AM_0
 10
263.18501220287988
 20
214.9490494285144
 30
0.0
 11
263.18501220287988
 21
316.22962041240112
 31
0.0
  0
ARC
  5
88B8
  8
AM_0
 10
495.18499694409059
 20
265.58933110576049
 30
0.0
 40
236.0
 50
169.43603828764111
 51
180.00000500895041
  0
LINE
  5
88B9
  8
AM_0
 10
251.6789086872549
 20
321.58933110576049
 30
0.0
 11
251.6789086872549
 21
209.58933110576049
 31
0.0
  0
ARC
  5
89B6
  8
AM_0
 10
495.18499694409059
 20
265.58933110576049
 30
0.0
 40
236.0
 50
180.00000500895041
 51
190.5639717302731
  0
LINE
  5
89B7
  8
AM_0
 10
282.18501238169381
 20
289.58933229785339
 30
0.0
 11
282.18501238169381
 21
241.5893299136676
 31
0.0
  0
LINE
  5
89B8
  8
AM_0
 10
276.18501220287988
 20
305.58933229785339
 30
0.0
 11
276.18501220287988
 21
225.58932991366771
 31
0.0
  0
LINE
  5
89B9
  8
AM_0
 10
264.37879878026217
 20
216.58933110576049
 30
0.0
 11
280.86045688254319
 21
216.58933110576049
 31
0.0
  0
LINE
  5
89BA
  8
AM_0
 10
263.68501220287988
 20
222.32272191386599
 30
0.0
 11
276.18501220287999
 21
222.32272191386599
 31
0.0
  0
ARC
  5
89BB
  8
AM_0
 10
261.23613726605788
 20
211.58933110576049
 30
0.0
 40
2.0
 50
270.0
 51
357.99953469735499
1001
GENIUS_GENOBJ-N-FIL_13
1002
{
1000
OWNER
1000
GEN
1002
}
1001
GENIUS_GENODEF_13
1002
{
1000
HIER
1070
     0
1002
}
1002
{
1000
MANEDIT
1070
     0
1002
}
1002
{
1000
NOSEL
1070
     0
1002
}
1002
{
1000
BEHIND
1070
     0
1002
}
1002
{
1000
OTHER
1070
     0
1002
}
1002
{
1000
REACTOR
1002
}
  0
LINE
  5
89C1
  8
AM_0
 10
251.6789086872549
 20
209.58933110576049
 30
0.0
 11
261.23613726605788
 21
209.58933110576049
 31
0.0
  0
LINE
  5
89D4
  8
AM_0
 10
263.23491835318822
 20
211.51951588012571
 30
0.0
 11
263.379622798583
 21
215.66234441142461
 31
0.0
  0
ARC
  5
89D5
  8
AM_0
 10
264.38006608448779
 20
215.58597825016179
 30
0.0
 40
1.003353655944897
 50
90.072368503728555
 51
175.63494469419581
  0
ARC
  5
89D6
  8
AM_0
 10
303.18501253070542
 20
225.5893297646557
 30
0.0
 40
5.0
 50
179.99999946639139
 51
270.0
1001
GENIUS_GENODEF_13
1002
{
1000
HIER
1070
     0
1002
}
1002
{
1000
MANEDIT
1070
     0
1002
}
1002
{
1000
NOSEL
1070
     0
1002
}
1002
{
1000
BEHIND
1070
     0
1002
}
1002
{
1000
OTHER
1070
     0
1002
}
1002
{
1000
REACTOR
1002
}
1001
GENIUS_GENOBJ-N-FIL_13
1002
{
1000
OWNER
1000
GEN
1002
}
  0
ARC
  5
89D7
  8
AM_0
 10
287.18501253070542
 20
225.5893299136676
 30
0.0
 40
11.0
 50
359.99999946639139
 51
90.000000533608556
  0
CIRCLE
  5
89D8
  8
AM_0
 10
287.18501253070542
 20
225.58932991366771
 30
0.0
 40
4.5000001341104507
  0
LINE
  5
89D9
  8
ﾁｭｳｼﾝｾﾝ1
 10
287.18501253070542
 20
233.0893301371851
 30
0.0
 11
287.18501253070542
 21
218.08932969015021
 31
0.0
  0
ARC
  5
89DA
  8
AM_0
 10
287.18501253070542
 20
225.58932991366771
 30
0.0
 40
11.000000327825591
 50
180.00000500895689
 51
270.000000683243
  0
LINE
  5
89DB
  8
ﾁｭｳｼﾝｾﾝ1
 10
279.685012307188
 20
225.58932991366771
 30
0.0
 11
294.68501275422278
 21
225.58932991366771
 31
0.0
  0
ARC
  5
89DC
  8
AM_0
 10
287.18501238169381
 20
241.5893299136676
 30
0.0
 40
5.0
 50
180.0
 51
270.0000005336085
1001
GENIUS_GENOBJ-N-FIL_13
1002
{
1000
OWNER
1000
GEN
1002
}
1001
GENIUS_GENODEF_13
1002
{
1000
HIER
1070
     0
1002
}
1002
{
1000
MANEDIT
1070
     0
1002
}
1002
{
1000
NOSEL
1070
     0
1002
}
1002
{
1000
BEHIND
1070
     0
1002
}
1002
{
1000
OTHER
1070
     0
1002
}
1002
{
1000
REACTOR
1002
}
  0
ARC
  5
89E5
  8
AM_0
 10
287.18501253070542
 20
305.58933229785339
 30
0.0
 40
11.0
 50
269.99999946639139
 51
0.0000005336085289
  0
ARC
  5
89E6
  8
AM_0
 10
287.18501238169381
 20
289.58933229785339
 30
0.0
 40
5.0
 50
89.999999466391486
 51
180.0
1001
GENIUS_GENOBJ-N-FIL_13
1002
{
1000
OWNER
1000
GEN
1002
}
1001
GENIUS_GENODEF_13
1002
{
1000
HIER
1070
     0
1002
}
1002
{
1000
MANEDIT
1070
     0
1002
}
1002
{
1000
NOSEL
1070
     0
1002
}
1002
{
1000
BEHIND
1070
     0
1002
}
1002
{
1000
OTHER
1070
     0
1002
}
1002
{
1000
REACTOR
1002
}
  0
LINE
  5
89E7
  8
ﾁｭｳｼﾝｾﾝ1
 10
279.685012307188
 20
305.58933229785339
 30
0.0
 11
294.68501275422278
 21
305.58933229785339
 31
0.0
  0
LINE
  5
89F4
  8
AM_0
 10
264.37879878026217
 20
314.58933110576049
 30
0.0
 11
280.86045688254319
 21
314.58933110576049
 31
0.0
  0
LINE
  5
89F5
  8
AM_0
 10
263.68501220287988
 20
308.85594792704961
 30
0.0
 11
276.18501220287988
 21
308.85594792704961
 31
0.0
  0
ARC
  5
8A05
  8
AM_0
 10
261.23613779903059
 20
319.58933110576049
 30
0.0
 40
2.0
 50
2.0004653026450021
 51
90.0
1001
GENIUS_GENODEF_13
1002
{
1000
HIER
1070
     0
1002
}
1002
{
1000
MANEDIT
1070
     0
1002
}
1002
{
1000
NOSEL
1070
     0
1002
}
1002
{
1000
BEHIND
1070
     0
1002
}
1002
{
1000
OTHER
1070
     0
1002
}
1002
{
1000
REACTOR
1002
}
1001
GENIUS_GENOBJ-N-FIL_13
1002
{
1000
OWNER
1000
GEN
1002
}
  0
LINE
  5
8A06
  8
AM_0
 10
251.6789086872549
 20
321.58933110576049
 30
0.0
 11
261.23613779903059
 21
321.58933110576049
 31
0.0
  0
ARC
  5
8A07
  8
AM_0
 10
264.37879882397363
 20
315.58933110576049
 30
0.0
 40
1.0000000000000091
 50
187.1807504503941
 51
269.99999749552148
  0
LINE
  5
8A08
  8
AM_0
 10
263.23491888616081
 20
319.65914633139528
 30
0.0
 11
263.379622798583
 21
315.51633305888549
 31
0.0
  0
LINE
  5
8A0B
  8
ﾁｭｳｼﾝｾﾝ1
 10
622.55582192313125
 20
155.06331154057571
 30
0.0
 11
622.55582192313125
 21
332.08933110576049
 31
0.0
  0
LINE
  5
8A12
  8
ﾁｭｳｼﾝｾﾝ1
 10
724.85346021279724
 20
265.58933110576049
 30
0.0
 11
520.25818363346525
 21
265.58933110576049
 31
0.0
  0
LINE
  5
8A14
  8
AM_0
 10
567.24595055030125
 20
229.56523128305159
 30
0.0
 11
576.55582192313125
 21
229.2401234108431
 31
0.0
  0
LINE
  5
8A15
  8
AM_0
 10
567.22186664596074
 20
231.63579697215729
 30
0.0
 11
576.55582192313125
 21
231.96174587283781
 31
0.0
  0
LINE
  5
8A16
  8
AM_0
 10
567.22186664596074
 20
299.54286523936378
 30
0.0
 11
576.55582192313125
 21
299.21691633868369
 31
0.0
  0
LINE
  5
8A17
  8
AM_0
 10
567.24595055030125
 20
301.6134309284696
 30
0.0
 11
576.55582192313125
 21
301.9385388006782
 31
0.0
  0
LINE
  5
8A19
  8
ﾁｭｳｼﾝｾﾝ1
 10
402.1850159579725
 20
298.08933207433603
 30
0.0
 11
402.1850159579725
 21
313.08933252137098
 31
0.0
  0
ARC
  5
8A1A
  8
AM_0
 10
386.1850159579725
 20
305.58933244686523
 30
0.0
 40
5.0
 50
359.99999946639139
 51
90.0
1001
GENIUS_GENODEF_13
1002
{
1000
HIER
1070
     0
1002
}
1002
{
1000
MANEDIT
1070
     0
1002
}
1002
{
1000
NOSEL
1070
     0
1002
}
1002
{
1000
BEHIND
1070
     0
1002
}
1002
{
1000
OTHER
1070
     0
1002
}
1002
{
1000
REACTOR
1002
}
1001
GENIUS_GENOBJ-N-FIL_13
1002
{
1000
OWNER
1000
GEN
1002
}
  0
CIRCLE
  5
8A1B
  8
AM_0
 10
402.1850159579725
 20
305.58933229785339
 30
0.0
 40
4.5000001341104507
  0
LINE
  5
8A1C
  8
ﾁｭｳｼﾝｾﾝ1
 10
362.1850147658796
 20
321.58933262567899
 30
0.0
 11
362.1850147658796
 21
209.58932958584211
 31
0.0
  0
LINE
  5
8A1D
  8
AM_0
 10
407.18501610698411
 20
289.58933229785339
 30
0.0
 11
407.18501610698411
 21
241.2996880478884
 31
0.0
  0
CIRCLE
  5
8A1F
  8
AM_0
 10
362.1850147658796
 20
265.58933110576049
 30
0.0
 40
27.500000819563869
  0
ARC
  5
8A20
  8
AM_0
 10
402.1850159579725
 20
225.5893299136676
 30
0.0
 40
11.0
 50
89.999999466391486
 51
180.0000005336085
  0
ARC
  5
8A21
  8
AM_0
 10
386.1850159579725
 20
225.5893297646557
 30
0.0
 40
5.0
 50
270.0
 51
0.0000005336085289
1001
GENIUS_GENODEF_13
1002
{
1000
HIER
1070
     0
1002
}
1002
{
1000
MANEDIT
1070
     0
1002
}
1002
{
1000
NOSEL
1070
     0
1002
}
1002
{
1000
BEHIND
1070
     0
1002
}
1002
{
1000
OTHER
1070
     0
1002
}
1002
{
1000
REACTOR
1002
}
1001
GENIUS_GENOBJ-N-FIL_13
1002
{
1000
OWNER
1000
GEN
1002
}
  0
LINE
  5
8A22
  8
ﾁｭｳｼﾝｾﾝ1
 10
402.1850159579725
 20
233.0893301371851
 30
0.0
 11
402.1850159579725
 21
218.08932969015021
 31
0.0
  0
CIRCLE
  5
8A23
  8
AM_0
 10
402.1850159579725
 20
225.58932991366771
 30
0.0
 40
4.5000001341104507
  0
LINE
  5
8A25
  8
ﾁｭｳｼﾝｾﾝ1
 10
394.68501573445542
 20
225.58932991366771
 30
0.0
 11
409.6850161814898
 21
225.58932991366771
 31
0.0
  0
ARC
  5
8A26
  8
AM_0
 10
402.18501610698399
 20
241.5893299136676
 30
0.0
 40
5.0
 50
269.99999946639139
 51
0.0
1001
GENIUS_GENOBJ-N-FIL_13
1002
{
1000
OWNER
1000
GEN
1002
}
1001
GENIUS_GENODEF_13
1002
{
1000
HIER
1070
     0
1002
}
1002
{
1000
MANEDIT
1070
     0
1002
}
1002
{
1000
NOSEL
1070
     0
1002
}
1002
{
1000
BEHIND
1070
     0
1002
}
1002
{
1000
OTHER
1070
     0
1002
}
1002
{
1000
REACTOR
1002
}
  0
ARC
  5
8A2C
  8
AM_0
 10
402.1850159579725
 20
305.58933229785339
 30
0.0
 40
11.0
 50
179.99999946639139
 51
270.0000005336085
  0
ARC
  5
8A2D
  8
AM_0
 10
402.18501610698399
 20
289.58933229785339
 30
0.0
 40
5.0
 50
0.0
 51
90.000000533608556
1001
GENIUS_GENOBJ-N-FIL_13
1002
{
1000
OWNER
1000
GEN
1002
}
1001
GENIUS_GENODEF_13
1002
{
1000
HIER
1070
     0
1002
}
1002
{
1000
MANEDIT
1070
     0
1002
}
1002
{
1000
NOSEL
1070
     0
1002
}
1002
{
1000
BEHIND
1070
     0
1002
}
1002
{
1000
OTHER
1070
     0
1002
}
1002
{
1000
REACTOR
1002
}
  0
LINE
  5
8A2E
  8
ﾁｭｳｼﾝｾﾝ1
 10
394.68501573445542
 20
305.58933229785339
 30
0.0
 11
409.6850161814898
 21
305.58933229785339
 31
0.0
  0
LINE
  5
8A2F
  8
AM_0
 10
568.55582192313125
 20
231.6823797169034
 30
0.0
 11
568.55582192313125
 21
239.4178002445957
 31
0.0
  0
ARC
  5
8A30
  8
AM_0
 10
567.25676614266365
 20
230.63640614513841
 30
0.0
 40
1.0
 50
92.000000000003581
 51
198.52714231446819
1001
GENIUS_GENODEF_13
1002
{
1000
HIER
1070
     0
1002
}
1002
{
1000
MANEDIT
1070
     0
1002
}
1002
{
1000
NOSEL
1070
     0
1002
}
1002
{
1000
BEHIND
1070
     0
1002
}
1002
{
1000
REACTOR
1002
}
1001
GENIUS_GENOBJ-N-FIL_13
1002
{
1000
OWNER
1000
GEN
1002
}
  0
ARC
  5
8A31
  8
AM_0
 10
567.28085004700347
 20
230.56462211007079
 30
0.0
 40
1.0
 50
198.56658080190289
 51
267.99999999999312
1001
GENIUS_GENODEF_13
1002
{
1000
HIER
1070
     0
1002
}
1002
{
1000
MANEDIT
1070
     0
1002
}
1002
{
1000
NOSEL
1070
     0
1002
}
1002
{
1000
BEHIND
1070
     0
1002
}
1002
{
1000
REACTOR
1002
}
1001
GENIUS_GENOBJ-N-FIL_13
1002
{
1000
OWNER
1000
GEN
1002
}
  0
ARC
  5
8A32
  8
AM_0
 10
671.55582192313125
 20
265.58933110576049
 30
0.0
 40
111.0
 50
198.52714231446819
 51
198.56658080189561
  0
LINE
  5
8A33
  8
AM_0
 10
564.38951749126954
 20
241.63151702880481
 30
0.0
 11
571.27486786501095
 21
241.8719587620763
 31
0.0
  0
LINE
  5
8A34
  8
AM_0
 10
564.4058522255923
 20
239.56272037980119
 30
0.0
 11
572.5561273256983
 21
239.27810650173609
 31
0.0
  0
ARC
  5
8A35
  8
AM_0
 10
671.55582192313125
 20
265.58933110576049
 30
0.0
 40
111.0
 50
193.11367014329909
 51
193.15111826064859
  0
ARC
  5
8A36
  8
AM_0
 10
564.42441698797222
 20
240.6321262017857
 30
0.0
 40
1.0
 50
92.000000000003581
 51
193.11367014329909
1001
GENIUS_GENODEF_13
1002
{
1000
HIER
1070
     0
1002
}
1002
{
1000
MANEDIT
1070
     0
1002
}
1002
{
1000
NOSEL
1070
     0
1002
}
1002
{
1000
BEHIND
1070
     0
1002
}
1002
{
1000
REACTOR
1002
}
1001
GENIUS_GENOBJ-N-FIL_13
1002
{
1000
OWNER
1000
GEN
1002
}
  0
ARC
  5
8A37
  8
AM_0
 10
564.44075172229486
 20
240.56211120682039
 30
0.0
 40
1.0
 50
193.15111826064859
 51
267.99999999999972
1001
GENIUS_GENODEF_13
1002
{
1000
HIER
1070
     0
1002
}
1002
{
1000
MANEDIT
1070
     0
1002
}
1002
{
1000
NOSEL
1070
     0
1002
}
1002
{
1000
BEHIND
1070
     0
1002
}
1002
{
1000
REACTOR
1002
}
1001
GENIUS_GENOBJ-N-FIL_13
1002
{
1000
OWNER
1000
GEN
1002
}
  0
ARC
  5
8A38
  8
AM_0
 10
562.57798008448788
 20
250.62838233264799
 30
0.0
 40
1.0
 50
92.000000000000341
 51
187.81694783169451
1001
GENIUS_GENODEF_13
1002
{
1000
HIER
1070
     0
1002
}
1002
{
1000
MANEDIT
1070
     0
1002
}
1002
{
1000
NOSEL
1070
     0
1002
}
1002
{
1000
BEHIND
1070
     0
1002
}
1002
{
1000
REACTOR
1002
}
1001
GENIUS_GENOBJ-N-FIL_13
1002
{
1000
OWNER
1000
GEN
1002
}
  0
LINE
  5
8A39
  8
AM_0
 10
562.55256274015903
 20
249.56008374969429
 30
0.0
 11
568.43852707710801
 21
249.35454134584711
 31
0.0
  0
ARC
  5
8A3A
  8
AM_0
 10
562.58746223686137
 20
250.55947457671351
 30
0.0
 40
1.0
 50
187.8531780888062
 51
267.99999999999972
1001
GENIUS_GENODEF_13
1002
{
1000
HIER
1070
     0
1002
}
1002
{
1000
MANEDIT
1070
     0
1002
}
1002
{
1000
NOSEL
1070
     0
1002
}
1002
{
1000
BEHIND
1070
     0
1002
}
1002
{
1000
REACTOR
1002
}
1001
GENIUS_GENOBJ-N-FIL_13
1002
{
1000
OWNER
1000
GEN
1002
}
  0
ARC
  5
8A3B
  8
AM_0
 10
671.55582192313125
 20
265.58933110576049
 30
0.0
 40
111.0
 50
187.81694783169451
 51
187.8531780888126
  0
LINE
  5
8A3C
  8
AM_0
 10
562.54308058778554
 20
251.62777315966721
 30
0.0
 11
567.76183975371123
 21
251.81001624553321
 31
0.0
  0
ARC
  5
8A47
  8
AM_0
 10
564.44075172229486
 20
290.6165510047008
 30
0.0
 40
1.0
 50
92.000000000000341
 51
166.84888173935141
1001
GENIUS_GENODEF_13
1002
{
1000
HIER
1070
     0
1002
}
1002
{
1000
MANEDIT
1070
     0
1002
}
1002
{
1000
NOSEL
1070
     0
1002
}
1002
{
1000
BEHIND
1070
     0
1002
}
1002
{
1000
REACTOR
1002
}
1001
GENIUS_GENOBJ-N-FIL_13
1002
{
1000
OWNER
1000
GEN
1002
}
  0
ARC
  5
8A48
  8
AM_0
 10
562.57798008448788
 20
280.5502798788732
 30
0.0
 40
1.0
 50
172.18305216830549
 51
267.99999999999972
1001
GENIUS_GENODEF_13
1002
{
1000
HIER
1070
     0
1002
}
1002
{
1000
MANEDIT
1070
     0
1002
}
1002
{
1000
NOSEL
1070
     0
1002
}
1002
{
1000
BEHIND
1070
     0
1002
}
1002
{
1000
REACTOR
1002
}
1001
GENIUS_GENOBJ-N-FIL_13
1002
{
1000
OWNER
1000
GEN
1002
}
  0
LINE
  5
8A49
  8
AM_0
 10
562.54308058778554
 20
279.55088905185431
 30
0.0
 11
567.76183975371123
 21
279.3686459659877
 31
0.0
  0
LINE
  5
8A4A
  8
AM_0
 10
562.55256274015903
 20
281.6185784618267
 30
0.0
 11
568.43852707710801
 21
281.82412086567422
 31
0.0
  0
ARC
  5
8A4B
  8
AM_0
 10
562.58746223686137
 20
280.61918763480782
 30
0.0
 40
1.0
 50
92.000000000000341
 51
172.14682191119371
1001
GENIUS_GENODEF_13
1002
{
1000
HIER
1070
     0
1002
}
1002
{
1000
MANEDIT
1070
     0
1002
}
1002
{
1000
NOSEL
1070
     0
1002
}
1002
{
1000
BEHIND
1070
     0
1002
}
1002
{
1000
REACTOR
1002
}
1001
GENIUS_GENOBJ-N-FIL_13
1002
{
1000
OWNER
1000
GEN
1002
}
  0
ARC
  5
8A4C
  8
AM_0
 10
671.55582192313125
 20
265.58933110576049
 30
0.0
 40
111.0
 50
172.14682191118729
 51
172.18305216830549
  0
LINE
  5
8A4D
  8
AM_0
 10
564.38951749126954
 20
289.54714518271629
 30
0.0
 11
571.27486786501095
 21
289.30670344944502
 31
0.0
  0
ARC
  5
8A4E
  8
AM_0
 10
671.55582192313125
 20
265.58933110576049
 30
0.0
 40
111.0
 50
166.84888173935141
 51
166.88632985669449
  0
ARC
  5
8A4F
  8
AM_0
 10
564.42441698797222
 20
290.54653600973552
 30
0.0
 40
1.0
 50
166.8863298567008
 51
267.99999999999642
1001
GENIUS_GENODEF_13
1002
{
1000
HIER
1070
     0
1002
}
1002
{
1000
MANEDIT
1070
     0
1002
}
1002
{
1000
NOSEL
1070
     0
1002
}
1002
{
1000
BEHIND
1070
     0
1002
}
1002
{
1000
REACTOR
1002
}
1001
GENIUS_GENOBJ-N-FIL_13
1002
{
1000
OWNER
1000
GEN
1002
}
  0
LINE
  5
8A50
  8
AM_0
 10
568.55582192313125
 20
299.49628249461762
 30
0.0
 11
568.55582192313125
 21
291.76086196692529
 31
0.0
  0
LINE
  5
8A51
  8
AM_0
 10
564.4058522255923
 20
291.61594183171991
 30
0.0
 11
572.5561273256983
 21
291.90055570978512
 31
0.0
  0
ARC
  5
8A52
  8
AM_0
 10
567.25676614266365
 20
300.54225606638312
 30
0.0
 40
1.0
 50
161.47285768553169
 51
267.99999999999642
1001
GENIUS_GENODEF_13
1002
{
1000
HIER
1070
     0
1002
}
1002
{
1000
MANEDIT
1070
     0
1002
}
1002
{
1000
NOSEL
1070
     0
1002
}
1002
{
1000
BEHIND
1070
     0
1002
}
1002
{
1000
REACTOR
1002
}
1001
GENIUS_GENOBJ-N-FIL_13
1002
{
1000
OWNER
1000
GEN
1002
}
  0
ARC
  5
8A53
  8
AM_0
 10
671.55582192313125
 20
265.58933110576049
 30
0.0
 40
111.0
 50
161.43341919810311
 51
161.47285768553169
  0
ARC
  5
8A54
  8
AM_0
 10
567.28085004700347
 20
300.61404010145043
 30
0.0
 40
1.0
 50
92.000000000006864
 51
161.43341919809711
1001
GENIUS_GENODEF_13
1002
{
1000
HIER
1070
     0
1002
}
1002
{
1000
MANEDIT
1070
     0
1002
}
1002
{
1000
NOSEL
1070
     0
1002
}
1002
{
1000
BEHIND
1070
     0
1002
}
1002
{
1000
REACTOR
1002
}
1001
GENIUS_GENOBJ-N-FIL_13
1002
{
1000
OWNER
1000
GEN
1002
}
  0
ARC
  5
8A55
  8
AM_0
 10
663.55582192313125
 20
306.58933110576049
 30
0.0
 40
5.0
 50
0.0
 51
90.0
1001
GENIUS_GENODEF_13
1002
{
1000
HIER
1070
     0
1002
}
1002
{
1000
MANEDIT
1070
     0
1002
}
1002
{
1000
NOSEL
1070
     0
1002
}
1002
{
1000
BEHIND
1070
     0
1002
}
1002
{
1000
REACTOR
1002
}
1001
GENIUS_GENOBJ-N-FIL_13
1002
{
1000
OWNER
1000
GEN
1002
}
  0
LINE
  5
8A56
  8
AM_0
 10
647.55582266818919
 20
316.58933262567899
 30
0.0
 11
647.55582266818919
 21
214.58932958584219
 31
0.0
  0
LINE
  5
8A57
  8
AM_0
 10
660.55582305561927
 20
316.36241677484941
 30
0.0
 11
660.55582305561927
 21
214.81624543667149
 31
0.0
  0
ARC
  5
8A58
  8
AM_0
 10
581.55582192313125
 20
306.58933110576049
 30
0.0
 40
5.0
 50
90.0
 51
180.0
1001
GENIUS_GENOBJ-N-CEN_13
1002
{
1000
OWNER
1000
GEN
1002
}
1001
GENIUS_GENODEF_13
1002
{
1000
HIER
1070
     0
1002
}
1002
{
1000
MANEDIT
1070
     0
1002
}
1002
{
1000
NOSEL
1070
     0
1002
}
1002
{
1000
BEHIND
1070
     0
1002
}
1002
{
1000
REACTOR
1002
}
1001
GENIUS_GENOBJ-N-FIL_13
1002
{
1000
OWNER
1000
GEN
1002
}
  0
LINE
  5
8A59
  8
AM_0
 10
584.555820790643
 20
315.48966350242853
 30
0.0
 11
584.555820790643
 21
215.6889987090926
 31
0.0
  0
LINE
  5
8A5A
  8
AM_0
 10
677.88977720030164
 20
299.54286523936378
 30
0.0
 11
668.55582192313125
 21
299.21691633868369
 31
0.0
  0
LINE
  5
8A5B
  8
AM_0
 10
677.86569329596148
 20
301.6134309284696
 30
0.0
 11
668.55582192313125
 21
301.9385388006782
 31
0.0
  0
LINE
  5
8A5C
  8
AM_0
 10
677.86569329596125
 20
229.56523128305159
 30
0.0
 11
668.55582192313125
 21
229.2401234108431
 31
0.0
  0
LINE
  5
8A5D
  8
AM_0
 10
677.88977720030164
 20
231.63579697215729
 30
0.0
 11
668.55582192313125
 21
231.96174587283781
 31
0.0
  0
ARC
  5
8A5E
  8
AM_0
 10
622.55582192313125
 20
265.58933110576049
 30
0.0
 40
56.5
 50
324.98137173791582
 51
345.88809158654232
  0
LINE
  5
8A5F
  8
AM_0
 10
664.55582317482856
 20
293.0893319253243
 30
0.0
 11
664.55582317482856
 21
238.08933028619671
 31
0.0
  0
LINE
  5
8A60
  8
AM_0
 10
580.55582067143348
 20
293.0893319253243
 30
0.0
 11
580.55582067143348
 21
238.08933028619671
 31
0.0
  0
LINE
  5
8A61
  8
AM_0
 10
647.55582266819044
 20
214.58932958584199
 30
0.0
 11
584.55582079064266
 21
215.6889987090926
 31
0.0
  0
LINE
  5
8A62
  8
ｶｸﾚｾﾝ2
 10
584.555820790643
 20
221.08932991366771
 30
0.0
 11
660.55582305561927
 21
221.0893299136678
 31
0.0
  0
LINE
  5
8A63
  8
ｶｸﾚｾﾝ2
 10
584.555820790643
 20
230.08932991366771
 30
0.0
 11
660.55582305561927
 21
230.08932991366771
 31
0.0
  0
LINE
  5
8A64
  8
ﾁｭｳｼﾝｾﾝ1
 10
581.55582079064322
 20
225.58932991366771
 30
0.0
 11
663.5558230556195
 21
225.58932991366771
 31
0.0
  0
ARC
  5
8A69
  8
AM_0
 10
622.55582192313125
 20
265.58933110576049
 30
0.0
 40
56.5
 50
242.4821246347978
 51
295.51787536520283
  0
ARC
  5
8A6B
  8
AM_0
 10
590.5932709791532
 20
209.62996698376969
 30
0.0
 40
1.9655366667591301
 50
3.1584702260747668
 51
179.35044678892791
  0
LINE
  5
8A6C
  8
AM_0
 10
586.52211987091925
 20
208.5544316090579
 30
0.0
 11
586.27402261792338
 21
215.6590073846377
 31
0.0
  0
LINE
  5
8A6D
  8
AM_0
 10
588.58952397534324
 20
208.55443160905821
 30
0.0
 11
588.83605955333155
 21
215.6142868635817
 31
0.0
  0
ARC
  5
8A72
  8
AM_0
 10
587.5901331483243
 20
208.58933110576049
 30
0.0
 40
1.0
 50
269.99999999999352
 51
357.99999999999642
1001
GENIUS_GENODEF_13
1002
{
1000
HIER
1070
     0
1002
}
1002
{
1000
MANEDIT
1070
     0
1002
}
1002
{
1000
NOSEL
1070
     0
1002
}
1002
{
1000
BEHIND
1070
     0
1002
}
1002
{
1000
REACTOR
1002
}
1001
GENIUS_GENOBJ-N-FIL_13
1002
{
1000
OWNER
1000
GEN
1002
}
  0
LINE
  5
8A73
  8
AM_0
 10
587.5901331483243
 20
207.58933110576049
 30
0.0
 11
587.52151069793808
 21
207.58933110576049
 31
0.0
  0
ARC
  5
8A74
  8
AM_0
 10
587.52151069793808
 20
208.58933110576049
 30
0.0
 40
1.0
 50
181.9999999999971
 51
270.0
1001
GENIUS_GENODEF_13
1002
{
1000
HIER
1070
     0
1002
}
1002
{
1000
MANEDIT
1070
     0
1002
}
1002
{
1000
NOSEL
1070
     0
1002
}
1002
{
1000
BEHIND
1070
     0
1002
}
1002
{
1000
REACTOR
1002
}
1001
GENIUS_GENOBJ-N-FIL_13
1002
{
1000
OWNER
1000
GEN
1002
}
  0
LINE
  5
8A75
  8
AM_0
 10
576.55582192313125
 20
232.3064526244755
 30
0.0
 11
576.55582192313125
 21
224.58933110576049
 31
0.0
1001
GENIUS_GENODEF_13
1002
{
1000
HIER
1070
     0
1002
}
1002
{
1000
MANEDIT
1070
     0
1002
}
1002
{
1000
NOSEL
1070
     0
1002
}
1002
{
1000
BEHIND
1070
     0
1002
}
1002
{
1000
REACTOR
1002
}
1001
GENIUS_GENOBJ-N-CEN_13
1002
{
1000
OWNER
1000
GEN
1002
}
  0
ARC
  5
8A76
  8
AM_0
 10
581.55582192313125
 20
224.58933110576049
 30
0.0
 40
5.0
 50
180.0
 51
270.0
1001
GENIUS_GENOBJ-N-CEN_13
1002
{
1000
OWNER
1000
GEN
1002
}
1001
GENIUS_GENODEF_13
1002
{
1000
HIER
1070
     0
1002
}
1002
{
1000
MANEDIT
1070
     0
1002
}
1002
{
1000
NOSEL
1070
     0
1002
}
1002
{
1000
BEHIND
1070
     0
1002
}
1002
{
1000
REACTOR
1002
}
1001
GENIUS_GENOBJ-N-FIL_13
1002
{
1000
OWNER
1000
GEN
1002
}
  0
LINE
  5
8A77
  8
AM_0
 10
581.55582192313125
 20
219.58933110576049
 30
0.0
 11
584.55582192313125
 21
219.58933110576049
 31
0.0
  0
ARC
  5
8A78
  8
AM_0
 10
575.05582192313125
 20
232.3064526244755
 30
0.0
 40
1.5
 50
0.0
 51
35.018628262088782
1001
GENIUS_GENODEF_13
1002
{
1000
HIER
1070
     0
1002
}
1002
{
1000
MANEDIT
1070
     0
1002
}
1002
{
1000
NOSEL
1070
     0
1002
}
1002
{
1000
BEHIND
1070
     0
1002
}
1002
{
1000
REACTOR
1002
}
1001
GENIUS_GENOBJ-N-FIL_13
1002
{
1000
OWNER
1000
GEN
1002
}
  0
LINE
  5
8A79
  8
AM_0
 10
580.55582067143348
 20
238.0893302861966
 30
0.0
 11
584.555820790643
 21
238.0893302861966
 31
0.0
  0
ARC
  5
8A7B
  8
AM_0
 10
654.51837286710918
 20
209.62996698376969
 30
0.0
 40
1.9655366667591301
 50
0.6495532110655964
 51
176.84152977392509
  0
LINE
  5
8A7C
  8
AM_0
 10
656.52211987091925
 20
208.55443160905821
 30
0.0
 11
656.30604294288366
 21
214.7420652488731
 31
0.0
  0
LINE
  5
8A7D
  8
AM_0
 10
658.58952397534324
 20
208.5544316090579
 30
0.0
 11
658.80712542394588
 21
214.78572180597089
 31
0.0
  0
ARC
  5
8A82
  8
AM_0
 10
657.5901331483243
 20
208.58933110576049
 30
0.0
 40
1.0
 50
269.99999999999682
 51
357.99999999999642
1001
GENIUS_GENODEF_13
1002
{
1000
HIER
1070
     0
1002
}
1002
{
1000
MANEDIT
1070
     0
1002
}
1002
{
1000
NOSEL
1070
     0
1002
}
1002
{
1000
BEHIND
1070
     0
1002
}
1002
{
1000
REACTOR
1002
}
1001
GENIUS_GENOBJ-N-FIL_13
1002
{
1000
OWNER
1000
GEN
1002
}
  0
ARC
  5
8A83
  8
AM_0
 10
657.52151069793808
 20
208.58933110576049
 30
0.0
 40
1.0
 50
181.9999999999971
 51
270.0000000000033
1001
GENIUS_GENODEF_13
1002
{
1000
HIER
1070
     0
1002
}
1002
{
1000
MANEDIT
1070
     0
1002
}
1002
{
1000
NOSEL
1070
     0
1002
}
1002
{
1000
BEHIND
1070
     0
1002
}
1002
{
1000
REACTOR
1002
}
1001
GENIUS_GENOBJ-N-FIL_13
1002
{
1000
OWNER
1000
GEN
1002
}
  0
LINE
  5
8A84
  8
AM_0
 10
657.52151069793808
 20
207.58933110576049
 30
0.0
 11
657.5901331483243
 21
207.58933110576049
 31
0.0
  0
LINE
  5
8A85
  8
AM_0
 10
668.55582192313125
 20
232.3064526244755
 30
0.0
 11
668.55582192313125
 21
224.58933110576049
 31
0.0
1001
GENIUS_GENODEF_13
1002
{
1000
HIER
1070
     0
1002
}
1002
{
1000
MANEDIT
1070
     0
1002
}
1002
{
1000
NOSEL
1070
     0
1002
}
1002
{
1000
BEHIND
1070
     0
1002
}
1002
{
1000
REACTOR
1002
}
1001
GENIUS_GENOBJ-N-CEN_13
1002
{
1000
OWNER
1000
GEN
1002
}
  0
LINE
  5
8A86
  8
AM_0
 10
647.55582266818919
 20
214.58932958584211
 30
0.0
 11
660.55582305561927
 21
214.81624543667149
 31
0.0
  0
ARC
  5
8A87
  8
AM_0
 10
663.55582192313125
 20
224.58933110576049
 30
0.0
 40
5.0
 50
270.0
 51
0.0
1001
GENIUS_GENODEF_13
1002
{
1000
HIER
1070
     0
1002
}
1002
{
1000
MANEDIT
1070
     0
1002
}
1002
{
1000
NOSEL
1070
     0
1002
}
1002
{
1000
BEHIND
1070
     0
1002
}
1002
{
1000
REACTOR
1002
}
1001
GENIUS_GENOBJ-N-FIL_13
1002
{
1000
OWNER
1000
GEN
1002
}
  0
LINE
  5
8A88
  8
AM_0
 10
660.55582192313125
 20
219.58933110576049
 30
0.0
 11
663.55582192313125
 21
219.58933110576049
 31
0.0
  0
ARC
  5
8A89
  8
AM_0
 10
670.05582192313125
 20
232.3064526244755
 30
0.0
 40
1.5
 50
144.98137173791559
 51
180.0
1001
GENIUS_GENODEF_13
1002
{
1000
HIER
1070
     0
1002
}
1002
{
1000
MANEDIT
1070
     0
1002
}
1002
{
1000
NOSEL
1070
     0
1002
}
1002
{
1000
BEHIND
1070
     0
1002
}
1002
{
1000
REACTOR
1002
}
1001
GENIUS_GENOBJ-N-FIL_13
1002
{
1000
OWNER
1000
GEN
1002
}
  0
LINE
  5
8A8A
  8
AM_0
 10
664.55582317482856
 20
238.08933028619671
 30
0.0
 11
660.55582305561927
 21
238.08933028619671
 31
0.0
  0
LINE
  5
8A8B
  8
ｶｸﾚｾﾝ2
 10
584.555820790643
 20
301.08933229785339
 30
0.0
 11
660.55582305561927
 21
301.08933229785339
 31
0.0
  0
LINE
  5
8A8C
  8
ﾁｭｳｼﾝｾﾝ1
 10
581.55582079064322
 20
305.58933229785339
 30
0.0
 11
663.5558230556195
 21
305.58933229785339
 31
0.0
  0
LINE
  5
8A8D
  8
AM_0
 10
577.55582058202674
 20
280.58933155279527
 30
0.0
 11
577.55582058202674
 21
250.5893306587258
 31
0.0
  0
LINE
  5
8A8E
  8
AM_0
 10
580.55582067143348
 20
250.5893306587258
 30
0.0
 11
577.55582058202674
 21
250.5893306587258
 31
0.0
  0
LINE
  5
8A8F
  8
AM_0
 10
580.55582067143348
 20
280.58933155279527
 30
0.0
 11
577.55582058202674
 21
280.58933155279527
 31
0.0
  0
ARC
  5
8A90
  8
AM_0
 10
575.05582192313125
 20
298.87220958704609
 30
0.0
 40
1.5
 50
324.98137173791582
 51
0.0
1001
GENIUS_GENODEF_13
1002
{
1000
HIER
1070
     0
1002
}
1002
{
1000
MANEDIT
1070
     0
1002
}
1002
{
1000
NOSEL
1070
     0
1002
}
1002
{
1000
BEHIND
1070
     0
1002
}
1002
{
1000
REACTOR
1002
}
1001
GENIUS_GENOBJ-N-FIL_13
1002
{
1000
OWNER
1000
GEN
1002
}
  0
LINE
  5
8A91
  8
AM_0
 10
580.55582067143348
 20
293.0893319253243
 30
0.0
 11
584.555820790643
 21
293.0893319253243
 31
0.0
  0
LINE
  5
8A92
  8
AM_0
 10
576.55582192313125
 20
306.58933110576049
 30
0.0
 11
576.55582192313125
 21
298.87220958704609
 31
0.0
1001
GENIUS_GENODEF_13
1002
{
1000
HIER
1070
     0
1002
}
1002
{
1000
MANEDIT
1070
     0
1002
}
1002
{
1000
NOSEL
1070
     0
1002
}
1002
{
1000
BEHIND
1070
     0
1002
}
1002
{
1000
REACTOR
1002
}
1001
GENIUS_GENOBJ-N-CEN_13
1002
{
1000
OWNER
1000
GEN
1002
}
  0
ARC
  5
8A96
  8
AM_0
 10
670.05582192313125
 20
298.87220958704609
 30
0.0
 40
1.5
 50
179.99999999999349
 51
215.01862826208421
1001
GENIUS_GENODEF_13
1002
{
1000
HIER
1070
     0
1002
}
1002
{
1000
MANEDIT
1070
     0
1002
}
1002
{
1000
NOSEL
1070
     0
1002
}
1002
{
1000
BEHIND
1070
     0
1002
}
1002
{
1000
REACTOR
1002
}
1001
GENIUS_GENOBJ-N-FIL_13
1002
{
1000
OWNER
1000
GEN
1002
}
  0
LINE
  5
8A97
  8
AM_0
 10
664.55582317482856
 20
293.0893319253243
 30
0.0
 11
660.55582305561927
 21
293.0893319253243
 31
0.0
  0
LINE
  5
8A98
  8
AM_0
 10
668.55582192313125
 20
306.58933110576049
 30
0.0
 11
668.55582192313125
 21
298.87220958704609
 31
0.0
1001
GENIUS_GENODEF_13
1002
{
1000
HIER
1070
     0
1002
}
1002
{
1000
MANEDIT
1070
     0
1002
}
1002
{
1000
NOSEL
1070
     0
1002
}
1002
{
1000
BEHIND
1070
     0
1002
}
1002
{
1000
REACTOR
1002
}
1001
GENIUS_GENOBJ-N-CEN_13
1002
{
1000
OWNER
1000
GEN
1002
}
  0
ARC
  5
8A99
  8
AM_0
 10
680.68722685829016
 20
240.6321262017857
 30
0.0
 40
1.0
 50
346.88632985670091
 51
87.999999999996405
1001
GENIUS_GENODEF_13
1002
{
1000
HIER
1070
     0
1002
}
1002
{
1000
MANEDIT
1070
     0
1002
}
1002
{
1000
NOSEL
1070
     0
1002
}
1002
{
1000
BEHIND
1070
     0
1002
}
1002
{
1000
REACTOR
1002
}
1001
GENIUS_GENOBJ-N-FIL_13
1002
{
1000
OWNER
1000
GEN
1002
}
  0
LINE
  5
8A9A
  8
AM_0
 10
676.55582192313113
 20
231.6823797169034
 30
0.0
 11
676.55582192313125
 21
239.4178002445957
 31
0.0
  0
ARC
  5
8A9B
  8
AM_0
 10
573.55582192313125
 20
265.58933110576049
 30
0.0
 40
111.0
 50
341.43341919810331
 51
341.47285768553172
  0
ARC
  5
8A9C
  8
AM_0
 10
677.85487770359873
 20
230.63640614513841
 30
0.0
 40
1.0
 50
341.47285768553172
 51
87.999999999996405
1001
GENIUS_GENODEF_13
1002
{
1000
HIER
1070
     0
1002
}
1002
{
1000
MANEDIT
1070
     0
1002
}
1002
{
1000
NOSEL
1070
     0
1002
}
1002
{
1000
BEHIND
1070
     0
1002
}
1002
{
1000
REACTOR
1002
}
1001
GENIUS_GENOBJ-N-FIL_13
1002
{
1000
OWNER
1000
GEN
1002
}
  0
ARC
  5
8A9D
  8
AM_0
 10
677.83079379925891
 20
230.56462211007079
 30
0.0
 40
1.0
 50
272.00000000000682
 51
341.433419198097
1001
GENIUS_GENODEF_13
1002
{
1000
HIER
1070
     0
1002
}
1002
{
1000
MANEDIT
1070
     0
1002
}
1002
{
1000
NOSEL
1070
     0
1002
}
1002
{
1000
BEHIND
1070
     0
1002
}
1002
{
1000
REACTOR
1002
}
1001
GENIUS_GENOBJ-N-FIL_13
1002
{
1000
OWNER
1000
GEN
1002
}
  0
LINE
  5
8A9E
  8
AM_0
 10
680.72212635499261
 20
241.63151702880481
 30
0.0
 11
673.83677598125132
 21
241.8719587620763
 31
0.0
  0
LINE
  5
8A9F
  8
AM_0
 10
680.70579162067008
 20
239.56272037980119
 30
0.0
 11
672.5555165205642
 21
239.27810650173609
 31
0.0
  0
ARC
  5
8AA0
  8
AM_0
 10
573.55582192313125
 20
265.58933110576049
 30
0.0
 40
111.0
 50
346.84888173935138
 51
346.8863298566946
  0
ARC
  5
8AA1
  8
AM_0
 10
680.67089212396752
 20
240.56211120682039
 30
0.0
 40
1.0
 50
271.9999999999971
 51
346.84888173935138
1001
GENIUS_GENODEF_13
1002
{
1000
HIER
1070
     0
1002
}
1002
{
1000
MANEDIT
1070
     0
1002
}
1002
{
1000
NOSEL
1070
     0
1002
}
1002
{
1000
BEHIND
1070
     0
1002
}
1002
{
1000
REACTOR
1002
}
1001
GENIUS_GENOBJ-N-FIL_13
1002
{
1000
OWNER
1000
GEN
1002
}
  0
LINE
  5
8AA2
  8
AM_0
 10
682.56856325847684
 20
251.62777315966721
 30
0.0
 11
677.34980409255115
 21
251.81001624553321
 31
0.0
  0
LINE
  5
8AA3
  8
AM_0
 10
682.55908110610335
 20
249.56008374969429
 30
0.0
 11
676.67311676915449
 21
249.35454134584711
 31
0.0
  0
ARC
  5
8AA4
  8
AM_0
 10
682.53366376177439
 20
250.62838233264799
 30
0.0
 40
1.0
 50
352.18305216830549
 51
87.999999999999659
1001
GENIUS_GENODEF_13
1002
{
1000
HIER
1070
     0
1002
}
1002
{
1000
MANEDIT
1070
     0
1002
}
1002
{
1000
NOSEL
1070
     0
1002
}
1002
{
1000
BEHIND
1070
     0
1002
}
1002
{
1000
REACTOR
1002
}
1001
GENIUS_GENOBJ-N-FIL_13
1002
{
1000
OWNER
1000
GEN
1002
}
  0
ARC
  5
8AA5
  8
AM_0
 10
682.5241816094009
 20
250.55947457671351
 30
0.0
 40
1.0
 50
271.9999999999971
 51
352.14682191119368
1001
GENIUS_GENODEF_13
1002
{
1000
HIER
1070
     0
1002
}
1002
{
1000
MANEDIT
1070
     0
1002
}
1002
{
1000
NOSEL
1070
     0
1002
}
1002
{
1000
BEHIND
1070
     0
1002
}
1002
{
1000
REACTOR
1002
}
1001
GENIUS_GENOBJ-N-FIL_13
1002
{
1000
OWNER
1000
GEN
1002
}
  0
ARC
  5
8AA6
  8
AM_0
 10
573.55582192313125
 20
265.58933110576049
 30
0.0
 40
111.0
 50
352.14682191118732
 51
352.18305216830549
  0
ARC
  5
8AB1
  8
AM_0
 10
680.67089212396752
 20
290.6165510047008
 30
0.0
 40
1.0
 50
13.151118260648611
 51
87.999999999999659
1001
GENIUS_GENODEF_13
1002
{
1000
HIER
1070
     0
1002
}
1002
{
1000
MANEDIT
1070
     0
1002
}
1002
{
1000
NOSEL
1070
     0
1002
}
1002
{
1000
BEHIND
1070
     0
1002
}
1002
{
1000
REACTOR
1002
}
1001
GENIUS_GENOBJ-N-FIL_13
1002
{
1000
OWNER
1000
GEN
1002
}
  0
ARC
  5
8AB2
  8
AM_0
 10
680.68722685829016
 20
290.54653600973552
 30
0.0
 40
1.0
 50
272.00000000000358
 51
13.11367014329914
1001
GENIUS_GENODEF_13
1002
{
1000
HIER
1070
     0
1002
}
1002
{
1000
MANEDIT
1070
     0
1002
}
1002
{
1000
NOSEL
1070
     0
1002
}
1002
{
1000
BEHIND
1070
     0
1002
}
1002
{
1000
REACTOR
1002
}
1001
GENIUS_GENOBJ-N-FIL_13
1002
{
1000
OWNER
1000
GEN
1002
}
  0
LINE
  5
8AB3
  8
AM_0
 10
682.56856325847684
 20
279.55088905185431
 30
0.0
 11
677.34980409255115
 21
279.3686459659877
 31
0.0
  0
LINE
  5
8AB4
  8
AM_0
 10
682.55908110610335
 20
281.6185784618267
 30
0.0
 11
676.67311676915449
 21
281.82412086567422
 31
0.0
  0
LINE
  5
8AB5
  8
AM_0
 10
680.72212635499295
 20
289.54714518271629
 30
0.0
 11
673.83677598125132
 21
289.30670344944502
 31
0.0
  0
ARC
  5
8AB6
  8
AM_0
 10
573.55582192313125
 20
265.58933110576049
 30
0.0
 40
111.0
 50
13.113670143305489
 51
13.151118260648611
  0
ARC
  5
8AB7
  8
AM_0
 10
682.53366376177439
 20
280.5502798788732
 30
0.0
 40
1.0
 50
272.0000000000004
 51
7.8169478316945114
1001
GENIUS_GENODEF_13
1002
{
1000
HIER
1070
     0
1002
}
1002
{
1000
MANEDIT
1070
     0
1002
}
1002
{
1000
NOSEL
1070
     0
1002
}
1002
{
1000
BEHIND
1070
     0
1002
}
1002
{
1000
REACTOR
1002
}
1001
GENIUS_GENOBJ-N-FIL_13
1002
{
1000
OWNER
1000
GEN
1002
}
  0
ARC
  5
8AB8
  8
AM_0
 10
573.55582192313125
 20
265.58933110576049
 30
0.0
 40
111.0
 50
7.8169478316945114
 51
7.8531780888126708
  0
ARC
  5
8AB9
  8
AM_0
 10
682.5241816094009
 20
280.61918763480782
 30
0.0
 40
1.0
 50
7.8531780888062181
 51
87.999999999999659
1001
GENIUS_GENODEF_13
1002
{
1000
HIER
1070
     0
1002
}
1002
{
1000
MANEDIT
1070
     0
1002
}
1002
{
1000
NOSEL
1070
     0
1002
}
1002
{
1000
BEHIND
1070
     0
1002
}
1002
{
1000
REACTOR
1002
}
1001
GENIUS_GENOBJ-N-FIL_13
1002
{
1000
OWNER
1000
GEN
1002
}
  0
LINE
  5
8ABA
  8
AM_0
 10
676.55582192313113
 20
299.49628249461762
 30
0.0
 11
676.55582192313125
 21
291.76086196692529
 31
0.0
  0
LINE
  5
8ABB
  8
AM_0
 10
680.70579162067008
 20
291.61594183171991
 30
0.0
 11
672.5555165205642
 21
291.90055570978512
 31
0.0
  0
ARC
  5
8ABC
  8
AM_0
 10
573.55582192313125
 20
265.58933110576049
 30
0.0
 40
111.0
 50
18.52714231446825
 51
18.566580801895711
  0
ARC
  5
8ABD
  8
AM_0
 10
677.85487770359873
 20
300.54225606638312
 30
0.0
 40
1.0
 50
272.0000000000004
 51
18.52714231446825
1001
GENIUS_GENODEF_13
1002
{
1000
HIER
1070
     0
1002
}
1002
{
1000
MANEDIT
1070
     0
1002
}
1002
{
1000
NOSEL
1070
     0
1002
}
1002
{
1000
BEHIND
1070
     0
1002
}
1002
{
1000
REACTOR
1002
}
1001
GENIUS_GENOBJ-N-FIL_13
1002
{
1000
OWNER
1000
GEN
1002
}
  0
ARC
  5
8ABE
  8
AM_0
 10
677.83079379925891
 20
300.61404010145043
 30
0.0
 40
1.0
 50
18.56658080190293
 51
87.999999999993136
1001
GENIUS_GENODEF_13
1002
{
1000
HIER
1070
     0
1002
}
1002
{
1000
MANEDIT
1070
     0
1002
}
1002
{
1000
NOSEL
1070
     0
1002
}
1002
{
1000
BEHIND
1070
     0
1002
}
1002
{
1000
REACTOR
1002
}
1001
GENIUS_GENOBJ-N-FIL_13
1002
{
1000
OWNER
1000
GEN
1002
}
  0
LINE
  5
8ABF
  8
ｶｸﾚｾﾝ2
 10
584.555820790643
 20
310.08933229785339
 30
0.0
 11
660.55582305561927
 21
310.08933229785339
 31
0.0
  0
LINE
  5
8AC0
  8
AM_0
 10
647.55582266819079
 20
316.58933262567888
 30
0.0
 11
584.555820790643
 21
315.48966350242853
 31
0.0
  0
ARC
  5
8AC1
  8
AM_0
 10
622.55582192313125
 20
265.58933110576049
 30
0.0
 40
56.5
 50
64.482124634797202
 51
117.5178753652022
  0
ARC
  5
8AC2
  8
AM_0
 10
597.59861701915634
 20
323.72073604091929
 30
0.0
 40
1.0
 50
2.0000000000036109
 51
103.1136701432991
1001
GENIUS_GENODEF_13
1002
{
1000
HIER
1070
     0
1002
}
1002
{
1000
MANEDIT
1070
     0
1002
}
1002
{
1000
NOSEL
1070
     0
1002
}
1002
{
1000
BEHIND
1070
     0
1002
}
1002
{
1000
REACTOR
1002
}
1001
GENIUS_GENOBJ-N-FIL_13
1002
{
1000
OWNER
1000
GEN
1002
}
  0
LINE
  5
8AC3
  8
AM_0
 10
596.52921119717178
 20
323.73930080329927
 30
0.0
 11
596.24825457094755
 21
315.69375569323262
 31
0.0
  0
LINE
  5
8AC4
  8
AM_0
 10
581.55582192313125
 20
311.58933110576049
 30
0.0
 11
584.55582192313125
 21
311.58933110576049
 31
0.0
  0
LINE
  5
8AC5
  8
AM_0
 10
588.60228778952785
 20
320.92328638293071
 30
0.0
 11
588.78945349496496
 21
315.56356183616458
 31
0.0
  0
LINE
  5
8AC6
  8
AM_0
 10
586.53172210042214
 20
320.8992024785905
 30
0.0
 11
586.34390675438385
 21
315.5208746590227
 31
0.0
  0
ARC
  5
8AC7
  8
AM_0
 10
587.60289696250879
 20
320.88838688622792
 30
0.0
 40
1.0
 50
1.999999999997101
 51
108.52714231447131
1001
GENIUS_GENODEF_13
1002
{
1000
HIER
1070
     0
1002
}
1002
{
1000
MANEDIT
1070
     0
1002
}
1002
{
1000
NOSEL
1070
     0
1002
}
1002
{
1000
BEHIND
1070
     0
1002
}
1002
{
1000
REACTOR
1002
}
1001
GENIUS_GENOBJ-N-FIL_13
1002
{
1000
OWNER
1000
GEN
1002
}
  0
ARC
  5
8AC8
  8
AM_0
 10
587.53111292744143
 20
320.86430298188787
 30
0.0
 40
1.0
 50
108.5665808019029
 51
177.99999999999639
1001
GENIUS_GENODEF_13
1002
{
1000
HIER
1070
     0
1002
}
1002
{
1000
MANEDIT
1070
     0
1002
}
1002
{
1000
NOSEL
1070
     0
1002
}
1002
{
1000
BEHIND
1070
     0
1002
}
1002
{
1000
REACTOR
1002
}
1001
GENIUS_GENOBJ-N-FIL_13
1002
{
1000
OWNER
1000
GEN
1002
}
  0
ARC
  5
8AC9
  8
AM_0
 10
622.55582192313125
 20
216.58933110576049
 30
0.0
 40
111.0
 50
108.52714231447131
 51
108.5665808018957
  0
ARC
  5
8ACA
  8
AM_0
 10
622.55582192313125
 20
216.58933110576049
 30
0.0
 40
111.0
 50
103.1136701432991
 51
103.1511182606518
  0
ARC
  5
8ACB
  8
AM_0
 10
597.52860202419095
 20
323.70440130659682
 30
0.0
 40
1.0
 50
103.1511182606518
 51
178.0000000000029
1001
GENIUS_GENODEF_13
1002
{
1000
HIER
1070
     0
1002
}
1002
{
1000
MANEDIT
1070
     0
1002
}
1002
{
1000
NOSEL
1070
     0
1002
}
1002
{
1000
BEHIND
1070
     0
1002
}
1002
{
1000
REACTOR
1002
}
1001
GENIUS_GENOBJ-N-FIL_13
1002
{
1000
OWNER
1000
GEN
1002
}
  0
LINE
  5
8ACC
  8
AM_0
 10
608.59426397703771
 20
325.6020724411062
 30
0.0
 11
608.77650706290376
 21
320.3833132751804
 31
0.0
  0
LINE
  5
8ACD
  8
AM_0
 10
616.52376444423282
 20
326.50904423187689
 30
0.0
 11
616.35751597038472
 21
321.74831082687137
 31
0.0
  0
LINE
  5
8ACE
  8
AM_0
 10
618.59092013238683
 20
326.51215441033742
 30
0.0
 11
618.74985009374768
 21
321.96099578256349
 31
0.0
  0
LINE
  5
8ACF
  8
AM_0
 10
606.52657456706493
 20
325.59259028873271
 30
0.0
 11
606.32103216321764
 21
319.70662595178351
 31
0.0
  0
LINE
  5
8AD0
  8
AM_0
 10
598.59800784617539
 20
323.75563553762208
 30
0.0
 11
598.83844957944655
 21
316.87028516388068
 31
0.0
  0
ARC
  5
8AD1
  8
AM_0
 10
622.55582192313125
 20
216.58933110576049
 30
0.0
 40
111.0
 50
97.816947831691294
 51
97.853178088809429
  0
ARC
  5
8AD2
  8
AM_0
 10
607.52596539408398
 20
325.5576907920302
 30
0.0
 40
1.0
 50
97.853178088806203
 51
178.0000000000029
1001
GENIUS_GENODEF_13
1002
{
1000
HIER
1070
     0
1002
}
1002
{
1000
MANEDIT
1070
     0
1002
}
1002
{
1000
NOSEL
1070
     0
1002
}
1002
{
1000
BEHIND
1070
     0
1002
}
1002
{
1000
REACTOR
1002
}
1001
GENIUS_GENOBJ-N-FIL_13
1002
{
1000
OWNER
1000
GEN
1002
}
  0
ARC
  5
8AD3
  8
AM_0
 10
607.59487315001843
 20
325.56717294440341
 30
0.0
 40
1.0
 50
1.999999999997101
 51
97.816947831691294
1001
GENIUS_GENODEF_13
1002
{
1000
HIER
1070
     0
1002
}
1002
{
1000
MANEDIT
1070
     0
1002
}
1002
{
1000
NOSEL
1070
     0
1002
}
1002
{
1000
BEHIND
1070
     0
1002
}
1002
{
1000
REACTOR
1002
}
1001
GENIUS_GENOBJ-N-FIL_13
1002
{
1000
OWNER
1000
GEN
1002
}
  0
ARC
  5
8AD4
  8
AM_0
 10
622.55582192313125
 20
216.58933110576049
 30
0.0
 40
111.0
 50
92.586633228776563
 51
92.622284087956118
  0
ARC
  5
8AD5
  8
AM_0
 10
617.59152930536777
 20
326.47725491363491
 30
0.0
 40
1.0
 50
2.0000000000036109
 51
92.586633228773294
1001
GENIUS_GENODEF_13
1002
{
1000
HIER
1070
     0
1002
}
1002
{
1000
MANEDIT
1070
     0
1002
}
1002
{
1000
NOSEL
1070
     0
1002
}
1002
{
1000
BEHIND
1070
     0
1002
}
1002
{
1000
REACTOR
1002
}
1001
GENIUS_GENOBJ-N-FIL_13
1002
{
1000
OWNER
1000
GEN
1002
}
  0
ARC
  5
8AD6
  8
AM_0
 10
617.52315527125165
 20
326.47414473517438
 30
0.0
 40
1.0
 50
92.622284087952849
 51
178.0000000000029
1001
GENIUS_GENODEF_13
1002
{
1000
HIER
1070
     0
1002
}
1002
{
1000
MANEDIT
1070
     0
1002
}
1002
{
1000
NOSEL
1070
     0
1002
}
1002
{
1000
BEHIND
1070
     0
1002
}
1002
{
1000
REACTOR
1002
}
1001
GENIUS_GENOBJ-N-FIL_13
1002
{
1000
OWNER
1000
GEN
1002
}
  0
LINE
  5
8AD7
  8
AM_0
 10
638.58506927919734
 20
325.59259028873271
 30
0.0
 11
638.79061168304474
 21
319.70662595178351
 31
0.0
  0
LINE
  5
8AD8
  8
AM_0
 10
636.51737986922467
 20
325.6020724411062
 30
0.0
 11
636.33513678335851
 21
320.3833132751804
 31
0.0
  0
LINE
  5
8AD9
  8
AM_0
 10
626.52072371387555
 20
326.51215441033742
 30
0.0
 11
626.3617937525147
 21
321.96099578256349
 31
0.0
  0
LINE
  5
8ADA
  8
AM_0
 10
628.58787940202956
 20
326.50904423187689
 30
0.0
 11
628.75412787587766
 21
321.74831082687137
 31
0.0
  0
ARC
  5
8ADB
  8
AM_0
 10
627.58848857501073
 20
326.47414473517438
 30
0.0
 40
1.0
 50
1.999999999997101
 51
87.377715912047151
1001
GENIUS_GENODEF_13
1002
{
1000
HIER
1070
     0
1002
}
1002
{
1000
MANEDIT
1070
     0
1002
}
1002
{
1000
NOSEL
1070
     0
1002
}
1002
{
1000
BEHIND
1070
     0
1002
}
1002
{
1000
REACTOR
1002
}
1001
GENIUS_GENOBJ-N-FIL_13
1002
{
1000
OWNER
1000
GEN
1002
}
  0
ARC
  5
8ADC
  8
AM_0
 10
622.55582192313125
 20
216.58933110576049
 30
0.0
 40
111.0
 50
87.377715912043897
 51
87.413366771223465
  0
ARC
  5
8ADD
  8
AM_0
 10
627.52011454089472
 20
326.47725491363491
 30
0.0
 40
1.0
 50
87.413366771226706
 51
177.99999999999639
1001
GENIUS_GENODEF_13
1002
{
1000
HIER
1070
     0
1002
}
1002
{
1000
MANEDIT
1070
     0
1002
}
1002
{
1000
NOSEL
1070
     0
1002
}
1002
{
1000
BEHIND
1070
     0
1002
}
1002
{
1000
REACTOR
1002
}
1001
GENIUS_GENOBJ-N-FIL_13
1002
{
1000
OWNER
1000
GEN
1002
}
  0
ARC
  5
8ADE
  8
AM_0
 10
622.55582192313125
 20
216.58933110576049
 30
0.0
 40
111.0
 50
82.146821911190585
 51
82.183052168305494
  0
ARC
  5
8ADF
  8
AM_0
 10
637.58567845217851
 20
325.5576907920302
 30
0.0
 40
1.0
 50
1.999999999997101
 51
82.146821911193769
1001
GENIUS_GENODEF_13
1002
{
1000
HIER
1070
     0
1002
}
1002
{
1000
MANEDIT
1070
     0
1002
}
1002
{
1000
NOSEL
1070
     0
1002
}
1002
{
1000
BEHIND
1070
     0
1002
}
1002
{
1000
REACTOR
1002
}
1001
GENIUS_GENOBJ-N-FIL_13
1002
{
1000
OWNER
1000
GEN
1002
}
  0
ARC
  5
8AE0
  8
AM_0
 10
637.51677069624395
 20
325.56717294440341
 30
0.0
 40
1.0
 50
82.18305216830872
 51
178.0000000000029
1001
GENIUS_GENODEF_13
1002
{
1000
HIER
1070
     0
1002
}
1002
{
1000
MANEDIT
1070
     0
1002
}
1002
{
1000
NOSEL
1070
     0
1002
}
1002
{
1000
BEHIND
1070
     0
1002
}
1002
{
1000
REACTOR
1002
}
1001
GENIUS_GENOBJ-N-FIL_13
1002
{
1000
OWNER
1000
GEN
1002
}
  0
LINE
  5
8AE1
  8
AM_0
 10
648.58243264909049
 20
323.73930080329927
 30
0.0
 11
648.83289347092182
 21
316.56704127189931
 31
0.0
  0
LINE
  5
8AE2
  8
AM_0
 10
646.5136360000871
 20
323.75563553762208
 30
0.0
 11
646.27319426681572
 21
316.87028516388068
 31
0.0
  0
LINE
  5
8AE3
  8
AM_0
 10
647.55582266818919
 20
316.58933262567882
 30
0.0
 11
660.55582305561927
 21
316.36241677484941
 31
0.0
  0
ARC
  5
8AE4
  8
AM_0
 10
657.50874688375336
 20
320.88838688622792
 30
0.0
 40
1.0
 50
71.472857685528666
 51
178.0000000000029
1001
GENIUS_GENODEF_13
1002
{
1000
HIER
1070
     0
1002
}
1002
{
1000
MANEDIT
1070
     0
1002
}
1002
{
1000
NOSEL
1070
     0
1002
}
1002
{
1000
BEHIND
1070
     0
1002
}
1002
{
1000
REACTOR
1002
}
1001
GENIUS_GENOBJ-N-FIL_13
1002
{
1000
OWNER
1000
GEN
1002
}
  0
LINE
  5
8AE5
  8
AM_0
 10
656.50935605673442
 20
320.92328638293071
 30
0.0
 11
656.35264900125071
 21
316.43578345087298
 31
0.0
  0
LINE
  5
8AE6
  8
AM_0
 10
660.55582192313125
 20
311.58933110576049
 30
0.0
 11
663.55582192313125
 21
311.58933110576049
 31
0.0
  0
LINE
  5
8AE7
  8
AM_0
 10
658.57992174584024
 20
320.8992024785905
 30
0.0
 11
658.73724128748518
 21
316.39416023768939
 31
0.0
  0
ARC
  5
8AE8
  8
AM_0
 10
657.58053091882095
 20
320.86430298188787
 30
0.0
 40
1.0
 50
2.0000000000036109
 51
71.43341919809707
1001
GENIUS_GENODEF_13
1002
{
1000
HIER
1070
     0
1002
}
1002
{
1000
MANEDIT
1070
     0
1002
}
1002
{
1000
NOSEL
1070
     0
1002
}
1002
{
1000
BEHIND
1070
     0
1002
}
1002
{
1000
REACTOR
1002
}
1001
GENIUS_GENOBJ-N-FIL_13
1002
{
1000
OWNER
1000
GEN
1002
}
  0
ARC
  5
8AE9
  8
AM_0
 10
622.55582192313125
 20
216.58933110576049
 30
0.0
 40
111.0
 50
71.433419198104289
 51
71.472857685528666
  0
ARC
  5
8AEA
  8
AM_0
 10
647.51302682710605
 20
323.72073604091929
 30
0.0
 40
1.0
 50
76.886329856700854
 51
177.99999999999639
1001
GENIUS_GENODEF_13
1002
{
1000
HIER
1070
     0
1002
}
1002
{
1000
MANEDIT
1070
     0
1002
}
1002
{
1000
NOSEL
1070
     0
1002
}
1002
{
1000
BEHIND
1070
     0
1002
}
1002
{
1000
REACTOR
1002
}
1001
GENIUS_GENOBJ-N-FIL_13
1002
{
1000
OWNER
1000
GEN
1002
}
  0
ARC
  5
8AEB
  8
AM_0
 10
622.55582192313125
 20
216.58933110576049
 30
0.0
 40
111.0
 50
76.848881739348215
 51
76.886329856700854
  0
ARC
  5
8AEC
  8
AM_0
 10
647.58304182207155
 20
323.70440130659682
 30
0.0
 40
1.0
 50
1.999999999997101
 51
76.848881739348215
1001
GENIUS_GENODEF_13
1002
{
1000
HIER
1070
     0
1002
}
1002
{
1000
MANEDIT
1070
     0
1002
}
1002
{
1000
NOSEL
1070
     0
1002
}
1002
{
1000
BEHIND
1070
     0
1002
}
1002
{
1000
REACTOR
1002
}
1001
GENIUS_GENOBJ-N-FIL_13
1002
{
1000
OWNER
1000
GEN
1002
}
  0
CIRCLE
  5
C46D
  8
ｽﾝﾎﾟｳｾﾝ
 10
362.1850147658796
 20
265.58933110576049
 30
0.0
 40
3.0
  0
ARC
  5
C46E
  8
0
 10
362.1850147658796
 20
265.58933110576049
 30
0.0
 40
9.5000000000000124
 50
108.4084801705864
 51
71.591519829413585
  0
CIRCLE
  5
C46F
  8
0
 10
362.1850147658796
 20
265.58933110576049
 30
0.0
 40
15.00000044703483
  0
LINE
  5
C470
  8
0
 10
365.1850147658796
 20
277.58933110576049
 30
0.0
 11
365.1850147658796
 21
271.58933110576049
 31
0.0
  0
LINE
  5
C471
  8
0
 10
359.1850147658796
 20
271.58933110576049
 30
0.0
 11
359.1850147658796
 21
277.58933110576049
 31
0.0
  0
LINE
  5
C472
  8
0
 10
365.1850147658796
 20
271.58933110576049
 30
0.0
 11
359.1850147658796
 21
271.58933110576049
 31
0.0
  0
LINE
  5
C473
  8
0
 10
359.1850147658796
 20
277.58933110576049
 30
0.0
 11
365.1850147658796
 21
277.58933110576049
 31
0.0
  0
LINE
  5
C488
  8
AM_0
 10
577.5558203920267
 20
280.58933155279527
 30
0.0
 11
577.5558203920267
 21
250.5893306587258
 31
0.0
  0
LINE
  5
C489
  8
0
 10
577.5558203920267
 20
280.58933155279527
 30
0.0
 11
553.5558203920267
 21
277.58933110576049
 31
0.0
  0
LINE
  5
C48A
  8
AM_0
 10
577.5558203920267
 20
280.58933155279527
 30
0.0
 11
580.55582048143356
 21
280.58933155279527
 31
0.0
  0
LINE
  5
C48B
  8
0
 10
577.5558203920267
 20
250.5893306587258
 30
0.0
 11
553.5558203920267
 21
253.58933110576049
 31
0.0
  0
LINE
  5
C48C
  8
AM_0
 10
577.5558203920267
 20
250.5893306587258
 30
0.0
 11
580.55582048143356
 21
250.5893306587258
 31
0.0
  0
LINE
  5
C48D
  8
AM_0
 10
553.5558203920267
 20
277.58933110576049
 30
0.0
 11
553.5558203920267
 21
253.58933110576049
 31
0.0
  0
LINE
  5
C48E
  8
0
 10
525.55582039202659
 20
256.08933110576049
 30
0.0
 11
525.55582039202659
 21
277.58933110576049
 31
0.0
  0
LINE
  5
C48F
  8
0
 10
525.55582039202659
 20
256.08933110576049
 30
0.0
 11
553.5558203920267
 21
256.0893311027985
 31
0.0
  0
LINE
  5
C490
  8
0
 10
525.55582039202659
 20
277.58933110576049
 30
0.0
 11
547.55582039202648
 21
277.58933110576049
 31
0.0
  0
LINE
  5
C491
  8
0
 10
553.5558203920267
 20
275.08933110576049
 30
0.0
 11
525.55582039202659
 21
275.08933110576049
 31
0.0
  0
LINE
  5
C492
  8
0
 10
547.55582039202648
 20
277.58933110576049
 30
0.0
 11
547.55582039202648
 21
275.08933110576049
 31
0.0
  0
ARC
  5
C4D3
  8
AM_0
 10
622.5558221131314
 20
265.58933110576049
 30
0.0
 40
56.499999999999972
 50
144.9813717379196
 51
165.88809156090599
  0
ARC
  5
C4D4
  8
AM_0
 10
622.5558221131314
 20
265.58933110576049
 30
0.0
 40
56.499999999999972
 50
194.1119084390939
 51
215.0186282620804
  0
LINE
  5
D508
  8
AM_0
 10
414.95810016328852
 20
553.74700346834356
 30
0.0
 11
276.41192778595132
 21
553.74698790380535
 31
0.0
  0
LINE
  5
D509
  8
AM_0
 10
415.18501601803962
 20
540.74700285622976
 30
0.0
 11
276.18501166737451
 21
540.74700285622976
 31
0.0
  0
LINE
  5
D50A
  8
AM_0
 10
414.08534743030572
 20
477.74700097868339
 30
0.0
 11
277.28468079061417
 21
477.74700097868327
 31
0.0
  0
LINE
  5
D50B
  8
ﾁｭｳｼﾝｾﾝ1
 10
63.741911082808429
 20
515.74702205603865
 30
0.0
 11
418.18501628579799
 21
515.7469786064637
 31
0.0
1001
GENIUS_GENODEF_13
1002
{
1000
HIER
1070
     0
1002
}
1002
{
1000
MANEDIT
1070
     0
1002
}
1002
{
1000
NOSEL
1070
     0
1002
}
1002
{
1000
BEHIND
1070
     0
1002
}
1002
{
1000
REACTOR
1002
}
1001
GENIUS_GENOBJ-N-CEN_13
1002
{
1000
OWNER
1000
GEN
1002
}
  0
LINE
  5
D59F
  8
AM_0
 10
276.18501166737462
 20
540.74700285622976
 30
0.0
 11
277.28468105837243
 21
477.74698563882907
 31
0.0
  0
LINE
  5
D5A0
  8
ﾁｭｳｼﾝｾﾝ1
 10
287.18501253070548
 20
556.74700324365972
 30
0.0
 11
287.18501253070548
 21
474.74700097868327
 31
0.0
  0
LINE
  5
D5A1
  8
ｶｸﾚｾﾝ2
 10
291.68501253070548
 20
553.74700324365995
 30
0.0
 11
291.68501253070548
 21
477.74700097868339
 31
0.0
  0
LINE
  5
D5A2
  8
ｶｸﾚｾﾝ2
 10
282.68501253070548
 20
553.74700324365995
 30
0.0
 11
282.68501253070548
 21
477.74700097868339
 31
0.0
  0
LINE
  5
D5A3
  8
AM_0
 10
261.3164858627697
 20
460.21491357762812
 30
0.0
 11
261.31650112088408
 21
571.27909135010407
 31
0.0
  0
LINE
  5
D5A4
  8
AM_0
 10
251.67890868725499
 20
459.74699205603861
 30
0.0
 11
251.67890868725499
 21
571.74701305603855
 31
0.0
  0
LINE
  5
D5A5
  8
AM_0
 10
262.00054179573323
 20
570.09429608681796
 30
0.0
 11
267.23649468055032
 21
540.39970678332884
 31
0.0
1001
GENIUS_GENODEF_13
1002
{
1000
HIER
1070
     0
1002
}
1002
{
1000
MANEDIT
1070
     0
1002
}
1002
{
1000
NOSEL
1070
     0
1002
}
1002
{
1000
BEHIND
1070
     0
1002
}
1002
{
1000
REACTOR
1002
}
1001
GENIUS_GENOBJ-N-CEN_13
1002
{
1000
OWNER
1000
GEN
1002
}
  0
ARC
  5
D5A6
  8
AM_0
 10
260.030925791664
 20
569.74700255603875
 30
0.0
 40
2.0
 50
9.9999917840739627
 51
90.0
1001
GENIUS_GENOBJ-N-CEN_13
1002
{
1000
OWNER
1000
GEN
1002
}
1001
GENIUS_GENODEF_13
1002
{
1000
HIER
1070
     0
1002
}
1002
{
1000
MANEDIT
1070
     0
1002
}
1002
{
1000
NOSEL
1070
     0
1002
}
1002
{
1000
BEHIND
1070
     0
1002
}
1002
{
1000
OTHER
1070
     0
1002
}
1002
{
1000
REACTOR
1002
}
1001
GENIUS_GENOBJ-N-FIL_13
1002
{
1000
OWNER
1000
GEN
1002
}
  0
LINE
  5
D5A7
  8
AM_0
 10
251.67890868725499
 20
571.74700255603875
 30
0.0
 11
260.030925791664
 21
571.74700255603875
 31
0.0
  0
LINE
  5
D5A8
  8
AM_0
 10
275.20231440425869
 20
538.74700285622976
 30
0.0
 11
269.20611023637531
 21
538.74700285622976
 31
0.0
  0
LINE
  5
D5A9
  8
AM_0
 10
251.67890868725499
 20
561.74702805603863
 30
0.0
 11
261.31649981135621
 21
561.74700669706385
 31
0.0
  0
LINE
  5
D5AA
  8
AM_0
 10
251.67890868725499
 20
547.68446005603869
 30
0.0
 11
261.31649787976812
 21
547.68693148792954
 31
0.0
  0
ARC
  5
D5AB
  8
AM_0
 10
269.20611023637531
 20
540.74700285622976
 30
0.0
 40
2.0
 50
189.9999917840739
 51
270.0
1001
GENIUS_GENODEF_13
1002
{
1000
HIER
1070
     0
1002
}
1002
{
1000
MANEDIT
1070
     0
1002
}
1002
{
1000
NOSEL
1070
     0
1002
}
1002
{
1000
BEHIND
1070
     0
1002
}
1002
{
1000
OTHER
1070
     0
1002
}
1002
{
1000
REACTOR
1002
}
1001
GENIUS_GENOBJ-N-FIL_13
1002
{
1000
OWNER
1000
GEN
1002
}
  0
LINE
  5
D5AC
  8
AM_0
 10
276.18501193512191
 20
540.74698751637516
 30
0.0
 11
276.41192778595132
 21
553.74698790380535
 31
0.0
  0
ARC
  5
D5AD
  8
AM_0
 10
275.20231440425869
 20
539.74700285622976
 30
0.0
 40
1.0
 50
270.0
 51
0.9999999999887361
1001
GENIUS_GENODEF_13
1002
{
1000
HIER
1070
     0
1002
}
1002
{
1000
MANEDIT
1070
     0
1002
}
1002
{
1000
NOSEL
1070
     0
1002
}
1002
{
1000
BEHIND
1070
     0
1002
}
1002
{
1000
OTHER
1070
     0
1002
}
1002
{
1000
REACTOR
1002
}
1001
GENIUS_GENOBJ-N-FIL_13
1002
{
1000
OWNER
1000
GEN
1002
}
  0
LINE
  5
D5AE
  8
AM_0
 10
275.28437613452638
 20
479.74700097868339
 30
0.0
 11
266.1850147658796
 21
479.74700097868339
 31
0.0
  0
LINE
  5
D5AF
  8
AM_0
 10
262.0005262094673
 20
461.39970591827159
 30
0.0
 11
264.1850147658796
 21
473.78854576514811
 31
0.0
1001
GENIUS_GENODEF_13
1002
{
1000
HIER
1070
     0
1002
}
1002
{
1000
MANEDIT
1070
     0
1002
}
1002
{
1000
NOSEL
1070
     0
1002
}
1002
{
1000
BEHIND
1070
     0
1002
}
1002
{
1000
REACTOR
1002
}
1001
GENIUS_GENOBJ-N-CEN_13
1002
{
1000
OWNER
1000
GEN
1002
}
  0
LINE
  5
D5B0
  8
AM_0
 10
251.67890868725499
 20
483.80705255603868
 30
0.0
 11
261.3164891038827
 21
483.80705255603868
 31
0.0
  0
ARC
  5
D5B1
  8
AM_0
 10
266.1850147658796
 20
477.74700097868327
 30
0.0
 40
2.0
 50
90.0
 51
180.0
1001
GENIUS_GENODEF_13
1002
{
1000
HIER
1070
     0
1002
}
1002
{
1000
MANEDIT
1070
     0
1002
}
1002
{
1000
NOSEL
1070
     0
1002
}
1002
{
1000
BEHIND
1070
     0
1002
}
1002
{
1000
OTHER
1070
     0
1002
}
1002
{
1000
REACTOR
1002
}
1001
GENIUS_GENOBJ-N-FIL_13
1002
{
1000
OWNER
1000
GEN
1002
}
  0
LINE
  5
D5B2
  8
AM_0
 10
264.1850147658796
 20
477.74700097868327
 30
0.0
 11
264.1850147658796
 21
473.78854576514811
 31
0.0
  0
ARC
  5
D5B3
  8
AM_0
 10
260.03091075324357
 20
461.74700255603852
 30
0.0
 40
2.0
 50
270.0
 51
349.99999178406978
1001
GENIUS_GENOBJ-N-CEN_13
1002
{
1000
OWNER
1000
GEN
1002
}
1001
GENIUS_GENOBJ-N-FIL_13
1002
{
1000
OWNER
1000
GEN
1002
}
1001
GENIUS_GENODEF_13
1002
{
1000
HIER
1070
     0
1002
}
1002
{
1000
MANEDIT
1070
     0
1002
}
1002
{
1000
NOSEL
1070
     0
1002
}
1002
{
1000
BEHIND
1070
     0
1002
}
1002
{
1000
OTHER
1070
     0
1002
}
1002
{
1000
REACTOR
1002
}
  0
LINE
  5
D5B4
  8
AM_0
 10
251.67890868725499
 20
469.74700255603852
 30
0.0
 11
261.3164871722982
 21
469.74700255603852
 31
0.0
  0
LINE
  5
D5B5
  8
AM_0
 10
251.67890868725499
 20
459.74700255603858
 30
0.0
 11
260.03091075324357
 21
459.74700255603858
 31
0.0
  0
ARC
  5
D5B6
  8
AM_0
 10
275.28437613452638
 20
477.74700097868327
 30
0.0
 40
2.0
 50
0.9999999999952489
 51
90.0
1001
GENIUS_GENODEF_13
1002
{
1000
HIER
1070
     0
1002
}
1002
{
1000
MANEDIT
1070
     0
1002
}
1002
{
1000
NOSEL
1070
     0
1002
}
1002
{
1000
BEHIND
1070
     0
1002
}
1002
{
1000
OTHER
1070
     0
1002
}
1002
{
1000
REACTOR
1002
}
1001
GENIUS_GENOBJ-N-FIL_13
1002
{
1000
OWNER
1000
GEN
1002
}
  0
LINE
  5
D5B7
  8
AM_0
 10
415.18501628579799
 20
540.74698751637675
 30
0.0
 11
414.08534743030572
 21
477.74700097868339
 31
0.0
  0
LINE
  5
D5B8
  8
ｶｸﾚｾﾝ2
 10
397.68501595797261
 20
553.74700324365995
 30
0.0
 11
397.68501595797261
 21
477.74700097868362
 31
0.0
  0
LINE
  5
D5B9
  8
ｶｸﾚｾﾝ2
 10
406.6850159579725
 20
553.74700324365995
 30
0.0
 11
406.6850159579725
 21
477.74700097868362
 31
0.0
  0
LINE
  5
D5BA
  8
ﾁｭｳｼﾝｾﾝ1
 10
402.18501595797261
 20
556.74700324365972
 30
0.0
 11
402.18501595797261
 21
474.74700097868339
 31
0.0
  0
LINE
  5
D5BB
  8
ﾁｭｳｼﾝｾﾝ1
 10
362.1850147658796
 20
616.33322894658954
 30
0.0
 11
362.1850147658796
 21
415.160741995911
 31
0.0
  0
LINE
  5
D5BD
  8
AM_0
 10
389.68501558544352
 20
557.74700336286924
 30
0.0
 11
334.68501394631591
 21
557.74700336286924
 31
0.0
  0
LINE
  5
D5BE
  8
AM_0
 10
334.68501394631591
 20
557.74700336286924
 30
0.0
 11
334.68501394631591
 21
553.74700324365995
 31
0.0
  0
LINE
  5
D5C1
  8
AM_0
 10
389.68501558544352
 20
557.74700336286924
 30
0.0
 11
389.68501558544352
 21
553.74700324365995
 31
0.0
  0
LINE
  5
D5C2
  8
AM_0
 10
415.18501628579787
 20
540.74698751637561
 30
0.0
 11
414.95810016328852
 21
553.74700346834356
 31
0.0
  0
LINE
  5
D5C4
  8
AM_0
 10
389.68501558544352
 20
473.74700085947399
 30
0.0
 11
334.68501394631591
 21
473.74700085947399
 31
0.0
  0
LINE
  5
D5C5
  8
AM_0
 10
334.68501394631579
 20
473.74700085947399
 30
0.0
 11
334.68501394631579
 21
477.74700097868327
 31
0.0
  0
LINE
  5
D5C8
  8
AM_0
 10
389.68501558544352
 20
473.74700085947399
 30
0.0
 11
389.68501558544352
 21
477.74700097868339
 31
0.0
  0
LINE
  5
D6C6
  8
AM_0
 10
347.18501431884488
 20
470.74700077006707
 30
0.0
 11
377.18501521291449
 21
470.74700077006707
 31
0.0
  0
LINE
  5
D6C7
  8
AM_0
 10
377.18501521291449
 20
473.74700085947399
 30
0.0
 11
377.18501521291449
 21
470.74700077006707
 31
0.0
  0
LINE
  5
D6C8
  8
AM_0
 10
347.18501431884488
 20
473.74700085947399
 30
0.0
 11
347.18501431884488
 21
470.74700077006707
 31
0.0
  0
LINE
  5
D6C9
  8
AM_0
 10
347.18501431884488
 20
470.74700058006692
 30
0.0
 11
377.18501521291449
 21
470.74700058006692
 31
0.0
  0
LINE
  5
D6CA
  8
0
 10
347.18501431884488
 20
470.74700058006692
 30
0.0
 11
350.18501476587983
 21
446.74700058006692
 31
0.0
  0
LINE
  5
D6CB
  8
AM_0
 10
347.18501431884488
 20
470.74700058006692
 30
0.0
 11
347.18501431884488
 21
473.74700066947389
 31
0.0
  0
LINE
  5
D6CC
  8
0
 10
377.18501521291449
 20
470.74700058006692
 30
0.0
 11
374.18501476587983
 21
446.74700058006692
 31
0.0
  0
LINE
  5
D6CD
  8
AM_0
 10
377.18501521291449
 20
470.74700058006692
 30
0.0
 11
377.18501521291449
 21
473.74700066947389
 31
0.0
  0
LINE
  5
D6CE
  8
AM_0
 10
350.18501476587983
 20
446.74700058006692
 30
0.0
 11
374.18501476587983
 21
446.74700058006692
 31
0.0
  0
LINE
  5
D6CF
  8
0
 10
371.68501476587983
 20
418.74700058006692
 30
0.0
 11
352.68501476587988
 21
418.7470005800667
 31
0.0
  0
LINE
  5
D6D0
  8
0
 10
371.68501476587983
 20
418.74700058006692
 30
0.0
 11
371.68501476884182
 21
446.74700058006692
 31
0.0
  0
LINE
  5
D6D2
  8
0
 10
352.68501476587988
 20
446.74700058006692
 30
0.0
 11
352.68501476587988
 21
418.74700058006692
 31
0.0
  0
LINE
  5
D6D3
  8
0
 10
359.1850147658796
 20
440.74700058006698
 30
0.0
 11
365.18501476587949
 21
440.74700058006698
 31
0.0
  0
LINE
  5
D6D4
  8
AM_0
 10
359.1850147658796
 20
418.7470005800667
 30
0.0
 11
359.1850147658796
 21
440.74700058006709
 31
0.0
  0
LINE
  5
D6D6
  8
AM_0
 10
365.1850147658796
 20
418.74700058006692
 30
0.0
 11
365.18501476587971
 21
440.74700058006698
 31
0.0
  0
ARC
  5
D6D7
  8
AM_0
 10
362.1850147658796
 20
440.74700058006698
 30
0.0
 40
2.9999999999999432
 50
0.0000000000010856
 51
179.99999999999781
  0
CIRCLE
  5
D713
  8
AM_0
 10
362.1850147658796
 20
265.58933110576049
 30
0.0
 40
2.5
  0
LINE
  5
E6BC
  8
AM_0
 10
592.55582192313113
 20
203.08933110576049
 30
0.0
 11
652.55582192313113
 21
203.08933110576049
 31
0.0
  0
LINE
  5
E6C4
  8
AM_0
 10
592.55582192313113
 20
215.54935816989931
 30
0.0
 11
592.55582192313102
 21
199.08933110576081
 31
0.0
  0
LINE
  5
E6EE
  8
AM_0
 10
652.55582192313125
 20
214.67660489747809
 30
0.0
 11
652.55582192313113
 21
199.08933110576081
 31
0.0
  0
LINE
  5
E76E
  8
AM_0
 10
617.61544894847452
 20
327.47661720172351
 30
0.0
 11
617.61544894847452
 21
330.58933159749893
 31
0.0
  0
LINE
  5
E76F
  8
AM_0
 10
620.81544894847468
 20
329.82159497964039
 30
0.0
 11
620.81544894847445
 21
330.58933159749893
 31
0.0
  0
LINE
  5
E770
  8
AM_0
 10
617.61544894847452
 20
330.58933159749893
 30
0.0
 11
620.81544894847445
 21
330.58933159749893
 31
0.0
  0
CIRCLE
  5
E771
  8
AM_0
 10
622.61544894847464
 20
328.0953646397403
 30
0.0
 40
2.4939669577585151
  0
LINE
  5
E772
  8
AM_0
 10
620.81544894847445
 20
324.33933159749893
 30
0.0
 11
620.81544894847468
 21
326.36913429984043
 31
0.0
  0
LINE
  5
E773
  8
AM_0
 10
620.81544894847445
 20
324.33933159749893
 30
0.0
 11
624.41544894847448
 21
324.33933159749893
 31
0.0
  0
LINE
  5
E774
  8
AM_0
 10
624.41544894847448
 20
330.58933159749893
 30
0.0
 11
627.61544894847452
 21
330.58933159749893
 31
0.0
  0
LINE
  5
E775
  8
AM_0
 10
624.41544894847448
 20
324.33933159749893
 30
0.0
 11
624.41544894847448
 21
326.3691342998402
 31
0.0
  0
LINE
  5
E776
  8
AM_0
 10
622.61544894847452
 20
325.60139768198189
 30
0.0
 11
624.41544894847459
 21
325.60139768198201
 31
0.0
  0
LINE
  5
E777
  8
AM_0
 10
624.41544894847448
 20
329.82159497964062
 30
0.0
 11
624.41544894847448
 21
330.58933159749893
 31
0.0
  0
LINE
  5
E778
  8
AM_0
 10
622.61544894847452
 20
330.58933159749893
 30
0.0
 11
624.41544894847459
 21
330.58933159749898
 31
0.0
  0
LINE
  5
E779
  8
AM_0
 10
627.6154489484743
 20
327.47361103768537
 30
0.0
 11
627.61544894847452
 21
330.58933159749893
 31
0.0
  0
LINE
  5
E77A
  8
AM_0
 10
627.61544894847452
 20
330.58933159749893
 30
0.0
 11
644.4662247583002
 21
330.58933159749893
 31
0.0
  0
LINE
  5
E77B
  8
AM_0
 10
628.67920214332185
 20
325.60139768198189
 30
0.0
 11
636.5769833314605
 21
325.60139768198189
 31
0.0
  0
LINE
  5
E77C
  8
AM_0
 10
638.64438874359143
 20
325.60139768198189
 30
0.0
 11
643.61544894847418
 21
325.60139768198189
 31
0.0
  0
ARC
  5
E77D
  8
AM_0
 10
643.61544894847418
 20
300.60139768198189
 30
0.0
 40
25.0
 50
57.467847186513779
 51
90.0
1001
GENIUS_GENOBJ-N-FIL_13
1002
{
1000
OWNER
1000
GEN
1002
}
1001
GENIUS_GENODEF_13
1002
{
1000
HIER
1070
     0
1002
}
1002
{
1000
MANEDIT
1070
     0
1002
}
1002
{
1000
NOSEL
1070
     0
1002
}
1002
{
1000
BEHIND
1070
     0
1002
}
1002
{
1000
OTHER
1070
     0
1002
}
1002
{
1000
REACTOR
1002
}
  0
ARC
  5
E77E
  8
AM_0
 10
643.61544894847418
 20
300.60139768198189
 30
0.0
 40
30.0
 50
2.2223447032612151
 51
88.374920016405966
1001
GENIUS_GENOBJ-N-FIL_13
1002
{
1000
OWNER
1000
GEN
1002
}
1001
GENIUS_GENODEF_13
1002
{
1000
HIER
1070
     0
1002
}
1002
{
1000
MANEDIT
1070
     0
1002
}
1002
{
1000
NOSEL
1070
     0
1002
}
1002
{
1000
BEHIND
1070
     0
1002
}
1002
{
1000
OTHER
1070
     0
1002
}
1002
{
1000
REACTOR
1002
}
  0
ARC
  5
E77F
  8
AM_0
 10
643.61544894847418
 20
300.60139768198189
 30
0.0
 40
25.0
 50
23.766519203098731
 51
53.155059700517981
1001
GENIUS_GENOBJ-N-FIL_13
1002
{
1000
OWNER
1000
GEN
1002
}
1001
GENIUS_GENODEF_13
1002
{
1000
HIER
1070
     0
1002
}
1002
{
1000
MANEDIT
1070
     0
1002
}
1002
{
1000
NOSEL
1070
     0
1002
}
1002
{
1000
BEHIND
1070
     0
1002
}
1002
{
1000
OTHER
1070
     0
1002
}
1002
{
1000
REACTOR
1002
}
  0
ARC
  5
E780
  8
AM_0
 10
643.61544894847418
 20
230.57726452953909
 30
0.0
 40
30.0
 50
287.45760312371931
 51
357.77765529673883
1001
GENIUS_GENOBJ-N-FIL_13
1002
{
1000
OWNER
1000
GEN
1002
}
1001
GENIUS_GENODEF_13
1002
{
1000
HIER
1070
     0
1002
}
1002
{
1000
MANEDIT
1070
     0
1002
}
1002
{
1000
NOSEL
1070
     0
1002
}
1002
{
1000
BEHIND
1070
     0
1002
}
1002
{
1000
OTHER
1070
     0
1002
}
1002
{
1000
REACTOR
1002
}
  0
ARC
  5
E781
  8
AM_0
 10
643.61544894847418
 20
230.57726452953909
 30
0.0
 40
25.0
 50
307.0015613059486
 51
336.39078821915501
1001
GENIUS_GENOBJ-N-FIL_13
1002
{
1000
OWNER
1000
GEN
1002
}
1001
GENIUS_GENODEF_13
1002
{
1000
HIER
1070
     0
1002
}
1002
{
1000
MANEDIT
1070
     0
1002
}
1002
{
1000
NOSEL
1070
     0
1002
}
1002
{
1000
BEHIND
1070
     0
1002
}
1002
{
1000
OTHER
1070
     0
1002
}
1002
{
1000
REACTOR
1002
}
  0
ARC
  5
E782
  8
AM_0
 10
643.61544894847418
 20
230.57726452953909
 30
0.0
 40
25.0
 50
291.10019602408693
 51
301.02616100631178
1001
GENIUS_GENOBJ-N-FIL_13
1002
{
1000
OWNER
1000
GEN
1002
}
1001
GENIUS_GENODEF_13
1002
{
1000
HIER
1070
     0
1002
}
1002
{
1000
MANEDIT
1070
     0
1002
}
1002
{
1000
NOSEL
1070
     0
1002
}
1002
{
1000
BEHIND
1070
     0
1002
}
1002
{
1000
OTHER
1070
     0
1002
}
1002
{
1000
REACTOR
1002
}
  0
LINE
  5
E783
  8
AM_0
 10
617.05581567296724
 20
189.3725446655329
 30
0.0
 11
628.05581567296701
 21
189.3725446655329
 31
0.0
  0
LINE
  5
E784
  8
AM_0
 10
591.1558156729667
 20
162.08933110576061
 30
0.0
 11
653.95581567296642
 21
162.08933110576061
 31
0.0
  0
LINE
  5
E785
  8
AM_0
 10
656.05587645840785
 20
199.08933110576081
 30
0.0
 11
589.05582567296722
 21
199.08933110576081
 31
0.0
  0
LINE
  5
E786
  8
AM_0
 10
657.55581567296861
 20
196.08933110576089
 30
0.0
 11
587.55581567296872
 21
196.08933110576089
 31
0.0
  0
LINE
  5
E787
  8
AM_0
 10
658.55581567296849
 20
175.08933110576061
 30
0.0
 11
586.55581567296861
 21
175.08933110576061
 31
0.0
  0
LINE
  5
E788
  8
AM_0
 10
617.05581567296724
 20
175.08933110576089
 30
0.0
 11
617.05581567296724
 21
189.3725446655329
 31
0.0
  0
LINE
  5
E789
  8
AM_0
 10
598.05581567296872
 20
195.089331105761
 30
0.0
 11
598.05581567296872
 21
179.08933110576069
 31
0.0
  0
LINE
  5
E78A
  8
AM_0
 10
586.55581567296861
 20
195.089331105761
 30
0.0
 11
586.55581567296861
 21
162.58933110576069
 31
0.0
  0
LINE
  5
E78B
  8
AM_0
 10
598.9256641539497
 20
175.08933110576061
 30
0.0
 11
598.9256641539497
 21
164.58933110575649
 31
0.0
  0
LINE
  5
E78C
  8
AM_0
 10
588.65581567296681
 20
173.62433110576069
 30
0.0
 11
588.65581567296681
 21
164.58933110576061
 31
0.0
  0
ARC
  5
E78D
  8
AM_0
 10
591.1558156729667
 20
164.58933110576061
 30
0.0
 40
2.4999999999999991
 50
180.0
 51
270.0
  0
ARC
  5
E78E
  8
AM_0
 10
587.05581567296701
 20
162.58933110576069
 30
0.0
 40
0.5
 50
180.0
 51
270.0
  0
LINE
  5
E78F
  8
AM_0
 10
587.05581567296701
 20
162.08933110576061
 30
0.0
 11
591.1558156729667
 21
162.08933110576061
 31
0.0
  0
POLYLINE
  5
E790
  8
AM_0
 66
     1
 10
0.0
 20
0.0
 30
0.0
 70
     8
  0
VERTEX
  5
E791
  8
AM_0
 10
598.92540086992381
 20
164.58928404068649
 30
0.0
 70
    32
  0
VERTEX
  5
E792
  8
AM_0
 10
598.92540086992381
 20
164.5852840406867
 30
0.0
 70
    32
  0
VERTEX
  5
E793
  8
AM_0
 10
598.92540086992381
 20
164.5812840406868
 30
0.0
 70
    32
  0
VERTEX
  5
E794
  8
AM_0
 10
598.92540086992381
 20
164.5762840406866
 30
0.0
 70
    32
  0
VERTEX
  5
E795
  8
AM_0
 10
598.92540086992381
 20
164.5722840406865
 30
0.0
 70
    32
  0
VERTEX
  5
E796
  8
AM_0
 10
598.92540086992381
 20
164.5682840406869
 30
0.0
 70
    32
  0
VERTEX
  5
E797
  8
AM_0
 10
598.92540086992381
 20
164.5632840406866
 30
0.0
 70
    32
  0
VERTEX
  5
E798
  8
AM_0
 10
598.92640086992412
 20
164.55928404068689
 30
0.0
 70
    32
  0
VERTEX
  5
E799
  8
AM_0
 10
598.92640086992412
 20
164.55528404068659
 30
0.0
 70
    32
  0
VERTEX
  5
E79A
  8
AM_0
 10
598.92640086992412
 20
164.5512840406866
 30
0.0
 70
    32
  0
VERTEX
  5
E79B
  8
AM_0
 10
598.92640086992412
 20
164.5462840406866
 30
0.0
 70
    32
  0
VERTEX
  5
E79C
  8
AM_0
 10
598.92640086992412
 20
164.5422840406863
 30
0.0
 70
    32
  0
VERTEX
  5
E79D
  8
AM_0
 10
598.92640086992412
 20
164.5382840406867
 30
0.0
 70
    32
  0
VERTEX
  5
E79E
  8
AM_0
 10
598.92640086992412
 20
164.5342840406866
 30
0.0
 70
    32
  0
VERTEX
  5
E79F
  8
AM_0
 10
598.92640086992412
 20
164.5292840406866
 30
0.0
 70
    32
  0
VERTEX
  5
E7A0
  8
AM_0
 10
598.92640086992412
 20
164.52528404068639
 30
0.0
 70
    32
  0
VERTEX
  5
E7A1
  8
AM_0
 10
598.92640086992412
 20
164.52128404068679
 30
0.0
 70
    32
  0
VERTEX
  5
E7A2
  8
AM_0
 10
598.92640086992412
 20
164.51628404068649
 30
0.0
 70
    32
  0
VERTEX
  5
E7A3
  8
AM_0
 10
598.92640086992412
 20
164.51228404068689
 30
0.0
 70
    32
  0
VERTEX
  5
E7A4
  8
AM_0
 10
598.92640086992412
 20
164.50828404068639
 30
0.0
 70
    32
  0
VERTEX
  5
E7A5
  8
AM_0
 10
598.92640086992412
 20
164.5042840406866
 30
0.0
 70
    32
  0
VERTEX
  5
E7A6
  8
AM_0
 10
598.92640086992412
 20
164.4992840406866
 30
0.0
 70
    32
  0
VERTEX
  5
E7A7
  8
AM_0
 10
598.92640086992412
 20
164.4952840406865
 30
0.0
 70
    32
  0
VERTEX
  5
E7A8
  8
AM_0
 10
598.92640086992412
 20
164.49128404068671
 30
0.0
 70
    32
  0
VERTEX
  5
E7A9
  8
AM_0
 10
598.92640086992412
 20
164.4872840406866
 30
0.0
 70
    32
  0
VERTEX
  5
E7AA
  8
AM_0
 10
598.92740086992399
 20
164.48228404068661
 30
0.0
 70
    32
  0
VERTEX
  5
E7AB
  8
AM_0
 10
598.92740086992399
 20
164.47828404068639
 30
0.0
 70
    32
  0
VERTEX
  5
E7AC
  8
AM_0
 10
598.92740086992399
 20
164.4742840406868
 30
0.0
 70
    32
  0
VERTEX
  5
E7AD
  8
AM_0
 10
598.92740086992399
 20
164.4702840406861
 30
0.0
 70
    32
  0
VERTEX
  5
E7AE
  8
AM_0
 10
598.92740086992399
 20
164.4652840406869
 30
0.0
 70
    32
  0
VERTEX
  5
E7AF
  8
AM_0
 10
598.92740086992399
 20
164.46128404068639
 30
0.0
 70
    32
  0
VERTEX
  5
E7B0
  8
AM_0
 10
598.92740086992399
 20
164.4572840406866
 30
0.0
 70
    32
  0
VERTEX
  5
E7B1
  8
AM_0
 10
598.92740086992399
 20
164.45228404068661
 30
0.0
 70
    32
  0
VERTEX
  5
E7B2
  8
AM_0
 10
598.92740086992399
 20
164.44828404068639
 30
0.0
 70
    32
  0
VERTEX
  5
E7B3
  8
AM_0
 10
598.92740086992399
 20
164.44428404068671
 30
0.0
 70
    32
  0
VERTEX
  5
E7B4
  8
AM_0
 10
598.92840086992396
 20
164.44028404068649
 30
0.0
 70
    32
  0
VERTEX
  5
E7B5
  8
AM_0
 10
598.92840086992396
 20
164.4352840406865
 30
0.0
 70
    32
  0
VERTEX
  5
E7B6
  8
AM_0
 10
598.92840086992396
 20
164.43128404068639
 30
0.0
 70
    32
  0
VERTEX
  5
E7B7
  8
AM_0
 10
598.92840086992396
 20
164.4272840406868
 30
0.0
 70
    32
  0
VERTEX
  5
E7B8
  8
AM_0
 10
598.92840086992396
 20
164.42328404068661
 30
0.0
 70
    32
  0
VERTEX
  5
E7B9
  8
AM_0
 10
598.92840086992396
 20
164.41828404068681
 30
0.0
 70
    32
  0
VERTEX
  5
E7BA
  8
AM_0
 10
598.92840086992396
 20
164.41428404068631
 30
0.0
 70
    32
  0
VERTEX
  5
E7BB
  8
AM_0
 10
598.92940086992405
 20
164.41028404068661
 30
0.0
 70
    32
  0
VERTEX
  5
E7BC
  8
AM_0
 10
598.92940086992405
 20
164.4062840406865
 30
0.0
 70
    32
  0
VERTEX
  5
E7BD
  8
AM_0
 10
598.92940086992405
 20
164.40128404068679
 30
0.0
 70
    32
  0
VERTEX
  5
E7BE
  8
AM_0
 10
598.92940086992405
 20
164.3972840406866
 30
0.0
 70
    32
  0
VERTEX
  5
E7BF
  8
AM_0
 10
598.92940086992405
 20
164.39328404068669
 30
0.0
 70
    32
  0
VERTEX
  5
E7C0
  8
AM_0
 10
598.92940086992405
 20
164.3882840406869
 30
0.0
 70
    32
  0
VERTEX
  5
E7C1
  8
AM_0
 10
598.92940086992405
 20
164.3842840406864
 30
0.0
 70
    32
  0
VERTEX
  5
E7C2
  8
AM_0
 10
598.93040086992391
 20
164.3802840406866
 30
0.0
 70
    32
  0
VERTEX
  5
E7C3
  8
AM_0
 10
598.93040086992391
 20
164.37628404068681
 30
0.0
 70
    32
  0
VERTEX
  5
E7C4
  8
AM_0
 10
598.93040086992391
 20
164.37128404068679
 30
0.0
 70
    32
  0
VERTEX
  5
E7C5
  8
AM_0
 10
598.93040086992391
 20
164.36728404068651
 30
0.0
 70
    32
  0
VERTEX
  5
E7C6
  8
AM_0
 10
598.93040086992391
 20
164.36328404068649
 30
0.0
 70
    32
  0
VERTEX
  5
E7C7
  8
AM_0
 10
598.93140086992412
 20
164.35928404068639
 30
0.0
 70
    32
  0
VERTEX
  5
E7C8
  8
AM_0
 10
598.93140086992412
 20
164.35428404068671
 30
0.0
 70
    32
  0
VERTEX
  5
E7C9
  8
AM_0
 10
598.93140086992412
 20
164.35028404068649
 30
0.0
 70
    32
  0
VERTEX
  5
E7CA
  8
AM_0
 10
598.93140086992412
 20
164.3462840406867
 30
0.0
 70
    32
  0
VERTEX
  5
E7CB
  8
AM_0
 10
598.93140086992412
 20
164.34228404068671
 30
0.0
 70
    32
  0
VERTEX
  5
E7CC
  8
AM_0
 10
598.93140086992412
 20
164.33728404068631
 30
0.0
 70
    32
  0
VERTEX
  5
E7CD
  8
AM_0
 10
598.93240086992364
 20
164.33328404068661
 30
0.0
 70
    32
  0
VERTEX
  5
E7CE
  8
AM_0
 10
598.93240086992364
 20
164.32928404068679
 30
0.0
 70
    32
  0
VERTEX
  5
E7CF
  8
AM_0
 10
598.93240086992364
 20
164.3252840406866
 30
0.0
 70
    32
  0
VERTEX
  5
E7D0
  8
AM_0
 10
598.93240086992364
 20
164.3202840406866
 30
0.0
 70
    32
  0
VERTEX
  5
E7D1
  8
AM_0
 10
598.93340086992373
 20
164.3162840406867
 30
0.0
 70
    32
  0
VERTEX
  5
E7D2
  8
AM_0
 10
598.93340086992373
 20
164.31228404068651
 30
0.0
 70
    32
  0
VERTEX
  5
E7D3
  8
AM_0
 10
598.93340086992373
 20
164.3072840406864
 30
0.0
 70
    32
  0
VERTEX
  5
E7D4
  8
AM_0
 10
598.93340086992373
 20
164.30328404068649
 30
0.0
 70
    32
  0
VERTEX
  5
E7D5
  8
AM_0
 10
598.93340086992373
 20
164.29928404068659
 30
0.0
 70
    32
  0
VERTEX
  5
E7D6
  8
AM_0
 10
598.93440086992405
 20
164.29528404068651
 30
0.0
 70
    32
  0
VERTEX
  5
E7D7
  8
AM_0
 10
598.93440086992405
 20
164.29028404068649
 30
0.0
 70
    32
  0
VERTEX
  5
E7D8
  8
AM_0
 10
598.93440086992405
 20
164.2862840406867
 30
0.0
 70
    32
  0
VERTEX
  5
E7D9
  8
AM_0
 10
598.93440086992405
 20
164.28228404068659
 30
0.0
 70
    32
  0
VERTEX
  5
E7DA
  8
AM_0
 10
598.93540086992391
 20
164.2782840406866
 30
0.0
 70
    32
  0
VERTEX
  5
E7DB
  8
AM_0
 10
598.93540086992391
 20
164.27328404068649
 30
0.0
 70
    32
  0
VERTEX
  5
E7DC
  8
AM_0
 10
598.93540086992391
 20
164.2692840406865
 30
0.0
 70
    32
  0
VERTEX
  5
E7DD
  8
AM_0
 10
598.93640086992366
 20
164.26528404068631
 30
0.0
 70
    32
  0
VERTEX
  5
E7DE
  8
AM_0
 10
598.93640086992366
 20
164.2612840406866
 30
0.0
 70
    32
  0
VERTEX
  5
E7DF
  8
AM_0
 10
598.93640086992366
 20
164.2562840406865
 30
0.0
 70
    32
  0
VERTEX
  5
E7E0
  8
AM_0
 10
598.93640086992366
 20
164.25228404068659
 30
0.0
 70
    32
  0
VERTEX
  5
E7E1
  8
AM_0
 10
598.93740086992398
 20
164.24828404068651
 30
0.0
 70
    32
  0
VERTEX
  5
E7E2
  8
AM_0
 10
598.93740086992398
 20
164.24428404068681
 30
0.0
 70
    32
  0
VERTEX
  5
E7E3
  8
AM_0
 10
598.93740086992398
 20
164.2392840406867
 30
0.0
 70
    32
  0
VERTEX
  5
E7E4
  8
AM_0
 10
598.93740086992398
 20
164.23528404068671
 30
0.0
 70
    32
  0
VERTEX
  5
E7E5
  8
AM_0
 10
598.93840086992395
 20
164.2312840406866
 30
0.0
 70
    32
  0
VERTEX
  5
E7E6
  8
AM_0
 10
598.93840086992395
 20
164.22728404068641
 30
0.0
 70
    32
  0
VERTEX
  5
E7E7
  8
AM_0
 10
598.93840086992395
 20
164.2222840406865
 30
0.0
 70
    32
  0
VERTEX
  5
E7E8
  8
AM_0
 10
598.93940086992404
 20
164.2182840406866
 30
0.0
 70
    32
  0
VERTEX
  5
E7E9
  8
AM_0
 10
598.93940086992404
 20
164.21428404068649
 30
0.0
 70
    32
  0
VERTEX
  5
E7EA
  8
AM_0
 10
598.93940086992404
 20
164.2092840406865
 30
0.0
 70
    32
  0
VERTEX
  5
E7EB
  8
AM_0
 10
598.94040086992391
 20
164.20528404068659
 30
0.0
 70
    32
  0
VERTEX
  5
E7EC
  8
AM_0
 10
598.94040086992391
 20
164.2012840406864
 30
0.0
 70
    32
  0
VERTEX
  5
E7ED
  8
AM_0
 10
598.94040086992391
 20
164.1972840406865
 30
0.0
 70
    32
  0
VERTEX
  5
E7EE
  8
AM_0
 10
598.94140086992365
 20
164.1922840406865
 30
0.0
 70
    32
  0
VERTEX
  5
E7EF
  8
AM_0
 10
598.94140086992365
 20
164.18828404068671
 30
0.0
 70
    32
  0
VERTEX
  5
E7F0
  8
AM_0
 10
598.94140086992365
 20
164.18428404068689
 30
0.0
 70
    32
  0
VERTEX
  5
E7F1
  8
AM_0
 10
598.94240086992397
 20
164.18028404068659
 30
0.0
 70
    32
  0
VERTEX
  5
E7F2
  8
AM_0
 10
598.94240086992397
 20
164.17528404068639
 30
0.0
 70
    32
  0
VERTEX
  5
E7F3
  8
AM_0
 10
598.94240086992397
 20
164.1712840406866
 30
0.0
 70
    32
  0
VERTEX
  5
E7F4
  8
AM_0
 10
598.94340086992383
 20
164.1672840406865
 30
0.0
 70
    32
  0
VERTEX
  5
E7F5
  8
AM_0
 10
598.94340086992383
 20
164.1632840406867
 30
0.0
 70
    32
  0
VERTEX
  5
E7F6
  8
AM_0
 10
598.94340086992383
 20
164.15828404068651
 30
0.0
 70
    32
  0
VERTEX
  5
E7F7
  8
AM_0
 10
598.94440086992404
 20
164.15428404068641
 30
0.0
 70
    32
  0
VERTEX
  5
E7F8
  8
AM_0
 10
598.94440086992404
 20
164.15028404068681
 30
0.0
 70
    32
  0
VERTEX
  5
E7F9
  8
AM_0
 10
598.94540086992379
 20
164.14628404068679
 30
0.0
 70
    32
  0
VERTEX
  5
E7FA
  8
AM_0
 10
598.94540086992379
 20
164.14128404068671
 30
0.0
 70
    32
  0
VERTEX
  5
E7FB
  8
AM_0
 10
598.94540086992379
 20
164.13728404068689
 30
0.0
 70
    32
  0
VERTEX
  5
E7FC
  8
AM_0
 10
598.9464008699241
 20
164.13328404068659
 30
0.0
 70
    32
  0
VERTEX
  5
E7FD
  8
AM_0
 10
598.9464008699241
 20
164.1292840406868
 30
0.0
 70
    32
  0
VERTEX
  5
E7FE
  8
AM_0
 10
598.94740086992385
 20
164.1242840406864
 30
0.0
 70
    32
  0
VERTEX
  5
E7FF
  8
AM_0
 10
598.94740086992385
 20
164.12028404068681
 30
0.0
 70
    32
  0
VERTEX
  5
E800
  8
AM_0
 10
598.94740086992385
 20
164.11628404068671
 30
0.0
 70
    32
  0
VERTEX
  5
E801
  8
AM_0
 10
598.94840086992428
 20
164.1122840406866
 30
0.0
 70
    32
  0
VERTEX
  5
E802
  8
AM_0
 10
598.94840086992428
 20
164.10728404068661
 30
0.0
 70
    32
  0
VERTEX
  5
E803
  8
AM_0
 10
598.94940086992403
 20
164.10328404068679
 30
0.0
 70
    32
  0
VERTEX
  5
E804
  8
AM_0
 10
598.94940086992403
 20
164.0992840406868
 30
0.0
 70
    32
  0
VERTEX
  5
E805
  8
AM_0
 10
598.95040086992367
 20
164.09528404068669
 30
0.0
 70
    32
  0
VERTEX
  5
E806
  8
AM_0
 10
598.95040086992367
 20
164.09028404068681
 30
0.0
 70
    32
  0
VERTEX
  5
E807
  8
AM_0
 10
598.95040086992367
 20
164.08628404068671
 30
0.0
 70
    32
  0
VERTEX
  5
E808
  8
AM_0
 10
598.9514008699241
 20
164.0822840406866
 30
0.0
 70
    32
  0
VERTEX
  5
E809
  8
AM_0
 10
598.9514008699241
 20
164.07828404068661
 30
0.0
 70
    32
  0
VERTEX
  5
E80A
  8
AM_0
 10
598.95240086992385
 20
164.07328404068679
 30
0.0
 70
    32
  0
VERTEX
  5
E80B
  8
AM_0
 10
598.95240086992385
 20
164.06928404068651
 30
0.0
 70
    32
  0
VERTEX
  5
E80C
  8
AM_0
 10
598.95340086992383
 20
164.06528404068649
 30
0.0
 70
    32
  0
VERTEX
  5
E80D
  8
AM_0
 10
598.95340086992383
 20
164.06128404068659
 30
0.0
 70
    32
  0
VERTEX
  5
E80E
  8
AM_0
 10
598.95440086992403
 20
164.0572840406866
 30
0.0
 70
    32
  0
VERTEX
  5
E80F
  8
AM_0
 10
598.95440086992403
 20
164.0522840406866
 30
0.0
 70
    32
  0
VERTEX
  5
E810
  8
AM_0
 10
598.95540086992423
 20
164.0482840406865
 30
0.0
 70
    32
  0
VERTEX
  5
E811
  8
AM_0
 10
598.95540086992423
 20
164.04428404068651
 30
0.0
 70
    32
  0
VERTEX
  5
E812
  8
AM_0
 10
598.95640086992398
 20
164.04028404068649
 30
0.0
 70
    32
  0
VERTEX
  5
E813
  8
AM_0
 10
598.95640086992398
 20
164.03528404068661
 30
0.0
 70
    32
  0
VERTEX
  5
E814
  8
AM_0
 10
598.95740086992419
 20
164.03128404068659
 30
0.0
 70
    32
  0
VERTEX
  5
E815
  8
AM_0
 10
598.95740086992419
 20
164.0272840406866
 30
0.0
 70
    32
  0
VERTEX
  5
E816
  8
AM_0
 10
598.95840086992416
 20
164.0232840406868
 30
0.0
 70
    32
  0
VERTEX
  5
E817
  8
AM_0
 10
598.95840086992416
 20
164.01828404068669
 30
0.0
 70
    32
  0
VERTEX
  5
E818
  8
AM_0
 10
598.9594008699238
 20
164.0142840406865
 30
0.0
 70
    32
  0
VERTEX
  5
E819
  8
AM_0
 10
598.9594008699238
 20
164.0102840406866
 30
0.0
 70
    32
  0
VERTEX
  5
E81A
  8
AM_0
 10
598.96040086992366
 20
164.00628404068641
 30
0.0
 70
    32
  0
VERTEX
  5
E81B
  8
AM_0
 10
598.96040086992366
 20
164.00128404068681
 30
0.0
 70
    32
  0
VERTEX
  5
E81C
  8
AM_0
 10
598.96140086992386
 20
163.99728404068659
 30
0.0
 70
    32
  0
VERTEX
  5
E81D
  8
AM_0
 10
598.96140086992386
 20
163.99328404068649
 30
0.0
 70
    32
  0
VERTEX
  5
E81E
  8
AM_0
 10
598.96240086992384
 20
163.98928404068661
 30
0.0
 70
    32
  0
VERTEX
  5
E81F
  8
AM_0
 10
598.96240086992384
 20
163.98428404068659
 30
0.0
 70
    32
  0
VERTEX
  5
E820
  8
AM_0
 10
598.96340086992382
 20
163.9802840406866
 30
0.0
 70
    32
  0
VERTEX
  5
E821
  8
AM_0
 10
598.96340086992382
 20
163.97628404068649
 30
0.0
 70
    32
  0
VERTEX
  5
E822
  8
AM_0
 10
598.96440086992402
 20
163.97228404068659
 30
0.0
 70
    32
  0
VERTEX
  5
E823
  8
AM_0
 10
598.96440086992402
 20
163.96828404068671
 30
0.0
 70
    32
  0
VERTEX
  5
E824
  8
AM_0
 10
598.96540086992388
 20
163.96328404068689
 30
0.0
 70
    32
  0
VERTEX
  5
E825
  8
AM_0
 10
598.96640086992386
 20
163.95928404068661
 30
0.0
 70
    32
  0
VERTEX
  5
E826
  8
AM_0
 10
598.96640086992386
 20
163.95528404068659
 30
0.0
 70
    32
  0
VERTEX
  5
E827
  8
AM_0
 10
598.96740086992384
 20
163.95128404068649
 30
0.0
 70
    32
  0
VERTEX
  5
E828
  8
AM_0
 10
598.96740086992384
 20
163.94628404068681
 30
0.0
 70
    32
  0
VERTEX
  5
E829
  8
AM_0
 10
598.96840086992404
 20
163.94228404068659
 30
0.0
 70
    32
  0
VERTEX
  5
E82A
  8
AM_0
 10
598.96840086992404
 20
163.9382840406866
 30
0.0
 70
    32
  0
VERTEX
  5
E82B
  8
AM_0
 10
598.96940086992402
 20
163.93428404068641
 30
0.0
 70
    32
  0
VERTEX
  5
E82C
  8
AM_0
 10
598.97040086992388
 20
163.9292840406865
 30
0.0
 70
    32
  0
VERTEX
  5
E82D
  8
AM_0
 10
598.97040086992388
 20
163.92528404068679
 30
0.0
 70
    32
  0
VERTEX
  5
E82E
  8
AM_0
 10
598.97140086992385
 20
163.92128404068669
 30
0.0
 70
    32
  0
VERTEX
  5
E82F
  8
AM_0
 10
598.97140086992385
 20
163.91728404068661
 30
0.0
 70
    32
  0
VERTEX
  5
E830
  8
AM_0
 10
598.97240086992383
 20
163.91328404068659
 30
0.0
 70
    32
  0
VERTEX
  5
E831
  8
AM_0
 10
598.97340086992381
 20
163.90828404068679
 30
0.0
 70
    32
  0
VERTEX
  5
E832
  8
AM_0
 10
598.97340086992381
 20
163.90428404068649
 30
0.0
 70
    32
  0
VERTEX
  5
E833
  8
AM_0
 10
598.97440086992401
 20
163.9002840406867
 30
0.0
 70
    32
  0
VERTEX
  5
E834
  8
AM_0
 10
598.97440086992401
 20
163.89628404068691
 30
0.0
 70
    32
  0
VERTEX
  5
E835
  8
AM_0
 10
598.97540086992421
 20
163.8912840406866
 30
0.0
 70
    32
  0
VERTEX
  5
E836
  8
AM_0
 10
598.97640086992385
 20
163.88728404068641
 30
0.0
 70
    32
  0
VERTEX
  5
E837
  8
AM_0
 10
598.97640086992385
 20
163.88328404068659
 30
0.0
 70
    32
  0
VERTEX
  5
E838
  8
AM_0
 10
598.97740086992383
 20
163.87928404068671
 30
0.0
 70
    32
  0
VERTEX
  5
E839
  8
AM_0
 10
598.97840086992414
 20
163.87528404068669
 30
0.0
 70
    32
  0
VERTEX
  5
E83A
  8
AM_0
 10
598.97840086992414
 20
163.8702840406865
 30
0.0
 70
    32
  0
VERTEX
  5
E83B
  8
AM_0
 10
598.97940086992401
 20
163.86628404068659
 30
0.0
 70
    32
  0
VERTEX
  5
E83C
  8
AM_0
 10
598.97940086992401
 20
163.8622840406868
 30
0.0
 70
    32
  0
VERTEX
  5
E83D
  8
AM_0
 10
598.98040086992421
 20
163.85828404068681
 30
0.0
 70
    32
  0
VERTEX
  5
E83E
  8
AM_0
 10
598.98140086992407
 20
163.8532840406867
 30
0.0
 70
    32
  0
VERTEX
  5
E83F
  8
AM_0
 10
598.98140086992407
 20
163.8492840406868
 30
0.0
 70
    32
  0
VERTEX
  5
E840
  8
AM_0
 10
598.98240086992382
 20
163.84528404068669
 30
0.0
 70
    32
  0
VERTEX
  5
E841
  8
AM_0
 10
598.98340086992368
 20
163.84128404068659
 30
0.0
 70
    32
  0
VERTEX
  5
E842
  8
AM_0
 10
598.98340086992368
 20
163.8372840406866
 30
0.0
 70
    32
  0
VERTEX
  5
E843
  8
AM_0
 10
598.984400869924
 20
163.8322840406868
 30
0.0
 70
    32
  0
VERTEX
  5
E844
  8
AM_0
 10
598.98540086992421
 20
163.8282840406865
 30
0.0
 70
    32
  0
VERTEX
  5
E845
  8
AM_0
 10
598.98540086992421
 20
163.82428404068651
 30
0.0
 70
    32
  0
VERTEX
  5
E846
  8
AM_0
 10
598.98640086992373
 20
163.8202840406868
 30
0.0
 70
    32
  0
VERTEX
  5
E847
  8
AM_0
 10
598.98740086992382
 20
163.81528404068649
 30
0.0
 70
    32
  0
VERTEX
  5
E848
  8
AM_0
 10
598.98740086992382
 20
163.81128404068679
 30
0.0
 70
    32
  0
VERTEX
  5
E849
  8
AM_0
 10
598.98840086992413
 20
163.80728404068651
 30
0.0
 70
    32
  0
VERTEX
  5
E84A
  8
AM_0
 10
598.989400869924
 20
163.80328404068649
 30
0.0
 70
    32
  0
VERTEX
  5
E84B
  8
AM_0
 10
598.99040086992375
 20
163.79928404068639
 30
0.0
 70
    32
  0
VERTEX
  5
E84C
  8
AM_0
 10
598.99040086992375
 20
163.79428404068659
 30
0.0
 70
    32
  0
VERTEX
  5
E84D
  8
AM_0
 10
598.99140086992384
 20
163.7902840406866
 30
0.0
 70
    32
  0
VERTEX
  5
E84E
  8
AM_0
 10
598.99240086992381
 20
163.78628404068661
 30
0.0
 70
    32
  0
VERTEX
  5
E84F
  8
AM_0
 10
598.99240086992381
 20
163.7822840406869
 30
0.0
 70
    32
  0
VERTEX
  5
E850
  8
AM_0
 10
598.99340086992413
 20
163.7782840406864
 30
0.0
 70
    32
  0
VERTEX
  5
E851
  8
AM_0
 10
598.99440086992388
 20
163.77328404068669
 30
0.0
 70
    32
  0
VERTEX
  5
E852
  8
AM_0
 10
598.99540086992374
 20
163.76928404068661
 30
0.0
 70
    32
  0
VERTEX
  5
E853
  8
AM_0
 10
598.99540086992374
 20
163.76528404068651
 30
0.0
 70
    32
  0
VERTEX
  5
E854
  8
AM_0
 10
598.99640086992395
 20
163.76128404068649
 30
0.0
 70
    32
  0
VERTEX
  5
E855
  8
AM_0
 10
598.99740086992369
 20
163.7572840406867
 30
0.0
 70
    32
  0
VERTEX
  5
E856
  8
AM_0
 10
598.99840086992413
 20
163.7522840406865
 30
0.0
 70
    32
  0
VERTEX
  5
E857
  8
AM_0
 10
598.99840086992413
 20
163.7482840406864
 30
0.0
 70
    32
  0
VERTEX
  5
E858
  8
AM_0
 10
598.99940086992376
 20
163.74428404068681
 30
0.0
 70
    32
  0
VERTEX
  5
E859
  8
AM_0
 10
599.00040086992374
 20
163.7402840406867
 30
0.0
 70
    32
  0
VERTEX
  5
E85A
  8
AM_0
 10
599.00140086992405
 20
163.73628404068651
 30
0.0
 70
    32
  0
VERTEX
  5
E85B
  8
AM_0
 10
599.00140086992405
 20
163.73128404068629
 30
0.0
 70
    32
  0
VERTEX
  5
E85C
  8
AM_0
 10
599.00240086992426
 20
163.7272840406867
 30
0.0
 70
    32
  0
VERTEX
  5
E85D
  8
AM_0
 10
599.00340086992378
 20
163.72328404068659
 30
0.0
 70
    32
  0
VERTEX
  5
E85E
  8
AM_0
 10
599.00440086992376
 20
163.7192840406866
 30
0.0
 70
    32
  0
VERTEX
  5
E85F
  8
AM_0
 10
599.00440086992376
 20
163.71528404068681
 30
0.0
 70
    32
  0
VERTEX
  5
E860
  8
AM_0
 10
599.00540086992407
 20
163.7102840406867
 30
0.0
 70
    32
  0
VERTEX
  5
E861
  8
AM_0
 10
599.00640086992405
 20
163.70628404068671
 30
0.0
 70
    32
  0
VERTEX
  5
E862
  8
AM_0
 10
599.00740086992391
 20
163.70228404068661
 30
0.0
 70
    32
  0
VERTEX
  5
E863
  8
AM_0
 10
599.00840086992412
 20
163.6982840406863
 30
0.0
 70
    32
  0
VERTEX
  5
E864
  8
AM_0
 10
599.00840086992412
 20
163.69428404068651
 30
0.0
 70
    32
  0
VERTEX
  5
E865
  8
AM_0
 10
599.00940086992364
 20
163.68928404068669
 30
0.0
 70
    32
  0
VERTEX
  5
E866
  8
AM_0
 10
599.01040086992373
 20
163.6852840406865
 30
0.0
 70
    32
  0
VERTEX
  5
E867
  8
AM_0
 10
599.01140086992405
 20
163.68128404068659
 30
0.0
 70
    32
  0
VERTEX
  5
E868
  8
AM_0
 10
599.01240086992391
 20
163.6772840406866
 30
0.0
 70
    32
  0
VERTEX
  5
E869
  8
AM_0
 10
599.01240086992391
 20
163.6732840406865
 30
0.0
 70
    32
  0
VERTEX
  5
E86A
  8
AM_0
 10
599.01340086992377
 20
163.6682840406865
 30
0.0
 70
    32
  0
VERTEX
  5
E86B
  8
AM_0
 10
599.01440086992375
 20
163.66428404068671
 30
0.0
 70
    32
  0
VERTEX
  5
E86C
  8
AM_0
 10
599.01540086992395
 20
163.66028404068649
 30
0.0
 70
    32
  0
VERTEX
  5
E86D
  8
AM_0
 10
599.01640086992404
 20
163.65628404068639
 30
0.0
 70
    32
  0
VERTEX
  5
E86E
  8
AM_0
 10
599.0174008699239
 20
163.6522840406866
 30
0.0
 70
    32
  0
VERTEX
  5
E86F
  8
AM_0
 10
599.0174008699239
 20
163.6482840406868
 30
0.0
 70
    32
  0
VERTEX
  5
E870
  8
AM_0
 10
599.01840086992365
 20
163.6432840406865
 30
0.0
 70
    32
  0
VERTEX
  5
E871
  8
AM_0
 10
599.01940086992397
 20
163.6392840406867
 30
0.0
 70
    32
  0
VERTEX
  5
E872
  8
AM_0
 10
599.02040086992395
 20
163.6352840406864
 30
0.0
 70
    32
  0
VERTEX
  5
E873
  8
AM_0
 10
599.02140086992404
 20
163.6312840406865
 30
0.0
 70
    32
  0
VERTEX
  5
E874
  8
AM_0
 10
599.02240086992424
 20
163.62728404068659
 30
0.0
 70
    32
  0
VERTEX
  5
E875
  8
AM_0
 10
599.0234008699241
 20
163.62228404068671
 30
0.0
 70
    32
  0
VERTEX
  5
E876
  8
AM_0
 10
599.0234008699241
 20
163.61828404068649
 30
0.0
 70
    32
  0
VERTEX
  5
E877
  8
AM_0
 10
599.02440086992397
 20
163.61428404068661
 30
0.0
 70
    32
  0
VERTEX
  5
E878
  8
AM_0
 10
599.02540086992406
 20
163.61028404068659
 30
0.0
 70
    32
  0
VERTEX
  5
E879
  8
AM_0
 10
599.02640086992403
 20
163.60628404068649
 30
0.0
 70
    32
  0
VERTEX
  5
E87A
  8
AM_0
 10
599.02740086992378
 20
163.6022840406867
 30
0.0
 70
    32
  0
VERTEX
  5
E87B
  8
AM_0
 10
599.0284008699241
 20
163.59728404068659
 30
0.0
 70
    32
  0
VERTEX
  5
E87C
  8
AM_0
 10
599.02940086992396
 20
163.5932840406866
 30
0.0
 70
    32
  0
VERTEX
  5
E87D
  8
AM_0
 10
599.03040086992382
 20
163.58928404068661
 30
0.0
 70
    32
  0
VERTEX
  5
E87E
  8
AM_0
 10
599.03140086992403
 20
163.58528404068659
 30
0.0
 70
    32
  0
VERTEX
  5
E87F
  8
AM_0
 10
599.03140086992403
 20
163.58128404068671
 30
0.0
 70
    32
  0
VERTEX
  5
E880
  8
AM_0
 10
599.03240086992344
 20
163.57728404068669
 30
0.0
 70
    32
  0
VERTEX
  5
E881
  8
AM_0
 10
599.03340086992409
 20
163.5722840406865
 30
0.0
 70
    32
  0
VERTEX
  5
E882
  8
AM_0
 10
599.03440086992384
 20
163.56828404068639
 30
0.0
 70
    32
  0
VERTEX
  5
E883
  8
AM_0
 10
599.03540086992427
 20
163.5642840406868
 30
0.0
 70
    32
  0
VERTEX
  5
E884
  8
AM_0
 10
599.0364008699238
 20
163.5602840406865
 30
0.0
 70
    32
  0
VERTEX
  5
E885
  8
AM_0
 10
599.03740086992366
 20
163.55628404068651
 30
0.0
 70
    32
  0
VERTEX
  5
E886
  8
AM_0
 10
599.03840086992409
 20
163.55228404068669
 30
0.0
 70
    32
  0
VERTEX
  5
E887
  8
AM_0
 10
599.03940086992384
 20
163.54728404068669
 30
0.0
 70
    32
  0
VERTEX
  5
E888
  8
AM_0
 10
599.04040086992381
 20
163.54328404068659
 30
0.0
 70
    32
  0
VERTEX
  5
E889
  8
AM_0
 10
599.04140086992379
 20
163.5392840406866
 30
0.0
 70
    32
  0
VERTEX
  5
E88A
  8
AM_0
 10
599.04240086992422
 20
163.53528404068649
 30
0.0
 70
    32
  0
VERTEX
  5
E88B
  8
AM_0
 10
599.04340086992397
 20
163.5312840406865
 30
0.0
 70
    32
  0
VERTEX
  5
E88C
  8
AM_0
 10
599.04440086992383
 20
163.52728404068671
 30
0.0
 70
    32
  0
VERTEX
  5
E88D
  8
AM_0
 10
599.04540086992404
 20
163.5222840406866
 30
0.0
 70
    32
  0
VERTEX
  5
E88E
  8
AM_0
 10
599.04640086992401
 20
163.51828404068661
 30
0.0
 70
    32
  0
VERTEX
  5
E88F
  8
AM_0
 10
599.04740086992365
 20
163.51428404068679
 30
0.0
 70
    32
  0
VERTEX
  5
E890
  8
AM_0
 10
599.04840086992385
 20
163.51028404068629
 30
0.0
 70
    32
  0
VERTEX
  5
E891
  8
AM_0
 10
599.04940086992383
 20
163.50628404068669
 30
0.0
 70
    32
  0
VERTEX
  5
E892
  8
AM_0
 10
599.05040086992381
 20
163.50228404068659
 30
0.0
 70
    32
  0
VERTEX
  5
E893
  8
AM_0
 10
599.05140086992401
 20
163.4982840406866
 30
0.0
 70
    32
  0
VERTEX
  5
E894
  8
AM_0
 10
599.0524008699241
 20
163.49328404068649
 30
0.0
 70
    32
  0
VERTEX
  5
E895
  8
AM_0
 10
599.05340086992385
 20
163.48928404068661
 30
0.0
 70
    32
  0
VERTEX
  5
E896
  8
AM_0
 10
599.05440086992382
 20
163.48528404068639
 30
0.0
 70
    32
  0
VERTEX
  5
E897
  8
AM_0
 10
599.05540086992414
 20
163.4812840406866
 30
0.0
 70
    32
  0
VERTEX
  5
E898
  8
AM_0
 10
599.056400869924
 20
163.47728404068641
 30
0.0
 70
    32
  0
VERTEX
  5
E899
  8
AM_0
 10
599.05740086992387
 20
163.47328404068671
 30
0.0
 70
    32
  0
VERTEX
  5
E89A
  8
AM_0
 10
599.05840086992384
 20
163.46828404068651
 30
0.0
 70
    32
  0
VERTEX
  5
E89B
  8
AM_0
 10
599.05940086992337
 20
163.46428404068649
 30
0.0
 70
    32
  0
VERTEX
  5
E89C
  8
AM_0
 10
599.0604008699238
 20
163.4602840406867
 30
0.0
 70
    32
  0
VERTEX
  5
E89D
  8
AM_0
 10
599.061400869924
 20
163.4562840406866
 30
0.0
 70
    32
  0
VERTEX
  5
E89E
  8
AM_0
 10
599.0624008699242
 20
163.45228404068661
 30
0.0
 70
    32
  0
VERTEX
  5
E89F
  8
AM_0
 10
599.06340086992373
 20
163.4482840406865
 30
0.0
 70
    32
  0
VERTEX
  5
E8A0
  8
AM_0
 10
599.06440086992382
 20
163.4442840406866
 30
0.0
 70
    32
  0
VERTEX
  5
E8A1
  8
AM_0
 10
599.06540086992413
 20
163.44028404068661
 30
0.0
 70
    32
  0
VERTEX
  5
E8A2
  8
AM_0
 10
599.066400869924
 20
163.43528404068641
 30
0.0
 70
    32
  0
VERTEX
  5
E8A3
  8
AM_0
 10
599.06740086992374
 20
163.43128404068659
 30
0.0
 70
    32
  0
VERTEX
  5
E8A4
  8
AM_0
 10
599.06840086992383
 20
163.4272840406868
 30
0.0
 70
    32
  0
VERTEX
  5
E8A5
  8
AM_0
 10
599.07040086992367
 20
163.4232840406867
 30
0.0
 70
    32
  0
VERTEX
  5
E8A6
  8
AM_0
 10
599.07140086992399
 20
163.41928404068659
 30
0.0
 70
    32
  0
VERTEX
  5
E8A7
  8
AM_0
 10
599.07240086992374
 20
163.4152840406864
 30
0.0
 70
    32
  0
VERTEX
  5
E8A8
  8
AM_0
 10
599.07340086992406
 20
163.4112840406865
 30
0.0
 70
    32
  0
VERTEX
  5
E8A9
  8
AM_0
 10
599.07440086992381
 20
163.40728404068679
 30
0.0
 70
    32
  0
VERTEX
  5
E8AA
  8
AM_0
 10
599.07540086992412
 20
163.40228404068651
 30
0.0
 70
    32
  0
VERTEX
  5
E8AB
  8
AM_0
 10
599.07640086992387
 20
163.39828404068669
 30
0.0
 70
    32
  0
VERTEX
  5
E8AC
  8
AM_0
 10
599.07740086992374
 20
163.39428404068639
 30
0.0
 70
    32
  0
VERTEX
  5
E8AD
  8
AM_0
 10
599.07840086992405
 20
163.39028404068651
 30
0.0
 70
    32
  0
VERTEX
  5
E8AE
  8
AM_0
 10
599.08040086992412
 20
163.38628404068669
 30
0.0
 70
    32
  0
VERTEX
  5
E8AF
  8
AM_0
 10
599.08140086992375
 20
163.3822840406865
 30
0.0
 70
    32
  0
VERTEX
  5
E8B0
  8
AM_0
 10
599.08240086992419
 20
163.37828404068671
 30
0.0
 70
    32
  0
VERTEX
  5
E8B1
  8
AM_0
 10
599.08340086992405
 20
163.37428404068649
 30
0.0
 70
    32
  0
VERTEX
  5
E8B2
  8
AM_0
 10
599.08440086992425
 20
163.36928404068681
 30
0.0
 70
    32
  0
VERTEX
  5
E8B3
  8
AM_0
 10
599.08540086992411
 20
163.3652840406865
 30
0.0
 70
    32
  0
VERTEX
  5
E8B4
  8
AM_0
 10
599.08640086992364
 20
163.36128404068671
 30
0.0
 70
    32
  0
VERTEX
  5
E8B5
  8
AM_0
 10
599.08840086992404
 20
163.35728404068661
 30
0.0
 70
    32
  0
VERTEX
  5
E8B6
  8
AM_0
 10
599.08940086992425
 20
163.35328404068659
 30
0.0
 70
    32
  0
VERTEX
  5
E8B7
  8
AM_0
 10
599.09040086992377
 20
163.3492840406868
 30
0.0
 70
    32
  0
VERTEX
  5
E8B8
  8
AM_0
 10
599.09140086992375
 20
163.34528404068669
 30
0.0
 70
    32
  0
VERTEX
  5
E8B9
  8
AM_0
 10
599.09240086992406
 20
163.3412840406867
 30
0.0
 70
    32
  0
VERTEX
  5
E8BA
  8
AM_0
 10
599.09340086992404
 20
163.3372840406864
 30
0.0
 70
    32
  0
VERTEX
  5
E8BB
  8
AM_0
 10
599.09540086992376
 20
163.33328404068649
 30
0.0
 70
    32
  0
VERTEX
  5
E8BC
  8
AM_0
 10
599.09640086992385
 20
163.32828404068661
 30
0.0
 70
    32
  0
VERTEX
  5
E8BD
  8
AM_0
 10
599.09740086992383
 20
163.32428404068651
 30
0.0
 70
    32
  0
VERTEX
  5
E8BE
  8
AM_0
 10
599.09840086992403
 20
163.32028404068689
 30
0.0
 70
    32
  0
VERTEX
  5
E8BF
  8
AM_0
 10
599.0994008699239
 20
163.31628404068641
 30
0.0
 70
    32
  0
VERTEX
  5
E8C0
  8
AM_0
 10
599.10140086992385
 20
163.31228404068659
 30
0.0
 70
    32
  0
VERTEX
  5
E8C1
  8
AM_0
 10
599.10240086992405
 20
163.3082840406866
 30
0.0
 70
    32
  0
VERTEX
  5
E8C2
  8
AM_0
 10
599.10340086992403
 20
163.3042840406865
 30
0.0
 70
    32
  0
VERTEX
  5
E8C3
  8
AM_0
 10
599.10440086992389
 20
163.30028404068651
 30
0.0
 70
    32
  0
VERTEX
  5
E8C4
  8
AM_0
 10
599.10640086992396
 20
163.2962840406866
 30
0.0
 70
    32
  0
VERTEX
  5
E8C5
  8
AM_0
 10
599.10740086992382
 20
163.29228404068661
 30
0.0
 70
    32
  0
VERTEX
  5
E8C6
  8
AM_0
 10
599.10840086992403
 20
163.28828404068659
 30
0.0
 70
    32
  0
VERTEX
  5
E8C7
  8
AM_0
 10
599.10940086992423
 20
163.28328404068671
 30
0.0
 70
    32
  0
VERTEX
  5
E8C8
  8
AM_0
 10
599.11140086992395
 20
163.27928404068669
 30
0.0
 70
    32
  0
VERTEX
  5
E8C9
  8
AM_0
 10
599.11240086992404
 20
163.27528404068661
 30
0.0
 70
    32
  0
VERTEX
  5
E8CA
  8
AM_0
 10
599.11340086992357
 20
163.27128404068679
 30
0.0
 70
    32
  0
VERTEX
  5
E8CB
  8
AM_0
 10
599.11440086992377
 20
163.2672840406866
 30
0.0
 70
    32
  0
VERTEX
  5
E8CC
  8
AM_0
 10
599.11640086992384
 20
163.26328404068681
 30
0.0
 70
    32
  0
VERTEX
  5
E8CD
  8
AM_0
 10
599.11740086992381
 20
163.25928404068671
 30
0.0
 70
    32
  0
VERTEX
  5
E8CE
  8
AM_0
 10
599.11840086992402
 20
163.2552840406866
 30
0.0
 70
    32
  0
VERTEX
  5
E8CF
  8
AM_0
 10
599.11940086992422
 20
163.25128404068681
 30
0.0
 70
    32
  0
VERTEX
  5
E8D0
  8
AM_0
 10
599.12140086992383
 20
163.24728404068671
 30
0.0
 70
    32
  0
VERTEX
  5
E8D1
  8
AM_0
 10
599.12240086992404
 20
163.24328404068649
 30
0.0
 70
    32
  0
VERTEX
  5
E8D2
  8
AM_0
 10
599.1234008699239
 20
163.2392840406867
 30
0.0
 70
    32
  0
VERTEX
  5
E8D3
  8
AM_0
 10
599.12540086992396
 20
163.23528404068659
 30
0.0
 70
    32
  0
VERTEX
  5
E8D4
  8
AM_0
 10
599.12640086992383
 20
163.2302840406866
 30
0.0
 70
    32
  0
VERTEX
  5
E8D5
  8
AM_0
 10
599.1274008699238
 20
163.22628404068649
 30
0.0
 70
    32
  0
VERTEX
  5
E8D6
  8
AM_0
 10
599.12940086992421
 20
163.2222840406863
 30
0.0
 70
    32
  0
VERTEX
  5
E8D7
  8
AM_0
 10
599.13040086992385
 20
163.21828404068671
 30
0.0
 70
    32
  0
VERTEX
  5
E8D8
  8
AM_0
 10
599.13140086992382
 20
163.21428404068661
 30
0.0
 70
    32
  0
VERTEX
  5
E8D9
  8
AM_0
 10
599.133400869924
 20
163.21028404068659
 30
0.0
 70
    32
  0
VERTEX
  5
E8DA
  8
AM_0
 10
599.13440086992375
 20
163.2062840406868
 30
0.0
 70
    32
  0
VERTEX
  5
E8DB
  8
AM_0
 10
599.13540086992396
 20
163.20228404068641
 30
0.0
 70
    32
  0
VERTEX
  5
E8DC
  8
AM_0
 10
599.13740086992379
 20
163.1982840406867
 30
0.0
 70
    32
  0
VERTEX
  5
E8DD
  8
AM_0
 10
599.138400869924
 20
163.1942840406864
 30
0.0
 70
    32
  0
VERTEX
  5
E8DE
  8
AM_0
 10
599.13940086992397
 20
163.19028404068661
 30
0.0
 70
    32
  0
VERTEX
  5
E8DF
  8
AM_0
 10
599.14140086992381
 20
163.18628404068679
 30
0.0
 70
    32
  0
VERTEX
  5
E8E0
  8
AM_0
 10
599.14240086992413
 20
163.1822840406864
 30
0.0
 70
    32
  0
VERTEX
  5
E8E1
  8
AM_0
 10
599.14340086992399
 20
163.17828404068649
 30
0.0
 70
    32
  0
VERTEX
  5
E8E2
  8
AM_0
 10
599.14540086992361
 20
163.1742840406865
 30
0.0
 70
    32
  0
VERTEX
  5
E8E3
  8
AM_0
 10
599.14640086992381
 20
163.1702840406864
 30
0.0
 70
    32
  0
VERTEX
  5
E8E4
  8
AM_0
 10
599.14840086992399
 20
163.16628404068689
 30
0.0
 70
    32
  0
VERTEX
  5
E8E5
  8
AM_0
 10
599.14940086992397
 20
163.16228404068659
 30
0.0
 70
    32
  0
VERTEX
  5
E8E6
  8
AM_0
 10
599.15040086992406
 20
163.1582840406866
 30
0.0
 70
    32
  0
VERTEX
  5
E8E7
  8
AM_0
 10
599.15240086992412
 20
163.15428404068649
 30
0.0
 70
    32
  0
VERTEX
  5
E8E8
  8
AM_0
 10
599.15340086992398
 20
163.1502840406863
 30
0.0
 70
    32
  0
VERTEX
  5
E8E9
  8
AM_0
 10
599.15540086992405
 20
163.14628404068691
 30
0.0
 70
    32
  0
VERTEX
  5
E8EA
  8
AM_0
 10
599.1564008699238
 20
163.1422840406868
 30
0.0
 70
    32
  0
VERTEX
  5
E8EB
  8
AM_0
 10
599.15740086992366
 20
163.13828404068681
 30
0.0
 70
    32
  0
VERTEX
  5
E8EC
  8
AM_0
 10
599.15940086992418
 20
163.13428404068671
 30
0.0
 70
    32
  0
VERTEX
  5
E8ED
  8
AM_0
 10
599.16040086992405
 20
163.13028404068669
 30
0.0
 70
    32
  0
VERTEX
  5
E8EE
  8
AM_0
 10
599.16240086992411
 20
163.12528404068669
 30
0.0
 70
    32
  0
VERTEX
  5
E8EF
  8
AM_0
 10
599.16340086992363
 20
163.1212840406867
 30
0.0
 70
    32
  0
VERTEX
  5
E8F0
  8
AM_0
 10
599.16540086992404
 20
163.1172840406868
 30
0.0
 70
    32
  0
VERTEX
  5
E8F1
  8
AM_0
 10
599.16640086992368
 20
163.11328404068661
 30
0.0
 70
    32
  0
VERTEX
  5
E8F2
  8
AM_0
 10
599.16840086992374
 20
163.1092840406863
 30
0.0
 70
    32
  0
VERTEX
  5
E8F3
  8
AM_0
 10
599.16940086992417
 20
163.10528404068671
 30
0.0
 70
    32
  0
VERTEX
  5
E8F4
  8
AM_0
 10
599.1714008699239
 20
163.10128404068661
 30
0.0
 70
    32
  0
VERTEX
  5
E8F5
  8
AM_0
 10
599.17240086992365
 20
163.0972840406865
 30
0.0
 70
    32
  0
VERTEX
  5
E8F6
  8
AM_0
 10
599.17440086992383
 20
163.09328404068671
 30
0.0
 70
    32
  0
VERTEX
  5
E8F7
  8
AM_0
 10
599.17540086992403
 20
163.08928404068649
 30
0.0
 70
    32
  0
VERTEX
  5
E8F8
  8
AM_0
 10
599.17740086992387
 20
163.08528404068659
 30
0.0
 70
    32
  0
VERTEX
  5
E8F9
  8
AM_0
 10
599.17840086992385
 20
163.0812840406868
 30
0.0
 70
    32
  0
VERTEX
  5
E8FA
  8
AM_0
 10
599.18040086992403
 20
163.07728404068649
 30
0.0
 70
    32
  0
VERTEX
  5
E8FB
  8
AM_0
 10
599.18140086992389
 20
163.0732840406867
 30
0.0
 70
    32
  0
VERTEX
  5
E8FC
  8
AM_0
 10
599.18340086992384
 20
163.0692840406864
 30
0.0
 70
    32
  0
VERTEX
  5
E8FD
  8
AM_0
 10
599.18440086992382
 20
163.06528404068661
 30
0.0
 70
    32
  0
VERTEX
  5
E8FE
  8
AM_0
 10
599.18640086992343
 20
163.06228404068671
 30
0.0
 70
    32
  0
VERTEX
  5
E8FF
  8
AM_0
 10
599.18740086992409
 20
163.05828404068669
 30
0.0
 70
    32
  0
VERTEX
  5
E900
  8
AM_0
 10
599.18940086992404
 20
163.05428404068661
 30
0.0
 70
    32
  0
VERTEX
  5
E901
  8
AM_0
 10
599.19040086992356
 20
163.05028404068639
 30
0.0
 70
    32
  0
VERTEX
  5
E902
  8
AM_0
 10
599.19240086992409
 20
163.0462840406866
 30
0.0
 70
    32
  0
VERTEX
  5
E903
  8
AM_0
 10
599.19340086992383
 20
163.0422840406865
 30
0.0
 70
    32
  0
VERTEX
  5
E904
  8
AM_0
 10
599.19540086992356
 20
163.03828404068659
 30
0.0
 70
    32
  0
VERTEX
  5
E905
  8
AM_0
 10
599.19740086992408
 20
163.0342840406866
 30
0.0
 70
    32
  0
VERTEX
  5
E906
  8
AM_0
 10
599.19840086992383
 20
163.03028404068661
 30
0.0
 70
    32
  0
VERTEX
  5
E907
  8
AM_0
 10
599.20040086992401
 20
163.0262840406867
 30
0.0
 70
    32
  0
VERTEX
  5
E908
  8
AM_0
 10
599.20140086992421
 20
163.02228404068649
 30
0.0
 70
    32
  0
VERTEX
  5
E909
  8
AM_0
 10
599.20340086992383
 20
163.01828404068669
 30
0.0
 70
    32
  0
VERTEX
  5
E90A
  8
AM_0
 10
599.20540086992389
 20
163.01428404068659
 30
0.0
 70
    32
  0
VERTEX
  5
E90B
  8
AM_0
 10
599.20640086992421
 20
163.0102840406866
 30
0.0
 70
    32
  0
VERTEX
  5
E90C
  8
AM_0
 10
599.20840086992371
 20
163.0062840406865
 30
0.0
 70
    32
  0
VERTEX
  5
E90D
  8
AM_0
 10
599.20940086992414
 20
163.00228404068659
 30
0.0
 70
    32
  0
VERTEX
  5
E90E
  8
AM_0
 10
599.21140086992375
 20
162.9982840406866
 30
0.0
 70
    32
  0
VERTEX
  5
E90F
  8
AM_0
 10
599.21340086992359
 20
162.99428404068681
 30
0.0
 70
    32
  0
VERTEX
  5
E910
  8
AM_0
 10
599.21440086992413
 20
162.99028404068659
 30
0.0
 70
    32
  0
VERTEX
  5
E911
  8
AM_0
 10
599.2164008699242
 20
162.98628404068651
 30
0.0
 70
    32
  0
VERTEX
  5
E912
  8
AM_0
 10
599.21840086992381
 20
162.98228404068649
 30
0.0
 70
    32
  0
VERTEX
  5
E913
  8
AM_0
 10
599.21940086992413
 20
162.97828404068679
 30
0.0
 70
    32
  0
VERTEX
  5
E914
  8
AM_0
 10
599.22140086992374
 20
162.9742840406868
 30
0.0
 70
    32
  0
VERTEX
  5
E915
  8
AM_0
 10
599.22340086992381
 20
162.97128404068641
 30
0.0
 70
    32
  0
VERTEX
  5
E916
  8
AM_0
 10
599.22440086992412
 20
162.96728404068659
 30
0.0
 70
    32
  0
VERTEX
  5
E917
  8
AM_0
 10
599.22640086992396
 20
162.9632840406868
 30
0.0
 70
    32
  0
VERTEX
  5
E918
  8
AM_0
 10
599.2284008699238
 20
162.95928404068661
 30
0.0
 70
    32
  0
VERTEX
  5
E919
  8
AM_0
 10
599.22940086992412
 20
162.95528404068651
 30
0.0
 70
    32
  0
VERTEX
  5
E91A
  8
AM_0
 10
599.23140086992385
 20
162.9512840406864
 30
0.0
 70
    32
  0
VERTEX
  5
E91B
  8
AM_0
 10
599.23340086992391
 20
162.94728404068681
 30
0.0
 70
    32
  0
VERTEX
  5
E91C
  8
AM_0
 10
599.23440086992412
 20
162.94328404068679
 30
0.0
 70
    32
  0
VERTEX
  5
E91D
  8
AM_0
 10
599.23640086992395
 20
162.93928404068649
 30
0.0
 70
    32
  0
VERTEX
  5
E91E
  8
AM_0
 10
599.23840086992391
 20
162.9352840406865
 30
0.0
 70
    32
  0
VERTEX
  5
E91F
  8
AM_0
 10
599.24040086992363
 20
162.93128404068639
 30
0.0
 70
    32
  0
VERTEX
  5
E920
  8
AM_0
 10
599.24140086992384
 20
162.9272840406866
 30
0.0
 70
    32
  0
VERTEX
  5
E921
  8
AM_0
 10
599.24340086992424
 20
162.9242840406863
 30
0.0
 70
    32
  0
VERTEX
  5
E922
  8
AM_0
 10
599.24540086992386
 20
162.92028404068671
 30
0.0
 70
    32
  0
VERTEX
  5
E923
  8
AM_0
 10
599.24740086992404
 20
162.9162840406868
 30
0.0
 70
    32
  0
VERTEX
  5
E924
  8
AM_0
 10
599.24840086992367
 20
162.91228404068659
 30
0.0
 70
    32
  0
VERTEX
  5
E925
  8
AM_0
 10
599.25040086992385
 20
162.90828404068679
 30
0.0
 70
    32
  0
VERTEX
  5
E926
  8
AM_0
 10
599.25240086992403
 20
162.90428404068641
 30
0.0
 70
    32
  0
VERTEX
  5
E927
  8
AM_0
 10
599.25440086992398
 20
162.9002840406867
 30
0.0
 70
    32
  0
VERTEX
  5
E928
  8
AM_0
 10
599.25540086992385
 20
162.89628404068679
 30
0.0
 70
    32
  0
VERTEX
  5
E929
  8
AM_0
 10
599.25740086992403
 20
162.8922840406866
 30
0.0
 70
    32
  0
VERTEX
  5
E92A
  8
AM_0
 10
599.25940086992387
 20
162.8892840406865
 30
0.0
 70
    32
  0
VERTEX
  5
E92B
  8
AM_0
 10
599.26140086992382
 20
162.8852840406866
 30
0.0
 70
    32
  0
VERTEX
  5
E92C
  8
AM_0
 10
599.26340086992423
 20
162.88128404068641
 30
0.0
 70
    32
  0
VERTEX
  5
E92D
  8
AM_0
 10
599.26440086992386
 20
162.8772840406865
 30
0.0
 70
    32
  0
VERTEX
  5
E92E
  8
AM_0
 10
599.26640086992404
 20
162.87328404068671
 30
0.0
 70
    32
  0
VERTEX
  5
E92F
  8
AM_0
 10
599.26840086992388
 20
162.86928404068669
 30
0.0
 70
    32
  0
VERTEX
  5
E930
  8
AM_0
 10
599.27040086992383
 20
162.86528404068659
 30
0.0
 70
    32
  0
VERTEX
  5
E931
  8
AM_0
 10
599.27240086992401
 20
162.86228404068669
 30
0.0
 70
    32
  0
VERTEX
  5
E932
  8
AM_0
 10
599.27340086992422
 20
162.8582840406869
 30
0.0
 70
    32
  0
VERTEX
  5
E933
  8
AM_0
 10
599.27540086992383
 20
162.85428404068659
 30
0.0
 70
    32
  0
VERTEX
  5
E934
  8
AM_0
 10
599.27740086992401
 20
162.85028404068649
 30
0.0
 70
    32
  0
VERTEX
  5
E935
  8
AM_0
 10
599.27940086992407
 20
162.8462840406865
 30
0.0
 70
    32
  0
VERTEX
  5
E936
  8
AM_0
 10
599.28140086992369
 20
162.84228404068671
 30
0.0
 70
    32
  0
VERTEX
  5
E937
  8
AM_0
 10
599.28340086992421
 20
162.83828404068689
 30
0.0
 70
    32
  0
VERTEX
  5
E938
  8
AM_0
 10
599.28540086992382
 20
162.83528404068659
 30
0.0
 70
    32
  0
VERTEX
  5
E939
  8
AM_0
 10
599.287400869924
 20
162.83128404068651
 30
0.0
 70
    32
  0
VERTEX
  5
E93A
  8
AM_0
 10
599.28840086992375
 20
162.82728404068669
 30
0.0
 70
    32
  0
VERTEX
  5
E93B
  8
AM_0
 10
599.29040086992359
 20
162.82328404068659
 30
0.0
 70
    32
  0
VERTEX
  5
E93C
  8
AM_0
 10
599.29240086992388
 20
162.8192840406864
 30
0.0
 70
    32
  0
VERTEX
  5
E93D
  8
AM_0
 10
599.29440086992383
 20
162.8162840406865
 30
0.0
 70
    32
  0
VERTEX
  5
E93E
  8
AM_0
 10
599.29640086992413
 20
162.81228404068651
 30
0.0
 70
    32
  0
VERTEX
  5
E93F
  8
AM_0
 10
599.29840086992374
 20
162.8082840406864
 30
0.0
 70
    32
  0
VERTEX
  5
E940
  8
AM_0
 10
599.30040086992369
 20
162.80428404068641
 30
0.0
 70
    32
  0
VERTEX
  5
E941
  8
AM_0
 10
599.30240086992376
 20
162.80028404068679
 30
0.0
 70
    32
  0
VERTEX
  5
E942
  8
AM_0
 10
599.30440086992405
 20
162.79728404068669
 30
0.0
 70
    32
  0
VERTEX
  5
E943
  8
AM_0
 10
599.30640086992412
 20
162.79328404068659
 30
0.0
 70
    32
  0
VERTEX
  5
E944
  8
AM_0
 10
599.30840086992373
 20
162.78928404068651
 30
0.0
 70
    32
  0
VERTEX
  5
E945
  8
AM_0
 10
599.31040086992391
 20
162.78528404068649
 30
0.0
 70
    32
  0
VERTEX
  5
E946
  8
AM_0
 10
599.31240086992398
 20
162.7812840406865
 30
0.0
 70
    32
  0
VERTEX
  5
E947
  8
AM_0
 10
599.31440086992404
 20
162.7782840406864
 30
0.0
 70
    32
  0
VERTEX
  5
E948
  8
AM_0
 10
599.31640086992411
 20
162.77428404068681
 30
0.0
 70
    32
  0
VERTEX
  5
E949
  8
AM_0
 10
599.31840086992383
 20
162.77028404068659
 30
0.0
 70
    32
  0
VERTEX
  5
E94A
  8
AM_0
 10
599.3204008699239
 20
162.76628404068649
 30
0.0
 70
    32
  0
VERTEX
  5
E94B
  8
AM_0
 10
599.32240086992397
 20
162.76228404068681
 30
0.0
 70
    32
  0
VERTEX
  5
E94C
  8
AM_0
 10
599.32440086992403
 20
162.75928404068671
 30
0.0
 70
    32
  0
VERTEX
  5
E94D
  8
AM_0
 10
599.32640086992365
 20
162.75528404068669
 30
0.0
 70
    32
  0
VERTEX
  5
E94E
  8
AM_0
 10
599.32840086992383
 20
162.7512840406869
 30
0.0
 70
    32
  0
VERTEX
  5
E94F
  8
AM_0
 10
599.33040086992366
 20
162.74728404068679
 30
0.0
 70
    32
  0
VERTEX
  5
E950
  8
AM_0
 10
599.33240086992384
 20
162.74428404068681
 30
0.0
 70
    32
  0
VERTEX
  5
E951
  8
AM_0
 10
599.33440086992391
 20
162.74028404068659
 30
0.0
 70
    32
  0
VERTEX
  5
E952
  8
AM_0
 10
599.33640086992409
 20
162.7362840406866
 30
0.0
 70
    32
  0
VERTEX
  5
E953
  8
AM_0
 10
599.33840086992382
 20
162.73228404068661
 30
0.0
 70
    32
  0
VERTEX
  5
E954
  8
AM_0
 10
599.34040086992343
 20
162.72928404068639
 30
0.0
 70
    32
  0
VERTEX
  5
E955
  8
AM_0
 10
599.34240086992429
 20
162.7252840406866
 30
0.0
 70
    32
  0
VERTEX
  5
E956
  8
AM_0
 10
599.34440086992367
 20
162.72128404068641
 30
0.0
 70
    32
  0
VERTEX
  5
E957
  8
AM_0
 10
599.34640086992385
 20
162.71828404068651
 30
0.0
 70
    32
  0
VERTEX
  5
E958
  8
AM_0
 10
599.34940086992401
 20
162.71428404068649
 30
0.0
 70
    32
  0
VERTEX
  5
E959
  8
AM_0
 10
599.35140086992385
 20
162.7102840406867
 30
0.0
 70
    32
  0
VERTEX
  5
E95A
  8
AM_0
 10
599.3534008699238
 20
162.7062840406866
 30
0.0
 70
    32
  0
VERTEX
  5
E95B
  8
AM_0
 10
599.35540086992387
 20
162.7032840406865
 30
0.0
 70
    32
  0
VERTEX
  5
E95C
  8
AM_0
 10
599.35740086992382
 20
162.69928404068651
 30
0.0
 70
    32
  0
VERTEX
  5
E95D
  8
AM_0
 10
599.359400869924
 20
162.6952840406868
 30
0.0
 70
    32
  0
VERTEX
  5
E95E
  8
AM_0
 10
599.36140086992395
 20
162.6922840406867
 30
0.0
 70
    32
  0
VERTEX
  5
E95F
  8
AM_0
 10
599.36340086992413
 20
162.68828404068651
 30
0.0
 70
    32
  0
VERTEX
  5
E960
  8
AM_0
 10
599.36640086992406
 20
162.68428404068649
 30
0.0
 70
    32
  0
VERTEX
  5
E961
  8
AM_0
 10
599.36840086992413
 20
162.68128404068659
 30
0.0
 70
    32
  0
VERTEX
  5
E962
  8
AM_0
 10
599.3704008699242
 20
162.67728404068669
 30
0.0
 70
    32
  0
VERTEX
  5
E963
  8
AM_0
 10
599.37240086992381
 20
162.67328404068641
 30
0.0
 70
    32
  0
VERTEX
  5
E964
  8
AM_0
 10
599.37440086992387
 20
162.6702840406864
 30
0.0
 70
    32
  0
VERTEX
  5
E965
  8
AM_0
 10
599.37740086992369
 20
162.6662840406868
 30
0.0
 70
    32
  0
VERTEX
  5
E966
  8
AM_0
 10
599.37940086992376
 20
162.66228404068659
 30
0.0
 70
    32
  0
VERTEX
  5
E967
  8
AM_0
 10
599.38140086992405
 20
162.65928404068671
 30
0.0
 70
    32
  0
VERTEX
  5
E968
  8
AM_0
 10
599.383400869924
 20
162.6552840406865
 30
0.0
 70
    32
  0
VERTEX
  5
E969
  8
AM_0
 10
599.38540086992373
 20
162.65128404068659
 30
0.0
 70
    32
  0
VERTEX
  5
E96A
  8
AM_0
 10
599.38840086992388
 20
162.64828404068669
 30
0.0
 70
    32
  0
VERTEX
  5
E96B
  8
AM_0
 10
599.39040086992406
 20
162.6442840406865
 30
0.0
 70
    32
  0
VERTEX
  5
E96C
  8
AM_0
 10
599.3924008699239
 20
162.64028404068651
 30
0.0
 70
    32
  0
VERTEX
  5
E96D
  8
AM_0
 10
599.39440086992363
 20
162.63728404068689
 30
0.0
 70
    32
  0
VERTEX
  5
E96E
  8
AM_0
 10
599.39740086992424
 20
162.6332840406867
 30
0.0
 70
    32
  0
VERTEX
  5
E96F
  8
AM_0
 10
599.39940086992385
 20
162.6302840406868
 30
0.0
 70
    32
  0
VERTEX
  5
E970
  8
AM_0
 10
599.40140086992403
 20
162.62628404068681
 30
0.0
 70
    32
  0
VERTEX
  5
E971
  8
AM_0
 10
599.40340086992364
 20
162.62228404068651
 30
0.0
 70
    32
  0
VERTEX
  5
E972
  8
AM_0
 10
599.40640086992403
 20
162.61928404068649
 30
0.0
 70
    32
  0
VERTEX
  5
E973
  8
AM_0
 10
599.40840086992409
 20
162.6152840406865
 30
0.0
 70
    32
  0
VERTEX
  5
E974
  8
AM_0
 10
599.41040086992405
 20
162.61228404068669
 30
0.0
 70
    32
  0
VERTEX
  5
E975
  8
AM_0
 10
599.41340086992409
 20
162.60828404068681
 30
0.0
 70
    32
  0
VERTEX
  5
E976
  8
AM_0
 10
599.41540086992381
 20
162.60428404068659
 30
0.0
 70
    32
  0
VERTEX
  5
E977
  8
AM_0
 10
599.41740086992422
 20
162.60128404068669
 30
0.0
 70
    32
  0
VERTEX
  5
E978
  8
AM_0
 10
599.42040086992415
 20
162.59728404068659
 30
0.0
 70
    32
  0
VERTEX
  5
E979
  8
AM_0
 10
599.42240086992365
 20
162.5942840406866
 30
0.0
 70
    32
  0
VERTEX
  5
E97A
  8
AM_0
 10
599.42440086992383
 20
162.59028404068681
 30
0.0
 70
    32
  0
VERTEX
  5
E97B
  8
AM_0
 10
599.42740086992421
 20
162.5872840406864
 30
0.0
 70
    32
  0
VERTEX
  5
E97C
  8
AM_0
 10
599.42940086992382
 20
162.58328404068641
 30
0.0
 70
    32
  0
VERTEX
  5
E97D
  8
AM_0
 10
599.43240086992375
 20
162.58028404068631
 30
0.0
 70
    32
  0
VERTEX
  5
E97E
  8
AM_0
 10
599.43440086992382
 20
162.57628404068669
 30
0.0
 70
    32
  0
VERTEX
  5
E97F
  8
AM_0
 10
599.436400869924
 20
162.5722840406865
 30
0.0
 70
    32
  0
VERTEX
  5
E980
  8
AM_0
 10
599.43940086992382
 20
162.56928404068671
 30
0.0
 70
    32
  0
VERTEX
  5
E981
  8
AM_0
 10
599.441400869924
 20
162.56528404068649
 30
0.0
 70
    32
  0
VERTEX
  5
E982
  8
AM_0
 10
599.44440086992336
 20
162.56228404068659
 30
0.0
 70
    32
  0
VERTEX
  5
E983
  8
AM_0
 10
599.44640086992399
 20
162.55828404068649
 30
0.0
 70
    32
  0
VERTEX
  5
E984
  8
AM_0
 10
599.44940086992381
 20
162.55528404068659
 30
0.0
 70
    32
  0
VERTEX
  5
E985
  8
AM_0
 10
599.4514008699241
 20
162.5512840406866
 30
0.0
 70
    32
  0
VERTEX
  5
E986
  8
AM_0
 10
599.45340086992383
 20
162.5482840406865
 30
0.0
 70
    32
  0
VERTEX
  5
E987
  8
AM_0
 10
599.45640086992387
 20
162.54428404068651
 30
0.0
 70
    32
  0
VERTEX
  5
E988
  8
AM_0
 10
599.45840086992405
 20
162.54128404068669
 30
0.0
 70
    32
  0
VERTEX
  5
E989
  8
AM_0
 10
599.46140086992375
 20
162.53728404068659
 30
0.0
 70
    32
  0
VERTEX
  5
E98A
  8
AM_0
 10
599.46340086992404
 20
162.53428404068671
 30
0.0
 70
    32
  0
VERTEX
  5
E98B
  8
AM_0
 10
599.46640086992375
 20
162.53128404068639
 30
0.0
 70
    32
  0
VERTEX
  5
E98C
  8
AM_0
 10
599.46840086992404
 20
162.5272840406866
 30
0.0
 70
    32
  0
VERTEX
  5
E98D
  8
AM_0
 10
599.47140086992363
 20
162.5242840406865
 30
0.0
 70
    32
  0
VERTEX
  5
E98E
  8
AM_0
 10
599.47340086992403
 20
162.52028404068659
 30
0.0
 70
    32
  0
VERTEX
  5
E98F
  8
AM_0
 10
599.47640086992385
 20
162.51728404068649
 30
0.0
 70
    32
  0
VERTEX
  5
E990
  8
AM_0
 10
599.47840086992403
 20
162.5132840406869
 30
0.0
 70
    32
  0
VERTEX
  5
E991
  8
AM_0
 10
599.48140086992385
 20
162.5102840406864
 30
0.0
 70
    32
  0
VERTEX
  5
E992
  8
AM_0
 10
599.48440086992423
 20
162.5072840406867
 30
0.0
 70
    32
  0
VERTEX
  5
E993
  8
AM_0
 10
599.48640086992418
 20
162.50328404068691
 30
0.0
 70
    32
  0
VERTEX
  5
E994
  8
AM_0
 10
599.48940086992388
 20
162.50028404068661
 30
0.0
 70
    32
  0
VERTEX
  5
E995
  8
AM_0
 10
599.49140086992395
 20
162.49628404068679
 30
0.0
 70
    32
  0
VERTEX
  5
E996
  8
AM_0
 10
599.49440086992422
 20
162.49328404068649
 30
0.0
 70
    32
  0
VERTEX
  5
E997
  8
AM_0
 10
599.49740086992404
 20
162.49028404068639
 30
0.0
 70
    32
  0
VERTEX
  5
E998
  8
AM_0
 10
599.49940086992365
 20
162.4862840406868
 30
0.0
 70
    32
  0
VERTEX
  5
E999
  8
AM_0
 10
599.5024008699238
 20
162.4832840406869
 30
0.0
 70
    32
  0
VERTEX
  5
E99A
  8
AM_0
 10
599.50440086992421
 20
162.47928404068671
 30
0.0
 70
    32
  0
VERTEX
  5
E99B
  8
AM_0
 10
599.5074008699238
 20
162.47628404068681
 30
0.0
 70
    32
  0
VERTEX
  5
E99C
  8
AM_0
 10
599.51040086992396
 20
162.47328404068651
 30
0.0
 70
    32
  0
VERTEX
  5
E99D
  8
AM_0
 10
599.51240086992379
 20
162.46928404068669
 30
0.0
 70
    32
  0
VERTEX
  5
E99E
  8
AM_0
 10
599.51540086992395
 20
162.46628404068679
 30
0.0
 70
    32
  0
VERTEX
  5
E99F
  8
AM_0
 10
599.51840086992399
 20
162.46328404068689
 30
0.0
 70
    32
  0
VERTEX
  5
E9A0
  8
AM_0
 10
599.52040086992395
 20
162.45928404068681
 30
0.0
 70
    32
  0
VERTEX
  5
E9A1
  8
AM_0
 10
599.52340086992399
 20
162.45628404068671
 30
0.0
 70
    32
  0
VERTEX
  5
E9A2
  8
AM_0
 10
599.5264008699238
 20
162.45328404068661
 30
0.0
 70
    32
  0
VERTEX
  5
E9A3
  8
AM_0
 10
599.52940086992385
 20
162.45028404068651
 30
0.0
 70
    32
  0
VERTEX
  5
E9A4
  8
AM_0
 10
599.53140086992391
 20
162.44628404068649
 30
0.0
 70
    32
  0
VERTEX
  5
E9A5
  8
AM_0
 10
599.53440086992373
 20
162.44328404068639
 30
0.0
 70
    32
  0
VERTEX
  5
E9A6
  8
AM_0
 10
599.53740086992411
 20
162.44028404068649
 30
0.0
 70
    32
  0
VERTEX
  5
E9A7
  8
AM_0
 10
599.54040086992404
 20
162.4362840406869
 30
0.0
 70
    32
  0
VERTEX
  5
E9A8
  8
AM_0
 10
599.54240086992411
 20
162.4332840406864
 30
0.0
 70
    32
  0
VERTEX
  5
E9A9
  8
AM_0
 10
599.54540086992404
 20
162.43028404068659
 30
0.0
 70
    32
  0
VERTEX
  5
E9AA
  8
AM_0
 10
599.54840086992363
 20
162.42728404068669
 30
0.0
 70
    32
  0
VERTEX
  5
E9AB
  8
AM_0
 10
599.55140086992424
 20
162.42328404068641
 30
0.0
 70
    32
  0
VERTEX
  5
E9AC
  8
AM_0
 10
599.55340086992385
 20
162.42028404068651
 30
0.0
 70
    32
  0
VERTEX
  5
E9AD
  8
AM_0
 10
599.55640086992389
 20
162.41728404068661
 30
0.0
 70
    32
  0
VERTEX
  5
E9AE
  8
AM_0
 10
599.55940086992382
 20
162.41428404068651
 30
0.0
 70
    32
  0
VERTEX
  5
E9AF
  8
AM_0
 10
599.56240086992386
 20
162.4112840406865
 30
0.0
 70
    32
  0
VERTEX
  5
E9B0
  8
AM_0
 10
599.56540086992402
 20
162.40728404068659
 30
0.0
 70
    32
  0
VERTEX
  5
E9B1
  8
AM_0
 10
599.56840086992383
 20
162.4042840406866
 30
0.0
 70
    32
  0
VERTEX
  5
E9B2
  8
AM_0
 10
599.57040086992401
 20
162.4012840406867
 30
0.0
 70
    32
  0
VERTEX
  5
E9B3
  8
AM_0
 10
599.57340086992383
 20
162.3982840406868
 30
0.0
 70
    32
  0
VERTEX
  5
E9B4
  8
AM_0
 10
599.57640086992376
 20
162.39528404068631
 30
0.0
 70
    32
  0
VERTEX
  5
E9B5
  8
AM_0
 10
599.57940086992369
 20
162.39228404068669
 30
0.0
 70
    32
  0
VERTEX
  5
E9B6
  8
AM_0
 10
599.58240086992441
 20
162.38928404068679
 30
0.0
 70
    32
  0
VERTEX
  5
E9B7
  8
AM_0
 10
599.585400869924
 20
162.38528404068629
 30
0.0
 70
    32
  0
VERTEX
  5
E9B8
  8
AM_0
 10
599.5884008699237
 20
162.38228404068681
 30
0.0
 70
    32
  0
VERTEX
  5
E9B9
  8
AM_0
 10
599.5914008699242
 20
162.3792840406868
 30
0.0
 70
    32
  0
VERTEX
  5
E9BA
  8
AM_0
 10
599.59440086992413
 20
162.3762840406869
 30
0.0
 70
    32
  0
VERTEX
  5
E9BB
  8
AM_0
 10
599.59740086992394
 20
162.3732840406866
 30
0.0
 70
    32
  0
VERTEX
  5
E9BC
  8
AM_0
 10
599.60040086992376
 20
162.3702840406865
 30
0.0
 70
    32
  0
VERTEX
  5
E9BD
  8
AM_0
 10
599.6034008699238
 20
162.3672840406868
 30
0.0
 70
    32
  0
VERTEX
  5
E9BE
  8
AM_0
 10
599.60640086992373
 20
162.3642840406867
 30
0.0
 70
    32
  0
VERTEX
  5
E9BF
  8
AM_0
 10
599.60940086992412
 20
162.36128404068671
 30
0.0
 70
    32
  0
VERTEX
  5
E9C0
  8
AM_0
 10
599.61240086992404
 20
162.35828404068681
 30
0.0
 70
    32
  0
VERTEX
  5
E9C1
  8
AM_0
 10
599.61540086992397
 20
162.3552840406864
 30
0.0
 70
    32
  0
VERTEX
  5
E9C2
  8
AM_0
 10
599.61840086992424
 20
162.35228404068641
 30
0.0
 70
    32
  0
VERTEX
  5
E9C3
  8
AM_0
 10
599.62140086992395
 20
162.34928404068691
 30
0.0
 70
    32
  0
VERTEX
  5
E9C4
  8
AM_0
 10
599.6244008699241
 20
162.34628404068661
 30
0.0
 70
    32
  0
VERTEX
  5
E9C5
  8
AM_0
 10
599.62740086992403
 20
162.34328404068651
 30
0.0
 70
    32
  0
VERTEX
  5
E9C6
  8
AM_0
 10
599.63040086992385
 20
162.3402840406867
 30
0.0
 70
    32
  0
VERTEX
  5
E9C7
  8
AM_0
 10
599.63340086992366
 20
162.3372840406864
 30
0.0
 70
    32
  0
VERTEX
  5
E9C8
  8
AM_0
 10
599.63640086992382
 20
162.3342840406867
 30
0.0
 70
    32
  0
VERTEX
  5
E9C9
  8
AM_0
 10
599.63940086992386
 20
162.3312840406866
 30
0.0
 70
    32
  0
VERTEX
  5
E9CA
  8
AM_0
 10
599.64240086992402
 20
162.3282840406865
 30
0.0
 70
    32
  0
VERTEX
  5
E9CB
  8
AM_0
 10
599.64540086992429
 20
162.3252840406866
 30
0.0
 70
    32
  0
VERTEX
  5
E9CC
  8
AM_0
 10
599.6484008699241
 20
162.3222840406865
 30
0.0
 70
    32
  0
VERTEX
  5
E9CD
  8
AM_0
 10
599.65140086992403
 20
162.31928404068651
 30
0.0
 70
    32
  0
VERTEX
  5
E9CE
  8
AM_0
 10
599.65540086992382
 20
162.31628404068641
 30
0.0
 70
    32
  0
VERTEX
  5
E9CF
  8
AM_0
 10
599.65840086992421
 20
162.3132840406866
 30
0.0
 70
    32
  0
VERTEX
  5
E9D0
  8
AM_0
 10
599.66140086992368
 20
162.31028404068641
 30
0.0
 70
    32
  0
VERTEX
  5
E9D1
  8
AM_0
 10
599.66440086992407
 20
162.30828404068669
 30
0.0
 70
    32
  0
VERTEX
  5
E9D2
  8
AM_0
 10
599.66740086992422
 20
162.30528404068659
 30
0.0
 70
    32
  0
VERTEX
  5
E9D3
  8
AM_0
 10
599.67040086992381
 20
162.3022840406868
 30
0.0
 70
    32
  0
VERTEX
  5
E9D4
  8
AM_0
 10
599.67440086992406
 20
162.29928404068659
 30
0.0
 70
    32
  0
VERTEX
  5
E9D5
  8
AM_0
 10
599.67740086992376
 20
162.2962840406866
 30
0.0
 70
    32
  0
VERTEX
  5
E9D6
  8
AM_0
 10
599.68040086992391
 20
162.2932840406867
 30
0.0
 70
    32
  0
VERTEX
  5
E9D7
  8
AM_0
 10
599.68340086992373
 20
162.2912840406868
 30
0.0
 70
    32
  0
VERTEX
  5
E9D8
  8
AM_0
 10
599.68740086992375
 20
162.28828404068659
 30
0.0
 70
    32
  0
VERTEX
  5
E9D9
  8
AM_0
 10
599.69040086992391
 20
162.28528404068641
 30
0.0
 70
    32
  0
VERTEX
  5
E9DA
  8
AM_0
 10
599.69340086992383
 20
162.28228404068679
 30
0.0
 70
    32
  0
VERTEX
  5
E9DB
  8
AM_0
 10
599.6964008699241
 20
162.28028404068641
 30
0.0
 70
    32
  0
VERTEX
  5
E9DC
  8
AM_0
 10
599.7004008699239
 20
162.27728404068651
 30
0.0
 70
    32
  0
VERTEX
  5
E9DD
  8
AM_0
 10
599.70340086992371
 20
162.27428404068661
 30
0.0
 70
    32
  0
VERTEX
  5
E9DE
  8
AM_0
 10
599.70640086992375
 20
162.27228404068649
 30
0.0
 70
    32
  0
VERTEX
  5
E9DF
  8
AM_0
 10
599.71040086992366
 20
162.26928404068639
 30
0.0
 70
    32
  0
VERTEX
  5
E9E0
  8
AM_0
 10
599.71340086992382
 20
162.2662840406866
 30
0.0
 70
    32
  0
VERTEX
  5
E9E1
  8
AM_0
 10
599.71640086992409
 20
162.26428404068679
 30
0.0
 70
    32
  0
VERTEX
  5
E9E2
  8
AM_0
 10
599.72040086992365
 20
162.26128404068669
 30
0.0
 70
    32
  0
VERTEX
  5
E9E3
  8
AM_0
 10
599.72340086992381
 20
162.25828404068659
 30
0.0
 70
    32
  0
VERTEX
  5
E9E4
  8
AM_0
 10
599.72640086992385
 20
162.2562840406865
 30
0.0
 70
    32
  0
VERTEX
  5
E9E5
  8
AM_0
 10
599.73040086992376
 20
162.25328404068659
 30
0.0
 70
    32
  0
VERTEX
  5
E9E6
  8
AM_0
 10
599.7334008699238
 20
162.25128404068681
 30
0.0
 70
    32
  0
VERTEX
  5
E9E7
  8
AM_0
 10
599.73740086992382
 20
162.2482840406866
 30
0.0
 70
    32
  0
VERTEX
  5
E9E8
  8
AM_0
 10
599.74040086992386
 20
162.2452840406863
 30
0.0
 70
    32
  0
VERTEX
  5
E9E9
  8
AM_0
 10
599.74340086992368
 20
162.2432840406864
 30
0.0
 70
    32
  0
VERTEX
  5
E9EA
  8
AM_0
 10
599.74740086992381
 20
162.2402840406867
 30
0.0
 70
    32
  0
VERTEX
  5
E9EB
  8
AM_0
 10
599.75040086992374
 20
162.23828404068661
 30
0.0
 70
    32
  0
VERTEX
  5
E9EC
  8
AM_0
 10
599.75440086992387
 20
162.23528404068671
 30
0.0
 70
    32
  0
VERTEX
  5
E9ED
  8
AM_0
 10
599.75740086992369
 20
162.2332840406867
 30
0.0
 70
    32
  0
VERTEX
  5
E9EE
  8
AM_0
 10
599.76140086992382
 20
162.23028404068671
 30
0.0
 70
    32
  0
VERTEX
  5
E9EF
  8
AM_0
 10
599.76440086992375
 20
162.22828404068659
 30
0.0
 70
    32
  0
VERTEX
  5
E9F0
  8
AM_0
 10
599.76840086992399
 20
162.22628404068649
 30
0.0
 70
    32
  0
VERTEX
  5
E9F1
  8
AM_0
 10
599.77140086992404
 20
162.22328404068639
 30
0.0
 70
    32
  0
VERTEX
  5
E9F2
  8
AM_0
 10
599.77540086992406
 20
162.22128404068641
 30
0.0
 70
    32
  0
VERTEX
  5
E9F3
  8
AM_0
 10
599.7784008699241
 20
162.2182840406868
 30
0.0
 70
    32
  0
VERTEX
  5
E9F4
  8
AM_0
 10
599.78240086992389
 20
162.2162840406867
 30
0.0
 70
    32
  0
VERTEX
  5
E9F5
  8
AM_0
 10
599.78640086992425
 20
162.21428404068661
 30
0.0
 70
    32
  0
VERTEX
  5
E9F6
  8
AM_0
 10
599.78940086992395
 20
162.21128404068671
 30
0.0
 70
    32
  0
VERTEX
  5
E9F7
  8
AM_0
 10
599.79340086992408
 20
162.2092840406865
 30
0.0
 70
    32
  0
VERTEX
  5
E9F8
  8
AM_0
 10
599.79640086992401
 20
162.2072840406866
 30
0.0
 70
    32
  0
VERTEX
  5
E9F9
  8
AM_0
 10
599.80040086992381
 20
162.20428404068679
 30
0.0
 70
    32
  0
VERTEX
  5
E9FA
  8
AM_0
 10
599.80440086992428
 20
162.20228404068641
 30
0.0
 70
    32
  0
VERTEX
  5
E9FB
  8
AM_0
 10
599.80740086992375
 20
162.20028404068651
 30
0.0
 70
    32
  0
VERTEX
  5
E9FC
  8
AM_0
 10
599.81140086992366
 20
162.19828404068679
 30
0.0
 70
    32
  0
VERTEX
  5
E9FD
  8
AM_0
 10
599.81540086992379
 20
162.19528404068689
 30
0.0
 70
    32
  0
VERTEX
  5
E9FE
  8
AM_0
 10
599.81840086992395
 20
162.19328404068679
 30
0.0
 70
    32
  0
VERTEX
  5
E9FF
  8
AM_0
 10
599.82240086992397
 20
162.1912840406867
 30
0.0
 70
    32
  0
VERTEX
  5
EA00
  8
AM_0
 10
599.82640086992421
 20
162.18928404068669
 30
0.0
 70
    32
  0
VERTEX
  5
EA01
  8
AM_0
 10
599.82940086992335
 20
162.18728404068659
 30
0.0
 70
    32
  0
VERTEX
  5
EA02
  8
AM_0
 10
599.83340086992382
 20
162.1852840406865
 30
0.0
 70
    32
  0
VERTEX
  5
EA03
  8
AM_0
 10
599.83740086992361
 20
162.1832840406866
 30
0.0
 70
    32
  0
VERTEX
  5
EA04
  8
AM_0
 10
599.84040086992366
 20
162.1802840406865
 30
0.0
 70
    32
  0
VERTEX
  5
EA05
  8
AM_0
 10
599.84440086992367
 20
162.17828404068649
 30
0.0
 70
    32
  0
VERTEX
  5
EA06
  8
AM_0
 10
599.84840086992403
 20
162.1762840406866
 30
0.0
 70
    32
  0
VERTEX
  5
EA07
  8
AM_0
 10
599.85240086992405
 20
162.1742840406863
 30
0.0
 70
    32
  0
VERTEX
  5
EA08
  8
AM_0
 10
599.85540086992387
 20
162.17228404068641
 30
0.0
 70
    32
  0
VERTEX
  5
EA09
  8
AM_0
 10
599.85940086992423
 20
162.17028404068651
 30
0.0
 70
    32
  0
VERTEX
  5
EA0A
  8
AM_0
 10
599.86340086992402
 20
162.16828404068681
 30
0.0
 70
    32
  0
VERTEX
  5
EA0B
  8
AM_0
 10
599.86740086992404
 20
162.1662840406868
 30
0.0
 70
    32
  0
VERTEX
  5
EA0C
  8
AM_0
 10
599.87140086992417
 20
162.16428404068631
 30
0.0
 70
    32
  0
VERTEX
  5
EA0D
  8
AM_0
 10
599.87440086992376
 20
162.16328404068659
 30
0.0
 70
    32
  0
VERTEX
  5
EA0E
  8
AM_0
 10
599.87840086992401
 20
162.16128404068681
 30
0.0
 70
    32
  0
VERTEX
  5
EA0F
  8
AM_0
 10
599.88240086992414
 20
162.15928404068649
 30
0.0
 70
    32
  0
VERTEX
  5
EA10
  8
AM_0
 10
599.8864008699237
 20
162.15728404068679
 30
0.0
 70
    32
  0
VERTEX
  5
EA11
  8
AM_0
 10
599.89040086992395
 20
162.15528404068661
 30
0.0
 70
    32
  0
VERTEX
  5
EA12
  8
AM_0
 10
599.89440086992374
 20
162.15328404068671
 30
0.0
 70
    32
  0
VERTEX
  5
EA13
  8
AM_0
 10
599.89840086992376
 20
162.1522840406866
 30
0.0
 70
    32
  0
VERTEX
  5
EA14
  8
AM_0
 10
599.9014008699238
 20
162.15028404068661
 30
0.0
 70
    32
  0
VERTEX
  5
EA15
  8
AM_0
 10
599.90540086992405
 20
162.14828404068669
 30
0.0
 70
    32
  0
VERTEX
  5
EA16
  8
AM_0
 10
599.90940086992396
 20
162.14628404068679
 30
0.0
 70
    32
  0
VERTEX
  5
EA17
  8
AM_0
 10
599.91340086992398
 20
162.14528404068639
 30
0.0
 70
    32
  0
VERTEX
  5
EA18
  8
AM_0
 10
599.91740086992411
 20
162.1432840406865
 30
0.0
 70
    32
  0
VERTEX
  5
EA19
  8
AM_0
 10
599.92140086992379
 20
162.1412840406868
 30
0.0
 70
    32
  0
VERTEX
  5
EA1A
  8
AM_0
 10
599.92540086992403
 20
162.14028404068659
 30
0.0
 70
    32
  0
VERTEX
  5
EA1B
  8
AM_0
 10
599.92940086992428
 20
162.13828404068681
 30
0.0
 70
    32
  0
VERTEX
  5
EA1C
  8
AM_0
 10
599.93340086992362
 20
162.1362840406866
 30
0.0
 70
    32
  0
VERTEX
  5
EA1D
  8
AM_0
 10
599.93740086992375
 20
162.1352840406866
 30
0.0
 70
    32
  0
VERTEX
  5
EA1E
  8
AM_0
 10
599.94140086992388
 20
162.1332840406865
 30
0.0
 70
    32
  0
VERTEX
  5
EA1F
  8
AM_0
 10
599.94540086992401
 20
162.13228404068661
 30
0.0
 70
    32
  0
VERTEX
  5
EA20
  8
AM_0
 10
599.94940086992403
 20
162.13028404068669
 30
0.0
 70
    32
  0
VERTEX
  5
EA21
  8
AM_0
 10
599.95340086992383
 20
162.12928404068671
 30
0.0
 70
    32
  0
VERTEX
  5
EA22
  8
AM_0
 10
599.95740086992407
 20
162.1272840406865
 30
0.0
 70
    32
  0
VERTEX
  5
EA23
  8
AM_0
 10
599.96140086992375
 20
162.12628404068681
 30
0.0
 70
    32
  0
VERTEX
  5
EA24
  8
AM_0
 10
599.96540086992366
 20
162.12528404068661
 30
0.0
 70
    32
  0
VERTEX
  5
EA25
  8
AM_0
 10
599.96940086992367
 20
162.12328404068651
 30
0.0
 70
    32
  0
VERTEX
  5
EA26
  8
AM_0
 10
599.97340086992369
 20
162.12228404068671
 30
0.0
 70
    32
  0
VERTEX
  5
EA27
  8
AM_0
 10
599.97740086992405
 20
162.12128404068679
 30
0.0
 70
    32
  0
VERTEX
  5
EA28
  8
AM_0
 10
599.98140086992373
 20
162.11928404068669
 30
0.0
 70
    32
  0
VERTEX
  5
EA29
  8
AM_0
 10
599.98540086992421
 20
162.11828404068649
 30
0.0
 70
    32
  0
VERTEX
  5
EA2A
  8
AM_0
 10
599.98940086992411
 20
162.1172840406868
 30
0.0
 70
    32
  0
VERTEX
  5
EA2B
  8
AM_0
 10
599.99440086992411
 20
162.11628404068659
 30
0.0
 70
    32
  0
VERTEX
  5
EA2C
  8
AM_0
 10
599.9984008699239
 20
162.11528404068659
 30
0.0
 70
    32
  0
VERTEX
  5
EA2D
  8
AM_0
 10
600.00240086992403
 20
162.11328404068669
 30
0.0
 70
    32
  0
VERTEX
  5
EA2E
  8
AM_0
 10
600.00640086992405
 20
162.11228404068649
 30
0.0
 70
    32
  0
VERTEX
  5
EA2F
  8
AM_0
 10
600.01040086992361
 20
162.11128404068651
 30
0.0
 70
    32
  0
VERTEX
  5
EA30
  8
AM_0
 10
600.01440086992375
 20
162.11028404068659
 30
0.0
 70
    32
  0
VERTEX
  5
EA31
  8
AM_0
 10
600.01840086992365
 20
162.10928404068639
 30
0.0
 70
    32
  0
VERTEX
  5
EA32
  8
AM_0
 10
600.02240086992401
 20
162.1082840406869
 30
0.0
 70
    32
  0
VERTEX
  5
EA33
  8
AM_0
 10
600.02740086992401
 20
162.10728404068669
 30
0.0
 70
    32
  0
VERTEX
  5
EA34
  8
AM_0
 10
600.0314008699238
 20
162.1062840406866
 30
0.0
 70
    32
  0
VERTEX
  5
EA35
  8
AM_0
 10
600.03540086992382
 20
162.1052840406866
 30
0.0
 70
    32
  0
VERTEX
  5
EA36
  8
AM_0
 10
600.03940086992395
 20
162.10428404068639
 30
0.0
 70
    32
  0
VERTEX
  5
EA37
  8
AM_0
 10
600.0434008699242
 20
162.1032840406867
 30
0.0
 70
    32
  0
VERTEX
  5
EA38
  8
AM_0
 10
600.04740086992399
 20
162.1022840406865
 30
0.0
 70
    32
  0
VERTEX
  5
EA39
  8
AM_0
 10
600.05240086992421
 20
162.1022840406865
 30
0.0
 70
    32
  0
VERTEX
  5
EA3A
  8
AM_0
 10
600.05640086992412
 20
162.10128404068649
 30
0.0
 70
    32
  0
VERTEX
  5
EA3B
  8
AM_0
 10
600.06040086992357
 20
162.10028404068649
 30
0.0
 70
    32
  0
VERTEX
  5
EA3C
  8
AM_0
 10
600.06440086992382
 20
162.09928404068671
 30
0.0
 70
    32
  0
VERTEX
  5
EA3D
  8
AM_0
 10
600.06840086992383
 20
162.09828404068651
 30
0.0
 70
    32
  0
VERTEX
  5
EA3E
  8
AM_0
 10
600.07340086992383
 20
162.09828404068651
 30
0.0
 70
    32
  0
VERTEX
  5
EA3F
  8
AM_0
 10
600.07740086992385
 20
162.09728404068639
 30
0.0
 70
    32
  0
VERTEX
  5
EA40
  8
AM_0
 10
600.0814008699241
 20
162.0962840406865
 30
0.0
 70
    32
  0
VERTEX
  5
EA41
  8
AM_0
 10
600.08540086992389
 20
162.0962840406865
 30
0.0
 70
    32
  0
VERTEX
  5
EA42
  8
AM_0
 10
600.09040086992422
 20
162.09528404068661
 30
0.0
 70
    32
  0
VERTEX
  5
EA43
  8
AM_0
 10
600.09440086992402
 20
162.09428404068669
 30
0.0
 70
    32
  0
VERTEX
  5
EA44
  8
AM_0
 10
600.09840086992381
 20
162.09428404068669
 30
0.0
 70
    32
  0
VERTEX
  5
EA45
  8
AM_0
 10
600.10240086992383
 20
162.09328404068671
 30
0.0
 70
    32
  0
VERTEX
  5
EA46
  8
AM_0
 10
600.10740086992382
 20
162.09328404068671
 30
0.0
 70
    32
  0
VERTEX
  5
EA47
  8
AM_0
 10
600.11140086992441
 20
162.09228404068651
 30
0.0
 70
    32
  0
VERTEX
  5
EA48
  8
AM_0
 10
600.11540086992375
 20
162.09228404068651
 30
0.0
 70
    32
  0
VERTEX
  5
EA49
  8
AM_0
 10
600.11940086992399
 20
162.09128404068679
 30
0.0
 70
    32
  0
VERTEX
  5
EA4A
  8
AM_0
 10
600.12440086992399
 20
162.09128404068679
 30
0.0
 70
    32
  0
VERTEX
  5
EA4B
  8
AM_0
 10
600.12840086992367
 20
162.09128404068679
 30
0.0
 70
    32
  0
VERTEX
  5
EA4C
  8
AM_0
 10
600.1324008699238
 20
162.09028404068681
 30
0.0
 70
    32
  0
VERTEX
  5
EA4D
  8
AM_0
 10
600.13640086992405
 20
162.09028404068681
 30
0.0
 70
    32
  0
VERTEX
  5
EA4E
  8
AM_0
 10
600.14140086992404
 20
162.09028404068681
 30
0.0
 70
    32
  0
VERTEX
  5
EA4F
  8
AM_0
 10
600.14540086992383
 20
162.09028404068681
 30
0.0
 70
    32
  0
VERTEX
  5
EA50
  8
AM_0
 10
600.14940086992385
 20
162.08928404068661
 30
0.0
 70
    32
  0
VERTEX
  5
EA51
  8
AM_0
 10
600.15340086992387
 20
162.08928404068661
 30
0.0
 70
    32
  0
VERTEX
  5
EA52
  8
AM_0
 10
600.15840086992387
 20
162.08928404068661
 30
0.0
 70
    32
  0
VERTEX
  5
EA53
  8
AM_0
 10
600.16240086992389
 20
162.08928404068661
 30
0.0
 70
    32
  0
VERTEX
  5
EA54
  8
AM_0
 10
600.16640086992402
 20
162.08928404068661
 30
0.0
 70
    32
  0
VERTEX
  5
EA55
  8
AM_0
 10
600.17140086992401
 20
162.08928404068661
 30
0.0
 70
    32
  0
VERTEX
  5
EA56
  8
AM_0
 10
600.17540086992369
 20
162.08928404068661
 30
0.0
 70
    32
  0
VERTEX
  5
EA57
  8
AM_0
 10
600.17940086992382
 20
162.08928404068661
 30
0.0
 70
    32
  0
VERTEX
  5
EA58
  8
AM_0
 10
600.18340086992396
 20
162.08928404068661
 30
0.0
 70
    32
  0
VERTEX
  5
EA59
  8
AM_0
 10
600.18840086992441
 20
162.08928404068661
 30
0.0
 70
    32
  0
VERTEX
  5
EA5A
  8
AM_0
 10
600.19240086992374
 20
162.09028404068681
 30
0.0
 70
    32
  0
VERTEX
  5
EA5B
  8
AM_0
 10
600.19640086992376
 20
162.09028404068681
 30
0.0
 70
    32
  0
VERTEX
  5
EA5C
  8
AM_0
 10
600.20040086992378
 20
162.09028404068681
 30
0.0
 70
    32
  0
VERTEX
  5
EA5D
  8
AM_0
 10
600.20540086992366
 20
162.09028404068681
 30
0.0
 70
    32
  0
VERTEX
  5
EA5E
  8
AM_0
 10
600.20940086992391
 20
162.09128404068679
 30
0.0
 70
    32
  0
VERTEX
  5
EA5F
  8
AM_0
 10
600.21340086992404
 20
162.09128404068679
 30
0.0
 70
    32
  0
VERTEX
  5
EA60
  8
AM_0
 10
600.21740086992429
 20
162.09128404068679
 30
0.0
 70
    32
  0
VERTEX
  5
EA61
  8
AM_0
 10
600.22240086992383
 20
162.09228404068651
 30
0.0
 70
    32
  0
VERTEX
  5
EA62
  8
AM_0
 10
600.22640086992385
 20
162.09228404068651
 30
0.0
 70
    32
  0
VERTEX
  5
EA63
  8
AM_0
 10
600.23040086992398
 20
162.09228404068651
 30
0.0
 70
    32
  0
VERTEX
  5
EA64
  8
AM_0
 10
600.23440086992423
 20
162.09328404068671
 30
0.0
 70
    32
  0
VERTEX
  5
EA65
  8
AM_0
 10
600.23940086992388
 20
162.09328404068671
 30
0.0
 70
    32
  0
VERTEX
  5
EA66
  8
AM_0
 10
600.24340086992402
 20
162.09428404068669
 30
0.0
 70
    32
  0
VERTEX
  5
EA67
  8
AM_0
 10
600.24740086992404
 20
162.09428404068669
 30
0.0
 70
    32
  0
VERTEX
  5
EA68
  8
AM_0
 10
600.25140086992383
 20
162.09528404068661
 30
0.0
 70
    32
  0
VERTEX
  5
EA69
  8
AM_0
 10
600.25640086992382
 20
162.09528404068661
 30
0.0
 70
    32
  0
VERTEX
  5
EA6A
  8
AM_0
 10
600.26040086992407
 20
162.0962840406865
 30
0.0
 70
    32
  0
VERTEX
  5
EA6B
  8
AM_0
 10
600.2644008699242
 20
162.0962840406865
 30
0.0
 70
    32
  0
VERTEX
  5
EA6C
  8
AM_0
 10
600.26840086992365
 20
162.09728404068639
 30
0.0
 70
    32
  0
VERTEX
  5
EA6D
  8
AM_0
 10
600.27340086992376
 20
162.09728404068639
 30
0.0
 70
    32
  0
VERTEX
  5
EA6E
  8
AM_0
 10
600.27740086992378
 20
162.09828404068651
 30
0.0
 70
    32
  0
VERTEX
  5
EA6F
  8
AM_0
 10
600.28140086992391
 20
162.09828404068651
 30
0.0
 70
    32
  0
VERTEX
  5
EA70
  8
AM_0
 10
600.28540086992405
 20
162.09928404068671
 30
0.0
 70
    32
  0
SEQEND
  5
EA71
  8
AM_0
  0
LINE
  5
EA72
  8
AM_0
 10
586.55581567296679
 20
179.08933110576069
 30
0.0
 11
617.05581567296724
 21
179.08933110576069
 31
0.0
  0
LINE
  5
EA73
  8
AM_0
 10
597.4758156729672
 20
175.08933110576061
 30
0.0
 11
588.65581567296681
 21
173.62433110576069
 31
0.0
  0
LINE
  5
EA74
  8
AM_0
 10
598.05581567296872
 20
179.08933110576069
 30
0.0
 11
586.55581567296861
 21
179.08933110576069
 31
0.0
  0
LINE
  5
EA75
  8
AM_0
 10
589.05587645840774
 20
196.08933110576089
 30
0.0
 11
589.05587645840774
 21
199.08933110576081
 31
0.0
  0
ARC
  5
EA76
  8
AM_0
 10
587.55581567296872
 20
195.089331105761
 30
0.0
 40
0.9999999999998859
 50
90.0
 51
180.0
  0
ARC
  5
EA77
  8
AM_0
 10
597.05581567296861
 20
195.089331105761
 30
0.0
 40
0.9999999999999996
 50
0.0
 51
90.0
  0
LINE
  5
EA78
  8
AM_0
 10
647.05581567296861
 20
195.089331105761
 30
0.0
 11
647.05581567296861
 21
179.08933110576069
 31
0.0
  0
LINE
  5
EA79
  8
AM_0
 10
628.05581567296701
 20
189.3725446655329
 30
0.0
 11
628.05581567296701
 21
175.08933110576089
 31
0.0
  0
LINE
  5
EA7A
  8
AM_0
 10
658.55581567296849
 20
162.58933110576069
 30
0.0
 11
658.55581567296849
 21
195.089331105761
 31
0.0
  0
LINE
  5
EA7B
  8
AM_0
 10
658.55581567296849
 20
179.08933110576069
 30
0.0
 11
647.05581567296861
 21
179.08933110576069
 31
0.0
  0
LINE
  5
EA7C
  8
AM_0
 10
647.63581567296683
 20
175.08933110576061
 30
0.0
 11
656.45581567296642
 21
173.62433110576069
 31
0.0
  0
LINE
  5
EA7D
  8
AM_0
 10
628.05581567296701
 20
179.08933110576069
 30
0.0
 11
658.55581567296679
 21
179.08933110576069
 31
0.0
  0
LINE
  5
EA7E
  8
AM_0
 10
646.18596719198331
 20
175.08933110576061
 30
0.0
 11
646.18596719198331
 21
164.58933110576061
 31
0.0
  0
POLYLINE
  5
EA7F
  8
AM_0
 66
     1
 10
0.0
 20
0.0
 30
0.0
 70
     8
  0
VERTEX
  5
EA80
  8
AM_0
 10
645.046000869924
 20
162.09928404068671
 30
0.0
 70
    32
  0
VERTEX
  5
EA81
  8
AM_0
 10
645.0502008699242
 20
162.10028404068649
 30
0.0
 70
    32
  0
VERTEX
  5
EA82
  8
AM_0
 10
645.05450086992369
 20
162.10128404068649
 30
0.0
 70
    32
  0
VERTEX
  5
EA83
  8
AM_0
 10
645.05870086992365
 20
162.1022840406865
 30
0.0
 70
    32
  0
VERTEX
  5
EA84
  8
AM_0
 10
645.06300086992383
 20
162.1032840406867
 30
0.0
 70
    32
  0
VERTEX
  5
EA85
  8
AM_0
 10
645.06720086992402
 20
162.10428404068639
 30
0.0
 70
    32
  0
VERTEX
  5
EA86
  8
AM_0
 10
645.07150086992408
 20
162.1052840406866
 30
0.0
 70
    32
  0
VERTEX
  5
EA87
  8
AM_0
 10
645.07570086992382
 20
162.1062840406866
 30
0.0
 70
    32
  0
VERTEX
  5
EA88
  8
AM_0
 10
645.07990086992424
 20
162.10728404068669
 30
0.0
 70
    32
  0
VERTEX
  5
EA89
  8
AM_0
 10
645.08420086992373
 20
162.1082840406869
 30
0.0
 70
    32
  0
VERTEX
  5
EA8A
  8
AM_0
 10
645.08840086992382
 20
162.10928404068639
 30
0.0
 70
    32
  0
VERTEX
  5
EA8B
  8
AM_0
 10
645.09260086992401
 20
162.11028404068659
 30
0.0
 70
    32
  0
VERTEX
  5
EA8C
  8
AM_0
 10
645.09690086992407
 20
162.11128404068651
 30
0.0
 70
    32
  0
VERTEX
  5
EA8D
  8
AM_0
 10
645.10110086992438
 20
162.11228404068649
 30
0.0
 70
    32
  0
VERTEX
  5
EA8E
  8
AM_0
 10
645.10530086992424
 20
162.11328404068669
 30
0.0
 70
    32
  0
VERTEX
  5
EA8F
  8
AM_0
 10
645.10950086992364
 20
162.11428404068661
 30
0.0
 70
    32
  0
VERTEX
  5
EA90
  8
AM_0
 10
645.11370086992383
 20
162.11528404068659
 30
0.0
 70
    32
  0
VERTEX
  5
EA91
  8
AM_0
 10
645.11790086992403
 20
162.1172840406868
 30
0.0
 70
    32
  0
VERTEX
  5
EA92
  8
AM_0
 10
645.12210086992366
 20
162.11828404068649
 30
0.0
 70
    32
  0
VERTEX
  5
EA93
  8
AM_0
 10
645.12620086992365
 20
162.11928404068669
 30
0.0
 70
    32
  0
VERTEX
  5
EA94
  8
AM_0
 10
645.13040086992385
 20
162.12028404068681
 30
0.0
 70
    32
  0
VERTEX
  5
EA95
  8
AM_0
 10
645.13460086992382
 20
162.12128404068679
 30
0.0
 70
    32
  0
VERTEX
  5
EA96
  8
AM_0
 10
645.13870086992335
 20
162.12328404068651
 30
0.0
 70
    32
  0
VERTEX
  5
EA97
  8
AM_0
 10
645.14290086992366
 20
162.1242840406864
 30
0.0
 70
    32
  0
VERTEX
  5
EA98
  8
AM_0
 10
645.147000869924
 20
162.12528404068661
 30
0.0
 70
    32
  0
VERTEX
  5
EA99
  8
AM_0
 10
645.15110086992365
 20
162.1272840406865
 30
0.0
 70
    32
  0
VERTEX
  5
EA9A
  8
AM_0
 10
645.15520086992387
 20
162.12828404068651
 30
0.0
 70
    32
  0
VERTEX
  5
EA9B
  8
AM_0
 10
645.15940086992396
 20
162.12928404068671
 30
0.0
 70
    32
  0
VERTEX
  5
EA9C
  8
AM_0
 10
645.16340086992375
 20
162.13128404068641
 30
0.0
 70
    32
  0
VERTEX
  5
EA9D
  8
AM_0
 10
645.16750086992408
 20
162.13228404068661
 30
0.0
 70
    32
  0
VERTEX
  5
EA9E
  8
AM_0
 10
645.17160086992374
 20
162.13428404068671
 30
0.0
 70
    32
  0
VERTEX
  5
EA9F
  8
AM_0
 10
645.17570086992407
 20
162.1352840406866
 30
0.0
 70
    32
  0
VERTEX
  5
EAA0
  8
AM_0
 10
645.17970086992375
 20
162.13728404068681
 30
0.0
 70
    32
  0
VERTEX
  5
EAA1
  8
AM_0
 10
645.18380086992386
 20
162.13828404068681
 30
0.0
 70
    32
  0
VERTEX
  5
EAA2
  8
AM_0
 10
645.18780086992365
 20
162.14028404068659
 30
0.0
 70
    32
  0
VERTEX
  5
EAA3
  8
AM_0
 10
645.19180086992412
 20
162.14228404068649
 30
0.0
 70
    32
  0
VERTEX
  5
EAA4
  8
AM_0
 10
645.19580086992403
 20
162.1432840406865
 30
0.0
 70
    32
  0
VERTEX
  5
EAA5
  8
AM_0
 10
645.19980086992416
 20
162.14528404068639
 30
0.0
 70
    32
  0
VERTEX
  5
EAA6
  8
AM_0
 10
645.20380086992395
 20
162.1472840406864
 30
0.0
 70
    32
  0
VERTEX
  5
EAA7
  8
AM_0
 10
645.20780086992374
 20
162.1492840406865
 30
0.0
 70
    32
  0
VERTEX
  5
EAA8
  8
AM_0
 10
645.21170086992424
 20
162.15028404068661
 30
0.0
 70
    32
  0
VERTEX
  5
EAA9
  8
AM_0
 10
645.21570086992381
 20
162.1522840406866
 30
0.0
 70
    32
  0
VERTEX
  5
EAAA
  8
AM_0
 10
645.21960086992385
 20
162.15428404068669
 30
0.0
 70
    32
  0
VERTEX
  5
EAAB
  8
AM_0
 10
645.22360086992421
 20
162.15628404068659
 30
0.0
 70
    32
  0
VERTEX
  5
EAAC
  8
AM_0
 10
645.22750086992403
 20
162.15828404068651
 30
0.0
 70
    32
  0
VERTEX
  5
EAAD
  8
AM_0
 10
645.23140086992385
 20
162.16028404068661
 30
0.0
 70
    32
  0
VERTEX
  5
EAAE
  8
AM_0
 10
645.23530086992389
 20
162.16228404068639
 30
0.0
 70
    32
  0
VERTEX
  5
EAAF
  8
AM_0
 10
645.23920086992405
 20
162.16428404068631
 30
0.0
 70
    32
  0
VERTEX
  5
EAB0
  8
AM_0
 10
645.24310086992421
 20
162.1662840406868
 30
0.0
 70
    32
  0
VERTEX
  5
EAB1
  8
AM_0
 10
645.24700086992414
 20
162.16828404068681
 30
0.0
 70
    32
  0
VERTEX
  5
EAB2
  8
AM_0
 10
645.25080086992409
 20
162.17028404068651
 30
0.0
 70
    32
  0
VERTEX
  5
EAB3
  8
AM_0
 10
645.25470086992402
 20
162.17228404068641
 30
0.0
 70
    32
  0
VERTEX
  5
EAB4
  8
AM_0
 10
645.25850086992375
 20
162.1742840406863
 30
0.0
 70
    32
  0
VERTEX
  5
EAB5
  8
AM_0
 10
645.26230086992382
 20
162.1762840406866
 30
0.0
 70
    32
  0
VERTEX
  5
EAB6
  8
AM_0
 10
645.26620086992364
 20
162.17828404068649
 30
0.0
 70
    32
  0
VERTEX
  5
EAB7
  8
AM_0
 10
645.27000086992405
 20
162.1802840406865
 30
0.0
 70
    32
  0
VERTEX
  5
EAB8
  8
AM_0
 10
645.27380086992343
 20
162.1822840406864
 30
0.0
 70
    32
  0
VERTEX
  5
EAB9
  8
AM_0
 10
645.27750086992376
 20
162.1842840406868
 30
0.0
 70
    32
  0
VERTEX
  5
EABA
  8
AM_0
 10
645.28130086992383
 20
162.18628404068659
 30
0.0
 70
    32
  0
VERTEX
  5
EABB
  8
AM_0
 10
645.28510086992355
 20
162.18928404068669
 30
0.0
 70
    32
  0
VERTEX
  5
EABC
  8
AM_0
 10
645.28880086992388
 20
162.1912840406867
 30
0.0
 70
    32
  0
VERTEX
  5
EABD
  8
AM_0
 10
645.29260086992383
 20
162.19328404068679
 30
0.0
 70
    32
  0
VERTEX
  5
EABE
  8
AM_0
 10
645.29630086992381
 20
162.19528404068689
 30
0.0
 70
    32
  0
VERTEX
  5
EABF
  8
AM_0
 10
645.30000086992402
 20
162.19828404068679
 30
0.0
 70
    32
  0
VERTEX
  5
EAC0
  8
AM_0
 10
645.30380086992375
 20
162.20028404068651
 30
0.0
 70
    32
  0
VERTEX
  5
EAC1
  8
AM_0
 10
645.30750086992384
 20
162.20228404068641
 30
0.0
 70
    32
  0
VERTEX
  5
EAC2
  8
AM_0
 10
645.31110086992385
 20
162.20428404068679
 30
0.0
 70
    32
  0
VERTEX
  5
EAC3
  8
AM_0
 10
645.31480086992383
 20
162.2072840406866
 30
0.0
 70
    32
  0
VERTEX
  5
EAC4
  8
AM_0
 10
645.31850086992381
 20
162.2092840406865
 30
0.0
 70
    32
  0
VERTEX
  5
EAC5
  8
AM_0
 10
645.3221008699237
 20
162.21128404068671
 30
0.0
 70
    32
  0
VERTEX
  5
EAC6
  8
AM_0
 10
645.32580086992414
 20
162.21428404068661
 30
0.0
 70
    32
  0
VERTEX
  5
EAC7
  8
AM_0
 10
645.32940086992414
 20
162.2162840406867
 30
0.0
 70
    32
  0
VERTEX
  5
EAC8
  8
AM_0
 10
645.3331008699239
 20
162.21928404068649
 30
0.0
 70
    32
  0
VERTEX
  5
EAC9
  8
AM_0
 10
645.33670086992413
 20
162.22128404068641
 30
0.0
 70
    32
  0
VERTEX
  5
EACA
  8
AM_0
 10
645.34030086992425
 20
162.22328404068639
 30
0.0
 70
    32
  0
VERTEX
  5
EACB
  8
AM_0
 10
645.34390086992391
 20
162.22628404068649
 30
0.0
 70
    32
  0
VERTEX
  5
EACC
  8
AM_0
 10
645.34740086992429
 20
162.22828404068659
 30
0.0
 70
    32
  0
VERTEX
  5
EACD
  8
AM_0
 10
645.35100086992384
 20
162.23128404068669
 30
0.0
 70
    32
  0
VERTEX
  5
EACE
  8
AM_0
 10
645.35460086992384
 20
162.2332840406867
 30
0.0
 70
    32
  0
VERTEX
  5
EACF
  8
AM_0
 10
645.35810086992399
 20
162.23628404068671
 30
0.0
 70
    32
  0
VERTEX
  5
EAD0
  8
AM_0
 10
645.36160086992379
 20
162.23828404068661
 30
0.0
 70
    32
  0
VERTEX
  5
EAD1
  8
AM_0
 10
645.36510086992405
 20
162.24128404068659
 30
0.0
 70
    32
  0
VERTEX
  5
EAD2
  8
AM_0
 10
645.36870086992406
 20
162.24428404068681
 30
0.0
 70
    32
  0
VERTEX
  5
EAD3
  8
AM_0
 10
645.37210086992366
 20
162.2462840406867
 30
0.0
 70
    32
  0
VERTEX
  5
EAD4
  8
AM_0
 10
645.37560086992414
 20
162.2492840406864
 30
0.0
 70
    32
  0
VERTEX
  5
EAD5
  8
AM_0
 10
645.37910086992383
 20
162.25128404068681
 30
0.0
 70
    32
  0
VERTEX
  5
EAD6
  8
AM_0
 10
645.38260086992375
 20
162.2542840406868
 30
0.0
 70
    32
  0
VERTEX
  5
EAD7
  8
AM_0
 10
645.38600086992403
 20
162.2572840406865
 30
0.0
 70
    32
  0
VERTEX
  5
EAD8
  8
AM_0
 10
645.38950086992429
 20
162.25928404068659
 30
0.0
 70
    32
  0
VERTEX
  5
EAD9
  8
AM_0
 10
645.39290086992423
 20
162.26228404068689
 30
0.0
 70
    32
  0
VERTEX
  5
EADA
  8
AM_0
 10
645.39630086992383
 20
162.2652840406864
 30
0.0
 70
    32
  0
VERTEX
  5
EADB
  8
AM_0
 10
645.39970086992446
 20
162.26728404068669
 30
0.0
 70
    32
  0
VERTEX
  5
EADC
  8
AM_0
 10
645.40310086992395
 20
162.27028404068651
 30
0.0
 70
    32
  0
VERTEX
  5
EADD
  8
AM_0
 10
645.40650086992366
 20
162.27328404068669
 30
0.0
 70
    32
  0
VERTEX
  5
EADE
  8
AM_0
 10
645.40980086992386
 20
162.2762840406867
 30
0.0
 70
    32
  0
VERTEX
  5
EADF
  8
AM_0
 10
645.41320086992448
 20
162.27828404068671
 30
0.0
 70
    32
  0
VERTEX
  5
EAE0
  8
AM_0
 10
645.41650086992388
 20
162.28128404068659
 30
0.0
 70
    32
  0
VERTEX
  5
EAE1
  8
AM_0
 10
645.41990086992382
 20
162.2842840406866
 30
0.0
 70
    32
  0
VERTEX
  5
EAE2
  8
AM_0
 10
645.42320086992402
 20
162.2872840406867
 30
0.0
 70
    32
  0
VERTEX
  5
EAE3
  8
AM_0
 10
645.42650086992364
 20
162.2892840406864
 30
0.0
 70
    32
  0
VERTEX
  5
EAE4
  8
AM_0
 10
645.42980086992395
 20
162.2922840406865
 30
0.0
 70
    32
  0
VERTEX
  5
EAE5
  8
AM_0
 10
645.43310086992381
 20
162.2952840406864
 30
0.0
 70
    32
  0
VERTEX
  5
EAE6
  8
AM_0
 10
645.43640086992355
 20
162.2982840406867
 30
0.0
 70
    32
  0
VERTEX
  5
EAE7
  8
AM_0
 10
645.43970086992385
 20
162.3012840406866
 30
0.0
 70
    32
  0
VERTEX
  5
EAE8
  8
AM_0
 10
645.44290086992385
 20
162.3042840406865
 30
0.0
 70
    32
  0
VERTEX
  5
EAE9
  8
AM_0
 10
645.44620086992381
 20
162.30728404068651
 30
0.0
 70
    32
  0
VERTEX
  5
EAEA
  8
AM_0
 10
645.44940086992335
 20
162.31028404068641
 30
0.0
 70
    32
  0
VERTEX
  5
EAEB
  8
AM_0
 10
645.4526008699238
 20
162.3132840406866
 30
0.0
 70
    32
  0
VERTEX
  5
EAEC
  8
AM_0
 10
645.45580086992379
 20
162.31528404068661
 30
0.0
 70
    32
  0
VERTEX
  5
EAED
  8
AM_0
 10
645.45900086992424
 20
162.3182840406869
 30
0.0
 70
    32
  0
VERTEX
  5
EAEE
  8
AM_0
 10
645.462200869924
 20
162.32128404068649
 30
0.0
 70
    32
  0
VERTEX
  5
EAEF
  8
AM_0
 10
645.46540086992388
 20
162.32428404068651
 30
0.0
 70
    32
  0
VERTEX
  5
EAF0
  8
AM_0
 10
645.4686008699241
 20
162.32728404068661
 30
0.0
 70
    32
  0
VERTEX
  5
EAF1
  8
AM_0
 10
645.47170086992401
 20
162.33028404068659
 30
0.0
 70
    32
  0
VERTEX
  5
EAF2
  8
AM_0
 10
645.47490086992423
 20
162.33328404068649
 30
0.0
 70
    32
  0
VERTEX
  5
EAF3
  8
AM_0
 10
645.47800086992379
 20
162.33628404068659
 30
0.0
 70
    32
  0
VERTEX
  5
EAF4
  8
AM_0
 10
645.48110086992403
 20
162.33928404068649
 30
0.0
 70
    32
  0
VERTEX
  5
EAF5
  8
AM_0
 10
645.4843008699238
 20
162.34228404068651
 30
0.0
 70
    32
  0
VERTEX
  5
EAF6
  8
AM_0
 10
645.48740086992416
 20
162.34528404068641
 30
0.0
 70
    32
  0
VERTEX
  5
EAF7
  8
AM_0
 10
645.49050086992384
 20
162.34828404068651
 30
0.0
 70
    32
  0
VERTEX
  5
EAF8
  8
AM_0
 10
645.49350086992365
 20
162.35128404068649
 30
0.0
 70
    32
  0
VERTEX
  5
EAF9
  8
AM_0
 10
645.49660086992401
 20
162.3552840406864
 30
0.0
 70
    32
  0
VERTEX
  5
EAFA
  8
AM_0
 10
645.49970086992425
 20
162.35828404068681
 30
0.0
 70
    32
  0
VERTEX
  5
EAFB
  8
AM_0
 10
645.50270086992396
 20
162.36128404068671
 30
0.0
 70
    32
  0
VERTEX
  5
EAFC
  8
AM_0
 10
645.50580086992375
 20
162.3642840406867
 30
0.0
 70
    32
  0
VERTEX
  5
EAFD
  8
AM_0
 10
645.50880086992356
 20
162.3672840406868
 30
0.0
 70
    32
  0
VERTEX
  5
EAFE
  8
AM_0
 10
645.51180086992406
 20
162.3702840406865
 30
0.0
 70
    32
  0
VERTEX
  5
EAFF
  8
AM_0
 10
645.51480086992376
 20
162.3732840406866
 30
0.0
 70
    32
  0
VERTEX
  5
EB00
  8
AM_0
 10
645.51780086992369
 20
162.3762840406869
 30
0.0
 70
    32
  0
VERTEX
  5
EB01
  8
AM_0
 10
645.52080086992419
 20
162.38028404068649
 30
0.0
 70
    32
  0
VERTEX
  5
EB02
  8
AM_0
 10
645.523800869924
 20
162.38328404068659
 30
0.0
 70
    32
  0
VERTEX
  5
EB03
  8
AM_0
 10
645.52680086992405
 20
162.38628404068649
 30
0.0
 70
    32
  0
VERTEX
  5
EB04
  8
AM_0
 10
645.52970086992389
 20
162.38928404068679
 30
0.0
 70
    32
  0
VERTEX
  5
EB05
  8
AM_0
 10
645.53270086992381
 20
162.39228404068669
 30
0.0
 70
    32
  0
VERTEX
  5
EB06
  8
AM_0
 10
645.53560086992422
 20
162.39528404068631
 30
0.0
 70
    32
  0
VERTEX
  5
EB07
  8
AM_0
 10
645.53860086992415
 20
162.3992840406865
 30
0.0
 70
    32
  0
VERTEX
  5
EB08
  8
AM_0
 10
645.54150086992388
 20
162.4022840406864
 30
0.0
 70
    32
  0
VERTEX
  5
EB09
  8
AM_0
 10
645.54440086992383
 20
162.4052840406865
 30
0.0
 70
    32
  0
VERTEX
  5
EB0A
  8
AM_0
 10
645.54730086992424
 20
162.4082840406866
 30
0.0
 70
    32
  0
VERTEX
  5
EB0B
  8
AM_0
 10
645.55020086992386
 20
162.4122840406867
 30
0.0
 70
    32
  0
VERTEX
  5
EB0C
  8
AM_0
 10
645.55310086992381
 20
162.41528404068649
 30
0.0
 70
    32
  0
VERTEX
  5
EB0D
  8
AM_0
 10
645.55590086992436
 20
162.41828404068681
 30
0.0
 70
    32
  0
VERTEX
  5
EB0E
  8
AM_0
 10
645.55880086992374
 20
162.42128404068649
 30
0.0
 70
    32
  0
VERTEX
  5
EB0F
  8
AM_0
 10
645.56160086992395
 20
162.42528404068679
 30
0.0
 70
    32
  0
VERTEX
  5
EB10
  8
AM_0
 10
645.56450086992425
 20
162.42828404068661
 30
0.0
 70
    32
  0
VERTEX
  5
EB11
  8
AM_0
 10
645.56730086992422
 20
162.43128404068651
 30
0.0
 70
    32
  0
VERTEX
  5
EB12
  8
AM_0
 10
645.57010086992386
 20
162.4352840406865
 30
0.0
 70
    32
  0
VERTEX
  5
EB13
  8
AM_0
 10
645.57290086992384
 20
162.4382840406866
 30
0.0
 70
    32
  0
VERTEX
  5
EB14
  8
AM_0
 10
645.57570086992371
 20
162.4412840406865
 30
0.0
 70
    32
  0
VERTEX
  5
EB15
  8
AM_0
 10
645.57850086992414
 20
162.4452840406868
 30
0.0
 70
    32
  0
VERTEX
  5
EB16
  8
AM_0
 10
645.58130086992367
 20
162.44828404068659
 30
0.0
 70
    32
  0
VERTEX
  5
EB17
  8
AM_0
 10
645.58410086992365
 20
162.45128404068669
 30
0.0
 70
    32
  0
VERTEX
  5
EB18
  8
AM_0
 10
645.58680086992365
 20
162.45528404068631
 30
0.0
 70
    32
  0
VERTEX
  5
EB19
  8
AM_0
 10
645.58960086992408
 20
162.45828404068661
 30
0.0
 70
    32
  0
VERTEX
  5
EB1A
  8
AM_0
 10
645.59230086992386
 20
162.46128404068659
 30
0.0
 70
    32
  0
VERTEX
  5
EB1B
  8
AM_0
 10
645.59510086992407
 20
162.46528404068681
 30
0.0
 70
    32
  0
VERTEX
  5
EB1C
  8
AM_0
 10
645.59780086992384
 20
162.4682840406866
 30
0.0
 70
    32
  0
VERTEX
  5
EB1D
  8
AM_0
 10
645.60050086992385
 20
162.47228404068659
 30
0.0
 70
    32
  0
VERTEX
  5
EB1E
  8
AM_0
 10
645.60320086992385
 20
162.47528404068629
 30
0.0
 70
    32
  0
VERTEX
  5
EB1F
  8
AM_0
 10
645.60590086992374
 20
162.4782840406865
 30
0.0
 70
    32
  0
VERTEX
  5
EB20
  8
AM_0
 10
645.60860086992375
 20
162.48228404068669
 30
0.0
 70
    32
  0
VERTEX
  5
EB21
  8
AM_0
 10
645.61130086992387
 20
162.48528404068659
 30
0.0
 70
    32
  0
VERTEX
  5
EB22
  8
AM_0
 10
645.61390086992412
 20
162.48928404068641
 30
0.0
 70
    32
  0
VERTEX
  5
EB23
  8
AM_0
 10
645.61660086992424
 20
162.4922840406868
 30
0.0
 70
    32
  0
VERTEX
  5
EB24
  8
AM_0
 10
645.61930086992413
 20
162.49628404068679
 30
0.0
 70
    32
  0
VERTEX
  5
EB25
  8
AM_0
 10
645.62190086992348
 20
162.49928404068669
 30
0.0
 70
    32
  0
VERTEX
  5
EB26
  8
AM_0
 10
645.62450086992385
 20
162.50228404068659
 30
0.0
 70
    32
  0
VERTEX
  5
EB27
  8
AM_0
 10
645.62710086992422
 20
162.50628404068641
 30
0.0
 70
    32
  0
VERTEX
  5
EB28
  8
AM_0
 10
645.62980086992377
 20
162.50928404068671
 30
0.0
 70
    32
  0
VERTEX
  5
EB29
  8
AM_0
 10
645.63240086992403
 20
162.5132840406869
 30
0.0
 70
    32
  0
VERTEX
  5
EB2A
  8
AM_0
 10
645.63500086992406
 20
162.5162840406864
 30
0.0
 70
    32
  0
VERTEX
  5
EB2B
  8
AM_0
 10
645.63750086992422
 20
162.52028404068659
 30
0.0
 70
    32
  0
VERTEX
  5
EB2C
  8
AM_0
 10
645.6401008699238
 20
162.5232840406868
 30
0.0
 70
    32
  0
VERTEX
  5
EB2D
  8
AM_0
 10
645.64270086992383
 20
162.5272840406866
 30
0.0
 70
    32
  0
VERTEX
  5
EB2E
  8
AM_0
 10
645.645200869924
 20
162.53028404068661
 30
0.0
 70
    32
  0
VERTEX
  5
EB2F
  8
AM_0
 10
645.64780086992425
 20
162.53428404068671
 30
0.0
 70
    32
  0
VERTEX
  5
EB30
  8
AM_0
 10
645.65030086992374
 20
162.53728404068659
 30
0.0
 70
    32
  0
VERTEX
  5
EB31
  8
AM_0
 10
645.65290086992388
 20
162.54128404068669
 30
0.0
 70
    32
  0
VERTEX
  5
EB32
  8
AM_0
 10
645.65540086992405
 20
162.54428404068651
 30
0.0
 70
    32
  0
VERTEX
  5
EB33
  8
AM_0
 10
645.65790086992365
 20
162.5482840406865
 30
0.0
 70
    32
  0
VERTEX
  5
EB34
  8
AM_0
 10
645.66040086992405
 20
162.5522840406868
 30
0.0
 70
    32
  0
VERTEX
  5
EB35
  8
AM_0
 10
645.66290086992421
 20
162.55528404068659
 30
0.0
 70
    32
  0
VERTEX
  5
EB36
  8
AM_0
 10
645.66540086992381
 20
162.5592840406868
 30
0.0
 70
    32
  0
VERTEX
  5
EB37
  8
AM_0
 10
645.66790086992376
 20
162.56228404068659
 30
0.0
 70
    32
  0
VERTEX
  5
EB38
  8
AM_0
 10
645.67030086992384
 20
162.56628404068661
 30
0.0
 70
    32
  0
VERTEX
  5
EB39
  8
AM_0
 10
645.67280086992412
 20
162.56928404068671
 30
0.0
 70
    32
  0
VERTEX
  5
EB3A
  8
AM_0
 10
645.67520086992374
 20
162.57328404068639
 30
0.0
 70
    32
  0
VERTEX
  5
EB3B
  8
AM_0
 10
645.6777008699238
 20
162.57728404068661
 30
0.0
 70
    32
  0
VERTEX
  5
EB3C
  8
AM_0
 10
645.68010086992365
 20
162.58028404068631
 30
0.0
 70
    32
  0
VERTEX
  5
EB3D
  8
AM_0
 10
645.68250086992384
 20
162.5842840406865
 30
0.0
 70
    32
  0
VERTEX
  5
EB3E
  8
AM_0
 10
645.68500086992401
 20
162.5872840406864
 30
0.0
 70
    32
  0
VERTEX
  5
EB3F
  8
AM_0
 10
645.6874008699242
 20
162.5912840406867
 30
0.0
 70
    32
  0
VERTEX
  5
EB40
  8
AM_0
 10
645.68980086992383
 20
162.59528404068669
 30
0.0
 70
    32
  0
VERTEX
  5
EB41
  8
AM_0
 10
645.69220086992402
 20
162.59828404068659
 30
0.0
 70
    32
  0
VERTEX
  5
EB42
  8
AM_0
 10
645.69460086992376
 20
162.6022840406867
 30
0.0
 70
    32
  0
VERTEX
  5
EB43
  8
AM_0
 10
645.69690086992375
 20
162.6062840406864
 30
0.0
 70
    32
  0
VERTEX
  5
EB44
  8
AM_0
 10
645.69930086992383
 20
162.60928404068659
 30
0.0
 70
    32
  0
VERTEX
  5
EB45
  8
AM_0
 10
645.7017008699238
 20
162.61328404068661
 30
0.0
 70
    32
  0
VERTEX
  5
EB46
  8
AM_0
 10
645.70400086992424
 20
162.61728404068691
 30
0.0
 70
    32
  0
VERTEX
  5
EB47
  8
AM_0
 10
645.70640086992375
 20
162.6202840406865
 30
0.0
 70
    32
  0
VERTEX
  5
EB48
  8
AM_0
 10
645.70870086992375
 20
162.6242840406866
 30
0.0
 70
    32
  0
VERTEX
  5
EB49
  8
AM_0
 10
645.71100086992374
 20
162.62828404068659
 30
0.0
 70
    32
  0
VERTEX
  5
EB4A
  8
AM_0
 10
645.71330086992384
 20
162.6312840406865
 30
0.0
 70
    32
  0
VERTEX
  5
EB4B
  8
AM_0
 10
645.71560086992395
 20
162.6352840406864
 30
0.0
 70
    32
  0
VERTEX
  5
EB4C
  8
AM_0
 10
645.71800086992437
 20
162.63928404068679
 30
0.0
 70
    32
  0
VERTEX
  5
EB4D
  8
AM_0
 10
645.72020086992416
 20
162.64228404068669
 30
0.0
 70
    32
  0
VERTEX
  5
EB4E
  8
AM_0
 10
645.72250086992403
 20
162.64628404068679
 30
0.0
 70
    32
  0
VERTEX
  5
EB4F
  8
AM_0
 10
645.72480086992402
 20
162.65028404068639
 30
0.0
 70
    32
  0
VERTEX
  5
EB50
  8
AM_0
 10
645.72710086992379
 20
162.6532840406864
 30
0.0
 70
    32
  0
VERTEX
  5
EB51
  8
AM_0
 10
645.72940086992423
 20
162.6572840406869
 30
0.0
 70
    32
  0
VERTEX
  5
EB52
  8
AM_0
 10
645.73160086992414
 20
162.66128404068661
 30
0.0
 70
    32
  0
VERTEX
  5
EB53
  8
AM_0
 10
645.73390086992401
 20
162.6652840406866
 30
0.0
 70
    32
  0
VERTEX
  5
EB54
  8
AM_0
 10
645.7361008699238
 20
162.6682840406865
 30
0.0
 70
    32
  0
VERTEX
  5
EB55
  8
AM_0
 10
645.73830086992405
 20
162.67228404068669
 30
0.0
 70
    32
  0
VERTEX
  5
EB56
  8
AM_0
 10
645.74060086992404
 20
162.6762840406866
 30
0.0
 70
    32
  0
VERTEX
  5
EB57
  8
AM_0
 10
645.74280086992405
 20
162.6792840406867
 30
0.0
 70
    32
  0
VERTEX
  5
EB58
  8
AM_0
 10
645.74500086992441
 20
162.68328404068629
 30
0.0
 70
    32
  0
VERTEX
  5
EB59
  8
AM_0
 10
645.7472008699242
 20
162.68728404068651
 30
0.0
 70
    32
  0
VERTEX
  5
EB5A
  8
AM_0
 10
645.74940086992422
 20
162.6912840406865
 30
0.0
 70
    32
  0
VERTEX
  5
EB5B
  8
AM_0
 10
645.75160086992412
 20
162.69428404068651
 30
0.0
 70
    32
  0
VERTEX
  5
EB5C
  8
AM_0
 10
645.75370086992416
 20
162.6982840406865
 30
0.0
 70
    32
  0
VERTEX
  5
EB5D
  8
AM_0
 10
645.75590086992418
 20
162.70228404068661
 30
0.0
 70
    32
  0
VERTEX
  5
EB5E
  8
AM_0
 10
645.75810086992385
 20
162.7062840406866
 30
0.0
 70
    32
  0
VERTEX
  5
EB5F
  8
AM_0
 10
645.76020086992423
 20
162.7102840406867
 30
0.0
 70
    32
  0
VERTEX
  5
EB60
  8
AM_0
 10
645.76240086992357
 20
162.7132840406868
 30
0.0
 70
    32
  0
VERTEX
  5
EB61
  8
AM_0
 10
645.76450086992429
 20
162.71728404068651
 30
0.0
 70
    32
  0
VERTEX
  5
EB62
  8
AM_0
 10
645.76670086992419
 20
162.72128404068641
 30
0.0
 70
    32
  0
VERTEX
  5
EB63
  8
AM_0
 10
645.76880086992423
 20
162.7252840406866
 30
0.0
 70
    32
  0
VERTEX
  5
EB64
  8
AM_0
 10
645.77090086992359
 20
162.7282840406867
 30
0.0
 70
    32
  0
VERTEX
  5
EB65
  8
AM_0
 10
645.77300086992375
 20
162.73228404068661
 30
0.0
 70
    32
  0
VERTEX
  5
EB66
  8
AM_0
 10
645.77510086992436
 20
162.7362840406866
 30
0.0
 70
    32
  0
VERTEX
  5
EB67
  8
AM_0
 10
645.77720086992383
 20
162.74028404068659
 30
0.0
 70
    32
  0
VERTEX
  5
EB68
  8
AM_0
 10
645.77930086992399
 20
162.74428404068681
 30
0.0
 70
    32
  0
VERTEX
  5
EB69
  8
AM_0
 10
645.78140086992414
 20
162.7482840406866
 30
0.0
 70
    32
  0
VERTEX
  5
EB6A
  8
AM_0
 10
645.78350086992396
 20
162.7512840406869
 30
0.0
 70
    32
  0
VERTEX
  5
EB6B
  8
AM_0
 10
645.78550086992448
 20
162.75528404068669
 30
0.0
 70
    32
  0
VERTEX
  5
EB6C
  8
AM_0
 10
645.78760086992384
 20
162.75928404068671
 30
0.0
 70
    32
  0
VERTEX
  5
EB6D
  8
AM_0
 10
645.78970086992365
 20
162.76328404068681
 30
0.0
 70
    32
  0
VERTEX
  5
EB6E
  8
AM_0
 10
645.79170086992394
 20
162.7672840406866
 30
0.0
 70
    32
  0
VERTEX
  5
EB6F
  8
AM_0
 10
645.79380086992387
 20
162.77028404068659
 30
0.0
 70
    32
  0
VERTEX
  5
EB70
  8
AM_0
 10
645.79580086992382
 20
162.77428404068681
 30
0.0
 70
    32
  0
VERTEX
  5
EB71
  8
AM_0
 10
645.79780086992389
 20
162.7782840406864
 30
0.0
 70
    32
  0
VERTEX
  5
EB72
  8
AM_0
 10
645.79980086992407
 20
162.7822840406867
 30
0.0
 70
    32
  0
VERTEX
  5
EB73
  8
AM_0
 10
645.80180086992425
 20
162.7862840406865
 30
0.0
 70
    32
  0
VERTEX
  5
EB74
  8
AM_0
 10
645.80380086992375
 20
162.79028404068671
 30
0.0
 70
    32
  0
VERTEX
  5
EB75
  8
AM_0
 10
645.80580086992381
 20
162.79428404068639
 30
0.0
 70
    32
  0
VERTEX
  5
EB76
  8
AM_0
 10
645.80780086992388
 20
162.79728404068669
 30
0.0
 70
    32
  0
VERTEX
  5
EB77
  8
AM_0
 10
645.80980086992395
 20
162.80128404068651
 30
0.0
 70
    32
  0
VERTEX
  5
EB78
  8
AM_0
 10
645.81180086992401
 20
162.8052840406867
 30
0.0
 70
    32
  0
VERTEX
  5
EB79
  8
AM_0
 10
645.81380086992385
 20
162.80928404068641
 30
0.0
 70
    32
  0
VERTEX
  5
EB7A
  8
AM_0
 10
645.81570086992429
 20
162.8132840406866
 30
0.0
 70
    32
  0
VERTEX
  5
EB7B
  8
AM_0
 10
645.81770086992367
 20
162.81728404068659
 30
0.0
 70
    32
  0
VERTEX
  5
EB7C
  8
AM_0
 10
645.81960086992422
 20
162.82128404068681
 30
0.0
 70
    32
  0
VERTEX
  5
EB7D
  8
AM_0
 10
645.82160086992383
 20
162.8252840406866
 30
0.0
 70
    32
  0
VERTEX
  5
EB7E
  8
AM_0
 10
645.82350086992403
 20
162.82928404068679
 30
0.0
 70
    32
  0
VERTEX
  5
EB7F
  8
AM_0
 10
645.82540086992367
 20
162.83228404068669
 30
0.0
 70
    32
  0
VERTEX
  5
EB80
  8
AM_0
 10
645.82740086992385
 20
162.83628404068651
 30
0.0
 70
    32
  0
VERTEX
  5
EB81
  8
AM_0
 10
645.82930086992383
 20
162.84028404068681
 30
0.0
 70
    32
  0
VERTEX
  5
EB82
  8
AM_0
 10
645.8312008699238
 20
162.8442840406866
 30
0.0
 70
    32
  0
VERTEX
  5
EB83
  8
AM_0
 10
645.83310086992424
 20
162.84828404068639
 30
0.0
 70
    32
  0
VERTEX
  5
EB84
  8
AM_0
 10
645.83500086992376
 20
162.8522840406867
 30
0.0
 70
    32
  0
VERTEX
  5
EB85
  8
AM_0
 10
645.83690086992419
 20
162.85628404068649
 30
0.0
 70
    32
  0
VERTEX
  5
EB86
  8
AM_0
 10
645.83870086992385
 20
162.86028404068659
 30
0.0
 70
    32
  0
VERTEX
  5
EB87
  8
AM_0
 10
645.84060086992395
 20
162.86428404068661
 30
0.0
 70
    32
  0
VERTEX
  5
EB88
  8
AM_0
 10
645.8425008699237
 20
162.86828404068649
 30
0.0
 70
    32
  0
VERTEX
  5
EB89
  8
AM_0
 10
645.84430086992381
 20
162.87228404068659
 30
0.0
 70
    32
  0
VERTEX
  5
EB8A
  8
AM_0
 10
645.84620086992402
 20
162.87528404068661
 30
0.0
 70
    32
  0
VERTEX
  5
EB8B
  8
AM_0
 10
645.84800086992402
 20
162.87928404068671
 30
0.0
 70
    32
  0
VERTEX
  5
EB8C
  8
AM_0
 10
645.84990086992411
 20
162.88328404068659
 30
0.0
 70
    32
  0
VERTEX
  5
EB8D
  8
AM_0
 10
645.851700869924
 20
162.8872840406865
 30
0.0
 70
    32
  0
VERTEX
  5
EB8E
  8
AM_0
 10
645.85350086992423
 20
162.8912840406864
 30
0.0
 70
    32
  0
VERTEX
  5
EB8F
  8
AM_0
 10
645.85540086992421
 20
162.89528404068659
 30
0.0
 70
    32
  0
VERTEX
  5
EB90
  8
AM_0
 10
645.85720086992376
 20
162.89928404068641
 30
0.0
 70
    32
  0
VERTEX
  5
EB91
  8
AM_0
 10
645.85900086992376
 20
162.90328404068649
 30
0.0
 70
    32
  0
VERTEX
  5
EB92
  8
AM_0
 10
645.86080086992399
 20
162.90728404068679
 30
0.0
 70
    32
  0
VERTEX
  5
EB93
  8
AM_0
 10
645.86260086992399
 20
162.91128404068641
 30
0.0
 70
    32
  0
VERTEX
  5
EB94
  8
AM_0
 10
645.864400869924
 20
162.9152840406866
 30
0.0
 70
    32
  0
VERTEX
  5
EB95
  8
AM_0
 10
645.86610086992425
 20
162.91928404068651
 30
0.0
 70
    32
  0
VERTEX
  5
EB96
  8
AM_0
 10
645.86790086992426
 20
162.9232840406865
 30
0.0
 70
    32
  0
VERTEX
  5
EB97
  8
AM_0
 10
645.8697008699238
 20
162.9272840406866
 30
0.0
 70
    32
  0
VERTEX
  5
EB98
  8
AM_0
 10
645.87150086992415
 20
162.93128404068639
 30
0.0
 70
    32
  0
VERTEX
  5
EB99
  8
AM_0
 10
645.87320086992395
 20
162.9352840406865
 30
0.0
 70
    32
  0
VERTEX
  5
EB9A
  8
AM_0
 10
645.87500086992395
 20
162.93928404068649
 30
0.0
 70
    32
  0
VERTEX
  5
EB9B
  8
AM_0
 10
645.87670086992375
 20
162.94328404068679
 30
0.0
 70
    32
  0
VERTEX
  5
EB9C
  8
AM_0
 10
645.87840086992355
 20
162.94728404068681
 30
0.0
 70
    32
  0
VERTEX
  5
EB9D
  8
AM_0
 10
645.88020086992412
 20
162.9512840406864
 30
0.0
 70
    32
  0
VERTEX
  5
EB9E
  8
AM_0
 10
645.88190086992404
 20
162.95528404068651
 30
0.0
 70
    32
  0
VERTEX
  5
EB9F
  8
AM_0
 10
645.88360086992384
 20
162.95928404068661
 30
0.0
 70
    32
  0
VERTEX
  5
EBA0
  8
AM_0
 10
645.88530086992387
 20
162.9632840406868
 30
0.0
 70
    32
  0
VERTEX
  5
EBA1
  8
AM_0
 10
645.88700086992367
 20
162.96728404068659
 30
0.0
 70
    32
  0
VERTEX
  5
EBA2
  8
AM_0
 10
645.88870086992404
 20
162.97128404068641
 30
0.0
 70
    32
  0
VERTEX
  5
EBA3
  8
AM_0
 10
645.89040086992418
 20
162.97528404068649
 30
0.0
 70
    32
  0
VERTEX
  5
EBA4
  8
AM_0
 10
645.89210086992409
 20
162.97928404068659
 30
0.0
 70
    32
  0
VERTEX
  5
EBA5
  8
AM_0
 10
645.89380086992389
 20
162.98328404068681
 30
0.0
 70
    32
  0
VERTEX
  5
EBA6
  8
AM_0
 10
645.89550086992404
 20
162.9872840406866
 30
0.0
 70
    32
  0
VERTEX
  5
EBA7
  8
AM_0
 10
645.89720086992384
 20
162.99128404068659
 30
0.0
 70
    32
  0
VERTEX
  5
EBA8
  8
AM_0
 10
645.89880086992366
 20
162.99528404068681
 30
0.0
 70
    32
  0
VERTEX
  5
EBA9
  8
AM_0
 10
645.9005008699238
 20
162.9992840406864
 30
0.0
 70
    32
  0
VERTEX
  5
EBAA
  8
AM_0
 10
645.90210086992374
 20
163.00328404068671
 30
0.0
 70
    32
  0
VERTEX
  5
EBAB
  8
AM_0
 10
645.90380086992354
 20
163.0072840406865
 30
0.0
 70
    32
  0
VERTEX
  5
EBAC
  8
AM_0
 10
645.9054008699236
 20
163.01128404068669
 30
0.0
 70
    32
  0
VERTEX
  5
EBAD
  8
AM_0
 10
645.90710086992397
 20
163.01528404068679
 30
0.0
 70
    32
  0
VERTEX
  5
EBAE
  8
AM_0
 10
645.90870086992345
 20
163.01928404068639
 30
0.0
 70
    32
  0
VERTEX
  5
EBAF
  8
AM_0
 10
645.91030086992407
 20
163.02328404068669
 30
0.0
 70
    32
  0
VERTEX
  5
EBB0
  8
AM_0
 10
645.91190086992378
 20
163.02728404068651
 30
0.0
 70
    32
  0
VERTEX
  5
EBB1
  8
AM_0
 10
645.91360086992381
 20
163.03128404068659
 30
0.0
 70
    32
  0
VERTEX
  5
EBB2
  8
AM_0
 10
645.91520086992386
 20
163.03528404068641
 30
0.0
 70
    32
  0
VERTEX
  5
EBB3
  8
AM_0
 10
645.91680086992358
 20
163.0392840406864
 30
0.0
 70
    32
  0
VERTEX
  5
EBB4
  8
AM_0
 10
645.91840086992363
 20
163.04328404068659
 30
0.0
 70
    32
  0
VERTEX
  5
EBB5
  8
AM_0
 10
645.91990086992382
 20
163.04728404068669
 30
0.0
 70
    32
  0
VERTEX
  5
EBB6
  8
AM_0
 10
645.92150086992388
 20
163.0512840406866
 30
0.0
 70
    32
  0
VERTEX
  5
EBB7
  8
AM_0
 10
645.92310086992381
 20
163.05528404068659
 30
0.0
 70
    32
  0
VERTEX
  5
EBB8
  8
AM_0
 10
645.92470086992387
 20
163.05928404068689
 30
0.0
 70
    32
  0
VERTEX
  5
EBB9
  8
AM_0
 10
645.92620086992383
 20
163.06328404068651
 30
0.0
 70
    32
  0
VERTEX
  5
EBBA
  8
AM_0
 10
645.92780086992377
 20
163.06728404068659
 30
0.0
 70
    32
  0
VERTEX
  5
EBBB
  8
AM_0
 10
645.92940086992405
 20
163.0722840406865
 30
0.0
 70
    32
  0
VERTEX
  5
EBBC
  8
AM_0
 10
645.93090086992424
 20
163.0762840406864
 30
0.0
 70
    32
  0
VERTEX
  5
EBBD
  8
AM_0
 10
645.93240086992375
 20
163.08028404068659
 30
0.0
 70
    32
  0
VERTEX
  5
EBBE
  8
AM_0
 10
645.93400086992369
 20
163.0842840406865
 30
0.0
 70
    32
  0
VERTEX
  5
EBBF
  8
AM_0
 10
645.93550086992389
 20
163.0882840406868
 30
0.0
 70
    32
  0
VERTEX
  5
EBC0
  8
AM_0
 10
645.93700086992385
 20
163.09228404068639
 30
0.0
 70
    32
  0
VERTEX
  5
EBC1
  8
AM_0
 10
645.93860086992424
 20
163.09628404068641
 30
0.0
 70
    32
  0
VERTEX
  5
EBC2
  8
AM_0
 10
645.94010086992409
 20
163.10028404068649
 30
0.0
 70
    32
  0
VERTEX
  5
EBC3
  8
AM_0
 10
645.9416008699236
 20
163.10428404068651
 30
0.0
 70
    32
  0
VERTEX
  5
EBC4
  8
AM_0
 10
645.94310086992402
 20
163.10828404068681
 30
0.0
 70
    32
  0
VERTEX
  5
EBC5
  8
AM_0
 10
645.9446008699241
 20
163.1122840406864
 30
0.0
 70
    32
  0
VERTEX
  5
EBC6
  8
AM_0
 10
645.94610086992384
 20
163.11628404068659
 30
0.0
 70
    32
  0
VERTEX
  5
EBC7
  8
AM_0
 10
645.94760086992449
 20
163.12028404068661
 30
0.0
 70
    32
  0
VERTEX
  5
EBC8
  8
AM_0
 10
645.94900086992391
 20
163.12428404068649
 30
0.0
 70
    32
  0
VERTEX
  5
EBC9
  8
AM_0
 10
645.95050086992376
 20
163.1292840406868
 30
0.0
 70
    32
  0
VERTEX
  5
EBCA
  8
AM_0
 10
645.95200086992429
 20
163.13328404068659
 30
0.0
 70
    32
  0
VERTEX
  5
EBCB
  8
AM_0
 10
645.95350086992414
 20
163.13728404068681
 30
0.0
 70
    32
  0
VERTEX
  5
EBCC
  8
AM_0
 10
645.95490086992424
 20
163.14128404068671
 30
0.0
 70
    32
  0
VERTEX
  5
EBCD
  8
AM_0
 10
645.95640086992387
 20
163.1452840406867
 30
0.0
 70
    32
  0
VERTEX
  5
EBCE
  8
AM_0
 10
645.95780086992374
 20
163.1492840406865
 30
0.0
 70
    32
  0
VERTEX
  5
EBCF
  8
AM_0
 10
645.95930086992405
 20
163.1532840406866
 30
0.0
 70
    32
  0
VERTEX
  5
EBD0
  8
AM_0
 10
645.96070086992404
 20
163.1572840406867
 30
0.0
 70
    32
  0
VERTEX
  5
EBD1
  8
AM_0
 10
645.96210086992426
 20
163.1612840406867
 30
0.0
 70
    32
  0
VERTEX
  5
EBD2
  8
AM_0
 10
645.96350086992413
 20
163.16528404068649
 30
0.0
 70
    32
  0
VERTEX
  5
EBD3
  8
AM_0
 10
645.96500086992421
 20
163.1702840406864
 30
0.0
 70
    32
  0
VERTEX
  5
EBD4
  8
AM_0
 10
645.96640086992375
 20
163.1742840406865
 30
0.0
 70
    32
  0
VERTEX
  5
EBD5
  8
AM_0
 10
645.96780086992385
 20
163.17828404068649
 30
0.0
 70
    32
  0
VERTEX
  5
EBD6
  8
AM_0
 10
645.96920086992395
 20
163.1822840406864
 30
0.0
 70
    32
  0
VERTEX
  5
EBD7
  8
AM_0
 10
645.97060086992383
 20
163.18628404068679
 30
0.0
 70
    32
  0
VERTEX
  5
EBD8
  8
AM_0
 10
645.97200086992427
 20
163.19028404068661
 30
0.0
 70
    32
  0
VERTEX
  5
EBD9
  8
AM_0
 10
645.97340086992369
 20
163.1942840406864
 30
0.0
 70
    32
  0
VERTEX
  5
EBDA
  8
AM_0
 10
645.97480086992402
 20
163.1982840406867
 30
0.0
 70
    32
  0
VERTEX
  5
EBDB
  8
AM_0
 10
645.97610086992381
 20
163.20228404068641
 30
0.0
 70
    32
  0
VERTEX
  5
EBDC
  8
AM_0
 10
645.97750086992403
 20
163.20728404068649
 30
0.0
 70
    32
  0
VERTEX
  5
EBDD
  8
AM_0
 10
645.97890086992356
 20
163.21128404068659
 30
0.0
 70
    32
  0
VERTEX
  5
EBDE
  8
AM_0
 10
645.98020086992403
 20
163.21528404068681
 30
0.0
 70
    32
  0
VERTEX
  5
EBDF
  8
AM_0
 10
645.98160086992357
 20
163.21928404068669
 30
0.0
 70
    32
  0
VERTEX
  5
EBE0
  8
AM_0
 10
645.98290086992404
 20
163.22328404068659
 30
0.0
 70
    32
  0
VERTEX
  5
EBE1
  8
AM_0
 10
645.98430086992369
 20
163.2272840406865
 30
0.0
 70
    32
  0
VERTEX
  5
EBE2
  8
AM_0
 10
645.98560086992404
 20
163.2312840406866
 30
0.0
 70
    32
  0
VERTEX
  5
EBE3
  8
AM_0
 10
645.98690086992383
 20
163.2362840406868
 30
0.0
 70
    32
  0
VERTEX
  5
EBE4
  8
AM_0
 10
645.98830086992405
 20
163.24028404068659
 30
0.0
 70
    32
  0
VERTEX
  5
EBE5
  8
AM_0
 10
645.98960086992383
 20
163.24428404068669
 30
0.0
 70
    32
  0
VERTEX
  5
EBE6
  8
AM_0
 10
645.99090086992408
 20
163.24828404068651
 30
0.0
 70
    32
  0
VERTEX
  5
EBE7
  8
AM_0
 10
645.99220086992398
 20
163.2522840406867
 30
0.0
 70
    32
  0
VERTEX
  5
EBE8
  8
AM_0
 10
645.99350086992365
 20
163.25628404068641
 30
0.0
 70
    32
  0
VERTEX
  5
EBE9
  8
AM_0
 10
645.99480086992401
 20
163.2602840406864
 30
0.0
 70
    32
  0
VERTEX
  5
EBEA
  8
AM_0
 10
645.99610086992391
 20
163.2652840406864
 30
0.0
 70
    32
  0
VERTEX
  5
EBEB
  8
AM_0
 10
645.99740086992381
 20
163.26928404068639
 30
0.0
 70
    32
  0
VERTEX
  5
EBEC
  8
AM_0
 10
645.99870086992382
 20
163.27328404068669
 30
0.0
 70
    32
  0
VERTEX
  5
EBED
  8
AM_0
 10
646.00000086992395
 20
163.27728404068651
 30
0.0
 70
    32
  0
VERTEX
  5
EBEE
  8
AM_0
 10
646.00130086992385
 20
163.28128404068659
 30
0.0
 70
    32
  0
VERTEX
  5
EBEF
  8
AM_0
 10
646.00250086992389
 20
163.28528404068661
 30
0.0
 70
    32
  0
VERTEX
  5
EBF0
  8
AM_0
 10
646.00380086992402
 20
163.28928404068631
 30
0.0
 70
    32
  0
VERTEX
  5
EBF1
  8
AM_0
 10
646.00510086992404
 20
163.29428404068651
 30
0.0
 70
    32
  0
VERTEX
  5
EBF2
  8
AM_0
 10
646.00630086992408
 20
163.29828404068661
 30
0.0
 70
    32
  0
VERTEX
  5
EBF3
  8
AM_0
 10
646.00760086992375
 20
163.3022840406868
 30
0.0
 70
    32
  0
VERTEX
  5
EBF4
  8
AM_0
 10
646.00880086992413
 20
163.30628404068671
 30
0.0
 70
    32
  0
VERTEX
  5
EBF5
  8
AM_0
 10
646.01010086992403
 20
163.3102840406865
 30
0.0
 70
    32
  0
VERTEX
  5
EBF6
  8
AM_0
 10
646.01130086992373
 20
163.31428404068669
 30
0.0
 70
    32
  0
VERTEX
  5
EBF7
  8
AM_0
 10
646.01250086992422
 20
163.31928404068651
 30
0.0
 70
    32
  0
VERTEX
  5
EBF8
  8
AM_0
 10
646.01380086992424
 20
163.32328404068679
 30
0.0
 70
    32
  0
VERTEX
  5
EBF9
  8
AM_0
 10
646.01500086992382
 20
163.32728404068649
 30
0.0
 70
    32
  0
VERTEX
  5
EBFA
  8
AM_0
 10
646.01620086992386
 20
163.33128404068651
 30
0.0
 70
    32
  0
VERTEX
  5
EBFB
  8
AM_0
 10
646.01740086992424
 20
163.3352840406865
 30
0.0
 70
    32
  0
VERTEX
  5
EBFC
  8
AM_0
 10
646.01860086992383
 20
163.33928404068661
 30
0.0
 70
    32
  0
VERTEX
  5
EBFD
  8
AM_0
 10
646.0198008699241
 20
163.34428404068649
 30
0.0
 70
    32
  0
VERTEX
  5
EBFE
  8
AM_0
 10
646.02100086992368
 20
163.34828404068639
 30
0.0
 70
    32
  0
VERTEX
  5
EBFF
  8
AM_0
 10
646.02220086992349
 20
163.35228404068661
 30
0.0
 70
    32
  0
VERTEX
  5
EC00
  8
AM_0
 10
646.0234008699241
 20
163.35628404068669
 30
0.0
 70
    32
  0
VERTEX
  5
EC01
  8
AM_0
 10
646.02460086992426
 20
163.36028404068639
 30
0.0
 70
    32
  0
VERTEX
  5
EC02
  8
AM_0
 10
646.02580086992396
 20
163.3652840406865
 30
0.0
 70
    32
  0
VERTEX
  5
EC03
  8
AM_0
 10
646.02690086992379
 20
163.36928404068681
 30
0.0
 70
    32
  0
VERTEX
  5
EC04
  8
AM_0
 10
646.02810086992395
 20
163.3732840406866
 30
0.0
 70
    32
  0
VERTEX
  5
EC05
  8
AM_0
 10
646.02930086992421
 20
163.3772840406865
 30
0.0
 70
    32
  0
VERTEX
  5
EC06
  8
AM_0
 10
646.03040086992416
 20
163.38128404068669
 30
0.0
 70
    32
  0
VERTEX
  5
EC07
  8
AM_0
 10
646.03160086992409
 20
163.38528404068651
 30
0.0
 70
    32
  0
VERTEX
  5
EC08
  8
AM_0
 10
646.03270086992404
 20
163.39028404068651
 30
0.0
 70
    32
  0
VERTEX
  5
EC09
  8
AM_0
 10
646.03390086992374
 20
163.39428404068639
 30
0.0
 70
    32
  0
VERTEX
  5
EC0A
  8
AM_0
 10
646.03500086992369
 20
163.39828404068669
 30
0.0
 70
    32
  0
VERTEX
  5
EC0B
  8
AM_0
 10
646.03620086992407
 20
163.40228404068651
 30
0.0
 70
    32
  0
VERTEX
  5
EC0C
  8
AM_0
 10
646.03730086992402
 20
163.40628404068659
 30
0.0
 70
    32
  0
VERTEX
  5
EC0D
  8
AM_0
 10
646.03840086992386
 20
163.4112840406865
 30
0.0
 70
    32
  0
VERTEX
  5
EC0E
  8
AM_0
 10
646.03950086992438
 20
163.4152840406864
 30
0.0
 70
    32
  0
VERTEX
  5
EC0F
  8
AM_0
 10
646.04070086992408
 20
163.41928404068659
 30
0.0
 70
    32
  0
VERTEX
  5
EC10
  8
AM_0
 10
646.04180086992415
 20
163.4232840406867
 30
0.0
 70
    32
  0
VERTEX
  5
EC11
  8
AM_0
 10
646.04290086992387
 20
163.4272840406868
 30
0.0
 70
    32
  0
VERTEX
  5
EC12
  8
AM_0
 10
646.04400086992405
 20
163.43228404068651
 30
0.0
 70
    32
  0
VERTEX
  5
EC13
  8
AM_0
 10
646.04510086992366
 20
163.43628404068679
 30
0.0
 70
    32
  0
VERTEX
  5
EC14
  8
AM_0
 10
646.04620086992418
 20
163.44028404068661
 30
0.0
 70
    32
  0
VERTEX
  5
EC15
  8
AM_0
 10
646.0473008699239
 20
163.4442840406866
 30
0.0
 70
    32
  0
VERTEX
  5
EC16
  8
AM_0
 10
646.04830086992399
 20
163.44928404068651
 30
0.0
 70
    32
  0
VERTEX
  5
EC17
  8
AM_0
 10
646.04940086992383
 20
163.4532840406865
 30
0.0
 70
    32
  0
VERTEX
  5
EC18
  8
AM_0
 10
646.05050086992389
 20
163.45728404068649
 30
0.0
 70
    32
  0
VERTEX
  5
EC19
  8
AM_0
 10
646.05160086992385
 20
163.46128404068659
 30
0.0
 70
    32
  0
VERTEX
  5
EC1A
  8
AM_0
 10
646.05260086992416
 20
163.4652840406867
 30
0.0
 70
    32
  0
VERTEX
  5
EC1B
  8
AM_0
 10
646.05370086992389
 20
163.47028404068641
 30
0.0
 70
    32
  0
VERTEX
  5
EC1C
  8
AM_0
 10
646.0547008699242
 20
163.47428404068691
 30
0.0
 70
    32
  0
VERTEX
  5
EC1D
  8
AM_0
 10
646.05580086992416
 20
163.47828404068659
 30
0.0
 70
    32
  0
VERTEX
  5
EC1E
  8
AM_0
 10
646.05680086992379
 20
163.48228404068661
 30
0.0
 70
    32
  0
VERTEX
  5
EC1F
  8
AM_0
 10
646.0579008699242
 20
163.4862840406866
 30
0.0
 70
    32
  0
VERTEX
  5
EC20
  8
AM_0
 10
646.05890086992451
 20
163.49128404068659
 30
0.0
 70
    32
  0
VERTEX
  5
EC21
  8
AM_0
 10
646.05990086992369
 20
163.4952840406865
 30
0.0
 70
    32
  0
VERTEX
  5
EC22
  8
AM_0
 10
646.06100086992365
 20
163.49928404068669
 30
0.0
 70
    32
  0
VERTEX
  5
EC23
  8
AM_0
 10
646.06200086992396
 20
163.50328404068679
 30
0.0
 70
    32
  0
VERTEX
  5
EC24
  8
AM_0
 10
646.06300086992405
 20
163.50828404068659
 30
0.0
 70
    32
  0
VERTEX
  5
EC25
  8
AM_0
 10
646.06400086992414
 20
163.51228404068681
 30
0.0
 70
    32
  0
VERTEX
  5
EC26
  8
AM_0
 10
646.06500086992378
 20
163.5162840406864
 30
0.0
 70
    32
  0
VERTEX
  5
EC27
  8
AM_0
 10
646.06600086992421
 20
163.5202840406867
 30
0.0
 70
    32
  0
VERTEX
  5
EC28
  8
AM_0
 10
646.06700086992385
 20
163.5242840406865
 30
0.0
 70
    32
  0
VERTEX
  5
EC29
  8
AM_0
 10
646.06800086992382
 20
163.5292840406866
 30
0.0
 70
    32
  0
VERTEX
  5
EC2A
  8
AM_0
 10
646.06900086992403
 20
163.53328404068631
 30
0.0
 70
    32
  0
VERTEX
  5
EC2B
  8
AM_0
 10
646.070000869924
 20
163.5372840406867
 30
0.0
 70
    32
  0
VERTEX
  5
EC2C
  8
AM_0
 10
646.07090086992423
 20
163.54128404068689
 30
0.0
 70
    32
  0
VERTEX
  5
EC2D
  8
AM_0
 10
646.07190086992375
 20
163.54628404068649
 30
0.0
 70
    32
  0
VERTEX
  5
EC2E
  8
AM_0
 10
646.07290086992373
 20
163.55028404068679
 30
0.0
 70
    32
  0
VERTEX
  5
EC2F
  8
AM_0
 10
646.07380086992384
 20
163.55428404068681
 30
0.0
 70
    32
  0
VERTEX
  5
EC30
  8
AM_0
 10
646.07480086992382
 20
163.5582840406864
 30
0.0
 70
    32
  0
VERTEX
  5
EC31
  8
AM_0
 10
646.07580086992368
 20
163.5632840406866
 30
0.0
 70
    32
  0
VERTEX
  5
EC32
  8
AM_0
 10
646.07670086992357
 20
163.5672840406867
 30
0.0
 70
    32
  0
VERTEX
  5
EC33
  8
AM_0
 10
646.07770086992366
 20
163.57128404068681
 30
0.0
 70
    32
  0
VERTEX
  5
EC34
  8
AM_0
 10
646.07860086992412
 20
163.57528404068651
 30
0.0
 70
    32
  0
VERTEX
  5
EC35
  8
AM_0
 10
646.07950086992423
 20
163.58028404068631
 30
0.0
 70
    32
  0
VERTEX
  5
EC36
  8
AM_0
 10
646.08050086992409
 20
163.58428404068681
 30
0.0
 70
    32
  0
VERTEX
  5
EC37
  8
AM_0
 10
646.0814008699241
 20
163.58828404068689
 30
0.0
 70
    32
  0
VERTEX
  5
EC38
  8
AM_0
 10
646.08230086992387
 20
163.59228404068651
 30
0.0
 70
    32
  0
VERTEX
  5
EC39
  8
AM_0
 10
646.0832008699241
 20
163.59728404068659
 30
0.0
 70
    32
  0
VERTEX
  5
EC3A
  8
AM_0
 10
646.08410086992376
 20
163.60128404068681
 30
0.0
 70
    32
  0
VERTEX
  5
EC3B
  8
AM_0
 10
646.0850008699241
 20
163.6052840406864
 30
0.0
 70
    32
  0
VERTEX
  5
EC3C
  8
AM_0
 10
646.0859008699241
 20
163.60928404068659
 30
0.0
 70
    32
  0
VERTEX
  5
EC3D
  8
AM_0
 10
646.08680086992399
 20
163.61428404068661
 30
0.0
 70
    32
  0
VERTEX
  5
EC3E
  8
AM_0
 10
646.08770086992411
 20
163.61828404068649
 30
0.0
 70
    32
  0
VERTEX
  5
EC3F
  8
AM_0
 10
646.08860086992365
 20
163.62228404068671
 30
0.0
 70
    32
  0
VERTEX
  5
EC40
  8
AM_0
 10
646.08950086992388
 20
163.62628404068681
 30
0.0
 70
    32
  0
VERTEX
  5
EC41
  8
AM_0
 10
646.09040086992411
 20
163.6312840406865
 30
0.0
 70
    32
  0
VERTEX
  5
EC42
  8
AM_0
 10
646.09130086992411
 20
163.6352840406864
 30
0.0
 70
    32
  0
VERTEX
  5
EC43
  8
AM_0
 10
646.09210086992425
 20
163.6392840406867
 30
0.0
 70
    32
  0
VERTEX
  5
EC44
  8
AM_0
 10
646.09300086992425
 20
163.6432840406865
 30
0.0
 70
    32
  0
VERTEX
  5
EC45
  8
AM_0
 10
646.09390086992391
 20
163.6482840406868
 30
0.0
 70
    32
  0
VERTEX
  5
EC46
  8
AM_0
 10
646.09470086992349
 20
163.6522840406866
 30
0.0
 70
    32
  0
VERTEX
  5
EC47
  8
AM_0
 10
646.09560086992383
 20
163.65628404068639
 30
0.0
 70
    32
  0
VERTEX
  5
EC48
  8
AM_0
 10
646.09640086992397
 20
163.66028404068649
 30
0.0
 70
    32
  0
VERTEX
  5
EC49
  8
AM_0
 10
646.09730086992386
 20
163.66528404068649
 30
0.0
 70
    32
  0
VERTEX
  5
EC4A
  8
AM_0
 10
646.09810086992377
 20
163.66928404068651
 30
0.0
 70
    32
  0
VERTEX
  5
EC4B
  8
AM_0
 10
646.09900086992423
 20
163.6732840406865
 30
0.0
 70
    32
  0
VERTEX
  5
EC4C
  8
AM_0
 10
646.09980086992402
 20
163.6772840406866
 30
0.0
 70
    32
  0
VERTEX
  5
EC4D
  8
AM_0
 10
646.10060086992428
 20
163.6822840406864
 30
0.0
 70
    32
  0
VERTEX
  5
EC4E
  8
AM_0
 10
646.10140086992374
 20
163.6862840406867
 30
0.0
 70
    32
  0
VERTEX
  5
EC4F
  8
AM_0
 10
646.10230086992408
 20
163.69028404068649
 30
0.0
 70
    32
  0
VERTEX
  5
EC50
  8
AM_0
 10
646.10310086992365
 20
163.69528404068689
 30
0.0
 70
    32
  0
VERTEX
  5
EC51
  8
AM_0
 10
646.10390086992413
 20
163.69928404068659
 30
0.0
 70
    32
  0
VERTEX
  5
EC52
  8
AM_0
 10
646.10470086992382
 20
163.7032840406865
 30
0.0
 70
    32
  0
VERTEX
  5
EC53
  8
AM_0
 10
646.10550086992419
 20
163.70728404068669
 30
0.0
 70
    32
  0
VERTEX
  5
EC54
  8
AM_0
 10
646.10630086992376
 20
163.7122840406866
 30
0.0
 70
    32
  0
VERTEX
  5
EC55
  8
AM_0
 10
646.10710086992424
 20
163.7162840406865
 30
0.0
 70
    32
  0
VERTEX
  5
EC56
  8
AM_0
 10
646.10790086992404
 20
163.72028404068669
 30
0.0
 70
    32
  0
VERTEX
  5
EC57
  8
AM_0
 10
646.10870086992429
 20
163.7242840406868
 30
0.0
 70
    32
  0
VERTEX
  5
EC58
  8
AM_0
 10
646.10950086992375
 20
163.72928404068659
 30
0.0
 70
    32
  0
VERTEX
  5
EC59
  8
AM_0
 10
646.11020086992414
 20
163.73328404068681
 30
0.0
 70
    32
  0
VERTEX
  5
EC5A
  8
AM_0
 10
646.11100086992383
 20
163.7372840406866
 30
0.0
 70
    32
  0
VERTEX
  5
EC5B
  8
AM_0
 10
646.11180086992374
 20
163.74228404068691
 30
0.0
 70
    32
  0
VERTEX
  5
EC5C
  8
AM_0
 10
646.11260086992377
 20
163.7462840406865
 30
0.0
 70
    32
  0
VERTEX
  5
EC5D
  8
AM_0
 10
646.11330086992405
 20
163.75028404068669
 30
0.0
 70
    32
  0
VERTEX
  5
EC5E
  8
AM_0
 10
646.11410086992407
 20
163.7542840406866
 30
0.0
 70
    32
  0
VERTEX
  5
EC5F
  8
AM_0
 10
646.11480086992401
 20
163.75928404068659
 30
0.0
 70
    32
  0
VERTEX
  5
EC60
  8
AM_0
 10
646.11560086992347
 20
163.76328404068661
 30
0.0
 70
    32
  0
VERTEX
  5
EC61
  8
AM_0
 10
646.1163008699242
 20
163.76728404068669
 30
0.0
 70
    32
  0
VERTEX
  5
EC62
  8
AM_0
 10
646.11710086992377
 20
163.77228404068649
 30
0.0
 70
    32
  0
VERTEX
  5
EC63
  8
AM_0
 10
646.11780086992405
 20
163.77628404068659
 30
0.0
 70
    32
  0
VERTEX
  5
EC64
  8
AM_0
 10
646.11850086992388
 20
163.78028404068641
 30
0.0
 70
    32
  0
VERTEX
  5
EC65
  8
AM_0
 10
646.1193008699239
 20
163.7842840406866
 30
0.0
 70
    32
  0
VERTEX
  5
EC66
  8
AM_0
 10
646.12000086992384
 20
163.7892840406866
 30
0.0
 70
    32
  0
VERTEX
  5
EC67
  8
AM_0
 10
646.12070086992401
 20
163.7932840406865
 30
0.0
 70
    32
  0
VERTEX
  5
EC68
  8
AM_0
 10
646.12140086992395
 20
163.79728404068669
 30
0.0
 70
    32
  0
VERTEX
  5
EC69
  8
AM_0
 10
646.1222008699242
 20
163.80228404068669
 30
0.0
 70
    32
  0
VERTEX
  5
EC6A
  8
AM_0
 10
646.12290086992414
 20
163.80628404068659
 30
0.0
 70
    32
  0
VERTEX
  5
EC6B
  8
AM_0
 10
646.12360086992385
 20
163.81028404068661
 30
0.0
 70
    32
  0
VERTEX
  5
EC6C
  8
AM_0
 10
646.12430086992401
 20
163.8142840406866
 30
0.0
 70
    32
  0
VERTEX
  5
EC6D
  8
AM_0
 10
646.12500086992407
 20
163.81928404068651
 30
0.0
 70
    32
  0
VERTEX
  5
EC6E
  8
AM_0
 10
646.12570086992389
 20
163.8232840406865
 30
0.0
 70
    32
  0
VERTEX
  5
EC6F
  8
AM_0
 10
646.12640086992383
 20
163.82728404068661
 30
0.0
 70
    32
  0
VERTEX
  5
EC70
  8
AM_0
 10
646.12700086992402
 20
163.8322840406868
 30
0.0
 70
    32
  0
VERTEX
  5
EC71
  8
AM_0
 10
646.12770086992407
 20
163.83628404068639
 30
0.0
 70
    32
  0
VERTEX
  5
EC72
  8
AM_0
 10
646.12840086992367
 20
163.8402840406867
 30
0.0
 70
    32
  0
VERTEX
  5
EC73
  8
AM_0
 10
646.12910086992383
 20
163.84428404068649
 30
0.0
 70
    32
  0
VERTEX
  5
EC74
  8
AM_0
 10
646.12980086992366
 20
163.8492840406868
 30
0.0
 70
    32
  0
VERTEX
  5
EC75
  8
AM_0
 10
646.13040086992385
 20
163.8532840406867
 30
0.0
 70
    32
  0
VERTEX
  5
EC76
  8
AM_0
 10
646.13110086992378
 20
163.85728404068649
 30
0.0
 70
    32
  0
VERTEX
  5
EC77
  8
AM_0
 10
646.13170086992375
 20
163.8622840406868
 30
0.0
 70
    32
  0
VERTEX
  5
EC78
  8
AM_0
 10
646.13240086992403
 20
163.86628404068659
 30
0.0
 70
    32
  0
VERTEX
  5
EC79
  8
AM_0
 10
646.13310086992385
 20
163.8702840406865
 30
0.0
 70
    32
  0
VERTEX
  5
EC7A
  8
AM_0
 10
646.13370086992381
 20
163.87428404068669
 30
0.0
 70
    32
  0
VERTEX
  5
EC7B
  8
AM_0
 10
646.13430086992378
 20
163.87928404068671
 30
0.0
 70
    32
  0
VERTEX
  5
EC7C
  8
AM_0
 10
646.13500086992383
 20
163.88328404068659
 30
0.0
 70
    32
  0
VERTEX
  5
EC7D
  8
AM_0
 10
646.13560086992379
 20
163.88728404068641
 30
0.0
 70
    32
  0
VERTEX
  5
EC7E
  8
AM_0
 10
646.13630086992396
 20
163.8922840406866
 30
0.0
 70
    32
  0
VERTEX
  5
EC7F
  8
AM_0
 10
646.13690086992403
 20
163.89628404068691
 30
0.0
 70
    32
  0
VERTEX
  5
EC80
  8
AM_0
 10
646.13750086992411
 20
163.9002840406867
 30
0.0
 70
    32
  0
VERTEX
  5
EC81
  8
AM_0
 10
646.13810086992385
 20
163.90528404068669
 30
0.0
 70
    32
  0
VERTEX
  5
EC82
  8
AM_0
 10
646.13870086992404
 20
163.90928404068649
 30
0.0
 70
    32
  0
VERTEX
  5
EC83
  8
AM_0
 10
646.13940086992363
 20
163.91328404068659
 30
0.0
 70
    32
  0
VERTEX
  5
EC84
  8
AM_0
 10
646.14000086992382
 20
163.9182840406865
 30
0.0
 70
    32
  0
VERTEX
  5
EC85
  8
AM_0
 10
646.14060086992367
 20
163.92228404068669
 30
0.0
 70
    32
  0
VERTEX
  5
EC86
  8
AM_0
 10
646.14120086992409
 20
163.9262840406864
 30
0.0
 70
    32
  0
VERTEX
  5
EC87
  8
AM_0
 10
646.14180086992383
 20
163.9302840406867
 30
0.0
 70
    32
  0
VERTEX
  5
EC88
  8
AM_0
 10
646.14240086992402
 20
163.93528404068661
 30
0.0
 70
    32
  0
VERTEX
  5
EC89
  8
AM_0
 10
646.14300086992375
 20
163.9392840406864
 30
0.0
 70
    32
  0
VERTEX
  5
EC8A
  8
AM_0
 10
646.14360086992383
 20
163.9432840406869
 30
0.0
 70
    32
  0
VERTEX
  5
EC8B
  8
AM_0
 10
646.14410086992405
 20
163.9482840406867
 30
0.0
 70
    32
  0
VERTEX
  5
EC8C
  8
AM_0
 10
646.14470086992389
 20
163.95228404068669
 30
0.0
 70
    32
  0
VERTEX
  5
EC8D
  8
AM_0
 10
646.14530086992374
 20
163.9562840406868
 30
0.0
 70
    32
  0
VERTEX
  5
EC8E
  8
AM_0
 10
646.14590086992405
 20
163.96128404068671
 30
0.0
 70
    32
  0
VERTEX
  5
EC8F
  8
AM_0
 10
646.14640086992381
 20
163.96528404068681
 30
0.0
 70
    32
  0
VERTEX
  5
EC90
  8
AM_0
 10
646.14700086992377
 20
163.9692840406866
 30
0.0
 70
    32
  0
VERTEX
  5
EC91
  8
AM_0
 10
646.14760086992419
 20
163.97328404068639
 30
0.0
 70
    32
  0
VERTEX
  5
EC92
  8
AM_0
 10
646.14810086992384
 20
163.9782840406867
 30
0.0
 70
    32
  0
VERTEX
  5
EC93
  8
AM_0
 10
646.14870086992369
 20
163.98228404068649
 30
0.0
 70
    32
  0
VERTEX
  5
EC94
  8
AM_0
 10
646.14920086992424
 20
163.98628404068651
 30
0.0
 70
    32
  0
VERTEX
  5
EC95
  8
AM_0
 10
646.14980086992409
 20
163.99128404068659
 30
0.0
 70
    32
  0
VERTEX
  5
EC96
  8
AM_0
 10
646.15030086992408
 20
163.99528404068681
 30
0.0
 70
    32
  0
VERTEX
  5
EC97
  8
AM_0
 10
646.15080086992384
 20
163.9992840406864
 30
0.0
 70
    32
  0
VERTEX
  5
EC98
  8
AM_0
 10
646.15140086992369
 20
164.0042840406864
 30
0.0
 70
    32
  0
VERTEX
  5
EC99
  8
AM_0
 10
646.15190086992436
 20
164.0082840406867
 30
0.0
 70
    32
  0
VERTEX
  5
EC9A
  8
AM_0
 10
646.15240086992401
 20
164.01228404068681
 30
0.0
 70
    32
  0
VERTEX
  5
EC9B
  8
AM_0
 10
646.15300086992409
 20
164.0172840406866
 30
0.0
 70
    32
  0
VERTEX
  5
EC9C
  8
AM_0
 10
646.15350086992441
 20
164.02128404068679
 30
0.0
 70
    32
  0
VERTEX
  5
EC9D
  8
AM_0
 10
646.15400086992395
 20
164.0252840406867
 30
0.0
 70
    32
  0
VERTEX
  5
EC9E
  8
AM_0
 10
646.1545008699236
 20
164.03028404068661
 30
0.0
 70
    32
  0
VERTEX
  5
EC9F
  8
AM_0
 10
646.15500086992381
 20
164.03428404068649
 30
0.0
 70
    32
  0
VERTEX
  5
ECA0
  8
AM_0
 10
646.15550086992391
 20
164.03828404068659
 30
0.0
 70
    32
  0
VERTEX
  5
ECA1
  8
AM_0
 10
646.1560008699239
 20
164.04328404068681
 30
0.0
 70
    32
  0
VERTEX
  5
ECA2
  8
AM_0
 10
646.15650086992366
 20
164.04728404068649
 30
0.0
 70
    32
  0
VERTEX
  5
ECA3
  8
AM_0
 10
646.15700086992422
 20
164.0512840406866
 30
0.0
 70
    32
  0
VERTEX
  5
ECA4
  8
AM_0
 10
646.15750086992421
 20
164.0552840406865
 30
0.0
 70
    32
  0
VERTEX
  5
ECA5
  8
AM_0
 10
646.15800086992397
 20
164.0602840406865
 30
0.0
 70
    32
  0
VERTEX
  5
ECA6
  8
AM_0
 10
646.15840086992421
 20
164.06428404068649
 30
0.0
 70
    32
  0
VERTEX
  5
ECA7
  8
AM_0
 10
646.15890086992385
 20
164.06828404068679
 30
0.0
 70
    32
  0
VERTEX
  5
ECA8
  8
AM_0
 10
646.15940086992407
 20
164.07328404068679
 30
0.0
 70
    32
  0
VERTEX
  5
ECA9
  8
AM_0
 10
646.15980086992386
 20
164.07728404068641
 30
0.0
 70
    32
  0
VERTEX
  5
ECAA
  8
AM_0
 10
646.16030086992384
 20
164.08128404068671
 30
0.0
 70
    32
  0
VERTEX
  5
ECAB
  8
AM_0
 10
646.16080086992383
 20
164.08628404068671
 30
0.0
 70
    32
  0
VERTEX
  5
ECAC
  8
AM_0
 10
646.16120086992407
 20
164.09028404068681
 30
0.0
 70
    32
  0
VERTEX
  5
ECAD
  8
AM_0
 10
646.16160086992375
 20
164.09428404068649
 30
0.0
 70
    32
  0
VERTEX
  5
ECAE
  8
AM_0
 10
646.16210086992385
 20
164.0992840406868
 30
0.0
 70
    32
  0
VERTEX
  5
ECAF
  8
AM_0
 10
646.16250086992397
 20
164.10328404068679
 30
0.0
 70
    32
  0
VERTEX
  5
ECB0
  8
AM_0
 10
646.16300086992385
 20
164.10728404068661
 30
0.0
 70
    32
  0
VERTEX
  5
ECB1
  8
AM_0
 10
646.16340086992375
 20
164.1122840406866
 30
0.0
 70
    32
  0
VERTEX
  5
ECB2
  8
AM_0
 10
646.1638008699241
 20
164.11628404068671
 30
0.0
 70
    32
  0
VERTEX
  5
ECB3
  8
AM_0
 10
646.16420086992377
 20
164.12028404068681
 30
0.0
 70
    32
  0
VERTEX
  5
ECB4
  8
AM_0
 10
646.16470086992365
 20
164.12528404068661
 30
0.0
 70
    32
  0
VERTEX
  5
ECB5
  8
AM_0
 10
646.165100869924
 20
164.1292840406868
 30
0.0
 70
    32
  0
VERTEX
  5
ECB6
  8
AM_0
 10
646.16550086992413
 20
164.13328404068659
 30
0.0
 70
    32
  0
VERTEX
  5
ECB7
  8
AM_0
 10
646.16590086992403
 20
164.13828404068661
 30
0.0
 70
    32
  0
VERTEX
  5
ECB8
  8
AM_0
 10
646.16630086992382
 20
164.14228404068649
 30
0.0
 70
    32
  0
VERTEX
  5
ECB9
  8
AM_0
 10
646.16670086992383
 20
164.14628404068679
 30
0.0
 70
    32
  0
VERTEX
  5
ECBA
  8
AM_0
 10
646.16710086992418
 20
164.1512840406867
 30
0.0
 70
    32
  0
VERTEX
  5
ECBB
  8
AM_0
 10
646.16740086992388
 20
164.1552840406865
 30
0.0
 70
    32
  0
VERTEX
  5
ECBC
  8
AM_0
 10
646.16780086992424
 20
164.1592840406866
 30
0.0
 70
    32
  0
VERTEX
  5
ECBD
  8
AM_0
 10
646.16820086992414
 20
164.1642840406864
 30
0.0
 70
    32
  0
VERTEX
  5
ECBE
  8
AM_0
 10
646.16860086992403
 20
164.1682840406867
 30
0.0
 70
    32
  0
VERTEX
  5
ECBF
  8
AM_0
 10
646.16890086992385
 20
164.17228404068669
 30
0.0
 70
    32
  0
VERTEX
  5
ECC0
  8
AM_0
 10
646.16930086992386
 20
164.17728404068649
 30
0.0
 70
    32
  0
VERTEX
  5
ECC1
  8
AM_0
 10
646.16970086992376
 20
164.18128404068659
 30
0.0
 70
    32
  0
VERTEX
  5
ECC2
  8
AM_0
 10
646.17000086992391
 20
164.18528404068641
 30
0.0
 70
    32
  0
VERTEX
  5
ECC3
  8
AM_0
 10
646.17040086992404
 20
164.19028404068661
 30
0.0
 70
    32
  0
VERTEX
  5
ECC4
  8
AM_0
 10
646.17070086992373
 20
164.19428404068651
 30
0.0
 70
    32
  0
VERTEX
  5
ECC5
  8
AM_0
 10
646.17100086992411
 20
164.1982840406867
 30
0.0
 70
    32
  0
VERTEX
  5
ECC6
  8
AM_0
 10
646.17140086992424
 20
164.2032840406867
 30
0.0
 70
    32
  0
VERTEX
  5
ECC7
  8
AM_0
 10
646.17170086992382
 20
164.20728404068649
 30
0.0
 70
    32
  0
VERTEX
  5
ECC8
  8
AM_0
 10
646.17200086992409
 20
164.21128404068659
 30
0.0
 70
    32
  0
VERTEX
  5
ECC9
  8
AM_0
 10
646.17230086992424
 20
164.21628404068679
 30
0.0
 70
    32
  0
VERTEX
  5
ECCA
  8
AM_0
 10
646.17270086992391
 20
164.22028404068669
 30
0.0
 70
    32
  0
VERTEX
  5
ECCB
  8
AM_0
 10
646.17300086992373
 20
164.22428404068691
 30
0.0
 70
    32
  0
VERTEX
  5
ECCC
  8
AM_0
 10
646.17330086992399
 20
164.22928404068651
 30
0.0
 70
    32
  0
VERTEX
  5
ECCD
  8
AM_0
 10
646.17360086992414
 20
164.23328404068681
 30
0.0
 70
    32
  0
VERTEX
  5
ECCE
  8
AM_0
 10
646.17390086992373
 20
164.2372840406864
 30
0.0
 70
    32
  0
VERTEX
  5
ECCF
  8
AM_0
 10
646.17420086992422
 20
164.2422840406868
 30
0.0
 70
    32
  0
VERTEX
  5
ECD0
  8
AM_0
 10
646.1745008699238
 20
164.2462840406867
 30
0.0
 70
    32
  0
VERTEX
  5
ECD1
  8
AM_0
 10
646.17480086992373
 20
164.25028404068669
 30
0.0
 70
    32
  0
VERTEX
  5
ECD2
  8
AM_0
 10
646.17510086992445
 20
164.25528404068669
 30
0.0
 70
    32
  0
VERTEX
  5
ECD3
  8
AM_0
 10
646.17530086992383
 20
164.25928404068671
 30
0.0
 70
    32
  0
VERTEX
  5
ECD4
  8
AM_0
 10
646.17560086992364
 20
164.26328404068681
 30
0.0
 70
    32
  0
VERTEX
  5
ECD5
  8
AM_0
 10
646.17590086992425
 20
164.26828404068641
 30
0.0
 70
    32
  0
VERTEX
  5
ECD6
  8
AM_0
 10
646.17620086992349
 20
164.2722840406864
 30
0.0
 70
    32
  0
VERTEX
  5
ECD7
  8
AM_0
 10
646.17640086992424
 20
164.2762840406867
 30
0.0
 70
    32
  0
VERTEX
  5
ECD8
  8
AM_0
 10
646.17670086992405
 20
164.2812840406865
 30
0.0
 70
    32
  0
VERTEX
  5
ECD9
  8
AM_0
 10
646.17690086992377
 20
164.28528404068649
 30
0.0
 70
    32
  0
VERTEX
  5
ECDA
  8
AM_0
 10
646.17720086992347
 20
164.2892840406864
 30
0.0
 70
    32
  0
VERTEX
  5
ECDB
  8
AM_0
 10
646.1774008699241
 20
164.29428404068651
 30
0.0
 70
    32
  0
VERTEX
  5
ECDC
  8
AM_0
 10
646.17770086992425
 20
164.2982840406865
 30
0.0
 70
    32
  0
VERTEX
  5
ECDD
  8
AM_0
 10
646.1779008699242
 20
164.30228404068669
 30
0.0
 70
    32
  0
VERTEX
  5
ECDE
  8
AM_0
 10
646.17820086992424
 20
164.3072840406864
 30
0.0
 70
    32
  0
VERTEX
  5
ECDF
  8
AM_0
 10
646.17840086992373
 20
164.31128404068679
 30
0.0
 70
    32
  0
VERTEX
  5
ECE0
  8
AM_0
 10
646.17860086992425
 20
164.31528404068661
 30
0.0
 70
    32
  0
VERTEX
  5
ECE1
  8
AM_0
 10
646.17880086992375
 20
164.3202840406866
 30
0.0
 70
    32
  0
VERTEX
  5
ECE2
  8
AM_0
 10
646.17910086992424
 20
164.32428404068679
 30
0.0
 70
    32
  0
VERTEX
  5
ECE3
  8
AM_0
 10
646.17930086992374
 20
164.32828404068661
 30
0.0
 70
    32
  0
VERTEX
  5
ECE4
  8
AM_0
 10
646.17950086992425
 20
164.33328404068661
 30
0.0
 70
    32
  0
VERTEX
  5
ECE5
  8
AM_0
 10
646.17970086992398
 20
164.33728404068631
 30
0.0
 70
    32
  0
VERTEX
  5
ECE6
  8
AM_0
 10
646.17990086992359
 20
164.34128404068679
 30
0.0
 70
    32
  0
VERTEX
  5
ECE7
  8
AM_0
 10
646.18010086992388
 20
164.3462840406867
 30
0.0
 70
    32
  0
VERTEX
  5
ECE8
  8
AM_0
 10
646.18030086992405
 20
164.35028404068649
 30
0.0
 70
    32
  0
VERTEX
  5
ECE9
  8
AM_0
 10
646.18050086992434
 20
164.35428404068671
 30
0.0
 70
    32
  0
VERTEX
  5
ECEA
  8
AM_0
 10
646.18070086992384
 20
164.35928404068639
 30
0.0
 70
    32
  0
VERTEX
  5
ECEB
  8
AM_0
 10
646.18090086992424
 20
164.36328404068649
 30
0.0
 70
    32
  0
VERTEX
  5
ECEC
  8
AM_0
 10
646.18110086992374
 20
164.36728404068651
 30
0.0
 70
    32
  0
VERTEX
  5
ECED
  8
AM_0
 10
646.18130086992403
 20
164.37228404068671
 30
0.0
 70
    32
  0
VERTEX
  5
ECEE
  8
AM_0
 10
646.18150086992375
 20
164.37628404068681
 30
0.0
 70
    32
  0
VERTEX
  5
ECEF
  8
AM_0
 10
646.18160086992384
 20
164.3802840406866
 30
0.0
 70
    32
  0
VERTEX
  5
ECF0
  8
AM_0
 10
646.18180086992436
 20
164.3852840406864
 30
0.0
 70
    32
  0
VERTEX
  5
ECF1
  8
AM_0
 10
646.18200086992385
 20
164.3892840406867
 30
0.0
 70
    32
  0
VERTEX
  5
ECF2
  8
AM_0
 10
646.18210086992406
 20
164.39428404068661
 30
0.0
 70
    32
  0
VERTEX
  5
ECF3
  8
AM_0
 10
646.18230086992423
 20
164.39828404068649
 30
0.0
 70
    32
  0
VERTEX
  5
ECF4
  8
AM_0
 10
646.18250086992384
 20
164.4022840406866
 30
0.0
 70
    32
  0
VERTEX
  5
ECF5
  8
AM_0
 10
646.18260086992382
 20
164.40728404068679
 30
0.0
 70
    32
  0
VERTEX
  5
ECF6
  8
AM_0
 10
646.18280086992411
 20
164.41128404068681
 30
0.0
 70
    32
  0
VERTEX
  5
ECF7
  8
AM_0
 10
646.18290086992374
 20
164.41528404068649
 30
0.0
 70
    32
  0
VERTEX
  5
ECF8
  8
AM_0
 10
646.18310086992369
 20
164.42028404068671
 30
0.0
 70
    32
  0
VERTEX
  5
ECF9
  8
AM_0
 10
646.18320086992446
 20
164.42428404068659
 30
0.0
 70
    32
  0
VERTEX
  5
ECFA
  8
AM_0
 10
646.18330086992421
 20
164.4282840406868
 30
0.0
 70
    32
  0
VERTEX
  5
ECFB
  8
AM_0
 10
646.18350086992382
 20
164.4332840406866
 30
0.0
 70
    32
  0
VERTEX
  5
ECFC
  8
AM_0
 10
646.18360086992425
 20
164.43728404068679
 30
0.0
 70
    32
  0
VERTEX
  5
ECFD
  8
AM_0
 10
646.18370086992365
 20
164.4412840406867
 30
0.0
 70
    32
  0
VERTEX
  5
ECFE
  8
AM_0
 10
646.18380086992374
 20
164.44628404068641
 30
0.0
 70
    32
  0
VERTEX
  5
ECFF
  8
AM_0
 10
646.18390086992395
 20
164.45028404068671
 30
0.0
 70
    32
  0
VERTEX
  5
ED00
  8
AM_0
 10
646.18400086992415
 20
164.45428404068679
 30
0.0
 70
    32
  0
VERTEX
  5
ED01
  8
AM_0
 10
646.18420086992376
 20
164.4592840406867
 30
0.0
 70
    32
  0
VERTEX
  5
ED02
  8
AM_0
 10
646.1843008699235
 20
164.4632840406864
 30
0.0
 70
    32
  0
VERTEX
  5
ED03
  8
AM_0
 10
646.18440086992405
 20
164.46728404068671
 30
0.0
 70
    32
  0
VERTEX
  5
ED04
  8
AM_0
 10
646.18450086992414
 20
164.47228404068639
 30
0.0
 70
    32
  0
VERTEX
  5
ED05
  8
AM_0
 10
646.18450086992414
 20
164.47628404068649
 30
0.0
 70
    32
  0
VERTEX
  5
ED06
  8
AM_0
 10
646.18460086992388
 20
164.48028404068651
 30
0.0
 70
    32
  0
VERTEX
  5
ED07
  8
AM_0
 10
646.18470086992374
 20
164.48528404068631
 30
0.0
 70
    32
  0
VERTEX
  5
ED08
  8
AM_0
 10
646.18480086992406
 20
164.48928404068661
 30
0.0
 70
    32
  0
VERTEX
  5
ED09
  8
AM_0
 10
646.18490086992426
 20
164.49328404068649
 30
0.0
 70
    32
  0
VERTEX
  5
ED0A
  8
AM_0
 10
646.18490086992426
 20
164.4982840406866
 30
0.0
 70
    32
  0
VERTEX
  5
ED0B
  8
AM_0
 10
646.18500086992424
 20
164.50228404068639
 30
0.0
 70
    32
  0
VERTEX
  5
ED0C
  8
AM_0
 10
646.18510086992376
 20
164.50628404068669
 30
0.0
 70
    32
  0
VERTEX
  5
ED0D
  8
AM_0
 10
646.18510086992376
 20
164.51128404068669
 30
0.0
 70
    32
  0
VERTEX
  5
ED0E
  8
AM_0
 10
646.18520086992373
 20
164.51528404068679
 30
0.0
 70
    32
  0
VERTEX
  5
ED0F
  8
AM_0
 10
646.18530086992382
 20
164.52028404068651
 30
0.0
 70
    32
  0
VERTEX
  5
ED10
  8
AM_0
 10
646.18530086992382
 20
164.5242840406865
 30
0.0
 70
    32
  0
VERTEX
  5
ED11
  8
AM_0
 10
646.18540086992425
 20
164.52828404068671
 30
0.0
 70
    32
  0
VERTEX
  5
ED12
  8
AM_0
 10
646.18540086992425
 20
164.53328404068671
 30
0.0
 70
    32
  0
VERTEX
  5
ED13
  8
AM_0
 10
646.18550086992411
 20
164.53728404068659
 30
0.0
 70
    32
  0
VERTEX
  5
ED14
  8
AM_0
 10
646.18550086992411
 20
164.54128404068661
 30
0.0
 70
    32
  0
VERTEX
  5
ED15
  8
AM_0
 10
646.18560086992375
 20
164.5462840406866
 30
0.0
 70
    32
  0
VERTEX
  5
ED16
  8
AM_0
 10
646.18560086992375
 20
164.55028404068679
 30
0.0
 70
    32
  0
VERTEX
  5
ED17
  8
AM_0
 10
646.18570086992395
 20
164.5542840406867
 30
0.0
 70
    32
  0
VERTEX
  5
ED18
  8
AM_0
 10
646.18570086992395
 20
164.55928404068689
 30
0.0
 70
    32
  0
VERTEX
  5
ED19
  8
AM_0
 10
646.18570086992395
 20
164.5632840406866
 30
0.0
 70
    32
  0
VERTEX
  5
ED1A
  8
AM_0
 10
646.18580086992415
 20
164.5672840406867
 30
0.0
 70
    32
  0
VERTEX
  5
ED1B
  8
AM_0
 10
646.18580086992415
 20
164.5722840406865
 30
0.0
 70
    32
  0
VERTEX
  5
ED1C
  8
AM_0
 10
646.18590086992435
 20
164.5762840406866
 30
0.0
 70
    32
  0
VERTEX
  5
ED1D
  8
AM_0
 10
646.18590086992435
 20
164.58028404068639
 30
0.0
 70
    32
  0
VERTEX
  5
ED1E
  8
AM_0
 10
646.18590086992435
 20
164.5852840406867
 30
0.0
 70
    32
  0
VERTEX
  5
ED1F
  8
AM_0
 10
646.1860008699241
 20
164.58928404068649
 30
0.0
 70
    32
  0
SEQEND
  5
ED20
  8
AM_0
  0
LINE
  5
ED21
  8
AM_0
 10
656.45581567296642
 20
164.58933110576061
 30
0.0
 11
656.45581567296642
 21
173.62433110576069
 31
0.0
  0
ARC
  5
ED22
  8
AM_0
 10
658.05581567296701
 20
162.58933110576069
 30
0.0
 40
0.5
 50
270.0
 51
0.0
  0
LINE
  5
ED23
  8
AM_0
 10
658.05581567296701
 20
162.08933110576061
 30
0.0
 11
653.95581567296642
 21
162.08933110576061
 31
0.0
  0
ARC
  5
ED24
  8
AM_0
 10
653.95581567296642
 20
164.58933110576061
 30
0.0
 40
2.4999999999999991
 50
270.0
 51
0.0
  0
ARC
  5
ED25
  8
AM_0
 10
648.05581567296815
 20
195.089331105761
 30
0.0
 40
0.9999999999998859
 50
90.0
 51
180.0
  0
LINE
  5
ED26
  8
AM_0
 10
656.05587645840785
 20
196.08933110576089
 30
0.0
 11
656.05587645840785
 21
199.08933110576081
 31
0.0
  0
ARC
  5
ED27
  8
AM_0
 10
657.55581567296861
 20
195.089331105761
 30
0.0
 40
0.9999999999999996
 50
0.0
 51
90.0
  0
LINE
  5
F0D8
  8
AM_0
 10
127.678938687255
 20
462.74703545307182
 30
0.0
 11
135.678938687255
 21
462.74703545307182
 31
0.0
  0
LINE
  5
F0D9
  8
AM_0
 10
127.678938687255
 20
462.75202545307178
 30
0.0
 11
135.678938687255
 21
462.75202545307178
 31
0.0
  0
LINE
  5
F0DA
  8
AM_0
 10
128.36893868725491
 20
472.56204545307179
 30
0.0
 11
134.59891868725489
 21
472.56204545307179
 31
0.0
  0
LINE
  5
F0DB
  8
AM_0
 10
127.678938687255
 20
568.74703945307192
 30
0.0
 11
135.678938687255
 21
568.74703945307192
 31
0.0
  0
LINE
  5
F0DC
  8
AM_0
 10
127.678938687255
 20
568.75202845307172
 30
0.0
 11
135.678938687255
 21
568.75202845307172
 31
0.0
  0
LINE
  5
F0DD
  8
AM_0
 10
128.36893868725491
 20
558.94203945307186
 30
0.0
 11
134.59891868725489
 21
558.94203945307186
 31
0.0
  0
LINE
  5
F0DE
  8
ﾁｭｳｼﾝｾﾝ1
 10
192.67893868725491
 20
475.12200863837512
 30
0.0
 11
192.67893868725491
 21
556.37201163837506
 31
0.0
  0
LINE
  5
F0DF
  8
AM_0
 10
135.678938687255
 20
462.75202545307178
 30
0.0
 11
135.678938687255
 21
565.19202345307178
 31
0.0
  0
LINE
  5
F0E0
  8
AM_0
 10
243.678938687255
 20
459.74703545307182
 30
0.0
 11
243.678938687255
 21
571.74703945307192
 31
0.0
  0
LINE
  5
F0E7
  8
AM_0
 10
138.8789486872549
 20
572.03204245307188
 30
0.0
 11
235.79890868725491
 21
572.03204245307188
 31
0.0
  0
LINE
  5
F0E8
  8
AM_0
 10
161.178938687255
 20
553.97203045307162
 30
0.0
 11
243.678938687255
 21
553.97203045307162
 31
0.0
  0
LINE
  5
F0E9
  8
AM_0
 10
135.678938687255
 20
563.84204845307158
 30
0.0
 11
136.918928687255
 21
570.40204545307165
 31
0.0
  0
LINE
  5
F0EA
  8
AM_0
 10
135.678938687255
 20
565.19203945307174
 30
0.0
 11
136.9589086872549
 21
573.19203145307165
 31
0.0
  0
LINE
  5
F0EB
  8
AM_0
 10
138.928938687255
 20
574.8820334530717
 30
0.0
 11
172.67893868725491
 21
574.8820334530717
 31
0.0
  0
LINE
  5
F0EC
  8
AM_0
 10
138.9489586872549
 20
576.72203745307172
 30
0.0
 11
172.67893868725491
 21
576.72203745307172
 31
0.0
  0
LINE
  5
F0ED
  8
AM_0
 10
138.9689186872549
 20
577.6420284530717
 30
0.0
 11
172.67893868725491
 21
577.6420284530717
 31
0.0
  0
ARC
  5
F0EE
  8
AM_0
 10
138.93491868725491
 20
572.8818584530718
 30
0.0
 40
2.0001840999999998
 50
90.171470000000795
 51
171.0790000000006
  0
LINE
  5
F0EF
  8
AM_0
 10
135.67899868725499
 20
566.53203545307179
 30
0.0
 11
136.968978687255
 21
575.03202745307158
 31
0.0
  0
LINE
  5
F0F0
  8
AM_0
 10
135.678938687255
 20
566.53201245307173
 30
0.0
 11
136.98893868725489
 21
575.91201745307171
 31
0.0
  0
ARC
  5
F0F1
  8
AM_0
 10
138.97105868725501
 20
575.64155545307165
 30
0.0
 40
2.0004758999999992
 50
90.060310000000726
 51
172.22953999999919
  0
ARC
  5
F0F2
  8
AM_0
 10
138.94248868725501
 20
574.72470045307159
 30
0.0
 40
1.9973480999999991
 50
89.815319999999133
 51
171.14853000000031
  0
ARC
  5
F0F3
  8
AM_0
 10
138.88358868725501
 20
570.03303445307165
 30
0.0
 40
1.9990078999999989
 50
90.133450000000266
 51
169.36258999999961
  0
ARC
  5
F0F4
  8
AM_0
 10
172.67173868725499
 20
572.87485445307175
 30
0.0
 40
2.0071799999999991
 50
0.2046200000009747
 51
89.795379999999028
  0
LINE
  5
F0F5
  8
AM_0
 10
174.67893868725491
 20
575.64203545307168
 30
0.0
 11
174.67893868725491
 21
572.03204245307188
 31
0.0
  0
ARC
  5
F0F6
  8
AM_0
 10
172.67094868725491
 20
575.63402545307179
 30
0.0
 40
2.0080360999999991
 50
0.2287899999994348
 51
89.771210000000551
  0
ARC
  5
F0F7
  8
AM_0
 10
172.67564868725489
 20
574.71874945307172
 30
0.0
 40
2.003279899999999
 50
0.0937900000003963
 51
89.906209999999604
  0
LINE
  5
F0F8
  8
AM_0
 10
161.178938687255
 20
553.97203045307162
 30
0.0
 11
141.00608868725499
 21
552.47203045307162
 31
0.0
  0
LINE
  5
F0F9
  8
AM_0
 10
141.00848602653869
 20
552.46697354351193
 30
0.0
 11
135.67887868725509
 21
563.84201045307191
 31
0.0
  0
LINE
  5
F0FA
  8
AM_0
 10
242.17893868725491
 20
553.97202245307165
 30
0.0
 11
237.72892868725501
 21
570.55202445307191
 31
0.0
  0
LINE
  5
F0FC
  8
AM_0
 10
243.678938687255
 20
571.74703945307192
 30
0.0
 11
251.67890868725499
 21
571.74703945307192
 31
0.0
  0
ARC
  5
F0FD
  8
AM_0
 10
235.79606868725489
 20
570.02989945307172
 30
0.0
 40
2.0021281000000002
 50
15.116699999998181
 51
89.918480000000116
  0
LINE
  5
F0FE
  8
AM_0
 10
238.21891868725501
 20
568.75202845307172
 30
0.0
 11
243.678938687255
 21
568.75202845307172
 31
0.0
  0
LINE
  5
F102
  8
AM_0
 10
243.678938687255
 20
547.68702645307189
 30
0.0
 11
251.67890868725499
 21
547.68702645307189
 31
0.0
  0
LINE
  5
F103
  8
AM_0
 10
243.678938687255
 20
561.7470314530716
 30
0.0
 11
251.67890868725499
 21
561.7470314530716
 31
0.0
  0
LINE
  5
F109
  8
AM_0
 10
138.8789486872549
 20
459.46203545307179
 30
0.0
 11
235.79890868725491
 21
459.46203545307179
 31
0.0
  0
LINE
  5
F10A
  8
AM_0
 10
161.178938687255
 20
477.52204545307171
 30
0.0
 11
243.678938687255
 21
477.52204545307171
 31
0.0
  0
LINE
  5
F10B
  8
AM_0
 10
141.00382590356699
 20
479.02705889073582
 30
0.0
 11
135.678938687255
 21
467.65203545307179
 31
0.0
  0
LINE
  5
F10C
  8
AM_0
 10
161.17887868725501
 20
477.52203545307179
 30
0.0
 11
141.00144868725499
 21
479.02203545307179
 31
0.0
  0
LINE
  5
F10D
  8
AM_0
 10
138.928938687255
 20
456.62203545307182
 30
0.0
 11
172.67893868725491
 21
456.62203545307182
 31
0.0
  0
LINE
  5
F10E
  8
AM_0
 10
138.9489586872549
 20
454.77203545307179
 30
0.0
 11
172.67893868725491
 21
454.77203545307179
 31
0.0
  0
LINE
  5
F10F
  8
AM_0
 10
138.9689186872549
 20
453.86202545307191
 30
0.0
 11
172.67893868725491
 21
453.86202545307191
 31
0.0
  0
ARC
  5
F110
  8
AM_0
 10
138.963608687255
 20
455.85551545307192
 30
0.0
 40
1.9934921000000001
 50
187.8852600000007
 51
270.15390899999858
  0
LINE
  5
F111
  8
AM_0
 10
135.678938687255
 20
467.65202545307181
 30
0.0
 11
136.918928687255
 21
461.09202545307181
 31
0.0
  0
LINE
  5
F112
  8
AM_0
 10
135.678938687255
 20
466.31202545307178
 30
0.0
 11
136.9589086872549
 21
458.30203545307171
 31
0.0
  0
LINE
  5
F113
  8
AM_0
 10
135.67899868725499
 20
464.96201545307179
 30
0.0
 11
136.968978687255
 21
456.47202545307181
 31
0.0
  0
LINE
  5
F114
  8
AM_0
 10
135.678938687255
 20
464.96205545307163
 30
0.0
 11
136.98893868725489
 21
455.58204545307183
 31
0.0
  0
ARC
  5
F115
  8
AM_0
 10
138.88181868725491
 20
461.45893545307177
 30
0.0
 40
1.9969039999999989
 50
190.58743999999859
 51
269.91652600000037
  0
ARC
  5
F116
  8
AM_0
 10
138.92734868725489
 20
458.61517545307169
 30
0.0
 40
1.9931281000000001
 50
189.03881999999959
 51
270.04662699999949
  0
ARC
  5
F117
  8
AM_0
 10
138.94163868725499
 20
456.76660545307169
 30
0.0
 40
1.994588
 50
188.4929100000021
 51
270.20924700000091
  0
ARC
  5
F118
  8
AM_0
 10
172.6776586872549
 20
455.8633254530717
 30
0.0
 40
2.001287899999999
 50
270.03687399999882
 51
359.96312800100111
  0
LINE
  5
F119
  8
AM_0
 10
174.67893868725491
 20
455.8620454530718
 30
0.0
 11
174.67893868725491
 21
459.46203545307179
 31
0.0
  0
ARC
  5
F11A
  8
AM_0
 10
172.678508687255
 20
458.62245545307178
 30
0.0
 40
2.000407899999999
 50
270.01164999999889
 51
359.98835099999928
  0
ARC
  5
F11B
  8
AM_0
 10
172.67734868725489
 20
456.7735854530718
 30
0.0
 40
2.0015439999999991
 50
270.04421600000092
 51
359.95578600099913
  0
LINE
  5
F11D
  8
AM_0
 10
241.8789486872549
 20
476.41201545307177
 30
0.0
 11
237.7289586872549
 21
460.95202545307183
 31
0.0
  0
LINE
  5
F11F
  8
AM_0
 10
243.678938687255
 20
483.80702545307179
 30
0.0
 11
251.67890868725499
 21
483.80702545307179
 31
0.0
  0
ARC
  5
F120
  8
AM_0
 10
243.332138687255
 20
476.02426545307179
 30
0.0
 40
1.5027759999999999
 50
90.122410000000286
 51
165.24357000000049
  0
LINE
  5
F124
  8
AM_0
 10
243.678938687255
 20
459.74703545307182
 30
0.0
 11
251.67890868725499
 21
459.74703545307182
 31
0.0
  0
LINE
  5
F125
  8
AM_0
 10
243.678938687255
 20
469.74703545307182
 30
0.0
 11
251.67890868725499
 21
469.74703545307182
 31
0.0
  0
ARC
  5
F126
  8
AM_0
 10
235.79612868725499
 20
461.46063545307169
 30
0.0
 40
1.9986041000000001
 50
270.08048399999888
 51
345.25728400000071
  0
LINE
  5
F127
  8
AM_0
 10
238.21891868725501
 20
462.75202545307178
 30
0.0
 11
243.678938687255
 21
462.75202545307178
 31
0.0
  0
LINE
  5
F13E
  8
AM_0
 10
237.018938687255
 20
551.74700354351194
 30
0.0
 11
138.03889868725511
 21
551.74700354351194
 31
0.0
  0
LINE
  5
F13F
  8
AM_0
 10
237.018938687255
 20
549.74700354351194
 30
0.0
 11
138.03889868725511
 21
549.74700354351194
 31
0.0
  0
LINE
  5
F140
  8
AM_0
 10
237.01173868725499
 20
539.74700354351194
 30
0.0
 11
138.03889868725511
 21
539.74700354351194
 31
0.0
  0
LINE
  5
F141
  8
AM_0
 10
137.35889868725499
 20
552.46697354351193
 30
0.0
 11
240.4989186872549
 21
552.46697354351193
 31
0.0
  0
LINE
  5
F142
  8
AM_0
 10
137.138928687255
 20
539.30706354351184
 30
0.0
 11
240.713148687255
 21
539.30706354351184
 31
0.0
  0
LINE
  5
F143
  8
AM_0
 10
237.02607868725511
 20
541.74700354351194
 30
0.0
 11
138.03889868725511
 21
541.74700354351194
 31
0.0
  0
LINE
  5
F144
  8
AM_0
 10
137.35889868725499
 20
549.11699354351185
 30
0.0
 11
240.4989186872549
 21
549.11699354351185
 31
0.0
  0
LINE
  5
F145
  8
AM_0
 10
137.138928687255
 20
542.23699354351197
 30
0.0
 11
240.72456868725499
 21
542.23699354351197
 31
0.0
  0
POLYLINE
  5
F146
  8
AM_0
 66
     1
 10
0.0
 20
0.0
 30
0.0
  0
VERTEX
  5
F147
  8
AM_0
 10
138.082958687255
 20
522.01738354351176
 30
0.0
 42
-0.00076691992
  0
VERTEX
  5
F148
  8
AM_0
 10
138.0977586872549
 20
522.63515354351193
 30
0.0
 42
-0.00073262792
  0
VERTEX
  5
F149
  8
AM_0
 10
138.114398687255
 20
523.252743543512
 30
0.0
 42
-0.00076529537
  0
VERTEX
  5
F14A
  8
AM_0
 10
138.1328886872549
 20
523.87041354351175
 30
0.0
 42
-0.00075141097
  0
VERTEX
  5
F14B
  8
AM_0
 10
138.153258687255
 20
524.4880135435119
 30
0.0
 42
-0.00075841687
  0
VERTEX
  5
F14C
  8
AM_0
 10
138.17548868725501
 20
525.1054435435118
 30
0.0
 42
-0.00075711788
  0
VERTEX
  5
F14D
  8
AM_0
 10
138.19959868725499
 20
525.72295354351184
 30
0.0
 42
-0.00075976003
  0
VERTEX
  5
F14E
  8
AM_0
 10
138.22558868725491
 20
526.34034354351184
 30
0.0
 42
-0.00075797311
  0
VERTEX
  5
F14F
  8
AM_0
 10
138.253428687255
 20
526.957623543512
 30
0.0
 42
-0.0007482613
  0
VERTEX
  5
F150
  8
AM_0
 10
138.283158687255
 20
527.57500354351191
 30
0.0
 42
-0.00074893561
  0
VERTEX
  5
F151
  8
AM_0
 10
138.3147186872549
 20
528.192133543512
 30
0.0
 42
-0.00076039839
  0
VERTEX
  5
F152
  8
AM_0
 10
138.34813868725499
 20
528.80916354351189
 30
0.0
 42
-0.00075618786
  0
VERTEX
  5
F153
  8
AM_0
 10
138.38343868725499
 20
529.42620354351175
 30
0.0
  0
SEQEND
  5
F154
  8
AM_0
  0
LINE
  5
F155
  8
AM_0
 10
237.02227498066631
 20
521.74700354351194
 30
0.0
 11
138.03889868725511
 21
521.74700354351194
 31
0.0
  0
LINE
  5
F156
  8
AM_0
 10
237.02227498066631
 20
519.74700354351194
 30
0.0
 11
138.03889868725511
 21
519.74700354351194
 31
0.0
  0
LINE
  5
F157
  8
AM_0
 10
136.94892868725501
 20
522.01702354351175
 30
0.0
 11
241.06502794076189
 21
522.01702354351175
 31
0.0
  0
LINE
  5
F158
  8
AM_0
 10
136.94892868725501
 20
519.48699354351197
 30
0.0
 11
240.90174066326441
 21
519.48699354351197
 31
0.0
  0
POLYLINE
  5
F159
  8
AM_0
 66
     1
 10
0.0
 20
0.0
 30
0.0
  0
VERTEX
  5
F15A
  8
AM_0
 10
138.03889868725511
 20
515.74700354351194
 30
0.0
 42
-0.00039106649
  0
VERTEX
  5
F15B
  8
AM_0
 10
138.03653868725499
 20
516.05813354351199
 30
0.0
 42
-0.00035488198
  0
VERTEX
  5
F15C
  8
AM_0
 10
138.03464868725499
 20
516.36924354351186
 30
0.0
 42
-0.00039706113
  0
VERTEX
  5
F15D
  8
AM_0
 10
138.03321868725499
 20
516.68035354351196
 30
0.0
 42
-0.00038765718
  0
VERTEX
  5
F15E
  8
AM_0
 10
138.03228868725489
 20
516.99149354351187
 30
0.0
 42
-0.00040613432
  0
VERTEX
  5
F15F
  8
AM_0
 10
138.03183868725489
 20
517.30259354351165
 30
0.0
 42
-0.00035573434
  0
VERTEX
  5
F160
  8
AM_0
 10
138.0318786872551
 20
517.61370354351175
 30
0.0
 42
-0.00038545884
  0
VERTEX
  5
F161
  8
AM_0
 10
138.03236868725489
 20
517.92483354351191
 30
0.0
 42
-0.00035501205
  0
VERTEX
  5
F162
  8
AM_0
 10
138.03332868725499
 20
518.23594354351189
 30
0.0
 42
-0.00040120779
  0
VERTEX
  5
F163
  8
AM_0
 10
138.03474868725499
 20
518.54717354351192
 30
0.0
 42
-0.00038317817
  0
VERTEX
  5
F164
  8
AM_0
 10
138.036658687255
 20
518.85830354351197
 30
0.0
 42
-0.00035656084
  0
VERTEX
  5
F165
  8
AM_0
 10
138.0390386872549
 20
519.16954354351196
 30
0.0
 42
-0.00040143615
  0
VERTEX
  5
F166
  8
AM_0
 10
138.04188868725501
 20
519.48064354351175
 30
0.0
  0
SEQEND
  5
F167
  8
AM_0
  0
ARC
  5
F168
  8
AM_0
 10
136.94306868725499
 20
520.75200354351193
 30
0.0
 40
1.2650129999999991
 50
89.735578999998495
 51
270.2644099999992
  0
ARC
  5
F169
  8
AM_0
 10
138.223528687255
 20
520.74700354351194
 30
0.0
 40
1.0000138999999999
 50
89.691659999999231
 51
270.30834000000073
  0
ARC
  5
F16A
  8
AM_0
 10
237.01889858725499
 20
520.74700354351194
 30
0.0
 40
1.000005699999998
 50
269.999989999999
 51
90.000003000000945
  0
ARC
  5
F16B
  8
AM_0
 10
240.90583508725501
 20
520.75701354351168
 30
0.0
 40
1.2700266
 50
269.62932000000001
 51
90.370670000001425
  0
LINE
  5
F16C
  8
AM_0
 10
237.02227498068751
 20
531.74700354351194
 30
0.0
 11
138.03889868725511
 21
531.74700354351194
 31
0.0
  0
LINE
  5
F16D
  8
AM_0
 10
237.0222749806627
 20
529.74700354351194
 30
0.0
 11
138.03889868725511
 21
529.74700354351194
 31
0.0
  0
LINE
  5
F16E
  8
AM_0
 10
137.00892868725501
 20
532.08696354351184
 30
0.0
 11
241.0075066436554
 21
532.08696354351184
 31
0.0
  0
LINE
  5
F16F
  8
AM_0
 10
137.00892868725501
 20
529.42705354351165
 30
0.0
 11
240.85598114524839
 21
529.42705354351165
 31
0.0
  0
ARC
  5
F170
  8
AM_0
 10
138.223528687255
 20
540.74700354351194
 30
0.0
 40
1.0000138999999999
 50
89.691659999999231
 51
270.30834000000073
  0
ARC
  5
F171
  8
AM_0
 10
137.138928687255
 20
540.77202354351175
 30
0.0
 40
1.465004
 50
90.000003000000945
 51
270.0
  0
POLYLINE
  5
F172
  8
AM_0
 66
     1
 10
0.0
 20
0.0
 30
0.0
  0
VERTEX
  5
F173
  8
AM_0
 10
138.55714868725499
 20
532.08757354351189
 30
0.0
 42
-0.0007337051
  0
VERTEX
  5
F174
  8
AM_0
 10
138.60128868725499
 20
532.68999354351183
 30
0.0
 42
-0.00075211323
  0
VERTEX
  5
F175
  8
AM_0
 10
138.64722868725499
 20
533.29238354351185
 30
0.0
 42
-0.0007297491
  0
VERTEX
  5
F176
  8
AM_0
 10
138.694958687255
 20
533.894583543512
 30
0.0
 42
-0.00073593041
  0
VERTEX
  5
F177
  8
AM_0
 10
138.74443868725501
 20
534.49657354351189
 30
0.0
 42
-0.00074742739
  0
VERTEX
  5
F178
  8
AM_0
 10
138.795708687255
 20
535.09844354351185
 30
0.0
 42
-0.00073217363
  0
VERTEX
  5
F179
  8
AM_0
 10
138.84876868725499
 20
535.70024354351165
 30
0.0
 42
-0.00073754168
  0
VERTEX
  5
F17A
  8
AM_0
 10
138.90358868725491
 20
536.30178354351165
 30
0.0
 42
-0.00073075073
  0
VERTEX
  5
F17B
  8
AM_0
 10
138.96016868725499
 20
536.90314354351165
 30
0.0
 42
-0.00074550816
  0
VERTEX
  5
F17C
  8
AM_0
 10
139.01850868725489
 20
537.50420354351184
 30
0.0
 42
-0.00074288416
  0
VERTEX
  5
F17D
  8
AM_0
 10
139.07865868725489
 20
538.10522354351178
 30
0.0
 42
-0.00072504001
  0
VERTEX
  5
F17E
  8
AM_0
 10
139.14056868725501
 20
538.70597354351185
 30
0.0
 42
-0.00074640667
  0
VERTEX
  5
F17F
  8
AM_0
 10
139.2042386872549
 20
539.30657354351183
 30
0.0
  0
SEQEND
  5
F180
  8
AM_0
  0
ARC
  5
F181
  8
AM_0
 10
137.00892868725501
 20
530.7570135435119
 30
0.0
 40
1.3300049999999981
 50
90.000003000000945
 51
270.0
  0
ARC
  5
F182
  8
AM_0
 10
138.223528687255
 20
530.74700354351194
 30
0.0
 40
1.0000138999999999
 50
89.691659999999231
 51
270.30834000000073
  0
POLYLINE
  5
F183
  8
AM_0
 66
     1
 10
0.0
 20
0.0
 30
0.0
  0
VERTEX
  5
F184
  8
AM_0
 10
139.539808687255
 20
542.23003354351158
 30
0.0
 42
-0.00068898288
  0
VERTEX
  5
F185
  8
AM_0
 10
139.61068868725491
 20
542.80478354351158
 30
0.0
 42
-0.00070644354
  0
VERTEX
  5
F186
  8
AM_0
 10
139.68318868725501
 20
543.37947354351184
 30
0.0
 42
-0.00069248071
  0
VERTEX
  5
F187
  8
AM_0
 10
139.757278687255
 20
543.9537835435118
 30
0.0
 42
-0.00069585665
  0
VERTEX
  5
F188
  8
AM_0
 10
139.832958687255
 20
544.52792354351175
 30
0.0
 42
-0.00068980191
  0
VERTEX
  5
F189
  8
AM_0
 10
139.9102586872549
 20
545.10192354351193
 30
0.0
 42
-0.00072080104
  0
VERTEX
  5
F18A
  8
AM_0
 10
139.98914868725501
 20
545.67571354351185
 30
0.0
 42
-0.00071002307
  0
VERTEX
  5
F18B
  8
AM_0
 10
140.069688687255
 20
546.24918354351189
 30
0.0
 42
-0.00072659056
  0
VERTEX
  5
F18C
  8
AM_0
 10
140.15184868725501
 20
546.82228354351196
 30
0.0
 42
-0.00069570481
  0
VERTEX
  5
F18D
  8
AM_0
 10
140.23566868725499
 20
547.39531354351175
 30
0.0
 42
-0.00071266935
  0
VERTEX
  5
F18E
  8
AM_0
 10
140.3210986872551
 20
547.96808354351185
 30
0.0
 42
-0.00071614426
  0
VERTEX
  5
F18F
  8
AM_0
 10
140.40812868725499
 20
548.54042354351191
 30
0.0
 42
-0.00072288975
  0
VERTEX
  5
F190
  8
AM_0
 10
140.49683868725501
 20
549.11272354351183
 30
0.0
  0
SEQEND
  5
F191
  8
AM_0
  0
ARC
  5
F192
  8
AM_0
 10
137.35151868725501
 20
550.79204354351191
 30
0.0
 40
1.6750160000000001
 50
89.746145000001235
 51
270.25387000000092
  0
ARC
  5
F193
  8
AM_0
 10
138.223528687255
 20
550.74700354351194
 30
0.0
 40
1.0000138999999999
 50
89.691659999999231
 51
270.30834000000073
  0
ARC
  5
F194
  8
AM_0
 10
237.01889858725499
 20
530.74700354351194
 30
0.0
 40
1.000005699999998
 50
269.999989999999
 51
90.000003000000945
  0
ARC
  5
F195
  8
AM_0
 10
240.84388508725499
 20
530.7620135435119
 30
0.0
 40
1.3350147999999999
 50
269.7304299999999
 51
90.269556000001415
  0
ARC
  5
F196
  8
AM_0
 10
237.01887868725501
 20
540.74700354351194
 30
0.0
 40
1.0000255999999981
 50
269.58947000000001
 51
90.410531000001029
  0
ARC
  5
F197
  8
AM_0
 10
240.718888687255
 20
540.77703354351183
 30
0.0
 40
1.460011199999999
 50
269.77524999999991
 51
90.224750000000114
  0
ARC
  5
F198
  8
AM_0
 10
237.018938687255
 20
550.74700354351194
 30
0.0
 40
1.0
 50
269.999989999999
 51
90.000003000000945
  0
ARC
  5
F199
  8
AM_0
 10
240.49889851948939
 20
550.79201954351117
 30
0.0
 40
1.675026000120903
 50
270.0006898566686
 51
89.999313143289925
  0
LINE
  5
F19A
  8
AM_0
 10
237.0222710307946
 20
499.74700518682431
 30
0.0
 11
138.03889473736521
 21
499.74702962268401
 31
0.0
  0
LINE
  5
F19B
  8
AM_0
 10
237.02227152450649
 20
501.74700518682431
 30
0.0
 11
138.0388952311018
 21
501.74702962268378
 31
0.0
  0
LINE
  5
F19C
  8
AM_0
 10
237.02227349945659
 20
509.74700518682403
 30
0.0
 11
138.0388972060484
 21
509.74702962268373
 31
0.0
  0
LINE
  5
F19D
  8
AM_0
 10
237.02227399319321
 20
511.74700518682403
 30
0.0
 11
138.038897699785
 21
511.7470296226835
 31
0.0
  0
LINE
  5
F19E
  8
AM_0
 10
136.94892776397319
 20
512.00703989176259
 30
0.0
 11
240.90173973997949
 21
512.00701422910663
 31
0.0
  0
LINE
  5
F19F
  8
AM_0
 10
136.9489271393889
 20
509.4770098917628
 30
0.0
 11
241.06502639289269
 21
509.47698418879651
 31
0.0
  0
LINE
  5
F1A0
  8
AM_0
 10
137.00892531008731
 20
502.06697987695088
 30
0.0
 11
240.85597776807759
 21
502.06695424040367
 31
0.0
  0
LINE
  5
F1A1
  8
AM_0
 10
137.00892465343981
 20
499.40706987695091
 30
0.0
 11
241.0075026098371
 21
499.40704420299687
 31
0.0
  0
LINE
  5
F1A2
  8
AM_0
 10
137.35889044926489
 20
482.37703979055487
 30
0.0
 11
240.49891044926181
 21
482.37701432855192
 31
0.0
  0
LINE
  5
F1A3
  8
AM_0
 10
237.026072268679
 20
489.7470051858856
 30
0.0
 11
138.03889226868199
 21
489.74702962268429
 31
0.0
  0
LINE
  5
F1A4
  8
AM_0
 10
137.138922147719
 20
489.25703984485818
 30
0.0
 11
240.7245621477158
 21
489.25701427284548
 31
0.0
  0
LINE
  5
F1A5
  8
AM_0
 10
137.1389228710259
 20
492.18696984485831
 30
0.0
 11
240.7131428710228
 21
492.18694427566493
 31
0.0
  0
LINE
  5
F1A6
  8
AM_0
 10
137.35888962226099
 20
479.0270597905548
 30
0.0
 11
240.4989096222578
 21
479.02703432855168
 31
0.0
  0
LINE
  5
F1A7
  8
AM_0
 10
237.01173276241559
 20
491.74700518942558
 30
0.0
 11
138.0388927624187
 21
491.74702962268412
 31
0.0
  0
LINE
  5
F1A8
  8
AM_0
 10
237.01893029373241
 20
481.74700518764843
 30
0.0
 11
138.03889029373551
 21
481.74702962268441
 31
0.0
  0
LINE
  5
F1A9
  8
AM_0
 10
237.0189297999957
 20
479.74700518764848
 30
0.0
 11
138.0388897999988
 21
479.74702962268458
 31
0.0
  0
ARC
  5
F1AA
  8
AM_0
 10
237.01889735291371
 20
510.74700518765758
 30
0.0
 40
1.000005699999998
 50
269.99998285548759
 51
89.999995855489516
  0
ARC
  5
F1AB
  8
AM_0
 10
237.01889488423041
 20
500.74700518765792
 30
0.0
 40
1.000005699999998
 50
269.99998285548759
 51
89.999995855489516
  0
ARC
  5
F1AC
  8
AM_0
 10
240.90583385044241
 20
510.73699422809608
 30
0.0
 40
1.2700266
 50
269.62931585548739
 51
90.370665855488923
  0
ARC
  5
F1AD
  8
AM_0
 10
240.84388138052489
 20
500.73199424338992
 30
0.0
 40
1.3350147999999999
 50
269.73042985548688
 51
90.26955585548842
  0
ARC
  5
F1AE
  8
AM_0
 10
237.01893004686411
 20
480.74700518764843
 30
0.0
 40
1.0
 50
269.99998285548759
 51
89.999995855489516
  0
ARC
  5
F1AF
  8
AM_0
 10
237.01887251554729
 20
490.74700518766298
 30
0.0
 40
1.0000255999999981
 50
269.58945485548588
 51
90.410515855486977
  0
ARC
  5
F1B0
  8
AM_0
 10
240.7188825081337
 20
490.71697427424789
 30
0.0
 40
1.460011199999999
 50
269.7752358554871
 51
90.224735855487296
  0
ARC
  5
F1B1
  8
AM_0
 10
240.4988898679853
 20
480.70198832855732
 30
0.0
 40
1.675026000120903
 50
270.00067271219859
 51
89.999295998819832
  0
POLYLINE
  5
F1B2
  8
AM_0
 66
     1
 10
0.0
 20
0.0
 30
0.0
  0
VERTEX
  5
F1B3
  8
AM_0
 10
138.55714465328921
 20
499.40645949474441
 30
0.0
 42
0.0007337051
  0
VERTEX
  5
F1B4
  8
AM_0
 10
138.6012845045708
 20
498.80403948384759
 30
0.0
 42
0.00075211323
  0
VERTEX
  5
F1B5
  8
AM_0
 10
138.64722435585969
 20
498.20164947250657
 30
0.0
 42
0.0007297491
  0
VERTEX
  5
F1B6
  8
AM_0
 10
138.69495420719559
 20
497.59944946072358
 30
0.0
 42
0.00073593041
  0
VERTEX
  5
F1B7
  8
AM_0
 10
138.74443405858341
 20
496.99745944850861
 30
0.0
 42
0.00074742739
  0
VERTEX
  5
F1B8
  8
AM_0
 10
138.79570391000081
 20
496.39558943585178
 30
0.0
 42
0.00073217363
  0
VERTEX
  5
F1B9
  8
AM_0
 10
138.84876376143541
 20
495.79378942275281
 30
0.0
 42
0.00073754168
  0
VERTEX
  5
F1BA
  8
AM_0
 10
138.9035836129342
 20
495.19224940921958
 30
0.0
 42
0.00073075073
  0
VERTEX
  5
F1BB
  8
AM_0
 10
138.96016346447749
 20
494.59088939525179
 30
0.0
 42
0.00074550816
  0
VERTEX
  5
F1BC
  8
AM_0
 10
139.01850331609469
 20
493.98982938084953
 30
0.0
 42
0.00074288416
  0
VERTEX
  5
F1BD
  8
AM_0
 10
139.078653167722
 20
493.3888093660002
 30
0.0
 42
0.00072504001
  0
VERTEX
  5
F1BE
  8
AM_0
 10
139.14056301941591
 20
492.78805935071671
 30
0.0
 42
0.00074640667
  0
VERTEX
  5
F1BF
  8
AM_0
 10
139.2042328711467
 20
492.18745933499872
 30
0.0
  0
SEQEND
  5
F1C0
  8
AM_0
  0
POLYLINE
  5
F1C1
  8
AM_0
 66
     1
 10
0.0
 20
0.0
 30
0.0
  0
VERTEX
  5
F1C2
  8
AM_0
 10
138.08295713930011
 20
509.47664961180669
 30
0.0
 42
0.00076691992
  0
VERTEX
  5
F1C3
  8
AM_0
 10
138.09775698679209
 20
508.85887960815307
 30
0.0
 42
0.00073262792
  0
VERTEX
  5
F1C4
  8
AM_0
 10
138.1143968343288
 20
508.24128960404511
 30
0.0
 42
0.00076529537
  0
VERTEX
  5
F1C5
  8
AM_0
 10
138.13288668184549
 20
507.62361959948049
 30
0.0
 42
0.00075141097
  0
VERTEX
  5
F1C6
  8
AM_0
 10
138.15325652937969
 20
507.00601959445191
 30
0.0
 42
0.00075841687
  0
VERTEX
  5
F1C7
  8
AM_0
 10
138.17548637695589
 20
506.3885895889639
 30
0.0
 42
0.00075711788
  0
VERTEX
  5
F1C8
  8
AM_0
 10
138.19959622451219
 20
505.77107958301201
 30
0.0
 42
0.00075976003
  0
VERTEX
  5
F1C9
  8
AM_0
 10
138.22558607209811
 20
505.15368957659581
 30
0.0
 42
0.00075797311
  0
VERTEX
  5
F1CA
  8
AM_0
 10
138.25342591971139
 20
504.53640956972288
 30
0.0
 42
0.0007482613
  0
VERTEX
  5
F1CB
  8
AM_0
 10
138.28315576729969
 20
503.91902956238363
 30
0.0
 42
0.00074893561
  0
VERTEX
  5
F1CC
  8
AM_0
 10
138.31471561494979
 20
503.30189955459252
 30
0.0
 42
0.00076039839
  0
VERTEX
  5
F1CD
  8
AM_0
 10
138.34813546262481
 20
502.68486954634233
 30
0.0
 42
0.00075618786
  0
VERTEX
  5
F1CE
  8
AM_0
 10
138.3834353102971
 20
502.0678295376278
 30
0.0
  0
SEQEND
  5
F1CF
  8
AM_0
  0
POLYLINE
  5
F1D0
  8
AM_0
 66
     1
 10
0.0
 20
0.0
 30
0.0
  0
VERTEX
  5
F1D1
  8
AM_0
 10
138.0388986872583
 20
515.7470296226835
 30
0.0
 42
0.00039106649
  0
VERTEX
  5
F1D2
  8
AM_0
 10
138.03653861045001
 20
515.4358996232661
 30
0.0
 42
0.00035488198
  0
VERTEX
  5
F1D3
  8
AM_0
 10
138.0346485336469
 20
515.1247896237328
 30
0.0
 42
0.00039706113
  0
VERTEX
  5
F1D4
  8
AM_0
 10
138.0332184568436
 20
514.81367962408581
 30
0.0
 42
0.00038765718
  0
VERTEX
  5
F1D5
  8
AM_0
 10
138.03228838003301
 20
514.50253962431532
 30
0.0
 42
0.00040613432
  0
VERTEX
  5
F1D6
  8
AM_0
 10
138.03183830323229
 20
514.19143962442627
 30
0.0
 42
0.00035573434
  0
VERTEX
  5
F1D7
  8
AM_0
 10
138.03187822642909
 20
513.88032962441662
 30
0.0
 42
0.00038545884
  0
VERTEX
  5
F1D8
  8
AM_0
 10
138.03236814962099
 20
513.56919962429561
 30
0.0
 42
0.00035501205
  0
VERTEX
  5
F1D9
  8
AM_0
 10
138.0333280728178
 20
513.25808962405847
 30
0.0
 42
0.00040120779
  0
VERTEX
  5
F1DA
  8
AM_0
 10
138.0347479959849
 20
512.94685962370818
 30
0.0
 42
0.00038317817
  0
VERTEX
  5
F1DB
  8
AM_0
 10
138.03665791917689
 20
512.63572962323644
 30
0.0
 42
0.00035656084
  0
VERTEX
  5
F1DC
  8
AM_0
 10
138.03903784234149
 20
512.32448962264903
 30
0.0
 42
0.00040143615
  0
VERTEX
  5
F1DD
  8
AM_0
 10
138.04188776554079
 20
512.01338962194563
 30
0.0
  0
SEQEND
  5
F1DE
  8
AM_0
  0
ARC
  5
F1DF
  8
AM_0
 10
138.22352745291661
 20
510.74702957710429
 30
0.0
 40
1.0000138999999999
 50
89.691645855488133
 51
270.30832585548961
  0
ARC
  5
F1E0
  8
AM_0
 10
136.9430674516822
 20
510.74202989320941
 30
0.0
 40
1.2650129999999991
 50
89.735575855488491
 51
270.26440685548931
  0
ARC
  5
F1E1
  8
AM_0
 10
138.22352498423351
 20
500.74702957710468
 30
0.0
 40
1.0000138999999999
 50
89.691645855488133
 51
270.30832585548961
  0
ARC
  5
F1E2
  8
AM_0
 10
137.00892498176231
 20
500.73701987695102
 30
0.0
 40
1.3300049999999981
 50
89.999985855488504
 51
269.99998285548759
  0
POLYLINE
  5
F1E3
  8
AM_0
 66
     1
 10
0.0
 20
0.0
 30
0.0
  0
VERTEX
  5
F1E4
  8
AM_0
 10
139.53980214943709
 20
489.26399925215719
 30
0.0
 42
0.00068898288
  0
VERTEX
  5
F1E5
  8
AM_0
 10
139.61068200754951
 20
488.6892492346592
 30
0.0
 42
0.00070644354
  0
VERTEX
  5
F1E6
  8
AM_0
 10
139.6831818656768
 20
488.11455921676111
 30
0.0
 42
0.00069248071
  0
VERTEX
  5
F1E7
  8
AM_0
 10
139.75727172389779
 20
487.5402491984708
 30
0.0
 42
0.00069585665
  0
VERTEX
  5
F1E8
  8
AM_0
 10
139.83295158216089
 20
486.96610917978779
 30
0.0
 42
0.00068980191
  0
VERTEX
  5
F1E9
  8
AM_0
 10
139.91025144045841
 20
486.39210916070482
 30
0.0
 42
0.00072080104
  0
VERTEX
  5
F1EA
  8
AM_0
 10
139.98914129880791
 20
485.81831914122949
 30
0.0
 42
0.00071002307
  0
VERTEX
  5
F1EB
  8
AM_0
 10
140.06968115723629
 20
485.24484912134659
 30
0.0
 42
0.00072659056
  0
VERTEX
  5
F1EC
  8
AM_0
 10
140.1518410157561
 20
484.67174910106399
 30
0.0
 42
0.00069570481
  0
VERTEX
  5
F1ED
  8
AM_0
 10
140.2356608742931
 20
484.0987190803715
 30
0.0
 42
0.00071266935
  0
VERTEX
  5
F1EE
  8
AM_0
 10
140.32109073289439
 20
483.52594905928152
 30
0.0
 42
0.00071614426
  0
VERTEX
  5
F1EF
  8
AM_0
 10
140.40812059160169
 20
482.9536090377967
 30
0.0
 42
0.00072288975
  0
VERTEX
  5
F1F0
  8
AM_0
 10
140.4968304503189
 20
482.38130901589699
 30
0.0
  0
SEQEND
  5
F1F1
  8
AM_0
  0
ARC
  5
F1F2
  8
AM_0
 10
137.13892250937371
 20
490.72200984485829
 30
0.0
 40
1.465004
 50
89.999985855488504
 51
269.99998285548759
  0
ARC
  5
F1F3
  8
AM_0
 10
138.22352251555029
 20
490.74702957710502
 30
0.0
 40
1.0000138999999999
 50
89.691645855488133
 51
270.30832585548961
  0
ARC
  5
F1F4
  8
AM_0
 10
138.22352004686709
 20
480.74702957710531
 30
0.0
 40
1.0000138999999999
 50
89.691645855488133
 51
270.30832585548961
  0
ARC
  5
F1F5
  8
AM_0
 10
137.35151003574811
 20
480.70198979237682
 30
0.0
 40
1.6750160000000001
 50
89.746115855485471
 51
270.25384085548518
  0
LINE
  5
F1F6
  8
ｶｸﾚｾﾝ2
 10
145.17893868725491
 20
551.74698622422864
 30
0.0
 11
228.67893868725491
 21
551.74698622422864
 31
0.0
  0
LINE
  5
F1F7
  8
ｶｸﾚｾﾝ2
 10
228.67893868725491
 20
479.74698622422892
 30
0.0
 11
145.17893868725491
 21
479.74698622422892
 31
0.0
  0
LINE
  5
F1F8
  8
ｶｸﾚｾﾝ2
 10
141.67893868725491
 20
483.24698622422892
 30
0.0
 11
141.67893868725491
 21
548.24698622422898
 31
0.0
  0
ARC
  5
F1F9
  8
ｶｸﾚｾﾝ2
 10
145.17893868725491
 20
483.24698622422892
 30
0.0
 40
3.5
 50
180.0
 51
270.0
  0
ARC
  5
F1FA
  8
ｶｸﾚｾﾝ2
 10
145.17893868725491
 20
548.24698622422898
 30
0.0
 40
3.5
 50
90.0
 51
180.0
  0
LINE
  5
F1FB
  8
ｶｸﾚｾﾝ2
 10
230.67893868725491
 20
481.74698622422892
 30
0.0
 11
230.67893868725491
 21
489.24698622422881
 31
0.0
  0
ARC
  5
F1FC
  8
ｶｸﾚｾﾝ2
 10
228.67893868725491
 20
481.74698622422898
 30
0.0
 40
2.0
 50
270.0
 51
0.0
  0
LINE
  5
F1FD
  8
ｶｸﾚｾﾝ2
 10
228.67893868725491
 20
491.24698622422869
 30
0.0
 11
228.17893868725491
 21
491.24698622422869
 31
0.0
  0
ARC
  5
F1FE
  8
ｶｸﾚｾﾝ2
 10
228.17893868725491
 20
493.24698622422881
 30
0.0
 40
2.0
 50
180.0
 51
270.0
  0
ARC
  5
F1FF
  8
ｶｸﾚｾﾝ2
 10
228.67893868725491
 20
489.24698622422881
 30
0.0
 40
2.0
 50
0.0
 51
90.0
  0
ARC
  5
F200
  8
ｶｸﾚｾﾝ2
 10
228.17893868725491
 20
538.24698622422875
 30
0.0
 40
2.0
 50
90.0
 51
180.0
  0
LINE
  5
F201
  8
ｶｸﾚｾﾝ2
 10
226.17893868725491
 20
538.24698622422875
 30
0.0
 11
226.17893868725491
 21
493.24698622422881
 31
0.0
  0
ARC
  5
F202
  8
ｶｸﾚｾﾝ2
 10
228.67893868725491
 20
549.74698622422875
 30
0.0
 40
2.0
 50
0.0
 51
90.0
  0
LINE
  5
F203
  8
ｶｸﾚｾﾝ2
 10
228.17893868725491
 20
540.24698622422886
 30
0.0
 11
228.67893868725491
 21
540.24698622422886
 31
0.0
  0
ARC
  5
F204
  8
ｶｸﾚｾﾝ2
 10
228.67893868725491
 20
542.24698622422875
 30
0.0
 40
2.0
 50
270.0
 51
0.0
  0
LINE
  5
F205
  8
ｶｸﾚｾﾝ2
 10
230.67893868725491
 20
542.24698622422875
 30
0.0
 11
230.67893868725491
 21
549.74698622422875
 31
0.0
  0
LINE
  5
F206
  8
ｶｸﾚｾﾝ2
 10
230.67893868725491
 20
542.24698622422875
 30
0.0
 11
230.67893868725491
 21
549.74698622422875
 31
0.0
  0
LINE
  5
F207
  8
AM_0
 10
137.35889868725491
 20
298.95932110576052
 30
0.0
 11
204.69892868725489
 21
298.95932110576052
 31
0.0
  0
LINE
  5
F208
  8
AM_0
 10
137.13892868725489
 20
292.07932110576058
 30
0.0
 11
204.6789086872549
 21
292.07932110576058
 31
0.0
  0
LINE
  5
F209
  8
AM_0
 10
138.88892868725489
 20
321.8693611057605
 30
0.0
 11
235.8089186872549
 21
321.8693611057605
 31
0.0
  0
LINE
  5
F20A
  8
AM_0
 10
138.9289086872549
 20
324.71933110576049
 30
0.0
 11
235.8089186872549
 21
324.71933110576049
 31
0.0
  0
LINE
  5
F20B
  8
AM_0
 10
138.94892868725481
 20
326.56931110576068
 30
0.0
 11
235.8089186872549
 21
326.56931110576068
 31
0.0
  0
LINE
  5
F20C
  8
AM_0
 10
138.9688886872548
 20
327.47934110576051
 30
0.0
 11
235.80897868725489
 21
327.47934110576051
 31
0.0
  0
LINE
  5
F20D
  8
AM_0
 10
237.01893868725489
 20
301.58933110576061
 30
0.0
 11
138.03889868725491
 21
301.58933110576061
 31
0.0
  0
LINE
  5
F20E
  8
AM_0
 10
237.01893868725489
 20
299.58933110576061
 30
0.0
 11
138.03889868725491
 21
299.58933110576061
 31
0.0
  0
LINE
  5
F20F
  8
AM_0
 10
137.00892868725489
 20
249.24936110576061
 30
0.0
 11
173.35017868725481
 21
249.24936110576061
 31
0.0
  0
LINE
  5
F210
  8
AM_0
 10
136.94892868725481
 20
261.85935110576048
 30
0.0
 11
173.39759868725491
 21
261.85935110576048
 31
0.0
  0
LINE
  5
F211
  8
AM_0
 10
172.11762868725489
 20
261.58933110576061
 30
0.0
 11
138.03889868725491
 21
261.58933110576061
 31
0.0
  0
LINE
  5
F212
  8
AM_0
 10
172.11762868725489
 20
259.58933110576061
 30
0.0
 11
138.03889868725491
 21
259.58933110576061
 31
0.0
  0
LINE
  5
F213
  8
AM_0
 10
136.94892868725481
 20
259.31931110576068
 30
0.0
 11
173.39759868725491
 21
259.31931110576068
 31
0.0
  0
LINE
  5
F214
  8
AM_0
 10
137.00892868725489
 20
251.90927110576069
 30
0.0
 11
173.33759868725491
 21
251.90927110576069
 31
0.0
  0
LINE
  5
F215
  8
AM_0
 10
172.11762868725489
 20
251.58933110576061
 30
0.0
 11
138.03889868725491
 21
251.58933110576061
 31
0.0
  0
LINE
  5
F216
  8
AM_0
 10
172.11762868725489
 20
249.58933110576061
 30
0.0
 11
138.03889868725491
 21
249.58933110576061
 31
0.0
  0
LINE
  5
F217
  8
AM_0
 10
172.11762868725489
 20
271.58933110576061
 30
0.0
 11
138.03889868725491
 21
271.58933110576061
 31
0.0
  0
LINE
  5
F218
  8
AM_0
 10
172.11762868725489
 20
269.58933110576061
 30
0.0
 11
138.03889868725491
 21
269.58933110576061
 31
0.0
  0
LINE
  5
F219
  8
AM_0
 10
136.94892868725481
 20
271.85935110576048
 30
0.0
 11
173.39759868725491
 21
271.85935110576048
 31
0.0
  0
LINE
  5
F21A
  8
AM_0
 10
136.94892868725481
 20
269.3293211057607
 30
0.0
 11
173.39759868725491
 21
269.3293211057607
 31
0.0
  0
LINE
  5
F21B
  8
AM_0
 10
172.11762868725489
 20
281.58933110576061
 30
0.0
 11
138.03889868725491
 21
281.58933110576061
 31
0.0
  0
LINE
  5
F21C
  8
AM_0
 10
137.00892868725489
 20
281.92929110576063
 30
0.0
 11
173.33759868725491
 21
281.92929110576063
 31
0.0
  0
LINE
  5
F21D
  8
AM_0
 10
172.11762868725489
 20
279.58933110576061
 30
0.0
 11
138.03889868725491
 21
279.58933110576061
 31
0.0
  0
LINE
  5
F21E
  8
AM_0
 10
137.00892868725489
 20
279.26938110576049
 30
0.0
 11
173.33759868725491
 21
279.26938110576049
 31
0.0
  0
LINE
  5
F21F
  8
AM_0
 10
138.5851586872549
 20
206.45932110576049
 30
0.0
 11
161.01155888592169
 21
206.45932110576049
 31
0.0
  0
LINE
  5
F220
  8
AM_0
 10
138.88892868725489
 20
209.30930110576051
 30
0.0
 11
235.8089186872549
 21
209.30930110576051
 31
0.0
  0
LINE
  5
F221
  8
AM_0
 10
204.6789086872549
 20
239.58933110576061
 30
0.0
 11
138.03889868725491
 21
239.58933110576061
 31
0.0
  0
LINE
  5
F222
  8
AM_0
 10
137.13892868725489
 20
239.0993411057606
 30
0.0
 11
204.6789086872549
 21
239.0993411057606
 31
0.0
  0
LINE
  5
F223
  8
AM_0
 10
137.35889868725491
 20
228.8693611057605
 30
0.0
 11
192.6789086872549
 21
228.8693611057605
 31
0.0
  0
LINE
  5
F224
  8
AM_0
 10
137.35889868725491
 20
232.21933110576049
 30
0.0
 11
204.69892868725489
 21
232.21933110576049
 31
0.0
  0
LINE
  5
F225
  8
AM_0
 10
192.6789086872549
 20
231.58933110576061
 30
0.0
 11
138.03889868725491
 21
231.58933110576061
 31
0.0
  0
LINE
  5
F226
  8
AM_0
 10
192.6789086872549
 20
229.58933110576061
 30
0.0
 11
138.03889868725491
 21
229.58933110576061
 31
0.0
  0
LINE
  5
F227
  8
AM_0
 10
237.0117386872549
 20
241.58933110576061
 30
0.0
 11
138.03889868725491
 21
241.58933110576061
 31
0.0
  0
LINE
  5
F228
  8
AM_0
 10
204.6789086872549
 20
291.58933110576061
 30
0.0
 11
138.03889868725491
 21
291.58933110576061
 31
0.0
  0
LINE
  5
F229
  8
AM_0
 10
237.0117386872549
 20
289.58933110576061
 30
0.0
 11
138.03889868725491
 21
289.58933110576061
 31
0.0
  0
LINE
  5
F22A
  8
AM_0
 10
148.9810711188338
 20
196.08933110576061
 30
0.0
 11
166.58107111883379
 21
196.08933110576061
 31
0.0
  0
LINE
  5
F22B
  8
ﾁｭｳｼﾝｾﾝ1
 10
146.28107111884319
 20
179.08933110576061
 30
0.0
 11
170.28107111882451
 21
179.08933110576061
 31
0.0
  0
ARC
  5
F22C
  8
AM_0
 10
158.28107111883389
 20
179.08933110576061
 30
0.0
 40
9.3000000000000007
 50
180.0
 51
0.0
  0
LINE
  5
F22D
  8
AM_0
 10
145.6996473346228
 20
167.08933110576061
 30
0.0
 11
177.67771707335481
 21
172.5377571425046
 31
0.0
  0
LINE
  5
F22E
  8
AM_0
 10
145.78107111883389
 20
166.08933110576061
 30
0.0
 11
222.0810711188339
 21
179.08933110576061
 31
0.0
  0
LINE
  5
F22F
  8
AM_0
 10
145.78107111883389
 20
166.08933110576061
 30
0.0
 11
222.0810711188339
 21
179.08933110576061
 31
0.0
  0
LINE
  5
F230
  8
AM_0
 10
221.5810711188349
 20
162.08933110576061
 30
0.0
 11
146.10676625567481
 21
162.08933110576061
 31
0.0
  0
LINE
  5
F231
  8
AM_0
 10
222.4067662556748
 20
175.08933110576061
 30
0.0
 11
146.10676625567481
 21
162.08933110576061
 31
0.0
  0
LINE
  5
F232
  8
AM_0
 10
137.13892868725489
 20
242.02927110576061
 30
0.0
 11
240.71314868725489
 21
242.02927110576061
 31
0.0
  0
LINE
  5
F233
  8
AM_0
 10
137.35889868725491
 20
302.30930110576071
 30
0.0
 11
240.4989186872549
 21
302.30930110576071
 31
0.0
  0
LINE
  5
F234
  8
AM_0
 10
137.13892868725489
 20
289.14939110576063
 30
0.0
 11
240.71314868725489
 21
289.14939110576063
 31
0.0
  0
POLYLINE
  5
F235
  8
AM_0
 66
     1
 10
0.0
 20
0.0
 30
0.0
  0
VERTEX
  5
F236
  8
AM_0
 10
138.08295868725489
 20
259.31894110576047
 30
0.0
 42
0.00076695235
  0
VERTEX
  5
F237
  8
AM_0
 10
138.09775868725481
 20
258.70118110576061
 30
0.0
 42
0.00073263043
  0
VERTEX
  5
F238
  8
AM_0
 10
138.11439868725489
 20
258.08358110576057
 30
0.0
 42
0.00076525988
  0
VERTEX
  5
F239
  8
AM_0
 10
138.13288868725479
 20
257.46591110576048
 30
0.0
 42
0.00075144488
  0
VERTEX
  5
F23A
  8
AM_0
 10
138.15325868725489
 20
256.84831110576067
 30
0.0
 42
0.00076035096
  0
VERTEX
  5
F23B
  8
AM_0
 10
138.1754986872549
 20
256.23088110576072
 30
0.0
 42
0.00075543154
  0
VERTEX
  5
F23C
  8
AM_0
 10
138.19959868725491
 20
255.61350110576049
 30
0.0
 42
0.0007577325
  0
VERTEX
  5
F23D
  8
AM_0
 10
138.22557868725491
 20
254.9961011057606
 30
0.0
 42
0.00076034585
  0
VERTEX
  5
F23E
  8
AM_0
 10
138.25342868725491
 20
254.37871110576049
 30
0.0
 42
0.00074823143
  0
VERTEX
  5
F23F
  8
AM_0
 10
138.28315868725491
 20
253.76132110576069
 30
0.0
 42
0.00074896605
  0
VERTEX
  5
F240
  8
AM_0
 10
138.3147186872547
 20
253.1441911057606
 30
0.0
 42
0.00076039763
  0
VERTEX
  5
F241
  8
AM_0
 10
138.3481386872549
 20
252.52716110576071
 30
0.0
 42
0.00075616127
  0
VERTEX
  5
F242
  8
AM_0
 10
138.38343868725491
 20
251.9101311057606
 30
0.0
  0
SEQEND
  5
F243
  8
AM_0
  0
LINE
  5
F244
  8
AM_0
 10
127.6789086872549
 20
324.33933110576061
 30
0.0
 11
127.6789086872549
 21
206.83933110576061
 31
0.0
  0
LINE
  5
F245
  8
AM_0
 10
135.6789086872549
 20
318.58933110576061
 30
0.0
 11
135.6789086872549
 21
212.58933110576061
 31
0.0
  0
LINE
  5
F246
  8
AM_0
 10
122.6789086872549
 20
228.40427110576061
 30
0.0
 11
122.6789086872549
 21
302.77536110576051
 31
0.0
  0
LINE
  5
F247
  8
AM_0
 10
72.177478587254882
 20
321.58933110576061
 30
0.0
 11
72.177478587254882
 21
209.58933110576061
 31
0.0
  0
LINE
  5
F248
  8
AM_0
 10
77.678908687254932
 20
231.06027110576051
 30
0.0
 11
77.678908687254932
 21
300.1183811057607
 31
0.0
  0
LINE
  5
F249
  8
AM_0
 10
77.177478587254882
 20
300.3277922014679
 30
0.0
 11
77.177478587254882
 21
230.85087001005309
 31
0.0
  0
LINE
  5
F24A
  8
AM_0
 10
80.178908687254918
 20
212.80734110576071
 30
0.0
 11
80.178908687254918
 21
318.33933110576038
 31
0.0
  0
LINE
  5
F24B
  8
AM_0
 10
143.18107111883381
 20
195.08933110576061
 30
0.0
 11
143.18107111883381
 21
172.08933110576061
 31
0.0
  0
LINE
  5
F24C
  8
AM_0
 10
148.9810711188338
 20
196.08933110576061
 30
0.0
 11
148.9810711188338
 21
179.08933110576061
 31
0.0
  0
LINE
  5
F24D
  8
AM_0
 10
142.8810711188338
 20
167.08933110576061
 30
0.0
 11
142.8810711188338
 21
168.0849737864765
 31
0.0
  0
LINE
  5
F24E
  8
AM_0
 10
143.18107111883381
 20
172.08933110576061
 30
0.0
 11
143.18107111883279
 21
167.08933110576061
 31
0.0
  0
LINE
  5
F24F
  8
AM_0
 10
142.6810711188339
 20
167.08933110576061
 30
0.0
 11
142.6810711188339
 21
170.78933110576151
 31
0.0
  0
LINE
  5
F250
  8
AM_0
 10
141.18107111883489
 20
170.78933110576151
 30
0.0
 11
141.18107111883489
 21
163.58933110576061
 31
0.0
  0
LINE
  5
F251
  8
AM_0
 10
143.18107111883381
 20
162.08933110576061
 30
0.0
 11
146.10676625567481
 21
162.08933110576061
 31
0.0
  0
LINE
  5
F252
  8
AM_0
 10
141.6810711188339
 20
166.08933110576061
 30
0.0
 11
145.78107111883389
 21
166.08933110576061
 31
0.0
  0
LINE
  5
F253
  8
AM_0
 10
141.9810711188338
 20
166.08933110576061
 30
0.0
 11
145.78107111883389
 21
166.08933110576061
 31
0.0
  0
LINE
  5
F254
  8
AM_0
 10
142.68107111883489
 20
162.08933110576061
 30
0.0
 11
142.9795570149918
 21
162.08933110576169
 31
0.0
  0
LINE
  5
F255
  8
AM_0
 10
141.6810711188339
 20
166.78933110576151
 30
0.0
 11
141.6810711188339
 21
166.08933110576061
 31
0.0
  0
ARC
  5
F256
  8
AM_0
 10
141.9810711188338
 20
165.78933110576151
 30
0.0
 40
0.3
 50
90.0
 51
180.0
  0
ARC
  5
F257
  8
AM_0
 10
141.9810711188338
 20
166.78933110576151
 30
0.0
 40
0.3
 50
90.0
 51
180.0
  0
LINE
  5
F258
  8
AM_0
 10
141.6810711188339
 20
165.78933110576151
 30
0.0
 11
141.6810711188339
 21
163.58933110576061
 31
0.0
  0
LINE
  5
F259
  8
AM_0
 10
145.6996473346228
 20
167.08933110576061
 30
0.0
 11
141.9810711188338
 21
167.08933110576061
 31
0.0
  0
ARC
  5
F25A
  8
AM_0
 10
142.68107111883489
 20
163.58933110576169
 30
0.0
 40
1.5
 50
180.00000000000651
 51
269.99999999999352
  0
ARC
  5
F25B
  8
AM_0
 10
143.18107111883381
 20
163.58933110576061
 30
0.0
 40
1.5
 50
180.0
 51
270.0
  0
ARC
  5
F25C
  8
AM_0
 10
142.3810711188338
 20
170.78933110576151
 30
0.0
 40
0.3
 50
0.0
 51
90.0
  0
LINE
  5
F25D
  8
AM_0
 10
143.08107111883379
 20
172.08933110576061
 30
0.0
 11
143.18107111883381
 21
172.08933110576061
 31
0.0
  0
LINE
  5
F25E
  8
AM_0
 10
142.8810711188338
 20
171.88933110576141
 30
0.0
 11
143.08107111883379
 21
172.08933110576061
 31
0.0
  0
LINE
  5
F25F
  8
AM_0
 10
142.8810711188338
 20
168.0849737864765
 30
0.0
 11
142.8810711188338
 21
169.2849737864766
 31
0.0
  0
LINE
  5
F260
  8
AM_0
 10
142.8810711188338
 20
168.0849737864765
 30
0.0
 11
142.6810711188339
 21
168.0849737864765
 31
0.0
  0
LINE
  5
F261
  8
AM_0
 10
142.6810711188339
 20
169.2849737864766
 30
0.0
 11
142.8810711188338
 21
169.2849737864766
 31
0.0
  0
LINE
  5
F262
  8
AM_0
 10
142.8810711188338
 20
169.2849737864766
 30
0.0
 11
142.8810711188338
 21
171.88933110576141
 31
0.0
  0
ARC
  5
F263
  8
AM_0
 10
141.48107111883479
 20
170.78933110576151
 30
0.0
 40
0.3
 50
90.0
 51
180.0
  0
LINE
  5
F264
  8
AM_0
 10
141.9810711188338
 20
171.08933110576061
 30
0.0
 11
141.48107111883479
 21
171.08933110576061
 31
0.0
  0
LINE
  5
F265
  8
AM_0
 10
142.3810711188338
 20
171.08933110576061
 30
0.0
 11
141.9810711188338
 21
171.08933110576061
 31
0.0
  0
LINE
  5
F266
  8
AM_0
 10
79.678908687254932
 20
212.83933110576061
 30
0.0
 11
127.6789086872549
 21
212.83933110576061
 31
0.0
  0
LINE
  5
F267
  8
AM_0
 10
80.178908687254918
 20
231.94834110576051
 30
0.0
 11
122.6789086872549
 21
231.94834110576051
 31
0.0
  0
LINE
  5
F268
  8
AM_0
 10
80.178908687254918
 20
221.69834110576051
 30
0.0
 11
122.6789086872549
 21
221.69834110576051
 31
0.0
  0
LINE
  5
F269
  8
AM_0
 10
102.6789086872549
 20
206.83933110576061
 30
0.0
 11
127.6789086872549
 21
206.83933110576061
 31
0.0
  0
LINE
  5
F26A
  8
AM_0
 10
81.177478587254882
 20
200.58933110576061
 30
0.0
 11
118.6789086872549
 21
200.58933110576061
 31
0.0
  0
LINE
  5
F26B
  8
AM_0
 10
77.678908687254932
 20
222.3364011057605
 30
0.0
 11
77.678908687254932
 21
214.83933110576061
 31
0.0
  0
LINE
  5
F26C
  8
AM_0
 10
77.177478587254882
 20
222.54581220146781
 30
0.0
 11
77.177478587254882
 21
210.58933110576061
 31
0.0
  0
LINE
  5
F26D
  8
AM_0
 10
82.177478587254882
 20
205.58933110576061
 30
0.0
 11
105.6789086872549
 21
205.58933110576061
 31
0.0
  0
ARC
  5
F26E
  8
AM_0
 10
81.177478587254882
 20
209.58933110576061
 30
0.0
 40
9.0
 50
179.99997999999789
 51
269.99995000000149
  0
ARC
  5
F26F
  8
AM_0
 10
82.177478587254882
 20
210.58933110576061
 30
0.0
 40
5.0
 50
179.99997999999789
 51
269.99995000000149
  0
ARC
  5
F270
  8
AM_0
 10
79.678908687254932
 20
214.83933110576061
 30
0.0
 40
2.0
 50
179.99997999999789
 51
269.99995000000149
  0
LINE
  5
F271
  8
AM_0
 10
105.6789086872549
 20
206.83933110576061
 30
0.0
 11
105.6789086872549
 21
200.58933110576061
 31
0.0
  0
LINE
  5
F272
  8
AM_0
 10
102.6789086872549
 20
206.83933110576061
 30
0.0
 11
102.6789086872549
 21
212.83933110576061
 31
0.0
  0
LINE
  5
F273
  8
AM_0
 10
78.878918687254853
 20
231.29831110576049
 30
0.0
 11
78.878918687254853
 21
222.09836110576049
 31
0.0
  0
LINE
  5
F274
  8
AM_0
 10
75.578938687254833
 20
228.19834110576051
 30
0.0
 11
75.578938687254833
 21
225.19834110576051
 31
0.0
  0
ARC
  5
F275
  8
AM_0
 10
78.578938687254833
 20
225.19834110576051
 30
0.0
 40
3.0
 50
179.99997999999789
 51
269.99995000000149
  0
LINE
  5
F276
  8
AM_0
 10
78.878918687254853
 20
222.09836110576049
 30
0.0
 11
80.178908687254918
 21
222.09836110576049
 31
0.0
  0
LINE
  5
F277
  8
AM_0
 10
78.578938687254833
 20
222.19834110576051
 30
0.0
 11
78.878918687254853
 21
222.19834110576051
 31
0.0
  0
ARC
  5
F278
  8
AM_0
 10
78.578938687254833
 20
228.19834110576051
 30
0.0
 40
3.0
 50
89.999988999997555
 51
179.99997999999789
  0
LINE
  5
F279
  8
AM_0
 10
78.878918687254853
 20
231.29831110576049
 30
0.0
 11
80.178908687254918
 21
231.29831110576049
 31
0.0
  0
LINE
  5
F27A
  8
AM_0
 10
78.578938687254833
 20
231.19834110576051
 30
0.0
 11
78.878918687254853
 21
231.19834110576051
 31
0.0
  0
LINE
  5
F27B
  8
AM_0
 10
122.6789086872549
 20
221.69834110576051
 30
0.0
 11
122.6789086872549
 21
212.83933110576061
 31
0.0
  0
LINE
  5
F27C
  8
AM_0
 10
141.03889868725491
 20
228.93933110576049
 30
0.0
 11
135.6789086872549
 21
217.49933110576069
 31
0.0
  0
LINE
  5
F27D
  8
AM_0
 10
127.6789086872549
 20
212.58933110576061
 30
0.0
 11
135.6789086872549
 21
212.58933110576061
 31
0.0
  0
LINE
  5
F27E
  8
AM_0
 10
115.6789086872549
 20
206.83933110576061
 30
0.0
 11
115.6789086872549
 21
200.58933110576061
 31
0.0
  0
LINE
  5
F27F
  8
AM_0
 10
118.6789086872549
 20
205.58933110576061
 30
0.0
 11
118.6789086872549
 21
200.58933110576061
 31
0.0
  0
LINE
  5
F280
  8
AM_0
 10
115.6789086872549
 20
205.58933110576061
 30
0.0
 11
118.6789086872549
 21
205.58933110576061
 31
0.0
  0
LINE
  5
F281
  8
AM_0
 10
144.18107111883381
 20
196.08933110576061
 30
0.0
 11
148.9810711188338
 21
196.08933110576061
 31
0.0
  0
ARC
  5
F282
  8
AM_0
 10
144.18107111883381
 20
195.08933110576061
 30
0.0
 40
1.0
 50
90.0
 51
180.0
  0
ARC
  5
F283
  8
AM_0
 10
138.88374868725489
 20
211.30857110576051
 30
0.0
 40
1.9992490000000001
 50
190.64310000000111
 51
270.14743000000129
  0
LINE
  5
F284
  8
AM_0
 10
135.6789086872549
 20
216.1492611057605
 30
0.0
 11
136.95887868725481
 21
208.14932110576061
 31
0.0
  0
LINE
  5
F285
  8
AM_0
 10
135.6789086872549
 20
214.80927110576059
 30
0.0
 11
136.6881286872549
 21
208.15924110576049
 31
0.0
  0
LINE
  5
F286
  8
AM_0
 10
135.6789086872549
 20
214.80933110576069
 30
0.0
 11
136.6043886872549
 21
208.1827111057606
 31
0.0
  0
ARC
  5
F287
  8
AM_0
 10
138.9350786872549
 20
208.4596911057605
 30
0.0
 40
2.000420099999999
 50
188.92682000000141
 51
269.82270999999599
  0
ARC
  5
F288
  8
AM_0
 10
138.66553868725489
 20
208.45932110576049
 30
0.0
 40
2.0
 50
188.62962000000419
 51
269.999989999999
  0
ARC
  5
F289
  8
AM_0
 10
138.5851586872549
 20
208.45932110576049
 30
0.0
 40
2.0
 50
187.9504400000034
 51
269.999989999999
  0
LINE
  5
F28A
  8
AM_0
 10
135.6789086872549
 20
217.49927110576061
 30
0.0
 11
136.91889868725491
 21
210.9392711057607
 31
0.0
  0
LINE
  5
F28B
  8
AM_0
 10
128.37891868725481
 20
222.3993911057606
 30
0.0
 11
134.60889868725491
 21
222.3993911057606
 31
0.0
  0
POLYLINE
  5
F28C
  8
AM_0
 66
     1
 10
0.0
 20
0.0
 30
0.0
  0
VERTEX
  5
F28D
  8
AM_0
 10
139.53980868725489
 20
239.10629110576059
 30
0.0
 42
0.00068900015
  0
VERTEX
  5
F28E
  8
AM_0
 10
139.61068868725479
 20
238.5315411057606
 30
0.0
 42
0.00070644648
  0
VERTEX
  5
F28F
  8
AM_0
 10
139.6831886872549
 20
237.95686110576059
 30
0.0
 42
0.00069245587
  0
VERTEX
  5
F290
  8
AM_0
 10
139.75727868725491
 20
237.38254110576071
 30
0.0
 42
0.00069587802
  0
VERTEX
  5
F291
  8
AM_0
 10
139.83295868725489
 20
236.80840110576051
 30
0.0
 42
0.00068980012
  0
VERTEX
  5
F292
  8
AM_0
 10
139.9102586872547
 20
236.2344011057607
 30
0.0
 42
0.00072079193
  0
VERTEX
  5
F293
  8
AM_0
 10
139.9891486872549
 20
235.6606211057607
 30
0.0
 42
0.00071003147
  0
VERTEX
  5
F294
  8
AM_0
 10
140.06968868725491
 20
235.0871411057604
 30
0.0
 42
0.00072658712
  0
VERTEX
  5
F295
  8
AM_0
 10
140.1518486872549
 20
234.51405110576059
 30
0.0
 42
0.00069571059
  0
VERTEX
  5
F296
  8
AM_0
 10
140.2356686872549
 20
233.94101110576059
 30
0.0
 42
0.0007126617
  0
VERTEX
  5
F297
  8
AM_0
 10
140.3210986872549
 20
233.36825110576061
 30
0.0
 42
0.00071614574
  0
VERTEX
  5
F298
  8
AM_0
 10
140.40812868725479
 20
232.79590110576069
 30
0.0
 42
0.00072290803
  0
VERTEX
  5
F299
  8
AM_0
 10
140.49683868725469
 20
232.22360110576059
 30
0.0
  0
SEQEND
  5
F29A
  8
AM_0
  0
ARC
  5
F29B
  8
AM_0
 10
137.35206868725481
 20
230.54428110576069
 30
0.0
 40
1.675014
 50
89.766498999996756
 51
270.2335099999994
  0
ARC
  5
F29C
  8
AM_0
 10
138.22352868725491
 20
230.58933110576061
 30
0.0
 40
1.0000138999999999
 50
89.691659999999231
 51
270.30834000000073
  0
POLYLINE
  5
F29D
  8
AM_0
 66
     1
 10
0.0
 20
0.0
 30
0.0
  0
VERTEX
  5
F29E
  8
AM_0
 10
138.55714868725491
 20
249.24875110576059
 30
0.0
 42
0.00073721992
  0
VERTEX
  5
F29F
  8
AM_0
 10
138.60129868725491
 20
248.6463411057606
 30
0.0
 42
0.00074398496
  0
VERTEX
  5
F2A0
  8
AM_0
 10
138.6472286872548
 20
248.04407110576051
 30
0.0
 42
0.00073322625
  0
VERTEX
  5
F2A1
  8
AM_0
 10
138.6949586872548
 20
247.4417411057606
 30
0.0
 42
0.00073594289
  0
VERTEX
  5
F2A2
  8
AM_0
 10
138.7444386872549
 20
246.83975110576051
 30
0.0
 42
0.00074742568
  0
VERTEX
  5
F2A3
  8
AM_0
 10
138.79570868725489
 20
246.2378911057605
 30
0.0
 42
0.00073216749
  0
VERTEX
  5
F2A4
  8
AM_0
 10
138.8487686872549
 20
245.63608110576061
 30
0.0
 42
0.00074184065
  0
VERTEX
  5
F2A5
  8
AM_0
 10
138.9035886872548
 20
245.0345511057607
 30
0.0
 42
0.00072077528
  0
VERTEX
  5
F2A6
  8
AM_0
 10
138.96016868725491
 20
244.43332110576071
 30
0.0
 42
0.00074978179
  0
VERTEX
  5
F2A7
  8
AM_0
 10
139.01850868725481
 20
243.83212110576059
 30
0.0
 42
0.00074288888
  0
VERTEX
  5
F2A8
  8
AM_0
 10
139.0786586872548
 20
243.23110110576059
 30
0.0
 42
0.00072503679
  0
VERTEX
  5
F2A9
  8
AM_0
 10
139.14056868725481
 20
242.6303611057605
 30
0.0
 42
0.00074640584
  0
VERTEX
  5
F2AA
  8
AM_0
 10
139.20423868725479
 20
242.02976110576051
 30
0.0
  0
SEQEND
  5
F2AB
  8
AM_0
  0
ARC
  5
F2AC
  8
AM_0
 10
138.22352868725491
 20
240.58933110576061
 30
0.0
 40
1.0000138999999999
 50
89.691659999999231
 51
270.30834000000073
  0
ARC
  5
F2AD
  8
AM_0
 10
137.13892868725489
 20
240.56430110576059
 30
0.0
 40
1.465004
 50
90.00000299999769
 51
270.0
  0
ARC
  5
F2AE
  8
AM_0
 10
137.00892868725489
 20
250.5793211057607
 30
0.0
 40
1.3300049999999981
 50
90.00000299999769
 51
270.0
  0
ARC
  5
F2AF
  8
AM_0
 10
138.22352868725491
 20
250.58933110576061
 30
0.0
 40
1.0000138999999999
 50
89.691659999999231
 51
270.30834000000073
  0
LINE
  5
F2B0
  8
AM_0
 10
135.6789086872549
 20
316.37934110576049
 30
0.0
 11
136.9688886872548
 21
324.86930110576071
 31
0.0
  0
LINE
  5
F2B1
  8
AM_0
 10
135.6789086872549
 20
315.02936110576059
 30
0.0
 11
136.95887868725481
 21
323.03931110576048
 31
0.0
  0
LINE
  5
F2B2
  8
AM_0
 10
135.6789086872549
 20
316.37934110576049
 30
0.0
 11
136.98890868725491
 21
325.75937110576058
 31
0.0
  0
LINE
  5
F2B3
  8
AM_0
 10
102.6789086872549
 20
324.33933110576038
 30
0.0
 11
102.6789086872549
 21
318.33933110576038
 31
0.0
  0
ARC
  5
F2B4
  8
AM_0
 10
82.177478587254882
 20
320.58933110576061
 30
0.0
 40
5.0
 50
89.999988999997555
 51
180.0
  0
ARC
  5
F2B5
  8
AM_0
 10
81.177478587254882
 20
321.58933110576061
 30
0.0
 40
9.0
 50
89.999988999997555
 51
179.99997999999789
  0
LINE
  5
F2B6
  8
AM_0
 10
80.178908687254918
 20
309.48032110576048
 30
0.0
 11
122.6789086872549
 21
309.48032110576048
 31
0.0
  0
LINE
  5
F2B7
  8
AM_0
 10
80.178908687254918
 20
299.23032110576048
 30
0.0
 11
122.6789086872549
 21
299.23032110576048
 31
0.0
  0
LINE
  5
F2B8
  8
AM_0
 10
79.678908687254932
 20
318.33933110576038
 30
0.0
 11
127.6789086872549
 21
318.33933110576038
 31
0.0
  0
LINE
  5
F2B9
  8
AM_0
 10
72.177478587254882
 20
270.58933110576061
 30
0.0
 11
71.178938687254913
 21
270.58933110576061
 31
0.0
  0
LINE
  5
F2BA
  8
AM_0
 10
72.177478587254882
 20
260.58933110576061
 30
0.0
 11
71.178938687254913
 21
260.58933110576061
 31
0.0
  0
LINE
  5
F2BB
  8
AM_0
 10
71.178938687254913
 20
260.58933110576061
 30
0.0
 11
71.178938687254913
 21
270.58933110576061
 31
0.0
  0
LINE
  5
F2BC
  8
AM_0
 10
77.678908687254932
 20
260.58933110576061
 30
0.0
 11
77.177478587254882
 21
260.58933110576061
 31
0.0
  0
LINE
  5
F2BD
  8
AM_0
 10
77.678908687254932
 20
270.58933110576061
 30
0.0
 11
77.177478587254882
 21
270.58933110576061
 31
0.0
  0
LINE
  5
F2BE
  8
AM_0
 10
78.878918687254853
 20
299.8803511057605
 30
0.0
 11
78.878918687254853
 21
309.08030110576038
 31
0.0
  0
LINE
  5
F2BF
  8
AM_0
 10
75.578938687254833
 20
302.98032110576048
 30
0.0
 11
75.578938687254833
 21
305.98032110576048
 31
0.0
  0
ARC
  5
F2C0
  8
AM_0
 10
78.578938687254833
 20
302.98032110576048
 30
0.0
 40
3.0
 50
180.000020000002
 51
270.00001100000242
  0
LINE
  5
F2C1
  8
AM_0
 10
78.878918687254853
 20
299.8803511057605
 30
0.0
 11
80.178908687254918
 21
299.8803511057605
 31
0.0
  0
LINE
  5
F2C2
  8
AM_0
 10
78.578938687254833
 20
299.98032110576048
 30
0.0
 11
78.878918687254853
 21
299.98032110576048
 31
0.0
  0
LINE
  5
F2C3
  8
AM_0
 10
77.678908687254932
 20
308.84226110576049
 30
0.0
 11
77.678908687254932
 21
316.33933110576038
 31
0.0
  0
LINE
  5
F2C4
  8
AM_0
 10
77.177478587254882
 20
308.63285001005318
 30
0.0
 11
77.177478587254882
 21
320.58933110576038
 31
0.0
  0
ARC
  5
F2C5
  8
AM_0
 10
78.578938687254833
 20
305.98032110576048
 30
0.0
 40
3.0
 50
90.000049999998495
 51
180.000020000002
  0
LINE
  5
F2C6
  8
AM_0
 10
78.878918687254853
 20
309.08030110576038
 30
0.0
 11
80.178908687254918
 21
309.08030110576038
 31
0.0
  0
LINE
  5
F2C7
  8
AM_0
 10
78.578938687254833
 20
308.98032110576048
 30
0.0
 11
78.878918687254853
 21
308.98032110576048
 31
0.0
  0
ARC
  5
F2C8
  8
AM_0
 10
79.678908687254932
 20
316.33933110576038
 30
0.0
 40
2.0
 50
90.000049999998495
 51
180.000020000002
  0
POLYLINE
  5
F2C9
  8
AM_0
 66
     1
 10
0.0
 20
0.0
 30
0.0
  0
VERTEX
  5
F2CA
  8
AM_0
 10
138.55714868725491
 20
281.92990110576068
 30
0.0
 42
-0.0007337051
  0
VERTEX
  5
F2CB
  8
AM_0
 10
138.60128868725491
 20
282.53232110576062
 30
0.0
 42
-0.00075211323
  0
VERTEX
  5
F2CC
  8
AM_0
 10
138.6472286872548
 20
283.13471110576057
 30
0.0
 42
-0.0007297491
  0
VERTEX
  5
F2CD
  8
AM_0
 10
138.6949586872548
 20
283.73691110576073
 30
0.0
 42
-0.00073593041
  0
VERTEX
  5
F2CE
  8
AM_0
 10
138.7444386872549
 20
284.33890110576061
 30
0.0
 42
-0.00074742739
  0
VERTEX
  5
F2CF
  8
AM_0
 10
138.79570868725489
 20
284.94077110576052
 30
0.0
 42
-0.00073217363
  0
VERTEX
  5
F2D0
  8
AM_0
 10
138.8487686872549
 20
285.54257110576037
 30
0.0
 42
-0.00073754168
  0
VERTEX
  5
F2D1
  8
AM_0
 10
138.9035886872548
 20
286.14411110576049
 30
0.0
 42
-0.00073075073
  0
VERTEX
  5
F2D2
  8
AM_0
 10
138.96016868725491
 20
286.74547110576037
 30
0.0
 42
-0.00074550816
  0
VERTEX
  5
F2D3
  8
AM_0
 10
139.01850868725481
 20
287.34653110576062
 30
0.0
 42
-0.00074288416
  0
VERTEX
  5
F2D4
  8
AM_0
 10
139.0786586872548
 20
287.94755110576068
 30
0.0
 42
-0.00072504001
  0
VERTEX
  5
F2D5
  8
AM_0
 10
139.14056868725481
 20
288.54830110576052
 30
0.0
 42
-0.00074640667
  0
VERTEX
  5
F2D6
  8
AM_0
 10
139.20423868725479
 20
289.1489011057605
 30
0.0
  0
SEQEND
  5
F2D7
  8
AM_0
  0
ARC
  5
F2D8
  8
AM_0
 10
138.22352868725491
 20
270.58933110576061
 30
0.0
 40
1.0000138999999999
 50
89.691659999999231
 51
270.30834000000073
  0
ARC
  5
F2D9
  8
AM_0
 10
136.94306868725479
 20
270.59433110576049
 30
0.0
 40
1.2650129999999991
 50
89.735579000001735
 51
270.2644100000025
  0
POLYLINE
  5
F2DA
  8
AM_0
 66
     1
 10
0.0
 20
0.0
 30
0.0
  0
VERTEX
  5
F2DB
  8
AM_0
 10
138.03889868725491
 20
265.58933110576061
 30
0.0
 42
0.00039106589
  0
VERTEX
  5
F2DC
  8
AM_0
 10
138.0365386872549
 20
265.27819110576058
 30
0.0
 42
0.00035488584
  0
VERTEX
  5
F2DD
  8
AM_0
 10
138.0346486872549
 20
264.96708110576049
 30
0.0
 42
0.00039705232
  0
VERTEX
  5
F2DE
  8
AM_0
 10
138.03321868725479
 20
264.65598110576059
 30
0.0
 42
0.0003876649
  0
VERTEX
  5
F2DF
  8
AM_0
 10
138.03228868725481
 20
264.34484110576051
 30
0.0
 42
0.00040613779
  0
VERTEX
  5
F2E0
  8
AM_0
 10
138.0318386872548
 20
264.03373110576069
 30
0.0
 42
0.00035571855
  0
VERTEX
  5
F2E1
  8
AM_0
 10
138.0318786872549
 20
263.72263110576063
 30
0.0
 42
0.00038547358
  0
VERTEX
  5
F2E2
  8
AM_0
 10
138.0323686872548
 20
263.4114911057606
 30
0.0
 42
0.000355015
  0
VERTEX
  5
F2E3
  8
AM_0
 10
138.03332868725491
 20
263.10039110576059
 30
0.0
 42
0.00040118616
  0
VERTEX
  5
F2E4
  8
AM_0
 10
138.03474868725479
 20
262.78916110576063
 30
0.0
 42
0.00038319867
  0
VERTEX
  5
F2E5
  8
AM_0
 10
138.03665868725491
 20
262.4780211057606
 30
0.0
 42
0.00035656356
  0
VERTEX
  5
F2E6
  8
AM_0
 10
138.03903868725479
 20
262.16679110576058
 30
0.0
 42
0.00040140992
  0
VERTEX
  5
F2E7
  8
AM_0
 10
138.0418886872549
 20
261.85568110576048
 30
0.0
  0
SEQEND
  5
F2E8
  8
AM_0
  0
ARC
  5
F2E9
  8
AM_0
 10
136.94306868725479
 20
260.58933110576061
 30
0.0
 40
1.2700129999999981
 50
89.736617000001601
 51
270.26336999999921
  0
ARC
  5
F2EA
  8
AM_0
 10
138.22352868725491
 20
260.58933110576061
 30
0.0
 40
1.0000138999999999
 50
89.691659999999231
 51
270.30834000000073
  0
POLYLINE
  5
F2EB
  8
AM_0
 66
     1
 10
0.0
 20
0.0
 30
0.0
  0
VERTEX
  5
F2EC
  8
AM_0
 10
138.03889868725491
 20
265.58933110576061
 30
0.0
 42
-0.00039106649
  0
VERTEX
  5
F2ED
  8
AM_0
 10
138.0365386872549
 20
265.90046110576071
 30
0.0
 42
-0.00035488198
  0
VERTEX
  5
F2EE
  8
AM_0
 10
138.0346486872549
 20
266.21157110576053
 30
0.0
 42
-0.00039706113
  0
VERTEX
  5
F2EF
  8
AM_0
 10
138.03321868725479
 20
266.52268110576063
 30
0.0
 42
-0.00038765718
  0
VERTEX
  5
F2F0
  8
AM_0
 10
138.03228868725481
 20
266.83382110576059
 30
0.0
 42
-0.00040613432
  0
VERTEX
  5
F2F1
  8
AM_0
 10
138.0318386872548
 20
267.1449211057606
 30
0.0
 42
-0.00035573434
  0
VERTEX
  5
F2F2
  8
AM_0
 10
138.0318786872549
 20
267.45603110576059
 30
0.0
 42
-0.00038545884
  0
VERTEX
  5
F2F3
  8
AM_0
 10
138.0323686872548
 20
267.76716110576052
 30
0.0
 42
-0.00035501205
  0
VERTEX
  5
F2F4
  8
AM_0
 10
138.03332868725491
 20
268.07827110576062
 30
0.0
 42
-0.00040120779
  0
VERTEX
  5
F2F5
  8
AM_0
 10
138.03474868725479
 20
268.38950110576059
 30
0.0
 42
-0.00038317817
  0
VERTEX
  5
F2F6
  8
AM_0
 10
138.03665868725491
 20
268.70063110576069
 30
0.0
 42
-0.00035656084
  0
VERTEX
  5
F2F7
  8
AM_0
 10
138.03903868725479
 20
269.01187110576069
 30
0.0
 42
-0.00040143615
  0
VERTEX
  5
F2F8
  8
AM_0
 10
138.0418886872549
 20
269.32297110576047
 30
0.0
  0
SEQEND
  5
F2F9
  8
AM_0
  0
ARC
  5
F2FA
  8
AM_0
 10
137.00892868725489
 20
280.59934110576057
 30
0.0
 40
1.3300049999999981
 50
90.00000299999769
 51
270.0
  0
POLYLINE
  5
F2FB
  8
AM_0
 66
     1
 10
0.0
 20
0.0
 30
0.0
  0
VERTEX
  5
F2FC
  8
AM_0
 10
138.08295868725489
 20
271.85971110576048
 30
0.0
 42
-0.00076691992
  0
VERTEX
  5
F2FD
  8
AM_0
 10
138.09775868725481
 20
272.4774811057606
 30
0.0
 42
-0.00073262792
  0
VERTEX
  5
F2FE
  8
AM_0
 10
138.11439868725489
 20
273.09507110576072
 30
0.0
 42
-0.00076529537
  0
VERTEX
  5
F2FF
  8
AM_0
 10
138.13288868725479
 20
273.71274110576047
 30
0.0
 42
-0.00075141097
  0
VERTEX
  5
F300
  8
AM_0
 10
138.15325868725489
 20
274.33034110576062
 30
0.0
 42
-0.00075841687
  0
VERTEX
  5
F301
  8
AM_0
 10
138.1754886872549
 20
274.94777110576058
 30
0.0
 42
-0.00075711788
  0
VERTEX
  5
F302
  8
AM_0
 10
138.19959868725491
 20
275.56528110576062
 30
0.0
 42
-0.00075976003
  0
VERTEX
  5
F303
  8
AM_0
 10
138.2255886872548
 20
276.18267110576051
 30
0.0
 42
-0.00075797311
  0
VERTEX
  5
F304
  8
AM_0
 10
138.25342868725491
 20
276.79995110576061
 30
0.0
 42
-0.0007482613
  0
VERTEX
  5
F305
  8
AM_0
 10
138.28315868725491
 20
277.4173311057607
 30
0.0
 42
-0.00074893561
  0
VERTEX
  5
F306
  8
AM_0
 10
138.3147186872547
 20
278.03446110576073
 30
0.0
 42
-0.00076039839
  0
VERTEX
  5
F307
  8
AM_0
 10
138.3481386872549
 20
278.65149110576061
 30
0.0
 42
-0.00075618786
  0
VERTEX
  5
F308
  8
AM_0
 10
138.38343868725491
 20
279.26853110576059
 30
0.0
  0
SEQEND
  5
F309
  8
AM_0
  0
ARC
  5
F30A
  8
AM_0
 10
138.22352868725491
 20
280.58933110576061
 30
0.0
 40
1.0000138999999999
 50
89.691659999999231
 51
270.30834000000073
  0
LINE
  5
F30B
  8
AM_0
 10
127.6789086872549
 20
318.58933110576061
 30
0.0
 11
135.6789086872549
 21
318.58933110576061
 31
0.0
  0
LINE
  5
F30C
  8
AM_0
 10
128.37891868725481
 20
308.77927110576059
 30
0.0
 11
134.60889868725491
 21
308.77927110576059
 31
0.0
  0
LINE
  5
F30D
  8
AM_0
 10
122.6789086872549
 20
309.48032110576048
 30
0.0
 11
122.6789086872549
 21
318.33933110576038
 31
0.0
  0
LINE
  5
F30E
  8
AM_0
 10
141.03889868725491
 20
302.2393211057605
 30
0.0
 11
135.6789086872549
 21
313.68930110576059
 31
0.0
  0
POLYLINE
  5
F30F
  8
AM_0
 66
     1
 10
0.0
 20
0.0
 30
0.0
  0
VERTEX
  5
F310
  8
AM_0
 10
139.53980868725489
 20
292.07236110576048
 30
0.0
 42
-0.00068898288
  0
VERTEX
  5
F311
  8
AM_0
 10
139.61068868725479
 20
292.64711110576047
 30
0.0
 42
-0.00070644354
  0
VERTEX
  5
F312
  8
AM_0
 10
139.6831886872549
 20
293.22180110576062
 30
0.0
 42
-0.00069248071
  0
VERTEX
  5
F313
  8
AM_0
 10
139.75727868725491
 20
293.79611110576059
 30
0.0
 42
-0.00069585665
  0
VERTEX
  5
F314
  8
AM_0
 10
139.83295868725489
 20
294.37025110576047
 30
0.0
 42
-0.00068980191
  0
VERTEX
  5
F315
  8
AM_0
 10
139.9102586872547
 20
294.9442511057606
 30
0.0
 42
-0.00072080104
  0
VERTEX
  5
F316
  8
AM_0
 10
139.9891486872549
 20
295.51804110576052
 30
0.0
 42
-0.00071002307
  0
VERTEX
  5
F317
  8
AM_0
 10
140.06968868725491
 20
296.09151110576062
 30
0.0
 42
-0.00072659056
  0
VERTEX
  5
F318
  8
AM_0
 10
140.1518486872549
 20
296.66461110576063
 30
0.0
 42
-0.00069570481
  0
VERTEX
  5
F319
  8
AM_0
 10
140.2356686872549
 20
297.23764110576059
 30
0.0
 42
-0.00071266935
  0
VERTEX
  5
F31A
  8
AM_0
 10
140.3210986872549
 20
297.81041110576058
 30
0.0
 42
-0.00071614426
  0
VERTEX
  5
F31B
  8
AM_0
 10
140.40812868725479
 20
298.38275110576058
 30
0.0
 42
-0.00072288975
  0
VERTEX
  5
F31C
  8
AM_0
 10
140.49683868725469
 20
298.95505110576062
 30
0.0
  0
SEQEND
  5
F31D
  8
AM_0
  0
ARC
  5
F31E
  8
AM_0
 10
138.22352868725491
 20
290.58933110576061
 30
0.0
 40
1.0000138999999999
 50
89.691659999999231
 51
270.30834000000073
  0
ARC
  5
F31F
  8
AM_0
 10
137.13892868725489
 20
290.6143511057607
 30
0.0
 40
1.465004
 50
90.00000299999769
 51
270.0
  0
ARC
  5
F320
  8
AM_0
 10
137.3515186872549
 20
300.63437110576058
 30
0.0
 40
1.6750160000000001
 50
89.746145000004475
 51
270.25387000000092
  0
ARC
  5
F321
  8
AM_0
 10
138.22352868725491
 20
300.58933110576061
 30
0.0
 40
1.0000138999999999
 50
89.691659999999231
 51
270.30834000000073
  0
LINE
  5
F322
  8
AM_0
 10
135.6789086872549
 20
313.68936110576072
 30
0.0
 11
136.91889868725491
 21
320.24933110576069
 31
0.0
  0
ARC
  5
F323
  8
AM_0
 10
138.87763868725489
 20
319.87522110576049
 30
0.0
 40
1.994108999999999
 50
89.675548000002763
 51
169.18776999999881
  0
LINE
  5
F324
  8
AM_0
 10
81.177478587254882
 20
330.58933110576061
 30
0.0
 11
118.6789086872549
 21
330.58933110576061
 31
0.0
  0
LINE
  5
F325
  8
AM_0
 10
102.6789086872549
 20
324.33933110576038
 30
0.0
 11
127.6789086872549
 21
324.33933110576038
 31
0.0
  0
LINE
  5
F326
  8
AM_0
 10
82.177478587254882
 20
325.58933110576061
 30
0.0
 11
105.6789086872549
 21
325.58933110576061
 31
0.0
  0
LINE
  5
F327
  8
AM_0
 10
105.6789086872549
 20
324.33933110576061
 30
0.0
 11
105.6789086872549
 21
330.58933110576061
 31
0.0
  0
LINE
  5
F328
  8
AM_0
 10
115.6789086872549
 20
325.58933110576061
 30
0.0
 11
118.6789086872549
 21
325.58933110576061
 31
0.0
  0
LINE
  5
F329
  8
AM_0
 10
115.6789086872549
 20
324.33933110576061
 30
0.0
 11
115.6789086872549
 21
330.58933110576061
 31
0.0
  0
LINE
  5
F32A
  8
AM_0
 10
118.6789086872549
 20
325.58933110576061
 30
0.0
 11
118.6789086872549
 21
330.58933110576061
 31
0.0
  0
ARC
  5
F32B
  8
AM_0
 10
138.96540868725469
 20
325.48374110576049
 30
0.0
 40
1.995633
 50
89.899708000002292
 51
172.06112999999951
  0
ARC
  5
F32C
  8
AM_0
 10
138.92915868725481
 20
322.72409110576052
 30
0.0
 40
1.9952829999999999
 50
90.006203999996856
 51
170.90835000000069
  0
ARC
  5
F32D
  8
AM_0
 10
138.9434986872549
 20
324.57260110576061
 30
0.0
 40
1.9967330000000001
 50
89.843966999998912
 51
171.4538799999973
  0
LINE
  5
F32E
  8
AM_0
 10
243.6789086872549
 20
321.58933110576061
 30
0.0
 11
243.6789086872549
 21
209.58933110576061
 31
0.0
  0
ARC
  5
F32F
  8
AM_0
 10
243.3321086872549
 20
225.86655110576061
 30
0.0
 40
1.5027759999999999
 50
90.122413000001615
 51
165.24357000000049
  0
LINE
  5
F330
  8
AM_0
 10
238.22095868725489
 20
212.58933110576061
 30
0.0
 11
243.6789086872549
 21
212.58933110576061
 31
0.0
  0
LINE
  5
F331
  8
AM_0
 10
242.6789086872549
 20
212.58930110576051
 30
0.0
 11
236.95310868725491
 21
203.7723411057606
 31
0.0
  0
LINE
  5
F332
  8
AM_0
 10
215.45619738468091
 20
178.97445758873241
 30
0.0
 11
215.45619738468091
 21
196.08933110576061
 31
0.0
  0
LINE
  5
F333
  8
AM_0
 10
230.45619738468091
 20
179.08933110576061
 30
0.0
 11
230.45619738468091
 21
195.08933110576061
 31
0.0
  0
LINE
  5
F334
  8
AM_0
 10
204.0944873007418
 20
191.08933110576061
 30
0.0
 11
204.0944873007418
 21
177.0386485311804
 31
0.0
  0
LINE
  5
F335
  8
AM_0
 10
192.98442516430981
 20
191.08933110576061
 30
0.0
 11
192.98442516430981
 21
175.14571527071459
 31
0.0
  0
LINE
  5
F336
  8
AM_0
 10
194.4844251643099
 20
175.40128538866961
 30
0.0
 11
194.4844251643099
 21
191.08933110576061
 31
0.0
  0
LINE
  5
F337
  8
AM_0
 10
196.68777920978789
 20
191.08933110576061
 30
0.0
 11
196.68777920978789
 21
175.77669302420361
 31
0.0
  0
LINE
  5
F338
  8
AM_0
 10
198.18777920978789
 20
176.03226314215851
 30
0.0
 11
198.18777920978789
 21
191.08933110576061
 31
0.0
  0
LINE
  5
F339
  8
AM_0
 10
200.39113325526489
 20
191.08933110576061
 30
0.0
 11
200.39113325526489
 21
176.40767077769149
 31
0.0
  0
LINE
  5
F33A
  8
AM_0
 10
201.89113325526489
 20
176.66324089564759
 30
0.0
 11
201.89113325526489
 21
191.08933110576061
 31
0.0
  0
LINE
  5
F33B
  8
AM_0
 10
187.07771707335479
 20
174.13932988169159
 30
0.0
 11
187.07771707335479
 21
191.08933110576061
 31
0.0
  0
LINE
  5
F33C
  8
AM_0
 10
189.28107111883281
 20
191.08933110576061
 30
0.0
 11
189.28107111883281
 21
174.5147375172256
 31
0.0
  0
LINE
  5
F33D
  8
AM_0
 10
179.6777170733547
 20
172.87851729977851
 30
0.0
 11
179.6777170733547
 21
191.08933110576169
 31
0.0
  0
LINE
  5
F33E
  8
AM_0
 10
181.8777170733548
 20
191.08933110576061
 30
0.0
 11
181.8777170733558
 21
173.25335347277951
 31
0.0
  0
LINE
  5
F33F
  8
AM_0
 10
183.3777170733548
 20
173.50892359073561
 30
0.0
 11
183.3777170733548
 21
191.08933110576061
 31
0.0
  0
LINE
  5
F340
  8
AM_0
 10
185.57771707335479
 20
191.08933110576061
 30
0.0
 11
185.57771707335479
 21
173.88375976373649
 31
0.0
  0
LINE
  5
F341
  8
AM_0
 10
205.5944873007418
 20
177.2942186491365
 30
0.0
 11
205.5944873007418
 21
191.08933110576061
 31
0.0
  0
LINE
  5
F342
  8
AM_0
 10
177.67771707335481
 20
188.3779549265625
 30
0.0
 11
177.67771707335481
 21
172.5377571425046
 31
0.0
  0
LINE
  5
F343
  8
AM_0
 10
191.2810711188358
 20
174.85549767449959
 30
0.0
 11
191.2810711188358
 21
188.3779549265625
 31
0.0
  0
LINE
  5
F344
  8
ﾁｭｳｼﾝｾﾝ1
 10
158.28107111883389
 20
191.0893461057606
 30
0.0
 11
158.28107111883389
 21
167.0893461057606
 31
0.0
  0
LINE
  5
F345
  8
AM_0
 10
167.58107111883379
 20
196.08933110576061
 30
0.0
 11
167.58107111883379
 21
179.08933110576061
 31
0.0
  0
CIRCLE
  5
F346
  8
AM_0
 10
158.28107111883389
 20
179.08933110576061
 30
0.0
 40
6.299999999999998
  0
CIRCLE
  5
F347
  8
AM_0
 10
172.78107111883389
 20
179.08933110576061
 30
0.0
 40
0.75
  0
LINE
  5
F348
  8
AM_0
 10
183.3777170733548
 20
173.50892359073561
 30
0.0
 11
185.57771707335479
 21
173.88375976373649
 31
0.0
  0
LINE
  5
F349
  8
AM_0
 10
179.6777170733547
 20
172.87851729977851
 30
0.0
 11
181.8777170733558
 21
173.25335347277951
 31
0.0
  0
LINE
  5
F34A
  8
AM_0
 10
187.07771707335479
 20
174.13932988169159
 30
0.0
 11
189.28107111883281
 21
174.5147375172256
 31
0.0
  0
LINE
  5
F34B
  8
AM_0
 10
194.4844251643099
 20
175.40128538866961
 30
0.0
 11
196.68777920978789
 21
175.77669302420361
 31
0.0
  0
LINE
  5
F34C
  8
AM_0
 10
191.2810711188358
 20
174.85549767449959
 30
0.0
 11
192.98442516430981
 21
175.14571527071459
 31
0.0
  0
LINE
  5
F34D
  8
AM_0
 10
213.8112226378519
 20
162.08933110576061
 30
0.0
 11
213.8112226378519
 21
173.62482170822869
 31
0.0
  0
LINE
  5
F34E
  8
AM_0
 10
205.5944873007418
 20
177.2942186491365
 30
0.0
 11
215.45619738468091
 21
178.97445758873241
 31
0.0
  0
LINE
  5
F34F
  8
AM_0
 10
198.18777920978789
 20
176.03226314215851
 30
0.0
 11
200.39113325526489
 21
176.40767077769149
 31
0.0
  0
LINE
  5
F350
  8
AM_0
 10
201.89113325526489
 20
176.66324089564759
 30
0.0
 11
204.0944873007418
 21
177.0386485311804
 31
0.0
  0
CIRCLE
  5
F351
  8
AM_0
 10
207.28107111883389
 20
179.08933110576061
 30
0.0
 40
0.75
  0
LINE
  5
F352
  8
AM_0
 10
214.68107111883489
 20
173.7751258784636
 30
0.0
 11
214.68107111883489
 21
177.82851852384749
 31
0.0
  0
LINE
  5
F353
  8
AM_0
 10
224.0810711188349
 20
174.58933110576061
 30
0.0
 11
224.0810711188349
 21
164.58933110576061
 31
0.0
  0
ARC
  5
F354
  8
AM_0
 10
221.5810711188349
 20
164.58933110576061
 30
0.0
 40
2.5
 50
270.0
 51
0.0
  0
LINE
  5
F355
  8
AM_0
 10
230.45619738468091
 20
179.08933110576061
 30
0.0
 11
230.45619738468091
 21
175.58933110576061
 31
0.0
  0
LINE
  5
F356
  8
AM_0
 10
224.5810711188349
 20
175.08933110576061
 30
0.0
 11
229.95619738468091
 21
175.08933110576061
 31
0.0
  0
ARC
  5
F357
  8
AM_0
 10
224.5810711188349
 20
174.58933110576061
 30
0.0
 40
0.5
 50
90.0
 51
180.0
  0
LINE
  5
F358
  8
AM_0
 10
224.5810711188349
 20
175.08933110576061
 30
0.0
 11
222.4067662556748
 21
175.08933110576061
 31
0.0
  0
ARC
  5
F359
  8
AM_0
 10
229.95619738468091
 20
175.58933110576061
 30
0.0
 40
0.5
 50
270.0
 51
0.0
  0
LINE
  5
F35A
  8
AM_0
 10
230.45619738468091
 20
179.08933110576061
 30
0.0
 11
222.0810711188339
 21
179.08933110576061
 31
0.0
  0
LINE
  5
F35B
  8
AM_0
 10
237.01893868725489
 20
231.58933110576061
 30
0.0
 11
192.6789086872549
 21
231.58933110576061
 31
0.0
  0
LINE
  5
F35C
  8
AM_0
 10
237.01893868725489
 20
229.58933110576061
 30
0.0
 11
192.6789086872549
 21
229.58933110576061
 31
0.0
  0
LINE
  5
F35D
  8
AM_0
 10
198.18777920978789
 20
187.08933110576061
 30
0.0
 11
196.68777920978789
 21
187.08933110576061
 31
0.0
  0
LINE
  5
F35E
  8
AM_0
 10
198.18777920978789
 20
191.08933110576061
 30
0.0
 11
196.68777920978789
 21
191.08933110576061
 31
0.0
  0
LINE
  5
F35F
  8
AM_0
 10
226.1789086872549
 20
198.58933110576061
 30
0.0
 11
159.1789086872549
 21
198.58933110576061
 31
0.0
  0
LINE
  5
F360
  8
AM_0
 10
211.5810711188339
 20
196.08933110576061
 30
0.0
 11
173.78107111883389
 21
196.08933110576061
 31
0.0
  0
LINE
  5
F361
  8
AM_0
 10
192.6789086872549
 20
228.8693611057605
 30
0.0
 11
240.4989186872549
 21
228.8693611057605
 31
0.0
  0
LINE
  5
F362
  8
AM_0
 10
162.67884868725491
 20
198.5893011057604
 30
0.0
 11
162.39818449991591
 21
209.30930110576051
 31
0.0
  0
LINE
  5
F363
  8
AM_0
 10
159.1789086872549
 20
196.08933110576061
 30
0.0
 11
159.1789086872549
 21
198.58933110576061
 31
0.0
  0
LINE
  5
F364
  8
AM_0
 10
173.78107111883389
 20
196.08933110576061
 30
0.0
 11
167.58107111883379
 21
196.08933110576061
 31
0.0
  0
LINE
  5
F365
  8
AM_0
 10
166.58107111883379
 20
196.08933110576061
 30
0.0
 11
167.58107111883379
 21
196.08933110576061
 31
0.0
  0
ARC
  5
F366
  8
AM_0
 10
161.01155888592169
 20
204.95932110576049
 30
0.0
 40
1.5
 50
1.499738863867258
 51
90.0
1001
GENIUS_GENODEF_13
1002
{
1000
HIER
1070
     0
1002
}
1002
{
1000
MANEDIT
1070
     0
1002
}
1002
{
1000
NOSEL
1070
     0
1002
}
1002
{
1000
BEHIND
1070
     0
1002
}
1002
{
1000
REACTOR
1002
}
1001
GENIUS_GENOBJ-N-FIL_13
1002
{
1000
OWNER
1000
GEN
1002
}
  0
LINE
  5
F367
  8
AM_0
 10
178.3777170733548
 20
191.08933110576061
 30
0.0
 11
178.3777170733548
 21
189.04530698316651
 31
0.0
  0
LINE
  5
F368
  8
AM_0
 10
179.6777170733547
 20
191.08933110576169
 30
0.0
 11
178.3777170733548
 21
191.08933110576061
 31
0.0
  0
LINE
  5
F369
  8
AM_0
 10
179.6777170733547
 20
187.08933110576061
 30
0.0
 11
177.67771707335481
 21
187.08933110576061
 31
0.0
  0
LINE
  5
F36A
  8
AM_0
 10
178.3777170733548
 20
189.04530698316651
 30
0.0
 11
177.67771707335481
 21
188.3779549265625
 31
0.0
  0
LINE
  5
F36B
  8
AM_0
 10
183.3777170733548
 20
187.08933110576061
 30
0.0
 11
181.8777170733548
 21
187.08933110576061
 31
0.0
  0
LINE
  5
F36C
  8
AM_0
 10
183.3777170733548
 20
191.08933110576061
 30
0.0
 11
181.8777170733548
 21
191.08933110576061
 31
0.0
  0
LINE
  5
F36D
  8
AM_0
 10
191.2810711188358
 20
188.3779549265625
 30
0.0
 11
190.5810711188328
 21
189.04530698316651
 31
0.0
  0
LINE
  5
F36E
  8
AM_0
 10
191.2810711188358
 20
187.08933110576061
 30
0.0
 11
189.28107111883281
 21
187.08933110576061
 31
0.0
  0
LINE
  5
F36F
  8
AM_0
 10
190.5810711188328
 20
189.04530698316651
 30
0.0
 11
190.5810711188328
 21
191.08933110576061
 31
0.0
  0
LINE
  5
F370
  8
AM_0
 10
187.07771707335479
 20
187.08933110576061
 30
0.0
 11
185.57771707335479
 21
187.08933110576061
 31
0.0
  0
LINE
  5
F371
  8
AM_0
 10
187.07771707335479
 20
191.08933110576061
 30
0.0
 11
185.57771707335479
 21
191.08933110576061
 31
0.0
  0
LINE
  5
F372
  8
AM_0
 10
190.5810711188328
 20
191.08933110576061
 30
0.0
 11
189.28107111883281
 21
191.08933110576061
 31
0.0
  0
LINE
  5
F373
  8
AM_0
 10
194.4844251643099
 20
187.08933110576061
 30
0.0
 11
192.98442516430981
 21
187.08933110576061
 31
0.0
  0
LINE
  5
F374
  8
AM_0
 10
194.4844251643099
 20
191.08933110576061
 30
0.0
 11
192.98442516430981
 21
191.08933110576061
 31
0.0
  0
ARC
  5
F375
  8
AM_0
 10
173.3438886872548
 20
250.5793211057607
 30
0.0
 40
1.3300148000000001
 50
269.7294199999987
 51
90.270567000000995
  0
ARC
  5
F376
  8
AM_0
 10
172.11762868725489
 20
250.58933110576061
 30
0.0
 40
1.000005699999998
 50
269.999989999999
 51
90.00000299999769
  0
LINE
  5
F377
  8
AM_0
 10
241.88459868725499
 20
226.2703911057605
 30
0.0
 11
237.73884868725489
 21
210.78928110576061
 31
0.0
  0
LINE
  5
F378
  8
AM_0
 10
229.45619738468091
 20
196.08933110576061
 30
0.0
 11
218.78107111883389
 21
196.08933110576061
 31
0.0
  0
LINE
  5
F379
  8
AM_0
 10
201.89113325526489
 20
187.08933110576061
 30
0.0
 11
200.39113325526489
 21
187.08933110576061
 31
0.0
  0
LINE
  5
F37A
  8
AM_0
 10
201.89113325526489
 20
191.08933110576061
 30
0.0
 11
200.39113325526489
 21
191.08933110576061
 31
0.0
  0
LINE
  5
F37B
  8
AM_0
 10
205.5944873007418
 20
187.08933110576061
 30
0.0
 11
204.0944873007418
 21
187.08933110576061
 31
0.0
  0
LINE
  5
F37C
  8
AM_0
 10
205.5944873007418
 20
191.08933110576061
 30
0.0
 11
204.0944873007418
 21
191.08933110576061
 31
0.0
  0
LINE
  5
F37D
  8
AM_0
 10
218.78107111883389
 20
196.08933110576061
 30
0.0
 11
211.5810711188339
 21
196.08933110576061
 31
0.0
  0
LINE
  5
F37E
  8
AM_0
 10
222.6789086872549
 20
198.5892711057605
 30
0.0
 11
222.9596478103181
 21
209.30930110576051
 31
0.0
  0
ARC
  5
F37F
  8
AM_0
 10
224.25798937304
 20
201.58933110576061
 30
0.0
 40
1.5
 50
90.0
 51
178.4998650936468
1001
GENIUS_GENODEF_13
1002
{
1000
HIER
1070
     0
1002
}
1002
{
1000
MANEDIT
1070
     0
1002
}
1002
{
1000
NOSEL
1070
     0
1002
}
1002
{
1000
BEHIND
1070
     0
1002
}
1002
{
1000
REACTOR
1002
}
1001
GENIUS_GENOBJ-N-FIL_13
1002
{
1000
OWNER
1000
GEN
1002
}
  0
LINE
  5
F380
  8
AM_0
 10
226.1789086872549
 20
196.08933110576061
 30
0.0
 11
226.1789086872549
 21
198.58933110576061
 31
0.0
  0
ARC
  5
F381
  8
AM_0
 10
229.45619738468091
 20
195.08933110576061
 30
0.0
 40
1.0
 50
0.0
 51
90.0
  0
LINE
  5
F382
  8
AM_0
 10
224.25798937304
 20
203.08933110576061
 30
0.0
 11
235.69508868725489
 21
203.08933110576061
 31
0.0
  0
ARC
  5
F383
  8
AM_0
 10
235.8040886872549
 20
211.31406110576049
 30
0.0
 40
2.0047290000000002
 50
270.13832000000423
 51
344.82650000000189
  0
ARC
  5
F384
  8
AM_0
 10
235.69508868725489
 20
204.58933110576061
 30
0.0
 40
1.5
 50
269.999989999999
 51
326.99999999999852
  0
LINE
  5
F385
  8
AM_0
 10
206.1789086872549
 20
238.08933110576061
 30
0.0
 11
206.1789086872549
 21
233.08933110576061
 31
0.0
  0
CIRCLE
  5
F386
  8
AM_0
 10
211.1789086872549
 20
237.08933110576061
 30
0.0
 40
1.149999999999999
  0
CIRCLE
  5
F387
  8
AM_0
 10
211.1789086872549
 20
237.08933110576061
 30
0.0
 40
1.1000000000000001
  0
CIRCLE
  5
F388
  8
AM_0
 10
216.1789086872549
 20
237.08933110576061
 30
0.0
 40
1.0
  0
LINE
  5
F389
  8
AM_0
 10
205.69892868725489
 20
238.08933110576061
 30
0.0
 11
205.69892868725489
 21
233.22934110576051
 31
0.0
  0
ARC
  5
F38A
  8
AM_0
 10
204.69892868725489
 20
233.22934110576051
 30
0.0
 40
1.0
 50
269.999989999999
 51
0.0000006832495047
  0
ARC
  5
F38B
  8
AM_0
 10
204.6789086872549
 20
233.08933110576061
 30
0.0
 40
1.5
 50
269.999989999999
 51
0.0000006832495047
  0
ARC
  5
F38C
  8
AM_0
 10
204.6789086872549
 20
238.08933110576061
 30
0.0
 40
1.02
 50
0.0
 51
90.00000299999769
  0
ARC
  5
F38D
  8
AM_0
 10
204.6789086872549
 20
238.08933110576061
 30
0.0
 40
1.5
 50
0.0
 51
90.00000299999769
  0
LINE
  5
F38E
  8
AM_0
 10
221.65888868725489
 20
238.08933110576061
 30
0.0
 11
221.65888868725489
 21
233.22934110576051
 31
0.0
  0
LINE
  5
F38F
  8
AM_0
 10
221.1789086872549
 20
238.08933110576061
 30
0.0
 11
221.1789086872549
 21
233.08933110576061
 31
0.0
  0
LINE
  5
F390
  8
AM_0
 10
240.4989186872549
 20
232.21933110576049
 30
0.0
 11
222.65888868725489
 21
232.21933110576049
 31
0.0
  0
ARC
  5
F391
  8
AM_0
 10
222.65888868725489
 20
233.22934110576051
 30
0.0
 40
1.0
 50
179.999989999999
 51
270.0
  0
ARC
  5
F392
  8
AM_0
 10
222.6789086872549
 20
233.08933110576061
 30
0.0
 40
1.5
 50
179.999989999999
 51
270.0
  0
ARC
  5
F393
  8
AM_0
 10
237.01893868725489
 20
230.58933110576061
 30
0.0
 40
1.0
 50
269.999989999999
 51
90.00000299999769
  0
ARC
  5
F394
  8
AM_0
 10
240.4989186872549
 20
230.54428110576069
 30
0.0
 40
1.6750020000000001
 50
269.999989999999
 51
90.00000299999769
  0
LINE
  5
F395
  8
AM_0
 10
237.0117386872549
 20
239.58933110576061
 30
0.0
 11
222.6789086872549
 21
239.58933110576061
 31
0.0
  0
LINE
  5
F396
  8
AM_0
 10
222.6789086872549
 20
239.10935110576051
 30
0.0
 11
240.71314868725489
 21
239.10935110576051
 31
0.0
  0
ARC
  5
F397
  8
AM_0
 10
222.6789086872549
 20
238.08933110576061
 30
0.0
 40
1.5
 50
90.00000299999769
 51
180.00001000000091
  0
ARC
  5
F398
  8
AM_0
 10
222.6789086872549
 20
238.08933110576061
 30
0.0
 40
1.02
 50
90.00000299999769
 51
180.00001000000091
  0
ARC
  5
F399
  8
AM_0
 10
237.0188786872549
 20
240.58933110576061
 30
0.0
 40
1.0000255999999981
 50
269.5894700000033
 51
90.410530999997775
  0
ARC
  5
F39A
  8
AM_0
 10
240.71888868725489
 20
240.55930110576051
 30
0.0
 40
1.460011199999999
 50
269.77524999999667
 51
90.224749999996845
  0
LINE
  5
F39B
  8
AM_0
 10
243.6789086872549
 20
209.58933110576061
 30
0.0
 11
251.6789086872549
 21
209.58933110576061
 31
0.0
  0
LINE
  5
F39C
  8
AM_0
 10
243.6789086872549
 20
219.58933110576061
 30
0.0
 11
251.6789086872549
 21
219.58933110576061
 31
0.0
  0
LINE
  5
F39D
  8
AM_0
 10
243.6789086872549
 20
233.6493911057606
 30
0.0
 11
251.6789086872549
 21
233.6493911057606
 31
0.0
  0
LINE
  5
F39E
  8
AM_0
 10
238.21888868725489
 20
318.58933110576061
 30
0.0
 11
243.6789086872549
 21
318.58933110576061
 31
0.0
  0
ARC
  5
F39F
  8
AM_0
 10
243.3321086872549
 20
310.92209110576061
 30
0.0
 40
1.5027759999999999
 50
194.7564299999994
 51
269.87757999999872
  0
ARC
  5
F3A0
  8
AM_0
 10
243.3321086872549
 20
308.16208110576059
 30
0.0
 40
1.5027759999999999
 50
194.7564299999994
 51
269.87757999999872
  0
ARC
  5
F3A1
  8
AM_0
 10
243.3321086872549
 20
305.31211110576072
 30
0.0
 40
1.5027759999999999
 50
194.7564299999994
 51
269.87757999999872
  0
ARC
  5
F3A2
  8
AM_0
 10
243.3321086872549
 20
310.01206110576061
 30
0.0
 40
1.5027759999999999
 50
194.7564299999994
 51
269.87757999999872
  0
LINE
  5
F3A3
  8
AM_0
 10
241.88462868725489
 20
307.75818110576063
 30
0.0
 11
237.73890868725491
 21
323.2393211057605
 31
0.0
  0
LINE
  5
F3A4
  8
AM_0
 10
241.8846586872549
 20
310.51816110576073
 30
0.0
 11
237.73893868725489
 21
325.99927110576061
 31
0.0
  0
LINE
  5
F3A5
  8
AM_0
 10
241.88462868725489
 20
309.60816110576059
 30
0.0
 11
237.73890868725491
 21
325.08927110576059
 31
0.0
  0
ARC
  5
F3A6
  8
AM_0
 10
173.4058386872548
 20
270.59934110576057
 30
0.0
 40
1.2700266
 50
269.62932000000001
 51
90.370670000004694
  0
ARC
  5
F3A7
  8
AM_0
 10
173.4058386872548
 20
260.58933110576061
 30
0.0
 40
1.2700266
 50
269.62932000000001
 51
90.370670000004694
  0
ARC
  5
F3A8
  8
AM_0
 10
173.3438886872548
 20
280.60434110576051
 30
0.0
 40
1.3350147999999999
 50
269.7304299999999
 51
90.269556000001415
  0
ARC
  5
F3A9
  8
AM_0
 10
172.11762868725489
 20
270.58933110576061
 30
0.0
 40
1.000005699999998
 50
269.999989999999
 51
90.00000299999769
  0
ARC
  5
F3AA
  8
AM_0
 10
172.11762868725489
 20
260.58933110576061
 30
0.0
 40
1.000005699999998
 50
269.999989999999
 51
90.00000299999769
  0
ARC
  5
F3AB
  8
AM_0
 10
172.11762868725489
 20
280.58933110576061
 30
0.0
 40
1.000005699999998
 50
269.999989999999
 51
90.00000299999769
  0
LINE
  5
F3AC
  8
AM_0
 10
206.1789086872549
 20
293.08933110576061
 30
0.0
 11
206.1789086872549
 21
298.08933110576061
 31
0.0
  0
LINE
  5
F3AD
  8
AM_0
 10
205.69892868725489
 20
293.08933110576061
 30
0.0
 11
205.69892868725489
 21
297.9493111057605
 31
0.0
  0
ARC
  5
F3AE
  8
AM_0
 10
204.6789086872549
 20
293.08933110576061
 30
0.0
 40
1.5
 50
269.999989999999
 51
0.0000006832495047
  0
ARC
  5
F3AF
  8
AM_0
 10
204.6789086872549
 20
293.08933110576061
 30
0.0
 40
1.02
 50
269.999989999999
 51
0.0000006832429909
  0
ARC
  5
F3B0
  8
AM_0
 10
204.69892868725489
 20
297.9493111057605
 30
0.0
 40
1.0
 50
0.0
 51
90.00000299999769
  0
ARC
  5
F3B1
  8
AM_0
 10
204.6789086872549
 20
298.08933110576061
 30
0.0
 40
1.5
 50
0.0
 51
90.00000299999769
  0
CIRCLE
  5
F3B2
  8
AM_0
 10
211.1789086872549
 20
294.08933110576061
 30
0.0
 40
1.1000000000000001
  0
CIRCLE
  5
F3B3
  8
AM_0
 10
211.1789086872549
 20
294.08933110576061
 30
0.0
 40
1.149999999999999
  0
CIRCLE
  5
F3B4
  8
AM_0
 10
216.1789086872549
 20
294.08933110576061
 30
0.0
 40
1.0
  0
LINE
  5
F3B5
  8
AM_0
 10
241.87891868725481
 20
304.92926110576047
 30
0.0
 11
237.73890868725491
 21
320.38928110576069
 31
0.0
  0
LINE
  5
F3B6
  8
AM_0
 10
237.02607868725491
 20
291.58933110576061
 30
0.0
 11
222.6789086872549
 21
291.58933110576061
 31
0.0
  0
LINE
  5
F3B7
  8
AM_0
 10
222.65888868725489
 20
298.94931110576061
 30
0.0
 11
240.4989186872549
 21
298.94931110576061
 31
0.0
  0
LINE
  5
F3B8
  8
AM_0
 10
222.6789086872549
 20
292.07932110576058
 30
0.0
 11
240.7245686872549
 21
292.07932110576058
 31
0.0
  0
LINE
  5
F3B9
  8
AM_0
 10
221.65888868725489
 20
293.08933110576061
 30
0.0
 11
221.65888868725489
 21
297.9493111057605
 31
0.0
  0
LINE
  5
F3BA
  8
AM_0
 10
221.1789086872549
 20
293.08933110576061
 30
0.0
 11
221.1789086872549
 21
298.08933110576061
 31
0.0
  0
ARC
  5
F3BB
  8
AM_0
 10
222.6789086872549
 20
293.08933110576061
 30
0.0
 40
1.5
 50
179.999989999999
 51
270.0
  0
ARC
  5
F3BC
  8
AM_0
 10
222.6789086872549
 20
293.08933110576061
 30
0.0
 40
1.02
 50
179.999989999999
 51
270.0
  0
ARC
  5
F3BD
  8
AM_0
 10
222.6789086872549
 20
298.08933110576061
 30
0.0
 40
1.5
 50
90.00000299999769
 51
180.00001000000091
  0
ARC
  5
F3BE
  8
AM_0
 10
222.65888868725489
 20
297.9493111057605
 30
0.0
 40
1.0
 50
90.00000299999769
 51
180.00001000000091
  0
ARC
  5
F3BF
  8
AM_0
 10
237.0188786872549
 20
290.58933110576061
 30
0.0
 40
1.0000255999999981
 50
269.5894700000033
 51
90.410530999997775
  0
ARC
  5
F3C0
  8
AM_0
 10
240.71888868725489
 20
290.6193611057605
 30
0.0
 40
1.460011199999999
 50
269.77524999999667
 51
90.224749999996845
  0
ARC
  5
F3C1
  8
AM_0
 10
237.01893868725489
 20
300.58933110576061
 30
0.0
 40
1.0
 50
269.999989999999
 51
90.00000299999769
  0
ARC
  5
F3C2
  8
AM_0
 10
240.4989186872549
 20
300.63437110576058
 30
0.0
 40
1.6750020000000001
 50
269.999989999999
 51
90.00000299999769
  0
ARC
  5
F3C3
  8
AM_0
 10
235.80897868725489
 20
319.87107110576051
 30
0.0
 40
1.9982919999999991
 50
15.032547999996121
 51
90.002632000001341
  0
ARC
  5
F3C4
  8
AM_0
 10
235.8040886872549
 20
325.47458110576071
 30
0.0
 40
2.0047290000000002
 50
15.17349599999647
 51
89.861678000000197
  0
ARC
  5
F3C5
  8
AM_0
 10
235.8040886872549
 20
322.7145711057604
 30
0.0
 40
2.0047290000000002
 50
15.17349599999647
 51
89.861678000000197
  0
ARC
  5
F3C6
  8
AM_0
 10
235.8040886872549
 20
324.5645511057607
 30
0.0
 40
2.0047290000000002
 50
15.17349599999647
 51
89.861678000000197
  0
LINE
  5
F3C7
  8
AM_0
 10
243.6789086872549
 20
297.52927110576059
 30
0.0
 11
251.6789086872549
 21
297.52927110576059
 31
0.0
  0
LINE
  5
F3C8
  8
AM_0
 10
243.6789086872549
 20
311.58933110576061
 30
0.0
 11
251.6789086872549
 21
311.58933110576061
 31
0.0
  0
LINE
  5
F3C9
  8
AM_0
 10
243.6789086872549
 20
321.58933110576061
 30
0.0
 11
251.6789086872549
 21
321.58933110576061
 31
0.0
  0
LINE
  5
F3CA
  8
AM_0
 10
77.678908687254989
 20
472.48702095307169
 30
0.0
 11
77.678908687254989
 21
460.7470309530716
 31
0.0
  0
LINE
  5
F3CB
  8
AM_0
 10
122.6789086872551
 20
507.74700495307161
 30
0.0
 11
122.6789086872551
 21
458.74699095307159
 31
0.0
  0
LINE
  5
F3CC
  8
AM_0
 10
80.178898687255014
 20
539.7270169530716
 30
0.0
 11
80.178898687255227
 21
458.74699095307159
 31
0.0
  0
LINE
  5
F3CD
  8
AM_0
 10
80.178898687255014
 20
555.90702495307164
 30
0.0
 11
80.178898687255014
 21
572.7470089530716
 31
0.0
  0
LINE
  5
F3CE
  8
AM_0
 10
86.758918687254891
 20
519.46700895307163
 30
0.0
 11
72.298918687254854
 21
563.97701895307148
 31
0.0
  0
LINE
  5
F3CF
  8
AM_0
 10
91.518868687254866
 20
521.0070169530718
 30
0.0
 11
77.058928687255047
 21
565.51701195307157
 31
0.0
  0
LINE
  5
F3D0
  8
AM_0
 10
79.678918687255077
 20
572.7470089530716
 30
0.0
 11
127.67891868725501
 21
572.7470089530716
 31
0.0
  0
LINE
  5
F3D1
  8
AM_0
 10
80.178898687255014
 20
559.63702095307156
 30
0.0
 11
127.67891868725501
 21
559.63702095307156
 31
0.0
  0
ARC
  5
F3D2
  8
AM_0
 10
79.676638687255036
 20
570.74932695307155
 30
0.0
 40
1.9976960999999991
 50
89.933830000003056
 51
180.0661700000033
  0
ARC
  5
F3D3
  8
AM_0
 10
74.678908687254989
 20
564.74700795307172
 30
0.0
 40
2.5014601500000002
 50
17.927930000001311
 51
197.92792000000159
  0
ARC
  5
F3D4
  8
AM_0
 10
74.677858687255025
 20
564.74854995307146
 30
0.0
 40
3.001016099999998
 50
359.9708539990001
 51
174.86740000000231
  0
ARC
  5
F3D5
  8
AM_0
 10
71.389288687255103
 20
565.04806395307173
 30
0.0
 40
0.30119199
 50
271.82401299999981
 51
354.08517019999817
  0
LINE
  5
F3D6
  8
AM_0
 10
71.178898687255227
 20
564.24702195307145
 30
0.0
 11
71.178898687255227
 21
564.74700795307172
 31
0.0
  0
LINE
  5
F3D7
  8
AM_0
 10
71.178898687255227
 20
564.24702195307145
 30
0.0
 11
71.398948687254901
 21
564.24702195307145
 31
0.0
  0
ARC
  5
F3D8
  8
AM_0
 10
71.390758687255016
 20
565.04935995307164
 30
0.0
 40
0.8023920299999998
 50
270.5824419999999
 51
354.10916500000002
  0
LINE
  5
F3D9
  8
AM_0
 10
77.678908687254989
 20
563.59701495307172
 30
0.0
 11
77.678908687254989
 21
570.7470079530716
 31
0.0
  0
LINE
  5
F3DA
  8
AM_0
 10
122.6789086872551
 20
559.63702095307156
 30
0.0
 11
122.6789086872551
 21
572.7470089530716
 31
0.0
  0
LINE
  5
F3DB
  8
AM_0
 10
80.178898687255014
 20
482.10702195307158
 30
0.0
 11
122.6789086872551
 21
482.10702195307158
 31
0.0
  0
LINE
  5
F3DC
  8
AM_0
 10
80.178898687255014
 20
471.85702095307158
 30
0.0
 11
127.67891868725501
 21
471.85702095307158
 31
0.0
  0
LINE
  5
F3DD
  8
AM_0
 10
77.678908687254989
 20
547.41702195307175
 30
0.0
 11
77.678908687254989
 21
481.21703595307179
 31
0.0
  0
ARC
  5
F3DE
  8
AM_0
 10
77.727628687254963
 20
553.2470989530716
 30
0.0
 40
4.0507442999999981
 50
135.08765999999511
 51
260.92820900000157
  0
LINE
  5
F3DF
  8
AM_0
 10
78.878908687255034
 20
481.45699695307161
 30
0.0
 11
78.878908687255034
 21
472.25701095307159
 31
0.0
  0
ARC
  5
F3E0
  8
AM_0
 10
78.574588687255059
 20
478.35685095307161
 30
0.0
 40
2.9956880400000001
 50
84.169629999996815
 51
179.99636000000251
  0
LINE
  5
F3E1
  8
AM_0
 10
78.878908687255034
 20
481.45699695307161
 30
0.0
 11
80.178898687255014
 21
481.45699695307161
 31
0.0
  0
ARC
  5
F3E2
  8
AM_0
 10
78.580588687255045
 20
475.35382095307159
 30
0.0
 40
3.0016479
 50
179.93865000000221
 51
275.70438699999693
  0
LINE
  5
F3E3
  8
AM_0
 10
78.878908687255034
 20
472.25701095307159
 30
0.0
 11
80.178898687255014
 21
472.25701095307159
 31
0.0
  0
LINE
  5
F3E4
  8
AM_0
 10
75.578938687255004
 20
478.35703095307161
 30
0.0
 11
75.578938687255004
 21
475.35703095307179
 31
0.0
  0
LINE
  5
F3E5
  8
AM_0
 10
116.178898687255
 20
518.24700495307172
 30
0.0
 11
116.178898687255
 21
513.24703695307164
 31
0.0
  0
LINE
  5
F3E6
  8
AM_0
 10
118.67891868725511
 20
518.24700495307172
 30
0.0
 11
118.67891868725511
 21
513.24703695307164
 31
0.0
  0
LINE
  5
F3E7
  8
AM_0
 10
105.17891868725511
 20
518.24700495307172
 30
0.0
 11
105.17891868725511
 21
513.24703695307164
 31
0.0
  0
LINE
  5
F3E8
  8
ﾁｭｳｼﾝｾﾝ1
 10
110.678908687255
 20
527.9590169530718
 30
0.0
 11
110.678908687255
 21
503.53902095307183
 31
0.0
  0
ARC
  5
F3E9
  8
AM_0
 10
95.326678687254798
 20
522.24410595307177
 30
0.0
 40
8.9970875999999969
 50
197.97879999999711
 51
270.01422500000149
  0
ARC
  5
F3EA
  8
AM_0
 10
110.6764786872552
 20
515.74944795307181
 30
0.0
 40
7.9975721999999996
 50
89.982690000000787
 51
161.80265000000111
  0
LINE
  5
F3EB
  8
AM_0
 10
95.328868687255081
 20
518.24700495307172
 30
0.0
 11
105.17891868725511
 21
518.24700495307172
 31
0.0
  0
ARC
  5
F3EC
  8
AM_0
 10
95.32214868725498
 20
522.24740295307186
 30
0.0
 40
4.0003919999999971
 50
198.06320999999991
 51
270.09694500000211
  0
LINE
  5
F3ED
  8
AM_0
 10
116.178898687255
 20
518.24700495307172
 30
0.0
 11
118.67891868725511
 21
518.24700495307172
 31
0.0
  0
LINE
  5
F3EE
  8
AM_0
 10
110.678908687255
 20
523.74703695307176
 30
0.0
 11
127.67891868725501
 21
523.74703695307176
 31
0.0
  0
LINE
  5
F3EF
  8
AM_0
 10
105.17891868725511
 20
517.74703695307164
 30
0.0
 11
116.178898687255
 21
517.74703695307164
 31
0.0
  0
ARC
  5
F3F0
  8
AM_0
 10
110.678908687255
 20
515.74901895307175
 30
0.0
 40
4.9968401999999976
 50
23.568979999999339
 51
156.43102000000059
  0
LINE
  5
F3F1
  8
AM_0
 10
95.328868687255081
 20
513.24703695307164
 30
0.0
 11
105.17891868725511
 21
513.24703695307164
 31
0.0
  0
ARC
  5
F3F2
  8
AM_0
 10
110.67842868725489
 20
515.74721895307164
 30
0.0
 40
8.000195699999999
 50
198.21097000000401
 51
270.00369900000231
  0
LINE
  5
F3F3
  8
AM_0
 10
116.178898687255
 20
513.24703695307164
 30
0.0
 11
118.67891868725511
 21
513.24703695307164
 31
0.0
  0
LINE
  5
F3F4
  8
AM_0
 10
110.678908687255
 20
507.74700495307161
 30
0.0
 11
127.67891868725501
 21
507.74700495307161
 31
0.0
  0
LINE
  5
F3F5
  8
AM_0
 10
105.17891868725511
 20
513.74700495307172
 30
0.0
 11
116.178898687255
 21
513.74700495307172
 31
0.0
  0
ARC
  5
F3F6
  8
AM_0
 10
110.678908687255
 20
515.74901895307175
 30
0.0
 40
4.998440399999998
 50
203.61099999999479
 51
336.38900099999847
  0
LINE
  5
F3F7
  8
AM_0
 10
79.678918687255077
 20
458.74699095307159
 30
0.0
 11
127.67891868725501
 21
458.74699095307159
 31
0.0
  0
ARC
  5
F3F8
  8
AM_0
 10
79.678408687254873
 20
460.74652095307181
 30
0.0
 40
1.9994960399999999
 50
179.98553999999999
 51
270.0144570000021
  0
LINE
  5
F3F9
  8
AM_0
 10
127.67891868725501
 20
458.74699095307159
 30
0.0
 11
127.67891868725501
 21
572.7470089530716
 31
0.0
  0
LINE
  5
F41E
  8
AM_0
 10
667.55582326423598
 20
280.58933155279527
 30
0.0
 11
667.55582326423598
 21
250.5893306587258
 31
0.0
  0
LINE
  5
F41F
  8
AM_0
 10
664.55582317482902
 20
250.5893306587258
 30
0.0
 11
667.55582326423598
 21
250.5893306587258
 31
0.0
  0
LINE
  5
F420
  8
AM_0
 10
664.55582317482902
 20
280.58933155279527
 30
0.0
 11
667.55582326423598
 21
280.58933155279527
 31
0.0
  0
LINE
  5
F421
  8
AM_0
 10
667.55582345423602
 20
280.58933155279527
 30
0.0
 11
667.55582345423602
 21
250.5893306587258
 31
0.0
  0
LINE
  5
F422
  8
0
 10
667.55582345423602
 20
280.58933155279527
 30
0.0
 11
691.55582345423602
 21
277.58933110576049
 31
0.0
  0
LINE
  5
F423
  8
AM_0
 10
667.55582345423602
 20
280.58933155279527
 30
0.0
 11
664.55582336482905
 21
280.58933155279527
 31
0.0
  0
LINE
  5
F424
  8
0
 10
667.55582345423602
 20
250.5893306587258
 30
0.0
 11
691.55582345423602
 21
253.58933110576049
 31
0.0
  0
LINE
  5
F425
  8
AM_0
 10
667.55582345423602
 20
250.5893306587258
 30
0.0
 11
664.55582336482905
 21
250.5893306587258
 31
0.0
  0
LINE
  5
F426
  8
AM_0
 10
691.55582345423602
 20
277.58933110576049
 30
0.0
 11
691.55582345423602
 21
253.58933110576049
 31
0.0
  0
LINE
  5
F427
  8
0
 10
719.55582345423613
 20
256.08933110576049
 30
0.0
 11
719.55582345423613
 21
277.58933110576049
 31
0.0
  0
LINE
  5
F428
  8
0
 10
719.55582345423613
 20
256.08933110576049
 30
0.0
 11
691.55582345423602
 21
256.0893311027985
 31
0.0
  0
LINE
  5
F429
  8
0
 10
719.55582345423613
 20
277.58933110576049
 30
0.0
 11
697.55582345423602
 21
277.58933110576049
 31
0.0
  0
LINE
  5
F42A
  8
0
 10
691.55582345423602
 20
275.08933110576049
 30
0.0
 11
719.55582345423613
 21
275.08933110576049
 31
0.0
  0
LINE
  5
F42B
  8
0
 10
697.55582345423602
 20
277.58933110576049
 30
0.0
 11
697.55582345423602
 21
275.08933110576049
 31
0.0
  0
ARC
  5
F42C
  8
AM_0
 10
622.55582192313125
 20
265.58933110576049
 30
0.0
 40
56.5
 50
14.11190841345778
 51
35.018628262084228
  0
LINE
  5
F42D
  8
AM_0
 10
347.18501431884488
 20
560.74695644286032
 30
0.0
 11
377.18501521291449
 21
560.74695644286032
 31
0.0
  0
LINE
  5
F42E
  8
AM_0
 10
377.18501521291449
 20
557.74695635345324
 30
0.0
 11
377.18501521291449
 21
560.74695644286032
 31
0.0
  0
LINE
  5
F42F
  8
AM_0
 10
347.18501431884488
 20
557.74695635345324
 30
0.0
 11
347.18501431884488
 21
560.74695644286032
 31
0.0
  0
LINE
  5
F430
  8
AM_0
 10
347.18501431884488
 20
560.74695663286025
 30
0.0
 11
377.18501521291449
 21
560.74695663286025
 31
0.0
  0
LINE
  5
F431
  8
0
 10
347.18501431884488
 20
560.74695663286025
 30
0.0
 11
350.18501476587983
 21
584.74695663286025
 31
0.0
  0
LINE
  5
F432
  8
AM_0
 10
347.18501431884488
 20
560.74695663286025
 30
0.0
 11
347.18501431884488
 21
557.74695654345317
 31
0.0
  0
LINE
  5
F433
  8
0
 10
377.18501521291449
 20
560.74695663286025
 30
0.0
 11
374.18501476587983
 21
584.74695663286025
 31
0.0
  0
LINE
  5
F434
  8
AM_0
 10
377.18501521291449
 20
560.74695663286025
 30
0.0
 11
377.18501521291449
 21
557.74695654345317
 31
0.0
  0
LINE
  5
F435
  8
AM_0
 10
350.18501476587983
 20
584.74695663286025
 30
0.0
 11
374.18501476587983
 21
584.74695663286025
 31
0.0
  0
LINE
  5
F436
  8
0
 10
371.68501476587983
 20
612.74695663286036
 30
0.0
 11
352.68501476587988
 21
612.74695663286036
 31
0.0
  0
LINE
  5
F437
  8
0
 10
371.68501476587983
 20
612.74695663286036
 30
0.0
 11
371.68501476884182
 21
584.74695663286025
 31
0.0
  0
LINE
  5
F438
  8
0
 10
352.68501476587988
 20
584.74695663286025
 30
0.0
 11
352.68501476587988
 21
612.74695663286036
 31
0.0
  0
LINE
  5
F439
  8
0
 10
359.1850147658796
 20
590.74695663286025
 30
0.0
 11
365.18501476587949
 21
590.74695663286047
 31
0.0
  0
LINE
  5
F43A
  8
AM_0
 10
359.1850147658796
 20
612.74695663286036
 30
0.0
 11
359.1850147658796
 21
590.74695663286025
 31
0.0
  0
LINE
  5
F43B
  8
AM_0
 10
365.1850147658796
 20
612.74695663286036
 30
0.0
 11
365.18501476587971
 21
590.74695663286047
 31
0.0
  0
ARC
  5
F43C
  8
AM_0
 10
362.1850147658796
 20
590.74695663286047
 30
0.0
 40
2.9999999999999432
 50
180.0000000000021
 51
359.99999999999881
  0
LINE
  5
F4B7
  8
AM_0
 10
415.18501628579799
 20
305.58933262567911
 30
0.0
 11
415.18501628579799
 21
225.58932958584219
 31
0.0
  0
ARC
  5
F4B8
  8
AM_0
 10
404.18501628579799
 20
305.58933262567911
 30
0.0
 40
11.0
 50
0.0
 51
90.0
1001
GENIUS_GENOREF_13
1005
F4D0
  0
POINT
  5
F4D0
  8
0
 10
0.0
 20
0.0
 30
0.0
1001
GENIUS_GENOLIS_13
1002
{
1000
ENT
1005
F4B8
1002
}
1001
GENIUS_GENOENT_13
1002
{
1000
MYREF
1005
F4D0
1002
}
1002
{
1000
GRP
1005
0
1002
}
1001
GENIUS_GENODEF_13
1002
{
1000
HIER
1070
     1
1002
}
1002
{
1000
MANEDIT
1070
     0
1002
}
1002
{
1000
NOSEL
1070
     0
1002
}
1002
{
1000
BEHIND
1070
     0
1002
}
1002
{
1000
OTHER
1070
     0
1002
}
1002
{
1000
REACTOR
1002
}
1001
GENIUS_GENOBJ-N-FIL_13
1002
{
1000
OWNER
1000
GEN
1002
}
  0
ARC
  5
F4D1
  8
AM_0
 10
404.18501628579799
 20
225.58932958584219
 30
0.0
 40
11.0
 50
270.0
 51
0.0
1001
GENIUS_GENOREF_13
1005
F4E9
  0
POINT
  5
F4E9
  8
0
 10
0.0
 20
0.0
 30
0.0
1001
GENIUS_GENOBJ-N-FIL_13
1002
{
1000
OWNER
1000
GEN
1002
}
1001
GENIUS_GENOENT_13
1002
{
1000
MYREF
1005
F4E9
1002
}
1002
{
1000
GRP
1005
0
1002
}
1001
GENIUS_GENODEF_13
1002
{
1000
HIER
1070
     1
1002
}
1002
{
1000
MANEDIT
1070
     0
1002
}
1002
{
1000
NOSEL
1070
     0
1002
}
1002
{
1000
BEHIND
1070
     0
1002
}
1002
{
1000
OTHER
1070
     0
1002
}
1002
{
1000
REACTOR
1002
}
1001
GENIUS_GENOLIS_13
1002
{
1000
ENT
1005
F4D1
1002
}
  0
TEXT
  5
F596
  8
AM_0
 10
514.26519183127061
 20
493.10610237024542
 30
0.0
 40
10.0
  1
VC01-007BT~VC01-060BT
1001
ACAD
1000
MTEXTBEGIN
1070
    73
1070
     1
1070
    44
1040
1.0
1070
    74
1070
     0
1000
MTEXTEND
  0
VIEWPORT
  5
89
 67
     1
  8
0
 10
210.0
 20
148.5
 30
0.0
 40
420.0
 41
297.0
 68
     1
 69
     1
1001
ACAD
1000
MVIEW
1002
{
1070
    16
1010
0.0
1020
0.0
1030
0.0
1010
0.0
1020
0.0
1030
1.0
1040
0.0
1040
297.0
1040
221.70154043645701
1040
148.5
1040
50.0
1040
0.0
1040
0.0
1070
     0
1070
   100
1070
     1
1070
     1
1070
     0
1070
     0
1070
     0
1070
     0
1040
0.0
1040
0.0
1040
0.0
1040
10.0
1040
10.0
1040
10.0
1040
10.0
1070
     0
1002
{
1002
}
1002
}
1001
GENIUS_GENOREF_13
1005
1B94
1001
GENIUS_GENSCREG_15
1000
PF
1040
1.0
1000
DF
1040
1.0
1000
MIN
1011
0.0
1021
0.0
1031
-0.0
1021
0.0
1031
0.0
1000
MAX
1011
420.0
1021
0.0
1031
-0.0
1021
297.0
1031
0.0
1000
FLAGS
1070
     4
  0
ENDSEC
  0
EOF
