  0
SECTION
  2
HEADER
  9
$ACADVER
  1
AC1009
  9
$INSBASE
 10
0.0
 20
0.0
 30
0.0
  9
$EXTMIN
 10
156.24579140572541
 20
191.2894397819959
 30
-0.000000000000013
  9
$EXTMAX
 10
1063.5410181879311
 20
751.18472897927154
 30
0.0000000000000023
  9
$LIMMIN
 10
0.0
 20
0.0
  9
$LIMMAX
 10
1138.0
 20
740.00000000000011
  9
$ORTHOMODE
 70
     0
  9
$REGENMODE
 70
     1
  9
$FILLMODE
 70
     1
  9
$QTEXTMODE
 70
     0
  9
$MIRRTEXT
 70
     1
  9
$DRAGMODE
 70
     2
  9
$LTSCALE
 40
4.0
  9
$OSMODE
 70
   551
  9
$ATTMODE
 70
     1
  9
$TEXTSIZE
 40
2.5
  9
$TRACEWID
 40
1.0
  9
$TEXTSTYLE
  7
STANDARD
  9
$CLAYER
  8
AM_0
  9
$CELTYPE
  6
BYLAYER
  9
$CECOLOR
 62
   256
  9
$DIMSCALE
 40
4.0
  9
$DIMASZ
 40
2.5
  9
$DIMEXO
 40
1.0
  9
$DIMDLI
 40
7.0
  9
$DIMRND
 40
0.0
  9
$DIMDLE
 40
0.0
  9
$DIMEXE
 40
1.0
  9
$DIMTP
 40
0.1
  9
$DIMTM
 40
0.1000000001
  9
$DIMTXT
 40
2.5
  9
$DIMCEN
 40
0.0
  9
$DIMTSZ
 40
0.0
  9
$DIMTOL
 70
     0
  9
$DIMLIM
 70
     0
  9
$DIMTIH
 70
     0
  9
$DIMTOH
 70
     0
  9
$DIMSE1
 70
     0
  9
$DIMSE2
 70
     0
  9
$DIMTAD
 70
     3
  9
$DIMZIN
 70
     8
  9
$DIMBLK
  1

  9
$DIMASO
 70
     1
  9
$DIMSHO
 70
     1
  9
$DIMPOST
  1

  9
$DIMAPOST
  1
"
  9
$DIMALT
 70
     0
  9
$DIMALTD
 70
     2
  9
$DIMALTF
 40
0.0393701
  9
$DIMLFAC
 40
1.0
  9
$DIMTOFL
 70
     1
  9
$DIMTVP
 40
0.0
  9
$DIMTIX
 70
     0
  9
$DIMSOXD
 70
     0
  9
$DIMSAH
 70
     0
  9
$DIMBLK1
  1

  9
$DIMBLK2
  1

  9
$DIMSTYLE
  2
AM_JIS
  9
$DIMCLRD
 70
   256
  9
$DIMCLRE
 70
   256
  9
$DIMCLRT
 70
     4
  9
$DIMTFAC
 40
0.71
  9
$DIMGAP
 40
1.0
  9
$LUNITS
 70
     2
  9
$LUPREC
 70
     2
  9
$SKETCHINC
 40
1.0
  9
$FILLETRAD
 40
0.0
  9
$AUNITS
 70
     0
  9
$AUPREC
 70
     3
  9
$MENU
  1
.
  9
$ELEVATION
 40
0.0
  9
$PELEVATION
 40
0.0
  9
$THICKNESS
 40
0.0
  9
$LIMCHECK
 70
     0
  9
$BLIPMODE
 70
     0
  9
$CHAMFERA
 40
10.0
  9
$CHAMFERB
 40
10.0
  9
$SKPOLY
 70
     0
  9
$TDCREATE
 40
2452753.643349607
  9
$TDUPDATE
 40
2458544.4450355209
  9
$TDINDWG
 40
0.6902895023
  9
$TDUSRTIMER
 40
0.6902804398
  9
$USRTIMER
 70
     1
  9
$ANGBASE
 50
0.0
  9
$ANGDIR
 70
     0
  9
$PDMODE
 70
     0
  9
$PDSIZE
 40
0.0
  9
$PLINEWID
 40
0.0
  9
$COORDS
 70
     1
  9
$SPLFRAME
 70
     0
  9
$SPLINETYPE
 70
     6
  9
$SPLINESEGS
 70
     8
  9
$ATTDIA
 70
     1
  9
$ATTREQ
 70
     1
  9
$HANDLING
 70
     1
  9
$HANDSEED
  5
1DA8C
  9
$SURFTAB1
 70
     6
  9
$SURFTAB2
 70
     6
  9
$SURFTYPE
 70
     6
  9
$SURFU
 70
     6
  9
$SURFV
 70
     6
  9
$UCSNAME
  2

  9
$UCSORG
 10
0.0
 20
0.0
 30
0.0
  9
$UCSXDIR
 10
1.0
 20
0.0
 30
0.0
  9
$UCSYDIR
 10
0.0
 20
1.0
 30
0.0
  9
$PUCSNAME
  2

  9
$PUCSORG
 10
0.0
 20
0.0
 30
0.0
  9
$PUCSXDIR
 10
1.0
 20
0.0
 30
0.0
  9
$PUCSYDIR
 10
0.0
 20
1.0
 30
0.0
  9
$USERI1
 70
     0
  9
$USERI2
 70
     0
  9
$USERI3
 70
     0
  9
$USERI4
 70
     0
  9
$USERI5
 70
     0
  9
$USERR1
 40
0.0
  9
$USERR2
 40
0.0
  9
$USERR3
 40
0.0
  9
$USERR4
 40
0.0
  9
$USERR5
 40
0.0
  9
$WORLDVIEW
 70
     1
  9
$SHADEDGE
 70
     3
  9
$SHADEDIF
 70
    70
  9
$TILEMODE
 70
     1
  9
$MAXACTVP
 70
    48
  9
$PLIMCHECK
 70
     0
  9
$PEXTMIN
 10
1.0000000000000000E+020
 20
1.0000000000000000E+020
 30
1.0000000000000000E+020
  9
$PEXTMAX
 10
-1.0000000000000000E+020
 20
-1.0000000000000000E+020
 30
-1.0000000000000000E+020
  9
$PLIMMIN
 10
0.0
 20
0.0
  9
$PLIMMAX
 10
420.0
 20
297.0
  9
$UNITMODE
 70
     0
  9
$VISRETAIN
 70
     1
  9
$PLINEGEN
 70
     0
  9
$PSLTSCALE
 70
     1
  0
ENDSEC
  0
SECTION
  2
TABLES
  0
TABLE
  2
VPORT
 70
     1
  0
VPORT
  2
*ACTIVE
 70
     0
 10
0.0
 20
0.0
 11
1.0
 21
1.0
 12
609.89340479682812
 22
471.2370843806338
 13
0.0
 23
0.0
 14
10.0
 24
10.0
 15
40.0
 25
40.0
 16
0.0
 26
0.0
 36
1.0
 17
0.0
 27
0.0
 37
0.0
 40
563.73896395149029
 41
1.7571592210767459
 42
50.0
 43
0.0
 44
0.0
 50
0.0
 51
0.0
 71
     0
 72
   100
 73
     1
 74
     1
 75
     0
 76
     0
 77
     0
 78
     0
  0
ENDTAB
  0
TABLE
  2
LTYPE
 70
    26
  0
LTYPE
  2
CONTINUOUS
 70
     0
  3
Solid line
 72
    65
 73
     0
 40
0.0
  0
LTYPE
  2
PHANTOM2
 70
     0
  3
Phantom (.5x) ___ _ _ ___ _ _ ___ _ _ ___ _ _
 72
    65
 73
     6
 40
31.75
 49
15.875
 49
-3.174999999999998
 49
3.174999999999998
 49
-3.174999999999998
 49
3.174999999999998
 49
-3.174999999999998
  0
LTYPE
  2
CENTER
 70
     0
  3
Center ____ _ ____ _ ____ _ ____ _ ____ _ ____
 72
    65
 73
     4
 40
50.799999999999997
 49
31.75
 49
-6.349999999999997
 49
6.349999999999997
 49
-6.349999999999997
  0
LTYPE
  2
GEN3B
 70
     0
  3
 - - - - -
 72
    65
 73
     2
 40
1.0
 49
0.5
 49
-0.5
  0
LTYPE
  2
GEN7A
 70
     0
  3
__ . __ . __
 72
    65
 73
     4
 40
7.375
 49
4.75
 49
-0.875
 49
0.875
 49
-0.875
  0
LTYPE
  2
AM_ISO02W050
 70
     0
  3
__ __ __ __ __ __ __ __ __ __ __ __ __ __ __
 72
    65
 73
     2
 40
7.5
 49
6.0
 49
-1.5
  0
LTYPE
  2
AM_ISO08W050
 70
     0
  3
____ . ____ . ____ . ____ . ____ . ____ . ____
 72
    65
 73
     4
 40
18.0
 49
12.0
 49
-1.5
 49
3.0
 49
-1.5
  0
LTYPE
  2
AM_ISO09W050
 70
     0
  3
_____ . . _____ . . _____ . . ____ .. ____
 72
    65
 73
     6
 40
22.5
 49
12.0
 49
-1.5
 49
3.0
 49
-1.5
 49
3.0
 49
-1.5
  0
LTYPE
  2
AMCONSTR
 70
     0
  3
_______________________
 72
    65
 73
     2
 40
9999.0
 49
9999.0
 49
0.0
  0
LTYPE
  2
AM_ISO02W050X2
 70
     0
  3
 _ _ _ _ _ _ _ _ _ _ _ _
 72
    65
 73
     2
 40
3.75
 49
3.0
 49
-0.75
  0
LTYPE
  2
AM_ISO08W050X2
 70
     0
  3
__ . __ . __ . __ . __ . __
 72
    65
 73
     4
 40
9.0
 49
6.0
 49
-0.75
 49
1.5
 49
-0.75
  0
LTYPE
  2
AMZIGZAG
 70
     0
  3
/\/-/\/-/\/-/\/-/\/-/\/
 72
    65
 73
     2
 40
11.0001
 49
0.0001
 49
-11.0
  0
LTYPE
  2
ACISOWELD
 70
     0
  3
_ _ _ _ _
 72
    65
 73
     2
 40
2.0
 49
2.0
 49
-1.0
  0
LTYPE
  2
ACISOTGB
 70
     0
  3
__ . . __ . .
 72
    65
 73
     6
 40
9.0
 49
4.0
 49
-1.0
 49
1.0
 49
-1.0
 49
1.0
 49
-1.0
  0
LTYPE
  2
ACISOTGL
 70
     0
  3
_ _ _ _ _
 72
    65
 73
     2
 40
3.0
 49
2.0
 49
-1.0
  0
LTYPE
  2
HIDDEN
 70
     0
  3
Hidden __ __ __ __ __ __ __ __ __ __ __ __ __ _
 72
    65
 73
     2
 40
9.5249999999999968
 49
6.349999999999997
 49
-3.174999999999998
  0
LTYPE
  2
ACANSTGBM
 70
     0
  3
__ . . __ . .
 72
    65
 73
     6
 40
9.0
 49
4.0
 49
-1.0
 49
1.0
 49
-1.0
 49
1.0
 49
-1.0
  0
LTYPE
  2
ACANSTGLM
 70
     0
  3
_ _ _ _ _
 72
    65
 73
     2
 40
3.0
 49
2.0
 49
-1.0
  0
LTYPE
  2
ACJISTGB
 70
     0
  3
__ . . __ . .
 72
    65
 73
     6
 40
9.0
 49
4.0
 49
-1.0
 49
1.0
 49
-1.0
 49
1.0
 49
-1.0
  0
LTYPE
  2
ACJISTGL
 70
     0
  3
_ _ _ _ _
 72
    65
 73
     2
 40
3.0
 49
2.0
 49
-1.0
  0
LTYPE
  2
CENTER2
 70
     0
  3
Center (.5x) ___ _ ___ _ ___ _ ___ _ ___ _ ___
 72
    65
 73
     4
 40
1.125
 49
0.75
 49
-0.125
 49
0.125
 49
-0.125
  0
LTYPE
  2
HIDDEN2
 70
     0
  3
Hidden (.5x) _ _ _ _ _ _ _ _ _ _ _ _ _ _ _ _ _
 72
    65
 73
     2
 40
0.1875
 49
0.125
 49
-0.0625
  0
LTYPE
  2
AMZIGZAG2
 70
     0
  3
/\/-/\/-/\/-/\/-/\/-/\/
 72
    65
 73
     2
 40
0.4401
 49
0.0001
 49
-0.4400000000000001
  0
LTYPE
  2
ACANSTGB
 70
     0
  3
__ . . __ . .
 72
    65
 73
     6
 40
0.35433070866
 49
0.15748031496
 49
-0.03937007874
 49
0.03937007874
 49
-0.03937007874
 49
0.03937007874
 49
-0.03937007874
  0
LTYPE
  2
ACANSTGL
 70
     0
  3
_ _ _ _ _
 72
    65
 73
     2
 40
0.11811023622
 49
0.07874015748
 49
-0.03937007874
  0
ENDTAB
  0
TABLE
  2
LAYER
 70
     9
  0
LAYER
  2
0
 70
     0
 62
     7
  6
CONTINUOUS
  0
LAYER
  2
AM_0
 70
     0
 62
     7
  6
CONTINUOUS
  0
LAYER
  2
DEFPOINTS
 70
     0
 62
     7
  6
CONTINUOUS
  0
LAYER
  2
ｷｲﾛ
 70
     0
 62
     2
  6
CONTINUOUS
  0
LAYER
  2
ｶｸﾚｾﾝ2
 70
     0
 62
     3
  6
GEN3B
  0
LAYER
  2
ﾁｭｳｼﾝｾﾝ1
 70
     0
 62
     1
  6
GEN7A
  0
LAYER
  2
AM_0N
 70
     0
 62
     7
  6
CONTINUOUS
  0
LAYER
  2
AM_5
 70
     0
 62
     2
  6
CONTINUOUS
  0
LAYER
  2
AM_4
 70
     0
 62
     2
  6
CONTINUOUS
  0
ENDTAB
  0
TABLE
  2
STYLE
 70
    10
  0
STYLE
  2
STANDARD
 70
     0
 40
0.0
 41
0.8299999999999999
 50
0.0
 71
     0
 42
2.5
  3
txt.shx
  4
bigfont.shx
  0
STYLE
  2
ANNOTATIVE
 70
     0
 40
0.0
 41
1.0
 50
0.0
 71
     0
 42
0.2
  3
txt
  4

  0
STYLE
  2

 70
     1
 40
0.0
 41
1.0
 50
0.0
 71
     0
 42
2.5
  3
ltypeshp.shx
  4

  0
STYLE
  2
ACISOTS
 70
     0
 40
1.0
 41
1.0
 50
0.0
 71
     0
 42
2.5
  3
isocp.shx
  4
extfont.shx
  0
STYLE
  2
ACISOGDT
 70
     0
 40
0.0
 41
1.0
 50
0.0
 71
     0
 42
2.5
  3
amgdt.shx
  4

  0
STYLE
  2
ACANSTS
 70
     0
 40
1.0
 41
1.0
 50
0.0
 71
     0
 42
2.5
  3
romans.shx
  4
bigfont.shx
  0
STYLE
  2
ACANSGDT
 70
     0
 40
0.0
 41
1.0
 50
0.0
 71
     0
 42
2.5
  3
amgdt.shx
  4

  0
STYLE
  2
ACJISGDT
 70
     0
 40
0.0
 41
1.0
 50
0.0
 71
     0
 42
2.5
  3
amgdt.shx
  4

  0
STYLE
  2
ACJISTS
 70
     0
 40
1.0
 41
1.0
 50
0.0
 71
     0
 42
2.5
  3
isocp.shx
  4
extfont.shx
  0
STYLE
  2

 70
     1
 40
0.0
 41
1.0
 50
0.0
 71
     0
 42
2.5
  3
genltshp.shx
  4

  0
ENDTAB
  0
TABLE
  2
VIEW
 70
    12
  0
VIEW
  2
GEN1
 70
     0
 40
95.824742268041234
 10
71.5
 20
137.08762886597941
 41
143.0
 11
0.0
 21
0.0
 31
1.0
 12
0.0
 22
0.0
 32
0.0
 42
50.0
 43
0.0
 44
0.0
 50
0.0
 71
     0
  0
VIEW
  2
GEN2
 70
     0
 40
95.824742268041234
 10
214.5
 20
137.08762886597941
 41
143.0
 11
0.0
 21
0.0
 31
1.0
 12
0.0
 22
0.0
 32
0.0
 42
50.0
 43
0.0
 44
0.0
 50
0.0
 71
     0
  0
VIEW
  2
GEN3
 70
     0
 40
95.824742268041234
 10
71.5
 20
47.912371134020603
 41
143.0
 11
0.0
 21
0.0
 31
1.0
 12
0.0
 22
0.0
 32
0.0
 42
50.0
 43
0.0
 44
0.0
 50
0.0
 71
     0
  0
VIEW
  2
GEN4
 70
     0
 40
95.824742268041234
 10
214.5
 20
47.912371134020603
 41
143.0
 11
0.0
 21
0.0
 31
1.0
 12
0.0
 22
0.0
 32
0.0
 42
50.0
 43
0.0
 44
0.0
 50
0.0
 71
     0
  0
VIEW
  2
GEN5
 70
     0
 40
95.824742268041234
 10
143.0
 20
92.500000000000057
 41
143.0
 11
0.0
 21
0.0
 31
1.0
 12
0.0
 22
0.0
 32
0.0
 42
50.0
 43
0.0
 44
0.0
 50
0.0
 71
     0
  0
VIEW
  2
GEN6
 70
     0
 40
191.64756804123709
 10
143.0
 20
92.5
 41
285.99714
 11
0.0
 21
0.0
 31
1.0
 12
0.0
 22
0.0
 32
0.0
 42
50.0
 43
0.0
 44
0.0
 50
0.0
 71
     0
  0
VIEW
  2
AM_VIEW1
 70
     0
 40
370.00000000000023
 10
332.86372007366492
 20
555.00000000000011
 41
665.72744014732962
 11
0.0
 21
0.0
 31
1.0
 12
0.0
 22
0.0
 32
0.0
 42
50.0
 43
0.0
 44
0.0
 50
0.0
 71
     0
  0
VIEW
  2
AM_VIEW2
 70
     0
 40
370.00000000000023
 10
805.13627992633485
 20
555.00000000000011
 41
665.72744014732962
 11
0.0
 21
0.0
 31
1.0
 12
0.0
 22
0.0
 32
0.0
 42
50.0
 43
0.0
 44
0.0
 50
0.0
 71
     0
  0
VIEW
  2
AM_VIEW3
 70
     0
 40
370.00000000000023
 10
332.86372007366492
 20
185.0
 41
665.72744014732962
 11
0.0
 21
0.0
 31
1.0
 12
0.0
 22
0.0
 32
0.0
 42
50.0
 43
0.0
 44
0.0
 50
0.0
 71
     0
  0
VIEW
  2
AM_VIEW4
 70
     0
 40
370.00000000000023
 10
805.13627992633485
 20
185.0
 41
665.72744014732962
 11
0.0
 21
0.0
 31
1.0
 12
0.0
 22
0.0
 32
0.0
 42
50.0
 43
0.0
 44
0.0
 50
0.0
 71
     0
  0
VIEW
  2
AM_VIEW5
 70
     0
 40
370.00000000000023
 10
569.0
 20
370.00000000000023
 41
665.72744014732962
 11
0.0
 21
0.0
 31
1.0
 12
0.0
 22
0.0
 32
0.0
 42
50.0
 43
0.0
 44
0.0
 50
0.0
 71
     0
  0
VIEW
  2
AM_VIEW6
 70
     0
 40
739.99260000000015
 10
569.0
 20
370.00000000000023
 41
1331.4415657458569
 11
0.0
 21
0.0
 31
1.0
 12
0.0
 22
0.0
 32
0.0
 42
50.0
 43
0.0
 44
0.0
 50
0.0
 71
     0
  0
ENDTAB
  0
TABLE
  2
UCS
 70
     0
  0
ENDTAB
  0
TABLE
  2
APPID
 70
   103
  0
APPID
  2
ACAD
 70
     0
  0
APPID
  2
ACADANNOTATIVE
 70
     0
  0
APPID
  2
MCAD_NO_VIS
 70
     0
  0
APPID
  2
ACAD_TEMP_GRAPHIC
 70
     0
  0
APPID
  2
AD_DRAW
 70
     0
  0
APPID
  2
DESIGNERASSEMBLIES
 70
     0
  0
APPID
  2
ASURF_PCURVE_APPNAME
 70
     0
  0
APPID
  2
GENIUS_GE3SECT_13
 70
     0
  0
APPID
  2
GENIUS_GENCFG_13
 70
     0
  0
APPID
  2
GENIUS_GE3CFG0_13
 70
     0
  0
APPID
  2
GENIUS_GENCFG0_13
 70
     0
  0
APPID
  2
GENIUS_GENCFG1_13
 70
     0
  0
APPID
  2
GENIUS_GENCFG2_13
 70
     0
  0
APPID
  2
GENIUS_GENCFG3_13
 70
     0
  0
APPID
  2
GENIUS_GENCFG4_13
 70
     0
  0
APPID
  2
GENIUS_GEVCFG0_13
 70
     0
  0
APPID
  2
GENIUS_GENOENT_13
 70
     0
  0
APPID
  2
GENIUS_GENREC_14
 70
     0
  0
APPID
  2
GENIUS_GENODEF_13
 70
     0
  0
APPID
  2
GENIUS_GENOBJ-N-REC_13
 70
     0
  0
APPID
  2
GENIUS_GENHINW_13
 70
     0
  0
APPID
  2
GENIUS_FIRSTVISTXT_14
 70
     0
  0
APPID
  2
GENIUS_GENOBJ-N-LEADER_13
 70
     0
  0
APPID
  2
GENIUS_GENOREF_13
 70
     0
  0
APPID
  2
GENIUS_GENOLIS_13
 70
     0
  0
APPID
  2
GEV_VCCNULL_SWITCH_OFF
 70
     0
  0
APPID
  2
GENIUS_GENDTOL_13
 70
     0
  0
APPID
  2
GENIUS_GEFCFG0_13
 70
     0
  0
APPID
  2
GENIUS_GENOBJ-N-TIT_13
 70
     0
  0
APPID
  2
GENIUS_GENTITLE_13
 70
     0
  0
APPID
  2
GENIUS_GENZVEED_13
 70
     0
  0
APPID
  2
GENIUS_GENOBJ-N-SDF_13
 70
     0
  0
APPID
  2
GENIUS_GENSCREG_13
 70
     0
  0
APPID
  2
GENIUS_DUMCFG0_13
 70
     0
  0
APPID
  2
GEVID936201362
 70
     0
  0
APPID
  2
GEVDC
 70
     0
  0
APPID
  2
GEVCON
 70
     0
  0
APPID
  2
VCC
 70
     0
  0
APPID
  2
GEVPT
 70
     0
  0
APPID
  2
GEVIT
 70
     0
  0
APPID
  2
GENBH
 70
     0
  0
APPID
  2
GEVMK
 70
     0
  0
APPID
  2
GENIUS_GENBH_13
 70
     0
  0
APPID
  2
GENIUS_GENOBJ-NBEHI-BHF_13
 70
     0
  0
APPID
  2
GENIUS_GENOBJ-NBEHI-BHB_13
 70
     0
  0
APPID
  2
GENIUS_GENOBJ-F-DESC_13
 70
     0
  0
APPID
  2
GENIUS_GEFDESC_14
 70
     0
  0
APPID
  2
GENIUS_GENOBJ-F-PART_13
 70
     0
  0
APPID
  2
GENIUS_GEFSTDP_13
 70
     0
  0
APPID
  2
GENIUS_GEFPARTINS_13
 70
     0
  0
APPID
  2
GENIUS_GENTRA_14
 70
     0
  0
APPID
  2
GENIUS_GENINF13_13
 70
     0
  0
APPID
  2
GENIUS_GENOBJ-N-INFOPT_13
 70
     0
  0
APPID
  2
GENIUS_GENOBJ-N-RSSYM_13
 70
     0
  0
APPID
  2
GENIUS_GENSYMENT_13
 70
     0
  0
APPID
  2
GENIUS_GENSCSYM_13
 70
     0
  0
APPID
  2
GENIUS_GEFINFNAM_13
 70
     0
  0
APPID
  2
GENIUS_GENSCREG_15
 70
     0
  0
APPID
  2
GENIUS_GENOBJ-N-CEN_13
 70
     0
  0
APPID
  2
GENIUS_GENOBJ-N-CRS_13
 70
     0
  0
APPID
  2
GENIUS_GENOBJ-N-CRC_13
 70
     0
  0
APPID
  2
GENIUS_GENCRC_14
 70
     0
  0
APPID
  2
GEVID942827039
 70
     0
  0
APPID
  2
GEVID942827040
 70
     0
  0
APPID
  2
GEVID942827041
 70
     0
  0
APPID
  2
GENIUS_GENOBJ-F-SCPASSM_13
 70
     0
  0
APPID
  2
GENIUS_GENDIMSH_14
 70
     0
  0
APPID
  2
GENIUS_GENFIL_13
 70
     0
  0
APPID
  2
GENIUS_GENOBJ-N-CHA_13
 70
     0
  0
APPID
  2
GENIUS_GENOBJ-N-FIL_13
 70
     0
  0
APPID
  2
GEVID942827042
 70
     0
  0
APPID
  2
GEVID946020473
 70
     0
  0
APPID
  2
GEVID946020474
 70
     0
  0
APPID
  2
GEVID946020475
 70
     0
  0
APPID
  2
GENIUS_GENOBJ-N-HTC_13
 70
     0
  0
APPID
  2
GENIUS_GENHATCH_13
 70
     0
  0
APPID
  2
GEVID948854295
 70
     0
  0
APPID
  2
GEVID939402019
 70
     0
  0
APPID
  2
GEVID952919491
 70
     0
  0
APPID
  2
GEVID952919492
 70
     0
  0
APPID
  2
GENIUS_GEFWELD_13
 70
     0
  0
APPID
  2
GENIUS_GENOBJ-F-WELS_13
 70
     0
  0
APPID
  2
GEVID952919493
 70
     0
  0
APPID
  2
GENIUS_GENOBJ-N-RSBK_13
 70
     0
  0
APPID
  2
GENIUS_GENOBJ-N-LIB_13
 70
     0
  0
APPID
  2
GENIUS_GENSCALE_13
 70
     0
  0
APPID
  2
GEVID986376691
 70
     0
  0
APPID
  2
ACATTRIBSERVICES
 70
     0
  0
APPID
  2
DCO15
 70
     0
  0
APPID
  2
ACADM_DIM_EDIT
 70
     0
  0
APPID
  2
AMDT_DM_ADJ
 70
     0
  0
APPID
  2
ACAD_MLEADERVER
 70
     0
  0
APPID
  2
CONTENTBLOCKDESCRIPTION
 70
     0
  0
APPID
  2
GEVID1057795304
 70
     0
  0
APPID
  2
GENIUS_GEFSH_13
 70
     0
  0
APPID
  2
GENIUS_GENOBJ-F-SHS_13
 70
     0
  0
APPID
  2
ACAECLAYERSTANDARD
 70
     0
  0
APPID
  2
GEVID1436262041
 70
     0
  0
APPID
  2
ACAD_DSTYLE_DIMBREAK
 70
     0
  0
APPID
  2
ACAD_DSTYLE_DIMJAG
 70
     0
  0
APPID
  2
ACAD_NAV_VCDISPLAY
 70
     0
  0
APPID
  2
ACAD_EXEMPT_FROM_CAD_STANDARDS
 70
     0
  0
APPID
  2
ACADANNOPO
 70
     0
  0
ENDTAB
  0
TABLE
  2
DIMSTYLE
 70
    23
  0
DIMSTYLE
  2
STANDARD
 70
     0
  3

  4

  5

  6

  7

 40
1.0
 41
0.18
 42
0.0625
 43
0.38
 44
0.18
 45
0.0
 46
0.0
 47
0.0
 48
0.0
140
0.18
141
0.09
142
0.0
143
25.399999999999999
144
1.0
145
0.0
146
1.0
147
0.09
 71
     0
 72
     0
 73
     1
 74
     1
 75
     0
 76
     0
 77
     0
 78
     0
170
     0
171
     2
172
     0
173
     0
174
     0
175
     0
176
     0
177
     0
178
     0
  0
DIMSTYLE
  2
ANNOTATIVE
 70
     0
  3

  4

  5

  6

  7

 40
1.0
 41
0.18
 42
0.0625
 43
0.38
 44
0.18
 45
0.0
 46
0.0
 47
0.0
 48
0.0
140
0.18
141
0.09
142
0.0
143
25.399999999999999
144
1.0
145
0.0
146
1.0
147
0.09
 71
     0
 72
     0
 73
     1
 74
     1
 75
     0
 76
     0
 77
     0
 78
     0
170
     0
171
     2
172
     0
173
     0
174
     0
175
     0
176
     0
177
     0
178
     0
  0
DIMSTYLE
  2
AM_JIS
 70
     0
  3

  4
"
  5

  6

  7

 40
1.0
 41
2.0
 42
1.0
 43
8.0
 44
1.0
 45
0.0
 46
0.0
 47
0.1
 48
0.1
140
2.5
141
0.0
142
0.0
143
0.0393701
144
1.0
145
0.0
146
0.71
147
1.5
 71
     0
 72
     0
 73
     0
 74
     0
 75
     0
 76
     0
 77
     3
 78
     8
170
     0
171
     2
172
     1
173
     0
174
     0
175
     0
176
     2
177
     2
178
     4
  0
DIMSTYLE
  2
AM_ISO
 70
     0
  3

  4
"
  5

  6

  7

 40
1.0
 41
2.5
 42
1.0
 43
10.0
 44
1.0
 45
0.0
 46
0.0
 47
0.1
 48
0.1
140
3.5
141
0.0
142
0.0
143
0.0393701
144
1.0
145
0.0
146
0.71
147
1.5
 71
     0
 72
     0
 73
     0
 74
     0
 75
     0
 76
     0
 77
     1
 78
     8
170
     0
171
     2
172
     1
173
     0
174
     0
175
     0
176
   256
177
   256
178
     2
  0
DIMSTYLE
  2
AM_ISO$3
 70
     0
  3

  4
"
  5

  6

  7

 40
1.0
 41
2.5
 42
1.0
 43
10.0
 44
1.0
 45
0.0
 46
0.0
 47
0.1
 48
0.1
140
3.5
141
0.0
142
0.0
143
0.0393701
144
1.0
145
0.0
146
0.71
147
1.5
 71
     0
 72
     0
 73
     0
 74
     1
 75
     0
 76
     0
 77
     1
 78
     8
170
     0
171
     2
172
     0
173
     0
174
     0
175
     0
176
   256
177
   256
178
     2
  0
DIMSTYLE
  2
AM_ISO$4
 70
     0
  3

  4
"
  5

  6

  7

 40
1.0
 41
2.5
 42
1.0
 43
10.0
 44
1.0
 45
0.0
 46
0.0
 47
0.1
 48
0.1
140
3.5
141
0.0
142
0.0
143
0.0393701
144
1.0
145
0.0
146
0.71
147
1.5
 71
     0
 72
     0
 73
     0
 74
     1
 75
     0
 76
     0
 77
     1
 78
     8
170
     0
171
     2
172
     0
173
     0
174
     0
175
     0
176
   256
177
   256
178
     2
  0
DIMSTYLE
  2
AM_ISO$6
 70
     0
  3

  4
"
  5

  6

  7

 40
1.0
 41
2.5
 42
1.0
 43
10.0
 44
1.0
 45
0.0
 46
0.0
 47
0.1
 48
0.1
140
3.5
141
0.0
142
0.0
143
0.0393701
144
1.0
145
0.0
146
0.71
147
1.5
 71
     0
 72
     0
 73
     0
 74
     0
 75
     0
 76
     0
 77
     0
 78
     8
170
     0
171
     2
172
     1
173
     0
174
     0
175
     0
176
   256
177
   256
178
     2
  0
DIMSTYLE
  2
AM_ISO$7
 70
     0
  3

  4
"
  5

  6

  7

 40
1.0
 41
2.5
 42
1.0
 43
10.0
 44
1.0
 45
0.0
 46
0.0
 47
0.1
 48
0.1
140
5.0
141
0.0
142
0.0
143
0.0393701
144
1.0
145
0.0
146
0.71
147
1.5
 71
     0
 72
     0
 73
     0
 74
     0
 75
     0
 76
     0
 77
     1
 78
     8
170
     0
171
     2
172
     1
173
     0
174
     0
175
     0
176
   256
177
   256
178
     2
  0
DIMSTYLE
  2
AM_ISO$SF
 70
     0
  3

  4
"
  5

  6

  7

 40
1.0
 41
2.5
 42
1.0
 43
10.0
 44
1.0
 45
0.0
 46
0.0
 47
0.1
 48
0.1
140
3.5
141
0.0
142
0.0
143
0.0393701
144
1.0
145
0.0
146
0.71
147
1.5
 71
     0
 72
     0
 73
     0
 74
     0
 75
     1
 76
     1
 77
     1
 78
     8
170
     0
171
     2
172
     1
173
     0
174
     0
175
     0
176
   256
177
   256
178
     2
  0
DIMSTYLE
  2
AM_ISO$SH
 70
     0
  3

  4
"
  5

  6

  7

 40
1.0
 41
2.5
 42
1.0
 43
10.0
 44
1.0
 45
0.0
 46
0.0
 47
0.1
 48
0.1
140
3.5
141
0.0
142
0.0
143
0.0393701
144
2.0
145
0.0
146
0.71
147
1.5
 71
     0
 72
     0
 73
     0
 74
     0
 75
     1
 76
     1
 77
     1
 78
     8
170
     0
171
     2
172
     1
173
     1
174
     0
175
     0
176
   256
177
   256
178
     2
  0
DIMSTYLE
  2
AM_ANSI
 70
     0
  3

  4
"
  5

  6

  7

 40
1.0
 41
2.5
 42
1.0
 43
10.0
 44
1.0
 45
0.0
 46
0.0
 47
0.1
 48
0.1
140
3.5
141
0.0
142
0.0
143
0.0393701
144
1.0
145
0.0
146
0.71
147
1.5
 71
     0
 72
     0
 73
     1
 74
     1
 75
     0
 76
     0
 77
     0
 78
     8
170
     0
171
     2
172
     0
173
     0
174
     0
175
     0
176
     2
177
     2
178
     4
  0
DIMSTYLE
  2
AM_ANSI$3
 70
     0
  3

  4
"
  5

  6

  7

 40
1.0
 41
2.5
 42
1.0
 43
10.0
 44
1.0
 45
0.0
 46
0.0
 47
0.1
 48
0.1
140
3.5
141
0.0
142
0.0
143
0.0393701
144
1.0
145
0.0
146
0.71
147
1.5
 71
     0
 72
     0
 73
     1
 74
     1
 75
     0
 76
     0
 77
     0
 78
     8
170
     0
171
     2
172
     0
173
     0
174
     0
175
     0
176
     2
177
     2
178
     4
  0
DIMSTYLE
  2
AM_ANSI$4
 70
     0
  3

  4
"
  5

  6

  7

 40
1.0
 41
2.5
 42
1.0
 43
10.0
 44
1.0
 45
0.0
 46
0.0
 47
0.1
 48
0.1
140
3.5
141
0.0
142
0.0
143
0.0393701
144
1.0
145
0.0
146
0.71
147
1.5
 71
     0
 72
     0
 73
     1
 74
     1
 75
     0
 76
     0
 77
     0
 78
     8
170
     0
171
     2
172
     0
173
     0
174
     0
175
     0
176
     2
177
     2
178
     4
  0
DIMSTYLE
  2
AM_ANSI$7
 70
     0
  3

  4
"
  5

  6

  7

 40
1.0
 41
2.5
 42
1.0
 43
10.0
 44
1.0
 45
0.0
 46
0.0
 47
0.1
 48
0.1
140
5.0
141
0.0
142
0.0
143
0.0393701
144
1.0
145
0.0
146
0.71
147
1.5
 71
     0
 72
     0
 73
     1
 74
     1
 75
     0
 76
     0
 77
     0
 78
     8
170
     0
171
     2
172
     0
173
     0
174
     0
175
     0
176
     2
177
     2
178
     4
  0
DIMSTYLE
  2
AM_ANSI$SF
 70
     0
  3

  4
"
  5

  6

  7

 40
1.0
 41
2.5
 42
1.0
 43
10.0
 44
1.0
 45
0.0
 46
0.0
 47
0.1
 48
0.1
140
3.5
141
0.0
142
0.0
143
0.0393701
144
1.0
145
0.0
146
0.71
147
1.5
 71
     0
 72
     0
 73
     1
 74
     1
 75
     1
 76
     1
 77
     0
 78
     8
170
     0
171
     2
172
     0
173
     0
174
     0
175
     0
176
     2
177
     2
178
     4
  0
DIMSTYLE
  2
AM_ANSI$SH
 70
     0
  3

  4
"
  5

  6

  7

 40
1.0
 41
2.5
 42
1.0
 43
10.0
 44
1.0
 45
0.0
 46
0.0
 47
0.1
 48
0.1
140
3.5
141
0.0
142
0.0
143
0.0393701
144
1.0
145
0.0
146
0.71
147
1.5
 71
     0
 72
     0
 73
     1
 74
     1
 75
     1
 76
     1
 77
     0
 78
     8
170
     0
171
     2
172
     0
173
     1
174
     0
175
     0
176
     2
177
     2
178
     4
  0
DIMSTYLE
  2
AM_JIS$3
 70
     0
  3

  4
"
  5

  6

  7

 40
1.0
 41
2.0
 42
1.0
 43
10.0
 44
1.0
 45
0.0
 46
0.0
 47
0.1
 48
0.1
140
2.5
141
0.0
142
0.0
143
0.0393701
144
1.0
145
0.0
146
0.71
147
1.5
 71
     0
 72
     0
 73
     0
 74
     1
 75
     0
 76
     0
 77
     3
 78
     8
170
     0
171
     2
172
     0
173
     0
174
     0
175
     0
176
     2
177
     2
178
     4
  0
DIMSTYLE
  2
AM_JIS$4
 70
     0
  3

  4
"
  5

  6

  7

 40
1.0
 41
2.0
 42
1.0
 43
10.0
 44
1.0
 45
0.0
 46
0.0
 47
0.1
 48
0.1
140
2.5
141
0.0
142
0.0
143
0.0393701
144
1.0
145
0.0
146
0.71
147
1.5
 71
     0
 72
     0
 73
     0
 74
     0
 75
     0
 76
     0
 77
     3
 78
     8
170
     0
171
     2
172
     0
173
     0
174
     0
175
     0
176
     2
177
     2
178
     4
  0
DIMSTYLE
  2
AM_JIS$6
 70
     0
  3

  4
"
  5

  6

  7

 40
1.0
 41
2.0
 42
1.0
 43
10.0
 44
1.0
 45
0.0
 46
0.0
 47
0.1
 48
0.1
140
2.5
141
0.0
142
0.0
143
0.0393701
144
1.0
145
0.0
146
0.71
147
1.5
 71
     0
 72
     0
 73
     0
 74
     0
 75
     0
 76
     0
 77
     0
 78
     8
170
     0
171
     2
172
     1
173
     0
174
     0
175
     0
176
     2
177
     2
178
     4
  0
DIMSTYLE
  2
AM_JIS$7
 70
     0
  3

  4
"
  5

  6

  7

 40
1.0
 41
2.0
 42
1.0
 43
10.0
 44
1.0
 45
0.0
 46
0.0
 47
0.1
 48
0.1
140
2.5
141
0.0
142
0.0
143
0.0393701
144
1.0
145
0.0
146
0.71
147
1.5
 71
     0
 72
     0
 73
     0
 74
     0
 75
     0
 76
     0
 77
     3
 78
     8
170
     0
171
     2
172
     1
173
     0
174
     0
175
     0
176
     2
177
     2
178
     4
  0
DIMSTYLE
  2
AM_JIS$SF
 70
     0
  3

  4
"
  5

  6

  7

 40
1.0
 41
2.0
 42
1.0
 43
10.0
 44
1.0
 45
0.0
 46
0.0
 47
0.1
 48
0.1
140
2.5
141
0.0
142
0.0
143
0.0393701
144
1.0
145
0.0
146
0.71
147
1.5
 71
     0
 72
     0
 73
     0
 74
     0
 75
     1
 76
     1
 77
     3
 78
     8
170
     0
171
     2
172
     1
173
     0
174
     0
175
     0
176
     2
177
     2
178
     4
  0
DIMSTYLE
  2
AM_JIS$SH
 70
     0
  3

  4
"
  5

  6

  7

 40
1.0
 41
2.0
 42
1.0
 43
10.0
 44
1.0
 45
0.0
 46
0.0
 47
0.1
 48
0.1
140
2.5
141
0.0
142
0.0
143
0.0393701
144
2.0
145
0.0
146
0.71
147
1.5
 71
     0
 72
     0
 73
     0
 74
     0
 75
     1
 76
     1
 77
     3
 78
     8
170
     0
171
     2
172
     1
173
     1
174
     0
175
     0
176
     2
177
     2
178
     4
  0
ENDTAB
  0
ENDSEC
  0
SECTION
  2
BLOCKS
  0
BLOCK
  8
0
  2
$MODEL_SPACE
 70
     0
 10
0.0
 20
0.0
 30
0.0
  3
$MODEL_SPACE
  1

  0
ENDBLK
  5
1D8C7
  8
0
  0
BLOCK
 67
     1
  8
0
  2
$PAPER_SPACE
 70
     0
 10
0.0
 20
0.0
 30
0.0
  3
$PAPER_SPACE
  1

  0
ENDBLK
  5
1D8C3
 67
     1
  8
0
  0
BLOCK
  8
0
  2
GENAXEH
 70
     0
 10
0.0
 20
0.0
 30
0.0
  3
GENAXEH
  1

  0
LINE
  5
1D19C
  8
0
 10
-1.0
 20
0.0
 30
0.0
 11
1.0
 21
0.0
 31
0.0
  0
ENDBLK
  5
1D19D
  8
0
  0
BLOCK
  8
0
  6
BYBLOCK
 62
     0
  2
$6-44
 70
     0
 10
0.0
 20
0.0
 30
0.0
  3
$6-44
  1

  0
ARC
  5
1B014
  8
AM_0
 10
-2.300003000000002
 20
2.3999909999999991
 30
0.0
 40
2.2000009999999981
 50
90.000003000000945
 51
179.99997799999841
  0
ARC
  5
1B015
  8
AM_0
 10
2.300003000000002
 20
2.3999909999999991
 30
0.0
 40
2.1999970000000002
 50
0.0
 51
89.999982000000827
  0
LINE
  5
1B016
  8
AM_0
 10
-0.0494449999999915
 20
0.0
 30
0.0
 11
-0.8000000000000112
 21
1.30000000000001
 31
0.0
  0
LINE
  5
1B017
  8
AM_0
 10
0.9505550000000083
 20
0.0
 30
0.0
 11
0.1999999999999886
 21
1.30000000000001
 31
0.0
  0
LINE
  5
1B018
  8
AM_0
 10
4.600000000000021
 20
1.30000000000001
 30
0.0
 11
4.600000000000021
 21
0.0
 31
0.0
  0
LINE
  5
1B019
  8
AM_0
 10
-4.600000000000021
 20
1.30000000000001
 30
0.0
 11
-4.600000000000021
 21
0.0
 31
0.0
  0
LINE
  5
1B01A
  8
AM_0
 10
4.600000000000021
 20
0.0
 30
0.0
 11
-4.600000000000021
 21
0.0
 31
0.0
  0
LINE
  5
1B01B
  8
AM_0
 10
2.300003000000002
 20
4.6000030000000152
 30
0.0
 11
-2.300003000000002
 21
4.6000030000000152
 31
0.0
  0
LINE
  5
1B01C
  8
AM_0
 10
4.600000000000021
 20
1.30000000000001
 30
0.0
 11
-4.600000000000021
 21
1.30000000000001
 31
0.0
  0
LINE
  5
1B01D
  8
AM_0
 10
-4.5
 20
1.30000000000001
 30
0.0
 11
-4.5
 21
2.3999909999999991
 31
0.0
  0
LINE
  5
1B01E
  8
AM_0
 10
4.5
 20
1.30000000000001
 30
0.0
 11
4.5
 21
2.3999909999999991
 31
0.0
  0
ENDBLK
  5
1B01F
  8
0
  6
BYBLOCK
 62
     0
  0
BLOCK
  8
0
  2
_OPEN30
 70
     0
 10
0.0
 20
0.0
 30
0.0
  3
_OPEN30
  1

  0
LINE
  5
1D1E3
  8
0
  6
BYBLOCK
 62
     0
 10
-1.0
 20
0.26794919
 30
0.0
 11
0.0
 21
0.0
 31
0.0
  0
LINE
  5
1D1E4
  8
0
  6
BYBLOCK
 62
     0
 10
0.0
 20
0.0
 30
0.0
 11
-1.0
 21
-0.26794919
 31
0.0
  0
LINE
  5
1D1E5
  8
0
  6
BYBLOCK
 62
     0
 10
0.0
 20
0.0
 30
0.0
 11
-1.0
 21
0.0
 31
0.0
  0
ENDBLK
  5
1D1E6
  8
0
  0
BLOCK
  8
0
  2
_ACMFILLEDHALF
 70
     0
 10
0.0
 20
0.0
 30
0.0
  3
_ACMFILLEDHALF
  1

  0
TRACE
  5
1D9D6
  8
AM_0
 62
     0
 10
-0.8
 20
0.0
 30
0.0
 11
-1.0
 21
0.166666666
 31
0.0
 12
0.0
 22
0.0
 32
0.0
 13
0.0
 23
0.0
 33
0.0
  0
LINE
  5
1D9D7
  8
AM_0
 62
     0
 10
-1.0
 20
0.0
 30
0.0
 11
-0.8
 21
0.0
 31
0.0
  0
ENDBLK
  5
1D9D5
  8
0
  0
ENDSEC
  0
SECTION
  2
ENTITIES
  0
POINT
  5
1B94
  8
0
 10
0.0
 20
0.0
 30
0.0
1001
GENIUS_GENODEF_13
1002
{
1000
HIER
1070
     1
1002
}
1002
{
1000
MANEDIT
1070
     0
1002
}
1002
{
1000
NOSEL
1070
     0
1002
}
1002
{
1000
BEHIND
1070
     0
1002
}
1002
{
1000
REACTOR
1002
}
1001
GENIUS_GENOBJ-N-SDF_13
1002
{
1000
OWNER
1000
GEN
1002
}
1001
GENIUS_GENOENT_13
1002
{
1000
MYREF
1005
1B94
1002
}
1002
{
1000
GRP
1005
0
1002
}
1001
GENIUS_GENOLIS_13
1002
{
1000
ENT
1005
89
1002
}
  0
LINE
  5
18D4F
  8
0
 10
565.62427640704675
 20
429.30398187140219
 30
0.0
 11
674.56879251435839
 21
429.30398187140219
 31
0.0
  0
POLYLINE
  5
18D50
  8
AM_0
 66
     1
 10
0.0
 20
0.0
 30
0.0
 70
     8
  0
VERTEX
  5
1D343
  8
AM_0
 10
567.59699999999987
 20
318.30399999999997
 30
0.0
 70
    32
  0
VERTEX
  5
1D344
  8
AM_0
 10
567.62699999999995
 20
319.53100000000001
 30
0.0
 70
    32
  0
VERTEX
  5
1D345
  8
AM_0
 10
567.71699999999998
 20
320.75400000000002
 30
0.0
 70
    32
  0
VERTEX
  5
1D346
  8
AM_0
 10
567.86699999999985
 20
321.97199999999998
 30
0.0
 70
    32
  0
VERTEX
  5
1D347
  8
AM_0
 10
568.07699999999988
 20
323.18099999999998
 30
0.0
 70
    32
  0
VERTEX
  5
1D348
  8
AM_0
 10
568.346
 20
324.37900000000002
 30
0.0
 70
    32
  0
VERTEX
  5
1D349
  8
AM_0
 10
568.67299999999989
 20
325.56099999999998
 30
0.0
 70
    32
  0
VERTEX
  5
1D34A
  8
AM_0
 10
569.05799999999988
 20
326.726
 30
0.0
 70
    32
  0
VERTEX
  5
1D34B
  8
AM_0
 10
569.5
 20
327.87099999999998
 30
0.0
 70
    32
  0
VERTEX
  5
1D34C
  8
AM_0
 10
569.99699999999984
 20
328.99299999999999
 30
0.0
 70
    32
  0
VERTEX
  5
1D34D
  8
AM_0
 10
570.54899999999998
 20
330.089
 30
0.0
 70
    32
  0
VERTEX
  5
1D34E
  8
AM_0
 10
571.15300000000002
 20
331.15699999999998
 30
0.0
 70
    32
  0
VERTEX
  5
1D34F
  8
AM_0
 10
571.80999999999995
 20
332.19400000000002
 30
0.0
 70
    32
  0
VERTEX
  5
1D350
  8
AM_0
 10
572.51599999999985
 20
333.197
 30
0.0
 70
    32
  0
VERTEX
  5
1D351
  8
AM_0
 10
573.27099999999984
 20
334.16399999999999
 30
0.0
 70
    32
  0
VERTEX
  5
1D352
  8
AM_0
 10
574.07299999999998
 20
335.09300000000002
 30
0.0
 70
    32
  0
VERTEX
  5
1D353
  8
AM_0
 10
574.91899999999987
 20
335.98200000000003
 30
0.0
 70
    32
  0
VERTEX
  5
1D354
  8
AM_0
 10
575.80799999999988
 20
336.82799999999997
 30
0.0
 70
    32
  0
VERTEX
  5
1D355
  8
AM_0
 10
576.73699999999985
 20
337.63
 30
0.0
 70
    32
  0
VERTEX
  5
1D356
  8
AM_0
 10
577.70399999999995
 20
338.38499999999999
 30
0.0
 70
    32
  0
VERTEX
  5
1D357
  8
AM_0
 10
578.70699999999988
 20
339.09100000000001
 30
0.0
 70
    32
  0
VERTEX
  5
1D358
  8
AM_0
 10
579.74400000000003
 20
339.7480000000001
 30
0.0
 70
    32
  0
VERTEX
  5
1D359
  8
AM_0
 10
580.81200000000001
 20
340.35199999999998
 30
0.0
 70
    32
  0
VERTEX
  5
1D35A
  8
AM_0
 10
581.90800000000002
 20
340.904
 30
0.0
 70
    32
  0
VERTEX
  5
1D35B
  8
AM_0
 10
583.02899999999988
 20
341.40100000000001
 30
0.0
 70
    32
  0
VERTEX
  5
1D35C
  8
AM_0
 10
584.17399999999986
 20
341.84300000000002
 30
0.0
 70
    32
  0
VERTEX
  5
1D35D
  8
AM_0
 10
585.33900000000006
 20
342.22800000000001
 30
0.0
 70
    32
  0
VERTEX
  5
1D35E
  8
AM_0
 10
586.52199999999993
 20
342.55500000000001
 30
0.0
 70
    32
  0
VERTEX
  5
1D35F
  8
AM_0
 10
587.71900000000005
 20
342.82400000000001
 30
0.0
 70
    32
  0
VERTEX
  5
1D360
  8
AM_0
 10
588.928
 20
343.03399999999999
 30
0.0
 70
    32
  0
VERTEX
  5
1D361
  8
AM_0
 10
590.14599999999984
 20
343.18400000000003
 30
0.0
 70
    32
  0
VERTEX
  5
1D362
  8
AM_0
 10
591.37
 20
343.274
 30
0.0
 70
    32
  0
VERTEX
  5
1D363
  8
AM_0
 10
592.59699999999987
 20
343.30399999999997
 30
0.0
 70
    32
  0
VERTEX
  5
1D364
  8
AM_0
 10
593.82299999999987
 20
343.274
 30
0.0
 70
    32
  0
VERTEX
  5
1D365
  8
AM_0
 10
595.04700000000003
 20
343.18400000000003
 30
0.0
 70
    32
  0
VERTEX
  5
1D366
  8
AM_0
 10
596.26499999999999
 20
343.03399999999999
 30
0.0
 70
    32
  0
VERTEX
  5
1D367
  8
AM_0
 10
597.47400000000005
 20
342.82400000000001
 30
0.0
 70
    32
  0
VERTEX
  5
1D368
  8
AM_0
 10
598.67099999999994
 20
342.55500000000001
 30
0.0
 70
    32
  0
VERTEX
  5
1D369
  8
AM_0
 10
599.85400000000004
 20
342.22800000000001
 30
0.0
 70
    32
  0
VERTEX
  5
1D36A
  8
AM_0
 10
601.01900000000001
 20
341.84300000000002
 30
0.0
 70
    32
  0
VERTEX
  5
1D36B
  8
AM_0
 10
602.16399999999987
 20
341.40100000000001
 30
0.0
 70
    32
  0
VERTEX
  5
1D36C
  8
AM_0
 10
603.28499999999985
 20
340.904
 30
0.0
 70
    32
  0
VERTEX
  5
1D36D
  8
AM_0
 10
604.38099999999986
 20
340.35199999999998
 30
0.0
 70
    32
  0
VERTEX
  5
1D36E
  8
AM_0
 10
605.44900000000007
 20
339.7480000000001
 30
0.0
 70
    32
  0
VERTEX
  5
1D36F
  8
AM_0
 10
606.48599999999999
 20
339.09100000000001
 30
0.0
 70
    32
  0
VERTEX
  5
1D370
  8
AM_0
 10
607.48900000000003
 20
338.38499999999999
 30
0.0
 70
    32
  0
VERTEX
  5
1D371
  8
AM_0
 10
608.45600000000002
 20
337.63
 30
0.0
 70
    32
  0
VERTEX
  5
1D372
  8
AM_0
 10
609.38599999999985
 20
336.82799999999997
 30
0.0
 70
    32
  0
VERTEX
  5
1D373
  8
AM_0
 10
610.27399999999989
 20
335.98200000000003
 30
0.0
 70
    32
  0
VERTEX
  5
1D374
  8
AM_0
 10
611.12
 20
335.09300000000002
 30
0.0
 70
    32
  0
VERTEX
  5
1D375
  8
AM_0
 10
611.92200000000003
 20
334.16399999999999
 30
0.0
 70
    32
  0
VERTEX
  5
1D376
  8
AM_0
 10
612.67700000000002
 20
333.197
 30
0.0
 70
    32
  0
VERTEX
  5
1D377
  8
AM_0
 10
613.38300000000004
 20
332.19400000000002
 30
0.0
 70
    32
  0
VERTEX
  5
1D378
  8
AM_0
 10
614.03999999999985
 20
331.15699999999998
 30
0.0
 70
    32
  0
VERTEX
  5
1D379
  8
AM_0
 10
614.64499999999987
 20
330.089
 30
0.0
 70
    32
  0
VERTEX
  5
1D37A
  8
AM_0
 10
615.19600000000003
 20
328.99299999999999
 30
0.0
 70
    32
  0
VERTEX
  5
1D37B
  8
AM_0
 10
615.69399999999985
 20
327.87099999999998
 30
0.0
 70
    32
  0
VERTEX
  5
1D37C
  8
AM_0
 10
616.13499999999988
 20
326.726
 30
0.0
 70
    32
  0
VERTEX
  5
1D37D
  8
AM_0
 10
616.51999999999987
 20
325.56099999999998
 30
0.0
 70
    32
  0
VERTEX
  5
1D37E
  8
AM_0
 10
616.84699999999998
 20
324.37900000000002
 30
0.0
 70
    32
  0
VERTEX
  5
1D37F
  8
AM_0
 10
617.11599999999999
 20
323.18099999999998
 30
0.0
 70
    32
  0
VERTEX
  5
1D380
  8
AM_0
 10
617.32599999999991
 20
321.97199999999998
 30
0.0
 70
    32
  0
VERTEX
  5
1D381
  8
AM_0
 10
617.476
 20
320.75400000000002
 30
0.0
 70
    32
  0
VERTEX
  5
1D382
  8
AM_0
 10
617.56600000000003
 20
319.53100000000001
 30
0.0
 70
    32
  0
VERTEX
  5
1D383
  8
AM_0
 10
617.59699999999987
 20
318.30399999999997
 30
0.0
 70
    32
  0
VERTEX
  5
1D384
  8
AM_0
 10
617.56600000000003
 20
317.077
 30
0.0
 70
    32
  0
VERTEX
  5
1D385
  8
AM_0
 10
617.476
 20
315.85399999999998
 30
0.0
 70
    32
  0
VERTEX
  5
1D386
  8
AM_0
 10
617.32599999999991
 20
314.63600000000002
 30
0.0
 70
    32
  0
VERTEX
  5
1D387
  8
AM_0
 10
617.11599999999999
 20
313.42700000000002
 30
0.0
 70
    32
  0
VERTEX
  5
1D388
  8
AM_0
 10
616.84699999999998
 20
312.22899999999998
 30
0.0
 70
    32
  0
VERTEX
  5
1D389
  8
AM_0
 10
616.51999999999987
 20
311.04700000000003
 30
0.0
 70
    32
  0
VERTEX
  5
1D38A
  8
AM_0
 10
616.13499999999988
 20
309.88200000000001
 30
0.0
 70
    32
  0
VERTEX
  5
1D38B
  8
AM_0
 10
615.69399999999985
 20
308.73700000000002
 30
0.0
 70
    32
  0
VERTEX
  5
1D38C
  8
AM_0
 10
615.19600000000003
 20
307.61500000000001
 30
0.0
 70
    32
  0
VERTEX
  5
1D38D
  8
AM_0
 10
614.64499999999987
 20
306.51900000000001
 30
0.0
 70
    32
  0
VERTEX
  5
1D38E
  8
AM_0
 10
614.03999999999985
 20
305.45100000000002
 30
0.0
 70
    32
  0
VERTEX
  5
1D38F
  8
AM_0
 10
613.38300000000004
 20
304.41399999999999
 30
0.0
 70
    32
  0
VERTEX
  5
1D390
  8
AM_0
 10
612.67700000000002
 20
303.411
 30
0.0
 70
    32
  0
VERTEX
  5
1D391
  8
AM_0
 10
611.92200000000003
 20
302.44400000000002
 30
0.0
 70
    32
  0
VERTEX
  5
1D392
  8
AM_0
 10
611.12
 20
301.51499999999999
 30
0.0
 70
    32
  0
VERTEX
  5
1D393
  8
AM_0
 10
610.27399999999989
 20
300.62599999999998
 30
0.0
 70
    32
  0
VERTEX
  5
1D394
  8
AM_0
 10
609.38599999999985
 20
299.77999999999997
 30
0.0
 70
    32
  0
VERTEX
  5
1D395
  8
AM_0
 10
608.45600000000002
 20
298.97800000000001
 30
0.0
 70
    32
  0
VERTEX
  5
1D396
  8
AM_0
 10
607.48900000000003
 20
298.22300000000001
 30
0.0
 70
    32
  0
VERTEX
  5
1D397
  8
AM_0
 10
606.48599999999999
 20
297.517
 30
0.0
 70
    32
  0
VERTEX
  5
1D398
  8
AM_0
 10
605.44900000000007
 20
296.86000000000001
 30
0.0
 70
    32
  0
VERTEX
  5
1D399
  8
AM_0
 10
604.38099999999986
 20
296.25599999999997
 30
0.0
 70
    32
  0
VERTEX
  5
1D39A
  8
AM_0
 10
603.28499999999985
 20
295.70400000000001
 30
0.0
 70
    32
  0
VERTEX
  5
1D39B
  8
AM_0
 10
602.16399999999987
 20
295.20699999999999
 30
0.0
 70
    32
  0
VERTEX
  5
1D39C
  8
AM_0
 10
601.01900000000001
 20
294.76499999999999
 30
0.0
 70
    32
  0
VERTEX
  5
1D39D
  8
AM_0
 10
599.85400000000004
 20
294.38
 30
0.0
 70
    32
  0
VERTEX
  5
1D39E
  8
AM_0
 10
598.67099999999994
 20
294.053
 30
0.0
 70
    32
  0
VERTEX
  5
1D39F
  8
AM_0
 10
597.47400000000005
 20
293.78399999999999
 30
0.0
 70
    32
  0
VERTEX
  5
1D3A0
  8
AM_0
 10
596.26499999999999
 20
293.57400000000001
 30
0.0
 70
    32
  0
VERTEX
  5
1D3A1
  8
AM_0
 10
595.04700000000003
 20
293.42399999999998
 30
0.0
 70
    32
  0
VERTEX
  5
1D3A2
  8
AM_0
 10
593.82299999999987
 20
293.334
 30
0.0
 70
    32
  0
VERTEX
  5
1D3A3
  8
AM_0
 10
592.59699999999987
 20
293.303
 30
0.0
 70
    32
  0
VERTEX
  5
1D3A4
  8
AM_0
 10
591.37
 20
293.334
 30
0.0
 70
    32
  0
VERTEX
  5
1D3A5
  8
AM_0
 10
590.14599999999984
 20
293.42399999999998
 30
0.0
 70
    32
  0
VERTEX
  5
1D3A6
  8
AM_0
 10
588.928
 20
293.57400000000001
 30
0.0
 70
    32
  0
VERTEX
  5
1D3A7
  8
AM_0
 10
587.71900000000005
 20
293.78399999999999
 30
0.0
 70
    32
  0
VERTEX
  5
1D3A8
  8
AM_0
 10
586.52199999999993
 20
294.053
 30
0.0
 70
    32
  0
VERTEX
  5
1D3A9
  8
AM_0
 10
585.33900000000006
 20
294.38
 30
0.0
 70
    32
  0
VERTEX
  5
1D3AA
  8
AM_0
 10
584.17399999999986
 20
294.76499999999999
 30
0.0
 70
    32
  0
VERTEX
  5
1D3AB
  8
AM_0
 10
583.02899999999988
 20
295.20699999999999
 30
0.0
 70
    32
  0
VERTEX
  5
1D3AC
  8
AM_0
 10
581.90800000000002
 20
295.70400000000001
 30
0.0
 70
    32
  0
VERTEX
  5
1D3AD
  8
AM_0
 10
580.81200000000001
 20
296.25599999999997
 30
0.0
 70
    32
  0
VERTEX
  5
1D3AE
  8
AM_0
 10
579.74400000000003
 20
296.86000000000001
 30
0.0
 70
    32
  0
VERTEX
  5
1D3AF
  8
AM_0
 10
578.70699999999988
 20
297.517
 30
0.0
 70
    32
  0
VERTEX
  5
1D3B0
  8
AM_0
 10
577.70399999999995
 20
298.22300000000001
 30
0.0
 70
    32
  0
VERTEX
  5
1D3B1
  8
AM_0
 10
576.73699999999985
 20
298.97800000000001
 30
0.0
 70
    32
  0
VERTEX
  5
1D3B2
  8
AM_0
 10
575.80799999999988
 20
299.77999999999997
 30
0.0
 70
    32
  0
VERTEX
  5
1D3B3
  8
AM_0
 10
574.91899999999987
 20
300.62599999999998
 30
0.0
 70
    32
  0
VERTEX
  5
1D3B4
  8
AM_0
 10
574.07299999999998
 20
301.51499999999999
 30
0.0
 70
    32
  0
VERTEX
  5
1D3B5
  8
AM_0
 10
573.27099999999984
 20
302.44400000000002
 30
0.0
 70
    32
  0
VERTEX
  5
1D3B6
  8
AM_0
 10
572.51599999999985
 20
303.411
 30
0.0
 70
    32
  0
VERTEX
  5
1D3B7
  8
AM_0
 10
571.80999999999995
 20
304.41399999999999
 30
0.0
 70
    32
  0
VERTEX
  5
1D3B8
  8
AM_0
 10
571.15300000000002
 20
305.45100000000002
 30
0.0
 70
    32
  0
VERTEX
  5
1D3B9
  8
AM_0
 10
570.54899999999998
 20
306.51900000000001
 30
0.0
 70
    32
  0
VERTEX
  5
1D3BA
  8
AM_0
 10
569.99699999999984
 20
307.61500000000001
 30
0.0
 70
    32
  0
VERTEX
  5
1D3BB
  8
AM_0
 10
569.5
 20
308.73700000000002
 30
0.0
 70
    32
  0
VERTEX
  5
1D3BC
  8
AM_0
 10
569.05799999999988
 20
309.88200000000001
 30
0.0
 70
    32
  0
VERTEX
  5
1D3BD
  8
AM_0
 10
568.67299999999989
 20
311.04700000000003
 30
0.0
 70
    32
  0
VERTEX
  5
1D3BE
  8
AM_0
 10
568.346
 20
312.22899999999998
 30
0.0
 70
    32
  0
VERTEX
  5
1D3BF
  8
AM_0
 10
568.07699999999988
 20
313.42700000000002
 30
0.0
 70
    32
  0
VERTEX
  5
1D3C0
  8
AM_0
 10
567.86699999999985
 20
314.63600000000002
 30
0.0
 70
    32
  0
VERTEX
  5
1D3C1
  8
AM_0
 10
567.71699999999998
 20
315.85399999999998
 30
0.0
 70
    32
  0
VERTEX
  5
1D3C2
  8
AM_0
 10
567.62699999999995
 20
317.077
 30
0.0
 70
    32
  0
VERTEX
  5
1D3C3
  8
AM_0
 10
567.59699999999987
 20
318.30399999999997
 30
0.0
 70
    32
  0
SEQEND
  5
1D3C4
  8
AM_0
  0
LINE
  5
18D51
  8
0
 10
565.62427640704675
 20
207.30398187140361
 30
0.0
 11
674.56879251435839
 21
207.30398187140361
 31
0.0
  0
LINE
  5
18D5A
  8
ﾁｭｳｼﾝｾﾝ1
 10
1063.46
 20
318.3039818714031
 30
0.0
 11
505.59654663400431
 21
318.30398187140293
 31
0.0
  0
LINE
  5
18D5E
  8
0
 10
547.59652002972678
 20
201.30398187140361
 30
0.0
 11
692.59654889167837
 21
201.30398187140361
 31
0.0
  0
LINE
  5
18D5F
  8
0
  6
CONTINUOUS
 62
     7
 10
569.35387934260723
 20
244.3039818714031
 30
0.0
 11
531.59654663400431
 21
244.3039818714031
 31
0.0
  0
LINE
  5
18D60
  8
0
 10
560.96506225248845
 20
227.42988340704559
 30
0.0
 11
575.71784037328689
 21
242.182661527844
 31
0.0
  0
LINE
  5
18D61
  8
0
 10
556.72242156536913
 20
231.672524094165
 30
0.0
 11
571.4751996861678
 21
246.42530221496361
 31
0.0
  0
CIRCLE
  5
18D62
  8
0
 10
592.59654889167837
 20
318.30398187140293
 30
0.0
 40
50.0
  0
LINE
  5
18D63
  8
0
 10
547.59652002972678
 20
435.30398187140281
 30
0.0
 11
692.59654889167882
 21
435.30398187140281
 31
0.0
  0
LINE
  5
18D65
  8
0
  6
CONTINUOUS
 62
     7
 10
569.35387934260825
 20
392.3039818714027
 30
0.0
 11
531.59654663400431
 21
392.3039818714027
 31
0.0
  0
LINE
  5
18D66
  8
0
 10
560.96506225248856
 20
409.17808033576063
 30
0.0
 11
575.71784037328712
 21
394.42530221496219
 31
0.0
  0
LINE
  5
18D67
  8
0
 10
556.72242156536913
 20
404.93543964864102
 30
0.0
 11
571.4751996861678
 21
390.18266152784321
 31
0.0
  0
ARC
  5
18D82
  8
0
 10
526.59654663400386
 20
367.39801027779367
 30
0.0
 40
5.0
 50
69.332681879990645
 51
180.0
1001
GENIUS_GENOBJ-N-FIL_13
1002
{
1000
OWNER
1000
GEN
1002
}
1001
GENIUS_GENODEF_13
1002
{
1000
HIER
1070
     0
1002
}
1002
{
1000
MANEDIT
1070
     0
1002
}
1002
{
1000
NOSEL
1070
     0
1002
}
1002
{
1000
BEHIND
1070
     0
1002
}
1002
{
1000
OTHER
1070
     0
1002
}
1002
{
1000
REACTOR
1002
}
  0
ARC
  5
18D83
  8
0
 10
532.59654708553899
 20
383.3039838280539
 30
0.0
 40
12.0
 50
249.33268187999059
 51
13.60895384571479
  0
LINE
  5
18D86
  8
ﾁｭｳｼﾝｾﾝ1
 10
270.04498948709352
 20
192.8825048961657
 30
0.0
 11
270.04498941309771
 21
416.7319833462011
 31
0.0
  0
LINE
  5
18D87
  8
AM_0
 10
211.04498765807469
 20
240.04949343177711
 30
0.0
 11
211.04498765807469
 21
396.55847031102928
 31
0.0
  0
LINE
  5
18D89
  8
AM_0
 10
304.04499066830681
 20
238.4261654373386
 30
0.0
 11
304.04499066830692
 21
398.18179830546802
 31
0.0
  0
LINE
  5
18D8B
  8
AM_0
 10
370.04498943411153
 20
201.30398187140329
 30
0.0
 11
370.04498943411153
 21
435.30398187140281
 31
0.0
  0
LINE
  5
18D8F
  8
AM_0
 10
515.59654663400431
 20
383.30398382805458
 30
0.0
 11
515.59654663400431
 21
253.3039799147526
 31
0.0
  0
LINE
  5
18D90
  8
AM_0
 10
521.59654663400431
 20
383.30398382805458
 30
0.0
 11
521.59654663400431
 21
253.3039799147526
 31
0.0
  0
LINE
  5
18D98
  8
AM_0
 10
211.04498765807469
 20
240.04949343177711
 30
0.0
 11
304.04499066830681
 21
238.4261654373386
 31
0.0
  0
LINE
  5
18D9A
  8
ﾁｭｳｼﾝｾﾝ1
 10
380.04498943411153
 20
318.30398187140281
 30
0.0
 11
184.496361342927
 21
318.30398187140321
 31
0.0
  0
LINE
  5
18DA4
  8
0
 10
208.54498765807469
 20
265.30397991475218
 30
0.0
 11
208.54498765807469
 21
241.3039799147522
 31
0.0
  0
LINE
  5
18DA5
  8
0
 10
196.5449876580746
 20
262.30397991475218
 30
0.0
 11
196.5449876580746
 21
244.3039799147522
 31
0.0
  0
LINE
  5
18DA9
  8
0
 10
196.5449876580746
 20
244.3039799147522
 30
0.0
 11
208.54498765807469
 21
244.3039799147522
 31
0.0
  0
LINE
  5
18DAA
  8
0
 10
208.54498765807469
 20
241.3039799147522
 30
0.0
 11
211.04498765807469
 21
241.3039799147522
 31
0.0
  0
LINE
  5
18DB9
  8
AM_0
 10
201.04498735705141
 20
343.30398262396147
 30
0.0
 11
201.04498735705141
 21
293.3039811188454
 31
0.0
  0
LINE
  5
18DBA
  8
AM_0
 10
206.04498750756261
 20
368.30398307849589
 30
0.0
 11
206.0449875075625
 21
268.3039806643103
 31
0.0
  0
LINE
  5
18DBD
  8
AM_0
 10
208.54498765807469
 20
262.30397991475218
 30
0.0
 11
196.5449876580746
 21
262.30397991475218
 31
0.0
  0
LINE
  5
18DBF
  8
AM_0
 10
211.04498765807469
 20
265.30397991475218
 30
0.0
 11
208.54498765807469
 21
265.30397991475218
 31
0.0
  0
LINE
  5
18DC1
  8
AM_0
 10
206.0449875075625
 20
268.3039806643103
 30
0.0
 11
211.04498765807469
 21
268.3039806643103
 31
0.0
  0
LINE
  5
18DCD
  8
AM_0
 10
206.04498750756289
 20
293.3039811188454
 30
0.0
 11
201.04498735705141
 21
293.3039811188454
 31
0.0
  0
LINE
  5
18DDF
  8
AM_0
 10
206.04498750756289
 20
343.30398262396147
 30
0.0
 11
201.04498735705141
 21
343.30398262396147
 31
0.0
  0
LINE
  5
18DE5
  8
AM_0
 10
206.04498750756261
 20
368.30398307849589
 30
0.0
 11
211.04498765807469
 21
368.30398307849589
 31
0.0
  0
LINE
  5
18DF0
  8
AM_0
 10
370.04498943411153
 20
201.30398187140329
 30
0.0
 11
346.97519044070623
 21
202.1095970042729
 31
0.0
  0
LINE
  5
18DF1
  8
ﾁｭｳｼﾝｾﾝ1
 10
342.03820008438572
 20
218.30398187140241
 30
0.0
 11
373.67919333915398
 21
218.30398187140261
 31
0.0
  0
LINE
  5
18DFB
  8
AM_0
 10
345.04498943411159
 20
204.1083786583111
 30
0.0
 11
345.04498943411159
 21
234.7623935753933
 31
0.0
  0
ARC
  5
18DFD
  8
0
 10
347.04498943411159
 20
204.1083786583111
 30
0.0
 40
2.0
 50
180.0
 51
267.9999999999996
1001
GENIUS_GENOBJ-N-FIL_13
1002
{
1000
OWNER
1000
GEN
1002
}
1001
GENIUS_GENODEF_13
1002
{
1000
HIER
1070
     0
1002
}
1002
{
1000
MANEDIT
1070
     0
1002
}
1002
{
1000
NOSEL
1070
     0
1002
}
1002
{
1000
BEHIND
1070
     0
1002
}
1002
{
1000
OTHER
1070
     0
1002
}
1002
{
1000
REACTOR
1002
}
  0
LINE
  5
18E00
  8
AM_0
 10
304.04499066830681
 20
238.4261654373386
 30
0.0
 11
342.09734876944111
 21
237.76193662392669
 31
0.0
  0
ARC
  5
18E03
  8
AM_0
 10
342.04498943411159
 20
234.7623935753933
 30
0.0
 40
3.0
 50
0.0
 51
88.999959580874275
1001
GENIUS_GENOBJ-N-FIL_13
1002
{
1000
OWNER
1000
GEN
1002
}
1001
GENIUS_GENODEF_13
1002
{
1000
HIER
1070
     0
1002
}
1002
{
1000
MANEDIT
1070
     0
1002
}
1002
{
1000
NOSEL
1070
     0
1002
}
1002
{
1000
BEHIND
1070
     0
1002
}
1002
{
1000
OTHER
1070
     0
1002
}
1002
{
1000
REACTOR
1002
}
  0
CIRCLE
  5
18E20
  8
0
 10
532.59654708553899
 20
253.30397991475249
 30
0.0
 40
5.0
  0
ARC
  5
18E21
  8
0
 10
532.59654708553899
 20
253.30397991475249
 30
0.0
 40
12.0
 50
346.39104615428522
 51
110.6673181200093
  0
CIRCLE
  5
18E22
  8
ｷｲﾛ
 10
532.59654708553899
 20
253.30397991475249
 30
0.0
 40
6.0
  0
LINE
  5
18E27
  8
0
 10
531.97105036100163
 20
211.60736349854221
 30
0.0
 11
516.97107700178776
 21
246.60736136402321
 31
0.0
  0
LINE
  5
18E28
  8
0
 10
530.38445115126774
 20
230.5410029518446
 30
0.0
 11
522.48594864957295
 21
248.97087373091551
 31
0.0
  0
ARC
  5
18E29
  8
0
 10
531.5965466340042
 20
254.30398187140329
 30
0.0
 40
10.0
 50
180.0
 51
270.0
1001
GENIUS_GENOBJ-N-FIL_13
1002
{
1000
OWNER
1000
GEN
1002
}
1001
GENIUS_GENODEF_13
1002
{
1000
HIER
1070
     0
1002
}
1002
{
1000
MANEDIT
1070
     0
1002
}
1002
{
1000
NOSEL
1070
     0
1002
}
1002
{
1000
BEHIND
1070
     0
1002
}
1002
{
1000
OTHER
1070
     0
1002
}
1002
{
1000
REACTOR
1002
}
  0
ARC
  5
18E2A
  8
AM_0
 10
532.59654708553899
 20
253.30397991475269
 30
0.0
 40
11.000000451534831
 50
180.0
 51
203.19855493455009
  0
ARC
  5
18E2B
  8
AM_0
 10
532.59654708553899
 20
253.30397991475269
 30
0.0
 40
17.000000451534831
 50
180.0
 51
203.19855493455009
  0
ARC
  5
18E2C
  8
0
 10
563.086382596048
 20
225.30856306348639
 30
0.0
 40
3.0
 50
135.00000000000421
 51
204.3326835064922
1001
GENIUS_GENOBJ-N-FIL_13
1002
{
1000
OWNER
1000
GEN
1002
}
1001
GENIUS_GENODEF_13
1002
{
1000
HIER
1070
     0
1002
}
1002
{
1000
MANEDIT
1070
     0
1002
}
1002
{
1000
NOSEL
1070
     0
1002
}
1002
{
1000
BEHIND
1070
     0
1002
}
1002
{
1000
OTHER
1070
     0
1002
}
1002
{
1000
REACTOR
1002
}
  0
ARC
  5
18E2E
  8
0
 10
547.59652002972678
 20
218.30398187140301
 30
0.0
 40
14.0
 50
341.591519829417
 51
131.60703510513599
  0
ARC
  5
18E2F
  8
0
 10
547.59652002972678
 20
218.30398187140369
 30
0.0
 40
16.999999999999702
 50
203.19855493455009
 51
270.0
  0
CIRCLE
  5
18E31
  8
0
 10
547.59652002972678
 20
218.30398187140369
 30
0.0
 40
7.0
  0
ARC
  5
18E32
  8
0
 10
565.62427640704675
 20
212.30398187140369
 30
0.0
 40
5.0
 50
161.591519829417
 51
270.0
1001
GENIUS_GENOBJ-N-FIL_13
1002
{
1000
OWNER
1000
GEN
1002
}
1001
GENIUS_GENODEF_13
1002
{
1000
HIER
1070
     0
1002
}
1002
{
1000
MANEDIT
1070
     0
1002
}
1002
{
1000
NOSEL
1070
     0
1002
}
1002
{
1000
BEHIND
1070
     0
1002
}
1002
{
1000
OTHER
1070
     0
1002
}
1002
{
1000
REACTOR
1002
}
  0
ARC
  5
18E33
  8
0
 10
549.11925920108479
 20
249.30398187140349
 30
0.0
 40
5.0
 50
166.39104615428519
 51
270.0
1001
GENIUS_GENOBJ-N-FIL_13
1002
{
1000
OWNER
1000
GEN
1002
}
1001
GENIUS_GENODEF_13
1002
{
1000
HIER
1070
     0
1002
}
1002
{
1000
MANEDIT
1070
     0
1002
}
1002
{
1000
NOSEL
1070
     0
1002
}
1002
{
1000
BEHIND
1070
     0
1002
}
1002
{
1000
OTHER
1070
     0
1002
}
1002
{
1000
REACTOR
1002
}
  0
ARC
  5
18E34
  8
0
 10
534.98017752442206
 20
232.51059659092201
 30
0.0
 40
5.0
 50
203.19855493455009
 51
311.60703510513599
1001
GENIUS_GENOBJ-N-FIL_13
1002
{
1000
OWNER
1000
GEN
1002
}
1001
GENIUS_GENODEF_13
1002
{
1000
HIER
1070
     0
1002
}
1002
{
1000
MANEDIT
1070
     0
1002
}
1002
{
1000
NOSEL
1070
     0
1002
}
1002
{
1000
BEHIND
1070
     0
1002
}
1002
{
1000
OTHER
1070
     0
1002
}
1002
{
1000
REACTOR
1002
}
  0
ARC
  5
18E35
  8
0
 10
554.60110122180936
 20
233.793844437725
 30
0.0
 40
3.0
 50
245.66731649351581
 51
315.00000000000432
1001
GENIUS_GENODEF_13
1002
{
1000
HIER
1070
     0
1002
}
1002
{
1000
MANEDIT
1070
     0
1002
}
1002
{
1000
NOSEL
1070
     0
1002
}
1002
{
1000
BEHIND
1070
     0
1002
}
1002
{
1000
OTHER
1070
     0
1002
}
1002
{
1000
REACTOR
1002
}
1001
GENIUS_GENOBJ-N-FIL_13
1002
{
1000
OWNER
1000
GEN
1002
}
  0
ARC
  5
18E38
  8
0
 10
524.5965466340042
 20
299.30398187140321
 30
0.0
 40
3.0
 50
180.0
 51
270.0
1001
GENIUS_GENODEF_13
1002
{
1000
HIER
1070
     0
1002
}
1002
{
1000
MANEDIT
1070
     0
1002
}
1002
{
1000
NOSEL
1070
     0
1002
}
1002
{
1000
BEHIND
1070
     0
1002
}
1002
{
1000
OTHER
1070
     0
1002
}
1002
{
1000
REACTOR
1002
}
1001
GENIUS_GENOBJ-N-FIL_13
1002
{
1000
OWNER
1000
GEN
1002
}
  0
ARC
  5
18E39
  8
0
 10
524.5965466340042
 20
287.30398187140321
 30
0.0
 40
3.0
 50
90.0
 51
180.0
1001
GENIUS_GENODEF_13
1002
{
1000
HIER
1070
     0
1002
}
1002
{
1000
MANEDIT
1070
     0
1002
}
1002
{
1000
NOSEL
1070
     0
1002
}
1002
{
1000
BEHIND
1070
     0
1002
}
1002
{
1000
OTHER
1070
     0
1002
}
1002
{
1000
REACTOR
1002
}
1001
GENIUS_GENOBJ-N-FIL_13
1002
{
1000
OWNER
1000
GEN
1002
}
  0
ARC
  5
18E3A
  8
0
 10
526.59654663400386
 20
269.20995346501292
 30
0.0
 40
5.0
 50
180.0
 51
290.66731812000938
1001
GENIUS_GENOBJ-N-FIL_13
1002
{
1000
OWNER
1000
GEN
1002
}
1001
GENIUS_GENODEF_13
1002
{
1000
HIER
1070
     0
1002
}
1002
{
1000
MANEDIT
1070
     0
1002
}
1002
{
1000
NOSEL
1070
     0
1002
}
1002
{
1000
BEHIND
1070
     0
1002
}
1002
{
1000
OTHER
1070
     0
1002
}
1002
{
1000
REACTOR
1002
}
  0
ARC
  5
18E3B
  8
0
 10
524.59878588611264
 20
293.30398270711157
 30
0.0
 40
3.0000000000000631
 50
270.0
 51
89.99999999999838
  0
ARC
  5
18E3C
  8
0
 10
524.5965466340042
 20
337.30398187140321
 30
0.0
 40
3.0
 50
90.0
 51
180.0
1001
GENIUS_GENODEF_13
1002
{
1000
HIER
1070
     0
1002
}
1002
{
1000
MANEDIT
1070
     0
1002
}
1002
{
1000
NOSEL
1070
     0
1002
}
1002
{
1000
BEHIND
1070
     0
1002
}
1002
{
1000
OTHER
1070
     0
1002
}
1002
{
1000
REACTOR
1002
}
1001
GENIUS_GENOBJ-N-FIL_13
1002
{
1000
OWNER
1000
GEN
1002
}
  0
ARC
  5
18E3D
  8
0
 10
524.5965466340042
 20
349.30398187140332
 30
0.0
 40
3.0
 50
180.0
 51
270.0
1001
GENIUS_GENODEF_13
1002
{
1000
HIER
1070
     0
1002
}
1002
{
1000
MANEDIT
1070
     0
1002
}
1002
{
1000
NOSEL
1070
     0
1002
}
1002
{
1000
BEHIND
1070
     0
1002
}
1002
{
1000
OTHER
1070
     0
1002
}
1002
{
1000
REACTOR
1002
}
1001
GENIUS_GENOBJ-N-FIL_13
1002
{
1000
OWNER
1000
GEN
1002
}
  0
ARC
  5
18E3E
  8
0
 10
524.5965466340042
 20
343.30398187140321
 30
0.0
 40
3.0000000000000631
 50
270.0
 51
89.99999999999838
  0
LINE
  5
18E42
  8
AM_0
 10
211.04498765807469
 20
396.55847031102928
 30
0.0
 11
304.04499066830692
 21
398.18179830546802
 31
0.0
  0
LINE
  5
18E46
  8
0
 10
208.54498765807469
 20
371.30398382805419
 30
0.0
 11
208.54498765807469
 21
395.3039838280543
 31
0.0
  0
LINE
  5
18E47
  8
0
 10
196.5449876580746
 20
374.30398382805419
 30
0.0
 11
196.5449876580746
 21
392.30398382805419
 31
0.0
  0
LINE
  5
18E48
  8
AM_0
 10
208.54498765807469
 20
374.30398382805419
 30
0.0
 11
196.5449876580746
 21
374.30398382805419
 31
0.0
  0
LINE
  5
18E49
  8
AM_0
 10
211.04498765807469
 20
371.30398382805419
 30
0.0
 11
208.54498765807469
 21
371.30398382805419
 31
0.0
  0
LINE
  5
18E4A
  8
0
 10
196.5449876580746
 20
392.30398382805419
 30
0.0
 11
208.54498765807469
 21
392.30398382805419
 31
0.0
  0
LINE
  5
18E4B
  8
0
 10
208.54498765807469
 20
395.3039838280543
 30
0.0
 11
211.04498765807469
 21
395.3039838280543
 31
0.0
  0
LINE
  5
18E4F
  8
AM_0
 10
370.04498943411153
 20
435.30398187140281
 30
0.0
 11
346.97519044070623
 21
434.4983667385336
 31
0.0
  0
LINE
  5
18E51
  8
ﾁｭｳｼﾝｾﾝ1
 10
342.03820008438572
 20
418.30398187140321
 30
0.0
 11
373.67919333915398
 21
418.30398187140281
 31
0.0
  0
LINE
  5
18E53
  8
AM_0
 10
345.04498943411107
 20
401.8455175205977
 30
0.0
 11
345.04498943411159
 21
432.49958508449532
 31
0.0
  0
ARC
  5
18E54
  8
AM_0
 10
342.04498943411107
 20
401.8455175205977
 30
0.0
 40
3.0
 50
270.99994330824478
 51
0.0
1001
GENIUS_GENOBJ-N-FIL_13
1002
{
1000
OWNER
1000
GEN
1002
}
1001
GENIUS_GENODEF_13
1002
{
1000
HIER
1070
     0
1002
}
1002
{
1000
MANEDIT
1070
     0
1002
}
1002
{
1000
NOSEL
1070
     0
1002
}
1002
{
1000
BEHIND
1070
     0
1002
}
1002
{
1000
OTHER
1070
     0
1002
}
1002
{
1000
REACTOR
1002
}
  0
LINE
  5
18E57
  8
AM_0
 10
304.04499066830692
 20
398.18179830546802
 30
0.0
 11
342.0973436855017
 21
398.84597438332497
 31
0.0
  0
ARC
  5
18E5A
  8
0
 10
347.04498943411159
 20
432.49958508449532
 30
0.0
 40
2.0
 50
92.000000000000426
 51
180.0
1001
GENIUS_GENODEF_13
1002
{
1000
HIER
1070
     0
1002
}
1002
{
1000
MANEDIT
1070
     0
1002
}
1002
{
1000
NOSEL
1070
     0
1002
}
1002
{
1000
BEHIND
1070
     0
1002
}
1002
{
1000
OTHER
1070
     0
1002
}
1002
{
1000
REACTOR
1002
}
1001
GENIUS_GENOBJ-N-FIL_13
1002
{
1000
OWNER
1000
GEN
1002
}
  0
ARC
  5
18E68
  8
0
 10
547.59652002972678
 20
418.30398187140321
 30
0.0
 40
16.999999999999702
 50
90.0
 51
156.80144506544991
  0
LINE
  5
18E69
  8
ﾁｭｳｼﾝｾﾝ1
 10
547.59652002972678
 20
403.30398187140332
 30
0.0
 11
547.59652002972678
 21
433.3039818714031
 31
0.0
  0
ARC
  5
18E6A
  8
0
 10
565.62427640704675
 20
424.30398187140281
 30
0.0
 40
5.0
 50
90.0
 51
198.40848017058289
1001
GENIUS_GENOBJ-N-FIL_13
1002
{
1000
OWNER
1000
GEN
1002
}
1001
GENIUS_GENODEF_13
1002
{
1000
HIER
1070
     0
1002
}
1002
{
1000
MANEDIT
1070
     0
1002
}
1002
{
1000
NOSEL
1070
     0
1002
}
1002
{
1000
BEHIND
1070
     0
1002
}
1002
{
1000
OTHER
1070
     0
1002
}
1002
{
1000
REACTOR
1002
}
  0
LINE
  5
18E6B
  8
0
 10
530.38445115126774
 20
406.0669607909611
 30
0.0
 11
522.48594864957317
 21
387.63709001189079
 31
0.0
  0
ARC
  5
18E6C
  8
0
 10
531.5965466340042
 20
382.30398187140281
 30
0.0
 40
10.0
 50
90.0
 51
180.0
1001
GENIUS_GENODEF_13
1002
{
1000
HIER
1070
     0
1002
}
1002
{
1000
MANEDIT
1070
     0
1002
}
1002
{
1000
NOSEL
1070
     0
1002
}
1002
{
1000
BEHIND
1070
     0
1002
}
1002
{
1000
OTHER
1070
     0
1002
}
1002
{
1000
REACTOR
1002
}
1001
GENIUS_GENOBJ-N-FIL_13
1002
{
1000
OWNER
1000
GEN
1002
}
  0
LINE
  5
18E6D
  8
0
 10
531.97105036100197
 20
425.00060024426449
 30
0.0
 11
516.97107700178776
 21
390.00060237878358
 31
0.0
  0
ARC
  5
18E6E
  8
AM_0
 10
532.59654708553899
 20
383.3039838280543
 30
0.0
 40
11.000000451534831
 50
156.80144506544991
 51
180.0
  0
ARC
  5
18E6F
  8
AM_0
 10
532.59654708553899
 20
383.3039838280543
 30
0.0
 40
17.000000451534831
 50
156.80144506544991
 51
180.0
  0
ARC
  5
18E70
  8
0
 10
549.11925920108479
 20
387.30398187140281
 30
0.0
 40
5.0
 50
90.0
 51
193.60895384571481
1001
GENIUS_GENOBJ-N-FIL_13
1002
{
1000
OWNER
1000
GEN
1002
}
1001
GENIUS_GENODEF_13
1002
{
1000
HIER
1070
     0
1002
}
1002
{
1000
MANEDIT
1070
     0
1002
}
1002
{
1000
NOSEL
1070
     0
1002
}
1002
{
1000
BEHIND
1070
     0
1002
}
1002
{
1000
OTHER
1070
     0
1002
}
1002
{
1000
REACTOR
1002
}
  0
CIRCLE
  5
18E71
  8
0
 10
532.59654708553899
 20
383.30398382805458
 30
0.0
 40
5.0
  0
CIRCLE
  5
18E72
  8
ｷｲﾛ
 10
532.59654708553899
 20
383.30398382805458
 30
0.0
 40
6.0
  0
LINE
  5
18E73
  8
ﾁｭｳｼﾝｾﾝ1
 10
532.59652002972655
 20
418.30398187140281
 30
0.0
 11
562.59652002972689
 21
418.30398187140281
 31
0.0
  0
CIRCLE
  5
18E75
  8
0
 10
547.59652002972678
 20
418.30398187140321
 30
0.0
 40
7.0
  0
ARC
  5
18E76
  8
0
 10
547.59652002972678
 20
418.30398187140321
 30
0.0
 40
14.0
 50
228.39296489486389
 51
18.40848017058293
  0
ARC
  5
18E77
  8
0
 10
534.98017752442252
 20
404.09736715188461
 30
0.0
 40
5.0
 50
48.392964894863901
 51
156.80144506544991
1001
GENIUS_GENOBJ-N-FIL_13
1002
{
1000
OWNER
1000
GEN
1002
}
1001
GENIUS_GENODEF_13
1002
{
1000
HIER
1070
     0
1002
}
1002
{
1000
MANEDIT
1070
     0
1002
}
1002
{
1000
NOSEL
1070
     0
1002
}
1002
{
1000
BEHIND
1070
     0
1002
}
1002
{
1000
OTHER
1070
     0
1002
}
1002
{
1000
REACTOR
1002
}
  0
ARC
  5
18E78
  8
0
 10
554.60110122180936
 20
402.81411930508159
 30
0.0
 40
3.0
 50
44.99999999999568
 51
114.3326835064841
1001
GENIUS_GENODEF_13
1002
{
1000
HIER
1070
     0
1002
}
1002
{
1000
MANEDIT
1070
     0
1002
}
1002
{
1000
NOSEL
1070
     0
1002
}
1002
{
1000
BEHIND
1070
     0
1002
}
1002
{
1000
OTHER
1070
     0
1002
}
1002
{
1000
REACTOR
1002
}
1001
GENIUS_GENOBJ-N-FIL_13
1002
{
1000
OWNER
1000
GEN
1002
}
  0
ARC
  5
18E79
  8
0
 10
563.086382596048
 20
411.29940067932051
 30
0.0
 40
3.0
 50
155.6673164935076
 51
224.99999999999571
1001
GENIUS_GENOBJ-N-FIL_13
1002
{
1000
OWNER
1000
GEN
1002
}
1001
GENIUS_GENODEF_13
1002
{
1000
HIER
1070
     0
1002
}
1002
{
1000
MANEDIT
1070
     0
1002
}
1002
{
1000
NOSEL
1070
     0
1002
}
1002
{
1000
BEHIND
1070
     0
1002
}
1002
{
1000
OTHER
1070
     0
1002
}
1002
{
1000
REACTOR
1002
}
  0
ARC
  5
18E82
  8
0
 10
713.59652228740083
 20
367.39801027779367
 30
0.0
 40
5.0
 50
0.0
 51
110.6673181200093
1001
GENIUS_GENODEF_13
1002
{
1000
HIER
1070
     0
1002
}
1002
{
1000
MANEDIT
1070
     0
1002
}
1002
{
1000
NOSEL
1070
     0
1002
}
1002
{
1000
BEHIND
1070
     0
1002
}
1002
{
1000
OTHER
1070
     0
1002
}
1002
{
1000
REACTOR
1002
}
1001
GENIUS_GENOBJ-N-FIL_13
1002
{
1000
OWNER
1000
GEN
1002
}
  0
ARC
  5
18E83
  8
0
 10
707.5965218358665
 20
383.3039838280539
 30
0.0
 40
12.0
 50
166.39104615428519
 51
290.66731812000938
  0
LINE
  5
18E84
  8
ﾁｭｳｼﾝｾﾝ1
 10
592.59654889167837
 20
445.30398187140281
 30
0.0
 11
592.59654889167837
 21
191.30398187140321
 31
0.0
  0
LINE
  5
18E85
  8
AM_0
 10
745.09652229415133
 20
388.80537732699918
 30
0.0
 11
745.09652229415053
 21
318.30398187140321
 31
0.0
  0
LINE
  5
18E86
  8
AM_0
 10
759.09652229835126
 20
391.80545187140331
 30
0.0
 11
759.09652229835103
 21
318.30398187140321
 31
0.0
  0
ARC
  5
18E87
  8
AM_0
 10
335.43799571725492
 20
318.30398187140861
 30
0.0
 40
397.24800335969718
 50
353.33928567968309
 51
6.6607143203167842
  0
LINE
  5
18E88
  8
AM_0
 10
724.59652228740106
 20
383.30398382805458
 30
0.0
 11
724.59652228740083
 21
253.3039799147526
 31
0.0
  0
LINE
  5
18E89
  8
AM_0
 10
718.59652228740117
 20
383.30398382805458
 30
0.0
 11
718.59652228740083
 21
253.3039799147526
 31
0.0
  0
LINE
  5
18E8A
  8
AM_0
 10
729.68599907689304
 20
272.5752632323946
 30
0.0
 11
729.68599907689179
 21
364.03270051041159
 31
0.0
  0
POLYLINE
  5
18E98
  8
AM_0
 66
     1
 10
0.0
 20
0.0
 30
0.0
 70
     8
  0
VERTEX
  5
1D3C5
  8
AM_0
 10
748.09699999999998
 20
244.803
 30
0.0
 70
    32
  0
VERTEX
  5
1D3C6
  8
AM_0
 10
748.08000000000004
 20
244.803
 30
0.0
 70
    32
  0
VERTEX
  5
1D3C7
  8
AM_0
 10
748.06299999999987
 20
244.803
 30
0.0
 70
    32
  0
VERTEX
  5
1D3C8
  8
AM_0
 10
748.04600000000005
 20
244.803
 30
0.0
 70
    32
  0
VERTEX
  5
1D3C9
  8
AM_0
 10
748.029
 20
244.803
 30
0.0
 70
    32
  0
VERTEX
  5
1D3CA
  8
AM_0
 10
748.01199999999994
 20
244.804
 30
0.0
 70
    32
  0
VERTEX
  5
1D3CB
  8
AM_0
 10
747.995
 20
244.804
 30
0.0
 70
    32
  0
VERTEX
  5
1D3CC
  8
AM_0
 10
747.97799999999995
 20
244.80500000000001
 30
0.0
 70
    32
  0
VERTEX
  5
1D3CD
  8
AM_0
 10
747.96100000000001
 20
244.80600000000001
 30
0.0
 70
    32
  0
VERTEX
  5
1D3CE
  8
AM_0
 10
747.94399999999985
 20
244.80600000000001
 30
0.0
 70
    32
  0
VERTEX
  5
1D3CF
  8
AM_0
 10
747.92700000000002
 20
244.80699999999999
 30
0.0
 70
    32
  0
VERTEX
  5
1D3D0
  8
AM_0
 10
747.90999999999985
 20
244.80799999999999
 30
0.0
 70
    32
  0
VERTEX
  5
1D3D1
  8
AM_0
 10
747.89300000000003
 20
244.809
 30
0.0
 70
    32
  0
VERTEX
  5
1D3D2
  8
AM_0
 10
747.87699999999995
 20
244.81100000000001
 30
0.0
 70
    32
  0
VERTEX
  5
1D3D3
  8
AM_0
 10
747.86000000000001
 20
244.81200000000001
 30
0.0
 70
    32
  0
VERTEX
  5
1D3D4
  8
AM_0
 10
747.84300000000007
 20
244.81299999999999
 30
0.0
 70
    32
  0
VERTEX
  5
1D3D5
  8
AM_0
 10
747.82600000000002
 20
244.815
 30
0.0
 70
    32
  0
VERTEX
  5
1D3D6
  8
AM_0
 10
747.80899999999986
 20
244.816
 30
0.0
 70
    32
  0
VERTEX
  5
1D3D7
  8
AM_0
 10
747.79199999999992
 20
244.81800000000001
 30
0.0
 70
    32
  0
VERTEX
  5
1D3D8
  8
AM_0
 10
747.77499999999998
 20
244.81999999999999
 30
0.0
 70
    32
  0
VERTEX
  5
1D3D9
  8
AM_0
 10
747.75800000000004
 20
244.822
 30
0.0
 70
    32
  0
VERTEX
  5
1D3DA
  8
AM_0
 10
747.74199999999985
 20
244.82400000000001
 30
0.0
 70
    32
  0
VERTEX
  5
1D3DB
  8
AM_0
 10
747.72500000000002
 20
244.82599999999999
 30
0.0
 70
    32
  0
VERTEX
  5
1D3DC
  8
AM_0
 10
747.70799999999997
 20
244.828
 30
0.0
 70
    32
  0
VERTEX
  5
1D3DD
  8
AM_0
 10
747.69100000000003
 20
244.83000000000001
 30
0.0
 70
    32
  0
VERTEX
  5
1D3DE
  8
AM_0
 10
747.67399999999986
 20
244.83199999999999
 30
0.0
 70
    32
  0
VERTEX
  5
1D3DF
  8
AM_0
 10
747.65800000000002
 20
244.83500000000001
 30
0.0
 70
    32
  0
VERTEX
  5
1D3E0
  8
AM_0
 10
747.64100000000008
 20
244.83699999999999
 30
0.0
 70
    32
  0
VERTEX
  5
1D3E1
  8
AM_0
 10
747.6239999999998
 20
244.84
 30
0.0
 70
    32
  0
VERTEX
  5
1D3E2
  8
AM_0
 10
747.60699999999986
 20
244.84299999999999
 30
0.0
 70
    32
  0
VERTEX
  5
1D3E3
  8
AM_0
 10
747.59099999999989
 20
244.845
 30
0.0
 70
    32
  0
VERTEX
  5
1D3E4
  8
AM_0
 10
747.57399999999996
 20
244.84800000000001
 30
0.0
 70
    32
  0
VERTEX
  5
1D3E5
  8
AM_0
 10
747.55700000000002
 20
244.851
 30
0.0
 70
    32
  0
VERTEX
  5
1D3E6
  8
AM_0
 10
747.54100000000005
 20
244.85400000000001
 30
0.0
 70
    32
  0
VERTEX
  5
1D3E7
  8
AM_0
 10
747.52399999999989
 20
244.858
 30
0.0
 70
    32
  0
VERTEX
  5
1D3E8
  8
AM_0
 10
747.50800000000004
 20
244.86099999999999
 30
0.0
 70
    32
  0
VERTEX
  5
1D3E9
  8
AM_0
 10
747.4910000000001
 20
244.864
 30
0.0
 70
    32
  0
VERTEX
  5
1D3EA
  8
AM_0
 10
747.47399999999993
 20
244.86799999999999
 30
0.0
 70
    32
  0
VERTEX
  5
1D3EB
  8
AM_0
 10
747.45800000000008
 20
244.87100000000001
 30
0.0
 70
    32
  0
VERTEX
  5
1D3EC
  8
AM_0
 10
747.44100000000003
 20
244.875
 30
0.0
 70
    32
  0
VERTEX
  5
1D3ED
  8
AM_0
 10
747.42499999999995
 20
244.87899999999999
 30
0.0
 70
    32
  0
VERTEX
  5
1D3EE
  8
AM_0
 10
747.40800000000002
 20
244.88300000000001
 30
0.0
 70
    32
  0
VERTEX
  5
1D3EF
  8
AM_0
 10
747.39199999999994
 20
244.886
 30
0.0
 70
    32
  0
VERTEX
  5
1D3F0
  8
AM_0
 10
747.37499999999989
 20
244.89099999999999
 30
0.0
 70
    32
  0
VERTEX
  5
1D3F1
  8
AM_0
 10
747.35899999999992
 20
244.89500000000001
 30
0.0
 70
    32
  0
VERTEX
  5
1D3F2
  8
AM_0
 10
747.34199999999987
 20
244.899
 30
0.0
 70
    32
  0
VERTEX
  5
1D3F3
  8
AM_0
 10
747.32600000000002
 20
244.90299999999999
 30
0.0
 70
    32
  0
VERTEX
  5
1D3F4
  8
AM_0
 10
747.30999999999995
 20
244.90799999999999
 30
0.0
 70
    32
  0
VERTEX
  5
1D3F5
  8
AM_0
 10
747.29299999999989
 20
244.91200000000001
 30
0.0
 70
    32
  0
VERTEX
  5
1D3F6
  8
AM_0
 10
747.27699999999993
 20
244.917
 30
0.0
 70
    32
  0
VERTEX
  5
1D3F7
  8
AM_0
 10
747.26100000000008
 20
244.92099999999999
 30
0.0
 70
    32
  0
VERTEX
  5
1D3F8
  8
AM_0
 10
747.245
 20
244.92599999999999
 30
0.0
 70
    32
  0
VERTEX
  5
1D3F9
  8
AM_0
 10
747.22799999999995
 20
244.93100000000001
 30
0.0
 70
    32
  0
VERTEX
  5
1D3FA
  8
AM_0
 10
747.21199999999999
 20
244.93600000000001
 30
0.0
 70
    32
  0
VERTEX
  5
1D3FB
  8
AM_0
 10
747.19600000000003
 20
244.941
 30
0.0
 70
    32
  0
VERTEX
  5
1D3FC
  8
AM_0
 10
747.17999999999995
 20
244.946
 30
0.0
 70
    32
  0
VERTEX
  5
1D3FD
  8
AM_0
 10
747.16399999999987
 20
244.95099999999999
 30
0.0
 70
    32
  0
VERTEX
  5
1D3FE
  8
AM_0
 10
747.14800000000002
 20
244.95699999999999
 30
0.0
 70
    32
  0
VERTEX
  5
1D3FF
  8
AM_0
 10
747.13199999999995
 20
244.96199999999999
 30
0.0
 70
    32
  0
VERTEX
  5
1D400
  8
AM_0
 10
747.11500000000001
 20
244.96700000000001
 30
0.0
 70
    32
  0
VERTEX
  5
1D401
  8
AM_0
 10
747.10000000000002
 20
244.97300000000001
 30
0.0
 70
    32
  0
VERTEX
  5
1D402
  8
AM_0
 10
747.08399999999995
 20
244.97900000000001
 30
0.0
 70
    32
  0
VERTEX
  5
1D403
  8
AM_0
 10
747.06799999999987
 20
244.98400000000001
 30
0.0
 70
    32
  0
VERTEX
  5
1D404
  8
AM_0
 10
747.05200000000002
 20
244.99000000000001
 30
0.0
 70
    32
  0
VERTEX
  5
1D405
  8
AM_0
 10
747.03599999999994
 20
244.99600000000001
 30
0.0
 70
    32
  0
VERTEX
  5
1D406
  8
AM_0
 10
747.01999999999998
 20
245.00200000000001
 30
0.0
 70
    32
  0
VERTEX
  5
1D407
  8
AM_0
 10
747.00399999999991
 20
245.00800000000001
 30
0.0
 70
    32
  0
VERTEX
  5
1D408
  8
AM_0
 10
746.98800000000006
 20
245.01499999999999
 30
0.0
 70
    32
  0
VERTEX
  5
1D409
  8
AM_0
 10
746.97300000000007
 20
245.02099999999999
 30
0.0
 70
    32
  0
VERTEX
  5
1D40A
  8
AM_0
 10
746.95699999999999
 20
245.02699999999999
 30
0.0
 70
    32
  0
VERTEX
  5
1D40B
  8
AM_0
 10
746.94100000000003
 20
245.03399999999999
 30
0.0
 70
    32
  0
VERTEX
  5
1D40C
  8
AM_0
 10
746.92600000000004
 20
245.03999999999999
 30
0.0
 70
    32
  0
VERTEX
  5
1D40D
  8
AM_0
 10
746.90999999999997
 20
245.047
 30
0.0
 70
    32
  0
VERTEX
  5
1D40E
  8
AM_0
 10
746.89499999999987
 20
245.054
 30
0.0
 70
    32
  0
VERTEX
  5
1D40F
  8
AM_0
 10
746.87899999999991
 20
245.06100000000001
 30
0.0
 70
    32
  0
VERTEX
  5
1D410
  8
AM_0
 10
746.86399999999992
 20
245.06800000000001
 30
0.0
 70
    32
  0
VERTEX
  5
1D411
  8
AM_0
 10
746.84799999999996
 20
245.07499999999999
 30
0.0
 70
    32
  0
VERTEX
  5
1D412
  8
AM_0
 10
746.83299999999997
 20
245.08199999999999
 30
0.0
 70
    32
  0
VERTEX
  5
1D413
  8
AM_0
 10
746.81799999999998
 20
245.089
 30
0.0
 70
    32
  0
VERTEX
  5
1D414
  8
AM_0
 10
746.80200000000002
 20
245.096
 30
0.0
 70
    32
  0
VERTEX
  5
1D415
  8
AM_0
 10
746.78699999999992
 20
245.10300000000001
 30
0.0
 70
    32
  0
VERTEX
  5
1D416
  8
AM_0
 10
746.77199999999993
 20
245.11099999999999
 30
0.0
 70
    32
  0
VERTEX
  5
1D417
  8
AM_0
 10
746.75699999999995
 20
245.11799999999999
 30
0.0
 70
    32
  0
VERTEX
  5
1D418
  8
AM_0
 10
746.74099999999999
 20
245.126
 30
0.0
 70
    32
  0
VERTEX
  5
1D419
  8
AM_0
 10
746.72600000000011
 20
245.13399999999999
 30
0.0
 70
    32
  0
VERTEX
  5
1D41A
  8
AM_0
 10
746.7109999999999
 20
245.14099999999999
 30
0.0
 70
    32
  0
VERTEX
  5
1D41B
  8
AM_0
 10
746.69600000000003
 20
245.149
 30
0.0
 70
    32
  0
VERTEX
  5
1D41C
  8
AM_0
 10
746.68100000000004
 20
245.15700000000001
 30
0.0
 70
    32
  0
VERTEX
  5
1D41D
  8
AM_0
 10
746.66600000000005
 20
245.16499999999999
 30
0.0
 70
    32
  0
VERTEX
  5
1D41E
  8
AM_0
 10
746.65199999999993
 20
245.173
 30
0.0
 70
    32
  0
VERTEX
  5
1D41F
  8
AM_0
 10
746.63699999999994
 20
245.18199999999999
 30
0.0
 70
    32
  0
VERTEX
  5
1D420
  8
AM_0
 10
746.62199999999984
 20
245.19
 30
0.0
 70
    32
  0
VERTEX
  5
1D421
  8
AM_0
 10
746.60699999999997
 20
245.19800000000001
 30
0.0
 70
    32
  0
VERTEX
  5
1D422
  8
AM_0
 10
746.59300000000007
 20
245.20699999999999
 30
0.0
 70
    32
  0
VERTEX
  5
1D423
  8
AM_0
 10
746.57799999999986
 20
245.215
 30
0.0
 70
    32
  0
VERTEX
  5
1D424
  8
AM_0
 10
746.56299999999987
 20
245.22399999999999
 30
0.0
 70
    32
  0
VERTEX
  5
1D425
  8
AM_0
 10
746.54899999999986
 20
245.233
 30
0.0
 70
    32
  0
VERTEX
  5
1D426
  8
AM_0
 10
746.53399999999999
 20
245.24100000000001
 30
0.0
 70
    32
  0
VERTEX
  5
1D427
  8
AM_0
 10
746.51999999999998
 20
245.25
 30
0.0
 70
    32
  0
VERTEX
  5
1D428
  8
AM_0
 10
746.50600000000009
 20
245.25899999999999
 30
0.0
 70
    32
  0
VERTEX
  5
1D429
  8
AM_0
 10
746.4910000000001
 20
245.268
 30
0.0
 70
    32
  0
VERTEX
  5
1D42A
  8
AM_0
 10
746.47699999999986
 20
245.27699999999999
 30
0.0
 70
    32
  0
VERTEX
  5
1D42B
  8
AM_0
 10
746.46299999999997
 20
245.286
 30
0.0
 70
    32
  0
VERTEX
  5
1D42C
  8
AM_0
 10
746.44799999999998
 20
245.29599999999999
 30
0.0
 70
    32
  0
VERTEX
  5
1D42D
  8
AM_0
 10
746.43399999999986
 20
245.30500000000001
 30
0.0
 70
    32
  0
VERTEX
  5
1D42E
  8
AM_0
 10
746.41999999999985
 20
245.315
 30
0.0
 70
    32
  0
VERTEX
  5
1D42F
  8
AM_0
 10
746.40599999999995
 20
245.32400000000001
 30
0.0
 70
    32
  0
VERTEX
  5
1D430
  8
AM_0
 10
746.39199999999994
 20
245.334
 30
0.0
 70
    32
  0
VERTEX
  5
1D431
  8
AM_0
 10
746.37800000000004
 20
245.34299999999999
 30
0.0
 70
    32
  0
VERTEX
  5
1D432
  8
AM_0
 10
746.36500000000001
 20
245.35300000000001
 30
0.0
 70
    32
  0
VERTEX
  5
1D433
  8
AM_0
 10
746.35100000000011
 20
245.363
 30
0.0
 70
    32
  0
VERTEX
  5
1D434
  8
AM_0
 10
746.33699999999999
 20
245.37299999999999
 30
0.0
 70
    32
  0
VERTEX
  5
1D435
  8
AM_0
 10
746.32299999999998
 20
245.38300000000001
 30
0.0
 70
    32
  0
VERTEX
  5
1D436
  8
AM_0
 10
746.30999999999995
 20
245.393
 30
0.0
 70
    32
  0
VERTEX
  5
1D437
  8
AM_0
 10
746.29600000000005
 20
245.40299999999999
 30
0.0
 70
    32
  0
VERTEX
  5
1D438
  8
AM_0
 10
746.28300000000002
 20
245.41300000000001
 30
0.0
 70
    32
  0
VERTEX
  5
1D439
  8
AM_0
 10
746.26899999999989
 20
245.423
 30
0.0
 70
    32
  0
VERTEX
  5
1D43A
  8
AM_0
 10
746.25599999999997
 20
245.434
 30
0.0
 70
    32
  0
VERTEX
  5
1D43B
  8
AM_0
 10
746.24199999999985
 20
245.44399999999999
 30
0.0
 70
    32
  0
VERTEX
  5
1D43C
  8
AM_0
 10
746.22899999999993
 20
245.45500000000001
 30
0.0
 70
    32
  0
VERTEX
  5
1D43D
  8
AM_0
 10
746.21599999999989
 20
245.465
 30
0.0
 70
    32
  0
VERTEX
  5
1D43E
  8
AM_0
 10
746.20299999999986
 20
245.476
 30
0.0
 70
    32
  0
VERTEX
  5
1D43F
  8
AM_0
 10
746.19000000000005
 20
245.48699999999999
 30
0.0
 70
    32
  0
VERTEX
  5
1D440
  8
AM_0
 10
746.17700000000002
 20
245.49700000000001
 30
0.0
 70
    32
  0
VERTEX
  5
1D441
  8
AM_0
 10
746.16399999999999
 20
245.50800000000001
 30
0.0
 70
    32
  0
VERTEX
  5
1D442
  8
AM_0
 10
746.15099999999995
 20
245.51900000000001
 30
0.0
 70
    32
  0
VERTEX
  5
1D443
  8
AM_0
 10
746.13800000000003
 20
245.53
 30
0.0
 70
    32
  0
VERTEX
  5
1D444
  8
AM_0
 10
746.12499999999989
 20
245.541
 30
0.0
 70
    32
  0
VERTEX
  5
1D445
  8
AM_0
 10
746.11199999999997
 20
245.553
 30
0.0
 70
    32
  0
SEQEND
  5
1D446
  8
AM_0
  0
LINE
  5
18E99
  8
AM_0
 10
745.09652229415133
 20
247.8025864158075
 30
0.0
 11
745.09652229415053
 21
318.30398187140321
 31
0.0
  0
CIRCLE
  5
18E9A
  8
0
 10
707.5965218358665
 20
253.30397991475229
 30
0.0
 40
5.0
  0
ARC
  5
18E9B
  8
0
 10
707.5965218358665
 20
253.30397991475249
 30
0.0
 40
12.0
 50
69.332681879990645
 51
193.60895384571481
  0
ARC
  5
18E9C
  8
0
 10
627.59654889167837
 20
246.30398187140341
 30
0.0
 40
11.0
 50
90.0
 51
169.19307712513961
  0
ARC
  5
18E9D
  8
0
 10
627.59654889167837
 20
246.30398187140341
 30
0.0
 40
11.0
 50
10.806922874860341
 51
90.0
  0
CIRCLE
  5
18E9E
  8
AM_0
 10
627.59654889167837
 20
246.30398187140281
 30
0.0
 40
8.5
  0
CIRCLE
  5
18E9F
  8
ｷｲﾛ
 10
707.5965218358665
 20
253.30397991475229
 30
0.0
 40
6.0
  0
LINE
  5
18EA1
  8
0
  6
CONTINUOUS
 62
     7
 10
663.59654889167814
 20
244.3039818714031
 30
0.0
 11
643.31278253718006
 21
244.3039818714031
 31
0.0
  0
ARC
  5
18EA4
  8
0
 10
611.88031524617691
 20
249.30398187140349
 30
0.0
 40
5.0
 50
270.0
 51
349.19307712513972
1001
GENIUS_GENOBJ-N-FIL_13
1002
{
1000
OWNER
1000
GEN
1002
}
1001
GENIUS_GENODEF_13
1002
{
1000
HIER
1070
     0
1002
}
1002
{
1000
MANEDIT
1070
     0
1002
}
1002
{
1000
NOSEL
1070
     0
1002
}
1002
{
1000
BEHIND
1070
     0
1002
}
1002
{
1000
OTHER
1070
     0
1002
}
1002
{
1000
REACTOR
1002
}
  0
LINE
  5
18EA5
  8
0
  6
CONTINUOUS
 62
     7
 10
611.88031524617691
 20
244.3039818714031
 30
0.0
 11
576.59652002972723
 21
244.3039818714031
 31
0.0
  0
ARC
  5
18EA6
  8
0
 10
573.59652002972723
 20
244.3039818714042
 30
0.0
 40
3.0000000000000631
 50
315.00000000000432
 51
135.00000000000421
  0
CIRCLE
  5
18EA7
  8
AM_0
 10
627.59654889167837
 20
246.30398187140281
 30
0.0
 40
6.5
  0
POLYLINE
  5
18EA8
  8
AM_0
 66
     1
 10
0.0
 20
0.0
 30
0.0
 70
     1
  0
VERTEX
  5
18EA9
  8
AM_0
 10
625.86449808410975
 20
243.30398187140321
 30
0.0
  0
VERTEX
  5
18EAA
  8
AM_0
 10
624.13244727654092
 20
246.30398187140329
 30
0.0
  0
VERTEX
  5
18EAB
  8
AM_0
 10
625.86449808410975
 20
249.30398187140329
 30
0.0
  0
VERTEX
  5
18EAC
  8
AM_0
 10
629.32859969924732
 20
249.30398187140329
 30
0.0
  0
VERTEX
  5
18EAD
  8
AM_0
 10
631.06065050681627
 20
246.30398187140329
 30
0.0
  0
VERTEX
  5
18EAE
  8
AM_0
 10
629.32859969924732
 20
243.30398187140321
 30
0.0
  0
SEQEND
  5
18EAF
  8
AM_0
  0
ARC
  5
18EB0
  8
0
 10
643.31278253718006
 20
249.30398187140349
 30
0.0
 40
5.0
 50
190.80692287486031
 51
269.99999999999841
1001
GENIUS_GENOBJ-N-FIL_13
1002
{
1000
OWNER
1000
GEN
1002
}
1001
GENIUS_GENODEF_13
1002
{
1000
HIER
1070
     0
1002
}
1002
{
1000
MANEDIT
1070
     0
1002
}
1002
{
1000
NOSEL
1070
     0
1002
}
1002
{
1000
BEHIND
1070
     0
1002
}
1002
{
1000
OTHER
1070
     0
1002
}
1002
{
1000
REACTOR
1002
}
  0
ARC
  5
18EB3
  8
0
 10
705.21289139698308
 20
232.51059659092189
 30
0.0
 40
5.0
 50
228.39296489486389
 51
336.80144506545003
1001
GENIUS_GENOBJ-N-FIL_13
1002
{
1000
OWNER
1000
GEN
1002
}
1001
GENIUS_GENODEF_13
1002
{
1000
HIER
1070
     0
1002
}
1002
{
1000
MANEDIT
1070
     0
1002
}
1002
{
1000
NOSEL
1070
     0
1002
}
1002
{
1000
BEHIND
1070
     0
1002
}
1002
{
1000
OTHER
1070
     0
1002
}
1002
{
1000
REACTOR
1002
}
  0
LINE
  5
18EB5
  8
0
  6
CONTINUOUS
 62
     7
 10
708.59652228740083
 20
244.3039818714031
 30
0.0
 11
670.83918957879814
 21
244.3039818714031
 31
0.0
  0
ARC
  5
18EB6
  8
0
 10
692.59654889167837
 20
218.30398187140369
 30
0.0
 40
16.999999999999702
 50
270.0
 51
336.80144506545003
  0
ARC
  5
18EB7
  8
0
 10
677.10668632535715
 20
225.30856306348639
 30
0.0
 40
3.0
 50
335.6673164935076
 51
44.99999999999568
1001
GENIUS_GENOBJ-N-FIL_13
1002
{
1000
OWNER
1000
GEN
1002
}
1001
GENIUS_GENODEF_13
1002
{
1000
HIER
1070
     0
1002
}
1002
{
1000
MANEDIT
1070
     0
1002
}
1002
{
1000
NOSEL
1070
     0
1002
}
1002
{
1000
BEHIND
1070
     0
1002
}
1002
{
1000
OTHER
1070
     0
1002
}
1002
{
1000
REACTOR
1002
}
  0
ARC
  5
18EB9
  8
0
 10
692.59654889167837
 20
218.30398187140301
 30
0.0
 40
14.0
 50
48.392964894863901
 51
198.40848017058289
  0
ARC
  5
18EBA
  8
0
 10
674.56879251435839
 20
212.30398187140369
 30
0.0
 40
5.0
 50
270.0
 51
18.40848017058293
1001
GENIUS_GENOBJ-N-FIL_13
1002
{
1000
OWNER
1000
GEN
1002
}
1001
GENIUS_GENODEF_13
1002
{
1000
HIER
1070
     0
1002
}
1002
{
1000
MANEDIT
1070
     0
1002
}
1002
{
1000
NOSEL
1070
     0
1002
}
1002
{
1000
BEHIND
1070
     0
1002
}
1002
{
1000
OTHER
1070
     0
1002
}
1002
{
1000
REACTOR
1002
}
  0
CIRCLE
  5
18EBB
  8
0
 10
692.59654889167837
 20
218.30398187140369
 30
0.0
 40
7.0
  0
LINE
  5
18EBC
  8
0
 10
683.47064735603612
 20
231.672524094165
 30
0.0
 11
668.71786923523757
 21
246.42530221496361
 31
0.0
  0
LINE
  5
18EBD
  8
0
 10
679.22800666891703
 20
227.42988340704559
 30
0.0
 11
664.47522854811837
 21
242.182661527844
 31
0.0
  0
ARC
  5
18EBE
  8
0
 10
666.59654889167814
 20
244.3039818714042
 30
0.0
 40
3.0000000000000631
 50
44.99999999999568
 51
224.99999999999571
  0
ARC
  5
18EBF
  8
0
 10
685.59196769959567
 20
233.793844437725
 30
0.0
 40
3.0
 50
224.99999999999571
 51
294.33268350648427
1001
GENIUS_GENODEF_13
1002
{
1000
HIER
1070
     0
1002
}
1002
{
1000
MANEDIT
1070
     0
1002
}
1002
{
1000
NOSEL
1070
     0
1002
}
1002
{
1000
BEHIND
1070
     0
1002
}
1002
{
1000
OTHER
1070
     0
1002
}
1002
{
1000
REACTOR
1002
}
1001
GENIUS_GENOBJ-N-FIL_13
1002
{
1000
OWNER
1000
GEN
1002
}
  0
ARC
  5
18EC0
  8
0
 10
691.0738097203207
 20
249.30398187140349
 30
0.0
 40
5.0
 50
270.0
 51
13.60895384571479
1001
GENIUS_GENODEF_13
1002
{
1000
HIER
1070
     0
1002
}
1002
{
1000
MANEDIT
1070
     0
1002
}
1002
{
1000
NOSEL
1070
     0
1002
}
1002
{
1000
BEHIND
1070
     0
1002
}
1002
{
1000
OTHER
1070
     0
1002
}
1002
{
1000
REACTOR
1002
}
1001
GENIUS_GENOBJ-N-FIL_13
1002
{
1000
OWNER
1000
GEN
1002
}
  0
LINE
  5
18EC1
  8
0
 10
708.22201856040363
 20
211.60736349854221
 30
0.0
 11
723.22199191961795
 21
246.60736136402309
 31
0.0
  0
ARC
  5
18EC2
  8
AM_0
 10
707.59652183586604
 20
253.30397991475269
 30
0.0
 40
17.000000451534831
 50
336.80144506545003
 51
0.0
  0
LINE
  5
18EC3
  8
AM_0
 10
744.12790037704451
 20
246.3025551699958
 30
0.0
 11
723.08782339835921
 21
246.3025806794507
 31
0.0
  0
LINE
  5
18EC4
  8
0
 10
709.80861777013752
 20
230.5410029518446
 30
0.0
 11
717.70712027183242
 21
248.97087373091529
 31
0.0
  0
ARC
  5
18EC5
  8
0
 10
708.59652228740083
 20
254.30398187140349
 30
0.0
 40
10.0
 50
270.0
 51
0.0
1001
GENIUS_GENODEF_13
1002
{
1000
HIER
1070
     0
1002
}
1002
{
1000
MANEDIT
1070
     0
1002
}
1002
{
1000
NOSEL
1070
     0
1002
}
1002
{
1000
BEHIND
1070
     0
1002
}
1002
{
1000
OTHER
1070
     0
1002
}
1002
{
1000
REACTOR
1002
}
1001
GENIUS_GENOBJ-N-FIL_13
1002
{
1000
OWNER
1000
GEN
1002
}
  0
ARC
  5
18EC6
  8
AM_0
 10
707.59652183586604
 20
253.30397991475269
 30
0.0
 40
11.000000451534831
 50
336.80144506545003
 51
0.0
  0
POLYLINE
  5
18EC8
  8
AM_0
 66
     1
 10
0.0
 20
0.0
 30
0.0
 70
     8
  0
VERTEX
  5
1D447
  8
AM_0
 10
744.12800000000004
 20
246.303
 30
0.0
 70
    32
  0
VERTEX
  5
1D448
  8
AM_0
 10
744.14499999999987
 20
246.303
 30
0.0
 70
    32
  0
VERTEX
  5
1D449
  8
AM_0
 10
744.16199999999992
 20
246.30199999999999
 30
0.0
 70
    32
  0
VERTEX
  5
1D44A
  8
AM_0
 10
744.17899999999997
 20
246.30199999999999
 30
0.0
 70
    32
  0
VERTEX
  5
1D44B
  8
AM_0
 10
744.19600000000003
 20
246.30199999999999
 30
0.0
 70
    32
  0
VERTEX
  5
1D44C
  8
AM_0
 10
744.21299999999997
 20
246.30099999999999
 30
0.0
 70
    32
  0
VERTEX
  5
1D44D
  8
AM_0
 10
744.23000000000002
 20
246.30099999999999
 30
0.0
 70
    32
  0
VERTEX
  5
1D44E
  8
AM_0
 10
744.24600000000009
 20
246.30000000000001
 30
0.0
 70
    32
  0
VERTEX
  5
1D44F
  8
AM_0
 10
744.26300000000003
 20
246.29900000000001
 30
0.0
 70
    32
  0
VERTEX
  5
1D450
  8
AM_0
 10
744.27999999999997
 20
246.29900000000001
 30
0.0
 70
    32
  0
VERTEX
  5
1D451
  8
AM_0
 10
744.29700000000003
 20
246.298
 30
0.0
 70
    32
  0
VERTEX
  5
1D452
  8
AM_0
 10
744.31399999999985
 20
246.297
 30
0.0
 70
    32
  0
VERTEX
  5
1D453
  8
AM_0
 10
744.33100000000002
 20
246.29599999999999
 30
0.0
 70
    32
  0
VERTEX
  5
1D454
  8
AM_0
 10
744.34799999999996
 20
246.29400000000001
 30
0.0
 70
    32
  0
VERTEX
  5
1D455
  8
AM_0
 10
744.3649999999999
 20
246.29300000000001
 30
0.0
 70
    32
  0
VERTEX
  5
1D456
  8
AM_0
 10
744.38199999999995
 20
246.292
 30
0.0
 70
    32
  0
VERTEX
  5
1D457
  8
AM_0
 10
744.39899999999989
 20
246.28999999999999
 30
0.0
 70
    32
  0
VERTEX
  5
1D458
  8
AM_0
 10
744.41499999999985
 20
246.28899999999999
 30
0.0
 70
    32
  0
VERTEX
  5
1D459
  8
AM_0
 10
744.43200000000002
 20
246.28700000000001
 30
0.0
 70
    32
  0
VERTEX
  5
1D45A
  8
AM_0
 10
744.44899999999996
 20
246.285
 30
0.0
 70
    32
  0
VERTEX
  5
1D45B
  8
AM_0
 10
744.46599999999989
 20
246.28299999999999
 30
0.0
 70
    32
  0
VERTEX
  5
1D45C
  8
AM_0
 10
744.48299999999995
 20
246.28100000000001
 30
0.0
 70
    32
  0
VERTEX
  5
1D45D
  8
AM_0
 10
744.5
 20
246.279
 30
0.0
 70
    32
  0
VERTEX
  5
1D45E
  8
AM_0
 10
744.51600000000008
 20
246.27699999999999
 30
0.0
 70
    32
  0
VERTEX
  5
1D45F
  8
AM_0
 10
744.53300000000002
 20
246.27500000000001
 30
0.0
 70
    32
  0
VERTEX
  5
1D460
  8
AM_0
 10
744.54999999999995
 20
246.273
 30
0.0
 70
    32
  0
VERTEX
  5
1D461
  8
AM_0
 10
744.56699999999989
 20
246.27000000000001
 30
0.0
 70
    32
  0
VERTEX
  5
1D462
  8
AM_0
 10
744.58299999999997
 20
246.268
 30
0.0
 70
    32
  0
VERTEX
  5
1D463
  8
AM_0
 10
744.60000000000002
 20
246.26499999999999
 30
0.0
 70
    32
  0
VERTEX
  5
1D464
  8
AM_0
 10
744.61699999999985
 20
246.262
 30
0.0
 70
    32
  0
VERTEX
  5
1D465
  8
AM_0
 10
744.6339999999999
 20
246.25999999999999
 30
0.0
 70
    32
  0
VERTEX
  5
1D466
  8
AM_0
 10
744.64999999999998
 20
246.25700000000001
 30
0.0
 70
    32
  0
VERTEX
  5
1D467
  8
AM_0
 10
744.66699999999992
 20
246.25399999999999
 30
0.0
 70
    32
  0
VERTEX
  5
1D468
  8
AM_0
 10
744.68399999999986
 20
246.251
 30
0.0
 70
    32
  0
VERTEX
  5
1D469
  8
AM_0
 10
744.70000000000005
 20
246.24700000000001
 30
0.0
 70
    32
  0
VERTEX
  5
1D46A
  8
AM_0
 10
744.71699999999987
 20
246.244
 30
0.0
 70
    32
  0
VERTEX
  5
1D46B
  8
AM_0
 10
744.73399999999992
 20
246.24100000000001
 30
0.0
 70
    32
  0
VERTEX
  5
1D46C
  8
AM_0
 10
744.74999999999989
 20
246.23699999999999
 30
0.0
 70
    32
  0
VERTEX
  5
1D46D
  8
AM_0
 10
744.76699999999994
 20
246.23400000000001
 30
0.0
 70
    32
  0
VERTEX
  5
1D46E
  8
AM_0
 10
744.78300000000002
 20
246.22999999999999
 30
0.0
 70
    32
  0
VERTEX
  5
1D46F
  8
AM_0
 10
744.79999999999995
 20
246.226
 30
0.0
 70
    32
  0
VERTEX
  5
1D470
  8
AM_0
 10
744.81600000000003
 20
246.22300000000001
 30
0.0
 70
    32
  0
VERTEX
  5
1D471
  8
AM_0
 10
744.83300000000008
 20
246.21899999999999
 30
0.0
 70
    32
  0
VERTEX
  5
1D472
  8
AM_0
 10
744.84899999999993
 20
246.215
 30
0.0
 70
    32
  0
VERTEX
  5
1D473
  8
AM_0
 10
744.8660000000001
 20
246.21000000000001
 30
0.0
 70
    32
  0
VERTEX
  5
1D474
  8
AM_0
 10
744.88199999999995
 20
246.20599999999999
 30
0.0
 70
    32
  0
VERTEX
  5
1D475
  8
AM_0
 10
744.89800000000002
 20
246.202
 30
0.0
 70
    32
  0
VERTEX
  5
1D476
  8
AM_0
 10
744.91499999999985
 20
246.19800000000001
 30
0.0
 70
    32
  0
VERTEX
  5
1D477
  8
AM_0
 10
744.93100000000004
 20
246.19300000000001
 30
0.0
 70
    32
  0
VERTEX
  5
1D478
  8
AM_0
 10
744.94699999999989
 20
246.18799999999999
 30
0.0
 70
    32
  0
VERTEX
  5
1D479
  8
AM_0
 10
744.96399999999994
 20
246.184
 30
0.0
 70
    32
  0
VERTEX
  5
1D47A
  8
AM_0
 10
744.98000000000002
 20
246.179
 30
0.0
 70
    32
  0
VERTEX
  5
1D47B
  8
AM_0
 10
744.99599999999998
 20
246.17400000000001
 30
0.0
 70
    32
  0
VERTEX
  5
1D47C
  8
AM_0
 10
745.01199999999994
 20
246.16900000000001
 30
0.0
 70
    32
  0
VERTEX
  5
1D47D
  8
AM_0
 10
745.02899999999988
 20
246.16399999999999
 30
0.0
 70
    32
  0
VERTEX
  5
1D47E
  8
AM_0
 10
745.04499999999996
 20
246.15899999999999
 30
0.0
 70
    32
  0
VERTEX
  5
1D47F
  8
AM_0
 10
745.06100000000004
 20
246.154
 30
0.0
 70
    32
  0
VERTEX
  5
1D480
  8
AM_0
 10
745.077
 20
246.149
 30
0.0
 70
    32
  0
VERTEX
  5
1D481
  8
AM_0
 10
745.09299999999996
 20
246.143
 30
0.0
 70
    32
  0
VERTEX
  5
1D482
  8
AM_0
 10
745.10899999999992
 20
246.13800000000001
 30
0.0
 70
    32
  0
VERTEX
  5
1D483
  8
AM_0
 10
745.12499999999989
 20
246.13200000000001
 30
0.0
 70
    32
  0
VERTEX
  5
1D484
  8
AM_0
 10
745.14099999999996
 20
246.126
 30
0.0
 70
    32
  0
VERTEX
  5
1D485
  8
AM_0
 10
745.15699999999993
 20
246.12100000000001
 30
0.0
 70
    32
  0
VERTEX
  5
1D486
  8
AM_0
 10
745.173
 20
246.11500000000001
 30
0.0
 70
    32
  0
VERTEX
  5
1D487
  8
AM_0
 10
745.18899999999985
 20
246.10900000000001
 30
0.0
 70
    32
  0
VERTEX
  5
1D488
  8
AM_0
 10
745.20399999999995
 20
246.10300000000001
 30
0.0
 70
    32
  0
VERTEX
  5
1D489
  8
AM_0
 10
745.22000000000003
 20
246.09700000000001
 30
0.0
 70
    32
  0
VERTEX
  5
1D48A
  8
AM_0
 10
745.2360000000001
 20
246.09
 30
0.0
 70
    32
  0
VERTEX
  5
1D48B
  8
AM_0
 10
745.25199999999995
 20
246.084
 30
0.0
 70
    32
  0
VERTEX
  5
1D48C
  8
AM_0
 10
745.26699999999994
 20
246.078
 30
0.0
 70
    32
  0
VERTEX
  5
1D48D
  8
AM_0
 10
745.28300000000002
 20
246.071
 30
0.0
 70
    32
  0
VERTEX
  5
1D48E
  8
AM_0
 10
745.29899999999986
 20
246.065
 30
0.0
 70
    32
  0
VERTEX
  5
1D48F
  8
AM_0
 10
745.31399999999985
 20
246.05799999999999
 30
0.0
 70
    32
  0
VERTEX
  5
1D490
  8
AM_0
 10
745.33000000000004
 20
246.05099999999999
 30
0.0
 70
    32
  0
VERTEX
  5
1D491
  8
AM_0
 10
745.34500000000003
 20
246.04400000000001
 30
0.0
 70
    32
  0
VERTEX
  5
1D492
  8
AM_0
 10
745.3610000000001
 20
246.03800000000001
 30
0.0
 70
    32
  0
VERTEX
  5
1D493
  8
AM_0
 10
745.37599999999998
 20
246.03100000000001
 30
0.0
 70
    32
  0
VERTEX
  5
1D494
  8
AM_0
 10
745.39199999999994
 20
246.023
 30
0.0
 70
    32
  0
VERTEX
  5
1D495
  8
AM_0
 10
745.40699999999993
 20
246.01599999999999
 30
0.0
 70
    32
  0
VERTEX
  5
1D496
  8
AM_0
 10
745.42200000000003
 20
246.00899999999999
 30
0.0
 70
    32
  0
VERTEX
  5
1D497
  8
AM_0
 10
745.4369999999999
 20
246.00200000000001
 30
0.0
 70
    32
  0
VERTEX
  5
1D498
  8
AM_0
 10
745.45299999999997
 20
245.994
 30
0.0
 70
    32
  0
VERTEX
  5
1D499
  8
AM_0
 10
745.46799999999996
 20
245.98699999999999
 30
0.0
 70
    32
  0
VERTEX
  5
1D49A
  8
AM_0
 10
745.48300000000006
 20
245.97900000000001
 30
0.0
 70
    32
  0
VERTEX
  5
1D49B
  8
AM_0
 10
745.49800000000005
 20
245.971
 30
0.0
 70
    32
  0
VERTEX
  5
1D49C
  8
AM_0
 10
745.51300000000003
 20
245.964
 30
0.0
 70
    32
  0
VERTEX
  5
1D49D
  8
AM_0
 10
745.52800000000002
 20
245.95599999999999
 30
0.0
 70
    32
  0
VERTEX
  5
1D49E
  8
AM_0
 10
745.54299999999989
 20
245.94800000000001
 30
0.0
 70
    32
  0
VERTEX
  5
1D49F
  8
AM_0
 10
745.55799999999999
 20
245.94
 30
0.0
 70
    32
  0
VERTEX
  5
1D4A0
  8
AM_0
 10
745.57299999999987
 20
245.93199999999999
 30
0.0
 70
    32
  0
VERTEX
  5
1D4A1
  8
AM_0
 10
745.58799999999997
 20
245.923
 30
0.0
 70
    32
  0
VERTEX
  5
1D4A2
  8
AM_0
 10
745.60199999999986
 20
245.91499999999999
 30
0.0
 70
    32
  0
VERTEX
  5
1D4A3
  8
AM_0
 10
745.61699999999996
 20
245.90700000000001
 30
0.0
 70
    32
  0
VERTEX
  5
1D4A4
  8
AM_0
 10
745.63199999999995
 20
245.898
 30
0.0
 70
    32
  0
VERTEX
  5
1D4A5
  8
AM_0
 10
745.64599999999996
 20
245.88999999999999
 30
0.0
 70
    32
  0
VERTEX
  5
1D4A6
  8
AM_0
 10
745.66099999999994
 20
245.881
 30
0.0
 70
    32
  0
VERTEX
  5
1D4A7
  8
AM_0
 10
745.67600000000004
 20
245.87299999999999
 30
0.0
 70
    32
  0
VERTEX
  5
1D4A8
  8
AM_0
 10
745.69000000000005
 20
245.864
 30
0.0
 70
    32
  0
VERTEX
  5
1D4A9
  8
AM_0
 10
745.70500000000004
 20
245.85499999999999
 30
0.0
 70
    32
  0
VERTEX
  5
1D4AA
  8
AM_0
 10
745.71899999999994
 20
245.846
 30
0.0
 70
    32
  0
VERTEX
  5
1D4AB
  8
AM_0
 10
745.73299999999995
 20
245.83699999999999
 30
0.0
 70
    32
  0
VERTEX
  5
1D4AC
  8
AM_0
 10
745.74800000000005
 20
245.828
 30
0.0
 70
    32
  0
VERTEX
  5
1D4AD
  8
AM_0
 10
745.76199999999994
 20
245.81899999999999
 30
0.0
 70
    32
  0
VERTEX
  5
1D4AE
  8
AM_0
 10
745.77599999999995
 20
245.809
 30
0.0
 70
    32
  0
VERTEX
  5
1D4AF
  8
AM_0
 10
745.78999999999985
 20
245.80000000000001
 30
0.0
 70
    32
  0
VERTEX
  5
1D4B0
  8
AM_0
 10
745.80399999999986
 20
245.791
 30
0.0
 70
    32
  0
VERTEX
  5
1D4B1
  8
AM_0
 10
745.81799999999987
 20
245.78100000000001
 30
0.0
 70
    32
  0
VERTEX
  5
1D4B2
  8
AM_0
 10
745.83199999999999
 20
245.77099999999999
 30
0.0
 70
    32
  0
VERTEX
  5
1D4B3
  8
AM_0
 10
745.846
 20
245.762
 30
0.0
 70
    32
  0
VERTEX
  5
1D4B4
  8
AM_0
 10
745.86000000000001
 20
245.75200000000001
 30
0.0
 70
    32
  0
VERTEX
  5
1D4B5
  8
AM_0
 10
745.8739999999998
 20
245.74199999999999
 30
0.0
 70
    32
  0
VERTEX
  5
1D4B6
  8
AM_0
 10
745.88699999999994
 20
245.732
 30
0.0
 70
    32
  0
VERTEX
  5
1D4B7
  8
AM_0
 10
745.90100000000007
 20
245.72200000000001
 30
0.0
 70
    32
  0
VERTEX
  5
1D4B8
  8
AM_0
 10
745.91499999999996
 20
245.71199999999999
 30
0.0
 70
    32
  0
VERTEX
  5
1D4B9
  8
AM_0
 10
745.92799999999988
 20
245.702
 30
0.0
 70
    32
  0
VERTEX
  5
1D4BA
  8
AM_0
 10
745.94200000000001
 20
245.69200000000001
 30
0.0
 70
    32
  0
VERTEX
  5
1D4BB
  8
AM_0
 10
745.95500000000004
 20
245.68199999999999
 30
0.0
 70
    32
  0
VERTEX
  5
1D4BC
  8
AM_0
 10
745.96899999999994
 20
245.67099999999999
 30
0.0
 70
    32
  0
VERTEX
  5
1D4BD
  8
AM_0
 10
745.98199999999986
 20
245.661
 30
0.0
 70
    32
  0
VERTEX
  5
1D4BE
  8
AM_0
 10
745.995
 20
245.65000000000001
 30
0.0
 70
    32
  0
VERTEX
  5
1D4BF
  8
AM_0
 10
746.0089999999999
 20
245.63999999999999
 30
0.0
 70
    32
  0
VERTEX
  5
1D4C0
  8
AM_0
 10
746.02199999999993
 20
245.62899999999999
 30
0.0
 70
    32
  0
VERTEX
  5
1D4C1
  8
AM_0
 10
746.03499999999997
 20
245.61799999999999
 30
0.0
 70
    32
  0
VERTEX
  5
1D4C2
  8
AM_0
 10
746.048
 20
245.608
 30
0.0
 70
    32
  0
VERTEX
  5
1D4C3
  8
AM_0
 10
746.06100000000004
 20
245.59700000000001
 30
0.0
 70
    32
  0
VERTEX
  5
1D4C4
  8
AM_0
 10
746.07399999999996
 20
245.58600000000001
 30
0.0
 70
    32
  0
VERTEX
  5
1D4C5
  8
AM_0
 10
746.08699999999988
 20
245.57499999999999
 30
0.0
 70
    32
  0
VERTEX
  5
1D4C6
  8
AM_0
 10
746.09899999999993
 20
245.56399999999999
 30
0.0
 70
    32
  0
VERTEX
  5
1D4C7
  8
AM_0
 10
746.11199999999997
 20
245.553
 30
0.0
 70
    32
  0
SEQEND
  5
1D4C8
  8
AM_0
  0
LINE
  5
18ECA
  8
AM_0
 10
597.59654904079036
 20
339.10441680263358
 30
0.0
 11
587.59654874256694
 21
339.10441680263358
 31
0.0
  0
LINE
  5
18ECB
  8
AM_0
 10
587.59654874256694
 20
335.07449165819492
 30
0.0
 11
587.59654874256694
 21
339.10441680263358
 31
0.0
  0
LINE
  5
18ECC
  8
AM_0
 10
597.59654904079036
 20
335.07449165819469
 30
0.0
 11
597.59654904079036
 21
339.10441680263358
 31
0.0
  0
ARC
  5
18ECD
  8
0
 10
713.59652228740083
 20
269.20995346501292
 30
0.0
 40
5.0
 50
249.33268187999059
 51
0.0
1001
GENIUS_GENOBJ-N-FIL_13
1002
{
1000
OWNER
1000
GEN
1002
}
1001
GENIUS_GENODEF_13
1002
{
1000
HIER
1070
     0
1002
}
1002
{
1000
MANEDIT
1070
     0
1002
}
1002
{
1000
NOSEL
1070
     0
1002
}
1002
{
1000
BEHIND
1070
     0
1002
}
1002
{
1000
OTHER
1070
     0
1002
}
1002
{
1000
REACTOR
1002
}
  0
LINE
  5
18ECE
  8
AM_0
 10
727.02498789740173
 20
269.57526323233458
 30
0.0
 11
724.59652228740094
 21
269.57526323233458
 31
0.0
  0
ARC
  5
18ECF
  8
0
 10
715.59652228740083
 20
299.30398187140321
 30
0.0
 40
3.0
 50
270.0
 51
0.0
1001
GENIUS_GENODEF_13
1002
{
1000
HIER
1070
     0
1002
}
1002
{
1000
MANEDIT
1070
     0
1002
}
1002
{
1000
NOSEL
1070
     0
1002
}
1002
{
1000
BEHIND
1070
     0
1002
}
1002
{
1000
OTHER
1070
     0
1002
}
1002
{
1000
REACTOR
1002
}
1001
GENIUS_GENOBJ-N-FIL_13
1002
{
1000
OWNER
1000
GEN
1002
}
  0
ARC
  5
18ED0
  8
0
 10
715.59428303529285
 20
293.30398270711157
 30
0.0
 40
3.0000000000000631
 50
90.000000000001606
 51
270.0
  0
ARC
  5
18ED1
  8
0
 10
715.59652228740083
 20
287.30398187140321
 30
0.0
 40
3.0
 50
0.0
 51
90.0
1001
GENIUS_GENODEF_13
1002
{
1000
HIER
1070
     0
1002
}
1002
{
1000
MANEDIT
1070
     0
1002
}
1002
{
1000
NOSEL
1070
     0
1002
}
1002
{
1000
BEHIND
1070
     0
1002
}
1002
{
1000
OTHER
1070
     0
1002
}
1002
{
1000
REACTOR
1002
}
1001
GENIUS_GENOBJ-N-FIL_13
1002
{
1000
OWNER
1000
GEN
1002
}
  0
ARC
  5
18ED2
  8
AM_0
 10
727.02498789740173
 20
272.5752632323946
 30
0.0
 40
3.000000000059996
 50
270.0
 51
353.33928567968309
1001
GENIUS_GENODEF_13
1002
{
1000
HIER
1070
     0
1002
}
1002
{
1000
MANEDIT
1070
     0
1002
}
1002
{
1000
NOSEL
1070
     0
1002
}
1002
{
1000
BEHIND
1070
     0
1002
}
1002
{
1000
OTHER
1070
     0
1002
}
1002
{
1000
REACTOR
1002
}
1001
GENIUS_GENOBJ-N-FIL_13
1002
{
1000
OWNER
1000
GEN
1002
}
  0
ARC
  5
18ED3
  8
0
 10
715.59652228740083
 20
343.30398187140321
 30
0.0
 40
3.0000000000000631
 50
90.000000000001606
 51
270.0
  0
ARC
  5
18ED4
  8
0
 10
715.59652228740083
 20
337.30398187140321
 30
0.0
 40
3.0
 50
0.0
 51
90.0
1001
GENIUS_GENODEF_13
1002
{
1000
HIER
1070
     0
1002
}
1002
{
1000
MANEDIT
1070
     0
1002
}
1002
{
1000
NOSEL
1070
     0
1002
}
1002
{
1000
BEHIND
1070
     0
1002
}
1002
{
1000
OTHER
1070
     0
1002
}
1002
{
1000
REACTOR
1002
}
1001
GENIUS_GENOBJ-N-FIL_13
1002
{
1000
OWNER
1000
GEN
1002
}
  0
ARC
  5
18ED5
  8
0
 10
715.59652228740083
 20
349.30398187140332
 30
0.0
 40
3.0
 50
270.0
 51
0.0
1001
GENIUS_GENODEF_13
1002
{
1000
HIER
1070
     0
1002
}
1002
{
1000
MANEDIT
1070
     0
1002
}
1002
{
1000
NOSEL
1070
     0
1002
}
1002
{
1000
BEHIND
1070
     0
1002
}
1002
{
1000
OTHER
1070
     0
1002
}
1002
{
1000
REACTOR
1002
}
1001
GENIUS_GENOBJ-N-FIL_13
1002
{
1000
OWNER
1000
GEN
1002
}
  0
LINE
  5
18ED9
  8
AM_0
 10
759.09652229835126
 20
244.8025118714032
 30
0.0
 11
759.09652229835103
 21
318.30398187140321
 31
0.0
  0
LINE
  5
18EE4
  8
AM_0
 10
759.09651621867704
 20
244.80250702171509
 30
0.0
 11
748.09651700585709
 21
244.8025264158122
 31
0.0
  0
LINE
  5
18F23
  8
AM_0
 10
747.09652229474909
 20
255.30272187140369
 30
0.0
 11
759.09652229834899
 21
255.30272187140329
 31
0.0
  0
LINE
  5
18F25
  8
AM_0
 10
747.09652229474989
 20
279.24224825011061
 30
0.0
 11
759.09652229834978
 21
279.24224825011038
 31
0.0
  0
LINE
  5
18F3D
  8
AM_0
 10
747.09652229475125
 20
357.36571549269632
 30
0.0
 11
759.09652229835103
 21
357.36571549269621
 31
0.0
  0
POLYLINE
  5
18F7E
  8
AM_0
 66
     1
 10
0.0
 20
0.0
 30
0.0
 70
     8
  0
VERTEX
  5
1D54B
  8
AM_0
 10
746.11199999999997
 20
391.05500000000001
 30
0.0
 70
    32
  0
VERTEX
  5
1D54C
  8
AM_0
 10
746.12499999999989
 20
391.06700000000001
 30
0.0
 70
    32
  0
VERTEX
  5
1D54D
  8
AM_0
 10
746.13800000000003
 20
391.07799999999997
 30
0.0
 70
    32
  0
VERTEX
  5
1D54E
  8
AM_0
 10
746.15099999999995
 20
391.089
 30
0.0
 70
    32
  0
VERTEX
  5
1D54F
  8
AM_0
 10
746.16399999999999
 20
391.10000000000008
 30
0.0
 70
    32
  0
VERTEX
  5
1D550
  8
AM_0
 10
746.17700000000002
 20
391.11099999999999
 30
0.0
 70
    32
  0
VERTEX
  5
1D551
  8
AM_0
 10
746.19000000000005
 20
391.12099999999998
 30
0.0
 70
    32
  0
VERTEX
  5
1D552
  8
AM_0
 10
746.20299999999986
 20
391.13199999999989
 30
0.0
 70
    32
  0
VERTEX
  5
1D553
  8
AM_0
 10
746.21599999999989
 20
391.14299999999997
 30
0.0
 70
    32
  0
VERTEX
  5
1D554
  8
AM_0
 10
746.22899999999993
 20
391.15300000000002
 30
0.0
 70
    32
  0
VERTEX
  5
1D555
  8
AM_0
 10
746.24199999999985
 20
391.16399999999999
 30
0.0
 70
    32
  0
VERTEX
  5
1D556
  8
AM_0
 10
746.25599999999997
 20
391.17399999999998
 30
0.0
 70
    32
  0
VERTEX
  5
1D557
  8
AM_0
 10
746.26899999999989
 20
391.185
 30
0.0
 70
    32
  0
VERTEX
  5
1D558
  8
AM_0
 10
746.28300000000002
 20
391.19499999999999
 30
0.0
 70
    32
  0
VERTEX
  5
1D559
  8
AM_0
 10
746.29600000000005
 20
391.20499999999998
 30
0.0
 70
    32
  0
VERTEX
  5
1D55A
  8
AM_0
 10
746.30999999999995
 20
391.21499999999997
 30
0.0
 70
    32
  0
VERTEX
  5
1D55B
  8
AM_0
 10
746.32299999999998
 20
391.22500000000002
 30
0.0
 70
    32
  0
VERTEX
  5
1D55C
  8
AM_0
 10
746.33699999999999
 20
391.23500000000001
 30
0.0
 70
    32
  0
VERTEX
  5
1D55D
  8
AM_0
 10
746.35100000000011
 20
391.245
 30
0.0
 70
    32
  0
VERTEX
  5
1D55E
  8
AM_0
 10
746.36500000000001
 20
391.255
 30
0.0
 70
    32
  0
VERTEX
  5
1D55F
  8
AM_0
 10
746.37800000000004
 20
391.26499999999999
 30
0.0
 70
    32
  0
VERTEX
  5
1D560
  8
AM_0
 10
746.39199999999994
 20
391.274
 30
0.0
 70
    32
  0
VERTEX
  5
1D561
  8
AM_0
 10
746.40599999999995
 20
391.28399999999999
 30
0.0
 70
    32
  0
VERTEX
  5
1D562
  8
AM_0
 10
746.41999999999985
 20
391.29300000000001
 30
0.0
 70
    32
  0
VERTEX
  5
1D563
  8
AM_0
 10
746.43399999999986
 20
391.303
 30
0.0
 70
    32
  0
VERTEX
  5
1D564
  8
AM_0
 10
746.44799999999998
 20
391.31200000000001
 30
0.0
 70
    32
  0
VERTEX
  5
1D565
  8
AM_0
 10
746.46299999999997
 20
391.32100000000003
 30
0.0
 70
    32
  0
VERTEX
  5
1D566
  8
AM_0
 10
746.47699999999986
 20
391.33100000000002
 30
0.0
 70
    32
  0
VERTEX
  5
1D567
  8
AM_0
 10
746.4910000000001
 20
391.33999999999997
 30
0.0
 70
    32
  0
VERTEX
  5
1D568
  8
AM_0
 10
746.50600000000009
 20
391.34899999999999
 30
0.0
 70
    32
  0
VERTEX
  5
1D569
  8
AM_0
 10
746.51999999999998
 20
391.358
 30
0.0
 70
    32
  0
VERTEX
  5
1D56A
  8
AM_0
 10
746.53399999999999
 20
391.36700000000002
 30
0.0
 70
    32
  0
VERTEX
  5
1D56B
  8
AM_0
 10
746.54899999999986
 20
391.375
 30
0.0
 70
    32
  0
VERTEX
  5
1D56C
  8
AM_0
 10
746.56299999999987
 20
391.38400000000001
 30
0.0
 70
    32
  0
VERTEX
  5
1D56D
  8
AM_0
 10
746.57799999999986
 20
391.39299999999997
 30
0.0
 70
    32
  0
VERTEX
  5
1D56E
  8
AM_0
 10
746.59300000000007
 20
391.40100000000001
 30
0.0
 70
    32
  0
VERTEX
  5
1D56F
  8
AM_0
 10
746.60699999999997
 20
391.41000000000003
 30
0.0
 70
    32
  0
VERTEX
  5
1D570
  8
AM_0
 10
746.62199999999984
 20
391.41800000000001
 30
0.0
 70
    32
  0
VERTEX
  5
1D571
  8
AM_0
 10
746.63699999999994
 20
391.42599999999999
 30
0.0
 70
    32
  0
VERTEX
  5
1D572
  8
AM_0
 10
746.65199999999993
 20
391.435
 30
0.0
 70
    32
  0
VERTEX
  5
1D573
  8
AM_0
 10
746.66600000000005
 20
391.44299999999998
 30
0.0
 70
    32
  0
VERTEX
  5
1D574
  8
AM_0
 10
746.68100000000004
 20
391.45100000000002
 30
0.0
 70
    32
  0
VERTEX
  5
1D575
  8
AM_0
 10
746.69600000000003
 20
391.459
 30
0.0
 70
    32
  0
VERTEX
  5
1D576
  8
AM_0
 10
746.7109999999999
 20
391.46600000000001
 30
0.0
 70
    32
  0
VERTEX
  5
1D577
  8
AM_0
 10
746.72600000000011
 20
391.47399999999999
 30
0.0
 70
    32
  0
VERTEX
  5
1D578
  8
AM_0
 10
746.74099999999999
 20
391.48200000000003
 30
0.0
 70
    32
  0
VERTEX
  5
1D579
  8
AM_0
 10
746.75699999999995
 20
391.49000000000001
 30
0.0
 70
    32
  0
VERTEX
  5
1D57A
  8
AM_0
 10
746.77199999999993
 20
391.49700000000001
 30
0.0
 70
    32
  0
VERTEX
  5
1D57B
  8
AM_0
 10
746.78699999999992
 20
391.505
 30
0.0
 70
    32
  0
VERTEX
  5
1D57C
  8
AM_0
 10
746.80200000000002
 20
391.51199999999989
 30
0.0
 70
    32
  0
VERTEX
  5
1D57D
  8
AM_0
 10
746.81799999999998
 20
391.51900000000001
 30
0.0
 70
    32
  0
VERTEX
  5
1D57E
  8
AM_0
 10
746.83299999999997
 20
391.52600000000001
 30
0.0
 70
    32
  0
VERTEX
  5
1D57F
  8
AM_0
 10
746.84799999999996
 20
391.53300000000002
 30
0.0
 70
    32
  0
VERTEX
  5
1D580
  8
AM_0
 10
746.86399999999992
 20
391.54000000000002
 30
0.0
 70
    32
  0
VERTEX
  5
1D581
  8
AM_0
 10
746.87899999999991
 20
391.54700000000003
 30
0.0
 70
    32
  0
VERTEX
  5
1D582
  8
AM_0
 10
746.89499999999987
 20
391.55399999999997
 30
0.0
 70
    32
  0
VERTEX
  5
1D583
  8
AM_0
 10
746.90999999999997
 20
391.56099999999998
 30
0.0
 70
    32
  0
VERTEX
  5
1D584
  8
AM_0
 10
746.92600000000004
 20
391.56799999999998
 30
0.0
 70
    32
  0
VERTEX
  5
1D585
  8
AM_0
 10
746.94100000000003
 20
391.57400000000001
 30
0.0
 70
    32
  0
VERTEX
  5
1D586
  8
AM_0
 10
746.95699999999999
 20
391.58100000000002
 30
0.0
 70
    32
  0
VERTEX
  5
1D587
  8
AM_0
 10
746.97300000000007
 20
391.58699999999999
 30
0.0
 70
    32
  0
VERTEX
  5
1D588
  8
AM_0
 10
746.98800000000006
 20
391.59300000000002
 30
0.0
 70
    32
  0
VERTEX
  5
1D589
  8
AM_0
 10
747.00399999999991
 20
391.60000000000002
 30
0.0
 70
    32
  0
VERTEX
  5
1D58A
  8
AM_0
 10
747.01999999999998
 20
391.60599999999999
 30
0.0
 70
    32
  0
VERTEX
  5
1D58B
  8
AM_0
 10
747.03599999999994
 20
391.61200000000002
 30
0.0
 70
    32
  0
VERTEX
  5
1D58C
  8
AM_0
 10
747.05200000000002
 20
391.61800000000011
 30
0.0
 70
    32
  0
VERTEX
  5
1D58D
  8
AM_0
 10
747.06799999999987
 20
391.62299999999999
 30
0.0
 70
    32
  0
VERTEX
  5
1D58E
  8
AM_0
 10
747.08399999999995
 20
391.62900000000002
 30
0.0
 70
    32
  0
VERTEX
  5
1D58F
  8
AM_0
 10
747.10000000000002
 20
391.63499999999999
 30
0.0
 70
    32
  0
VERTEX
  5
1D590
  8
AM_0
 10
747.11500000000001
 20
391.63999999999999
 30
0.0
 70
    32
  0
VERTEX
  5
1D591
  8
AM_0
 10
747.13199999999995
 20
391.64600000000002
 30
0.0
 70
    32
  0
VERTEX
  5
1D592
  8
AM_0
 10
747.14800000000002
 20
391.65100000000001
 30
0.0
 70
    32
  0
VERTEX
  5
1D593
  8
AM_0
 10
747.16399999999987
 20
391.65699999999998
 30
0.0
 70
    32
  0
VERTEX
  5
1D594
  8
AM_0
 10
747.17999999999995
 20
391.66199999999998
 30
0.0
 70
    32
  0
VERTEX
  5
1D595
  8
AM_0
 10
747.19600000000003
 20
391.66699999999997
 30
0.0
 70
    32
  0
VERTEX
  5
1D596
  8
AM_0
 10
747.21199999999999
 20
391.67200000000003
 30
0.0
 70
    32
  0
VERTEX
  5
1D597
  8
AM_0
 10
747.22799999999995
 20
391.67699999999991
 30
0.0
 70
    32
  0
VERTEX
  5
1D598
  8
AM_0
 10
747.245
 20
391.6819999999999
 30
0.0
 70
    32
  0
VERTEX
  5
1D599
  8
AM_0
 10
747.26100000000008
 20
391.68700000000001
 30
0.0
 70
    32
  0
VERTEX
  5
1D59A
  8
AM_0
 10
747.27699999999993
 20
391.69099999999997
 30
0.0
 70
    32
  0
VERTEX
  5
1D59B
  8
AM_0
 10
747.29299999999989
 20
391.69600000000003
 30
0.0
 70
    32
  0
VERTEX
  5
1D59C
  8
AM_0
 10
747.30999999999995
 20
391.69999999999999
 30
0.0
 70
    32
  0
VERTEX
  5
1D59D
  8
AM_0
 10
747.32600000000002
 20
391.70499999999998
 30
0.0
 70
    32
  0
VERTEX
  5
1D59E
  8
AM_0
 10
747.34199999999987
 20
391.709
 30
0.0
 70
    32
  0
VERTEX
  5
1D59F
  8
AM_0
 10
747.35899999999992
 20
391.71300000000002
 30
0.0
 70
    32
  0
VERTEX
  5
1D5A0
  8
AM_0
 10
747.37499999999989
 20
391.71699999999998
 30
0.0
 70
    32
  0
VERTEX
  5
1D5A1
  8
AM_0
 10
747.39199999999994
 20
391.721
 30
0.0
 70
    32
  0
VERTEX
  5
1D5A2
  8
AM_0
 10
747.40800000000002
 20
391.72500000000002
 30
0.0
 70
    32
  0
VERTEX
  5
1D5A3
  8
AM_0
 10
747.42499999999995
 20
391.72899999999998
 30
0.0
 70
    32
  0
VERTEX
  5
1D5A4
  8
AM_0
 10
747.44100000000003
 20
391.733
 30
0.0
 70
    32
  0
VERTEX
  5
1D5A5
  8
AM_0
 10
747.45800000000008
 20
391.73700000000002
 30
0.0
 70
    32
  0
VERTEX
  5
1D5A6
  8
AM_0
 10
747.47399999999993
 20
391.74000000000001
 30
0.0
 70
    32
  0
VERTEX
  5
1D5A7
  8
AM_0
 10
747.4910000000001
 20
391.74400000000003
 30
0.0
 70
    32
  0
VERTEX
  5
1D5A8
  8
AM_0
 10
747.50800000000004
 20
391.74700000000001
 30
0.0
 70
    32
  0
VERTEX
  5
1D5A9
  8
AM_0
 10
747.52399999999989
 20
391.75
 30
0.0
 70
    32
  0
VERTEX
  5
1D5AA
  8
AM_0
 10
747.54100000000005
 20
391.75400000000002
 30
0.0
 70
    32
  0
VERTEX
  5
1D5AB
  8
AM_0
 10
747.55700000000002
 20
391.75699999999989
 30
0.0
 70
    32
  0
VERTEX
  5
1D5AC
  8
AM_0
 10
747.57399999999996
 20
391.75999999999999
 30
0.0
 70
    32
  0
VERTEX
  5
1D5AD
  8
AM_0
 10
747.59099999999989
 20
391.76199999999989
 30
0.0
 70
    32
  0
VERTEX
  5
1D5AE
  8
AM_0
 10
747.60699999999986
 20
391.76499999999999
 30
0.0
 70
    32
  0
VERTEX
  5
1D5AF
  8
AM_0
 10
747.6239999999998
 20
391.76799999999997
 30
0.0
 70
    32
  0
VERTEX
  5
1D5B0
  8
AM_0
 10
747.64100000000008
 20
391.7709999999999
 30
0.0
 70
    32
  0
VERTEX
  5
1D5B1
  8
AM_0
 10
747.65800000000002
 20
391.77300000000002
 30
0.0
 70
    32
  0
VERTEX
  5
1D5B2
  8
AM_0
 10
747.67399999999986
 20
391.77600000000001
 30
0.0
 70
    32
  0
VERTEX
  5
1D5B3
  8
AM_0
 10
747.69100000000003
 20
391.77800000000002
 30
0.0
 70
    32
  0
VERTEX
  5
1D5B4
  8
AM_0
 10
747.70799999999997
 20
391.77999999999997
 30
0.0
 70
    32
  0
VERTEX
  5
1D5B5
  8
AM_0
 10
747.72500000000002
 20
391.78199999999998
 30
0.0
 70
    32
  0
VERTEX
  5
1D5B6
  8
AM_0
 10
747.74199999999985
 20
391.78399999999999
 30
0.0
 70
    32
  0
VERTEX
  5
1D5B7
  8
AM_0
 10
747.75800000000004
 20
391.786
 30
0.0
 70
    32
  0
VERTEX
  5
1D5B8
  8
AM_0
 10
747.77499999999998
 20
391.78800000000001
 30
0.0
 70
    32
  0
VERTEX
  5
1D5B9
  8
AM_0
 10
747.79199999999992
 20
391.79000000000002
 30
0.0
 70
    32
  0
VERTEX
  5
1D5BA
  8
AM_0
 10
747.80899999999986
 20
391.79199999999997
 30
0.0
 70
    32
  0
VERTEX
  5
1D5BB
  8
AM_0
 10
747.82600000000002
 20
391.79300000000001
 30
0.0
 70
    32
  0
VERTEX
  5
1D5BC
  8
AM_0
 10
747.84300000000007
 20
391.79500000000002
 30
0.0
 70
    32
  0
VERTEX
  5
1D5BD
  8
AM_0
 10
747.86000000000001
 20
391.79599999999999
 30
0.0
 70
    32
  0
VERTEX
  5
1D5BE
  8
AM_0
 10
747.87699999999995
 20
391.79700000000003
 30
0.0
 70
    32
  0
VERTEX
  5
1D5BF
  8
AM_0
 10
747.89300000000003
 20
391.79900000000009
 30
0.0
 70
    32
  0
VERTEX
  5
1D5C0
  8
AM_0
 10
747.90999999999985
 20
391.80000000000001
 30
0.0
 70
    32
  0
VERTEX
  5
1D5C1
  8
AM_0
 10
747.92700000000002
 20
391.80099999999999
 30
0.0
 70
    32
  0
VERTEX
  5
1D5C2
  8
AM_0
 10
747.94399999999985
 20
391.80200000000002
 30
0.0
 70
    32
  0
VERTEX
  5
1D5C3
  8
AM_0
 10
747.96100000000001
 20
391.80200000000002
 30
0.0
 70
    32
  0
VERTEX
  5
1D5C4
  8
AM_0
 10
747.97799999999995
 20
391.80300000000011
 30
0.0
 70
    32
  0
VERTEX
  5
1D5C5
  8
AM_0
 10
747.995
 20
391.80399999999997
 30
0.0
 70
    32
  0
VERTEX
  5
1D5C6
  8
AM_0
 10
748.01199999999994
 20
391.80399999999997
 30
0.0
 70
    32
  0
VERTEX
  5
1D5C7
  8
AM_0
 10
748.029
 20
391.80500000000001
 30
0.0
 70
    32
  0
VERTEX
  5
1D5C8
  8
AM_0
 10
748.04600000000005
 20
391.80500000000001
 30
0.0
 70
    32
  0
VERTEX
  5
1D5C9
  8
AM_0
 10
748.06299999999987
 20
391.80500000000001
 30
0.0
 70
    32
  0
VERTEX
  5
1D5CA
  8
AM_0
 10
748.08000000000004
 20
391.80500000000001
 30
0.0
 70
    32
  0
VERTEX
  5
1D5CB
  8
AM_0
 10
748.09699999999998
 20
391.80500000000001
 30
0.0
 70
    32
  0
SEQEND
  5
1D5CC
  8
AM_0
  0
LINE
  5
18F80
  8
0
  6
CONTINUOUS
 62
     7
 10
663.59654889167814
 20
392.3039818714027
 30
0.0
 11
643.31278253718006
 21
392.3039818714027
 31
0.0
  0
ARC
  5
18F81
  8
0
 10
611.88031524617691
 20
387.30398187140281
 30
0.0
 40
5.0
 50
10.806922874860341
 51
90.0
1001
GENIUS_GENOBJ-N-FIL_13
1002
{
1000
OWNER
1000
GEN
1002
}
1001
GENIUS_GENODEF_13
1002
{
1000
HIER
1070
     0
1002
}
1002
{
1000
MANEDIT
1070
     0
1002
}
1002
{
1000
NOSEL
1070
     0
1002
}
1002
{
1000
BEHIND
1070
     0
1002
}
1002
{
1000
OTHER
1070
     0
1002
}
1002
{
1000
REACTOR
1002
}
  0
LINE
  5
18F82
  8
0
  6
CONTINUOUS
 62
     7
 10
611.88031524617713
 20
392.3039818714027
 30
0.0
 11
576.59652002972757
 21
392.3039818714027
 31
0.0
  0
ARC
  5
18F83
  8
0
 10
573.59652002972723
 20
392.30398187140281
 30
0.0
 40
3.0000000000000631
 50
224.99999999999571
 51
44.99999999999568
  0
ARC
  5
18F84
  8
0
 10
627.59654889167837
 20
390.30398187140281
 30
0.0
 40
11.0
 50
270.0
 51
349.19307712513972
  0
CIRCLE
  5
18F85
  8
AM_0
 10
627.59654889167837
 20
390.30398187140332
 30
0.0
 40
8.5
  0
ARC
  5
18F86
  8
0
 10
627.59654889167837
 20
390.30398187140281
 30
0.0
 40
11.0
 50
190.80692287486031
 51
270.0
  0
CIRCLE
  5
18F87
  8
AM_0
 10
627.59654889167837
 20
390.30398187140332
 30
0.0
 40
6.5
  0
POLYLINE
  5
18F88
  8
AM_0
 66
     1
 10
0.0
 20
0.0
 30
0.0
 70
     1
  0
VERTEX
  5
18F89
  8
AM_0
 10
625.86449808410975
 20
393.30398187140281
 30
0.0
  0
VERTEX
  5
18F8A
  8
AM_0
 10
624.13244727654092
 20
390.30398187140281
 30
0.0
  0
VERTEX
  5
18F8B
  8
AM_0
 10
625.86449808410975
 20
387.30398187140281
 30
0.0
  0
VERTEX
  5
18F8C
  8
AM_0
 10
629.32859969924732
 20
387.30398187140281
 30
0.0
  0
VERTEX
  5
18F8D
  8
AM_0
 10
631.06065050681627
 20
390.30398187140281
 30
0.0
  0
VERTEX
  5
18F8E
  8
AM_0
 10
629.32859969924732
 20
393.30398187140281
 30
0.0
  0
SEQEND
  5
18F8F
  8
AM_0
  0
ARC
  5
18F90
  8
0
 10
643.31278253718006
 20
387.30398187140281
 30
0.0
 40
5.0
 50
90.000000000001606
 51
169.19307712513961
1001
GENIUS_GENOBJ-N-FIL_13
1002
{
1000
OWNER
1000
GEN
1002
}
1001
GENIUS_GENODEF_13
1002
{
1000
HIER
1070
     0
1002
}
1002
{
1000
MANEDIT
1070
     0
1002
}
1002
{
1000
NOSEL
1070
     0
1002
}
1002
{
1000
BEHIND
1070
     0
1002
}
1002
{
1000
OTHER
1070
     0
1002
}
1002
{
1000
REACTOR
1002
}
  0
ARC
  5
18F92
  8
0
 10
674.56879251435839
 20
424.30398187140281
 30
0.0
 40
5.0
 50
341.591519829417
 51
90.0
1001
GENIUS_GENOBJ-N-FIL_13
1002
{
1000
OWNER
1000
GEN
1002
}
1001
GENIUS_GENODEF_13
1002
{
1000
HIER
1070
     0
1002
}
1002
{
1000
MANEDIT
1070
     0
1002
}
1002
{
1000
NOSEL
1070
     0
1002
}
1002
{
1000
BEHIND
1070
     0
1002
}
1002
{
1000
OTHER
1070
     0
1002
}
1002
{
1000
REACTOR
1002
}
  0
ARC
  5
18F93
  8
0
 10
692.59654889167837
 20
418.30398187140321
 30
0.0
 40
16.999999999999702
 50
23.198554934550121
 51
90.0
  0
ARC
  5
18F95
  8
0
 10
705.21289139698308
 20
404.09736715188461
 30
0.0
 40
5.0
 50
23.198554934550121
 51
131.60703510513599
1001
GENIUS_GENOBJ-N-FIL_13
1002
{
1000
OWNER
1000
GEN
1002
}
1001
GENIUS_GENODEF_13
1002
{
1000
HIER
1070
     0
1002
}
1002
{
1000
MANEDIT
1070
     0
1002
}
1002
{
1000
NOSEL
1070
     0
1002
}
1002
{
1000
BEHIND
1070
     0
1002
}
1002
{
1000
OTHER
1070
     0
1002
}
1002
{
1000
REACTOR
1002
}
  0
CIRCLE
  5
18F96
  8
ｷｲﾛ
 10
707.5965218358665
 20
383.3039838280539
 30
0.0
 40
6.0
  0
LINE
  5
18F98
  8
0
  6
CONTINUOUS
 62
     7
 10
708.59652228740083
 20
392.3039818714027
 30
0.0
 11
670.83918957879757
 21
392.3039818714027
 31
0.0
  0
LINE
  5
18F99
  8
0
 10
679.22800666891726
 20
409.17808033576063
 30
0.0
 11
664.47522854811837
 21
394.42530221496219
 31
0.0
  0
LINE
  5
18F9A
  8
0
 10
683.47064735603612
 20
404.93543964864102
 30
0.0
 11
668.71786923523791
 21
390.18266152784321
 31
0.0
  0
ARC
  5
18F9B
  8
0
 10
666.59654889167814
 20
392.30398187140281
 30
0.0
 40
3.0000000000000631
 50
135.00000000000421
 51
315.00000000000432
  0
ARC
  5
18F9C
  8
0
 10
691.0738097203207
 20
387.30398187140281
 30
0.0
 40
5.0
 50
346.39104615428522
 51
90.0
1001
GENIUS_GENODEF_13
1002
{
1000
HIER
1070
     0
1002
}
1002
{
1000
MANEDIT
1070
     0
1002
}
1002
{
1000
NOSEL
1070
     0
1002
}
1002
{
1000
BEHIND
1070
     0
1002
}
1002
{
1000
OTHER
1070
     0
1002
}
1002
{
1000
REACTOR
1002
}
1001
GENIUS_GENOBJ-N-FIL_13
1002
{
1000
OWNER
1000
GEN
1002
}
  0
ARC
  5
18F9D
  8
0
 10
677.10668632535715
 20
411.29940067932051
 30
0.0
 40
3.0
 50
315.00000000000432
 51
24.332683506492341
1001
GENIUS_GENOBJ-N-FIL_13
1002
{
1000
OWNER
1000
GEN
1002
}
1001
GENIUS_GENODEF_13
1002
{
1000
HIER
1070
     0
1002
}
1002
{
1000
MANEDIT
1070
     0
1002
}
1002
{
1000
NOSEL
1070
     0
1002
}
1002
{
1000
BEHIND
1070
     0
1002
}
1002
{
1000
OTHER
1070
     0
1002
}
1002
{
1000
REACTOR
1002
}
  0
ARC
  5
18F9E
  8
0
 10
692.59654889167837
 20
418.30398187140321
 30
0.0
 40
14.0
 50
161.591519829417
 51
311.60703510513599
  0
CIRCLE
  5
18F9F
  8
0
 10
692.59654889167837
 20
418.30398187140321
 30
0.0
 40
7.0
  0
ARC
  5
18FA0
  8
0
 10
685.59196769959567
 20
402.81411930508159
 30
0.0
 40
3.0
 50
65.667316493515841
 51
135.00000000000421
1001
GENIUS_GENODEF_13
1002
{
1000
HIER
1070
     0
1002
}
1002
{
1000
MANEDIT
1070
     0
1002
}
1002
{
1000
NOSEL
1070
     0
1002
}
1002
{
1000
BEHIND
1070
     0
1002
}
1002
{
1000
OTHER
1070
     0
1002
}
1002
{
1000
REACTOR
1002
}
1001
GENIUS_GENOBJ-N-FIL_13
1002
{
1000
OWNER
1000
GEN
1002
}
  0
LINE
  5
18FA1
  8
0
 10
709.80861777013774
 20
406.0669607909611
 30
0.0
 11
717.70712027183242
 21
387.63709001189079
 31
0.0
  0
LINE
  5
18FA2
  8
0
 10
708.22201856040397
 20
425.00060024426449
 30
0.0
 11
723.09198898029683
 21
390.30394309078281
 31
0.0
  0
ARC
  5
18FA3
  8
AM_0
 10
707.59652183586604
 20
383.3039838280543
 30
0.0
 40
17.000000451534831
 50
0.0
 51
23.198554934550121
  0
LINE
  5
18FA4
  8
AM_0
 10
727.02498789740309
 20
367.0327005104715
 30
0.0
 11
724.50836110077535
 21
367.0327005104715
 31
0.0
  0
LINE
  5
18FA5
  8
AM_0
 10
744.12790037704451
 20
390.30540857281062
 30
0.0
 11
723.09137184840802
 21
390.30538306765811
 31
0.0
  0
ARC
  5
18FA6
  8
AM_0
 10
707.59652183586604
 20
383.3039838280543
 30
0.0
 40
11.000000451534831
 50
0.0
 51
23.198554934550121
  0
CIRCLE
  5
18FA7
  8
0
 10
707.5965218358665
 20
383.3039838280539
 30
0.0
 40
5.0
  0
ARC
  5
18FA8
  8
0
 10
708.59652228740083
 20
382.30398187140281
 30
0.0
 40
10.0
 50
0.0
 51
90.0
1001
GENIUS_GENOBJ-N-FIL_13
1002
{
1000
OWNER
1000
GEN
1002
}
1001
GENIUS_GENODEF_13
1002
{
1000
HIER
1070
     0
1002
}
1002
{
1000
MANEDIT
1070
     0
1002
}
1002
{
1000
NOSEL
1070
     0
1002
}
1002
{
1000
BEHIND
1070
     0
1002
}
1002
{
1000
OTHER
1070
     0
1002
}
1002
{
1000
REACTOR
1002
}
  0
ARC
  5
18FA9
  8
AM_0
 10
727.02498789740309
 20
364.03270051041159
 30
0.0
 40
3.000000000059996
 50
6.6607143203167842
 51
90.0
1001
GENIUS_GENOBJ-N-FIL_13
1002
{
1000
OWNER
1000
GEN
1002
}
1001
GENIUS_GENODEF_13
1002
{
1000
HIER
1070
     0
1002
}
1002
{
1000
MANEDIT
1070
     0
1002
}
1002
{
1000
NOSEL
1070
     0
1002
}
1002
{
1000
BEHIND
1070
     0
1002
}
1002
{
1000
OTHER
1070
     0
1002
}
1002
{
1000
REACTOR
1002
}
  0
POLYLINE
  5
18FAA
  8
AM_0
 66
     1
 10
0.0
 20
0.0
 30
0.0
 70
     8
  0
VERTEX
  5
1D5CD
  8
AM_0
 10
746.11199999999997
 20
391.05500000000001
 30
0.0
 70
    32
  0
VERTEX
  5
1D5CE
  8
AM_0
 10
746.09899999999993
 20
391.04399999999998
 30
0.0
 70
    32
  0
VERTEX
  5
1D5CF
  8
AM_0
 10
746.08699999999988
 20
391.03300000000002
 30
0.0
 70
    32
  0
VERTEX
  5
1D5D0
  8
AM_0
 10
746.07399999999996
 20
391.02199999999999
 30
0.0
 70
    32
  0
VERTEX
  5
1D5D1
  8
AM_0
 10
746.06100000000004
 20
391.01100000000002
 30
0.0
 70
    32
  0
VERTEX
  5
1D5D2
  8
AM_0
 10
746.048
 20
391.0
 30
0.0
 70
    32
  0
VERTEX
  5
1D5D3
  8
AM_0
 10
746.03499999999997
 20
390.99000000000001
 30
0.0
 70
    32
  0
VERTEX
  5
1D5D4
  8
AM_0
 10
746.02199999999993
 20
390.97899999999998
 30
0.0
 70
    32
  0
VERTEX
  5
1D5D5
  8
AM_0
 10
746.0089999999999
 20
390.96800000000002
 30
0.0
 70
    32
  0
VERTEX
  5
1D5D6
  8
AM_0
 10
745.995
 20
390.95800000000003
 30
0.0
 70
    32
  0
VERTEX
  5
1D5D7
  8
AM_0
 10
745.98199999999986
 20
390.94699999999989
 30
0.0
 70
    32
  0
VERTEX
  5
1D5D8
  8
AM_0
 10
745.96899999999994
 20
390.93700000000001
 30
0.0
 70
    32
  0
VERTEX
  5
1D5D9
  8
AM_0
 10
745.95500000000004
 20
390.92599999999999
 30
0.0
 70
    32
  0
VERTEX
  5
1D5DA
  8
AM_0
 10
745.94200000000001
 20
390.916
 30
0.0
 70
    32
  0
VERTEX
  5
1D5DB
  8
AM_0
 10
745.92799999999988
 20
390.90600000000001
 30
0.0
 70
    32
  0
VERTEX
  5
1D5DC
  8
AM_0
 10
745.91499999999996
 20
390.89600000000002
 30
0.0
 70
    32
  0
VERTEX
  5
1D5DD
  8
AM_0
 10
745.90100000000007
 20
390.88600000000002
 30
0.0
 70
    32
  0
VERTEX
  5
1D5DE
  8
AM_0
 10
745.88699999999994
 20
390.87599999999998
 30
0.0
 70
    32
  0
VERTEX
  5
1D5DF
  8
AM_0
 10
745.8739999999998
 20
390.86599999999999
 30
0.0
 70
    32
  0
VERTEX
  5
1D5E0
  8
AM_0
 10
745.86000000000001
 20
390.85599999999999
 30
0.0
 70
    32
  0
VERTEX
  5
1D5E1
  8
AM_0
 10
745.846
 20
390.846
 30
0.0
 70
    32
  0
VERTEX
  5
1D5E2
  8
AM_0
 10
745.83199999999999
 20
390.83600000000001
 30
0.0
 70
    32
  0
VERTEX
  5
1D5E3
  8
AM_0
 10
745.81799999999987
 20
390.827
 30
0.0
 70
    32
  0
VERTEX
  5
1D5E4
  8
AM_0
 10
745.80399999999986
 20
390.81700000000001
 30
0.0
 70
    32
  0
VERTEX
  5
1D5E5
  8
AM_0
 10
745.78999999999985
 20
390.80799999999999
 30
0.0
 70
    32
  0
VERTEX
  5
1D5E6
  8
AM_0
 10
745.77599999999995
 20
390.79899999999998
 30
0.0
 70
    32
  0
VERTEX
  5
1D5E7
  8
AM_0
 10
745.76199999999994
 20
390.78899999999999
 30
0.0
 70
    32
  0
VERTEX
  5
1D5E8
  8
AM_0
 10
745.74800000000005
 20
390.77999999999997
 30
0.0
 70
    32
  0
VERTEX
  5
1D5E9
  8
AM_0
 10
745.73299999999995
 20
390.77100000000002
 30
0.0
 70
    32
  0
VERTEX
  5
1D5EA
  8
AM_0
 10
745.71899999999994
 20
390.762
 30
0.0
 70
    32
  0
VERTEX
  5
1D5EB
  8
AM_0
 10
745.70500000000004
 20
390.75299999999999
 30
0.0
 70
    32
  0
VERTEX
  5
1D5EC
  8
AM_0
 10
745.69000000000005
 20
390.74400000000003
 30
0.0
 70
    32
  0
VERTEX
  5
1D5ED
  8
AM_0
 10
745.67600000000004
 20
390.73500000000001
 30
0.0
 70
    32
  0
VERTEX
  5
1D5EE
  8
AM_0
 10
745.66099999999994
 20
390.72699999999998
 30
0.0
 70
    32
  0
VERTEX
  5
1D5EF
  8
AM_0
 10
745.64599999999996
 20
390.71800000000002
 30
0.0
 70
    32
  0
VERTEX
  5
1D5F0
  8
AM_0
 10
745.63199999999995
 20
390.70999999999998
 30
0.0
 70
    32
  0
VERTEX
  5
1D5F1
  8
AM_0
 10
745.61699999999996
 20
390.70100000000002
 30
0.0
 70
    32
  0
VERTEX
  5
1D5F2
  8
AM_0
 10
745.60199999999986
 20
390.69299999999998
 30
0.0
 70
    32
  0
VERTEX
  5
1D5F3
  8
AM_0
 10
745.58799999999997
 20
390.685
 30
0.0
 70
    32
  0
VERTEX
  5
1D5F4
  8
AM_0
 10
745.57299999999987
 20
390.67599999999999
 30
0.0
 70
    32
  0
VERTEX
  5
1D5F5
  8
AM_0
 10
745.55799999999999
 20
390.66800000000001
 30
0.0
 70
    32
  0
VERTEX
  5
1D5F6
  8
AM_0
 10
745.54299999999989
 20
390.66000000000003
 30
0.0
 70
    32
  0
VERTEX
  5
1D5F7
  8
AM_0
 10
745.52800000000002
 20
390.65199999999999
 30
0.0
 70
    32
  0
VERTEX
  5
1D5F8
  8
AM_0
 10
745.51300000000003
 20
390.64400000000001
 30
0.0
 70
    32
  0
VERTEX
  5
1D5F9
  8
AM_0
 10
745.49800000000005
 20
390.63699999999989
 30
0.0
 70
    32
  0
VERTEX
  5
1D5FA
  8
AM_0
 10
745.48300000000006
 20
390.62900000000002
 30
0.0
 70
    32
  0
VERTEX
  5
1D5FB
  8
AM_0
 10
745.46799999999996
 20
390.62099999999998
 30
0.0
 70
    32
  0
VERTEX
  5
1D5FC
  8
AM_0
 10
745.45299999999997
 20
390.61399999999998
 30
0.0
 70
    32
  0
VERTEX
  5
1D5FD
  8
AM_0
 10
745.4369999999999
 20
390.60599999999999
 30
0.0
 70
    32
  0
VERTEX
  5
1D5FE
  8
AM_0
 10
745.42200000000003
 20
390.59899999999999
 30
0.0
 70
    32
  0
VERTEX
  5
1D5FF
  8
AM_0
 10
745.40699999999993
 20
390.59199999999998
 30
0.0
 70
    32
  0
VERTEX
  5
1D600
  8
AM_0
 10
745.39199999999994
 20
390.58499999999998
 30
0.0
 70
    32
  0
VERTEX
  5
1D601
  8
AM_0
 10
745.37599999999998
 20
390.577
 30
0.0
 70
    32
  0
VERTEX
  5
1D602
  8
AM_0
 10
745.3610000000001
 20
390.56999999999999
 30
0.0
 70
    32
  0
VERTEX
  5
1D603
  8
AM_0
 10
745.34500000000003
 20
390.56400000000002
 30
0.0
 70
    32
  0
VERTEX
  5
1D604
  8
AM_0
 10
745.33000000000004
 20
390.5569999999999
 30
0.0
 70
    32
  0
VERTEX
  5
1D605
  8
AM_0
 10
745.31399999999985
 20
390.55000000000001
 30
0.0
 70
    32
  0
VERTEX
  5
1D606
  8
AM_0
 10
745.29899999999986
 20
390.54300000000001
 30
0.0
 70
    32
  0
VERTEX
  5
1D607
  8
AM_0
 10
745.28300000000002
 20
390.53699999999998
 30
0.0
 70
    32
  0
VERTEX
  5
1D608
  8
AM_0
 10
745.26699999999994
 20
390.52999999999997
 30
0.0
 70
    32
  0
VERTEX
  5
1D609
  8
AM_0
 10
745.25199999999995
 20
390.524
 30
0.0
 70
    32
  0
VERTEX
  5
1D60A
  8
AM_0
 10
745.2360000000001
 20
390.51800000000009
 30
0.0
 70
    32
  0
VERTEX
  5
1D60B
  8
AM_0
 10
745.22000000000003
 20
390.51100000000002
 30
0.0
 70
    32
  0
VERTEX
  5
1D60C
  8
AM_0
 10
745.20399999999995
 20
390.505
 30
0.0
 70
    32
  0
VERTEX
  5
1D60D
  8
AM_0
 10
745.18899999999985
 20
390.49900000000002
 30
0.0
 70
    32
  0
VERTEX
  5
1D60E
  8
AM_0
 10
745.173
 20
390.49300000000011
 30
0.0
 70
    32
  0
VERTEX
  5
1D60F
  8
AM_0
 10
745.15699999999993
 20
390.48700000000002
 30
0.0
 70
    32
  0
VERTEX
  5
1D610
  8
AM_0
 10
745.14099999999996
 20
390.48200000000003
 30
0.0
 70
    32
  0
VERTEX
  5
1D611
  8
AM_0
 10
745.12499999999989
 20
390.476
 30
0.0
 70
    32
  0
VERTEX
  5
1D612
  8
AM_0
 10
745.10899999999992
 20
390.47000000000003
 30
0.0
 70
    32
  0
VERTEX
  5
1D613
  8
AM_0
 10
745.09299999999996
 20
390.46499999999997
 30
0.0
 70
    32
  0
VERTEX
  5
1D614
  8
AM_0
 10
745.077
 20
390.459
 30
0.0
 70
    32
  0
VERTEX
  5
1D615
  8
AM_0
 10
745.06100000000004
 20
390.45400000000001
 30
0.0
 70
    32
  0
VERTEX
  5
1D616
  8
AM_0
 10
745.04499999999996
 20
390.44900000000001
 30
0.0
 70
    32
  0
VERTEX
  5
1D617
  8
AM_0
 10
745.02899999999988
 20
390.44400000000002
 30
0.0
 70
    32
  0
VERTEX
  5
1D618
  8
AM_0
 10
745.01199999999994
 20
390.43900000000002
 30
0.0
 70
    32
  0
VERTEX
  5
1D619
  8
AM_0
 10
744.99599999999998
 20
390.43400000000003
 30
0.0
 70
    32
  0
VERTEX
  5
1D61A
  8
AM_0
 10
744.98000000000002
 20
390.42900000000009
 30
0.0
 70
    32
  0
VERTEX
  5
1D61B
  8
AM_0
 10
744.96399999999994
 20
390.42400000000009
 30
0.0
 70
    32
  0
VERTEX
  5
1D61C
  8
AM_0
 10
744.94699999999989
 20
390.42000000000002
 30
0.0
 70
    32
  0
VERTEX
  5
1D61D
  8
AM_0
 10
744.93100000000004
 20
390.41500000000002
 30
0.0
 70
    32
  0
VERTEX
  5
1D61E
  8
AM_0
 10
744.91499999999985
 20
390.41000000000003
 30
0.0
 70
    32
  0
VERTEX
  5
1D61F
  8
AM_0
 10
744.89800000000002
 20
390.40600000000001
 30
0.0
 70
    32
  0
VERTEX
  5
1D620
  8
AM_0
 10
744.88199999999995
 20
390.40199999999999
 30
0.0
 70
    32
  0
VERTEX
  5
1D621
  8
AM_0
 10
744.8660000000001
 20
390.39800000000002
 30
0.0
 70
    32
  0
VERTEX
  5
1D622
  8
AM_0
 10
744.84899999999993
 20
390.39299999999997
 30
0.0
 70
    32
  0
VERTEX
  5
1D623
  8
AM_0
 10
744.83300000000008
 20
390.38900000000001
 30
0.0
 70
    32
  0
VERTEX
  5
1D624
  8
AM_0
 10
744.81600000000003
 20
390.38499999999999
 30
0.0
 70
    32
  0
VERTEX
  5
1D625
  8
AM_0
 10
744.79999999999995
 20
390.38199999999989
 30
0.0
 70
    32
  0
VERTEX
  5
1D626
  8
AM_0
 10
744.78300000000002
 20
390.3780000000001
 30
0.0
 70
    32
  0
VERTEX
  5
1D627
  8
AM_0
 10
744.76699999999994
 20
390.37400000000002
 30
0.0
 70
    32
  0
VERTEX
  5
1D628
  8
AM_0
 10
744.74999999999989
 20
390.37099999999998
 30
0.0
 70
    32
  0
VERTEX
  5
1D629
  8
AM_0
 10
744.73399999999992
 20
390.3669999999999
 30
0.0
 70
    32
  0
VERTEX
  5
1D62A
  8
AM_0
 10
744.71699999999987
 20
390.36399999999998
 30
0.0
 70
    32
  0
VERTEX
  5
1D62B
  8
AM_0
 10
744.70000000000005
 20
390.36099999999999
 30
0.0
 70
    32
  0
VERTEX
  5
1D62C
  8
AM_0
 10
744.68399999999986
 20
390.35700000000003
 30
0.0
 70
    32
  0
VERTEX
  5
1D62D
  8
AM_0
 10
744.66699999999992
 20
390.35399999999998
 30
0.0
 70
    32
  0
VERTEX
  5
1D62E
  8
AM_0
 10
744.64999999999998
 20
390.351
 30
0.0
 70
    32
  0
VERTEX
  5
1D62F
  8
AM_0
 10
744.6339999999999
 20
390.34800000000001
 30
0.0
 70
    32
  0
VERTEX
  5
1D630
  8
AM_0
 10
744.61699999999985
 20
390.346
 30
0.0
 70
    32
  0
VERTEX
  5
1D631
  8
AM_0
 10
744.60000000000002
 20
390.34300000000002
 30
0.0
 70
    32
  0
VERTEX
  5
1D632
  8
AM_0
 10
744.58299999999997
 20
390.33999999999997
 30
0.0
 70
    32
  0
VERTEX
  5
1D633
  8
AM_0
 10
744.56699999999989
 20
390.33800000000002
 30
0.0
 70
    32
  0
VERTEX
  5
1D634
  8
AM_0
 10
744.54999999999995
 20
390.33499999999998
 30
0.0
 70
    32
  0
VERTEX
  5
1D635
  8
AM_0
 10
744.53300000000002
 20
390.33300000000003
 30
0.0
 70
    32
  0
VERTEX
  5
1D636
  8
AM_0
 10
744.51600000000008
 20
390.33100000000002
 30
0.0
 70
    32
  0
VERTEX
  5
1D637
  8
AM_0
 10
744.5
 20
390.32900000000001
 30
0.0
 70
    32
  0
VERTEX
  5
1D638
  8
AM_0
 10
744.48299999999995
 20
390.32600000000002
 30
0.0
 70
    32
  0
VERTEX
  5
1D639
  8
AM_0
 10
744.46599999999989
 20
390.32499999999999
 30
0.0
 70
    32
  0
VERTEX
  5
1D63A
  8
AM_0
 10
744.44899999999996
 20
390.32299999999998
 30
0.0
 70
    32
  0
VERTEX
  5
1D63B
  8
AM_0
 10
744.43200000000002
 20
390.32099999999991
 30
0.0
 70
    32
  0
VERTEX
  5
1D63C
  8
AM_0
 10
744.41499999999985
 20
390.31900000000002
 30
0.0
 70
    32
  0
VERTEX
  5
1D63D
  8
AM_0
 10
744.39899999999989
 20
390.31799999999998
 30
0.0
 70
    32
  0
VERTEX
  5
1D63E
  8
AM_0
 10
744.38199999999995
 20
390.31599999999997
 30
0.0
 70
    32
  0
VERTEX
  5
1D63F
  8
AM_0
 10
744.3649999999999
 20
390.315
 30
0.0
 70
    32
  0
VERTEX
  5
1D640
  8
AM_0
 10
744.34799999999996
 20
390.31299999999999
 30
0.0
 70
    32
  0
VERTEX
  5
1D641
  8
AM_0
 10
744.33100000000002
 20
390.3119999999999
 30
0.0
 70
    32
  0
VERTEX
  5
1D642
  8
AM_0
 10
744.31399999999985
 20
390.31099999999998
 30
0.0
 70
    32
  0
VERTEX
  5
1D643
  8
AM_0
 10
744.29700000000003
 20
390.31
 30
0.0
 70
    32
  0
VERTEX
  5
1D644
  8
AM_0
 10
744.27999999999997
 20
390.30900000000003
 30
0.0
 70
    32
  0
VERTEX
  5
1D645
  8
AM_0
 10
744.26300000000003
 20
390.30799999999999
 30
0.0
 70
    32
  0
VERTEX
  5
1D646
  8
AM_0
 10
744.24600000000009
 20
390.30799999999999
 30
0.0
 70
    32
  0
VERTEX
  5
1D647
  8
AM_0
 10
744.23000000000002
 20
390.3069999999999
 30
0.0
 70
    32
  0
VERTEX
  5
1D648
  8
AM_0
 10
744.21299999999997
 20
390.3069999999999
 30
0.0
 70
    32
  0
VERTEX
  5
1D649
  8
AM_0
 10
744.19600000000003
 20
390.30599999999998
 30
0.0
 70
    32
  0
VERTEX
  5
1D64A
  8
AM_0
 10
744.17899999999997
 20
390.30599999999998
 30
0.0
 70
    32
  0
VERTEX
  5
1D64B
  8
AM_0
 10
744.16199999999992
 20
390.30599999999998
 30
0.0
 70
    32
  0
VERTEX
  5
1D64C
  8
AM_0
 10
744.14499999999987
 20
390.30500000000001
 30
0.0
 70
    32
  0
VERTEX
  5
1D64D
  8
AM_0
 10
744.12800000000004
 20
390.30500000000001
 30
0.0
 70
    32
  0
SEQEND
  5
1D64E
  8
AM_0
  0
LINE
  5
18FB8
  8
AM_0
 10
747.09652229475125
 20
381.30524187140321
 30
0.0
 11
759.09652229835126
 21
381.30524187140333
 31
0.0
  0
LINE
  5
18FBA
  8
AM_0
 10
759.09651621867704
 20
391.80545672109139
 30
0.0
 11
748.09651700585709
 21
391.80543732699448
 31
0.0
  0
LINE
  5
193E1
  8
ﾁｭｳｼﾝｾﾝ1
 10
692.59654889167837
 20
403.30398187140332
 30
0.0
 11
692.59654889167837
 21
433.3039818714031
 31
0.0
  0
LINE
  5
193E2
  8
ﾁｭｳｼﾝｾﾝ1
 10
677.59654889167837
 20
418.30398187140281
 30
0.0
 11
707.59654889167848
 21
418.30398187140281
 31
0.0
  0
LINE
  5
193E3
  8
ﾁｭｳｼﾝｾﾝ1
 10
692.59654889167837
 20
203.30398187140369
 30
0.0
 11
692.59654889167837
 21
233.30398187140369
 31
0.0
  0
LINE
  5
193E4
  8
ﾁｭｳｼﾝｾﾝ1
 10
677.59654889167837
 20
218.30398187140361
 30
0.0
 11
707.59654889167848
 21
218.30398187140361
 31
0.0
  0
LINE
  5
193E5
  8
ﾁｭｳｼﾝｾﾝ1
 10
547.59652002972678
 20
203.30398187140369
 30
0.0
 11
547.59652002972678
 21
233.30398187140369
 31
0.0
  0
LINE
  5
193E6
  8
ﾁｭｳｼﾝｾﾝ1
 10
532.59652002972655
 20
218.30398187140361
 30
0.0
 11
562.59652002972689
 21
218.30398187140361
 31
0.0
  0
LINE
  5
195D0
  8
AM_0
 10
339.04499147716598
 20
513.10237770607284
 30
0.0
 11
339.04499147716598
 21
563.10337919721928
 31
0.0
  0
LINE
  5
195D1
  8
ﾁｭｳｼﾝｾﾝ1
 10
270.0449894194258
 20
508.10287845164601
 30
0.0
 11
270.0449894194258
 21
568.10287845164612
 31
0.0
  0
LINE
  5
195D2
  8
AM_0
 10
201.04498736168549
 20
513.10237770607284
 30
0.0
 11
201.04498736168549
 21
563.10337919721928
 31
0.0
  0
LINE
  5
195D3
  8
AM_0
 10
215.04498751079711
 20
504.10287845164561
 30
0.0
 11
206.04498751079711
 21
504.10287845164561
 31
0.0
  0
LINE
  5
195D4
  8
AM_0
 10
206.04498751079711
 20
504.10287845164561
 30
0.0
 11
215.04498751079711
 21
513.10237770607284
 31
0.0
  0
LINE
  5
195D5
  8
AM_0
 10
215.04498751079711
 20
504.10287845164561
 30
0.0
 11
206.04498751079711
 21
513.10237770607284
 31
0.0
  0
LINE
  5
195D6
  8
AM_0
 10
223.59847879394411
 20
513.10237770607284
 30
0.0
 11
201.04498736168549
 21
513.10237770607284
 31
0.0
  0
POLYLINE
  5
195D7
  8
AM_4
 66
     1
 10
0.0
 20
0.0
 30
0.0
  0
VERTEX
  5
195D8
  8
AM_4
 10
334.04499132805449
 20
499.69875825052031
 30
0.0
  0
VERTEX
  5
195D9
  8
AM_4
 10
333.5532208552026
 20
499.77162066672452
 30
0.0
  0
VERTEX
  5
195DA
  8
AM_4
 10
332.05169909369511
 20
500.14582975761903
 30
0.0
  0
VERTEX
  5
195DB
  8
AM_4
 10
330.93147504883137
 20
500.57511326768167
 30
0.0
  0
VERTEX
  5
195DC
  8
AM_4
 10
330.07777033048723
 20
501.0363075428088
 30
0.0
  0
VERTEX
  5
195DD
  8
AM_4
 10
329.37580654853809
 20
501.50624892889817
 30
0.0
  0
VERTEX
  5
195DE
  8
AM_4
 10
328.71080531285889
 20
501.9617737718458
 30
0.0
  0
VERTEX
  5
195DF
  8
AM_4
 10
327.99106279574949
 20
502.38554982706449
 30
0.0
  0
VERTEX
  5
195E0
  8
AM_4
 10
327.21717341920521
 20
502.78357048802548
 30
0.0
  0
VERTEX
  5
195E1
  8
AM_4
 10
326.4128061676459
 20
503.16766055771552
 30
0.0
  0
VERTEX
  5
195E2
  8
AM_4
 10
325.6016300254912
 20
503.5496448391209
 30
0.0
  0
VERTEX
  5
195E3
  8
AM_4
 10
324.8073139771605
 20
503.94134813522891
 30
0.0
  0
VERTEX
  5
195E4
  8
AM_4
 10
324.05352700707391
 20
504.35459524902512
 30
0.0
  0
VERTEX
  5
195E5
  8
AM_4
 10
323.36393809965051
 20
504.80121098349719
 30
0.0
  0
VERTEX
  5
195E6
  8
AM_4
 10
322.76221623931042
 20
505.29302014163079
 30
0.0
  0
VERTEX
  5
195E7
  8
AM_4
 10
322.26273574089743
 20
505.83809490649003
 30
0.0
  0
VERTEX
  5
195E8
  8
AM_4
 10
321.84269224095198
 20
506.4294969814473
 30
0.0
  0
VERTEX
  5
195E9
  8
AM_4
 10
321.46998670643939
 20
507.0565354499517
 30
0.0
  0
VERTEX
  5
195EA
  8
AM_4
 10
321.11252010432452
 20
507.7085193954523
 30
0.0
  0
VERTEX
  5
195EB
  8
AM_4
 10
320.7381934015724
 20
508.37475790139843
 30
0.0
  0
VERTEX
  5
195EC
  8
AM_4
 10
320.31490756514791
 20
509.04456005123973
 30
0.0
  0
VERTEX
  5
195ED
  8
AM_4
 10
319.81056356201589
 20
509.70723492842518
 30
0.0
  0
VERTEX
  5
195EE
  8
AM_4
 10
319.19306235914149
 20
510.35209161640421
 30
0.0
  0
VERTEX
  5
195EF
  8
AM_4
 10
318.43873497267288
 20
510.96860118195173
 30
0.0
  0
VERTEX
  5
195F0
  8
AM_4
 10
317.55763261549077
 20
511.54688262514838
 30
0.0
  0
VERTEX
  5
195F1
  8
AM_4
 10
316.56823654965871
 20
512.07721692940015
 30
0.0
  0
VERTEX
  5
195F2
  8
AM_4
 10
315.4890280372407
 20
512.54988507811299
 30
0.0
  0
VERTEX
  5
195F3
  8
AM_4
 10
314.33848834030027
 20
512.95516805469265
 30
0.0
  0
VERTEX
  5
195F4
  8
AM_4
 10
313.1350987209014
 20
513.28334684254571
 30
0.0
  0
VERTEX
  5
195F5
  8
AM_4
 10
311.8973404411077
 20
513.52470242507775
 30
0.0
  0
VERTEX
  5
195F6
  8
AM_4
 10
310.6436947629831
 20
513.66951578569569
 30
0.0
  0
VERTEX
  5
195F7
  8
AM_4
 10
309.38886023405428
 20
513.71422328428707
 30
0.0
  0
VERTEX
  5
195F8
  8
AM_4
 10
308.13240454369912
 20
513.67988278667156
 30
0.0
  0
VERTEX
  5
195F9
  8
AM_4
 10
306.8701126667579
 20
513.59370753514941
 30
0.0
  0
VERTEX
  5
195FA
  8
AM_4
 10
305.59776957807162
 20
513.48291077202202
 30
0.0
  0
VERTEX
  5
195FB
  8
AM_4
 10
304.31116025248087
 20
513.37470573959058
 30
0.0
  0
VERTEX
  5
195FC
  8
AM_4
 10
303.0060696648265
 20
513.29630568015591
 30
0.0
  0
VERTEX
  5
195FD
  8
AM_4
 10
301.67828278994892
 20
513.27492383601907
 30
0.0
  0
VERTEX
  5
195FE
  8
AM_4
 10
300.32358460268881
 20
513.33777344948123
 30
0.0
  0
VERTEX
  5
195FF
  8
AM_4
 10
298.94078406295938
 20
513.50216710724658
 30
0.0
  0
VERTEX
  5
19600
  8
AM_4
 10
297.54078607096392
 20
513.74581477362835
 30
0.0
  0
VERTEX
  5
19601
  8
AM_4
 10
296.13751951197793
 20
514.03652575734316
 30
0.0
  0
VERTEX
  5
19602
  8
AM_4
 10
294.7449132712768
 20
514.34210936710781
 30
0.0
  0
VERTEX
  5
19603
  8
AM_4
 10
293.37689623413632
 20
514.63037491163846
 30
0.0
  0
VERTEX
  5
19604
  8
AM_4
 10
292.04739728583212
 20
514.86913169965192
 30
0.0
  0
VERTEX
  5
19605
  8
AM_4
 10
290.77034531163969
 20
515.02618903986445
 30
0.0
  0
VERTEX
  5
19606
  8
AM_4
 10
289.55966919683482
 20
515.06935624099265
 30
0.0
  0
VERTEX
  5
19607
  8
AM_4
 10
288.41995786378038
 20
514.97791408548585
 30
0.0
  0
VERTEX
  5
19608
  8
AM_4
 10
287.31844038318889
 20
514.77702925072674
 30
0.0
  0
VERTEX
  5
19609
  8
AM_4
 10
286.21300586286043
 20
514.50333988782972
 30
0.0
  0
VERTEX
  5
1960A
  8
AM_4
 10
285.06154341059522
 20
514.19348414791011
 30
0.0
  0
VERTEX
  5
1960B
  8
AM_4
 10
283.82194213419319
 20
513.88410018208288
 30
0.0
  0
VERTEX
  5
1960C
  8
AM_4
 10
282.45209114145439
 20
513.61182614146298
 30
0.0
  0
VERTEX
  5
1960D
  8
AM_4
 10
280.90987954017868
 20
513.41330017716564
 30
0.0
  0
VERTEX
  5
1960E
  8
AM_4
 10
279.15319643816662
 20
513.32516044030558
 30
0.0
  0
VERTEX
  5
1960F
  8
AM_4
 10
277.1541830803705
 20
513.3720634390595
 30
0.0
  0
VERTEX
  5
19610
  8
AM_4
 10
274.94198926035551
 20
513.5307391098471
 30
0.0
  0
VERTEX
  5
19611
  8
AM_4
 10
272.56001690883932
 20
513.76593574615015
 30
0.0
  0
VERTEX
  5
19612
  8
AM_4
 10
270.05166795653957
 20
514.04240164145017
 30
0.0
  0
VERTEX
  5
19613
  8
AM_4
 10
267.46034433417418
 20
514.32488508922802
 30
0.0
  0
VERTEX
  5
19614
  8
AM_4
 10
264.82944797246068
 20
514.57813438296535
 30
0.0
  0
VERTEX
  5
19615
  8
AM_4
 10
262.20238080211698
 20
514.76689781614414
 30
0.0
  0
VERTEX
  5
19616
  8
AM_4
 10
259.62254475386061
 20
514.85592368224491
 30
0.0
  0
VERTEX
  5
19617
  8
AM_4
 10
257.12611323697553
 20
514.8214253590711
 30
0.0
  0
VERTEX
  5
19618
  8
AM_4
 10
254.7203455750103
 20
514.68547656171199
 30
0.0
  0
VERTEX
  5
19619
  8
AM_4
 10
252.40527257008
 20
514.48161608957844
 30
0.0
  0
VERTEX
  5
1961A
  8
AM_4
 10
250.18092502429911
 20
514.24338274208139
 30
0.0
  0
VERTEX
  5
1961B
  8
AM_4
 10
248.0473337397826
 20
514.00431531863194
 30
0.0
  0
VERTEX
  5
1961C
  8
AM_4
 10
246.0045295186452
 20
513.79795261864115
 30
0.0
  0
VERTEX
  5
1961D
  8
AM_4
 10
244.0525431630017
 20
513.65783344151964
 30
0.0
  0
VERTEX
  5
1961E
  8
AM_4
 10
242.1914054749669
 20
513.6174965866785
 30
0.0
  0
VERTEX
  5
1961F
  8
AM_4
 10
240.42011243856791
 20
513.69915892733752
 30
0.0
  0
VERTEX
  5
19620
  8
AM_4
 10
238.7335207654809
 20
513.87974963195154
 30
0.0
  0
VERTEX
  5
19621
  8
AM_4
 10
237.12545234929439
 20
514.12487594278366
 30
0.0
  0
VERTEX
  5
19622
  8
AM_4
 10
235.58972908359681
 20
514.40014510209835
 30
0.0
  0
VERTEX
  5
19623
  8
AM_4
 10
234.1201728619767
 20
514.6711643521586
 30
0.0
  0
VERTEX
  5
19624
  8
AM_4
 10
232.71060557802261
 20
514.90354093522785
 30
0.0
  0
VERTEX
  5
19625
  8
AM_4
 10
231.354849125323
 20
515.06288209357001
 30
0.0
  0
VERTEX
  5
19626
  8
AM_4
 10
230.04672539746619
 20
515.11479506944875
 30
0.0
  0
VERTEX
  5
19627
  8
AM_4
 10
228.78211369182719
 20
515.03260193248877
 30
0.0
  0
VERTEX
  5
19628
  8
AM_4
 10
227.56512292092751
 20
514.82048406176273
 30
0.0
  0
VERTEX
  5
19629
  8
AM_4
 10
226.40191940107431
 20
514.49033766370371
 30
0.0
  0
VERTEX
  5
1962A
  8
AM_4
 10
225.29866944857551
 20
514.05405894474529
 30
0.0
  0
VERTEX
  5
1962B
  8
AM_4
 10
224.26153937973871
 20
513.52354411132137
 30
0.0
  0
VERTEX
  5
1962C
  8
AM_4
 10
223.29669551087139
 20
512.91068936986528
 30
0.0
  0
VERTEX
  5
1962D
  8
AM_4
 10
222.41030415828121
 20
512.22739092681093
 30
0.0
  0
VERTEX
  5
1962E
  8
AM_4
 10
221.60853163827591
 20
511.48554498859158
 30
0.0
  0
VERTEX
  5
1962F
  8
AM_4
 10
220.89397672571201
 20
510.69808875489332
 30
0.0
  0
VERTEX
  5
19630
  8
AM_4
 10
220.25496802964301
 20
509.8821233984126
 30
0.0
  0
VERTEX
  5
19631
  8
AM_4
 10
219.6762666176709
 20
509.05579108509647
 30
0.0
  0
VERTEX
  5
19632
  8
AM_4
 10
219.1426335573982
 20
508.23723398089368
 30
0.0
  0
VERTEX
  5
19633
  8
AM_4
 10
218.63882991642711
 20
507.44459425175268
 30
0.0
  0
VERTEX
  5
19634
  8
AM_4
 10
218.14961676235981
 20
506.69601406362091
 30
0.0
  0
VERTEX
  5
19635
  8
AM_4
 10
217.6597551627986
 20
506.009635582447
 30
0.0
  0
VERTEX
  5
19636
  8
AM_4
 10
217.15400618534591
 20
505.4036009741788
 30
0.0
  0
VERTEX
  5
19637
  8
AM_4
 10
216.6215890952171
 20
504.88946507080169
 30
0.0
  0
VERTEX
  5
19638
  8
AM_4
 10
216.0695559480807
 20
504.45243336844771
 30
0.0
  0
VERTEX
  5
19639
  8
AM_4
 10
215.50941699721869
 20
504.07112402928612
 30
0.0
  0
VERTEX
  5
1963A
  8
AM_4
 10
214.9526824959124
 20
503.72415521548601
 30
0.0
  0
VERTEX
  5
1963B
  8
AM_4
 10
214.41086269744389
 20
503.39014508921662
 30
0.0
  0
VERTEX
  5
1963C
  8
AM_4
 10
213.89546785509469
 20
503.04771181264681
 30
0.0
  0
VERTEX
  5
1963D
  8
AM_4
 10
213.4180082221468
 20
502.67547354794658
 30
0.0
  0
VERTEX
  5
1963E
  8
AM_4
 10
212.98999405188169
 20
502.25204845728439
 30
0.0
  0
VERTEX
  5
1963F
  8
AM_4
 10
212.6043462589974
 20
501.76501779607878
 30
0.0
  0
VERTEX
  5
19640
  8
AM_4
 10
212.17962840385681
 20
501.2378151927449
 30
0.0
  0
VERTEX
  5
19641
  8
AM_4
 10
211.6158147082387
 20
500.70283736894743
 30
0.0
  0
VERTEX
  5
19642
  8
AM_4
 10
210.81287939392189
 20
500.19248104635028
 30
0.0
  0
VERTEX
  5
19643
  8
AM_4
 10
209.67079668268559
 20
499.73914294661802
 30
0.0
  0
VERTEX
  5
19644
  8
AM_4
 10
208.0895407963086
 20
499.37521979141542
 30
0.0
  0
VERTEX
  5
19645
  8
AM_4
 10
206.0449875107972
 20
499.1417746686821
 30
0.0
  0
SEQEND
  5
19646
  8
AM_4
  0
LINE
  5
19647
  8
AM_0
 10
206.04498751079711
 20
513.10237770607284
 30
0.0
 11
206.0449875107972
 21
499.1417746686821
 31
0.0
  0
LINE
  5
19648
  8
AM_0
 10
334.04499132805438
 20
504.10287845164561
 30
0.0
 11
325.04499132805449
 21
504.10287845164561
 31
0.0
  0
LINE
  5
19649
  8
AM_0
 10
325.04499132805449
 20
504.10287845164561
 30
0.0
 11
334.04499132805449
 21
513.10237770607284
 31
0.0
  0
LINE
  5
1964A
  8
AM_0
 10
334.04499132805449
 20
504.10287845164561
 30
0.0
 11
325.04499132805449
 21
513.10237770607284
 31
0.0
  0
LINE
  5
1964B
  8
AM_0
 10
339.04499147716598
 20
513.10237770607284
 30
0.0
 11
313.79868938648838
 21
513.10237770607284
 31
0.0
  0
LINE
  5
1964C
  8
AM_0
 10
215.04498751079711
 20
513.10237770607284
 30
0.0
 11
215.044987510797
 21
504.10287845164561
 31
0.0
  0
LINE
  5
1964D
  8
AM_0
 10
325.04499132805449
 20
513.10237770607284
 30
0.0
 11
325.04499132805449
 21
504.10287845164561
 31
0.0
  0
LINE
  5
1964E
  8
AM_0
 10
334.04499132805449
 20
513.10237770607284
 30
0.0
 11
334.04499132805449
 21
499.69875825052031
 31
0.0
  0
POLYLINE
  5
1964F
  8
AM_4
 66
     1
 10
0.0
 20
0.0
 30
0.0
  0
VERTEX
  5
19650
  8
AM_4
 10
334.04499132805449
 20
576.50699865277193
 30
0.0
  0
VERTEX
  5
19651
  8
AM_4
 10
333.5532208552026
 20
576.43413623656738
 30
0.0
  0
VERTEX
  5
19652
  8
AM_4
 10
332.05169909369511
 20
576.05992714567287
 30
0.0
  0
VERTEX
  5
19653
  8
AM_4
 10
330.93147504883137
 20
575.63064363561023
 30
0.0
  0
VERTEX
  5
19654
  8
AM_4
 10
330.07777033048723
 20
575.16944936048321
 30
0.0
  0
VERTEX
  5
19655
  8
AM_4
 10
329.37580654853809
 20
574.69950797439401
 30
0.0
  0
VERTEX
  5
19656
  8
AM_4
 10
328.71080531285889
 20
574.24398313144604
 30
0.0
  0
VERTEX
  5
19657
  8
AM_4
 10
327.99106279574949
 20
573.82020707622769
 30
0.0
  0
VERTEX
  5
19658
  8
AM_4
 10
327.21717341920521
 20
573.42218641526654
 30
0.0
  0
VERTEX
  5
19659
  8
AM_4
 10
326.4128061676459
 20
573.03809634557661
 30
0.0
  0
VERTEX
  5
1965A
  8
AM_4
 10
325.6016300254912
 20
572.656112064171
 30
0.0
  0
VERTEX
  5
1965B
  8
AM_4
 10
324.8073139771605
 20
572.26440876806328
 30
0.0
  0
VERTEX
  5
1965C
  8
AM_4
 10
324.05352700707391
 20
571.85116165426666
 30
0.0
  0
VERTEX
  5
1965D
  8
AM_4
 10
323.36393809965051
 20
571.40454591979517
 30
0.0
  0
VERTEX
  5
1965E
  8
AM_4
 10
322.76221623931042
 20
570.91273676166122
 30
0.0
  0
VERTEX
  5
1965F
  8
AM_4
 10
322.26273574089743
 20
570.36766199680176
 30
0.0
  0
VERTEX
  5
19660
  8
AM_4
 10
321.84269224095198
 20
569.77625992184483
 30
0.0
  0
VERTEX
  5
19661
  8
AM_4
 10
321.46998670643939
 20
569.14922145334015
 30
0.0
  0
VERTEX
  5
19662
  8
AM_4
 10
321.11252010432452
 20
568.4972375078396
 30
0.0
  0
VERTEX
  5
19663
  8
AM_4
 10
320.7381934015724
 20
567.83099900189325
 30
0.0
  0
VERTEX
  5
19664
  8
AM_4
 10
320.31490756514791
 20
567.16119685205206
 30
0.0
  0
VERTEX
  5
19665
  8
AM_4
 10
319.81056356201589
 20
566.49852197486643
 30
0.0
  0
VERTEX
  5
19666
  8
AM_4
 10
319.19306235914149
 20
565.85366528688792
 30
0.0
  0
VERTEX
  5
19667
  8
AM_4
 10
318.43873497267288
 20
565.23715572134029
 30
0.0
  0
VERTEX
  5
19668
  8
AM_4
 10
317.55763261549077
 20
564.65887427814323
 30
0.0
  0
VERTEX
  5
19669
  8
AM_4
 10
316.56823654965871
 20
564.12853997389175
 30
0.0
  0
VERTEX
  5
1966A
  8
AM_4
 10
315.4890280372407
 20
563.65587182517925
 30
0.0
  0
VERTEX
  5
1966B
  8
AM_4
 10
314.33848834030027
 20
563.25058884859948
 30
0.0
  0
VERTEX
  5
1966C
  8
AM_4
 10
313.1350987209014
 20
562.92241006074642
 30
0.0
  0
VERTEX
  5
1966D
  8
AM_4
 10
311.8973404411077
 20
562.68105447821415
 30
0.0
  0
VERTEX
  5
1966E
  8
AM_4
 10
310.6436947629831
 20
562.53624111759655
 30
0.0
  0
VERTEX
  5
1966F
  8
AM_4
 10
309.38886023405428
 20
562.49153361900483
 30
0.0
  0
VERTEX
  5
19670
  8
AM_4
 10
308.13240454369912
 20
562.52587411662034
 30
0.0
  0
VERTEX
  5
19671
  8
AM_4
 10
306.8701126667579
 20
562.61204936814272
 30
0.0
  0
VERTEX
  5
19672
  8
AM_4
 10
305.59776957807162
 20
562.7228461312701
 30
0.0
  0
VERTEX
  5
19673
  8
AM_4
 10
304.31116025248087
 20
562.83105116370166
 30
0.0
  0
VERTEX
  5
19674
  8
AM_4
 10
303.0060696648265
 20
562.90945122313633
 30
0.0
  0
VERTEX
  5
19675
  8
AM_4
 10
301.67828278994892
 20
562.93083306727283
 30
0.0
  0
VERTEX
  5
19676
  8
AM_4
 10
300.32358460268881
 20
562.86798345381067
 30
0.0
  0
VERTEX
  5
19677
  8
AM_4
 10
298.94078406295938
 20
562.70358979604555
 30
0.0
  0
VERTEX
  5
19678
  8
AM_4
 10
297.54078607096392
 20
562.45994212966355
 30
0.0
  0
VERTEX
  5
19679
  8
AM_4
 10
296.13751951197793
 20
562.16923114594874
 30
0.0
  0
VERTEX
  5
1967A
  8
AM_4
 10
294.7449132712768
 20
561.86364753618432
 30
0.0
  0
VERTEX
  5
1967B
  8
AM_4
 10
293.37689623413632
 20
561.57538199165367
 30
0.0
  0
VERTEX
  5
1967C
  8
AM_4
 10
292.04739728583212
 20
561.33662520364032
 30
0.0
  0
VERTEX
  5
1967D
  8
AM_4
 10
290.77034531163969
 20
561.17956786342756
 30
0.0
  0
VERTEX
  5
1967E
  8
AM_4
 10
289.55966919683482
 20
561.13640066229971
 30
0.0
  0
VERTEX
  5
1967F
  8
AM_4
 10
288.41995786378038
 20
561.22784281780605
 30
0.0
  0
VERTEX
  5
19680
  8
AM_4
 10
287.31844038318889
 20
561.42872765256527
 30
0.0
  0
VERTEX
  5
19681
  8
AM_4
 10
286.21300586286043
 20
561.70241701546195
 30
0.0
  0
VERTEX
  5
19682
  8
AM_4
 10
285.06154341059522
 20
562.01227275538201
 30
0.0
  0
VERTEX
  5
19683
  8
AM_4
 10
283.82194213419319
 20
562.32165672120925
 30
0.0
  0
VERTEX
  5
19684
  8
AM_4
 10
282.45209114145439
 20
562.59393076182914
 30
0.0
  0
VERTEX
  5
19685
  8
AM_4
 10
280.90987954017868
 20
562.7924567261266
 30
0.0
  0
VERTEX
  5
19686
  8
AM_4
 10
279.15319643816662
 20
562.8805964629862
 30
0.0
  0
VERTEX
  5
19687
  8
AM_4
 10
277.1541830803705
 20
562.83369346423274
 30
0.0
  0
VERTEX
  5
19688
  8
AM_4
 10
274.94198926035551
 20
562.67501779344479
 30
0.0
  0
VERTEX
  5
19689
  8
AM_4
 10
272.56001690883932
 20
562.43982115714175
 30
0.0
  0
VERTEX
  5
1968A
  8
AM_4
 10
270.05166795653957
 20
562.16335526184173
 30
0.0
  0
VERTEX
  5
1968B
  8
AM_4
 10
267.46034433417418
 20
561.88087181406377
 30
0.0
  0
VERTEX
  5
1968C
  8
AM_4
 10
264.82944797246068
 20
561.62762252032644
 30
0.0
  0
VERTEX
  5
1968D
  8
AM_4
 10
262.20238080211698
 20
561.43885908714765
 30
0.0
  0
VERTEX
  5
1968E
  8
AM_4
 10
259.62254475386061
 20
561.34983322104722
 30
0.0
  0
VERTEX
  5
1968F
  8
AM_4
 10
257.12611323697553
 20
561.38433154422091
 30
0.0
  0
VERTEX
  5
19690
  8
AM_4
 10
254.7203455750103
 20
561.52028034158025
 30
0.0
  0
VERTEX
  5
19691
  8
AM_4
 10
252.40527257008
 20
561.7241408137138
 30
0.0
  0
VERTEX
  5
19692
  8
AM_4
 10
250.18092502429911
 20
561.96237416121073
 30
0.0
  0
VERTEX
  5
19693
  8
AM_4
 10
248.0473337397826
 20
562.20144158465985
 30
0.0
  0
VERTEX
  5
19694
  8
AM_4
 10
246.0045295186452
 20
562.40780428465109
 30
0.0
  0
VERTEX
  5
19695
  8
AM_4
 10
244.0525431630017
 20
562.5479234617726
 30
0.0
  0
VERTEX
  5
19696
  8
AM_4
 10
242.1914054749669
 20
562.58826031661363
 30
0.0
  0
VERTEX
  5
19697
  8
AM_4
 10
240.42011243856791
 20
562.50659797595461
 30
0.0
  0
VERTEX
  5
19698
  8
AM_4
 10
238.7335207654809
 20
562.32600727134059
 30
0.0
  0
VERTEX
  5
19699
  8
AM_4
 10
237.12545234929439
 20
562.08088096050824
 30
0.0
  0
VERTEX
  5
1969A
  8
AM_4
 10
235.58972908359681
 20
561.80561180119355
 30
0.0
  0
VERTEX
  5
1969B
  8
AM_4
 10
234.1201728619767
 20
561.53459255113353
 30
0.0
  0
VERTEX
  5
1969C
  8
AM_4
 10
232.71060557802261
 20
561.30221596806393
 30
0.0
  0
VERTEX
  5
1969D
  8
AM_4
 10
231.354849125323
 20
561.14287480972177
 30
0.0
  0
VERTEX
  5
1969E
  8
AM_4
 10
230.04672539746619
 20
561.09096183384315
 30
0.0
  0
VERTEX
  5
1969F
  8
AM_4
 10
228.78211369182719
 20
561.17315497080313
 30
0.0
  0
VERTEX
  5
196A0
  8
AM_4
 10
227.56512292092751
 20
561.38527284152929
 30
0.0
  0
VERTEX
  5
196A1
  8
AM_4
 10
226.40191940107431
 20
561.71541923958841
 30
0.0
  0
VERTEX
  5
196A2
  8
AM_4
 10
225.29866944857551
 20
562.15169795854683
 30
0.0
  0
VERTEX
  5
196A3
  8
AM_4
 10
224.26153937973871
 20
562.68221279197076
 30
0.0
  0
VERTEX
  5
196A4
  8
AM_4
 10
223.29669551087139
 20
563.29506753342673
 30
0.0
  0
VERTEX
  5
196A5
  8
AM_4
 10
222.41030415828121
 20
563.9783659764812
 30
0.0
  0
VERTEX
  5
196A6
  8
AM_4
 10
221.60853163827591
 20
564.72021191470049
 30
0.0
  0
VERTEX
  5
196A7
  8
AM_4
 10
220.89397672571201
 20
565.50766814839847
 30
0.0
  0
VERTEX
  5
196A8
  8
AM_4
 10
220.25496802964301
 20
566.32363350487958
 30
0.0
  0
VERTEX
  5
196A9
  8
AM_4
 10
219.6762666176709
 20
567.14996581819548
 30
0.0
  0
VERTEX
  5
196AA
  8
AM_4
 10
219.1426335573982
 20
567.96852292239828
 30
0.0
  0
VERTEX
  5
196AB
  8
AM_4
 10
218.63882991642711
 20
568.76116265153917
 30
0.0
  0
VERTEX
  5
196AC
  8
AM_4
 10
218.14961676235981
 20
569.50974283967105
 30
0.0
  0
VERTEX
  5
196AD
  8
AM_4
 10
217.6597551627986
 20
570.19612132084478
 30
0.0
  0
VERTEX
  5
196AE
  8
AM_4
 10
217.15400618534591
 20
570.80215592911316
 30
0.0
  0
VERTEX
  5
196AF
  8
AM_4
 10
216.6215890952171
 20
571.31629183249015
 30
0.0
  0
VERTEX
  5
196B0
  8
AM_4
 10
216.0695559480807
 20
571.75332353484441
 30
0.0
  0
VERTEX
  5
196B1
  8
AM_4
 10
215.50941699721869
 20
572.134632874006
 30
0.0
  0
VERTEX
  5
196B2
  8
AM_4
 10
214.9526824959124
 20
572.48160168780601
 30
0.0
  0
VERTEX
  5
196B3
  8
AM_4
 10
214.41086269744389
 20
572.8156118140754
 30
0.0
  0
VERTEX
  5
196B4
  8
AM_4
 10
213.89546785509469
 20
573.15804509064492
 30
0.0
  0
VERTEX
  5
196B5
  8
AM_4
 10
213.4180082221468
 20
573.53028335534498
 30
0.0
  0
VERTEX
  5
196B6
  8
AM_4
 10
212.98999405188169
 20
573.95370844600745
 30
0.0
  0
VERTEX
  5
196B7
  8
AM_4
 10
212.6043462589974
 20
574.44073910721318
 30
0.0
  0
VERTEX
  5
196B8
  8
AM_4
 10
212.17962840385681
 20
574.96794171054705
 30
0.0
  0
VERTEX
  5
196B9
  8
AM_4
 10
211.6158147082387
 20
575.50291953434476
 30
0.0
  0
VERTEX
  5
196BA
  8
AM_4
 10
210.81287939392189
 20
576.01327585694162
 30
0.0
  0
VERTEX
  5
196BB
  8
AM_4
 10
209.67079668268559
 20
576.46661395667365
 30
0.0
  0
VERTEX
  5
196BC
  8
AM_4
 10
208.0895407963086
 20
576.83053711187654
 30
0.0
  0
VERTEX
  5
196BD
  8
AM_4
 10
206.0449875107972
 20
577.06398223460974
 30
0.0
  0
SEQEND
  5
196BE
  8
AM_4
  0
LINE
  5
196BF
  8
AM_0
 10
223.59847879394411
 20
563.10337919721928
 30
0.0
 11
201.04498736168549
 21
563.10337919721928
 31
0.0
  0
LINE
  5
196C0
  8
AM_0
 10
215.04498751079711
 20
572.10287845164612
 30
0.0
 11
206.04498751079711
 21
563.10337919721928
 31
0.0
  0
LINE
  5
196C1
  8
AM_0
 10
206.04498751079711
 20
572.10287845164612
 30
0.0
 11
215.04498751079711
 21
563.10337919721928
 31
0.0
  0
LINE
  5
196C2
  8
AM_0
 10
215.04498751079711
 20
572.10287845164612
 30
0.0
 11
206.04498751079711
 21
572.10287845164612
 31
0.0
  0
LINE
  5
196C3
  8
AM_0
 10
339.04498736168551
 20
558.8028624299177
 30
0.0
 11
201.04498736168549
 21
558.8028624299177
 31
0.0
  0
LINE
  5
196C4
  8
AM_0
 10
225.39499346520111
 20
555.60288226634316
 30
0.0
 11
204.04498736168549
 21
555.60288226634316
 31
0.0
  0
LINE
  5
196C5
  8
AM_0
 10
225.39499346520111
 20
520.60288226634339
 30
0.0
 11
204.04498736168549
 21
520.60288226634339
 31
0.0
  0
LINE
  5
196C6
  8
ﾁｭｳｼﾝｾﾝ1
 10
344.04499147716598
 20
538.10287845164601
 30
0.0
 11
196.0449873616854
 21
538.10287845164623
 31
0.0
  0
LINE
  5
196C7
  8
AM_0
 10
204.04498736168549
 20
555.60288226634316
 30
0.0
 11
204.04498736168549
 21
520.60288226634339
 31
0.0
  0
LINE
  5
196C8
  8
AM_0
 10
204.04498736168549
 20
520.60287463694874
 30
0.0
 11
201.04498736168549
 21
518.8708238293799
 31
0.0
  0
LINE
  5
196C9
  8
AM_0
 10
206.04498751079711
 20
563.10337919721928
 30
0.0
 11
206.0449875107972
 21
577.06398223460974
 31
0.0
  0
LINE
  5
196CA
  8
AM_0
 10
204.04498736168549
 20
555.60288226634316
 30
0.0
 11
201.04498736168549
 21
557.33493307391223
 31
0.0
  0
LINE
  5
196CB
  8
AM_0
 10
334.04499132805438
 20
572.10287845164612
 30
0.0
 11
325.04499132805449
 21
572.10287845164612
 31
0.0
  0
LINE
  5
196CC
  8
AM_0
 10
334.04499132805449
 20
572.10287845164612
 30
0.0
 11
325.04499132805449
 21
563.10337919721928
 31
0.0
  0
LINE
  5
196CD
  8
AM_0
 10
325.04499132805449
 20
572.10287845164612
 30
0.0
 11
334.04499132805449
 21
563.10337919721928
 31
0.0
  0
LINE
  5
196CE
  8
AM_0
 10
339.04499147716598
 20
563.10337919721928
 30
0.0
 11
313.79868938648838
 21
563.10337919721928
 31
0.0
  0
LINE
  5
196CF
  8
AM_0
 10
336.04498736168517
 20
555.60288226634316
 30
0.0
 11
314.69498125816989
 21
555.60288226634316
 31
0.0
  0
LINE
  5
196D0
  8
AM_0
 10
336.04498736168517
 20
520.60288226634339
 30
0.0
 11
314.69498125816989
 21
520.60288226634339
 31
0.0
  0
LINE
  5
196D1
  8
AM_0
 10
287.04498736168551
 20
555.85288226634339
 30
0.0
 11
253.04498736168549
 21
555.85288226634339
 31
0.0
  0
LINE
  5
196D2
  8
AM_0
 10
287.04498736168551
 20
520.35288226634304
 30
0.0
 11
253.04498736168549
 21
520.35288226634304
 31
0.0
  0
LINE
  5
196D3
  8
AM_0
 10
253.04498736168549
 20
555.85288226634339
 30
0.0
 11
253.04498736168549
 21
520.35288226634304
 31
0.0
  0
LINE
  5
196D4
  8
AM_0
 10
227.04498736168549
 20
556.60288226634304
 30
0.0
 11
227.04498736168549
 21
519.60288226634339
 31
0.0
  0
LINE
  5
196D5
  8
AM_0
 10
225.39499346520111
 20
556.60288226634304
 30
0.0
 11
225.39499346520111
 21
519.60288226634339
 31
0.0
  0
LINE
  5
196D6
  8
AM_0
 10
253.04498736168549
 20
520.60288226634339
 30
0.0
 11
227.04498736168549
 21
520.60288226634339
 31
0.0
  0
LINE
  5
196D7
  8
AM_0
 10
225.39499346520111
 20
519.60288226634339
 30
0.0
 11
227.04498736168549
 21
519.60288226634339
 31
0.0
  0
LINE
  5
196D8
  8
AM_0
 10
253.04498736168549
 20
555.60288226634316
 30
0.0
 11
227.04498736168549
 21
555.60288226634316
 31
0.0
  0
LINE
  5
196D9
  8
AM_0
 10
215.04498751079711
 20
563.10337919721928
 30
0.0
 11
215.044987510797
 21
572.10287845164612
 31
0.0
  0
LINE
  5
196DA
  8
AM_0
 10
225.39499346520111
 20
556.60288226634304
 30
0.0
 11
227.04498736168549
 21
556.60288226634304
 31
0.0
  0
LINE
  5
196DB
  8
AM_0
 10
314.69498125816989
 20
556.60288226634304
 30
0.0
 11
314.69498125816989
 21
519.60288226634339
 31
0.0
  0
LINE
  5
196DC
  8
AM_0
 10
313.0449873616854
 20
556.60288226634304
 30
0.0
 11
313.0449873616854
 21
519.60288226634339
 31
0.0
  0
LINE
  5
196DD
  8
AM_0
 10
287.04498736168551
 20
555.85288226634339
 30
0.0
 11
287.04498736168551
 21
520.35288226634304
 31
0.0
  0
LINE
  5
196DE
  8
AM_0
 10
313.0449873616854
 20
520.60288226634339
 30
0.0
 11
287.04498736168551
 21
520.60288226634339
 31
0.0
  0
LINE
  5
196DF
  8
AM_0
 10
314.69498125816989
 20
519.60288226634339
 30
0.0
 11
313.0449873616854
 21
519.60288226634339
 31
0.0
  0
LINE
  5
196E0
  8
AM_0
 10
313.0449873616854
 20
555.60288226634316
 30
0.0
 11
287.04498736168551
 21
555.60288226634316
 31
0.0
  0
LINE
  5
196E1
  8
AM_0
 10
325.04499132805449
 20
563.10337919721928
 30
0.0
 11
325.04499132805449
 21
572.10287845164612
 31
0.0
  0
LINE
  5
196E2
  8
AM_0
 10
314.69498125816989
 20
556.60288226634304
 30
0.0
 11
313.0449873616854
 21
556.60288226634304
 31
0.0
  0
LINE
  5
196E3
  8
AM_0
 10
336.04498736168517
 20
555.60288226634316
 30
0.0
 11
336.04498736168517
 21
520.60288226634339
 31
0.0
  0
LINE
  5
196E4
  8
AM_0
 10
336.04498736168517
 20
520.60287463694874
 30
0.0
 11
339.04498736168551
 21
518.8708238293799
 31
0.0
  0
LINE
  5
196E5
  8
AM_0
 10
334.04499132805449
 20
563.10337919721928
 30
0.0
 11
334.04499132805449
 21
576.50699865277193
 31
0.0
  0
LINE
  5
196E6
  8
AM_0
 10
336.04498736168517
 20
555.60288226634316
 30
0.0
 11
339.04498736168551
 21
557.33493307391223
 31
0.0
  0
LINE
  5
196E7
  8
AM_0
 10
567.59604814660565
 20
738.16773658882414
 30
0.0
 11
617.59704963675142
 21
738.16773658882414
 31
0.0
  0
LINE
  5
196E8
  8
AM_0
 10
542.59554769956185
 20
733.16773643831255
 30
0.0
 11
642.59755008379523
 21
733.16773643831255
 31
0.0
  0
LINE
  5
196E9
  8
AM_0
 10
720.97316182689451
 20
728.16773628780118
 30
0.0
 11
519.21990709451563
 21
728.16773628780095
 31
0.0
  0
LINE
  5
196ED
  8
AM_0
 10
722.59652228740117
 20
635.16773327756891
 30
0.0
 11
517.59654663400397
 21
635.16773327756812
 31
0.0
  0
LINE
  5
196EE
  8
ﾁｭｳｼﾝｾﾝ1
 10
1062.71
 20
669.16773041879344
 30
0.0
 11
512.5965466340042
 21
669.16773541879354
 31
0.0
  0
LINE
  5
1972E
  8
AM_0
 10
745.09657621447764
 20
739.66912807960455
 30
0.0
 11
745.09657621447752
 21
669.16773262400875
 31
0.0
  0
LINE
  5
1972F
  8
AM_0
 10
720.9731618268944
 20
728.16773628780118
 30
0.0
 11
722.59652228746643
 21
635.16773327756891
 31
0.0
  0
LINE
  5
19734
  8
AM_0
 10
759.09657621867746
 20
595.66774641879351
 30
0.0
 11
759.09657621867746
 21
742.6677354187932
 31
0.0
  0
ARC
  5
19736
  8
AM_0
 10
737.81648867096874
 20
599.16631357476297
 30
0.0
 40
2.0
 50
184.99999999999969
 51
269.99993053332798
1001
GENIUS_GENODEF_13
1002
{
1000
HIER
1070
     0
1002
}
1002
{
1000
MANEDIT
1070
     0
1002
}
1002
{
1000
NOSEL
1070
     0
1002
}
1002
{
1000
BEHIND
1070
     0
1002
}
1002
{
1000
OTHER
1070
     0
1002
}
1002
{
1000
REACTOR
1002
}
1001
GENIUS_GENOBJ-N-FIL_13
1002
{
1000
OWNER
1000
GEN
1002
}
  0
LINE
  5
19737
  8
AM_0
 10
745.09657621447764
 20
598.66633716841295
 30
0.0
 11
745.09657621447752
 21
669.16773262400875
 31
0.0
  0
LINE
  5
19740
  8
AM_0
 10
759.09657013900403
 20
595.66625777432046
 30
0.0
 11
748.09657092618363
 21
595.66627716841754
 31
0.0
  0
LINE
  5
19741
  8
AM_0
 10
744.12795429737105
 20
597.16630592260117
 30
0.0
 11
737.81648624612478
 21
597.1663135747649
 31
0.0
  0
POLYLINE
  5
19742
  8
AM_0
 66
     1
 10
0.0
 20
0.0
 30
0.0
 70
     8
  0
VERTEX
  5
1D64F
  8
AM_0
 10
744.12800000000004
 20
597.16599999999994
 30
0.0
 70
    32
  0
VERTEX
  5
1D650
  8
AM_0
 10
744.14499999999987
 20
597.16599999999994
 30
0.0
 70
    32
  0
VERTEX
  5
1D651
  8
AM_0
 10
744.16199999999992
 20
597.16599999999994
 30
0.0
 70
    32
  0
VERTEX
  5
1D652
  8
AM_0
 10
744.17899999999997
 20
597.16599999999994
 30
0.0
 70
    32
  0
VERTEX
  5
1D653
  8
AM_0
 10
744.19600000000003
 20
597.16599999999994
 30
0.0
 70
    32
  0
VERTEX
  5
1D654
  8
AM_0
 10
744.21299999999997
 20
597.16499999999985
 30
0.0
 70
    32
  0
VERTEX
  5
1D655
  8
AM_0
 10
744.23000000000002
 20
597.16499999999985
 30
0.0
 70
    32
  0
VERTEX
  5
1D656
  8
AM_0
 10
744.24600000000009
 20
597.16399999999987
 30
0.0
 70
    32
  0
VERTEX
  5
1D657
  8
AM_0
 10
744.26300000000003
 20
597.16300000000001
 30
0.0
 70
    32
  0
VERTEX
  5
1D658
  8
AM_0
 10
744.27999999999997
 20
597.16199999999992
 30
0.0
 70
    32
  0
VERTEX
  5
1D659
  8
AM_0
 10
744.29700000000003
 20
597.16199999999992
 30
0.0
 70
    32
  0
VERTEX
  5
1D65A
  8
AM_0
 10
744.31399999999985
 20
597.16099999999994
 30
0.0
 70
    32
  0
VERTEX
  5
1D65B
  8
AM_0
 10
744.33100000000002
 20
597.15899999999988
 30
0.0
 70
    32
  0
VERTEX
  5
1D65C
  8
AM_0
 10
744.34799999999996
 20
597.15800000000002
 30
0.0
 70
    32
  0
VERTEX
  5
1D65D
  8
AM_0
 10
744.3649999999999
 20
597.15699999999981
 30
0.0
 70
    32
  0
VERTEX
  5
1D65E
  8
AM_0
 10
744.38199999999995
 20
597.15599999999995
 30
0.0
 70
    32
  0
VERTEX
  5
1D65F
  8
AM_0
 10
744.39899999999989
 20
597.154
 30
0.0
 70
    32
  0
VERTEX
  5
1D660
  8
AM_0
 10
744.41499999999985
 20
597.15199999999993
 30
0.0
 70
    32
  0
VERTEX
  5
1D661
  8
AM_0
 10
744.43200000000002
 20
597.15099999999995
 30
0.0
 70
    32
  0
VERTEX
  5
1D662
  8
AM_0
 10
744.44899999999996
 20
597.149
 30
0.0
 70
    32
  0
VERTEX
  5
1D663
  8
AM_0
 10
744.46599999999989
 20
597.14699999999993
 30
0.0
 70
    32
  0
VERTEX
  5
1D664
  8
AM_0
 10
744.48299999999995
 20
597.14499999999987
 30
0.0
 70
    32
  0
VERTEX
  5
1D665
  8
AM_0
 10
744.5
 20
597.14300000000003
 30
0.0
 70
    32
  0
VERTEX
  5
1D666
  8
AM_0
 10
744.51600000000008
 20
597.14099999999985
 30
0.0
 70
    32
  0
VERTEX
  5
1D667
  8
AM_0
 10
744.53300000000002
 20
597.13900000000001
 30
0.0
 70
    32
  0
VERTEX
  5
1D668
  8
AM_0
 10
744.54999999999995
 20
597.13599999999985
 30
0.0
 70
    32
  0
VERTEX
  5
1D669
  8
AM_0
 10
744.56699999999989
 20
597.13400000000001
 30
0.0
 70
    32
  0
VERTEX
  5
1D66A
  8
AM_0
 10
744.58399999999995
 20
597.13199999999995
 30
0.0
 70
    32
  0
VERTEX
  5
1D66B
  8
AM_0
 10
744.60000000000002
 20
597.12900000000002
 30
0.0
 70
    32
  0
VERTEX
  5
1D66C
  8
AM_0
 10
744.61699999999985
 20
597.12599999999998
 30
0.0
 70
    32
  0
VERTEX
  5
1D66D
  8
AM_0
 10
744.6339999999999
 20
597.12300000000005
 30
0.0
 70
    32
  0
VERTEX
  5
1D66E
  8
AM_0
 10
744.64999999999998
 20
597.12
 30
0.0
 70
    32
  0
VERTEX
  5
1D66F
  8
AM_0
 10
744.66699999999992
 20
597.11699999999985
 30
0.0
 70
    32
  0
VERTEX
  5
1D670
  8
AM_0
 10
744.68399999999986
 20
597.11400000000003
 30
0.0
 70
    32
  0
VERTEX
  5
1D671
  8
AM_0
 10
744.70000000000005
 20
597.11099999999999
 30
0.0
 70
    32
  0
VERTEX
  5
1D672
  8
AM_0
 10
744.71699999999987
 20
597.10799999999995
 30
0.0
 70
    32
  0
VERTEX
  5
1D673
  8
AM_0
 10
744.73399999999992
 20
597.1049999999999
 30
0.0
 70
    32
  0
VERTEX
  5
1D674
  8
AM_0
 10
744.74999999999989
 20
597.10099999999989
 30
0.0
 70
    32
  0
VERTEX
  5
1D675
  8
AM_0
 10
744.76699999999994
 20
597.09799999999996
 30
0.0
 70
    32
  0
VERTEX
  5
1D676
  8
AM_0
 10
744.78300000000002
 20
597.09400000000005
 30
0.0
 70
    32
  0
VERTEX
  5
1D677
  8
AM_0
 10
744.79999999999995
 20
597.09000000000003
 30
0.0
 70
    32
  0
VERTEX
  5
1D678
  8
AM_0
 10
744.81600000000003
 20
597.08600000000001
 30
0.0
 70
    32
  0
VERTEX
  5
1D679
  8
AM_0
 10
744.83300000000008
 20
597.08199999999988
 30
0.0
 70
    32
  0
VERTEX
  5
1D67A
  8
AM_0
 10
744.84899999999993
 20
597.07799999999986
 30
0.0
 70
    32
  0
VERTEX
  5
1D67B
  8
AM_0
 10
744.8660000000001
 20
597.07400000000007
 30
0.0
 70
    32
  0
VERTEX
  5
1D67C
  8
AM_0
 10
744.88199999999995
 20
597.07000000000005
 30
0.0
 70
    32
  0
VERTEX
  5
1D67D
  8
AM_0
 10
744.89800000000002
 20
597.06600000000003
 30
0.0
 70
    32
  0
VERTEX
  5
1D67E
  8
AM_0
 10
744.91499999999985
 20
597.06100000000004
 30
0.0
 70
    32
  0
VERTEX
  5
1D67F
  8
AM_0
 10
744.93100000000004
 20
597.05700000000002
 30
0.0
 70
    32
  0
VERTEX
  5
1D680
  8
AM_0
 10
744.94699999999989
 20
597.05200000000002
 30
0.0
 70
    32
  0
VERTEX
  5
1D681
  8
AM_0
 10
744.96399999999994
 20
597.048
 30
0.0
 70
    32
  0
VERTEX
  5
1D682
  8
AM_0
 10
744.98000000000002
 20
597.04300000000001
 30
0.0
 70
    32
  0
VERTEX
  5
1D683
  8
AM_0
 10
744.99599999999998
 20
597.03800000000001
 30
0.0
 70
    32
  0
VERTEX
  5
1D684
  8
AM_0
 10
745.01199999999994
 20
597.03300000000002
 30
0.0
 70
    32
  0
VERTEX
  5
1D685
  8
AM_0
 10
745.02899999999988
 20
597.02800000000002
 30
0.0
 70
    32
  0
VERTEX
  5
1D686
  8
AM_0
 10
745.04499999999996
 20
597.02299999999991
 30
0.0
 70
    32
  0
VERTEX
  5
1D687
  8
AM_0
 10
745.06100000000004
 20
597.01800000000003
 30
0.0
 70
    32
  0
VERTEX
  5
1D688
  8
AM_0
 10
745.077
 20
597.01199999999994
 30
0.0
 70
    32
  0
VERTEX
  5
1D689
  8
AM_0
 10
745.09299999999996
 20
597.00699999999995
 30
0.0
 70
    32
  0
VERTEX
  5
1D68A
  8
AM_0
 10
745.10899999999992
 20
597.00099999999998
 30
0.0
 70
    32
  0
VERTEX
  5
1D68B
  8
AM_0
 10
745.12499999999989
 20
596.99599999999987
 30
0.0
 70
    32
  0
VERTEX
  5
1D68C
  8
AM_0
 10
745.14099999999996
 20
596.9899999999999
 30
0.0
 70
    32
  0
VERTEX
  5
1D68D
  8
AM_0
 10
745.15699999999993
 20
596.98400000000004
 30
0.0
 70
    32
  0
VERTEX
  5
1D68E
  8
AM_0
 10
745.173
 20
596.97799999999995
 30
0.0
 70
    32
  0
VERTEX
  5
1D68F
  8
AM_0
 10
745.18899999999985
 20
596.97300000000007
 30
0.0
 70
    32
  0
VERTEX
  5
1D690
  8
AM_0
 10
745.20399999999995
 20
596.96699999999987
 30
0.0
 70
    32
  0
VERTEX
  5
1D691
  8
AM_0
 10
745.22000000000003
 20
596.96000000000004
 30
0.0
 70
    32
  0
VERTEX
  5
1D692
  8
AM_0
 10
745.2360000000001
 20
596.95400000000006
 30
0.0
 70
    32
  0
VERTEX
  5
1D693
  8
AM_0
 10
745.25199999999995
 20
596.94799999999987
 30
0.0
 70
    32
  0
VERTEX
  5
1D694
  8
AM_0
 10
745.26699999999994
 20
596.94100000000003
 30
0.0
 70
    32
  0
VERTEX
  5
1D695
  8
AM_0
 10
745.28300000000002
 20
596.93499999999995
 30
0.0
 70
    32
  0
VERTEX
  5
1D696
  8
AM_0
 10
745.29899999999986
 20
596.928
 30
0.0
 70
    32
  0
VERTEX
  5
1D697
  8
AM_0
 10
745.31399999999985
 20
596.92199999999991
 30
0.0
 70
    32
  0
VERTEX
  5
1D698
  8
AM_0
 10
745.33000000000004
 20
596.91499999999985
 30
0.0
 70
    32
  0
VERTEX
  5
1D699
  8
AM_0
 10
745.34500000000003
 20
596.9079999999999
 30
0.0
 70
    32
  0
VERTEX
  5
1D69A
  8
AM_0
 10
745.3610000000001
 20
596.90099999999995
 30
0.0
 70
    32
  0
VERTEX
  5
1D69B
  8
AM_0
 10
745.37599999999998
 20
596.89399999999989
 30
0.0
 70
    32
  0
VERTEX
  5
1D69C
  8
AM_0
 10
745.39199999999994
 20
596.88699999999994
 30
0.0
 70
    32
  0
VERTEX
  5
1D69D
  8
AM_0
 10
745.40699999999993
 20
596.87999999999988
 30
0.0
 70
    32
  0
VERTEX
  5
1D69E
  8
AM_0
 10
745.42200000000003
 20
596.87300000000005
 30
0.0
 70
    32
  0
VERTEX
  5
1D69F
  8
AM_0
 10
745.4369999999999
 20
596.86500000000001
 30
0.0
 70
    32
  0
VERTEX
  5
1D6A0
  8
AM_0
 10
745.45299999999997
 20
596.85800000000006
 30
0.0
 70
    32
  0
VERTEX
  5
1D6A1
  8
AM_0
 10
745.46799999999996
 20
596.85000000000002
 30
0.0
 70
    32
  0
VERTEX
  5
1D6A2
  8
AM_0
 10
745.48300000000006
 20
596.84299999999996
 30
0.0
 70
    32
  0
VERTEX
  5
1D6A3
  8
AM_0
 10
745.49800000000005
 20
596.83500000000004
 30
0.0
 70
    32
  0
VERTEX
  5
1D6A4
  8
AM_0
 10
745.51300000000003
 20
596.827
 30
0.0
 70
    32
  0
VERTEX
  5
1D6A5
  8
AM_0
 10
745.52800000000002
 20
596.82000000000005
 30
0.0
 70
    32
  0
VERTEX
  5
1D6A6
  8
AM_0
 10
745.54299999999989
 20
596.8119999999999
 30
0.0
 70
    32
  0
VERTEX
  5
1D6A7
  8
AM_0
 10
745.55799999999999
 20
596.80399999999997
 30
0.0
 70
    32
  0
VERTEX
  5
1D6A8
  8
AM_0
 10
745.57299999999987
 20
596.79499999999996
 30
0.0
 70
    32
  0
VERTEX
  5
1D6A9
  8
AM_0
 10
745.58799999999997
 20
596.78699999999992
 30
0.0
 70
    32
  0
VERTEX
  5
1D6AA
  8
AM_0
 10
745.60199999999986
 20
596.77899999999988
 30
0.0
 70
    32
  0
VERTEX
  5
1D6AB
  8
AM_0
 10
745.61699999999996
 20
596.77099999999984
 30
0.0
 70
    32
  0
VERTEX
  5
1D6AC
  8
AM_0
 10
745.63199999999995
 20
596.76199999999994
 30
0.0
 70
    32
  0
VERTEX
  5
1D6AD
  8
AM_0
 10
745.64699999999993
 20
596.75400000000002
 30
0.0
 70
    32
  0
VERTEX
  5
1D6AE
  8
AM_0
 10
745.66099999999994
 20
596.745
 30
0.0
 70
    32
  0
VERTEX
  5
1D6AF
  8
AM_0
 10
745.67600000000004
 20
596.73599999999999
 30
0.0
 70
    32
  0
VERTEX
  5
1D6B0
  8
AM_0
 10
745.69000000000005
 20
596.72699999999998
 30
0.0
 70
    32
  0
VERTEX
  5
1D6B1
  8
AM_0
 10
745.70500000000004
 20
596.71900000000005
 30
0.0
 70
    32
  0
VERTEX
  5
1D6B2
  8
AM_0
 10
745.71899999999994
 20
596.71000000000004
 30
0.0
 70
    32
  0
VERTEX
  5
1D6B3
  8
AM_0
 10
745.73299999999995
 20
596.70100000000002
 30
0.0
 70
    32
  0
VERTEX
  5
1D6B4
  8
AM_0
 10
745.74800000000005
 20
596.69200000000001
 30
0.0
 70
    32
  0
VERTEX
  5
1D6B5
  8
AM_0
 10
745.76199999999994
 20
596.68200000000002
 30
0.0
 70
    32
  0
VERTEX
  5
1D6B6
  8
AM_0
 10
745.77599999999995
 20
596.673
 30
0.0
 70
    32
  0
VERTEX
  5
1D6B7
  8
AM_0
 10
745.78999999999985
 20
596.66399999999987
 30
0.0
 70
    32
  0
VERTEX
  5
1D6B8
  8
AM_0
 10
745.80399999999986
 20
596.654
 30
0.0
 70
    32
  0
VERTEX
  5
1D6B9
  8
AM_0
 10
745.81799999999987
 20
596.64499999999998
 30
0.0
 70
    32
  0
VERTEX
  5
1D6BA
  8
AM_0
 10
745.83199999999999
 20
596.63499999999999
 30
0.0
 70
    32
  0
VERTEX
  5
1D6BB
  8
AM_0
 10
745.846
 20
596.62599999999998
 30
0.0
 70
    32
  0
VERTEX
  5
1D6BC
  8
AM_0
 10
745.86000000000001
 20
596.61599999999999
 30
0.0
 70
    32
  0
VERTEX
  5
1D6BD
  8
AM_0
 10
745.8739999999998
 20
596.60599999999988
 30
0.0
 70
    32
  0
VERTEX
  5
1D6BE
  8
AM_0
 10
745.88699999999994
 20
596.59599999999989
 30
0.0
 70
    32
  0
VERTEX
  5
1D6BF
  8
AM_0
 10
745.90100000000007
 20
596.58600000000001
 30
0.0
 70
    32
  0
VERTEX
  5
1D6C0
  8
AM_0
 10
745.91499999999996
 20
596.57600000000002
 30
0.0
 70
    32
  0
VERTEX
  5
1D6C1
  8
AM_0
 10
745.92799999999988
 20
596.56600000000003
 30
0.0
 70
    32
  0
VERTEX
  5
1D6C2
  8
AM_0
 10
745.94200000000001
 20
596.55600000000004
 30
0.0
 70
    32
  0
VERTEX
  5
1D6C3
  8
AM_0
 10
745.95500000000004
 20
596.54499999999985
 30
0.0
 70
    32
  0
VERTEX
  5
1D6C4
  8
AM_0
 10
745.96899999999994
 20
596.53499999999985
 30
0.0
 70
    32
  0
VERTEX
  5
1D6C5
  8
AM_0
 10
745.98199999999986
 20
596.52499999999998
 30
0.0
 70
    32
  0
VERTEX
  5
1D6C6
  8
AM_0
 10
745.995
 20
596.5139999999999
 30
0.0
 70
    32
  0
VERTEX
  5
1D6C7
  8
AM_0
 10
746.0089999999999
 20
596.50400000000002
 30
0.0
 70
    32
  0
VERTEX
  5
1D6C8
  8
AM_0
 10
746.02199999999993
 20
596.49300000000005
 30
0.0
 70
    32
  0
VERTEX
  5
1D6C9
  8
AM_0
 10
746.03499999999997
 20
596.48199999999986
 30
0.0
 70
    32
  0
VERTEX
  5
1D6CA
  8
AM_0
 10
746.048
 20
596.471
 30
0.0
 70
    32
  0
VERTEX
  5
1D6CB
  8
AM_0
 10
746.06100000000004
 20
596.46100000000001
 30
0.0
 70
    32
  0
VERTEX
  5
1D6CC
  8
AM_0
 10
746.07399999999996
 20
596.45000000000005
 30
0.0
 70
    32
  0
VERTEX
  5
1D6CD
  8
AM_0
 10
746.08699999999988
 20
596.43899999999985
 30
0.0
 70
    32
  0
VERTEX
  5
1D6CE
  8
AM_0
 10
746.10000000000002
 20
596.42699999999991
 30
0.0
 70
    32
  0
VERTEX
  5
1D6CF
  8
AM_0
 10
746.11199999999997
 20
596.41599999999994
 30
0.0
 70
    32
  0
SEQEND
  5
1D6D0
  8
AM_0
  0
POLYLINE
  5
19743
  8
AM_0
 66
     1
 10
0.0
 20
0.0
 30
0.0
 70
     8
  0
VERTEX
  5
1D6D1
  8
AM_0
 10
748.09699999999998
 20
595.66599999999994
 30
0.0
 70
    32
  0
VERTEX
  5
1D6D2
  8
AM_0
 10
748.08000000000004
 20
595.66599999999994
 30
0.0
 70
    32
  0
VERTEX
  5
1D6D3
  8
AM_0
 10
748.06299999999987
 20
595.66599999999994
 30
0.0
 70
    32
  0
VERTEX
  5
1D6D4
  8
AM_0
 10
748.04600000000005
 20
595.66699999999992
 30
0.0
 70
    32
  0
VERTEX
  5
1D6D5
  8
AM_0
 10
748.029
 20
595.66699999999992
 30
0.0
 70
    32
  0
VERTEX
  5
1D6D6
  8
AM_0
 10
748.01199999999994
 20
595.66699999999992
 30
0.0
 70
    32
  0
VERTEX
  5
1D6D7
  8
AM_0
 10
747.995
 20
595.66800000000001
 30
0.0
 70
    32
  0
VERTEX
  5
1D6D8
  8
AM_0
 10
747.97799999999995
 20
595.66899999999998
 30
0.0
 70
    32
  0
VERTEX
  5
1D6D9
  8
AM_0
 10
747.96100000000001
 20
595.66899999999998
 30
0.0
 70
    32
  0
VERTEX
  5
1D6DA
  8
AM_0
 10
747.94399999999985
 20
595.66999999999985
 30
0.0
 70
    32
  0
VERTEX
  5
1D6DB
  8
AM_0
 10
747.92700000000002
 20
595.67099999999994
 30
0.0
 70
    32
  0
VERTEX
  5
1D6DC
  8
AM_0
 10
747.90999999999985
 20
595.67200000000003
 30
0.0
 70
    32
  0
VERTEX
  5
1D6DD
  8
AM_0
 10
747.89300000000003
 20
595.673
 30
0.0
 70
    32
  0
VERTEX
  5
1D6DE
  8
AM_0
 10
747.87699999999995
 20
595.67399999999986
 30
0.0
 70
    32
  0
VERTEX
  5
1D6DF
  8
AM_0
 10
747.86000000000001
 20
595.67599999999993
 30
0.0
 70
    32
  0
VERTEX
  5
1D6E0
  8
AM_0
 10
747.84300000000007
 20
595.67700000000002
 30
0.0
 70
    32
  0
VERTEX
  5
1D6E1
  8
AM_0
 10
747.82600000000002
 20
595.67899999999986
 30
0.0
 70
    32
  0
VERTEX
  5
1D6E2
  8
AM_0
 10
747.80899999999986
 20
595.67999999999995
 30
0.0
 70
    32
  0
VERTEX
  5
1D6E3
  8
AM_0
 10
747.79199999999992
 20
595.68200000000002
 30
0.0
 70
    32
  0
VERTEX
  5
1D6E4
  8
AM_0
 10
747.77499999999998
 20
595.68399999999986
 30
0.0
 70
    32
  0
VERTEX
  5
1D6E5
  8
AM_0
 10
747.7589999999999
 20
595.68499999999995
 30
0.0
 70
    32
  0
VERTEX
  5
1D6E6
  8
AM_0
 10
747.74199999999985
 20
595.68700000000001
 30
0.0
 70
    32
  0
VERTEX
  5
1D6E7
  8
AM_0
 10
747.72500000000002
 20
595.68899999999985
 30
0.0
 70
    32
  0
VERTEX
  5
1D6E8
  8
AM_0
 10
747.70799999999997
 20
595.69200000000001
 30
0.0
 70
    32
  0
VERTEX
  5
1D6E9
  8
AM_0
 10
747.69100000000003
 20
595.69399999999985
 30
0.0
 70
    32
  0
VERTEX
  5
1D6EA
  8
AM_0
 10
747.67499999999995
 20
595.69600000000003
 30
0.0
 70
    32
  0
VERTEX
  5
1D6EB
  8
AM_0
 10
747.65800000000002
 20
595.69900000000007
 30
0.0
 70
    32
  0
VERTEX
  5
1D6EC
  8
AM_0
 10
747.64100000000008
 20
595.70100000000002
 30
0.0
 70
    32
  0
VERTEX
  5
1D6ED
  8
AM_0
 10
747.6239999999998
 20
595.70400000000006
 30
0.0
 70
    32
  0
VERTEX
  5
1D6EE
  8
AM_0
 10
747.60799999999995
 20
595.70600000000002
 30
0.0
 70
    32
  0
VERTEX
  5
1D6EF
  8
AM_0
 10
747.59099999999989
 20
595.70899999999995
 30
0.0
 70
    32
  0
VERTEX
  5
1D6F0
  8
AM_0
 10
747.57399999999996
 20
595.71199999999988
 30
0.0
 70
    32
  0
VERTEX
  5
1D6F1
  8
AM_0
 10
747.55700000000002
 20
595.71500000000003
 30
0.0
 70
    32
  0
VERTEX
  5
1D6F2
  8
AM_0
 10
747.54100000000005
 20
595.71800000000007
 30
0.0
 70
    32
  0
VERTEX
  5
1D6F3
  8
AM_0
 10
747.52399999999989
 20
595.72099999999989
 30
0.0
 70
    32
  0
VERTEX
  5
1D6F4
  8
AM_0
 10
747.50800000000004
 20
595.72500000000002
 30
0.0
 70
    32
  0
VERTEX
  5
1D6F5
  8
AM_0
 10
747.4910000000001
 20
595.72799999999995
 30
0.0
 70
    32
  0
VERTEX
  5
1D6F6
  8
AM_0
 10
747.47399999999993
 20
595.73199999999997
 30
0.0
 70
    32
  0
VERTEX
  5
1D6F7
  8
AM_0
 10
747.45800000000008
 20
595.7349999999999
 30
0.0
 70
    32
  0
VERTEX
  5
1D6F8
  8
AM_0
 10
747.44100000000003
 20
595.73900000000003
 30
0.0
 70
    32
  0
VERTEX
  5
1D6F9
  8
AM_0
 10
747.42499999999995
 20
595.74199999999985
 30
0.0
 70
    32
  0
VERTEX
  5
1D6FA
  8
AM_0
 10
747.40800000000002
 20
595.74599999999998
 30
0.0
 70
    32
  0
VERTEX
  5
1D6FB
  8
AM_0
 10
747.39199999999994
 20
595.75
 30
0.0
 70
    32
  0
VERTEX
  5
1D6FC
  8
AM_0
 10
747.37499999999989
 20
595.75400000000002
 30
0.0
 70
    32
  0
VERTEX
  5
1D6FD
  8
AM_0
 10
747.35899999999992
 20
595.75800000000004
 30
0.0
 70
    32
  0
VERTEX
  5
1D6FE
  8
AM_0
 10
747.34199999999987
 20
595.76300000000003
 30
0.0
 70
    32
  0
VERTEX
  5
1D6FF
  8
AM_0
 10
747.32600000000002
 20
595.76699999999994
 30
0.0
 70
    32
  0
VERTEX
  5
1D700
  8
AM_0
 10
747.30999999999995
 20
595.77099999999984
 30
0.0
 70
    32
  0
VERTEX
  5
1D701
  8
AM_0
 10
747.29299999999989
 20
595.77599999999995
 30
0.0
 70
    32
  0
VERTEX
  5
1D702
  8
AM_0
 10
747.27699999999993
 20
595.77999999999986
 30
0.0
 70
    32
  0
VERTEX
  5
1D703
  8
AM_0
 10
747.26100000000008
 20
595.78499999999985
 30
0.0
 70
    32
  0
VERTEX
  5
1D704
  8
AM_0
 10
747.245
 20
595.78999999999985
 30
0.0
 70
    32
  0
VERTEX
  5
1D705
  8
AM_0
 10
747.22799999999995
 20
595.79499999999985
 30
0.0
 70
    32
  0
VERTEX
  5
1D706
  8
AM_0
 10
747.21199999999999
 20
595.79999999999995
 30
0.0
 70
    32
  0
VERTEX
  5
1D707
  8
AM_0
 10
747.19600000000003
 20
595.80499999999995
 30
0.0
 70
    32
  0
VERTEX
  5
1D708
  8
AM_0
 10
747.17999999999995
 20
595.80999999999995
 30
0.0
 70
    32
  0
VERTEX
  5
1D709
  8
AM_0
 10
747.16399999999987
 20
595.81500000000005
 30
0.0
 70
    32
  0
VERTEX
  5
1D70A
  8
AM_0
 10
747.14800000000002
 20
595.82000000000005
 30
0.0
 70
    32
  0
VERTEX
  5
1D70B
  8
AM_0
 10
747.13199999999995
 20
595.82600000000002
 30
0.0
 70
    32
  0
VERTEX
  5
1D70C
  8
AM_0
 10
747.1160000000001
 20
595.8309999999999
 30
0.0
 70
    32
  0
VERTEX
  5
1D70D
  8
AM_0
 10
747.10000000000002
 20
595.83699999999999
 30
0.0
 70
    32
  0
VERTEX
  5
1D70E
  8
AM_0
 10
747.08399999999995
 20
595.84199999999998
 30
0.0
 70
    32
  0
VERTEX
  5
1D70F
  8
AM_0
 10
747.06799999999987
 20
595.84799999999996
 30
0.0
 70
    32
  0
VERTEX
  5
1D710
  8
AM_0
 10
747.05200000000002
 20
595.85400000000004
 30
0.0
 70
    32
  0
VERTEX
  5
1D711
  8
AM_0
 10
747.03599999999994
 20
595.86000000000001
 30
0.0
 70
    32
  0
VERTEX
  5
1D712
  8
AM_0
 10
747.01999999999998
 20
595.86599999999999
 30
0.0
 70
    32
  0
VERTEX
  5
1D713
  8
AM_0
 10
747.00399999999991
 20
595.87199999999984
 30
0.0
 70
    32
  0
VERTEX
  5
1D714
  8
AM_0
 10
746.98899999999992
 20
595.87800000000004
 30
0.0
 70
    32
  0
VERTEX
  5
1D715
  8
AM_0
 10
746.97300000000007
 20
595.88499999999988
 30
0.0
 70
    32
  0
VERTEX
  5
1D716
  8
AM_0
 10
746.95699999999999
 20
595.89099999999985
 30
0.0
 70
    32
  0
VERTEX
  5
1D717
  8
AM_0
 10
746.94100000000003
 20
595.89800000000002
 30
0.0
 70
    32
  0
VERTEX
  5
1D718
  8
AM_0
 10
746.92600000000004
 20
595.90399999999988
 30
0.0
 70
    32
  0
VERTEX
  5
1D719
  8
AM_0
 10
746.90999999999997
 20
595.91099999999994
 30
0.0
 70
    32
  0
VERTEX
  5
1D71A
  8
AM_0
 10
746.89499999999987
 20
595.91799999999989
 30
0.0
 70
    32
  0
VERTEX
  5
1D71B
  8
AM_0
 10
746.87899999999991
 20
595.92399999999998
 30
0.0
 70
    32
  0
VERTEX
  5
1D71C
  8
AM_0
 10
746.86399999999992
 20
595.93100000000004
 30
0.0
 70
    32
  0
VERTEX
  5
1D71D
  8
AM_0
 10
746.84799999999996
 20
595.93799999999999
 30
0.0
 70
    32
  0
VERTEX
  5
1D71E
  8
AM_0
 10
746.83299999999997
 20
595.94500000000005
 30
0.0
 70
    32
  0
VERTEX
  5
1D71F
  8
AM_0
 10
746.81799999999998
 20
595.95299999999986
 30
0.0
 70
    32
  0
VERTEX
  5
1D720
  8
AM_0
 10
746.80200000000002
 20
595.96000000000004
 30
0.0
 70
    32
  0
VERTEX
  5
1D721
  8
AM_0
 10
746.78699999999992
 20
595.96699999999998
 30
0.0
 70
    32
  0
VERTEX
  5
1D722
  8
AM_0
 10
746.77199999999993
 20
595.97500000000002
 30
0.0
 70
    32
  0
VERTEX
  5
1D723
  8
AM_0
 10
746.75699999999995
 20
595.98199999999986
 30
0.0
 70
    32
  0
VERTEX
  5
1D724
  8
AM_0
 10
746.74199999999985
 20
595.99000000000001
 30
0.0
 70
    32
  0
VERTEX
  5
1D725
  8
AM_0
 10
746.72600000000011
 20
595.99699999999984
 30
0.0
 70
    32
  0
VERTEX
  5
1D726
  8
AM_0
 10
746.7109999999999
 20
596.00499999999988
 30
0.0
 70
    32
  0
VERTEX
  5
1D727
  8
AM_0
 10
746.69600000000003
 20
596.01300000000003
 30
0.0
 70
    32
  0
VERTEX
  5
1D728
  8
AM_0
 10
746.68100000000004
 20
596.02099999999996
 30
0.0
 70
    32
  0
VERTEX
  5
1D729
  8
AM_0
 10
746.66699999999992
 20
596.02899999999988
 30
0.0
 70
    32
  0
VERTEX
  5
1D72A
  8
AM_0
 10
746.65199999999993
 20
596.03699999999992
 30
0.0
 70
    32
  0
VERTEX
  5
1D72B
  8
AM_0
 10
746.63699999999994
 20
596.04499999999985
 30
0.0
 70
    32
  0
VERTEX
  5
1D72C
  8
AM_0
 10
746.62199999999984
 20
596.05399999999986
 30
0.0
 70
    32
  0
VERTEX
  5
1D72D
  8
AM_0
 10
746.60699999999997
 20
596.06200000000001
 30
0.0
 70
    32
  0
VERTEX
  5
1D72E
  8
AM_0
 10
746.59300000000007
 20
596.07000000000005
 30
0.0
 70
    32
  0
VERTEX
  5
1D72F
  8
AM_0
 10
746.57799999999986
 20
596.07900000000006
 30
0.0
 70
    32
  0
VERTEX
  5
1D730
  8
AM_0
 10
746.56299999999987
 20
596.08800000000008
 30
0.0
 70
    32
  0
VERTEX
  5
1D731
  8
AM_0
 10
746.54899999999986
 20
596.096
 30
0.0
 70
    32
  0
VERTEX
  5
1D732
  8
AM_0
 10
746.53399999999999
 20
596.10500000000002
 30
0.0
 70
    32
  0
VERTEX
  5
1D733
  8
AM_0
 10
746.51999999999998
 20
596.11400000000003
 30
0.0
 70
    32
  0
VERTEX
  5
1D734
  8
AM_0
 10
746.50600000000009
 20
596.12300000000005
 30
0.0
 70
    32
  0
VERTEX
  5
1D735
  8
AM_0
 10
746.4910000000001
 20
596.13199999999995
 30
0.0
 70
    32
  0
VERTEX
  5
1D736
  8
AM_0
 10
746.47699999999986
 20
596.14099999999985
 30
0.0
 70
    32
  0
VERTEX
  5
1D737
  8
AM_0
 10
746.46299999999997
 20
596.14999999999998
 30
0.0
 70
    32
  0
VERTEX
  5
1D738
  8
AM_0
 10
746.44899999999996
 20
596.15899999999999
 30
0.0
 70
    32
  0
VERTEX
  5
1D739
  8
AM_0
 10
746.43399999999986
 20
596.16899999999987
 30
0.0
 70
    32
  0
VERTEX
  5
1D73A
  8
AM_0
 10
746.41999999999985
 20
596.178
 30
0.0
 70
    32
  0
VERTEX
  5
1D73B
  8
AM_0
 10
746.40599999999995
 20
596.18799999999987
 30
0.0
 70
    32
  0
VERTEX
  5
1D73C
  8
AM_0
 10
746.39199999999994
 20
596.19699999999989
 30
0.0
 70
    32
  0
VERTEX
  5
1D73D
  8
AM_0
 10
746.37800000000004
 20
596.20699999999988
 30
0.0
 70
    32
  0
VERTEX
  5
1D73E
  8
AM_0
 10
746.36500000000001
 20
596.21699999999987
 30
0.0
 70
    32
  0
VERTEX
  5
1D73F
  8
AM_0
 10
746.35100000000011
 20
596.22699999999998
 30
0.0
 70
    32
  0
VERTEX
  5
1D740
  8
AM_0
 10
746.33699999999999
 20
596.23599999999999
 30
0.0
 70
    32
  0
VERTEX
  5
1D741
  8
AM_0
 10
746.32299999999998
 20
596.24599999999998
 30
0.0
 70
    32
  0
VERTEX
  5
1D742
  8
AM_0
 10
746.30999999999995
 20
596.25599999999986
 30
0.0
 70
    32
  0
VERTEX
  5
1D743
  8
AM_0
 10
746.29600000000005
 20
596.26699999999994
 30
0.0
 70
    32
  0
VERTEX
  5
1D744
  8
AM_0
 10
746.28300000000002
 20
596.27699999999993
 30
0.0
 70
    32
  0
VERTEX
  5
1D745
  8
AM_0
 10
746.26899999999989
 20
596.28699999999992
 30
0.0
 70
    32
  0
VERTEX
  5
1D746
  8
AM_0
 10
746.25599999999997
 20
596.29700000000003
 30
0.0
 70
    32
  0
VERTEX
  5
1D747
  8
AM_0
 10
746.24199999999985
 20
596.30799999999988
 30
0.0
 70
    32
  0
VERTEX
  5
1D748
  8
AM_0
 10
746.22899999999993
 20
596.31799999999998
 30
0.0
 70
    32
  0
VERTEX
  5
1D749
  8
AM_0
 10
746.21599999999989
 20
596.32899999999995
 30
0.0
 70
    32
  0
VERTEX
  5
1D74A
  8
AM_0
 10
746.20299999999986
 20
596.34000000000003
 30
0.0
 70
    32
  0
VERTEX
  5
1D74B
  8
AM_0
 10
746.19000000000005
 20
596.35000000000002
 30
0.0
 70
    32
  0
VERTEX
  5
1D74C
  8
AM_0
 10
746.17700000000002
 20
596.36099999999999
 30
0.0
 70
    32
  0
VERTEX
  5
1D74D
  8
AM_0
 10
746.16399999999999
 20
596.37199999999984
 30
0.0
 70
    32
  0
VERTEX
  5
1D74E
  8
AM_0
 10
746.15099999999995
 20
596.38300000000004
 30
0.0
 70
    32
  0
VERTEX
  5
1D74F
  8
AM_0
 10
746.13800000000003
 20
596.39400000000001
 30
0.0
 70
    32
  0
VERTEX
  5
1D750
  8
AM_0
 10
746.12499999999989
 20
596.40499999999986
 30
0.0
 70
    32
  0
VERTEX
  5
1D751
  8
AM_0
 10
746.11199999999997
 20
596.41599999999994
 30
0.0
 70
    32
  0
SEQEND
  5
1D752
  8
AM_0
  0
LINE
  5
1974B
  8
AM_0
 10
747.09657621507552
 20
606.1664726240092
 30
0.0
 11
759.09657621867552
 21
606.16647262400875
 31
0.0
  0
LINE
  5
1974C
  8
AM_0
 10
747.09657621507642
 20
630.10599900271609
 30
0.0
 11
759.09657621867632
 21
630.10599900271575
 31
0.0
  0
LINE
  5
1974D
  8
AM_0
 10
735.82409927478534
 20
598.992002089268
 30
0.0
 11
732.64388262214493
 21
635.342044763064
 31
0.0
  0
LINE
  5
19751
  8
AM_0
 10
730.6514932259613
 20
637.16773327756891
 30
0.0
 11
723.57921913457551
 21
637.16773327756891
 31
0.0
  0
ARC
  5
19752
  8
AM_0
 10
723.57921913457562
 20
636.16773327756869
 30
0.0
 40
1.0
 50
90.0
 51
181.0000242476043
1001
GENIUS_GENODEF_13
1002
{
1000
HIER
1070
     0
1002
}
1002
{
1000
MANEDIT
1070
     0
1002
}
1002
{
1000
NOSEL
1070
     0
1002
}
1002
{
1000
BEHIND
1070
     0
1002
}
1002
{
1000
OTHER
1070
     0
1002
}
1002
{
1000
REACTOR
1002
}
1001
GENIUS_GENOBJ-N-FIL_13
1002
{
1000
OWNER
1000
GEN
1002
}
  0
LINE
  5
1975C
  8
AM_0
 10
738.76388654364359
 20
726.16773628780095
 30
0.0
 11
722.97346649775852
 21
726.16773628780095
 31
0.0
  0
LINE
  5
19762
  8
AM_0
 10
747.09657621507768
 20
708.22946624530175
 30
0.0
 11
759.09657621867746
 21
708.22946624530164
 31
0.0
  0
ARC
  5
1976C
  8
AM_0
 10
738.76388654364359
 20
728.16773628780118
 30
0.0
 40
2.0
 50
270.0
 51
355.00000000000023
1001
GENIUS_GENOBJ-N-FIL_13
1002
{
1000
OWNER
1000
GEN
1002
}
1001
GENIUS_GENODEF_13
1002
{
1000
HIER
1070
     0
1002
}
1002
{
1000
MANEDIT
1070
     0
1002
}
1002
{
1000
NOSEL
1070
     0
1002
}
1002
{
1000
BEHIND
1070
     0
1002
}
1002
{
1000
OTHER
1070
     0
1002
}
1002
{
1000
REACTOR
1002
}
  0
LINE
  5
1976D
  8
AM_0
 10
759.09657013900403
 20
742.66920747369704
 30
0.0
 11
748.09657092618363
 21
742.66918807959985
 31
0.0
  0
LINE
  5
1976E
  8
AM_0
 10
747.09657621507768
 20
732.16899262400864
 30
0.0
 11
759.0965762186778
 21
732.16899262400864
 31
0.0
  0
LINE
  5
1976F
  8
AM_0
 10
740.75627593982699
 20
727.99342480230575
 30
0.0
 11
741.74927625510259
 21
739.34347034256518
 31
0.0
  0
ARC
  5
19770
  8
AM_0
 10
743.74166565128633
 20
739.16915885706953
 30
0.0
 40
2.0
 50
90.000069466672116
 51
175.00000000000031
1001
GENIUS_GENOBJ-N-FIL_13
1002
{
1000
OWNER
1000
GEN
1002
}
1001
GENIUS_GENODEF_13
1002
{
1000
HIER
1070
     0
1002
}
1002
{
1000
MANEDIT
1070
     0
1002
}
1002
{
1000
NOSEL
1070
     0
1002
}
1002
{
1000
BEHIND
1070
     0
1002
}
1002
{
1000
OTHER
1070
     0
1002
}
1002
{
1000
REACTOR
1002
}
  0
POLYLINE
  5
19771
  8
AM_0
 66
     1
 10
0.0
 20
0.0
 30
0.0
 70
     8
  0
VERTEX
  5
1D753
  8
AM_0
 10
746.11199999999997
 20
741.91899999999998
 30
0.0
 70
    32
  0
VERTEX
  5
1D754
  8
AM_0
 10
746.10000000000002
 20
741.90800000000002
 30
0.0
 70
    32
  0
VERTEX
  5
1D755
  8
AM_0
 10
746.08699999999988
 20
741.89699999999993
 30
0.0
 70
    32
  0
VERTEX
  5
1D756
  8
AM_0
 10
746.07399999999996
 20
741.88600000000008
 30
0.0
 70
    32
  0
VERTEX
  5
1D757
  8
AM_0
 10
746.06100000000004
 20
741.875
 30
0.0
 70
    32
  0
VERTEX
  5
1D758
  8
AM_0
 10
746.048
 20
741.86399999999992
 30
0.0
 70
    32
  0
VERTEX
  5
1D759
  8
AM_0
 10
746.03499999999997
 20
741.85299999999995
 30
0.0
 70
    32
  0
VERTEX
  5
1D75A
  8
AM_0
 10
746.02199999999993
 20
741.84299999999996
 30
0.0
 70
    32
  0
VERTEX
  5
1D75B
  8
AM_0
 10
746.0089999999999
 20
741.83199999999999
 30
0.0
 70
    32
  0
VERTEX
  5
1D75C
  8
AM_0
 10
745.995
 20
741.82100000000003
 30
0.0
 70
    32
  0
VERTEX
  5
1D75D
  8
AM_0
 10
745.98199999999986
 20
741.81100000000004
 30
0.0
 70
    32
  0
VERTEX
  5
1D75E
  8
AM_0
 10
745.96899999999994
 20
741.79999999999995
 30
0.0
 70
    32
  0
VERTEX
  5
1D75F
  8
AM_0
 10
745.95500000000004
 20
741.78999999999985
 30
0.0
 70
    32
  0
VERTEX
  5
1D760
  8
AM_0
 10
745.94200000000001
 20
741.77999999999986
 30
0.0
 70
    32
  0
VERTEX
  5
1D761
  8
AM_0
 10
745.92799999999988
 20
741.76999999999987
 30
0.0
 70
    32
  0
VERTEX
  5
1D762
  8
AM_0
 10
745.91499999999996
 20
741.75899999999979
 30
0.0
 70
    32
  0
VERTEX
  5
1D763
  8
AM_0
 10
745.90100000000007
 20
741.74899999999991
 30
0.0
 70
    32
  0
VERTEX
  5
1D764
  8
AM_0
 10
745.88699999999994
 20
741.73899999999992
 30
0.0
 70
    32
  0
VERTEX
  5
1D765
  8
AM_0
 10
745.8739999999998
 20
741.72899999999993
 30
0.0
 70
    32
  0
VERTEX
  5
1D766
  8
AM_0
 10
745.86000000000001
 20
741.72000000000003
 30
0.0
 70
    32
  0
VERTEX
  5
1D767
  8
AM_0
 10
745.846
 20
741.71000000000004
 30
0.0
 70
    32
  0
VERTEX
  5
1D768
  8
AM_0
 10
745.83199999999999
 20
741.70000000000005
 30
0.0
 70
    32
  0
VERTEX
  5
1D769
  8
AM_0
 10
745.81799999999987
 20
741.69100000000003
 30
0.0
 70
    32
  0
VERTEX
  5
1D76A
  8
AM_0
 10
745.80399999999986
 20
741.68100000000004
 30
0.0
 70
    32
  0
VERTEX
  5
1D76B
  8
AM_0
 10
745.78999999999985
 20
741.67200000000003
 30
0.0
 70
    32
  0
VERTEX
  5
1D76C
  8
AM_0
 10
745.77599999999995
 20
741.66199999999992
 30
0.0
 70
    32
  0
VERTEX
  5
1D76D
  8
AM_0
 10
745.76199999999994
 20
741.65300000000002
 30
0.0
 70
    32
  0
VERTEX
  5
1D76E
  8
AM_0
 10
745.74800000000005
 20
741.64399999999978
 30
0.0
 70
    32
  0
VERTEX
  5
1D76F
  8
AM_0
 10
745.73299999999995
 20
741.63499999999999
 30
0.0
 70
    32
  0
VERTEX
  5
1D770
  8
AM_0
 10
745.71899999999994
 20
741.62600000000009
 30
0.0
 70
    32
  0
VERTEX
  5
1D771
  8
AM_0
 10
745.70500000000004
 20
741.61699999999996
 30
0.0
 70
    32
  0
VERTEX
  5
1D772
  8
AM_0
 10
745.69000000000005
 20
741.60799999999995
 30
0.0
 70
    32
  0
VERTEX
  5
1D773
  8
AM_0
 10
745.67600000000004
 20
741.59899999999993
 30
0.0
 70
    32
  0
VERTEX
  5
1D774
  8
AM_0
 10
745.66099999999994
 20
741.59100000000001
 30
0.0
 70
    32
  0
VERTEX
  5
1D775
  8
AM_0
 10
745.64699999999993
 20
741.58199999999999
 30
0.0
 70
    32
  0
VERTEX
  5
1D776
  8
AM_0
 10
745.63199999999995
 20
741.57299999999987
 30
0.0
 70
    32
  0
VERTEX
  5
1D777
  8
AM_0
 10
745.61699999999996
 20
741.56500000000005
 30
0.0
 70
    32
  0
VERTEX
  5
1D778
  8
AM_0
 10
745.60199999999986
 20
741.55700000000002
 30
0.0
 70
    32
  0
VERTEX
  5
1D779
  8
AM_0
 10
745.58799999999997
 20
741.548
 30
0.0
 70
    32
  0
VERTEX
  5
1D77A
  8
AM_0
 10
745.57299999999987
 20
741.53999999999985
 30
0.0
 70
    32
  0
VERTEX
  5
1D77B
  8
AM_0
 10
745.55799999999999
 20
741.53199999999993
 30
0.0
 70
    32
  0
VERTEX
  5
1D77C
  8
AM_0
 10
745.54299999999989
 20
741.52399999999977
 30
0.0
 70
    32
  0
VERTEX
  5
1D77D
  8
AM_0
 10
745.52800000000002
 20
741.51600000000008
 30
0.0
 70
    32
  0
VERTEX
  5
1D77E
  8
AM_0
 10
745.51300000000003
 20
741.50800000000004
 30
0.0
 70
    32
  0
VERTEX
  5
1D77F
  8
AM_0
 10
745.49800000000005
 20
741.5
 30
0.0
 70
    32
  0
VERTEX
  5
1D780
  8
AM_0
 10
745.48300000000006
 20
741.49300000000005
 30
0.0
 70
    32
  0
VERTEX
  5
1D781
  8
AM_0
 10
745.46799999999996
 20
741.48500000000001
 30
0.0
 70
    32
  0
VERTEX
  5
1D782
  8
AM_0
 10
745.45299999999997
 20
741.47699999999986
 30
0.0
 70
    32
  0
VERTEX
  5
1D783
  8
AM_0
 10
745.4369999999999
 20
741.47000000000003
 30
0.0
 70
    32
  0
VERTEX
  5
1D784
  8
AM_0
 10
745.42200000000003
 20
741.46299999999997
 30
0.0
 70
    32
  0
VERTEX
  5
1D785
  8
AM_0
 10
745.40699999999993
 20
741.45500000000004
 30
0.0
 70
    32
  0
VERTEX
  5
1D786
  8
AM_0
 10
745.39199999999994
 20
741.44799999999998
 30
0.0
 70
    32
  0
VERTEX
  5
1D787
  8
AM_0
 10
745.37599999999998
 20
741.44100000000003
 30
0.0
 70
    32
  0
VERTEX
  5
1D788
  8
AM_0
 10
745.3610000000001
 20
741.43399999999997
 30
0.0
 70
    32
  0
VERTEX
  5
1D789
  8
AM_0
 10
745.34500000000003
 20
741.42700000000002
 30
0.0
 70
    32
  0
VERTEX
  5
1D78A
  8
AM_0
 10
745.33000000000004
 20
741.41999999999996
 30
0.0
 70
    32
  0
VERTEX
  5
1D78B
  8
AM_0
 10
745.31399999999985
 20
741.41399999999987
 30
0.0
 70
    32
  0
VERTEX
  5
1D78C
  8
AM_0
 10
745.29899999999986
 20
741.40699999999993
 30
0.0
 70
    32
  0
VERTEX
  5
1D78D
  8
AM_0
 10
745.28300000000002
 20
741.39999999999986
 30
0.0
 70
    32
  0
VERTEX
  5
1D78E
  8
AM_0
 10
745.26699999999994
 20
741.39399999999989
 30
0.0
 70
    32
  0
VERTEX
  5
1D78F
  8
AM_0
 10
745.25199999999995
 20
741.38800000000003
 30
0.0
 70
    32
  0
VERTEX
  5
1D790
  8
AM_0
 10
745.2360000000001
 20
741.38099999999997
 30
0.0
 70
    32
  0
VERTEX
  5
1D791
  8
AM_0
 10
745.22000000000003
 20
741.375
 30
0.0
 70
    32
  0
VERTEX
  5
1D792
  8
AM_0
 10
745.20399999999995
 20
741.36899999999991
 30
0.0
 70
    32
  0
VERTEX
  5
1D793
  8
AM_0
 10
745.18899999999985
 20
741.36300000000006
 30
0.0
 70
    32
  0
VERTEX
  5
1D794
  8
AM_0
 10
745.173
 20
741.35699999999986
 30
0.0
 70
    32
  0
VERTEX
  5
1D795
  8
AM_0
 10
745.15699999999993
 20
741.35100000000011
 30
0.0
 70
    32
  0
VERTEX
  5
1D796
  8
AM_0
 10
745.14099999999996
 20
741.34500000000003
 30
0.0
 70
    32
  0
VERTEX
  5
1D797
  8
AM_0
 10
745.12499999999989
 20
741.34000000000003
 30
0.0
 70
    32
  0
VERTEX
  5
1D798
  8
AM_0
 10
745.10899999999992
 20
741.33399999999995
 30
0.0
 70
    32
  0
VERTEX
  5
1D799
  8
AM_0
 10
745.09299999999996
 20
741.32899999999995
 30
0.0
 70
    32
  0
VERTEX
  5
1D79A
  8
AM_0
 10
745.077
 20
741.32299999999987
 30
0.0
 70
    32
  0
VERTEX
  5
1D79B
  8
AM_0
 10
745.06100000000004
 20
741.31799999999987
 30
0.0
 70
    32
  0
VERTEX
  5
1D79C
  8
AM_0
 10
745.04499999999996
 20
741.31299999999987
 30
0.0
 70
    32
  0
VERTEX
  5
1D79D
  8
AM_0
 10
745.02899999999988
 20
741.30799999999988
 30
0.0
 70
    32
  0
VERTEX
  5
1D79E
  8
AM_0
 10
745.01199999999994
 20
741.30200000000002
 30
0.0
 70
    32
  0
VERTEX
  5
1D79F
  8
AM_0
 10
744.99599999999998
 20
741.298
 30
0.0
 70
    32
  0
VERTEX
  5
1D7A0
  8
AM_0
 10
744.98000000000002
 20
741.29300000000001
 30
0.0
 70
    32
  0
VERTEX
  5
1D7A1
  8
AM_0
 10
744.96399999999994
 20
741.28800000000001
 30
0.0
 70
    32
  0
VERTEX
  5
1D7A2
  8
AM_0
 10
744.94699999999989
 20
741.28300000000002
 30
0.0
 70
    32
  0
VERTEX
  5
1D7A3
  8
AM_0
 10
744.93100000000004
 20
741.279
 30
0.0
 70
    32
  0
VERTEX
  5
1D7A4
  8
AM_0
 10
744.91499999999985
 20
741.27399999999989
 30
0.0
 70
    32
  0
VERTEX
  5
1D7A5
  8
AM_0
 10
744.89800000000002
 20
741.26999999999998
 30
0.0
 70
    32
  0
VERTEX
  5
1D7A6
  8
AM_0
 10
744.88199999999995
 20
741.26499999999999
 30
0.0
 70
    32
  0
VERTEX
  5
1D7A7
  8
AM_0
 10
744.8660000000001
 20
741.26099999999997
 30
0.0
 70
    32
  0
VERTEX
  5
1D7A8
  8
AM_0
 10
744.84899999999993
 20
741.25699999999995
 30
0.0
 70
    32
  0
VERTEX
  5
1D7A9
  8
AM_0
 10
744.83300000000008
 20
741.25300000000004
 30
0.0
 70
    32
  0
VERTEX
  5
1D7AA
  8
AM_0
 10
744.81600000000003
 20
741.24899999999991
 30
0.0
 70
    32
  0
VERTEX
  5
1D7AB
  8
AM_0
 10
744.79999999999995
 20
741.24499999999989
 30
0.0
 70
    32
  0
VERTEX
  5
1D7AC
  8
AM_0
 10
744.78300000000002
 20
741.24199999999996
 30
0.0
 70
    32
  0
VERTEX
  5
1D7AD
  8
AM_0
 10
744.76699999999994
 20
741.23800000000006
 30
0.0
 70
    32
  0
VERTEX
  5
1D7AE
  8
AM_0
 10
744.74999999999989
 20
741.23399999999992
 30
0.0
 70
    32
  0
VERTEX
  5
1D7AF
  8
AM_0
 10
744.73399999999992
 20
741.23100000000011
 30
0.0
 70
    32
  0
VERTEX
  5
1D7B0
  8
AM_0
 10
744.71699999999987
 20
741.22799999999995
 30
0.0
 70
    32
  0
VERTEX
  5
1D7B1
  8
AM_0
 10
744.70000000000005
 20
741.22399999999993
 30
0.0
 70
    32
  0
VERTEX
  5
1D7B2
  8
AM_0
 10
744.68399999999986
 20
741.22099999999989
 30
0.0
 70
    32
  0
VERTEX
  5
1D7B3
  8
AM_0
 10
744.66699999999992
 20
741.21800000000007
 30
0.0
 70
    32
  0
VERTEX
  5
1D7B4
  8
AM_0
 10
744.64999999999998
 20
741.21500000000003
 30
0.0
 70
    32
  0
VERTEX
  5
1D7B5
  8
AM_0
 10
744.6339999999999
 20
741.21199999999988
 30
0.0
 70
    32
  0
VERTEX
  5
1D7B6
  8
AM_0
 10
744.61699999999985
 20
741.20899999999995
 30
0.0
 70
    32
  0
VERTEX
  5
1D7B7
  8
AM_0
 10
744.60000000000002
 20
741.20699999999988
 30
0.0
 70
    32
  0
VERTEX
  5
1D7B8
  8
AM_0
 10
744.58399999999995
 20
741.20399999999995
 30
0.0
 70
    32
  0
VERTEX
  5
1D7B9
  8
AM_0
 10
744.56699999999989
 20
741.20100000000002
 30
0.0
 70
    32
  0
VERTEX
  5
1D7BA
  8
AM_0
 10
744.54999999999995
 20
741.19899999999996
 30
0.0
 70
    32
  0
VERTEX
  5
1D7BB
  8
AM_0
 10
744.53300000000002
 20
741.197
 30
0.0
 70
    32
  0
VERTEX
  5
1D7BC
  8
AM_0
 10
744.51600000000008
 20
741.19399999999985
 30
0.0
 70
    32
  0
VERTEX
  5
1D7BD
  8
AM_0
 10
744.5
 20
741.19200000000001
 30
0.0
 70
    32
  0
VERTEX
  5
1D7BE
  8
AM_0
 10
744.48299999999995
 20
741.19000000000005
 30
0.0
 70
    32
  0
VERTEX
  5
1D7BF
  8
AM_0
 10
744.46599999999989
 20
741.18799999999999
 30
0.0
 70
    32
  0
VERTEX
  5
1D7C0
  8
AM_0
 10
744.44899999999996
 20
741.18600000000004
 30
0.0
 70
    32
  0
VERTEX
  5
1D7C1
  8
AM_0
 10
744.43200000000002
 20
741.18499999999995
 30
0.0
 70
    32
  0
VERTEX
  5
1D7C2
  8
AM_0
 10
744.41499999999985
 20
741.18299999999999
 30
0.0
 70
    32
  0
VERTEX
  5
1D7C3
  8
AM_0
 10
744.39899999999989
 20
741.18100000000004
 30
0.0
 70
    32
  0
VERTEX
  5
1D7C4
  8
AM_0
 10
744.38199999999995
 20
741.17999999999995
 30
0.0
 70
    32
  0
VERTEX
  5
1D7C5
  8
AM_0
 10
744.3649999999999
 20
741.17899999999986
 30
0.0
 70
    32
  0
VERTEX
  5
1D7C6
  8
AM_0
 10
744.34799999999996
 20
741.17700000000002
 30
0.0
 70
    32
  0
VERTEX
  5
1D7C7
  8
AM_0
 10
744.33100000000002
 20
741.17600000000004
 30
0.0
 70
    32
  0
VERTEX
  5
1D7C8
  8
AM_0
 10
744.31399999999985
 20
741.17499999999995
 30
0.0
 70
    32
  0
VERTEX
  5
1D7C9
  8
AM_0
 10
744.29700000000003
 20
741.17399999999986
 30
0.0
 70
    32
  0
VERTEX
  5
1D7CA
  8
AM_0
 10
744.27999999999997
 20
741.173
 30
0.0
 70
    32
  0
VERTEX
  5
1D7CB
  8
AM_0
 10
744.26300000000003
 20
741.17200000000003
 30
0.0
 70
    32
  0
VERTEX
  5
1D7CC
  8
AM_0
 10
744.24600000000009
 20
741.17200000000003
 30
0.0
 70
    32
  0
VERTEX
  5
1D7CD
  8
AM_0
 10
744.23000000000002
 20
741.17100000000005
 30
0.0
 70
    32
  0
VERTEX
  5
1D7CE
  8
AM_0
 10
744.21299999999997
 20
741.16999999999985
 30
0.0
 70
    32
  0
VERTEX
  5
1D7CF
  8
AM_0
 10
744.19600000000003
 20
741.16999999999985
 30
0.0
 70
    32
  0
VERTEX
  5
1D7D0
  8
AM_0
 10
744.17899999999997
 20
741.16999999999985
 30
0.0
 70
    32
  0
VERTEX
  5
1D7D1
  8
AM_0
 10
744.16199999999992
 20
741.16899999999998
 30
0.0
 70
    32
  0
VERTEX
  5
1D7D2
  8
AM_0
 10
744.14499999999987
 20
741.16899999999998
 30
0.0
 70
    32
  0
VERTEX
  5
1D7D3
  8
AM_0
 10
744.12800000000004
 20
741.16899999999998
 30
0.0
 70
    32
  0
SEQEND
  5
1D7D4
  8
AM_0
  0
POLYLINE
  5
19772
  8
AM_0
 66
     1
 10
0.0
 20
0.0
 30
0.0
 70
     8
  0
VERTEX
  5
1D7D5
  8
AM_0
 10
746.11199999999997
 20
741.91899999999998
 30
0.0
 70
    32
  0
VERTEX
  5
1D7D6
  8
AM_0
 10
746.12499999999989
 20
741.92999999999995
 30
0.0
 70
    32
  0
VERTEX
  5
1D7D7
  8
AM_0
 10
746.13800000000003
 20
741.94100000000003
 30
0.0
 70
    32
  0
VERTEX
  5
1D7D8
  8
AM_0
 10
746.15099999999995
 20
741.952
 30
0.0
 70
    32
  0
VERTEX
  5
1D7D9
  8
AM_0
 10
746.16399999999999
 20
741.96299999999997
 30
0.0
 70
    32
  0
VERTEX
  5
1D7DA
  8
AM_0
 10
746.17700000000002
 20
741.97399999999993
 30
0.0
 70
    32
  0
VERTEX
  5
1D7DB
  8
AM_0
 10
746.19000000000005
 20
741.98500000000001
 30
0.0
 70
    32
  0
VERTEX
  5
1D7DC
  8
AM_0
 10
746.20299999999986
 20
741.99600000000009
 30
0.0
 70
    32
  0
VERTEX
  5
1D7DD
  8
AM_0
 10
746.21599999999989
 20
742.00600000000009
 30
0.0
 70
    32
  0
VERTEX
  5
1D7DE
  8
AM_0
 10
746.22899999999993
 20
742.01699999999994
 30
0.0
 70
    32
  0
VERTEX
  5
1D7DF
  8
AM_0
 10
746.24199999999985
 20
742.02799999999991
 30
0.0
 70
    32
  0
VERTEX
  5
1D7E0
  8
AM_0
 10
746.25599999999997
 20
742.03800000000001
 30
0.0
 70
    32
  0
VERTEX
  5
1D7E1
  8
AM_0
 10
746.26899999999989
 20
742.048
 30
0.0
 70
    32
  0
VERTEX
  5
1D7E2
  8
AM_0
 10
746.28300000000002
 20
742.05899999999986
 30
0.0
 70
    32
  0
VERTEX
  5
1D7E3
  8
AM_0
 10
746.29600000000005
 20
742.06899999999985
 30
0.0
 70
    32
  0
VERTEX
  5
1D7E4
  8
AM_0
 10
746.30999999999995
 20
742.07899999999995
 30
0.0
 70
    32
  0
VERTEX
  5
1D7E5
  8
AM_0
 10
746.32299999999998
 20
742.08899999999994
 30
0.0
 70
    32
  0
VERTEX
  5
1D7E6
  8
AM_0
 10
746.33699999999999
 20
742.09899999999993
 30
0.0
 70
    32
  0
VERTEX
  5
1D7E7
  8
AM_0
 10
746.35100000000011
 20
742.10899999999992
 30
0.0
 70
    32
  0
VERTEX
  5
1D7E8
  8
AM_0
 10
746.36500000000001
 20
742.11899999999991
 30
0.0
 70
    32
  0
VERTEX
  5
1D7E9
  8
AM_0
 10
746.37800000000004
 20
742.12800000000004
 30
0.0
 70
    32
  0
VERTEX
  5
1D7EA
  8
AM_0
 10
746.39199999999994
 20
742.13800000000003
 30
0.0
 70
    32
  0
VERTEX
  5
1D7EB
  8
AM_0
 10
746.40599999999995
 20
742.14800000000002
 30
0.0
 70
    32
  0
VERTEX
  5
1D7EC
  8
AM_0
 10
746.41999999999985
 20
742.15699999999993
 30
0.0
 70
    32
  0
VERTEX
  5
1D7ED
  8
AM_0
 10
746.43399999999986
 20
742.1669999999998
 30
0.0
 70
    32
  0
VERTEX
  5
1D7EE
  8
AM_0
 10
746.44899999999996
 20
742.17600000000004
 30
0.0
 70
    32
  0
VERTEX
  5
1D7EF
  8
AM_0
 10
746.46299999999997
 20
742.18499999999995
 30
0.0
 70
    32
  0
VERTEX
  5
1D7F0
  8
AM_0
 10
746.47699999999986
 20
742.19399999999985
 30
0.0
 70
    32
  0
VERTEX
  5
1D7F1
  8
AM_0
 10
746.4910000000001
 20
742.20399999999995
 30
0.0
 70
    32
  0
VERTEX
  5
1D7F2
  8
AM_0
 10
746.50600000000009
 20
742.21300000000008
 30
0.0
 70
    32
  0
VERTEX
  5
1D7F3
  8
AM_0
 10
746.51999999999998
 20
742.22099999999989
 30
0.0
 70
    32
  0
VERTEX
  5
1D7F4
  8
AM_0
 10
746.53399999999999
 20
742.2299999999999
 30
0.0
 70
    32
  0
VERTEX
  5
1D7F5
  8
AM_0
 10
746.54899999999986
 20
742.23899999999992
 30
0.0
 70
    32
  0
VERTEX
  5
1D7F6
  8
AM_0
 10
746.56299999999987
 20
742.24800000000005
 30
0.0
 70
    32
  0
VERTEX
  5
1D7F7
  8
AM_0
 10
746.57799999999986
 20
742.25599999999997
 30
0.0
 70
    32
  0
VERTEX
  5
1D7F8
  8
AM_0
 10
746.59300000000007
 20
742.26499999999987
 30
0.0
 70
    32
  0
VERTEX
  5
1D7F9
  8
AM_0
 10
746.60699999999997
 20
742.27300000000002
 30
0.0
 70
    32
  0
VERTEX
  5
1D7FA
  8
AM_0
 10
746.62199999999984
 20
742.28199999999993
 30
0.0
 70
    32
  0
VERTEX
  5
1D7FB
  8
AM_0
 10
746.63699999999994
 20
742.28999999999985
 30
0.0
 70
    32
  0
VERTEX
  5
1D7FC
  8
AM_0
 10
746.65199999999993
 20
742.29799999999989
 30
0.0
 70
    32
  0
VERTEX
  5
1D7FD
  8
AM_0
 10
746.66699999999992
 20
742.30600000000004
 30
0.0
 70
    32
  0
VERTEX
  5
1D7FE
  8
AM_0
 10
746.68100000000004
 20
742.31399999999996
 30
0.0
 70
    32
  0
VERTEX
  5
1D7FF
  8
AM_0
 10
746.69600000000003
 20
742.322
 30
0.0
 70
    32
  0
VERTEX
  5
1D800
  8
AM_0
 10
746.7109999999999
 20
742.33000000000004
 30
0.0
 70
    32
  0
VERTEX
  5
1D801
  8
AM_0
 10
746.72600000000011
 20
742.33799999999997
 30
0.0
 70
    32
  0
VERTEX
  5
1D802
  8
AM_0
 10
746.74199999999985
 20
742.346
 30
0.0
 70
    32
  0
VERTEX
  5
1D803
  8
AM_0
 10
746.75699999999995
 20
742.35299999999995
 30
0.0
 70
    32
  0
VERTEX
  5
1D804
  8
AM_0
 10
746.77199999999993
 20
742.36099999999999
 30
0.0
 70
    32
  0
VERTEX
  5
1D805
  8
AM_0
 10
746.78699999999992
 20
742.36800000000005
 30
0.0
 70
    32
  0
VERTEX
  5
1D806
  8
AM_0
 10
746.80200000000002
 20
742.37600000000009
 30
0.0
 70
    32
  0
VERTEX
  5
1D807
  8
AM_0
 10
746.81799999999998
 20
742.38300000000004
 30
0.0
 70
    32
  0
VERTEX
  5
1D808
  8
AM_0
 10
746.83299999999997
 20
742.38999999999987
 30
0.0
 70
    32
  0
VERTEX
  5
1D809
  8
AM_0
 10
746.84799999999996
 20
742.39699999999993
 30
0.0
 70
    32
  0
VERTEX
  5
1D80A
  8
AM_0
 10
746.86399999999992
 20
742.40399999999988
 30
0.0
 70
    32
  0
VERTEX
  5
1D80B
  8
AM_0
 10
746.87899999999991
 20
742.41099999999994
 30
0.0
 70
    32
  0
VERTEX
  5
1D80C
  8
AM_0
 10
746.89499999999987
 20
742.41799999999989
 30
0.0
 70
    32
  0
VERTEX
  5
1D80D
  8
AM_0
 10
746.90999999999997
 20
742.42499999999995
 30
0.0
 70
    32
  0
VERTEX
  5
1D80E
  8
AM_0
 10
746.92600000000004
 20
742.43100000000004
 30
0.0
 70
    32
  0
VERTEX
  5
1D80F
  8
AM_0
 10
746.94100000000003
 20
742.43799999999999
 30
0.0
 70
    32
  0
VERTEX
  5
1D810
  8
AM_0
 10
746.95699999999999
 20
742.44399999999985
 30
0.0
 70
    32
  0
VERTEX
  5
1D811
  8
AM_0
 10
746.97300000000007
 20
742.45100000000002
 30
0.0
 70
    32
  0
VERTEX
  5
1D812
  8
AM_0
 10
746.98899999999992
 20
742.45699999999999
 30
0.0
 70
    32
  0
VERTEX
  5
1D813
  8
AM_0
 10
747.00399999999991
 20
742.46299999999997
 30
0.0
 70
    32
  0
VERTEX
  5
1D814
  8
AM_0
 10
747.01999999999998
 20
742.46899999999994
 30
0.0
 70
    32
  0
VERTEX
  5
1D815
  8
AM_0
 10
747.03599999999994
 20
742.47500000000002
 30
0.0
 70
    32
  0
VERTEX
  5
1D816
  8
AM_0
 10
747.05200000000002
 20
742.48099999999999
 30
0.0
 70
    32
  0
VERTEX
  5
1D817
  8
AM_0
 10
747.06799999999987
 20
742.48699999999985
 30
0.0
 70
    32
  0
VERTEX
  5
1D818
  8
AM_0
 10
747.08399999999995
 20
742.49300000000005
 30
0.0
 70
    32
  0
VERTEX
  5
1D819
  8
AM_0
 10
747.10000000000002
 20
742.49899999999991
 30
0.0
 70
    32
  0
VERTEX
  5
1D81A
  8
AM_0
 10
747.1160000000001
 20
742.50399999999991
 30
0.0
 70
    32
  0
VERTEX
  5
1D81B
  8
AM_0
 10
747.13199999999995
 20
742.50999999999999
 30
0.0
 70
    32
  0
VERTEX
  5
1D81C
  8
AM_0
 10
747.14800000000002
 20
742.51499999999999
 30
0.0
 70
    32
  0
VERTEX
  5
1D81D
  8
AM_0
 10
747.16399999999987
 20
742.51999999999998
 30
0.0
 70
    32
  0
VERTEX
  5
1D81E
  8
AM_0
 10
747.17999999999995
 20
742.52599999999995
 30
0.0
 70
    32
  0
VERTEX
  5
1D81F
  8
AM_0
 10
747.19600000000003
 20
742.53099999999995
 30
0.0
 70
    32
  0
VERTEX
  5
1D820
  8
AM_0
 10
747.21199999999999
 20
742.53599999999994
 30
0.0
 70
    32
  0
VERTEX
  5
1D821
  8
AM_0
 10
747.22799999999995
 20
742.54100000000005
 30
0.0
 70
    32
  0
VERTEX
  5
1D822
  8
AM_0
 10
747.245
 20
742.54600000000005
 30
0.0
 70
    32
  0
VERTEX
  5
1D823
  8
AM_0
 10
747.26100000000008
 20
742.54999999999995
 30
0.0
 70
    32
  0
VERTEX
  5
1D824
  8
AM_0
 10
747.27699999999993
 20
742.55499999999995
 30
0.0
 70
    32
  0
VERTEX
  5
1D825
  8
AM_0
 10
747.29299999999989
 20
742.55999999999995
 30
0.0
 70
    32
  0
VERTEX
  5
1D826
  8
AM_0
 10
747.30999999999995
 20
742.56399999999985
 30
0.0
 70
    32
  0
VERTEX
  5
1D827
  8
AM_0
 10
747.32600000000002
 20
742.56899999999985
 30
0.0
 70
    32
  0
VERTEX
  5
1D828
  8
AM_0
 10
747.34199999999987
 20
742.57299999999987
 30
0.0
 70
    32
  0
VERTEX
  5
1D829
  8
AM_0
 10
747.35899999999992
 20
742.57699999999988
 30
0.0
 70
    32
  0
VERTEX
  5
1D82A
  8
AM_0
 10
747.37499999999989
 20
742.58100000000002
 30
0.0
 70
    32
  0
VERTEX
  5
1D82B
  8
AM_0
 10
747.39199999999994
 20
742.58500000000004
 30
0.0
 70
    32
  0
VERTEX
  5
1D82C
  8
AM_0
 10
747.40800000000002
 20
742.58899999999994
 30
0.0
 70
    32
  0
VERTEX
  5
1D82D
  8
AM_0
 10
747.42499999999995
 20
742.59300000000007
 30
0.0
 70
    32
  0
VERTEX
  5
1D82E
  8
AM_0
 10
747.44100000000003
 20
742.59699999999987
 30
0.0
 70
    32
  0
VERTEX
  5
1D82F
  8
AM_0
 10
747.45800000000008
 20
742.60000000000002
 30
0.0
 70
    32
  0
VERTEX
  5
1D830
  8
AM_0
 10
747.47399999999993
 20
742.60399999999993
 30
0.0
 70
    32
  0
VERTEX
  5
1D831
  8
AM_0
 10
747.4910000000001
 20
742.60699999999997
 30
0.0
 70
    32
  0
VERTEX
  5
1D832
  8
AM_0
 10
747.50800000000004
 20
742.6110000000001
 30
0.0
 70
    32
  0
VERTEX
  5
1D833
  8
AM_0
 10
747.52399999999989
 20
742.61399999999992
 30
0.0
 70
    32
  0
VERTEX
  5
1D834
  8
AM_0
 10
747.54100000000005
 20
742.61699999999985
 30
0.0
 70
    32
  0
VERTEX
  5
1D835
  8
AM_0
 10
747.55700000000002
 20
742.62
 30
0.0
 70
    32
  0
VERTEX
  5
1D836
  8
AM_0
 10
747.57399999999996
 20
742.62300000000005
 30
0.0
 70
    32
  0
VERTEX
  5
1D837
  8
AM_0
 10
747.59099999999989
 20
742.62599999999998
 30
0.0
 70
    32
  0
VERTEX
  5
1D838
  8
AM_0
 10
747.60799999999995
 20
742.62899999999979
 30
0.0
 70
    32
  0
VERTEX
  5
1D839
  8
AM_0
 10
747.6239999999998
 20
742.63199999999995
 30
0.0
 70
    32
  0
VERTEX
  5
1D83A
  8
AM_0
 10
747.64100000000008
 20
742.63399999999979
 30
0.0
 70
    32
  0
VERTEX
  5
1D83B
  8
AM_0
 10
747.65800000000002
 20
742.63699999999994
 30
0.0
 70
    32
  0
VERTEX
  5
1D83C
  8
AM_0
 10
747.67499999999995
 20
742.63899999999978
 30
0.0
 70
    32
  0
VERTEX
  5
1D83D
  8
AM_0
 10
747.69100000000003
 20
742.64199999999994
 30
0.0
 70
    32
  0
VERTEX
  5
1D83E
  8
AM_0
 10
747.70799999999997
 20
742.64399999999989
 30
0.0
 70
    32
  0
VERTEX
  5
1D83F
  8
AM_0
 10
747.72500000000002
 20
742.64599999999996
 30
0.0
 70
    32
  0
VERTEX
  5
1D840
  8
AM_0
 10
747.74199999999985
 20
742.64800000000002
 30
0.0
 70
    32
  0
VERTEX
  5
1D841
  8
AM_0
 10
747.7589999999999
 20
742.64999999999986
 30
0.0
 70
    32
  0
VERTEX
  5
1D842
  8
AM_0
 10
747.77499999999998
 20
742.65199999999993
 30
0.0
 70
    32
  0
VERTEX
  5
1D843
  8
AM_0
 10
747.79199999999992
 20
742.654
 30
0.0
 70
    32
  0
VERTEX
  5
1D844
  8
AM_0
 10
747.80899999999986
 20
742.65499999999986
 30
0.0
 70
    32
  0
VERTEX
  5
1D845
  8
AM_0
 10
747.82600000000002
 20
742.65699999999993
 30
0.0
 70
    32
  0
VERTEX
  5
1D846
  8
AM_0
 10
747.84300000000007
 20
742.65800000000002
 30
0.0
 70
    32
  0
VERTEX
  5
1D847
  8
AM_0
 10
747.86000000000001
 20
742.65999999999985
 30
0.0
 70
    32
  0
VERTEX
  5
1D848
  8
AM_0
 10
747.87699999999995
 20
742.66100000000006
 30
0.0
 70
    32
  0
VERTEX
  5
1D849
  8
AM_0
 10
747.89300000000003
 20
742.66199999999992
 30
0.0
 70
    32
  0
VERTEX
  5
1D84A
  8
AM_0
 10
747.90999999999985
 20
742.66300000000001
 30
0.0
 70
    32
  0
VERTEX
  5
1D84B
  8
AM_0
 10
747.92700000000002
 20
742.66399999999987
 30
0.0
 70
    32
  0
VERTEX
  5
1D84C
  8
AM_0
 10
747.94399999999985
 20
742.66499999999985
 30
0.0
 70
    32
  0
VERTEX
  5
1D84D
  8
AM_0
 10
747.96100000000001
 20
742.66600000000005
 30
0.0
 70
    32
  0
VERTEX
  5
1D84E
  8
AM_0
 10
747.97799999999995
 20
742.66699999999992
 30
0.0
 70
    32
  0
VERTEX
  5
1D84F
  8
AM_0
 10
747.995
 20
742.66699999999992
 30
0.0
 70
    32
  0
VERTEX
  5
1D850
  8
AM_0
 10
748.01199999999994
 20
742.66800000000001
 30
0.0
 70
    32
  0
VERTEX
  5
1D851
  8
AM_0
 10
748.029
 20
742.66800000000001
 30
0.0
 70
    32
  0
VERTEX
  5
1D852
  8
AM_0
 10
748.04600000000005
 20
742.66899999999987
 30
0.0
 70
    32
  0
VERTEX
  5
1D853
  8
AM_0
 10
748.06299999999987
 20
742.66899999999987
 30
0.0
 70
    32
  0
VERTEX
  5
1D854
  8
AM_0
 10
748.08000000000004
 20
742.66899999999987
 30
0.0
 70
    32
  0
VERTEX
  5
1D855
  8
AM_0
 10
748.09699999999998
 20
742.66899999999987
 30
0.0
 70
    32
  0
SEQEND
  5
1D856
  8
AM_0
  0
LINE
  5
19773
  8
AM_0
 10
744.12795429737105
 20
741.1691593254161
 30
0.0
 11
743.7416632264418
 21
741.16915885706817
 31
0.0
  0
LINE
  5
19777
  8
AM_0
 10
642.59755008379523
 20
733.16773643831255
 30
0.0
 11
642.59755008379523
 21
728.16773628780095
 31
0.0
  0
LINE
  5
19778
  8
AM_0
 10
617.59704963675142
 20
733.16773643831255
 30
0.0
 11
617.59704963675142
 21
738.16773658882414
 31
0.0
  0
LINE
  5
19779
  8
ﾁｭｳｼﾝｾﾝ1
 10
592.59654889167837
 20
559.16773327756846
 30
0.0
 11
592.59654889167837
 21
743.16773658882414
 31
0.0
  0
LINE
  5
1977C
  8
AM_0
 10
519.21990709451563
 20
728.16773628780095
 30
0.0
 11
517.59654663400397
 21
635.16773327756812
 31
0.0
  0
LINE
  5
19781
  8
AM_0
 10
567.59604814660565
 20
733.16773643831255
 30
0.0
 11
567.59604814660565
 21
738.16773658882414
 31
0.0
  0
LINE
  5
19782
  8
AM_0
 10
542.59554769956173
 20
733.16773643831255
 30
0.0
 11
542.59554769956173
 21
730.66773628780095
 31
0.0
  0
LINE
  5
19783
  8
0
 10
520.59684708104794
 20
730.66773628780095
 30
0.0
 11
544.59684708104794
 21
730.66773628780095
 31
0.0
  0
LINE
  5
19784
  8
0
 10
523.59684708104805
 20
742.66773628780095
 30
0.0
 11
541.59684708104794
 21
742.66773628780095
 31
0.0
  0
LINE
  5
19785
  8
0
 10
523.59684708104805
 20
730.66773628780095
 30
0.0
 11
523.59684708104805
 21
742.66773628780095
 31
0.0
  0
LINE
  5
19786
  8
0
 10
520.59684708104794
 20
728.16773628780095
 30
0.0
 11
520.59684708104794
 21
730.66773628780095
 31
0.0
  0
LINE
  5
19787
  8
0
 10
541.59684708104794
 20
742.66773628780095
 30
0.0
 11
541.59684708104794
 21
730.66773628780095
 31
0.0
  0
LINE
  5
19788
  8
0
 10
544.59684708104794
 20
730.66773628780095
 30
0.0
 11
544.59684708104794
 21
728.16773628780095
 31
0.0
  0
LINE
  5
19789
  8
0
 10
695.5965218358665
 20
730.66773628780095
 30
0.0
 11
719.5965218358665
 21
730.66773628780095
 31
0.0
  0
LINE
  5
1978A
  8
0
 10
698.59652183586604
 20
742.66773628780095
 30
0.0
 11
716.5965218358665
 21
742.66773628780095
 31
0.0
  0
LINE
  5
1978B
  8
0
 10
698.59652183586604
 20
730.66773628780095
 30
0.0
 11
698.59652183586604
 21
742.66773628780095
 31
0.0
  0
LINE
  5
1978C
  8
0
 10
695.5965218358665
 20
728.16773628780095
 30
0.0
 11
695.5965218358665
 21
730.66773628780095
 31
0.0
  0
LINE
  5
1978D
  8
0
 10
716.5965218358665
 20
742.66773628780095
 30
0.0
 11
716.5965218358665
 21
730.66773628780095
 31
0.0
  0
LINE
  5
1978E
  8
0
 10
719.5965218358665
 20
730.66773628780095
 30
0.0
 11
719.5965218358665
 21
728.16773628780095
 31
0.0
  0
LINE
  5
1978F
  8
AM_0
 10
345.04498943411107
 20
398.89742339073172
 30
0.0
 11
370.04498943411153
 21
398.89742339073172
 31
0.0
  0
LINE
  5
19790
  8
AM_0
 10
345.04498943411107
 20
237.7105403520741
 30
0.0
 11
370.04498943411153
 21
237.7105403520741
 31
0.0
  0
ARC
  5
19847
  8
AM_0
 10
730.6514932259613
 20
635.16773327756891
 30
0.0
 40
2.0
 50
4.9999999999997371
 51
90.0
1001
GENIUS_GENOBJ-N-FIL_13
1002
{
1000
OWNER
1000
GEN
1002
}
1001
GENIUS_GENODEF_13
1002
{
1000
HIER
1070
     0
1002
}
1002
{
1000
MANEDIT
1070
     0
1002
}
1002
{
1000
NOSEL
1070
     0
1002
}
1002
{
1000
BEHIND
1070
     0
1002
}
1002
{
1000
OTHER
1070
     0
1002
}
1002
{
1000
REACTOR
1002
}
  0
ARC
  5
1984B
  8
AM_0
 10
722.97346649775852
 20
728.16773628780095
 30
0.0
 40
2.0
 50
181.0000242476423
 51
270.0000000000008
1001
GENIUS_GENOBJ-N-FIL_13
1002
{
1000
OWNER
1000
GEN
1002
}
1001
GENIUS_GENODEF_13
1002
{
1000
HIER
1070
     0
1002
}
1002
{
1000
MANEDIT
1070
     0
1002
}
1002
{
1000
NOSEL
1070
     0
1002
}
1002
{
1000
BEHIND
1070
     0
1002
}
1002
{
1000
OTHER
1070
     0
1002
}
1002
{
1000
REACTOR
1002
}
  0
LINE
  5
1985C
  8
AM_0
 10
724.5965222874014
 20
569.16773327756891
 30
0.0
 11
515.5965466340042
 21
569.16773327756812
 31
0.0
  0
LINE
  5
1985D
  8
AM_0
 10
723.84031535315262
 20
594.16773327756891
 30
0.0
 11
516.35549123664919
 21
594.16773327756869
 31
0.0
  0
LINE
  5
1985E
  8
AM_0
 10
517.6001603849877
 20
635.16773327756812
 30
0.0
 11
515.5965466340042
 21
569.16773327756812
 31
0.0
  0
LINE
  5
1985F
  8
AM_0
 10
722.60013598098453
 20
635.16773327756891
 30
0.0
 11
724.5965222874014
 21
569.16773327756891
 31
0.0
  0
LINE
  5
19860
  8
AM_0
 10
538.23816847452883
 20
569.16773327756812
 30
0.0
 11
538.23816847452883
 21
594.16773327756869
 31
0.0
  0
LINE
  5
19861
  8
ﾁｭｳｼﾝｾﾝ1
 10
547.59652002972655
 20
564.16773327756812
 30
0.0
 11
547.59652002972655
 21
599.16773327756869
 31
0.0
  0
LINE
  5
19862
  8
AM_0
 10
701.95490044687665
 20
569.16773327756812
 30
0.0
 11
701.95490044687665
 21
594.16773327756869
 31
0.0
  0
LINE
  5
19863
  8
ﾁｭｳｼﾝｾﾝ1
 10
692.59654889167894
 20
564.16773327756812
 30
0.0
 11
692.59654889167894
 21
599.16773327756869
 31
0.0
  0
LINE
  5
1A759
  8
AM_0
 10
275.04706444713469
 20
410.30398189900251
 30
0.0
 11
290.81046090796781
 21
410.30398189900319
 31
0.0
  0
LINE
  5
1A75A
  8
AM_0
 10
275.04706444713469
 20
405.30398189750298
 30
0.0
 11
290.81046090796781
 21
405.30398189750309
 31
0.0
  0
LINE
  5
1A75B
  8
AM_0
 10
270.04498944563409
 20
405.30398189750298
 30
0.0
 11
272.11285666283533
 21
405.30398189750298
 31
0.0
  0
LINE
  5
1A75C
  8
AM_0
 10
270.04498944563511
 20
410.30398189900251
 30
0.0
 11
275.04706444713469
 21
410.30398189900251
 31
0.0
  0
LINE
  5
1A75D
  8
AM_0
 10
267.97712222843347
 20
404.58969618300279
 30
0.0
 11
272.11285666283533
 21
404.58969618300279
 31
0.0
  0
CIRCLE
  5
1A75E
  8
AM_0
 10
270.04498944563409
 20
407.8039818982528
 30
0.0
 40
2.5000000007500001
  0
LINE
  5
1A75F
  8
0
 10
267.97712222843347
 20
409.208946373169
 30
0.0
 11
267.97712222843347
 21
410.30398189900251
 31
0.0
  0
LINE
  5
1A760
  8
0
 10
267.97712222843347
 20
404.58969618300279
 30
0.0
 11
267.97712222843347
 21
406.3990174233362
 31
0.0
  0
LINE
  5
1A761
  8
AM_0
 10
265.04291444413411
 20
410.30398189900251
 30
0.0
 11
267.97712222843347
 21
410.30398189900251
 31
0.0
  0
LINE
  5
1A762
  8
0
 10
272.11285666283487
 20
409.2089463731694
 30
0.0
 11
272.11285666283487
 21
410.30398189900251
 31
0.0
  0
LINE
  5
1A763
  8
0
 10
272.11285666283533
 20
404.58969618300279
 30
0.0
 11
272.11285666283487
 21
406.3990174233362
 31
0.0
  0
LINE
  5
1A764
  8
0
 10
275.04706444713469
 20
399.15100214722139
 30
0.0
 11
275.04706444713469
 21
410.30398189900251
 31
0.0
  0
LINE
  5
1A765
  8
0
 10
265.04291444413411
 20
399.1510021472215
 30
0.0
 11
265.04291444413411
 21
410.30398189900251
 31
0.0
  0
ARC
  5
1AD13
  8
AM_0
 10
290.81046090796781
 20
281.30398186030368
 30
0.0
 40
50.000000014999998
 50
287.73954888371878
 51
300.48176923769449
1001
GENIUS_GENOBJ-N-FIL_13
1002
{
1000
OWNER
1000
GEN
1002
}
1001
GENIUS_GENODEF_13
1002
{
1000
HIER
1070
     0
1002
}
1002
{
1000
MANEDIT
1070
     0
1002
}
1002
{
1000
NOSEL
1070
     0
1002
}
1002
{
1000
BEHIND
1070
     0
1002
}
1002
{
1000
OTHER
1070
     0
1002
}
1002
{
1000
REACTOR
1002
}
  0
ARC
  5
1AD14
  8
AM_0
 10
290.81046090796781
 20
281.30398186030368
 30
0.0
 40
55.00000001650001
 50
286.08072549471092
 51
308.16970051879002
1001
GENIUS_GENOBJ-N-FIL_13
1002
{
1000
OWNER
1000
GEN
1002
}
1001
GENIUS_GENODEF_13
1002
{
1000
HIER
1070
     0
1002
}
1002
{
1000
MANEDIT
1070
     0
1002
}
1002
{
1000
NOSEL
1070
     0
1002
}
1002
{
1000
BEHIND
1070
     0
1002
}
1002
{
1000
OTHER
1070
     0
1002
}
1002
{
1000
REACTOR
1002
}
  0
ARC
  5
1AD18
  8
AM_0
 10
290.81046090796781
 20
355.30398188250268
 30
0.0
 40
55.00000001650001
 50
51.830252127577651
 51
90.0
1001
GENIUS_GENOBJ-N-FIL_13
1002
{
1000
OWNER
1000
GEN
1002
}
1001
GENIUS_GENODEF_13
1002
{
1000
HIER
1070
     0
1002
}
1002
{
1000
MANEDIT
1070
     0
1002
}
1002
{
1000
NOSEL
1070
     0
1002
}
1002
{
1000
BEHIND
1070
     0
1002
}
1002
{
1000
OTHER
1070
     0
1002
}
1002
{
1000
REACTOR
1002
}
  0
ARC
  5
1AD19
  8
AM_0
 10
290.81046090796781
 20
355.30398188250268
 30
0.0
 40
50.000000014999998
 50
59.518193946750053
 51
90.0
1001
GENIUS_GENOBJ-N-FIL_13
1002
{
1000
OWNER
1000
GEN
1002
}
1001
GENIUS_GENODEF_13
1002
{
1000
HIER
1070
     0
1002
}
1002
{
1000
MANEDIT
1070
     0
1002
}
1002
{
1000
NOSEL
1070
     0
1002
}
1002
{
1000
BEHIND
1070
     0
1002
}
1002
{
1000
OTHER
1070
     0
1002
}
1002
{
1000
REACTOR
1002
}
  0
ARC
  5
1B562
  8
AM_0
 10
768.09652229835103
 20
256.26517387140302
 30
0.0
 40
1.0
 50
270.0
 51
0.000000000000007
  0
ARC
  5
1B563
  8
AM_0
 10
768.09652229835103
 20
380.342789871403
 30
0.0
 40
1.0
 50
0.000000000000007
 51
90.0
  0
ARC
  5
1B564
  8
AM_0
 10
770.10495121867746
 20
735.66773317834645
 30
0.0
 40
2.0
 50
90.0
 51
164.99999999999881
  0
LINE
  5
1B565
  8
AM_0
 10
767.09657621867746
 20
732.16773317834623
 30
0.0
 11
768.17309921867763
 21
736.18537117834614
 31
0.0
  0
LINE
  5
1B566
  8
AM_0
 10
767.09657621867746
 20
733.78931417834622
 30
0.0
 11
769.98834321867764
 21
744.58153617834625
 31
0.0
  0
ARC
  5
1B567
  8
AM_0
 10
771.92019521867701
 20
744.06389817834622
 30
0.0
 40
2.0
 50
90.0
 51
165.0000029999982
  0
LINE
  5
1B568
  8
AM_0
 10
836.09657621867757
 20
747.02993117834615
 30
0.0
 11
836.09657621867757
 21
746.06389817834611
 31
0.0
  0
ARC
  5
1B569
  8
AM_0
 10
838.09657621867746
 20
745.59730217834624
 30
0.0
 40
2.0
 50
90.0
 51
166.50868899999799
  0
ARC
  5
1B56A
  8
AM_0
 10
838.09657621867746
 20
746.60265317834615
 30
0.0
 40
2.0
 50
90.0
 51
180.0
  0
ARC
  5
1B56B
  8
AM_0
 10
838.09657621867746
 20
747.02993117834615
 30
0.0
 40
2.0
 50
90.0
 51
180.0
  0
ARC
  5
1B56C
  8
AM_0
 10
923.0965762186778
 20
747.68972817834651
 30
0.0
 40
2.0
 50
195.7695469999999
 51
270.0
  0
ARC
  5
1B56D
  8
AM_0
 10
923.0965762186778
 20
745.05208917834591
 30
0.0
 40
2.0
 50
180.0
 51
270.0
  0
LINE
  5
1B56E
  8
AM_0
 10
921.09657621867768
 20
740.69610017834623
 30
0.0
 11
921.09657621867768
 21
744.06389817834622
 31
0.0
  0
ARC
  5
1B56F
  8
AM_0
 10
919.09657621867757
 20
744.06389817834622
 30
0.0
 40
2.0
 50
0.0
 51
90.0
  0
ARC
  5
1B570
  8
AM_0
 10
919.09657621867757
 20
745.59730217834624
 30
0.0
 40
2.0
 50
0.0
 51
90.0
  0
ARC
  5
1B571
  8
AM_0
 10
919.24712621867741
 20
746.60265317834615
 30
0.0
 40
2.0
 50
15.76954699999988
 51
90.0
  0
LINE
  5
1B572
  8
AM_0
 10
921.09657621867768
 20
745.05208917834591
 30
0.0
 11
921.09657621867768
 21
745.59730217834624
 31
0.0
  0
ARC
  5
1B573
  8
AM_0
 10
919.09657621867757
 20
747.02993117834615
 30
0.0
 40
2.0
 50
0.0
 51
90.0
  0
ARC
  5
1B574
  8
AM_0
 10
923.0965762186778
 20
740.69610017834623
 30
0.0
 40
2.0
 50
180.0
 51
270.0
  0
LINE
  5
1B575
  8
AM_0
 10
919.09657621867757
 20
746.06389817834611
 30
0.0
 11
771.92019521867701
 21
746.06389817834611
 31
0.0
  0
LINE
  5
1B576
  8
AM_0
 10
919.09657621867757
 20
747.59730217834624
 30
0.0
 11
838.09657621867746
 21
747.59730217834624
 31
0.0
  0
LINE
  5
1B577
  8
AM_0
 10
919.24712621867764
 20
748.60265317834615
 30
0.0
 11
838.09657621867746
 21
748.60265317834615
 31
0.0
  0
LINE
  5
1B578
  8
AM_0
 10
919.09657621867757
 20
749.02993117834615
 30
0.0
 11
838.09657621867746
 21
749.02993117834615
 31
0.0
  0
LINE
  5
1B579
  8
AM_0
 10
923.0965762186778
 20
738.69610017834623
 30
0.0
 11
931.0965762186778
 21
738.69610017834623
 31
0.0
  0
LINE
  5
1B57A
  8
AM_0
 10
923.0965762186778
 20
743.05208917834591
 30
0.0
 11
931.0965762186778
 21
743.05208917834591
 31
0.0
  0
LINE
  5
1B57B
  8
AM_0
 10
923.0965762186778
 20
745.68972817834651
 30
0.0
 11
931.0965762186778
 21
745.68972817834651
 31
0.0
  0
ARC
  5
1B57C
  8
AM_0
 10
770.10495121867746
 20
602.66773317834623
 30
0.0
 40
2.0
 50
195.00000000000111
 51
270.0
  0
LINE
  5
1B57D
  8
AM_0
 10
767.09657621867746
 20
606.16773317834623
 30
0.0
 11
768.17309921867763
 21
602.15009517834642
 31
0.0
  0
ARC
  5
1B57E
  8
AM_0
 10
771.92019521867701
 20
594.27156817834623
 30
0.0
 40
2.0
 50
194.9999970000016
 51
270.0
  0
LINE
  5
1B57F
  8
AM_0
 10
767.09657621867746
 20
604.54615217834623
 30
0.0
 11
769.98834321867764
 21
593.75393017834574
 31
0.0
  0
ARC
  5
1B580
  8
AM_0
 10
838.09657621867746
 20
591.30553517834596
 30
0.0
 40
2.0
 50
180.0
 51
270.0
  0
ARC
  5
1B581
  8
AM_0
 10
838.09657621867746
 20
591.73281317834596
 30
0.0
 40
2.0
 50
180.0
 51
270.0
  0
ARC
  5
1B582
  8
AM_0
 10
838.09657621867746
 20
592.7381641783461
 30
0.0
 40
2.0
 50
193.49131100000179
 51
270.0
  0
LINE
  5
1B583
  8
AM_0
 10
836.09657621867757
 20
591.30553517834596
 30
0.0
 11
836.09657621867757
 21
592.27156817834623
 31
0.0
  0
ARC
  5
1B584
  8
AM_0
 10
923.0965762186778
 20
597.63936617834622
 30
0.0
 40
2.0
 50
90.0
 51
180.0
  0
LINE
  5
1B585
  8
AM_0
 10
923.0965762186778
 20
599.63936617834611
 30
0.0
 11
931.0965762186778
 21
599.63936617834611
 31
0.0
  0
LINE
  5
1B586
  8
AM_0
 10
923.0965762186778
 20
595.28337717834643
 30
0.0
 11
931.0965762186778
 21
595.28337717834643
 31
0.0
  0
ARC
  5
1B587
  8
AM_0
 10
919.09657621867757
 20
591.30553517834596
 30
0.0
 40
2.0
 50
270.0
 51
0.0
  0
LINE
  5
1B588
  8
AM_0
 10
921.09657621867768
 20
593.28337717834643
 30
0.0
 11
921.09657621867768
 21
592.7381641783461
 31
0.0
  0
ARC
  5
1B589
  8
AM_0
 10
919.24712621867741
 20
591.73281317834596
 30
0.0
 40
2.0
 50
270.0
 51
344.23045300000013
  0
ARC
  5
1B58A
  8
AM_0
 10
923.0965762186778
 20
590.64573817834605
 30
0.0
 40
2.0
 50
90.0
 51
164.2304530000001
  0
ARC
  5
1B58B
  8
AM_0
 10
919.09657621867757
 20
592.7381641783461
 30
0.0
 40
2.0
 50
270.0
 51
0.0
  0
ARC
  5
1B58C
  8
AM_0
 10
919.09657621867757
 20
594.27156817834623
 30
0.0
 40
2.0
 50
270.0
 51
0.0
  0
LINE
  5
1B58D
  8
AM_0
 10
921.09657621867768
 20
597.63936617834622
 30
0.0
 11
921.09657621867768
 21
594.27156817834623
 31
0.0
  0
ARC
  5
1B58E
  8
AM_0
 10
923.0965762186778
 20
593.28337717834643
 30
0.0
 40
2.0
 50
90.0
 51
180.0
  0
LINE
  5
1B58F
  8
AM_0
 10
919.09657621867757
 20
592.27156817834623
 30
0.0
 11
771.92019521867701
 21
592.27156817834623
 31
0.0
  0
LINE
  5
1B590
  8
AM_0
 10
919.09657621867757
 20
590.7381641783461
 30
0.0
 11
838.09657621867746
 21
590.7381641783461
 31
0.0
  0
LINE
  5
1B591
  8
AM_0
 10
919.24712621867741
 20
589.7328131783463
 30
0.0
 11
838.09657621867746
 21
589.7328131783463
 31
0.0
  0
LINE
  5
1B592
  8
AM_0
 10
919.09657621867757
 20
589.3055351783463
 30
0.0
 11
838.09657621867746
 21
589.3055351783463
 31
0.0
  0
LINE
  5
1B593
  8
AM_0
 10
923.0965762186778
 20
592.64573817834605
 30
0.0
 11
931.0965762186778
 21
592.64573817834605
 31
0.0
  0
ARC
  5
1B596
  8
AM_0
 10
768.09657621867746
 20
607.16773317834623
 30
0.0
 40
1.0
 50
270.0
 51
0.0
  0
ARC
  5
1B597
  8
AM_0
 10
768.09657621867746
 20
731.16773317834623
 30
0.0
 40
1.0
 50
0.0
 51
90.0
  0
LINE
  5
1B5C4
  8
AM_0
 10
769.09657621867768
 20
712.99773317834638
 30
0.0
 11
769.09657621867768
 21
705.35773317834651
 31
0.0
  0
ARC
  5
1B5C5
  8
AM_0
 10
768.10155121867763
 20
712.13211317834623
 30
0.0
 40
1.006985999999999
 50
98.392163000002313
 51
179.64700200000121
  0
ARC
  5
1B5C6
  8
AM_0
 10
768.09721521867755
 20
716.2092641783463
 30
0.0
 40
1.0026319999999971
 50
180.05408499999839
 51
261.24375900000098
  0
LINE
  5
1B5C7
  8
AM_0
 10
767.0945832186776
 20
712.13831717834626
 30
0.0
 11
767.0945832186776
 21
716.20831717834608
 31
0.0
  0
ARC
  5
1B5C8
  8
AM_0
 10
769.63793921867784
 20
714.1616731783464
 30
0.0
 40
0.8033630000000001
 50
180.23932999999781
 51
269.76067000000211
  0
LINE
  5
1B5C9
  8
AM_0
 10
767.95458321867784
 20
713.12831717834615
 30
0.0
 11
769.55727121867756
 21
713.34773317834595
 31
0.0
  0
ARC
  5
1B5CA
  8
AM_0
 10
769.63964521867763
 20
714.1532551783464
 30
0.0
 40
0.8050779999999997
 50
90.360251000001654
 51
179.63974899999829
  0
LINE
  5
1B5CB
  8
AM_0
 10
767.94458321867785
 20
715.21831717834607
 30
0.0
 11
769.70338221867723
 21
714.9477331783462
 31
0.0
  0
LINE
  5
1B5CC
  8
AM_0
 10
769.09657621867768
 20
622.99773317834615
 30
0.0
 11
769.09657621867768
 21
607.16773317834623
 31
0.0
  0
ARC
  5
1B5CD
  8
AM_0
 10
768.10155121867763
 20
626.20335317834611
 30
0.0
 40
1.006985999999999
 50
180.35299799999879
 51
261.6078369999978
  0
ARC
  5
1B5CE
  8
AM_0
 10
769.63964521867763
 20
624.18221117834651
 30
0.0
 40
0.8050779999999997
 50
180.3602510000016
 51
269.6397489999984
  0
ARC
  5
1B5CF
  8
AM_0
 10
769.63793921867784
 20
624.17379317834605
 30
0.0
 40
0.8033630000000001
 50
90.239329999997906
 51
179.76067000000199
  0
ARC
  5
1B5D0
  8
AM_0
 10
768.09721521867755
 20
622.12620217834638
 30
0.0
 40
1.0026319999999971
 50
98.756240999999065
 51
179.94591500000149
  0
LINE
  5
1B5D1
  8
AM_0
 10
767.0945832186776
 20
626.19714917834608
 30
0.0
 11
767.0945832186776
 21
622.12714917834614
 31
0.0
  0
LINE
  5
1B5D2
  8
AM_0
 10
767.94458321867785
 20
623.11714917834615
 30
0.0
 11
769.70338221867723
 21
623.38773317834625
 31
0.0
  0
LINE
  5
1B5D3
  8
AM_0
 10
767.95458321867784
 20
625.20714917834596
 30
0.0
 11
769.55727121867756
 21
624.98773317834639
 31
0.0
  0
LINE
  5
1B5D4
  8
AM_0
 10
769.09657621867768
 20
631.30378817834605
 30
0.0
 11
759.09657621867746
 21
631.30378817834605
 31
0.0
  0
LINE
  5
1B5D5
  8
AM_0
 10
769.09657621867768
 20
707.02167817834641
 30
0.0
 11
759.09657621867746
 21
707.02167817834641
 31
0.0
  0
LINE
  5
1B5E1
  8
AM_0
 10
236.5449894456342
 20
239.30398187140301
 30
0.0
 11
253.75513471183439
 21
239.30398187140301
 31
0.0
  0
LINE
  5
1B5E3
  8
AM_0
 10
236.5449894456342
 20
239.30398187140301
 30
0.0
 11
236.5351880916393
 21
239.60455843598891
 31
0.0
  0
LINE
  5
1B5E5
  8
AM_0
 10
207.0449894456342
 20
262.30397991475218
 30
0.0
 11
207.0449894456342
 21
268.30398066431007
 31
0.0
  0
LINE
  5
1B5E9
  8
AM_0
 10
196.0449894456342
 20
285.39889387140312
 30
0.0
 11
196.0449894456342
 21
293.30398187140293
 31
0.0
  0
ARC
  5
1B5EA
  8
AM_0
 10
202.0449894456342
 20
272.58871787140299
 30
0.0
 40
0.5
 50
180.0
 51
270.0
  0
LINE
  5
1B5EB
  8
AM_0
 10
201.5449894456342
 20
274.08871787140299
 30
0.0
 11
201.5449894456342
 21
272.58871787140299
 31
0.0
  0
ARC
  5
1B5EC
  8
AM_0
 10
202.0449894456342
 20
274.08871787140299
 30
0.0
 40
0.5
 50
90.0
 51
180.0
  0
LINE
  5
1B5F6
  8
AM_0
 10
206.0449875075625
 20
274.9434084516991
 30
0.0
 11
202.00106644563419
 21
274.58678487140298
 31
0.0
  0
LINE
  5
1B5F7
  8
AM_0
 10
206.0449875075625
 20
271.1938853050284
 30
0.0
 11
201.93723244563421
 21
272.10046687140311
 31
0.0
  0
LINE
  5
1B602
  8
AM_0
 10
191.0847044456342
 20
314.3033728714031
 30
0.0
 11
194.64453444563421
 21
314.42768487140307
 31
0.0
  0
ARC
  5
1B603
  8
AM_0
 10
191.1196034456342
 20
313.30398187140293
 30
0.0
 40
1.0
 50
91.999999999997186
 51
268.0000000000029
  0
LINE
  5
1B604
  8
AM_0
 10
191.0847044456342
 20
312.30459087140292
 30
0.0
 11
195.06420844563411
 21
312.165623871403
 31
0.0
  0
ARC
  5
1B605
  8
AM_0
 10
194.57473544563399
 20
316.42646587140302
 30
0.0
 40
2.0
 50
271.99999999999721
 51
1.428628000002284
  0
ARC
  5
1B606
  8
AM_0
 10
194.9944094456342
 20
310.16684187140311
 30
0.0
 40
2.0
 50
0.7272049999986928
 51
88.000000000002785
  0
LINE
  5
1B607
  8
AM_0
 10
191.5880084456341
 20
304.3033728714031
 30
0.0
 11
195.56263844563421
 21
304.442169871403
 31
0.0
  0
ARC
  5
1B608
  8
AM_0
 10
191.62290844563421
 20
303.30398187140293
 30
0.0
 40
1.0
 50
91.999999999997186
 51
268.0000000000029
  0
LINE
  5
1B609
  8
AM_0
 10
191.5880084456341
 20
302.30459087140292
 30
0.0
 11
196.84977544563401
 21
302.12084587140288
 31
0.0
  0
ARC
  5
1B60A
  8
AM_0
 10
196.77997644563411
 20
300.12206487140293
 30
0.0
 40
2.0
 50
13.922596999999
 51
88.000000000002785
  0
ARC
  5
1B60B
  8
AM_0
 10
195.4928394456341
 20
306.44095187140312
 30
0.0
 40
2.0
 50
271.99999999999721
 51
9.045895000001801
  0
ARC
  5
1B60C
  8
AM_0
 10
197.7784914456341
 20
296.48548187140312
 30
0.0
 40
2.0
 50
271.99999999999721
 51
16.78465200000052
  0
LINE
  5
1B60D
  8
AM_0
 10
192.5984664456341
 20
294.3033728714031
 30
0.0
 11
197.84829044563409
 21
294.48670087140312
 31
0.0
  0
ARC
  5
1B60E
  8
AM_0
 10
192.6333654456341
 20
293.30398187140293
 30
0.0
 40
1.0
 50
91.999999999997186
 51
268.0000000000029
  0
LINE
  5
1B60F
  8
AM_0
 10
192.5984664456341
 20
292.30459087140298
 30
0.0
 11
196.0449894456342
 21
292.18423587140302
 31
0.0
  0
ARC
  5
1B610
  8
AM_0
 10
200.0443524456341
 20
290.04335587140309
 30
0.0
 40
2.0
 50
21.96450100000353
 51
88.000000000002785
  0
ARC
  5
1B611
  8
AM_0
 10
201.34456244563421
 20
287.0120798714031
 30
0.0
 40
2.0
 50
275.5175840000021
 51
24.467545000000911
  0
ARC
  5
1B612
  8
AM_0
 10
194.1588244456342
 20
283.3039818714031
 30
0.0
 40
1.0
 50
95.517584000002117
 51
265.38626999999838
  0
ARC
  5
1B613
  8
AM_0
 10
205.05498944563419
 20
279.41491687140308
 30
0.0
 40
2.0
 50
60.330313561889582
 51
85.386269999998376
  0
ARC
  5
1B62F
  8
AM_0
 10
197.2045204456341
 20
293.30398187140293
 30
0.0
 40
1.1595309999999981
 50
90.0
 51
268.0000000000029
  0
LINE
  5
1B630
  8
AM_0
 10
197.16405344563421
 20
292.14515687140312
 30
0.0
 11
200.11415144563421
 21
292.04213787140287
 31
0.0
  0
ARC
  5
1B631
  8
AM_0
 10
195.0449894456342
 20
285.39889387140312
 30
0.0
 40
1.0
 50
275.5175840000021
 51
0.0
  0
LINE
  5
1B632
  8
AM_0
 10
205.21586544563411
 20
281.40843587140319
 30
0.0
 11
194.07838744563421
 21
282.3072218714031
 31
0.0
  0
LINE
  5
1B633
  8
AM_0
 10
201.53686544563411
 20
285.02134687140301
 30
0.0
 11
194.06267344563409
 21
284.29934887140303
 31
0.0
  0
LINE
  5
1B660
  8
AM_0
 10
201.53686544563419
 20
351.58661687140312
 30
0.0
 11
194.06267344563409
 21
352.30861487140311
 31
0.0
  0
LINE
  5
1B661
  8
AM_0
 10
205.21586544563411
 20
355.19952787140289
 30
0.0
 11
194.07838744563421
 21
354.30074187140332
 31
0.0
  0
ARC
  5
1B662
  8
AM_0
 10
195.0449894456342
 20
351.2090698714029
 30
0.0
 40
1.0
 50
0.0
 51
84.482415999997869
  0
LINE
  5
1B663
  8
AM_0
 10
197.16405344563421
 20
344.46280687140302
 30
0.0
 11
200.11415144563421
 21
344.56582587140292
 31
0.0
  0
ARC
  5
1B664
  8
AM_0
 10
197.2045204456341
 20
343.30398187140293
 30
0.0
 40
1.1595309999999981
 50
91.999999999997186
 51
270.0
  0
ARC
  5
1B673
  8
AM_0
 10
205.05498944563419
 20
357.19304687140311
 30
0.0
 40
2.0
 50
274.61373000000162
 51
299.66968643811282
  0
ARC
  5
1B674
  8
AM_0
 10
194.1588244456342
 20
353.30398187140298
 30
0.0
 40
1.0
 50
94.613730000001624
 51
264.4824159999979
  0
ARC
  5
1B675
  8
AM_0
 10
201.34456244563421
 20
349.59588387140298
 30
0.0
 40
2.0
 50
335.53245499999912
 51
84.482415999997869
  0
ARC
  5
1B676
  8
AM_0
 10
200.0443524456341
 20
346.56460787140298
 30
0.0
 40
2.0
 50
271.99999999999721
 51
338.03549899999649
  0
LINE
  5
1B677
  8
AM_0
 10
192.5984664456341
 20
344.3033728714031
 30
0.0
 11
196.0449894456342
 21
344.42372787140312
 31
0.0
  0
ARC
  5
1B678
  8
AM_0
 10
192.6333654456341
 20
343.30398187140293
 30
0.0
 40
1.0
 50
91.999999999997186
 51
268.0000000000029
  0
LINE
  5
1B679
  8
AM_0
 10
192.5984664456341
 20
342.30459087140292
 30
0.0
 11
197.84829044563409
 21
342.12126287140302
 31
0.0
  0
ARC
  5
1B67A
  8
AM_0
 10
197.7784914456341
 20
340.12248187140312
 30
0.0
 40
2.0
 50
343.21534799999949
 51
88.000000000002785
  0
ARC
  5
1B67B
  8
AM_0
 10
195.4928394456341
 20
330.16701187140302
 30
0.0
 40
2.0
 50
350.95410499999809
 51
88.000000000002785
  0
ARC
  5
1B67C
  8
AM_0
 10
196.77997644563411
 20
336.48589887140298
 30
0.0
 40
2.0
 50
271.99999999999721
 51
346.07740300000108
  0
LINE
  5
1B67D
  8
AM_0
 10
191.5880084456341
 20
334.3033728714031
 30
0.0
 11
196.84977544563401
 21
334.48711787140297
 31
0.0
  0
ARC
  5
1B67E
  8
AM_0
 10
191.62290844563421
 20
333.3039818714031
 30
0.0
 40
1.0
 50
91.999999999997186
 51
268.0000000000029
  0
LINE
  5
1B67F
  8
AM_0
 10
191.5880084456341
 20
332.30459087140292
 30
0.0
 11
195.56263844563421
 21
332.16579387140303
 31
0.0
  0
ARC
  5
1B680
  8
AM_0
 10
194.9944094456342
 20
326.44112187140303
 30
0.0
 40
2.0
 50
271.99999999999721
 51
359.27279500000122
  0
ARC
  5
1B681
  8
AM_0
 10
194.57473544563399
 20
320.181497871403
 30
0.0
 40
2.0
 50
358.57137199999772
 51
88.000000000002785
  0
LINE
  5
1B682
  8
AM_0
 10
191.0847044456342
 20
324.3033728714031
 30
0.0
 11
195.06420844563411
 21
324.44233987140302
 31
0.0
  0
ARC
  5
1B683
  8
AM_0
 10
191.1196034456342
 20
323.3039818714031
 30
0.0
 40
1.0
 50
91.999999999997186
 51
268.0000000000029
  0
LINE
  5
1B684
  8
AM_0
 10
191.0847044456342
 20
322.30459087140292
 30
0.0
 11
194.64453444563421
 21
322.18027887140312
 31
0.0
  0
LINE
  5
1B68F
  8
AM_0
 10
206.04498750756261
 20
365.41407843777768
 30
0.0
 11
201.93723244563421
 21
364.50749687140302
 31
0.0
  0
LINE
  5
1B690
  8
AM_0
 10
206.04498750756261
 20
361.66455529110721
 30
0.0
 11
202.00106644563419
 21
362.02117887140298
 31
0.0
  0
ARC
  5
1B69A
  8
AM_0
 10
202.0449894456342
 20
362.51924587140297
 30
0.0
 40
0.5
 50
180.0
 51
270.0
  0
LINE
  5
1B69B
  8
AM_0
 10
201.5449894456342
 20
362.51924587140297
 30
0.0
 11
201.5449894456342
 21
364.01924587140297
 31
0.0
  0
ARC
  5
1B69C
  8
AM_0
 10
202.0449894456342
 20
364.01924587140297
 30
0.0
 40
0.5
 50
90.0
 51
180.0
  0
LINE
  5
1B69D
  8
AM_0
 10
196.0449894456342
 20
351.2090698714029
 30
0.0
 11
196.0449894456342
 21
343.30398187140293
 31
0.0
  0
LINE
  5
1B6A1
  8
AM_0
 10
207.0449894456342
 20
374.30398382805419
 30
0.0
 11
207.0449894456342
 21
368.30398307849589
 31
0.0
  0
ARC
  5
1B6A4
  8
AM_0
 10
270.0449894456342
 20
318.30398187140293
 30
0.0
 40
73.5
 50
150.54571654538799
 51
209.4542834546119
  0
ARC
  5
1B6A9
  8
AM_0
 10
270.0449894456342
 20
318.30398187140293
 30
0.0
 40
70.0
 50
200.92483308710729
 51
203.89550426996499
  0
ARC
  5
1B6AC
  8
AM_0
 10
265.02701244563423
 20
397.26239587140299
 30
0.0
 40
1.0
 50
14.78634267735508
 51
167.21366582640681
  0
ARC
  5
1B6AF
  8
AM_0
 10
275.02701244563423
 20
397.26239587140299
 30
0.0
 40
1.0
 50
25.382532079111431
 51
156.6174764246515
  0
ARC
  5
1B6B7
  8
AM_0
 10
255.0270124456342
 20
396.7590918714032
 30
0.0
 40
1.0
 50
35.541602950199191
 51
146.45840555356281
  0
ARC
  5
1B6D6
  8
ｶｸﾚｾﾝ2
 10
779.09657621867746
 20
635.16773317834623
 30
0.0
 40
2.0
 50
180.0
 51
270.0
  0
LINE
  5
1B6D7
  8
ｶｸﾚｾﾝ2
 10
779.09657621867746
 20
644.66773317834623
 30
0.0
 11
779.59657621867746
 21
644.66773317834623
 31
0.0
  0
ARC
  5
1B6D8
  8
ｶｸﾚｾﾝ2
 10
779.09657621867746
 20
642.66773317834623
 30
0.0
 40
2.0
 50
90.0
 51
180.0
  0
LINE
  5
1B6D9
  8
ｶｸﾚｾﾝ2
 10
777.0965762186778
 20
635.16773317834623
 30
0.0
 11
777.0965762186778
 21
642.66773317834623
 31
0.0
  0
ARC
  5
1B6DA
  8
ｶｸﾚｾﾝ2
 10
779.59657621867746
 20
646.66773317834623
 30
0.0
 40
2.0
 50
270.0
 51
0.0
  0
ARC
  5
1B6DB
  8
ｶｸﾚｾﾝ2
 10
779.09657621867746
 20
703.16773317834623
 30
0.0
 40
2.0
 50
90.0
 51
180.0
  0
LINE
  5
1B6DC
  8
ｶｸﾚｾﾝ2
 10
777.0965762186778
 20
703.16773317834623
 30
0.0
 11
777.0965762186778
 21
695.66773317834623
 31
0.0
  0
LINE
  5
1B6DD
  8
ｶｸﾚｾﾝ2
 10
779.09657621867746
 20
693.66773317834657
 30
0.0
 11
779.59657621867746
 21
693.66773317834657
 31
0.0
  0
ARC
  5
1B6DE
  8
ｶｸﾚｾﾝ2
 10
779.09657621867746
 20
695.66773317834623
 30
0.0
 40
2.0
 50
180.0
 51
270.0
  0
ARC
  5
1B6DF
  8
ｶｸﾚｾﾝ2
 10
779.59657621867746
 20
691.66773317834623
 30
0.0
 40
2.0
 50
0.0
 51
90.0
  0
LINE
  5
1B6E0
  8
AM_0
 10
1014.396576218677
 20
671.66773317834623
 30
0.0
 11
1014.396576218677
 21
749.14773317834624
 31
0.0
  0
ARC
  5
1B6E1
  8
AM_0
 10
1040.2186262186769
 20
596.52582217834629
 30
0.0
 40
5.745309999999999
 50
272.8728220000034
 51
349.99567800000131
  0
ARC
  5
1B6E2
  8
AM_0
 10
1015.177853218677
 20
588.19972717834639
 30
0.0
 40
1.260022999999999
 50
93.242827000000744
 51
144.14698200000089
  0
ARC
  5
1B6E3
  8
AM_0
 10
1013.146212218678
 20
589.65930617834624
 30
0.0
 40
1.241573
 50
270.0168160000004
 51
324.46666699999912
  0
ARC
  5
1B6E4
  8
AM_0
 10
1040.2124382186771
 20
741.80263417834624
 30
0.0
 40
5.7526239999999991
 50
10.06237400000038
 51
87.069124999997101
  0
ARC
  5
1B6E5
  8
AM_0
 10
1015.172782218677
 20
750.12647517834625
 30
0.0
 40
1.2504959999999981
 50
215.64507799999589
 51
266.96511300000299
  0
ARC
  5
1B6E6
  8
AM_0
 10
1013.141239218677
 20
748.66650217834615
 30
0.0
 40
1.2512430000000001
 50
35.760896999997613
 51
89.755619999999979
  0
ARC
  5
1B6E7
  8
AM_0
 10
1049.146726218677
 20
731.9721891783463
 30
0.0
 40
2.249854
 50
359.8865100000022
 51
81.569506999999646
  0
ARC
  5
1B6E8
  8
AM_0
 10
1049.9122962186771
 20
737.16690217834605
 30
0.0
 40
3.0009689999999982
 50
189.96231799999899
 51
261.65154100000308
  0
LINE
  5
1B6E9
  8
AM_0
 10
1043.326576218677
 20
595.66773317834645
 30
0.0
 11
1043.326576218677
 21
666.5169511783464
 31
0.0
  0
LINE
  5
1B6EA
  8
AM_0
 10
1047.3965762186781
 20
732.81773317834609
 30
0.0
 11
1047.3965762186781
 21
670.50102617834614
 31
0.0
  0
LINE
  5
1B6EB
  8
AM_0
 10
1015.106576218677
 20
589.45773317834607
 30
0.0
 11
1040.5065762186771
 21
590.78773317834623
 31
0.0
  0
LINE
  5
1B6EC
  8
AM_0
 10
1046.9565752186779
 20
601.68773317834598
 30
0.0
 11
1045.876576218677
 21
595.52773317834624
 31
0.0
  0
LINE
  5
1B6ED
  8
AM_0
 10
1015.106576218677
 20
748.8777331783466
 30
0.0
 11
1040.5065762186771
 21
747.54773317834588
 31
0.0
  0
LINE
  5
1B6EE
  8
AM_0
 10
1014.396576218677
 20
589.1882941783465
 30
0.0
 11
1014.396576218677
 21
666.66773317834623
 31
0.0
  0
LINE
  5
1B6EF
  8
AM_0
 10
1046.956576218676
 20
736.64773317834624
 30
0.0
 11
1045.876576218677
 21
742.80773317834621
 31
0.0
  0
LINE
  5
1B6F0
  8
AM_0
 10
1051.396576218677
 20
731.96773317834595
 30
0.0
 11
1051.396576218677
 21
668.02378917834608
 31
0.0
  0
LINE
  5
1B6F1
  8
ﾁｭｳｼﾝｾﾝ1
 10
961.09657621867768
 20
656.44785117834613
 30
0.0
 11
961.09657621867768
 21
682.77549317834621
 31
0.0
  0
LINE
  5
1B6F2
  8
AM_0
 10
1013.146576218677
 20
749.91773317834645
 30
0.0
 11
1006.096576218677
 21
749.91773317834645
 31
0.0
  0
LINE
  5
1B6F3
  8
AM_0
 10
1013.146576218677
 20
588.41773317834623
 30
0.0
 11
1006.096576218677
 21
588.41773317834623
 31
0.0
  0
LINE
  5
1B6F4
  8
ｶｸﾚｾﾝ2
 10
862.59657621867757
 20
705.16773317834623
 30
0.0
 11
779.09657621867746
 21
705.16773317834623
 31
0.0
  0
ARC
  5
1B6F5
  8
ｶｸﾚｾﾝ2
 10
862.60393221867696
 20
636.66037717834638
 30
0.0
 40
3.492651999999997
 50
269.87932800000158
 51
0.1206719999985139
  0
LINE
  5
1B6F6
  8
ｶｸﾚｾﾝ2
 10
862.59657621867757
 20
633.16773317834623
 30
0.0
 11
779.09657621867746
 21
633.16773317834623
 31
0.0
  0
LINE
  5
1B6F7
  8
ｶｸﾚｾﾝ2
 10
781.59657621867768
 20
691.66773317834623
 30
0.0
 11
781.59657621867768
 21
646.66773317834623
 31
0.0
  0
LINE
  5
1B6F8
  8
ｶｸﾚｾﾝ2
 10
866.09657621867746
 20
636.66773317834623
 30
0.0
 11
866.09657621867746
 21
701.66773317834657
 31
0.0
  0
ARC
  5
1B6F9
  8
ｶｸﾚｾﾝ2
 10
862.59607721867724
 20
701.66723417834623
 30
0.0
 40
3.5004989999999969
 50
0.0081640000011518
 51
89.991835999998841
  0
LINE
  5
1B6FA
  8
AM_0
 10
931.0965762186778
 20
751.16773317834623
 30
0.0
 11
931.0965762186778
 21
587.16773317834623
 31
0.0
  0
LINE
  5
1B6FB
  8
AM_0
 10
1006.096576218677
 20
587.16773317834623
 30
0.0
 11
1006.096576218677
 21
666.66773317834623
 31
0.0
  0
LINE
  5
1B6FC
  8
AM_0
 10
1006.096576218677
 20
751.16773317834623
 30
0.0
 11
931.0965762186778
 21
751.16773317834623
 31
0.0
  0
LINE
  5
1B6FD
  8
AM_0
 10
1006.096576218677
 20
587.16773317834623
 30
0.0
 11
931.0965762186778
 21
587.16773317834623
 31
0.0
  0
LINE
  5
1B6FE
  8
AM_0
 10
1006.096576218677
 20
671.66773317834623
 30
0.0
 11
1006.096576218677
 21
751.16773317834623
 31
0.0
  0
LINE
  5
1B6FF
  8
AM_0
 10
923.0965762186778
 20
605.81181417834591
 30
0.0
 11
931.0965762186778
 21
605.81181417834591
 31
0.0
  0
LINE
  5
1B700
  8
AM_0
 10
931.0965762186778
 20
623.23640117834623
 30
0.0
 11
921.09657621867768
 21
623.23640117834623
 31
0.0
  0
LINE
  5
1B701
  8
AM_0
 10
931.0965762186778
 20
623.64773317834624
 30
0.0
 11
921.09657621867768
 21
623.64773317834624
 31
0.0
  0
LINE
  5
1B702
  8
AM_0
 10
931.0965762186778
 20
634.16773317834623
 30
0.0
 11
921.09657621867768
 21
634.16773317834623
 31
0.0
  0
LINE
  5
1B703
  8
AM_0
 10
931.0965762186778
 20
639.8861761783462
 30
0.0
 11
921.09657621867768
 21
639.8861761783462
 31
0.0
  0
LINE
  5
1B704
  8
AM_0
 10
931.0965762186778
 20
622.99773317834615
 30
0.0
 11
767.60152821867712
 21
622.99773317834615
 31
0.0
  0
LINE
  5
1B705
  8
AM_0
 10
921.09657621867768
 20
625.33773317834596
 30
0.0
 11
850.94657621867759
 21
625.33773317834596
 31
0.0
  0
LINE
  5
1B706
  8
AM_0
 10
921.09657621867768
 20
624.98773317834639
 30
0.0
 11
769.55727121867756
 21
624.98773317834639
 31
0.0
  0
LINE
  5
1B707
  8
AM_0
 10
892.44657621867748
 20
664.96773317834595
 30
0.0
 11
931.0965762186778
 21
664.96773317834595
 31
0.0
  0
LINE
  5
1B708
  8
AM_0
 10
892.55657621867761
 20
663.36773317834604
 30
0.0
 11
931.0965762186778
 21
663.36773317834604
 31
0.0
  0
LINE
  5
1B709
  8
AM_0
 10
891.96657621867769
 20
654.96773317834607
 30
0.0
 11
931.0965762186778
 21
654.96773317834607
 31
0.0
  0
LINE
  5
1B70A
  8
AM_0
 10
891.60657621867722
 20
653.36773317834604
 30
0.0
 11
931.0965762186778
 21
653.36773317834604
 31
0.0
  0
LINE
  5
1B70B
  8
AM_0
 10
889.00657621867754
 20
644.96773317834641
 30
0.0
 11
931.0965762186778
 21
644.96773317834641
 31
0.0
  0
LINE
  5
1B70C
  8
AM_0
 10
888.4365762186776
 20
643.36773317834638
 30
0.0
 11
931.0965762186778
 21
643.36773317834638
 31
0.0
  0
LINE
  5
1B70D
  8
AM_0
 10
892.42657621867772
 20
665.17773317834622
 30
0.0
 11
931.0965762186778
 21
665.17773317834622
 31
0.0
  0
LINE
  5
1B70E
  8
AM_0
 10
931.0965762186778
 20
663.14773317834624
 30
0.0
 11
768.20657621867701
 21
663.14773317834624
 31
0.0
  0
LINE
  5
1B70F
  8
AM_0
 10
931.0965762186778
 20
655.19773317834608
 30
0.0
 11
767.9565762186777
 21
655.19773317834608
 31
0.0
  0
LINE
  5
1B710
  8
AM_0
 10
891.54657621867761
 20
653.11773317834604
 30
0.0
 11
931.0965762186778
 21
653.11773317834604
 31
0.0
  0
LINE
  5
1B711
  8
AM_0
 10
889.10657621867745
 20
645.24773317834615
 30
0.0
 11
931.0965762186778
 21
645.24773317834615
 31
0.0
  0
LINE
  5
1B712
  8
AM_0
 10
888.32657621867747
 20
643.06773317834609
 30
0.0
 11
931.0965762186778
 21
643.06773317834609
 31
0.0
  0
LINE
  5
1B713
  8
AM_0
 10
921.09657621867768
 20
632.97773317834606
 30
0.0
 11
799.15294721867724
 21
632.97773317834606
 31
0.0
  0
LINE
  5
1B714
  8
AM_0
 10
921.09657621867768
 20
634.96773317834595
 30
0.0
 11
769.39657621867752
 21
634.96773317834595
 31
0.0
  0
LINE
  5
1B715
  8
AM_0
 10
921.09657621867768
 20
603.81181417834591
 30
0.0
 11
921.09657621867768
 21
602.66773317834623
 31
0.0
  0
ARC
  5
1B716
  8
AM_0
 10
923.0965762186778
 20
603.81181417834591
 30
0.0
 40
2.0
 50
90.0
 51
180.0
  0
ARC
  5
1B717
  8
AM_0
 10
919.09657621867757
 20
602.66773317834623
 30
0.0
 40
2.0
 50
270.0
 51
0.0
  0
LINE
  5
1B718
  8
AM_0
 10
921.09657621867768
 20
603.81181417834591
 30
0.0
 11
921.09657621867768
 21
616.26668317834606
 31
0.0
  0
ARC
  5
1B719
  8
AM_0
 10
923.0965762186778
 20
616.26668317834606
 30
0.0
 40
2.0
 50
90.0
 51
180.0
  0
LINE
  5
1B71A
  8
AM_0
 10
921.09657621867768
 20
623.23640117834623
 30
0.0
 11
921.09657621867768
 21
639.8861761783462
 31
0.0
  0
LINE
  5
1B71B
  8
AM_0
 10
919.09657621867757
 20
600.66773317834623
 30
0.0
 11
770.10495121867746
 21
600.66773317834623
 31
0.0
  0
LINE
  5
1B71C
  8
AM_0
 10
931.0965762186778
 20
618.26668317834606
 30
0.0
 11
770.59657621867746
 21
618.26668317834606
 31
0.0
  0
LINE
  5
1B71D
  8
AM_0
 10
921.09657621867768
 20
623.38773317834625
 30
0.0
 11
769.70338221867723
 21
623.38773317834625
 31
0.0
  0
LINE
  5
1B71E
  8
AM_0
 10
770.59657621867746
 20
665.17773317834622
 30
0.0
 11
770.59657621867746
 21
669.16773317834623
 31
0.0
  0
LINE
  5
1B71F
  8
AM_0
 10
767.60152821867712
 20
632.97773317834606
 30
0.0
 11
799.15294721867724
 21
632.97773317834606
 31
0.0
  0
LINE
  5
1B720
  8
AM_0
 10
888.4365762186776
 20
643.36773317834638
 30
0.0
 11
769.39657621867752
 21
643.36773317834638
 31
0.0
  0
LINE
  5
1B721
  8
AM_0
 10
921.09657621867768
 20
633.36773317834604
 30
0.0
 11
769.39657621867752
 21
633.36773317834604
 31
0.0
  0
LINE
  5
1B722
  8
AM_0
 10
891.60657621867722
 20
653.36773317834604
 30
0.0
 11
769.39657621867752
 21
653.36773317834604
 31
0.0
  0
LINE
  5
1B723
  8
AM_0
 10
892.44657621867748
 20
664.96773317834595
 30
0.0
 11
769.39657621867752
 21
664.96773317834595
 31
0.0
  0
LINE
  5
1B724
  8
AM_0
 10
769.09657621867768
 20
665.17773317834622
 30
0.0
 11
769.09657621867768
 21
669.16773317834623
 31
0.0
  0
LINE
  5
1B725
  8
AM_0
 10
769.18413221867752
 20
596.75528917834595
 30
0.0
 11
769.09657621867768
 21
596.66773317834645
 31
0.0
  0
LINE
  5
1B726
  8
AM_0
 10
769.09657621867768
 20
596.66273917834621
 30
0.0
 11
769.09657621867768
 21
596.66773317834645
 31
0.0
  0
LINE
  5
1B727
  8
AM_0
 10
767.9565762186777
 20
665.1977331783462
 30
0.0
 11
769.39657621867752
 21
665.00059017834621
 31
0.0
  0
LINE
  5
1B728
  8
AM_0
 10
767.94657621867782
 20
663.10773317834651
 30
0.0
 11
769.39657621867752
 21
663.33081017834616
 31
0.0
  0
LINE
  5
1B729
  8
AM_0
 10
767.09657621867746
 20
666.18773317834621
 30
0.0
 11
767.09657621867746
 21
662.11773317834638
 31
0.0
  0
LINE
  5
1B72A
  8
AM_0
 10
767.9565762186777
 20
655.19773317834608
 30
0.0
 11
769.39657621867752
 21
655.00059017834621
 31
0.0
  0
LINE
  5
1B72B
  8
AM_0
 10
767.94657621867782
 20
653.10773317834651
 30
0.0
 11
769.39657621867752
 21
653.33081017834616
 31
0.0
  0
LINE
  5
1B72C
  8
AM_0
 10
767.09657621867746
 20
656.18773317834609
 30
0.0
 11
767.09657621867746
 21
652.11773317834604
 31
0.0
  0
LINE
  5
1B72D
  8
AM_0
 10
767.94657621867782
 20
643.10773317834628
 30
0.0
 11
769.39657621867752
 21
643.33081017834616
 31
0.0
  0
LINE
  5
1B72E
  8
AM_0
 10
767.9565762186777
 20
645.1977331783462
 30
0.0
 11
769.39657621867752
 21
645.00059017834621
 31
0.0
  0
LINE
  5
1B72F
  8
AM_0
 10
767.09657621867746
 20
646.18773317834621
 30
0.0
 11
767.09657621867746
 21
642.11773317834627
 31
0.0
  0
ARC
  5
1B730
  8
AM_0
 10
769.64497121867703
 20
664.16773317834623
 30
0.0
 40
0.8000439999999999
 50
108.08794099999641
 51
251.9120590000035
  0
ARC
  5
1B731
  8
AM_0
 10
768.0992082186774
 20
662.11678717834604
 30
0.0
 40
1.0026319999999971
 50
98.756240999999065
 51
179.94591500000149
  0
ARC
  5
1B732
  8
AM_0
 10
768.10354321867703
 20
666.19393717834623
 30
0.0
 40
1.006985999999999
 50
180.35299799999879
 51
261.6078369999978
  0
ARC
  5
1B733
  8
AM_0
 10
769.64163821867783
 20
654.17279517834641
 30
0.0
 40
0.8050779999999997
 50
180.3602510000016
 51
252.27820999999719
  0
ARC
  5
1B734
  8
AM_0
 10
768.0992082186774
 20
652.11678717834639
 30
0.0
 40
1.0026319999999971
 50
98.756240999999065
 51
179.94591500000149
  0
ARC
  5
1B735
  8
AM_0
 10
768.10354321867703
 20
656.19393717834623
 30
0.0
 40
1.006985999999999
 50
180.35299799999879
 51
261.6078369999978
  0
ARC
  5
1B736
  8
AM_0
 10
769.63993221867702
 20
644.16437717834606
 30
0.0
 40
0.8033630000000001
 50
107.6331500000031
 51
179.76067000000199
  0
ARC
  5
1B737
  8
AM_0
 10
769.64163821867783
 20
644.17279517834606
 30
0.0
 40
0.8050779999999997
 50
180.3602510000016
 51
252.27820999999719
  0
ARC
  5
1B738
  8
AM_0
 10
768.10354321867703
 20
646.19393717834623
 30
0.0
 40
1.006985999999999
 50
180.35299799999879
 51
261.6078369999978
  0
ARC
  5
1B739
  8
AM_0
 10
768.0992082186774
 20
642.11678717834604
 30
0.0
 40
1.0026319999999971
 50
98.756240999999065
 51
179.94591500000149
  0
ARC
  5
1B73A
  8
AM_0
 10
769.63993221867702
 20
654.16437717834594
 30
0.0
 40
0.8033630000000001
 50
107.6331500000031
 51
179.76067000000199
  0
ARC
  5
1B73B
  8
AM_0
 10
768.09907321867706
 20
596.6652361783465
 30
0.0
 40
0.9975059999999999
 50
269.8565780000028
 51
0.1434219999970843
  0
LINE
  5
1B73C
  8
AM_0
 10
769.09657621867768
 20
596.66773317834645
 30
0.0
 11
769.09657621867768
 21
597.08205017834621
 31
0.0
  0
LINE
  5
1B73D
  8
AM_0
 10
769.09657621867768
 20
655.19773317834608
 30
0.0
 11
769.09657621867768
 21
663.14773317834624
 31
0.0
  0
LINE
  5
1B73E
  8
AM_0
 10
769.09657621867768
 20
645.24773317834615
 30
0.0
 11
769.09657621867768
 21
653.11773317834604
 31
0.0
  0
LINE
  5
1B73F
  8
AM_0
 10
770.59657621867746
 20
625.33773317834596
 30
0.0
 11
770.59657621867746
 21
632.97773317834606
 31
0.0
  0
LINE
  5
1B740
  8
AM_0
 10
770.59657621867746
 20
618.26668317834606
 30
0.0
 11
770.59657621867746
 21
622.99773317834615
 31
0.0
  0
LINE
  5
1B741
  8
AM_0
 10
769.09657621867768
 20
632.97773317834606
 30
0.0
 11
769.09657621867768
 21
625.33773317834596
 31
0.0
  0
LINE
  5
1B742
  8
AM_0
 10
770.59657621867746
 20
618.26668317834606
 30
0.0
 11
770.48042121867763
 21
617.05875717834624
 31
0.0
  0
LINE
  5
1B743
  8
AM_0
 10
770.59657621867746
 20
655.19773317834608
 30
0.0
 11
770.59657621867746
 21
663.14773317834624
 31
0.0
  0
LINE
  5
1B744
  8
AM_0
 10
770.59657621867746
 20
645.24773317834615
 30
0.0
 11
770.59657621867746
 21
653.11773317834604
 31
0.0
  0
LINE
  5
1B745
  8
AM_0
 10
770.59657621867746
 20
635.31773317834586
 30
0.0
 11
770.59657621867746
 21
643.06773317834609
 31
0.0
  0
ARC
  5
1B746
  8
AM_0
 10
768.10155121867763
 20
636.18335317834624
 30
0.0
 40
1.006985999999999
 50
180.35299799999879
 51
261.6078369999978
  0
ARC
  5
1B747
  8
AM_0
 10
768.09721521867755
 20
632.10620217834639
 30
0.0
 40
1.0026319999999971
 50
98.756240999999065
 51
179.94591500000149
  0
LINE
  5
1B748
  8
AM_0
 10
767.0945832186776
 20
636.17714917834621
 30
0.0
 11
767.0945832186776
 21
632.10714917834605
 31
0.0
  0
ARC
  5
1B749
  8
AM_0
 10
769.63964521867763
 20
634.16221117834652
 30
0.0
 40
0.8050779999999997
 50
180.3602510000016
 51
252.27820999999719
  0
LINE
  5
1B74A
  8
AM_0
 10
767.94458321867785
 20
633.0971491783464
 30
0.0
 11
769.39458321867755
 21
633.32022617834605
 31
0.0
  0
ARC
  5
1B74B
  8
AM_0
 10
769.63793921867784
 20
634.15379317834595
 30
0.0
 40
0.8033630000000001
 50
107.6331500000031
 51
179.76067000000199
  0
LINE
  5
1B74C
  8
AM_0
 10
767.95458321867784
 20
635.18714917834609
 30
0.0
 11
769.39458321867755
 21
634.99000617834622
 31
0.0
  0
LINE
  5
1B74D
  8
AM_0
 10
769.09657621867768
 20
635.31773317834586
 30
0.0
 11
769.09657621867768
 21
643.06773317834609
 31
0.0
  0
LINE
  5
1B74E
  8
AM_0
 10
850.94657621867759
 20
625.33773317834596
 30
0.0
 11
767.58703721867778
 21
625.33773317834596
 31
0.0
  0
LINE
  5
1B74F
  8
AM_0
 10
888.32657621867747
 20
643.06773317834609
 30
0.0
 11
767.78144721867704
 21
643.06773317834609
 31
0.0
  0
LINE
  5
1B750
  8
AM_0
 10
891.54657621867761
 20
653.11773317834604
 30
0.0
 11
768.04109121867759
 21
653.11773317834604
 31
0.0
  0
LINE
  5
1B751
  8
AM_0
 10
892.42657621867772
 20
665.17773317834622
 30
0.0
 11
768.10266321867755
 21
665.17773317834622
 31
0.0
  0
LINE
  5
1B752
  8
AM_0
 10
892.55657621867761
 20
663.36773317834604
 30
0.0
 11
769.39657621867752
 21
663.36773317834604
 31
0.0
  0
LINE
  5
1B753
  8
AM_0
 10
891.96657621867769
 20
654.96773317834607
 30
0.0
 11
769.39657621867752
 21
654.96773317834607
 31
0.0
  0
LINE
  5
1B754
  8
AM_0
 10
889.00657621867754
 20
644.96773317834641
 30
0.0
 11
769.39657621867752
 21
644.96773317834641
 31
0.0
  0
LINE
  5
1B755
  8
AM_0
 10
923.0965762186778
 20
732.52365217834654
 30
0.0
 11
931.0965762186778
 21
732.52365217834654
 31
0.0
  0
LINE
  5
1B756
  8
AM_0
 10
931.0965762186778
 20
715.09906517834611
 30
0.0
 11
921.09657621867768
 21
715.09906517834611
 31
0.0
  0
LINE
  5
1B757
  8
AM_0
 10
931.0965762186778
 20
714.68773317834609
 30
0.0
 11
921.09657621867768
 21
714.68773317834609
 31
0.0
  0
LINE
  5
1B758
  8
AM_0
 10
931.0965762186778
 20
704.16773317834623
 30
0.0
 11
921.09657621867768
 21
704.16773317834623
 31
0.0
  0
LINE
  5
1B759
  8
AM_0
 10
931.0965762186778
 20
698.44929017834625
 30
0.0
 11
921.09657621867768
 21
698.44929017834625
 31
0.0
  0
LINE
  5
1B75A
  8
AM_0
 10
919.09657621867757
 20
737.66773317834611
 30
0.0
 11
770.10495121867746
 21
737.66773317834611
 31
0.0
  0
LINE
  5
1B75B
  8
AM_0
 10
931.0965762186778
 20
720.06878317834605
 30
0.0
 11
770.59657621867746
 21
720.06878317834605
 31
0.0
  0
LINE
  5
1B75C
  8
AM_0
 10
931.0965762186778
 20
715.33773317834607
 30
0.0
 11
767.60152821867712
 21
715.33773317834607
 31
0.0
  0
LINE
  5
1B75D
  8
AM_0
 10
921.09657621867768
 20
712.99773317834638
 30
0.0
 11
850.94657621867759
 21
712.99773317834638
 31
0.0
  0
LINE
  5
1B75E
  8
AM_0
 10
921.09657621867768
 20
713.34773317834595
 30
0.0
 11
769.55727121867756
 21
713.34773317834595
 31
0.0
  0
LINE
  5
1B75F
  8
AM_0
 10
921.09657621867768
 20
714.9477331783462
 30
0.0
 11
769.70338221867723
 21
714.9477331783462
 31
0.0
  0
LINE
  5
1B760
  8
AM_0
 10
892.44657621867793
 20
673.36773317834627
 30
0.0
 11
931.0965762186778
 21
673.36773317834627
 31
0.0
  0
LINE
  5
1B761
  8
AM_0
 10
892.55657621867761
 20
674.96773317834629
 30
0.0
 11
931.0965762186778
 21
674.96773317834629
 31
0.0
  0
LINE
  5
1B762
  8
AM_0
 10
891.96657621867769
 20
683.36773317834604
 30
0.0
 11
931.0965762186778
 21
683.36773317834604
 31
0.0
  0
LINE
  5
1B763
  8
AM_0
 10
891.60657621867745
 20
684.96773317834595
 30
0.0
 11
931.0965762186778
 21
684.96773317834595
 31
0.0
  0
LINE
  5
1B764
  8
AM_0
 10
889.00657621867788
 20
693.36773317834638
 30
0.0
 11
931.0965762186778
 21
693.36773317834638
 31
0.0
  0
LINE
  5
1B765
  8
AM_0
 10
888.4365762186776
 20
694.96773317834641
 30
0.0
 11
931.0965762186778
 21
694.96773317834641
 31
0.0
  0
LINE
  5
1B766
  8
AM_0
 10
892.42657621867772
 20
673.15773317834623
 30
0.0
 11
931.0965762186778
 21
673.15773317834623
 31
0.0
  0
LINE
  5
1B767
  8
AM_0
 10
892.56657621867782
 20
675.18773317834643
 30
0.0
 11
931.0965762186778
 21
675.18773317834643
 31
0.0
  0
LINE
  5
1B768
  8
AM_0
 10
892.01657621867764
 20
683.13773317834625
 30
0.0
 11
931.0965762186778
 21
683.13773317834625
 31
0.0
  0
LINE
  5
1B769
  8
AM_0
 10
891.54657621867761
 20
685.21773317834629
 30
0.0
 11
931.0965762186778
 21
685.21773317834629
 31
0.0
  0
LINE
  5
1B76A
  8
AM_0
 10
889.10657621867745
 20
693.08773317834596
 30
0.0
 11
931.0965762186778
 21
693.08773317834596
 31
0.0
  0
LINE
  5
1B76B
  8
AM_0
 10
888.32657621867747
 20
695.26773317834625
 30
0.0
 11
931.0965762186778
 21
695.26773317834625
 31
0.0
  0
LINE
  5
1B76C
  8
AM_0
 10
921.09657621867768
 20
703.36773317834604
 30
0.0
 11
769.39657621867752
 21
703.36773317834604
 31
0.0
  0
LINE
  5
1B76D
  8
AM_0
 10
921.09657621867768
 20
715.09906517834611
 30
0.0
 11
921.09657621867768
 21
698.44929017834625
 31
0.0
  0
ARC
  5
1B76E
  8
AM_0
 10
923.0965762186778
 20
722.06878317834639
 30
0.0
 40
2.0
 50
180.0
 51
270.0
  0
LINE
  5
1B76F
  8
AM_0
 10
921.09657621867768
 20
734.52365217834654
 30
0.0
 11
921.09657621867768
 21
722.06878317834639
 31
0.0
  0
ARC
  5
1B770
  8
AM_0
 10
919.09657621867757
 20
735.66773317834645
 30
0.0
 40
2.0
 50
0.0
 51
90.0
  0
ARC
  5
1B771
  8
AM_0
 10
923.0965762186778
 20
734.52365217834654
 30
0.0
 40
2.0
 50
180.0
 51
270.0
  0
LINE
  5
1B772
  8
AM_0
 10
921.09657621867768
 20
734.52365217834654
 30
0.0
 11
921.09657621867768
 21
735.66773317834645
 31
0.0
  0
LINE
  5
1B773
  8
AM_0
 10
888.32657621867747
 20
695.26773317834625
 30
0.0
 11
767.78144721867704
 21
695.26773317834625
 31
0.0
  0
LINE
  5
1B774
  8
AM_0
 10
891.54657621867761
 20
685.21773317834629
 30
0.0
 11
768.04109121867759
 21
685.21773317834629
 31
0.0
  0
LINE
  5
1B775
  8
AM_0
 10
892.56657621867782
 20
675.18773317834643
 30
0.0
 11
768.20657621867701
 21
675.18773317834643
 31
0.0
  0
LINE
  5
1B776
  8
AM_0
 10
892.44657621867793
 20
673.36773317834627
 30
0.0
 11
769.39657621867752
 21
673.36773317834627
 31
0.0
  0
LINE
  5
1B777
  8
AM_0
 10
891.96657621867769
 20
683.36773317834604
 30
0.0
 11
769.39657621867752
 21
683.36773317834604
 31
0.0
  0
LINE
  5
1B778
  8
AM_0
 10
889.00657621867788
 20
693.36773317834638
 30
0.0
 11
769.39657621867752
 21
693.36773317834638
 31
0.0
  0
LINE
  5
1B779
  8
AM_0
 10
850.94657621867759
 20
712.99773317834638
 30
0.0
 11
767.58703721867778
 21
712.99773317834638
 31
0.0
  0
LINE
  5
1B77A
  8
AM_0
 10
770.59657621867746
 20
712.99773317834638
 30
0.0
 11
770.59657621867746
 21
705.35773317834651
 31
0.0
  0
LINE
  5
1B77B
  8
AM_0
 10
769.09657621867768
 20
731.16773317834623
 30
0.0
 11
769.09657621867768
 21
715.33773317834607
 31
0.0
  0
LINE
  5
1B77C
  8
AM_0
 10
770.59657621867746
 20
720.06878317834605
 30
0.0
 11
770.48042121867763
 21
721.27671017834621
 31
0.0
  0
LINE
  5
1B77D
  8
AM_0
 10
770.59657621867746
 20
720.06878317834605
 30
0.0
 11
770.59657621867746
 21
715.33773317834607
 31
0.0
  0
LINE
  5
1B77E
  8
AM_0
 10
769.09657621867768
 20
741.66773317834623
 30
0.0
 11
769.09657621867768
 21
741.25341617834624
 31
0.0
  0
ARC
  5
1B77F
  8
AM_0
 10
768.09907321867706
 20
741.67023017834629
 30
0.0
 40
0.9975059999999999
 50
359.85657800000291
 51
90.143421999997074
  0
LINE
  5
1B780
  8
AM_0
 10
769.09657621867768
 20
741.67272717834624
 30
0.0
 11
769.09657621867768
 21
741.66773317834623
 31
0.0
  0
LINE
  5
1B781
  8
AM_0
 10
769.18413221867752
 20
741.58017717834628
 30
0.0
 11
769.09657621867768
 21
741.66773317834623
 31
0.0
  0
LINE
  5
1B782
  8
AM_0
 10
770.59657621867746
 20
673.15773317834623
 30
0.0
 11
770.59657621867746
 21
669.16773317834623
 31
0.0
  0
LINE
  5
1B783
  8
AM_0
 10
921.09657621867768
 20
705.35773317834651
 30
0.0
 11
767.60152821867712
 21
705.35773317834651
 31
0.0
  0
LINE
  5
1B784
  8
AM_0
 10
888.4365762186776
 20
694.96773317834641
 30
0.0
 11
769.39657621867752
 21
694.96773317834641
 31
0.0
  0
LINE
  5
1B785
  8
AM_0
 10
921.09657621867768
 20
704.96773317834607
 30
0.0
 11
769.39657621867752
 21
704.96773317834607
 31
0.0
  0
LINE
  5
1B786
  8
AM_0
 10
892.01657621867764
 20
683.13773317834625
 30
0.0
 11
767.9565762186777
 21
683.13773317834625
 31
0.0
  0
LINE
  5
1B787
  8
AM_0
 10
891.60657621867745
 20
684.96773317834595
 30
0.0
 11
769.39657621867752
 21
684.96773317834595
 31
0.0
  0
LINE
  5
1B788
  8
AM_0
 10
892.55657621867761
 20
674.96773317834629
 30
0.0
 11
769.39657621867752
 21
674.96773317834629
 31
0.0
  0
LINE
  5
1B789
  8
AM_0
 10
769.09657621867768
 20
673.15773317834623
 30
0.0
 11
769.09657621867768
 21
669.16773317834623
 31
0.0
  0
LINE
  5
1B78A
  8
AM_0
 10
769.09657621867768
 20
703.01773317834625
 30
0.0
 11
769.09657621867768
 21
695.26773317834625
 31
0.0
  0
LINE
  5
1B78B
  8
AM_0
 10
767.95458321867784
 20
703.14831717834625
 30
0.0
 11
769.39458321867755
 21
703.34546017834623
 31
0.0
  0
ARC
  5
1B78C
  8
AM_0
 10
769.63793921867784
 20
704.18167317834627
 30
0.0
 40
0.8033630000000001
 50
180.23932999999781
 51
252.36684999999679
  0
LINE
  5
1B78D
  8
AM_0
 10
767.94458321867785
 20
705.23831717834605
 30
0.0
 11
769.39458321867755
 21
705.0152401783464
 31
0.0
  0
ARC
  5
1B78E
  8
AM_0
 10
769.63964521867763
 20
704.17325517834593
 30
0.0
 40
0.8050779999999997
 50
107.7217900000028
 51
179.63974899999829
  0
LINE
  5
1B78F
  8
AM_0
 10
767.0945832186776
 20
702.15831717834624
 30
0.0
 11
767.0945832186776
 21
706.22831717834606
 31
0.0
  0
ARC
  5
1B790
  8
AM_0
 10
768.09721521867755
 20
706.22926417834594
 30
0.0
 40
1.0026319999999971
 50
180.05408499999839
 51
261.24375900000098
  0
ARC
  5
1B791
  8
AM_0
 10
768.10155121867763
 20
702.15211317834621
 30
0.0
 40
1.006985999999999
 50
98.392163000002313
 51
179.64700200000121
  0
LINE
  5
1B792
  8
AM_0
 10
770.59657621867746
 20
703.01773317834625
 30
0.0
 11
770.59657621867746
 21
695.26773317834625
 31
0.0
  0
LINE
  5
1B793
  8
AM_0
 10
770.59657621867746
 20
693.08773317834596
 30
0.0
 11
770.59657621867746
 21
685.21773317834629
 31
0.0
  0
LINE
  5
1B794
  8
AM_0
 10
770.59657621867746
 20
683.13773317834625
 30
0.0
 11
770.59657621867746
 21
675.18773317834643
 31
0.0
  0
LINE
  5
1B795
  8
AM_0
 10
769.09657621867768
 20
693.08773317834596
 30
0.0
 11
769.09657621867768
 21
685.21773317834629
 31
0.0
  0
LINE
  5
1B796
  8
AM_0
 10
769.09657621867768
 20
683.13773317834625
 30
0.0
 11
769.09657621867768
 21
675.18773317834643
 31
0.0
  0
ARC
  5
1B797
  8
AM_0
 10
769.63993221867702
 20
684.17108917834628
 30
0.0
 40
0.8033630000000001
 50
180.23932999999781
 51
252.36684999999679
  0
ARC
  5
1B798
  8
AM_0
 10
768.0992082186774
 20
696.21867917834606
 30
0.0
 40
1.0026319999999971
 50
180.05408499999839
 51
261.24375900000098
  0
ARC
  5
1B799
  8
AM_0
 10
768.10354321867703
 20
692.1415291783461
 30
0.0
 40
1.006985999999999
 50
98.392163000002313
 51
179.64700200000121
  0
ARC
  5
1B79A
  8
AM_0
 10
769.64163821867783
 20
694.16267117834605
 30
0.0
 40
0.8050779999999997
 50
107.7217900000028
 51
179.63974899999829
  0
ARC
  5
1B79B
  8
AM_0
 10
769.63993221867702
 20
694.17108917834594
 30
0.0
 40
0.8033630000000001
 50
180.23932999999781
 51
252.36684999999679
  0
ARC
  5
1B79C
  8
AM_0
 10
768.10354321867703
 20
682.14152917834622
 30
0.0
 40
1.006985999999999
 50
98.392163000002313
 51
179.64700200000121
  0
ARC
  5
1B79D
  8
AM_0
 10
768.0992082186774
 20
686.21867917834641
 30
0.0
 40
1.0026319999999971
 50
180.05408499999839
 51
261.24375900000098
  0
ARC
  5
1B79E
  8
AM_0
 10
769.64163821867783
 20
684.16267117834605
 30
0.0
 40
0.8050779999999997
 50
107.7217900000028
 51
179.63974899999829
  0
ARC
  5
1B79F
  8
AM_0
 10
768.10354321867703
 20
672.14152917834622
 30
0.0
 40
1.006985999999999
 50
98.392163000002313
 51
179.64700200000121
  0
ARC
  5
1B7A0
  8
AM_0
 10
768.0992082186774
 20
676.21867917834641
 30
0.0
 40
1.0026319999999971
 50
180.05408499999839
 51
261.24375900000098
  0
ARC
  5
1B7A1
  8
AM_0
 10
769.64497121867703
 20
674.16773317834623
 30
0.0
 40
0.8000439999999999
 50
108.08794099999641
 51
251.9120590000035
  0
LINE
  5
1B7A2
  8
AM_0
 10
767.09657621867746
 20
692.14773317834647
 30
0.0
 11
767.09657621867746
 21
696.21773317834595
 31
0.0
  0
LINE
  5
1B7A3
  8
AM_0
 10
767.9565762186777
 20
693.13773317834637
 30
0.0
 11
769.39657621867752
 21
693.33487617834624
 31
0.0
  0
LINE
  5
1B7A4
  8
AM_0
 10
767.94657621867782
 20
695.22773317834594
 30
0.0
 11
769.39657621867752
 21
695.00465617834607
 31
0.0
  0
LINE
  5
1B7A5
  8
AM_0
 10
767.09657621867746
 20
682.14773317834624
 30
0.0
 11
767.09657621867746
 21
686.21773317834607
 31
0.0
  0
LINE
  5
1B7A6
  8
AM_0
 10
767.94657621867782
 20
685.22773317834606
 30
0.0
 11
769.39657621867752
 21
685.00465617834641
 31
0.0
  0
LINE
  5
1B7A7
  8
AM_0
 10
767.9565762186777
 20
683.13773317834625
 30
0.0
 11
769.39657621867752
 21
683.33487617834612
 31
0.0
  0
LINE
  5
1B7A8
  8
AM_0
 10
767.09657621867746
 20
672.14773317834624
 30
0.0
 11
767.09657621867746
 21
676.21773317834641
 31
0.0
  0
LINE
  5
1B7A9
  8
AM_0
 10
767.94657621867782
 20
675.22773317834606
 30
0.0
 11
769.39657621867752
 21
675.00465617834641
 31
0.0
  0
LINE
  5
1B7AA
  8
AM_0
 10
767.9565762186777
 20
673.13773317834625
 30
0.0
 11
769.39657621867752
 21
673.33487617834624
 31
0.0
  0
LINE
  5
1B7AB
  8
AM_0
 10
1051.596576218677
 20
592.16718517834602
 30
0.0
 11
1051.596576218677
 21
656.66773317834623
 31
0.0
  0
LINE
  5
1B7AC
  8
AM_0
 10
1056.596576218677
 20
592.16718517834602
 30
0.0
 11
1056.596576218677
 21
656.66773317834623
 31
0.0
  0
ARC
  5
1B7AD
  8
AM_0
 10
1054.096576218677
 20
592.16718517834602
 30
0.0
 40
2.5
 50
180.0
 51
0.0
  0
ARC
  5
1B7AE
  8
AM_0
 10
1041.596576218677
 20
656.66773317834623
 30
0.0
 40
15.0
 50
0.0
 51
90.0
  0
ARC
  5
1B7AF
  8
AM_0
 10
1041.596576218677
 20
656.66773317834623
 30
0.0
 40
10.0
 50
0.0
 51
90.0
  0
LINE
  5
1B7B0
  8
AM_0
 10
968.09657621867757
 20
666.66773317834623
 30
0.0
 11
1041.596576218677
 21
666.66773317834623
 31
0.0
  0
LINE
  5
1B7B1
  8
AM_0
 10
968.09657621867757
 20
671.66773317834623
 30
0.0
 11
1041.596576218677
 21
671.66773317834623
 31
0.0
  0
ARC
  5
1B7B2
  8
AM_0
 10
961.09657621867768
 20
669.16773317834623
 30
0.0
 40
6.0
 50
199.4712200000001
 51
340.52877899999879
  0
LINE
  5
1B7B3
  8
AM_0
 10
968.09657621867757
 20
667.16773317834623
 30
0.0
 11
968.09657621867757
 21
666.66773317834623
 31
0.0
  0
ARC
  5
1B7B4
  8
AM_0
 10
961.09657621867768
 20
669.16773317834623
 30
0.0
 40
7.0
 50
196.60154999999881
 51
343.39845000000122
  0
LINE
  5
1B7B5
  8
AM_0
 10
952.09657621867757
 20
667.16773317834623
 30
0.0
 11
952.09657621867757
 21
666.66773317834623
 31
0.0
  0
LINE
  5
1B7B6
  8
AM_0
 10
952.09657621867757
 20
666.66773317834623
 30
0.0
 11
947.09657621867768
 21
666.66773317834623
 31
0.0
  0
LINE
  5
1B7B7
  8
AM_0
 10
952.09657621867757
 20
667.16773317834623
 30
0.0
 11
968.09657621867757
 21
667.16773317834623
 31
0.0
  0
ARC
  5
1B7B8
  8
AM_0
 10
1049.9122962186771
 20
601.16856417834595
 30
0.0
 40
3.0009689999999982
 50
98.383608000000606
 51
170.03768200000101
  0
LINE
  5
1B7B9
  8
AM_0
 10
1047.3965762186781
 20
664.81389817834611
 30
0.0
 11
1047.3965762186781
 21
605.7970931783459
 31
0.0
  0
LINE
  5
1B7BA
  8
AM_0
 10
1043.326576218677
 20
671.56763617834622
 30
0.0
 11
1043.326576218677
 21
743.18773317834621
 31
0.0
  0
LINE
  5
1B7BB
  8
AM_0
 10
947.09657621867768
 20
666.66773317834623
 30
0.0
 11
947.09657621867768
 21
671.66773317834623
 31
0.0
  0
LINE
  5
1B7BC
  8
AM_0
 10
952.09657621867757
 20
671.16773317834623
 30
0.0
 11
968.09657621867757
 21
671.16773317834623
 31
0.0
  0
LINE
  5
1B7BD
  8
AM_0
 10
952.09657621867757
 20
671.66773317834623
 30
0.0
 11
947.09657621867768
 21
671.66773317834623
 31
0.0
  0
LINE
  5
1B7BE
  8
AM_0
 10
952.09657621867757
 20
671.16773317834623
 30
0.0
 11
952.09657621867757
 21
671.66773317834623
 31
0.0
  0
LINE
  5
1B7BF
  8
AM_0
 10
968.09657621867757
 20
671.16773317834623
 30
0.0
 11
968.09657621867757
 21
671.66773317834623
 31
0.0
  0
ARC
  5
1B7C0
  8
AM_0
 10
961.09657621867768
 20
669.16773317834623
 30
0.0
 40
6.0
 50
19.471221000001218
 51
160.5287799999999
  0
ARC
  5
1B7C1
  8
AM_0
 10
961.09657621867768
 20
669.16773317834623
 30
0.0
 40
7.0
 50
16.601549999998781
 51
163.39845000000111
  0
ARC
  5
1B7C2
  8
AM_0
 10
1049.146726218677
 20
606.36327717834627
 30
0.0
 40
2.249854
 50
278.38360800000061
 51
0.1134899999977179
  0
ARC
  5
1B7C3
  8
AM_0
 10
1054.096576218677
 20
592.16718517834602
 30
0.0
 40
3.0
 50
146.44268999999861
 51
319.99999999999739
  0
LINE
  5
1B7C4
  8
AM_0
 10
1055.864343218678
 20
590.3994181783462
 30
0.0
 11
1058.4430232186769
 21
592.9780981783465
 31
0.0
  0
LINE
  5
1B7C5
  8
AM_0
 10
1056.217896218677
 20
590.04586517834639
 30
0.0
 11
1058.796576218678
 21
592.62454517834624
 31
0.0
  0
LINE
  5
1B7C6
  8
AM_0
 10
1058.796576218678
 20
592.62454517834624
 30
0.0
 11
1058.4430232186769
 21
592.9780981783465
 31
0.0
  0
LINE
  5
1B7C7
  8
AM_0
 10
768.09657621867746
 20
742.66773317834623
 30
0.0
 11
759.09657621867746
 21
742.66773317834623
 31
0.0
  0
LINE
  5
1B7C8
  8
AM_0
 10
768.09657621867746
 20
732.16773317834623
 30
0.0
 11
759.09657621867746
 21
732.16773317834623
 31
0.0
  0
LINE
  5
1B7C9
  8
AM_0
 10
768.09657621867746
 20
595.66773317834645
 30
0.0
 11
759.09657621867746
 21
595.66773317834645
 31
0.0
  0
LINE
  5
1B7CA
  8
AM_0
 10
768.09657621867746
 20
606.16773317834623
 30
0.0
 11
759.09657621867746
 21
606.16773317834623
 31
0.0
  0
LINE
  5
1B7CE
  8
AM_0
 10
889.10657621867745
 20
693.08773317834596
 30
0.0
 11
767.75898621867702
 21
693.08773317834596
 31
0.0
  0
LINE
  5
1B7CF
  8
AM_0
 10
892.42657621867772
 20
673.15773317834623
 30
0.0
 11
768.10266321867755
 21
673.15773317834623
 31
0.0
  0
LINE
  5
1B7D0
  8
AM_0
 10
921.09657621867768
 20
703.01773317834625
 30
0.0
 11
767.5913592186771
 21
703.01773317834625
 31
0.0
  0
LINE
  5
1B7D1
  8
AM_0
 10
921.09657621867768
 20
635.31773317834586
 30
0.0
 11
767.5913592186771
 21
635.31773317834586
 31
0.0
  0
LINE
  5
1B7D2
  8
AM_0
 10
889.10657621867745
 20
645.24773317834615
 30
0.0
 11
767.75898621867702
 21
645.24773317834615
 31
0.0
  0
LINE
  5
1B7DD
  8
AM_0
 10
303.54496944563419
 20
236.80398187140301
 30
0.0
 11
303.54496944563419
 21
238.43489337736341
 31
0.0
  0
LINE
  5
1B7DE
  8
AM_0
 10
236.54500944563409
 20
236.80398187140301
 30
0.0
 11
236.54500944563409
 21
239.30398187140301
 31
0.0
  0
LINE
  5
1B7DF
  8
AM_0
 10
303.54498544563421
 20
236.80398187140301
 30
0.0
 11
236.54500944563409
 21
236.80398187140301
 31
0.0
  0
INSERT
  5
1B7E3
  8
AM_0
  2
$6-44
 10
769.09652429835069
 20
374.91295787140291
 30
0.0
 41
-1.0
 42
-1.0
 50
90.0
  0
INSERT
  5
1B7E4
  8
AM_0
  2
$6-44
 10
769.09652229835103
 20
261.69500487140323
 30
0.0
 50
270.0
  0
LINE
  5
1B7E6
  8
AM_0
 10
306.04499344563419
 20
202.80398187140301
 30
0.0
 11
234.0449894456342
 21
202.80398187140301
 31
0.0
  0
LINE
  5
1B7E7
  8
AM_0
 10
275.5449894456342
 20
224.80399187140301
 30
0.0
 11
264.5449894456342
 21
224.80399187140301
 31
0.0
  0
LINE
  5
1B7E8
  8
AM_0
 10
236.54500944563409
 20
215.80399187140301
 30
0.0
 11
303.54498544563421
 21
215.80399187140301
 31
0.0
  0
LINE
  5
1B7E9
  8
AM_0
 10
234.0449894456342
 20
227.8039918714031
 30
0.0
 11
236.5449894456342
 21
231.80398187140301
 31
0.0
  0
LINE
  5
1B7EA
  8
AM_0
 10
246.41499944563421
 20
236.80398187140301
 30
0.0
 11
246.41499944563421
 21
202.80398187140301
 31
0.0
  0
LINE
  5
1B7EB
  8
AM_0
 10
236.54500944563409
 20
219.80398187140301
 30
0.0
 11
236.54500944563409
 21
236.80398187140301
 31
0.0
  0
LINE
  5
1B7EC
  8
AM_0
 10
234.0449894456342
 20
202.80398187140301
 30
0.0
 11
234.0449894456342
 21
227.8039918714031
 31
0.0
  0
LINE
  5
1B7ED
  8
AM_0
 10
264.5449894456342
 20
219.80398187140301
 30
0.0
 11
234.0449894456342
 21
219.80398187140301
 31
0.0
  0
LINE
  5
1B7EE
  8
AM_0
 10
236.54500944563409
 20
202.80398187140301
 30
0.0
 11
236.54500944563409
 21
215.80399187140301
 31
0.0
  0
LINE
  5
1B7EF
  8
AM_0
 10
264.5449894456342
 20
215.80399187140301
 30
0.0
 11
264.5449894456342
 21
224.80399187140301
 31
0.0
  0
LINE
  5
1B7F0
  8
AM_0
 10
303.87719244563408
 20
231.27248187140299
 30
0.0
 11
306.04500044563417
 21
227.80398187140301
 31
0.0
  0
LINE
  5
1B7F1
  8
AM_0
 10
303.54498544563421
 20
219.80398187140301
 30
0.0
 11
303.54498544563421
 21
236.80398187140301
 31
0.0
  0
LINE
  5
1B7F2
  8
AM_0
 10
293.67500944563432
 20
202.80398187140301
 30
0.0
 11
293.67500944563432
 21
236.80398187140301
 31
0.0
  0
LINE
  5
1B7F3
  8
AM_0
 10
306.04499344563419
 20
227.8039918714031
 30
0.0
 11
306.04499344563419
 21
202.80398187140301
 31
0.0
  0
LINE
  5
1B7F4
  8
AM_0
 10
275.5449894456342
 20
215.80399187140301
 30
0.0
 11
275.5449894456342
 21
224.80399187140301
 31
0.0
  0
LINE
  5
1B7F5
  8
AM_0
 10
306.04499344563419
 20
219.80398187140301
 30
0.0
 11
275.5449894456342
 21
219.80398187140301
 31
0.0
  0
LINE
  5
1B7F6
  8
AM_0
 10
303.54498544563421
 20
202.80398187140301
 30
0.0
 11
303.54498544563421
 21
215.80399187140301
 31
0.0
  0
ARC
  5
1B96D
  8
AM_0
 10
921.07764729835117
 20
239.82905187140301
 30
0.0
 40
2.0
 50
90.0
 51
119.6883029999991
  0
LINE
  5
1B96E
  8
AM_0
 10
931.09652229835103
 20
241.82905187140301
 30
0.0
 11
921.07764729835117
 21
241.82905187140301
 31
0.0
  0
ARC
  5
1B96F
  8
AM_0
 10
923.0218952983513
 20
242.53492387140301
 30
0.0
 40
2.0
 50
90.0
 51
168.91503000000159
  0
LINE
  5
1B970
  8
AM_0
 10
931.09652229835103
 20
244.53492387140301
 30
0.0
 11
923.0218952983513
 21
244.53492387140301
 31
0.0
  0
ARC
  5
1B971
  8
AM_0
 10
919.09652229835115
 20
243.30398187140301
 30
0.0
 40
2.0
 50
270.0
 51
0.000000000000007
  0
ARC
  5
1B972
  8
AM_0
 10
919.09652229835115
 20
251.803985871403
 30
0.0
 40
2.0
 50
270.0
 51
0.000000000000007
  0
LINE
  5
1B973
  8
AM_0
 10
921.09652229835103
 20
265.50446887140311
 30
0.0
 11
921.09652229835103
 21
243.30398187140301
 31
0.0
  0
LINE
  5
1B974
  8
AM_0
 10
931.09652229835103
 20
264.11668487140309
 30
0.0
 11
921.09652229835103
 21
264.11668487140309
 31
0.0
  0
LINE
  5
1B975
  8
AM_0
 10
931.09652229835103
 20
252.53998987140309
 30
0.0
 11
921.09652229835103
 21
252.53998987140309
 31
0.0
  0
LINE
  5
1B976
  8
AM_0
 10
931.09652229835103
 20
246.47982687140299
 30
0.0
 11
921.09652229835103
 21
246.47982687140299
 31
0.0
  0
ARC
  5
1B977
  8
AM_0
 10
771.09652429835057
 20
251.80397787140299
 30
0.0
 40
2.0
 50
180.00000200000281
 51
270.00000200000278
  0
LINE
  5
1B978
  8
AM_0
 10
919.09652229835115
 20
267.50446887140311
 30
0.0
 11
771.09652529835046
 21
267.50446887140311
 31
0.0
  0
LINE
  5
1B979
  8
AM_0
 10
919.09652229835115
 20
249.803985871403
 30
0.0
 11
771.09082129835053
 21
249.803985871403
 31
0.0
  0
LINE
  5
1B97A
  8
AM_0
 10
769.09652229835103
 20
244.80398187140301
 30
0.0
 11
759.09652529835103
 21
244.80398187140301
 31
0.0
  0
LINE
  5
1B97B
  8
AM_0
 10
768.09652229835103
 20
255.26517387140291
 30
0.0
 11
759.09652429835046
 21
255.26517387140291
 31
0.0
  0
LINE
  5
1B97C
  8
AM_0
 10
921.09652229835103
 20
393.25676987140292
 30
0.0
 11
921.09652229835103
 21
390.21796587140312
 31
0.0
  0
ARC
  5
1B97D
  8
AM_0
 10
919.09652229835115
 20
384.8039858714028
 30
0.0
 40
2.0
 50
0.000000000000007
 51
90.0
  0
LINE
  5
1B97E
  8
AM_0
 10
931.09652229835103
 20
372.57858287140289
 30
0.0
 11
921.09652229835103
 21
372.57858287140289
 31
0.0
  0
LINE
  5
1B97F
  8
AM_0
 10
931.09652229835103
 20
384.14460187140321
 30
0.0
 11
921.09652229835103
 21
384.14460187140321
 31
0.0
  0
LINE
  5
1B980
  8
AM_0
 10
931.09652229835103
 20
390.21796587140312
 30
0.0
 11
921.09652229835103
 21
390.21796587140312
 31
0.0
  0
LINE
  5
1B981
  8
AM_0
 10
921.09652229835103
 20
394.78222787140299
 30
0.0
 11
921.09652229835103
 21
394.17895187140311
 31
0.0
  0
ARC
  5
1B982
  8
AM_0
 10
919.09652229835115
 20
393.25676987140292
 30
0.0
 40
2.0
 50
0.000000000000007
 51
90.0
  0
LINE
  5
1B983
  8
AM_0
 10
931.09652229835103
 20
396.19712687140282
 30
0.0
 11
922.61585129835021
 21
396.19712687140282
 31
0.0
  0
LINE
  5
1B984
  8
AM_0
 10
931.09652229835103
 20
394.88261487140289
 30
0.0
 11
922.94521129835073
 21
394.88261487140289
 31
0.0
  0
ARC
  5
1B985
  8
AM_0
 10
922.94521129835073
 20
396.88261487140289
 30
0.0
 40
2.0
 50
195.80962600000129
 51
270.0
  0
ARC
  5
1B986
  8
AM_0
 10
919.09652229835115
 20
395.79284787140313
 30
0.0
 40
2.0
 50
15.80962600000136
 51
90.0
  0
ARC
  5
1B987
  8
AM_0
 10
922.61585129835021
 20
398.1971268714031
 30
0.0
 40
2.0
 50
208.37785700000401
 51
270.0
  0
ARC
  5
1B988
  8
AM_0
 10
919.09652229835115
 20
396.29598987140321
 30
0.0
 40
2.0
 50
28.377856000001401
 51
90.0
  0
ARC
  5
1B989
  8
AM_0
 10
771.09652229835103
 20
384.8039858714028
 30
0.0
 40
2.0
 50
90.0
 51
180.0
  0
ARC
  5
1B98A
  8
AM_0
 10
772.22401429835054
 20
393.25676987140292
 30
0.0
 40
2.0
 50
90.0
 51
164.99999999999881
  0
LINE
  5
1B98B
  8
AM_0
 10
767.09652229835103
 20
381.84811587140302
 30
0.0
 11
770.29216229835083
 21
393.7744078714029
 31
0.0
  0
ARC
  5
1B98C
  8
AM_0
 10
771.25949829835054
 20
394.78222787140299
 30
0.0
 40
2.0
 50
90.0
 51
164.99999999999881
  0
LINE
  5
1B98D
  8
AM_0
 10
767.09652229835103
 20
386.97319887140287
 30
0.0
 11
769.32764629835094
 21
395.29986687140291
 31
0.0
  0
ARC
  5
1B98E
  8
AM_0
 10
770.71180429835101
 20
395.79284787140313
 30
0.0
 40
2.0
 50
90.0
 51
164.99999999999881
  0
LINE
  5
1B98F
  8
AM_0
 10
767.09652229835103
 20
390.02783587140289
 30
0.0
 11
768.77995329835073
 21
396.31048587140282
 31
0.0
  0
ARC
  5
1B990
  8
AM_0
 10
770.43077029835104
 20
396.29598987140321
 30
0.0
 40
2.0
 50
90.0
 51
164.99999999999881
  0
LINE
  5
1B991
  8
AM_0
 10
767.09652229835103
 20
391.57981387140308
 30
0.0
 11
768.49891829835065
 21
396.81362887140313
 31
0.0
  0
ARC
  5
1B992
  8
AM_0
 10
923.09652229835103
 20
394.17895187140311
 30
0.0
 40
2.0
 50
180.0
 51
270.0
  0
ARC
  5
1B993
  8
AM_0
 10
919.09652229835115
 20
394.78222787140299
 30
0.0
 40
2.0
 50
0.000000000000007
 51
90.0
  0
LINE
  5
1B994
  8
AM_0
 10
931.09652229835103
 20
392.17895187140289
 30
0.0
 11
923.09652229835103
 21
392.17895187140289
 31
0.0
  0
LINE
  5
1B995
  8
AM_0
 10
921.09652229835103
 20
390.21796587140312
 30
0.0
 11
921.09652229835103
 21
371.17532187140313
 31
0.0
  0
LINE
  5
1B996
  8
AM_0
 10
768.09652229835103
 20
381.34278987140311
 30
0.0
 11
759.09652229835103
 21
381.34278987140311
 31
0.0
  0
LINE
  5
1B997
  8
AM_0
 10
919.09652229835115
 20
369.17532187140313
 30
0.0
 11
771.09652229835103
 21
369.17532187140313
 31
0.0
  0
LINE
  5
1B998
  8
AM_0
 10
919.09652229835115
 20
398.29598987140298
 30
0.0
 11
770.43077029835104
 21
398.29598987140298
 31
0.0
  0
LINE
  5
1B999
  8
AM_0
 10
919.09652229835115
 20
386.80398587140297
 30
0.0
 11
771.09652229835103
 21
386.80398587140297
 31
0.0
  0
LINE
  5
1B99A
  8
AM_0
 10
919.09652229835115
 20
395.25676987140292
 30
0.0
 11
772.22401429835054
 21
395.25676987140292
 31
0.0
  0
LINE
  5
1B99B
  8
AM_0
 10
919.09652229835115
 20
396.78222787140288
 30
0.0
 11
771.25949829835054
 21
396.78222787140288
 31
0.0
  0
LINE
  5
1B99C
  8
AM_0
 10
919.09652229835115
 20
397.79284787140313
 30
0.0
 11
770.71180429835101
 21
397.79284787140313
 31
0.0
  0
LINE
  5
1B99D
  8
AM_0
 10
782.09652229835103
 20
241.30398187140301
 30
0.0
 11
782.09652229835103
 21
239.30398187140301
 31
0.0
  0
LINE
  5
1B99E
  8
AM_0
 10
849.09652229835058
 20
241.30398187140301
 30
0.0
 11
849.09652229835058
 21
239.30398187140301
 31
0.0
  0
LINE
  5
1B99F
  8
AM_0
 10
849.09652229835058
 20
239.30398187140301
 30
0.0
 11
782.09652229835103
 21
239.30398187140301
 31
0.0
  0
LINE
  5
1B9A0
  8
AM_0
 10
919.09652229835115
 20
241.30398187140301
 30
0.0
 11
772.31600229835055
 21
241.30398187140301
 31
0.0
  0
LINE
  5
1B9A1
  8
AM_0
 10
805.59652229835069
 20
344.30398187140298
 30
0.0
 11
931.09652229835103
 21
344.30398187140298
 31
0.0
  0
LINE
  5
1B9A2
  8
AM_0
 10
805.59652229835069
 20
292.30398187140293
 30
0.0
 11
931.09652229835103
 21
292.30398187140293
 31
0.0
  0
LINE
  5
1B9A3
  8
AM_0
 10
789.59652229835058
 20
345.30398187140298
 30
0.0
 11
789.59652229835058
 21
351.30398187140298
 31
0.0
  0
LINE
  5
1B9A4
  8
AM_0
 10
804.59652229835069
 20
345.30398187140298
 30
0.0
 11
804.59652229835069
 21
351.30398187140298
 31
0.0
  0
LINE
  5
1B9A5
  8
AM_0
 10
789.59652229835058
 20
291.30398187140293
 30
0.0
 11
789.59652229835058
 21
285.30398187140293
 31
0.0
  0
LINE
  5
1B9A6
  8
AM_0
 10
804.59652229835069
 20
291.30398187140293
 30
0.0
 11
804.59652229835069
 21
285.30398187140293
 31
0.0
  0
LINE
  5
1B9A7
  8
AM_0
 10
833.09652229835058
 20
338.80398187140293
 30
0.0
 11
833.09652229835058
 21
297.80398187140281
 31
0.0
  0
LINE
  5
1B9A8
  8
AM_0
 10
770.09652229835103
 20
338.80398187140293
 30
0.0
 11
770.09652229835103
 21
297.80398187140281
 31
0.0
  0
LINE
  5
1B9A9
  8
AM_0
 10
833.09652229835058
 20
338.80398187140293
 30
0.0
 11
770.09652229835103
 21
338.80398187140293
 31
0.0
  0
LINE
  5
1B9AA
  8
AM_0
 10
833.09652229835058
 20
297.80398187140281
 30
0.0
 11
770.09652229835103
 21
297.80398187140281
 31
0.0
  0
LINE
  5
1B9AB
  8
AM_0
 10
833.09652229835058
 20
331.3039818714031
 30
0.0
 11
770.09652229835103
 21
331.3039818714031
 31
0.0
  0
LINE
  5
1B9AC
  8
AM_0
 10
921.09652229835103
 20
321.30398187140293
 30
0.0
 11
921.09652229835103
 21
315.30398187140293
 31
0.0
  0
LINE
  5
1B9AD
  8
AM_0
 10
770.38442229835073
 20
242.78527187140301
 30
0.0
 11
769.39651229835044
 21
246.4639518714032
 31
0.0
  0
LINE
  5
1B9AE
  8
AM_0
 10
770.97250229835072
 20
242.78527187140301
 30
0.0
 11
769.39651229835044
 21
248.65399187140289
 31
0.0
  0
LINE
  5
1B9AF
  8
AM_0
 10
769.09652229835103
 20
281.34576187140311
 30
0.0
 11
769.09652229835103
 21
244.80398187140301
 31
0.0
  0
LINE
  5
1B9B0
  8
AM_0
 10
770.09652229835103
 20
294.30398187140293
 30
0.0
 11
931.09652229835103
 21
294.30398187140293
 31
0.0
  0
LINE
  5
1B9B1
  8
AM_0
 10
770.09652229835103
 20
292.30398187140293
 30
0.0
 11
788.59652229835058
 21
292.30398187140293
 31
0.0
  0
LINE
  5
1B9B2
  8
AM_0
 10
837.09652229835103
 20
302.3039818714031
 30
0.0
 11
931.09652229835103
 21
302.3039818714031
 31
0.0
  0
LINE
  5
1B9B3
  8
AM_0
 10
837.09652229835103
 20
304.3039818714031
 30
0.0
 11
931.09652229835103
 21
304.3039818714031
 31
0.0
  0
LINE
  5
1B9B4
  8
AM_0
 10
837.09652229835103
 20
312.30398187140293
 30
0.0
 11
931.09652229835103
 21
312.30398187140293
 31
0.0
  0
LINE
  5
1B9B5
  8
AM_0
 10
837.09652229835103
 20
314.30398187140293
 30
0.0
 11
920.09652229835103
 21
314.30398187140293
 31
0.0
  0
LINE
  5
1B9B6
  8
AM_0
 10
770.09652229835103
 20
272.30398187140298
 30
0.0
 11
931.09652229835103
 21
272.30398187140298
 31
0.0
  0
LINE
  5
1B9B7
  8
AM_0
 10
770.09652229835103
 20
284.30398187140293
 30
0.0
 11
931.09652229835103
 21
284.30398187140293
 31
0.0
  0
LINE
  5
1B9B8
  8
AM_0
 10
770.09652229835103
 20
282.30398187140293
 30
0.0
 11
931.09652229835103
 21
282.30398187140293
 31
0.0
  0
LINE
  5
1B9B9
  8
AM_0
 10
770.09652229835103
 20
274.30398187140298
 30
0.0
 11
931.09652229835103
 21
274.30398187140298
 31
0.0
  0
LINE
  5
1B9BA
  8
AM_0
 10
770.09652229835103
 20
362.30398187140298
 30
0.0
 11
931.09652229835103
 21
362.30398187140298
 31
0.0
  0
LINE
  5
1B9BB
  8
AM_0
 10
770.09652229835103
 20
354.3039818714031
 30
0.0
 11
931.09652229835103
 21
354.3039818714031
 31
0.0
  0
LINE
  5
1B9BC
  8
AM_0
 10
770.09652229835103
 20
352.3039818714031
 30
0.0
 11
931.09652229835103
 21
352.3039818714031
 31
0.0
  0
LINE
  5
1B9BD
  8
AM_0
 10
770.09652229835103
 20
364.30398187140298
 30
0.0
 11
931.09652229835103
 21
364.30398187140298
 31
0.0
  0
LINE
  5
1B9BE
  8
AM_0
 10
837.09652229835103
 20
322.30398187140293
 30
0.0
 11
920.09652229835103
 21
322.30398187140293
 31
0.0
  0
LINE
  5
1B9BF
  8
AM_0
 10
837.09652229835103
 20
324.30398187140293
 30
0.0
 11
931.09652229835103
 21
324.30398187140293
 31
0.0
  0
LINE
  5
1B9C0
  8
AM_0
 10
837.09652229835103
 20
332.30398187140293
 30
0.0
 11
931.09652229835103
 21
332.30398187140293
 31
0.0
  0
LINE
  5
1B9C1
  8
AM_0
 10
837.09652229835103
 20
334.30398187140293
 30
0.0
 11
931.09652229835103
 21
334.30398187140293
 31
0.0
  0
LINE
  5
1B9C2
  8
AM_0
 10
770.09652229835103
 20
344.30398187140298
 30
0.0
 11
788.59652229835058
 21
344.30398187140298
 31
0.0
  0
LINE
  5
1B9C3
  8
AM_0
 10
770.09652229835103
 20
342.30398187140293
 30
0.0
 11
931.09652229835103
 21
342.30398187140293
 31
0.0
  0
LINE
  5
1B9C4
  8
AM_0
 10
769.09652229835103
 20
355.26220187140302
 30
0.0
 11
769.09652229835103
 21
384.8039858714028
 31
0.0
  0
ARC
  5
1B9C5
  8
AM_0
 10
772.31600229835055
 20
243.30398187140301
 30
0.0
 40
2.0
 50
195.03168999999829
 51
270.000010000001
  0
ARC
  5
1B9C6
  8
AM_0
 10
772.90408229835089
 20
243.30398187140301
 30
0.0
 40
2.0
 50
195.03168999999829
 51
270.000010000001
  0
ARC
  5
1B9C7
  8
AM_0
 10
788.59652229835058
 20
285.30398187140293
 30
0.0
 40
1.0
 50
270.0
 51
0.0000100000010134
  0
ARC
  5
1B9C8
  8
AM_0
 10
805.59652229835069
 20
285.30398187140293
 30
0.0
 40
1.0
 50
179.99999899999861
 51
270.000010000001
  0
ARC
  5
1B9C9
  8
AM_0
 10
805.59652229835069
 20
351.30398187140298
 30
0.0
 40
1.0
 50
89.999997000002296
 51
180.0
  0
ARC
  5
1B9CA
  8
AM_0
 10
788.59652229835058
 20
351.30398187140298
 30
0.0
 40
1.0
 50
359.999989999999
 51
89.999997000002296
  0
ARC
  5
1B9CB
  8
AM_0
 10
788.59652229835058
 20
291.30398187140293
 30
0.0
 40
1.0
 50
359.999989999999
 51
89.999997000002296
  0
ARC
  5
1B9CC
  8
AM_0
 10
805.59652229835069
 20
291.30398187140293
 30
0.0
 40
1.0
 50
89.999997000002296
 51
180.0
  0
ARC
  5
1B9CD
  8
AM_0
 10
788.59652229835058
 20
345.30398187140298
 30
0.0
 40
1.0
 50
270.0
 51
0.0000100000010134
  0
ARC
  5
1B9CE
  8
AM_0
 10
805.59652229835069
 20
345.30398187140298
 30
0.0
 40
1.0
 50
179.99999899999861
 51
270.000010000001
  0
CIRCLE
  5
1B9CF
  8
AM_0
 10
794.59652229835103
 20
346.80398187140298
 30
0.0
 40
1.0
  0
CIRCLE
  5
1B9D0
  8
AM_0
 10
799.59652229835103
 20
346.80398187140298
 30
0.0
 40
1.149999999999999
  0
CIRCLE
  5
1B9D1
  8
AM_0
 10
799.59652229835103
 20
346.80398187140298
 30
0.0
 40
1.1000000000000001
  0
CIRCLE
  5
1B9D2
  8
AM_0
 10
799.59652229835103
 20
289.80398187140281
 30
0.0
 40
1.1000000000000001
  0
CIRCLE
  5
1B9D3
  8
AM_0
 10
799.59652229835103
 20
289.80398187140281
 30
0.0
 40
1.149999999999999
  0
CIRCLE
  5
1B9D4
  8
AM_0
 10
794.59652229835103
 20
289.80398187140281
 30
0.0
 40
1.0
  0
ARC
  5
1B9D5
  8
AM_0
 10
837.09652229835103
 20
333.3039818714031
 30
0.0
 40
1.0
 50
89.999997000002296
 51
270.000010000001
  0
ARC
  5
1B9D6
  8
AM_0
 10
837.09652229835103
 20
323.3039818714031
 30
0.0
 40
1.0
 50
89.999997000002296
 51
270.000010000001
  0
ARC
  5
1B9D7
  8
AM_0
 10
837.09652229835103
 20
313.30398187140293
 30
0.0
 40
1.0
 50
89.999997000002296
 51
270.000010000001
  0
ARC
  5
1B9D8
  8
AM_0
 10
837.09652229835103
 20
303.30398187140293
 30
0.0
 40
1.0
 50
89.999997000002296
 51
270.000010000001
  0
ARC
  5
1B9D9
  8
AM_0
 10
772.04653229835071
 20
283.3039818714031
 30
0.0
 40
1.0
 50
89.999997000002296
 51
270.000010000001
  0
ARC
  5
1B9DA
  8
AM_0
 10
770.09652229835103
 20
283.3039818714031
 30
0.0
 40
1.0
 50
89.999997000002296
 51
270.000010000001
  0
ARC
  5
1B9DB
  8
AM_0
 10
772.04653229835071
 20
293.30398187140293
 30
0.0
 40
1.0
 50
89.999997000002296
 51
270.000010000001
  0
ARC
  5
1B9DC
  8
AM_0
 10
770.09652229835103
 20
293.30398187140293
 30
0.0
 40
1.0
 50
89.999997000002296
 51
270.000010000001
  0
ARC
  5
1B9DD
  8
AM_0
 10
772.04653229835071
 20
343.30398187140293
 30
0.0
 40
1.0
 50
89.999997000002296
 51
270.000010000001
  0
ARC
  5
1B9DE
  8
AM_0
 10
770.09652229835103
 20
343.30398187140293
 30
0.0
 40
1.0
 50
89.999997000002296
 51
270.000010000001
  0
ARC
  5
1B9DF
  8
AM_0
 10
772.04653229835071
 20
353.30398187140298
 30
0.0
 40
1.0
 50
89.999997000002296
 51
270.000010000001
  0
ARC
  5
1B9E0
  8
AM_0
 10
770.09652229835103
 20
353.30398187140298
 30
0.0
 40
1.0
 50
89.999997000002296
 51
270.000010000001
  0
ARC
  5
1B9E1
  8
AM_0
 10
920.09652229835103
 20
321.30398187140293
 30
0.0
 40
1.0
 50
359.999989999999
 51
89.999997000002296
  0
ARC
  5
1B9E2
  8
AM_0
 10
920.09652229835103
 20
315.30398187140293
 30
0.0
 40
1.0
 50
270.0
 51
0.0000100000010134
  0
ARC
  5
1B9E3
  8
AM_0
 10
920.09655229835073
 20
303.30398187140293
 30
0.0
 40
1.0
 50
270.0
 51
89.999997000002296
  0
ARC
  5
1B9E4
  8
AM_0
 10
920.09655229835073
 20
293.30398187140293
 30
0.0
 40
1.0
 50
270.0
 51
89.999997000002296
  0
ARC
  5
1B9E5
  8
AM_0
 10
772.04653229835071
 20
273.3039818714031
 30
0.0
 40
1.0
 50
89.999997000002296
 51
270.000010000001
  0
ARC
  5
1B9E6
  8
AM_0
 10
770.09652229835103
 20
273.3039818714031
 30
0.0
 40
1.0
 50
89.999997000002296
 51
270.000010000001
  0
ARC
  5
1B9E7
  8
AM_0
 10
920.09655229835073
 20
273.3039818714031
 30
0.0
 40
1.0
 50
270.0
 51
89.999997000002296
  0
ARC
  5
1B9E8
  8
AM_0
 10
920.09655229835073
 20
283.3039818714031
 30
0.0
 40
1.0
 50
270.0
 51
89.999997000002296
  0
ARC
  5
1B9E9
  8
AM_0
 10
767.95046229835054
 20
246.08358187140311
 30
0.0
 40
1.4952499999999991
 50
14.73739999999794
 51
39.962349999997393
  0
ARC
  5
1B9EA
  8
AM_0
 10
767.9555322983507
 20
248.25948187140301
 30
0.0
 40
1.494020999999998
 50
15.30965999999974
 51
40.207419999999743
  0
ARC
  5
1B9EB
  8
AM_0
 10
767.95236229835143
 20
392.07104187140288
 30
0.0
 40
1.495147999999999
 50
344.99378700000182
 51
344.99811000000318
  0
ARC
  5
1B9EC
  8
AM_0
 10
920.09655229835073
 20
353.30398187140298
 30
0.0
 40
1.0
 50
270.0
 51
89.999997000002296
  0
ARC
  5
1B9ED
  8
AM_0
 10
920.09655229835073
 20
363.30398187140298
 30
0.0
 40
1.0
 50
270.0
 51
89.999997000002296
  0
ARC
  5
1B9EE
  8
AM_0
 10
770.09652229835103
 20
363.30398187140298
 30
0.0
 40
1.0
 50
89.999997000002296
 51
270.000010000001
  0
ARC
  5
1B9EF
  8
AM_0
 10
772.04653229835071
 20
363.30398187140298
 30
0.0
 40
1.0
 50
89.999997000002296
 51
270.000010000001
  0
ARC
  5
1B9F0
  8
AM_0
 10
920.09655229835073
 20
343.30398187140293
 30
0.0
 40
1.0
 50
270.0
 51
89.999997000002296
  0
ARC
  5
1B9F1
  8
AM_0
 10
920.09655229835073
 20
333.3039818714031
 30
0.0
 40
1.0
 50
270.0
 51
89.999997000002296
  0
LINE
  5
1B9F2
  8
AM_0
 10
759.09651629835071
 20
391.8039868714032
 30
0.0
 11
767.15658929835058
 21
391.8039868714032
 31
0.0
  0
LINE
  5
1B9F3
  8
ﾁｭｳｼﾝｾﾝ1
 10
815.59652229835103
 20
246.38869787140311
 30
0.0
 11
815.59652229835103
 21
232.40187587140301
 31
0.0
  0
POINT
  5
1B9F4
  8
AM_0
 10
815.59652229835103
 20
236.30398187140301
 30
0.0
  0
LINE
  5
1B9F5
  8
AM_0
 10
772.84652229835103
 20
236.80398187140301
 30
0.0
 11
856.84652229835103
 21
236.80398187140301
 31
0.0
  0
LINE
  5
1B9F6
  8
AM_0
 10
855.24652229835101
 20
206.80398187140301
 30
0.0
 11
778.94652229835071
 21
219.80398187140301
 31
0.0
  0
LINE
  5
1B9F7
  8
AM_0
 10
855.3265222983506
 20
207.80398187140301
 30
0.0
 11
823.34652229835069
 21
213.25398187140311
 31
0.0
  0
LINE
  5
1B9F8
  8
AM_0
 10
779.4465222983506
 20
202.80398187140301
 30
0.0
 11
854.91652229835086
 21
202.80398187140301
 31
0.0
  0
LINE
  5
1B9F9
  8
AM_0
 10
778.61652229835045
 20
215.80398187140301
 30
0.0
 11
854.91652229835086
 21
202.80398187140301
 31
0.0
  0
LINE
  5
1B9FA
  8
ﾁｭｳｼﾝｾﾝ1
 10
853.49533729835059
 20
220.8039818714031
 30
0.0
 11
863.64620129835055
 21
220.8039818714031
 31
0.0
  0
ARC
  5
1B9FB
  8
AM_0
 10
859.53915529835103
 20
211.4966148714029
 30
0.0
 40
0.307456
 50
1.373079999999403
 51
88.626920000000638
  0
ARC
  5
1B9FC
  8
AM_0
 10
858.34647729835069
 20
204.30402687140301
 30
0.0
 40
1.5000450000000001
 50
270.00171900000248
 51
359.99828099999741
  0
ARC
  5
1B9FD
  8
AM_0
 10
858.64660429835055
 20
211.50389987140309
 30
0.0
 40
0.300082
 50
90.015733000000253
 51
179.9842669999997
  0
ARC
  5
1B9FE
  8
AM_0
 10
859.03915529835058
 20
206.4966148714029
 30
0.0
 40
0.307456
 50
1.373079999999403
 51
88.626920000000638
  0
ARC
  5
1B9FF
  8
AM_0
 10
857.84647729835058
 20
204.30402687140301
 30
0.0
 40
1.5000450000000001
 50
270.00171900000248
 51
359.99828099999741
  0
ARC
  5
1BA00
  8
AM_0
 10
859.03915529835058
 20
207.4966148714029
 30
0.0
 40
0.307456
 50
1.373079999999403
 51
88.626920000000638
  0
ARC
  5
1BA01
  8
AM_0
 10
856.8391122983511
 20
235.7965718714031
 30
0.0
 40
1.007436999999999
 50
0.4214379999981099
 51
89.578562000001924
  0
LINE
  5
1BA02
  8
AM_0
 10
858.34652229835069
 20
202.80398187140301
 30
0.0
 11
858.04652229835051
 21
202.80398187140301
 31
0.0
  0
LINE
  5
1BA03
  8
AM_0
 10
859.84652229835058
 20
211.50398187140311
 30
0.0
 11
859.84652229835058
 21
204.3039818714031
 31
0.0
  0
LINE
  5
1BA04
  8
AM_0
 10
859.04652229835074
 20
211.80398187140301
 30
0.0
 11
859.54652229835085
 21
211.80398187140301
 31
0.0
  0
LINE
  5
1BA05
  8
AM_0
 10
858.64652229835053
 20
211.80398187140301
 30
0.0
 11
859.04652229835074
 21
211.80398187140301
 31
0.0
  0
LINE
  5
1BA06
  8
AM_0
 10
859.34652229835103
 20
206.50398187140311
 30
0.0
 11
859.34652229835103
 21
204.3039818714031
 31
0.0
  0
LINE
  5
1BA07
  8
AM_0
 10
857.84652229835058
 20
202.80398187140301
 30
0.0
 11
854.91652229835086
 21
202.80398187140301
 31
0.0
  0
LINE
  5
1BA08
  8
AM_0
 10
858.14652229835053
 20
212.60398187140291
 30
0.0
 11
857.94652229835094
 21
212.8039818714031
 31
0.0
  0
LINE
  5
1BA09
  8
AM_0
 10
859.34652229835103
 20
207.50398187140311
 30
0.0
 11
859.34652229835103
 21
206.80398187140301
 31
0.0
  0
LINE
  5
1BA0A
  8
AM_0
 10
855.3265222983506
 20
207.80398187140301
 30
0.0
 11
859.04652229835074
 21
207.80398187140301
 31
0.0
  0
LINE
  5
1BA0B
  8
AM_0
 10
857.84652229835058
 20
235.8039818714031
 30
0.0
 11
857.84652229835058
 21
212.8039818714031
 31
0.0
  0
LINE
  5
1BA0C
  8
AM_0
 10
858.14652229835053
 20
207.80398187140301
 30
0.0
 11
858.14652229835053
 21
208.79398187140291
 31
0.0
  0
LINE
  5
1BA0D
  8
AM_0
 10
857.84652229835058
 20
212.8039818714031
 30
0.0
 11
857.84652229835058
 21
207.80398187140301
 31
0.0
  0
LINE
  5
1BA0E
  8
AM_0
 10
858.14652229835053
 20
208.79398187140291
 30
0.0
 11
858.34652229835069
 21
208.79398187140291
 31
0.0
  0
LINE
  5
1BA0F
  8
AM_0
 10
858.14652229835053
 20
208.79398187140291
 30
0.0
 11
858.14652229835053
 21
209.99398187140309
 31
0.0
  0
LINE
  5
1BA10
  8
AM_0
 10
858.34652229835069
 20
209.99398187140309
 30
0.0
 11
858.14652229835053
 21
209.99398187140309
 31
0.0
  0
LINE
  5
1BA11
  8
AM_0
 10
858.14652229835053
 20
209.99398187140309
 30
0.0
 11
858.14652229835053
 21
212.60398187140291
 31
0.0
  0
LINE
  5
1BA12
  8
AM_0
 10
857.94652229835094
 20
212.8039818714031
 30
0.0
 11
857.84652229835058
 21
212.8039818714031
 31
0.0
  0
LINE
  5
1BA13
  8
AM_0
 10
859.34652229835103
 20
206.80398187140301
 30
0.0
 11
855.24652229835101
 21
206.80398187140301
 31
0.0
  0
LINE
  5
1BA14
  8
AM_0
 10
858.34652229835069
 20
207.80398187140301
 30
0.0
 11
858.34652229835069
 21
211.50398187140311
 31
0.0
  0
LINE
  5
1BA15
  8
AM_0
 10
771.84652229835103
 20
216.30398187140301
 30
0.0
 11
771.84652229835103
 21
235.8039818714031
 31
0.0
  0
LINE
  5
1BA16
  8
AM_0
 10
852.04652229835085
 20
236.80398187140301
 30
0.0
 11
852.04652229835085
 21
219.80398187140301
 31
0.0
  0
LINE
  5
1BA17
  8
AM_0
 10
785.56652229835072
 20
219.68398187140289
 30
0.0
 11
785.56652229835072
 21
236.80398187140301
 31
0.0
  0
LINE
  5
1BA18
  8
AM_0
 10
833.44652229835071
 20
236.80398187140301
 30
0.0
 11
833.44652229835071
 21
219.80398187140301
 31
0.0
  0
ARC
  5
1BA19
  8
AM_0
 10
779.43910329835046
 20
205.29656387140309
 30
0.0
 40
2.4925929999999981
 50
179.82947499999719
 51
270.17052500000273
  0
ARC
  5
1BA1A
  8
AM_0
 10
776.43910329835103
 20
215.29656387140309
 30
0.0
 40
0.507473
 50
0.8376109999979384
 51
89.162389000002094
  0
CIRCLE
  5
1BA1B
  8
AM_0
 10
793.73911729835083
 20
219.79659887140309
 30
0.0
 40
0.75
  0
CIRCLE
  5
1BA1C
  8
AM_0
 10
842.7391102983504
 20
219.79659887140309
 30
0.0
 40
6.299999999999998
  0
ARC
  5
1BA1D
  8
AM_0
 10
842.74652229835101
 20
219.80398187140301
 30
0.0
 40
9.3000030000000002
 50
180.0
 51
0.000000000000007
  0
LINE
  5
1BA1E
  8
ﾁｭｳｼﾝｾﾝ1
 10
842.74652229835101
 20
212.13398187140299
 30
0.0
 11
842.74652229835101
 21
227.83398187140301
 31
0.0
  0
LINE
  5
1BA1F
  8
ﾁｭｳｼﾝｾﾝ1
 10
834.98652229835056
 20
219.80398187140301
 30
0.0
 11
850.19652229835094
 21
219.80398187140301
 31
0.0
  0
LINE
  5
1BA20
  8
AM_0
 10
787.21652229835104
 20
202.80398187140301
 30
0.0
 11
787.21652229835104
 21
214.33398187140301
 31
0.0
  0
LINE
  5
1BA21
  8
AM_0
 10
786.34652229835058
 20
214.4839818714031
 30
0.0
 11
786.34652229835058
 21
218.54398187140299
 31
0.0
  0
LINE
  5
1BA22
  8
AM_0
 10
772.34652229835103
 20
215.80398187140301
 30
0.0
 11
778.61652229835045
 21
215.80398187140301
 31
0.0
  0
LINE
  5
1BA23
  8
AM_0
 10
776.94652229835094
 20
215.30398187140301
 30
0.0
 11
776.94652229835094
 21
205.30398187140301
 31
0.0
  0
LINE
  5
1BA24
  8
AM_0
 10
821.34652229835103
 20
213.593981871403
 30
0.0
 11
819.14652229835065
 21
213.96398187140309
 31
0.0
  0
LINE
  5
1BA25
  8
AM_0
 10
817.64652229835053
 20
214.22398187140311
 30
0.0
 11
815.44652229835094
 21
214.593981871403
 31
0.0
  0
LINE
  5
1BA26
  8
AM_0
 10
813.94652229835106
 20
214.85398187140299
 30
0.0
 11
811.74652229835056
 21
215.22398187140311
 31
0.0
  0
LINE
  5
1BA27
  8
AM_0
 10
809.74652229835056
 20
215.563981871403
 30
0.0
 11
808.04652229835051
 21
215.85398187140299
 31
0.0
  0
LINE
  5
1BA28
  8
AM_0
 10
806.54652229835085
 20
216.11398187140301
 30
0.0
 11
804.33652229835059
 21
216.4839818714031
 31
0.0
  0
LINE
  5
1BA29
  8
AM_0
 10
802.83652229835059
 20
216.74398187140309
 30
0.0
 11
800.63652229835066
 21
217.123981871403
 31
0.0
  0
LINE
  5
1BA2A
  8
AM_0
 10
799.13652229835066
 20
217.373981871403
 30
0.0
 11
796.93652229835072
 21
217.75398187140311
 31
0.0
  0
LINE
  5
1BA2B
  8
AM_0
 10
795.43652229835084
 20
218.00398187140311
 30
0.0
 11
779.02652229835053
 21
220.8039818714031
 31
0.0
  0
LINE
  5
1BA2C
  8
AM_0
 10
771.84652229835103
 20
220.8039818714031
 30
0.0
 11
779.02652229835053
 21
220.8039818714031
 31
0.0
  0
LINE
  5
1BA2D
  8
AM_0
 10
795.43652229835084
 20
218.00398187140311
 30
0.0
 11
795.43652229835084
 21
231.80398187140301
 31
0.0
  0
LINE
  5
1BA2E
  8
AM_0
 10
795.43652229835084
 20
231.80398187140301
 30
0.0
 11
796.93652229835072
 21
231.80398187140301
 31
0.0
  0
LINE
  5
1BA2F
  8
AM_0
 10
796.93652229835072
 20
231.80398187140301
 30
0.0
 11
796.93652229835072
 21
217.75398187140311
 31
0.0
  0
LINE
  5
1BA30
  8
AM_0
 10
799.13652229835066
 20
217.373981871403
 30
0.0
 11
799.13652229835066
 21
231.80398187140301
 31
0.0
  0
LINE
  5
1BA31
  8
AM_0
 10
799.13652229835066
 20
231.80398187140301
 30
0.0
 11
800.63652229835066
 21
231.80398187140301
 31
0.0
  0
LINE
  5
1BA32
  8
AM_0
 10
800.63652229835066
 20
231.80398187140301
 30
0.0
 11
800.63652229835066
 21
217.123981871403
 31
0.0
  0
LINE
  5
1BA33
  8
AM_0
 10
802.83652229835059
 20
216.74398187140309
 30
0.0
 11
802.83652229835059
 21
231.80398187140301
 31
0.0
  0
LINE
  5
1BA34
  8
AM_0
 10
802.83652229835059
 20
231.80398187140301
 30
0.0
 11
804.33652229835059
 21
231.80398187140301
 31
0.0
  0
LINE
  5
1BA35
  8
AM_0
 10
804.33652229835059
 20
231.80398187140301
 30
0.0
 11
804.33652229835059
 21
216.4839818714031
 31
0.0
  0
LINE
  5
1BA36
  8
AM_0
 10
806.54652229835085
 20
216.11398187140301
 30
0.0
 11
806.54652229835085
 21
231.80398187140301
 31
0.0
  0
LINE
  5
1BA37
  8
AM_0
 10
806.54652229835085
 20
231.80398187140301
 30
0.0
 11
808.04652229835051
 21
231.80398187140301
 31
0.0
  0
LINE
  5
1BA38
  8
AM_0
 10
808.04652229835051
 20
231.80398187140301
 30
0.0
 11
808.04652229835051
 21
215.85398187140299
 31
0.0
  0
LINE
  5
1BA39
  8
AM_0
 10
809.74652229835056
 20
215.563981871403
 30
0.0
 11
809.74652229835056
 21
229.093981871403
 31
0.0
  0
LINE
  5
1BA3A
  8
AM_0
 10
810.44652229835106
 20
231.80398187140301
 30
0.0
 11
811.74652229835056
 21
231.80398187140301
 31
0.0
  0
LINE
  5
1BA3B
  8
AM_0
 10
811.74652229835056
 20
231.80398187140301
 30
0.0
 11
811.74652229835056
 21
215.22398187140311
 31
0.0
  0
LINE
  5
1BA3C
  8
AM_0
 10
813.94652229835106
 20
214.85398187140299
 30
0.0
 11
813.94652229835106
 21
231.80398187140301
 31
0.0
  0
LINE
  5
1BA3D
  8
AM_0
 10
813.94652229835106
 20
231.80398187140301
 30
0.0
 11
815.44652229835094
 21
231.80398187140301
 31
0.0
  0
LINE
  5
1BA3E
  8
AM_0
 10
815.44652229835094
 20
231.80398187140301
 30
0.0
 11
815.44652229835094
 21
214.593981871403
 31
0.0
  0
LINE
  5
1BA3F
  8
AM_0
 10
817.64652229835053
 20
214.22398187140311
 30
0.0
 11
817.64652229835053
 21
231.80398187140301
 31
0.0
  0
LINE
  5
1BA40
  8
AM_0
 10
817.64652229835053
 20
231.80398187140301
 30
0.0
 11
819.14652229835065
 21
231.80398187140301
 31
0.0
  0
LINE
  5
1BA41
  8
AM_0
 10
819.14652229835065
 20
231.80398187140301
 30
0.0
 11
819.14652229835065
 21
213.96398187140309
 31
0.0
  0
LINE
  5
1BA42
  8
AM_0
 10
821.34652229835103
 20
213.593981871403
 30
0.0
 11
821.34652229835103
 21
231.80398187140301
 31
0.0
  0
LINE
  5
1BA43
  8
AM_0
 10
821.34652229835103
 20
231.80398187140301
 30
0.0
 11
822.64652229835042
 21
231.80398187140301
 31
0.0
  0
LINE
  5
1BA44
  8
AM_0
 10
822.64652229835042
 20
231.80398187140301
 30
0.0
 11
822.64652229835042
 21
229.75398187140311
 31
0.0
  0
LINE
  5
1BA45
  8
AM_0
 10
795.43652229835084
 20
227.80398187140301
 30
0.0
 11
796.93652229835072
 21
227.80398187140301
 31
0.0
  0
LINE
  5
1BA46
  8
AM_0
 10
799.13652229835066
 20
227.80398187140301
 30
0.0
 11
800.63652229835066
 21
227.80398187140301
 31
0.0
  0
LINE
  5
1BA47
  8
AM_0
 10
802.83652229835059
 20
227.80398187140301
 30
0.0
 11
804.33652229835059
 21
227.80398187140301
 31
0.0
  0
LINE
  5
1BA48
  8
AM_0
 10
806.54652229835085
 20
227.80398187140301
 30
0.0
 11
808.04652229835051
 21
227.80398187140301
 31
0.0
  0
LINE
  5
1BA49
  8
AM_0
 10
809.74652229835056
 20
227.80398187140301
 30
0.0
 11
811.74652229835056
 21
227.80398187140301
 31
0.0
  0
LINE
  5
1BA4A
  8
AM_0
 10
813.94652229835106
 20
227.80398187140301
 30
0.0
 11
815.44652229835094
 21
227.80398187140301
 31
0.0
  0
LINE
  5
1BA4B
  8
AM_0
 10
817.64652229835053
 20
227.80398187140301
 30
0.0
 11
819.14652229835065
 21
227.80398187140301
 31
0.0
  0
LINE
  5
1BA4C
  8
AM_0
 10
821.34652229835103
 20
227.80398187140301
 30
0.0
 11
823.34652229835069
 21
227.80398187140301
 31
0.0
  0
LINE
  5
1BA4D
  8
AM_0
 10
823.34652229835069
 20
229.093981871403
 30
0.0
 11
823.34652229835069
 21
213.25398187140311
 31
0.0
  0
LINE
  5
1BA4E
  8
AM_0
 10
822.64652229835042
 20
229.75398187140311
 30
0.0
 11
823.34652229835069
 21
229.093981871403
 31
0.0
  0
LINE
  5
1BA4F
  8
AM_0
 10
809.74652229835056
 20
229.093981871403
 30
0.0
 11
810.44652229835106
 21
229.75398187140311
 31
0.0
  0
LINE
  5
1BA50
  8
AM_0
 10
810.44652229835106
 20
229.75398187140311
 30
0.0
 11
810.44652229835106
 21
231.80398187140301
 31
0.0
  0
LINE
  5
1BA51
  8
AM_0
 10
778.94652229835071
 20
219.80398187140301
 30
0.0
 11
771.84652229835103
 21
219.80398187140301
 31
0.0
  0
ARC
  5
1BA52
  8
AM_0
 10
772.34652229835103
 20
216.30398187140301
 30
0.0
 40
0.5
 50
180.0
 51
270.0
  0
ARC
  5
1BA53
  8
AM_0
 10
772.84652229835103
 20
235.8039818714031
 30
0.0
 40
1.0
 50
90.0
 51
180.0
  0
LINE
  5
1BA54
  8
AM_0
 10
849.09652229835058
 20
236.80398187140301
 30
0.0
 11
849.09652229835058
 21
239.30398187140301
 31
0.0
  0
LINE
  5
1BA55
  8
AM_0
 10
782.09652229835103
 20
236.80398187140301
 30
0.0
 11
782.09652229835103
 21
239.30398187140301
 31
0.0
  0
LINE
  5
1BA56
  8
AM_0
 10
1014.396522298351
 20
238.32454287140311
 30
0.0
 11
1014.396522298351
 21
398.28398187140311
 31
0.0
  0
ARC
  5
1BA57
  8
AM_0
 10
1040.212384298351
 20
390.93888287140288
 30
0.0
 40
5.7526239999999991
 50
10.062374000000419
 51
87.069124999997101
  0
LINE
  5
1BA58
  8
AM_0
 10
1006.096522298351
 20
400.30398187140298
 30
0.0
 11
931.09652229835103
 21
400.30398187140298
 31
0.0
  0
LINE
  5
1BA59
  8
AM_0
 10
1006.096522298351
 20
236.30398187140301
 30
0.0
 11
1006.096522298351
 21
400.30398187140298
 31
0.0
  0
LINE
  5
1BA5A
  8
AM_0
 10
1043.32652229835
 20
244.80398187140301
 30
0.0
 11
1043.32652229835
 21
392.32398187140279
 31
0.0
  0
LINE
  5
1BA5B
  8
AM_0
 10
1013.146522298351
 20
399.05398187140298
 30
0.0
 11
1006.096522298351
 21
399.05398187140298
 31
0.0
  0
LINE
  5
1BA5C
  8
AM_0
 10
1015.106522298351
 20
398.01398187140308
 30
0.0
 11
1040.5065222983501
 21
396.68398187140292
 31
0.0
  0
ARC
  5
1BA5D
  8
AM_0
 10
1013.141185298351
 20
397.80275087140308
 30
0.0
 40
1.2512430000000001
 50
35.760896999997641
 51
89.755619999999936
  0
ARC
  5
1BA5E
  8
AM_0
 10
1015.172728298351
 20
399.26272387140313
 30
0.0
 40
1.2504959999999981
 50
215.64507799999589
 51
266.96511300000299
  0
LINE
  5
1BA5F
  8
AM_0
 10
1047.3965222983511
 20
254.9333418714032
 30
0.0
 11
1047.3965222983511
 21
381.9539818714029
 31
0.0
  0
LINE
  5
1BA60
  8
AM_0
 10
1015.106522298351
 20
238.593981871403
 30
0.0
 11
1040.5065222983501
 21
239.92398187140321
 31
0.0
  0
ARC
  5
1BA62
  8
AM_0
 10
1049.912242298351
 20
250.3048128714031
 30
0.0
 40
3.0009689999999982
 50
109.6864454280737
 51
170.03768200000101
  0
LINE
  5
1BA63
  8
AM_0
 10
1046.95652129835
 20
250.82398187140299
 30
0.0
 11
1045.8765222983509
 21
244.66398187140291
 31
0.0
  0
ARC
  5
1BA64
  8
AM_0
 10
1040.2185722983511
 20
245.6620708714031
 30
0.0
 40
5.745309999999999
 50
272.8728220000034
 51
349.99567800000131
  0
LINE
  5
1BA65
  8
AM_0
 10
1006.096522298351
 20
236.30398187140301
 30
0.0
 11
931.09652229835103
 21
236.30398187140301
 31
0.0
  0
LINE
  5
1BA66
  8
AM_0
 10
1013.146522298351
 20
237.5539818714031
 30
0.0
 11
1006.096522298351
 21
237.5539818714031
 31
0.0
  0
ARC
  5
1BA67
  8
AM_0
 10
1013.146158298351
 20
238.795554871403
 30
0.0
 40
1.241573
 50
270.0168160000004
 51
324.46666699999912
  0
ARC
  5
1BA68
  8
AM_0
 10
1015.177799298351
 20
237.33597587140301
 30
0.0
 40
1.260022999999999
 50
93.242827000000744
 51
144.1469820000008
  0
ARC
  5
1BA69
  8
AM_0
 10
1049.912242298351
 20
386.30315087140298
 30
0.0
 40
3.0009689999999982
 50
189.96231799999899
 51
250.31355457192609
  0
LINE
  5
1BA6A
  8
AM_0
 10
1046.956522298351
 20
385.78398187140311
 30
0.0
 11
1045.8765222983509
 21
391.94398187140291
 31
0.0
  0
LINE
  5
1BA6C
  8
AM_0
 10
931.09652229835103
 20
400.30398187140298
 30
0.0
 11
931.09652229835103
 21
236.30398187140301
 31
0.0
  0
LINE
  5
1BA6D
  8
AM_0
 10
967.09861129835065
 20
410.30398187140281
 30
0.0
 11
967.09861129835065
 21
400.30398187140298
 31
0.0
  0
LINE
  5
1BA6E
  8
AM_0
 10
955.09443329835062
 20
410.30398187140281
 30
0.0
 11
955.09443329835062
 21
400.30398187140298
 31
0.0
  0
LINE
  5
1BA6F
  8
AM_0
 10
1028.9012982983511
 20
405.30398187140293
 30
0.0
 11
967.09861129835065
 21
405.30398187140293
 31
0.0
  0
LINE
  5
1BA70
  8
AM_0
 10
1028.8973502983511
 20
410.30398187140281
 30
0.0
 11
950.89652229835053
 21
410.30398187140281
 31
0.0
  0
LINE
  5
1BA71
  8
AM_0
 10
955.09443329835062
 20
405.30398187140293
 30
0.0
 11
950.89652229835053
 21
405.30398187140293
 31
0.0
  0
ARC
  5
1BA72
  8
AM_0
 10
1028.8973502983511
 20
385.3039818714031
 30
0.0
 40
25.0
 50
0.000000000000007
 51
90.0
  0
LINE
  5
1BA73
  8
AM_0
 10
955.09443329835062
 20
236.30398187140301
 30
0.0
 11
955.09443329835062
 21
226.30398187140301
 31
0.0
  0
LINE
  5
1BA74
  8
AM_0
 10
967.09861129835065
 20
236.30398187140301
 30
0.0
 11
967.09861129835065
 21
226.30398187140301
 31
0.0
  0
LINE
  5
1BA75
  8
AM_0
 10
1028.9012982983511
 20
231.3039818714031
 30
0.0
 11
967.09861129835065
 21
231.3039818714031
 31
0.0
  0
LINE
  5
1BA76
  8
AM_0
 10
1028.8973502983511
 20
226.30398187140301
 30
0.0
 11
950.89652229835053
 21
226.30398187140301
 31
0.0
  0
LINE
  5
1BA77
  8
AM_0
 10
955.09443329835062
 20
231.3039818714031
 30
0.0
 11
950.89652229835053
 21
231.3039818714031
 31
0.0
  0
ARC
  5
1BA78
  8
AM_0
 10
1028.9012982983511
 20
385.3039818714031
 30
0.0
 40
20.0
 50
0.000000000000007
 51
90.0
  0
LINE
  5
1BA7A
  8
AM_0
 10
1056.37129829835
 20
320.8039818714031
 30
0.0
 11
1048.9012982983511
 21
320.8039818714031
 31
0.0
  0
LINE
  5
1BA7B
  8
AM_0
 10
1053.8973502983511
 20
251.30398187140301
 30
0.0
 11
1053.8973502983511
 21
315.80398187140293
 31
0.0
  0
LINE
  5
1BA7C
  8
AM_0
 10
1056.37129829835
 20
315.80398187140293
 30
0.0
 11
1048.9012982983511
 21
315.80398187140293
 31
0.0
  0
ARC
  5
1BA7D
  8
AM_0
 10
1028.8973502983511
 20
251.30398187140301
 30
0.0
 40
25.0
 50
270.0
 51
0.000000000000007
  0
ARC
  5
1BA7E
  8
AM_0
 10
1028.9012982983511
 20
251.30398187140301
 30
0.0
 40
20.0
 50
270.0
 51
0.000000000000007
  0
LINE
  5
1BA7F
  8
AM_0
 10
950.89652229835053
 20
405.30398187140293
 30
0.0
 11
950.89652229835053
 21
410.30398187140281
 31
0.0
  0
LINE
  5
1BA80
  8
AM_0
 10
950.89652229835053
 20
231.3039818714031
 30
0.0
 11
950.89652229835053
 21
226.30398187140301
 31
0.0
  0
LINE
  5
1BA84
  8
AM_0
 10
1056.37129829835
 20
320.8039818714031
 30
0.0
 11
1056.37129829835
 21
315.80398187140293
 31
0.0
  0
LINE
  5
1BA86
  8
AM_0
 10
1048.9012982983511
 20
385.3039818714031
 30
0.0
 11
1048.9012982983511
 21
251.30398187140301
 31
0.0
  0
LINE
  5
1BA87
  8
AM_0
 10
768.09652229835103
 20
281.34576187140311
 30
0.0
 11
759.09652229835103
 21
281.34576187140311
 31
0.0
  0
LINE
  5
1BA88
  8
AM_0
 10
768.09652229835103
 20
355.26220187140302
 30
0.0
 11
759.09652229835103
 21
355.26220187140302
 31
0.0
  0
ARC
  5
1CE9B
  8
AM_0
 10
270.0449894456342
 20
318.30398187140293
 30
0.0
 40
70.0
 50
156.10449573003481
 51
159.075166912892
  0
ARC
  5
1CE9C
  8
AM_0
 10
270.0449894456342
 20
318.30398187140293
 30
0.0
 40
70.0
 50
170.30368909650539
 51
189.69631090349461
  0
LINE
  5
1CFCD
  8
AM_0
 10
1053.8973502983511
 20
320.8039818714031
 30
0.0
 11
1053.8973502983511
 21
385.3039818714031
 31
0.0
  0
INSERT
  5
1D0E1
  8
AM_0
  2
$6-44
 10
769.09657621867768
 20
612.55875627861803
 30
0.0
 41
-1.0
 42
-1.0
 50
90.0
  0
INSERT
  5
1D0E2
  8
AM_0
  2
$6-44
 10
769.09657821867711
 20
725.77670927861789
 30
0.0
 50
270.0
  0
TEXT
  5
1D2E8
  8
AM_0
 10
156.27028298007761
 20
673.50423298191265
 30
0.0
 40
10.0
  1
VC08-007EFBH~VC08-060EFBH
1001
ACAD
1000
MTEXTBEGIN
1070
    73
1070
     1
1070
    44
1040
1.0
1070
    74
1070
     0
1000
MTEXTEND
  0
ARC
  5
1DA28
  8
AM_0
 10
592.59654889167837
 20
318.30398187140293
 30
0.0
 40
17.5
 50
106.60155010845349
 51
73.398449891544573
  0
VIEWPORT
  5
89
 67
     1
  8
0
 10
210.0
 20
148.5
 30
0.0
 40
420.0
 41
297.0
 68
     1
 69
     1
1001
ACAD
1000
MVIEW
1002
{
1070
    16
1010
0.0
1020
0.0
1030
0.0
1010
0.0
1020
0.0
1030
1.0
1040
0.0
1040
297.0
1040
221.70154043645701
1040
148.5
1040
50.0
1040
0.0
1040
0.0
1070
     0
1070
   100
1070
     1
1070
     1
1070
     0
1070
     0
1070
     0
1070
     0
1040
0.0
1040
0.0
1040
0.0
1040
10.0
1040
10.0
1040
10.0
1040
10.0
1070
     0
1002
{
1002
}
1002
}
1001
GENIUS_GENOREF_13
1005
1B94
1001
GENIUS_GENSCREG_15
1000
PF
1040
1.0
1000
DF
1040
1.0
1000
MIN
1011
0.0
1021
0.0
1031
0.0
1021
0.0
1031
0.0
1000
MAX
1011
420.0
1021
0.0
1031
0.0
1021
297.0
1031
0.0
1000
FLAGS
1070
     4
  0
ENDSEC
  0
EOF
