  0
SECTION
  2
HEADER
  9
$ACADVER
  1
AC1009
  9
$INSBASE
 10
0.0
 20
0.0
 30
0.0
  9
$EXTMIN
 10
86.874606022232456
 20
183.05918936134819
 30
-0.000000000000013
  9
$EXTMAX
 10
1056.5952173985941
 20
833.26385881263957
 30
0.0000000000000023
  9
$LIMMIN
 10
0.0
 20
0.0
  9
$LIMMAX
 10
1138.0
 20
740.00000000000011
  9
$ORTHOMODE
 70
     0
  9
$REGENMODE
 70
     1
  9
$FILLMODE
 70
     1
  9
$QTEXTMODE
 70
     0
  9
$MIRRTEXT
 70
     1
  9
$DRAGMODE
 70
     2
  9
$LTSCALE
 40
4.0
  9
$OSMODE
 70
   551
  9
$ATTMODE
 70
     1
  9
$TEXTSIZE
 40
2.5
  9
$TRACEWID
 40
1.0
  9
$TEXTSTYLE
  7
STANDARD
  9
$CLAYER
  8
AM_0
  9
$CELTYPE
  6
BYLAYER
  9
$CECOLOR
 62
   256
  9
$DIMSCALE
 40
4.0
  9
$DIMASZ
 40
2.5
  9
$DIMEXO
 40
1.0
  9
$DIMDLI
 40
7.0
  9
$DIMRND
 40
0.0
  9
$DIMDLE
 40
0.0
  9
$DIMEXE
 40
1.0
  9
$DIMTP
 40
0.1
  9
$DIMTM
 40
0.1000000001
  9
$DIMTXT
 40
2.5
  9
$DIMCEN
 40
0.0
  9
$DIMTSZ
 40
0.0
  9
$DIMTOL
 70
     0
  9
$DIMLIM
 70
     0
  9
$DIMTIH
 70
     0
  9
$DIMTOH
 70
     0
  9
$DIMSE1
 70
     0
  9
$DIMSE2
 70
     0
  9
$DIMTAD
 70
     3
  9
$DIMZIN
 70
     8
  9
$DIMBLK
  1

  9
$DIMASO
 70
     1
  9
$DIMSHO
 70
     1
  9
$DIMPOST
  1

  9
$DIMAPOST
  1
"
  9
$DIMALT
 70
     0
  9
$DIMALTD
 70
     2
  9
$DIMALTF
 40
0.0393701
  9
$DIMLFAC
 40
1.0
  9
$DIMTOFL
 70
     1
  9
$DIMTVP
 40
0.0
  9
$DIMTIX
 70
     0
  9
$DIMSOXD
 70
     0
  9
$DIMSAH
 70
     0
  9
$DIMBLK1
  1

  9
$DIMBLK2
  1

  9
$DIMSTYLE
  2
AM_JIS
  9
$DIMCLRD
 70
   256
  9
$DIMCLRE
 70
   256
  9
$DIMCLRT
 70
     4
  9
$DIMTFAC
 40
0.71
  9
$DIMGAP
 40
1.0
  9
$LUNITS
 70
     2
  9
$LUPREC
 70
     2
  9
$SKETCHINC
 40
1.0
  9
$FILLETRAD
 40
0.0
  9
$AUNITS
 70
     0
  9
$AUPREC
 70
     3
  9
$MENU
  1
.
  9
$ELEVATION
 40
0.0
  9
$PELEVATION
 40
0.0
  9
$THICKNESS
 40
0.0
  9
$LIMCHECK
 70
     0
  9
$BLIPMODE
 70
     0
  9
$CHAMFERA
 40
10.0
  9
$CHAMFERB
 40
10.0
  9
$SKPOLY
 70
     0
  9
$TDCREATE
 40
2452753.643349607
  9
$TDUPDATE
 40
2458544.4455969911
  9
$TDINDWG
 40
0.6579520023
  9
$TDUSRTIMER
 40
0.6579479745
  9
$USRTIMER
 70
     1
  9
$ANGBASE
 50
0.0
  9
$ANGDIR
 70
     0
  9
$PDMODE
 70
     0
  9
$PDSIZE
 40
0.0
  9
$PLINEWID
 40
0.0
  9
$COORDS
 70
     1
  9
$SPLFRAME
 70
     0
  9
$SPLINETYPE
 70
     6
  9
$SPLINESEGS
 70
     8
  9
$ATTDIA
 70
     1
  9
$ATTREQ
 70
     1
  9
$HANDLING
 70
     1
  9
$HANDSEED
  5
1E164
  9
$SURFTAB1
 70
     6
  9
$SURFTAB2
 70
     6
  9
$SURFTYPE
 70
     6
  9
$SURFU
 70
     6
  9
$SURFV
 70
     6
  9
$UCSNAME
  2

  9
$UCSORG
 10
0.0
 20
0.0
 30
0.0
  9
$UCSXDIR
 10
1.0
 20
0.0
 30
0.0
  9
$UCSYDIR
 10
0.0
 20
1.0
 30
0.0
  9
$PUCSNAME
  2

  9
$PUCSORG
 10
0.0
 20
0.0
 30
0.0
  9
$PUCSXDIR
 10
1.0
 20
0.0
 30
0.0
  9
$PUCSYDIR
 10
0.0
 20
1.0
 30
0.0
  9
$USERI1
 70
     0
  9
$USERI2
 70
     0
  9
$USERI3
 70
     0
  9
$USERI4
 70
     0
  9
$USERI5
 70
     0
  9
$USERR1
 40
0.0
  9
$USERR2
 40
0.0
  9
$USERR3
 40
0.0
  9
$USERR4
 40
0.0
  9
$USERR5
 40
0.0
  9
$WORLDVIEW
 70
     1
  9
$SHADEDGE
 70
     3
  9
$SHADEDIF
 70
    70
  9
$TILEMODE
 70
     1
  9
$MAXACTVP
 70
    48
  9
$PLIMCHECK
 70
     0
  9
$PEXTMIN
 10
1.0000000000000000E+020
 20
1.0000000000000000E+020
 30
1.0000000000000000E+020
  9
$PEXTMAX
 10
-1.0000000000000000E+020
 20
-1.0000000000000000E+020
 30
-1.0000000000000000E+020
  9
$PLIMMIN
 10
0.0
 20
0.0
  9
$PLIMMAX
 10
420.0
 20
297.0
  9
$UNITMODE
 70
     0
  9
$VISRETAIN
 70
     1
  9
$PLINEGEN
 70
     0
  9
$PSLTSCALE
 70
     1
  0
ENDSEC
  0
SECTION
  2
TABLES
  0
TABLE
  2
VPORT
 70
     1
  0
VPORT
  2
*ACTIVE
 70
     0
 10
0.0
 20
0.0
 11
1.0
 21
1.0
 12
571.73491171041348
 22
508.16152408699401
 13
0.0
 23
0.0
 14
10.0
 24
10.0
 15
40.0
 25
40.0
 16
0.0
 26
0.0
 36
1.0
 17
0.0
 27
0.0
 37
0.0
 40
654.66831706766197
 41
1.7571592210767459
 42
50.0
 43
0.0
 44
0.0
 50
0.0
 51
0.0
 71
     0
 72
   100
 73
     1
 74
     1
 75
     0
 76
     0
 77
     0
 78
     0
  0
ENDTAB
  0
TABLE
  2
LTYPE
 70
    26
  0
LTYPE
  2
CONTINUOUS
 70
     0
  3
Solid line
 72
    65
 73
     0
 40
0.0
  0
LTYPE
  2
PHANTOM2
 70
     0
  3
Phantom (.5x) ___ _ _ ___ _ _ ___ _ _ ___ _ _
 72
    65
 73
     6
 40
31.75
 49
15.875
 49
-3.174999999999998
 49
3.174999999999998
 49
-3.174999999999998
 49
3.174999999999998
 49
-3.174999999999998
  0
LTYPE
  2
CENTER
 70
     0
  3
Center ____ _ ____ _ ____ _ ____ _ ____ _ ____
 72
    65
 73
     4
 40
50.799999999999997
 49
31.75
 49
-6.349999999999997
 49
6.349999999999997
 49
-6.349999999999997
  0
LTYPE
  2
GEN3B
 70
     0
  3
 - - - - -
 72
    65
 73
     2
 40
1.0
 49
0.5
 49
-0.5
  0
LTYPE
  2
GEN7A
 70
     0
  3
__ . __ . __
 72
    65
 73
     4
 40
7.375
 49
4.75
 49
-0.875
 49
0.875
 49
-0.875
  0
LTYPE
  2
AM_ISO02W050
 70
     0
  3
__ __ __ __ __ __ __ __ __ __ __ __ __ __ __
 72
    65
 73
     2
 40
7.5
 49
6.0
 49
-1.5
  0
LTYPE
  2
AM_ISO08W050
 70
     0
  3
____ . ____ . ____ . ____ . ____ . ____ . ____
 72
    65
 73
     4
 40
18.0
 49
12.0
 49
-1.5
 49
3.0
 49
-1.5
  0
LTYPE
  2
AM_ISO09W050
 70
     0
  3
_____ . . _____ . . _____ . . ____ .. ____
 72
    65
 73
     6
 40
22.5
 49
12.0
 49
-1.5
 49
3.0
 49
-1.5
 49
3.0
 49
-1.5
  0
LTYPE
  2
AMCONSTR
 70
     0
  3
_______________________
 72
    65
 73
     2
 40
9999.0
 49
9999.0
 49
0.0
  0
LTYPE
  2
AM_ISO02W050X2
 70
     0
  3
 _ _ _ _ _ _ _ _ _ _ _ _
 72
    65
 73
     2
 40
3.75
 49
3.0
 49
-0.75
  0
LTYPE
  2
AM_ISO08W050X2
 70
     0
  3
__ . __ . __ . __ . __ . __
 72
    65
 73
     4
 40
9.0
 49
6.0
 49
-0.75
 49
1.5
 49
-0.75
  0
LTYPE
  2
AMZIGZAG
 70
     0
  3
/\/-/\/-/\/-/\/-/\/-/\/
 72
    65
 73
     2
 40
11.0001
 49
0.0001
 49
-11.0
  0
LTYPE
  2
ACISOWELD
 70
     0
  3
_ _ _ _ _
 72
    65
 73
     2
 40
2.0
 49
2.0
 49
-1.0
  0
LTYPE
  2
ACISOTGB
 70
     0
  3
__ . . __ . .
 72
    65
 73
     6
 40
9.0
 49
4.0
 49
-1.0
 49
1.0
 49
-1.0
 49
1.0
 49
-1.0
  0
LTYPE
  2
ACISOTGL
 70
     0
  3
_ _ _ _ _
 72
    65
 73
     2
 40
3.0
 49
2.0
 49
-1.0
  0
LTYPE
  2
HIDDEN
 70
     0
  3
Hidden __ __ __ __ __ __ __ __ __ __ __ __ __ _
 72
    65
 73
     2
 40
9.5249999999999968
 49
6.349999999999997
 49
-3.174999999999998
  0
LTYPE
  2
ACANSTGBM
 70
     0
  3
__ . . __ . .
 72
    65
 73
     6
 40
9.0
 49
4.0
 49
-1.0
 49
1.0
 49
-1.0
 49
1.0
 49
-1.0
  0
LTYPE
  2
ACANSTGLM
 70
     0
  3
_ _ _ _ _
 72
    65
 73
     2
 40
3.0
 49
2.0
 49
-1.0
  0
LTYPE
  2
ACJISTGB
 70
     0
  3
__ . . __ . .
 72
    65
 73
     6
 40
9.0
 49
4.0
 49
-1.0
 49
1.0
 49
-1.0
 49
1.0
 49
-1.0
  0
LTYPE
  2
ACJISTGL
 70
     0
  3
_ _ _ _ _
 72
    65
 73
     2
 40
3.0
 49
2.0
 49
-1.0
  0
LTYPE
  2
CENTER2
 70
     0
  3
Center (.5x) ___ _ ___ _ ___ _ ___ _ ___ _ ___
 72
    65
 73
     4
 40
1.125
 49
0.75
 49
-0.125
 49
0.125
 49
-0.125
  0
LTYPE
  2
HIDDEN2
 70
     0
  3
Hidden (.5x) _ _ _ _ _ _ _ _ _ _ _ _ _ _ _ _ _
 72
    65
 73
     2
 40
0.1875
 49
0.125
 49
-0.0625
  0
LTYPE
  2
AMZIGZAG2
 70
     0
  3
/\/-/\/-/\/-/\/-/\/-/\/
 72
    65
 73
     2
 40
0.4401
 49
0.0001
 49
-0.4400000000000001
  0
LTYPE
  2
ACANSTGB
 70
     0
  3
__ . . __ . .
 72
    65
 73
     6
 40
0.35433070866
 49
0.15748031496
 49
-0.03937007874
 49
0.03937007874
 49
-0.03937007874
 49
0.03937007874
 49
-0.03937007874
  0
LTYPE
  2
ACANSTGL
 70
     0
  3
_ _ _ _ _
 72
    65
 73
     2
 40
0.11811023622
 49
0.07874015748
 49
-0.03937007874
  0
ENDTAB
  0
TABLE
  2
LAYER
 70
     8
  0
LAYER
  2
0
 70
     0
 62
     7
  6
CONTINUOUS
  0
LAYER
  2
AM_0
 70
     0
 62
     7
  6
CONTINUOUS
  0
LAYER
  2
DEFPOINTS
 70
     0
 62
     7
  6
CONTINUOUS
  0
LAYER
  2
ｶｸﾚｾﾝ2
 70
     0
 62
     3
  6
GEN3B
  0
LAYER
  2
ﾁｭｳｼﾝｾﾝ1
 70
     0
 62
     1
  6
GEN7A
  0
LAYER
  2
AM_0N
 70
     0
 62
     7
  6
CONTINUOUS
  0
LAYER
  2
AM_5
 70
     0
 62
     2
  6
CONTINUOUS
  0
LAYER
  2
AM_4
 70
     0
 62
     2
  6
CONTINUOUS
  0
ENDTAB
  0
TABLE
  2
STYLE
 70
    10
  0
STYLE
  2
STANDARD
 70
     0
 40
0.0
 41
0.8299999999999999
 50
0.0
 71
     0
 42
2.5
  3
txt.shx
  4
bigfont.shx
  0
STYLE
  2
ANNOTATIVE
 70
     0
 40
0.0
 41
1.0
 50
0.0
 71
     0
 42
0.2
  3
txt
  4

  0
STYLE
  2

 70
     1
 40
0.0
 41
1.0
 50
0.0
 71
     0
 42
2.5
  3
ltypeshp.shx
  4

  0
STYLE
  2
ACISOTS
 70
     0
 40
1.0
 41
1.0
 50
0.0
 71
     0
 42
2.5
  3
isocp.shx
  4
extfont.shx
  0
STYLE
  2
ACISOGDT
 70
     0
 40
0.0
 41
1.0
 50
0.0
 71
     0
 42
2.5
  3
amgdt.shx
  4

  0
STYLE
  2
ACANSTS
 70
     0
 40
1.0
 41
1.0
 50
0.0
 71
     0
 42
2.5
  3
romans.shx
  4
bigfont.shx
  0
STYLE
  2
ACANSGDT
 70
     0
 40
0.0
 41
1.0
 50
0.0
 71
     0
 42
2.5
  3
amgdt.shx
  4

  0
STYLE
  2
ACJISGDT
 70
     0
 40
0.0
 41
1.0
 50
0.0
 71
     0
 42
2.5
  3
amgdt.shx
  4

  0
STYLE
  2
ACJISTS
 70
     0
 40
1.0
 41
1.0
 50
0.0
 71
     0
 42
2.5
  3
isocp.shx
  4
extfont.shx
  0
STYLE
  2

 70
     1
 40
0.0
 41
1.0
 50
0.0
 71
     0
 42
2.5
  3
genltshp.shx
  4

  0
ENDTAB
  0
TABLE
  2
VIEW
 70
    12
  0
VIEW
  2
GEN1
 70
     0
 40
95.824742268041234
 10
71.5
 20
137.08762886597941
 41
143.0
 11
0.0
 21
0.0
 31
1.0
 12
0.0
 22
0.0
 32
0.0
 42
50.0
 43
0.0
 44
0.0
 50
0.0
 71
     0
  0
VIEW
  2
GEN2
 70
     0
 40
95.824742268041234
 10
214.5
 20
137.08762886597941
 41
143.0
 11
0.0
 21
0.0
 31
1.0
 12
0.0
 22
0.0
 32
0.0
 42
50.0
 43
0.0
 44
0.0
 50
0.0
 71
     0
  0
VIEW
  2
GEN3
 70
     0
 40
95.824742268041234
 10
71.5
 20
47.912371134020603
 41
143.0
 11
0.0
 21
0.0
 31
1.0
 12
0.0
 22
0.0
 32
0.0
 42
50.0
 43
0.0
 44
0.0
 50
0.0
 71
     0
  0
VIEW
  2
GEN4
 70
     0
 40
95.824742268041234
 10
214.5
 20
47.912371134020603
 41
143.0
 11
0.0
 21
0.0
 31
1.0
 12
0.0
 22
0.0
 32
0.0
 42
50.0
 43
0.0
 44
0.0
 50
0.0
 71
     0
  0
VIEW
  2
GEN5
 70
     0
 40
95.824742268041234
 10
143.0
 20
92.500000000000057
 41
143.0
 11
0.0
 21
0.0
 31
1.0
 12
0.0
 22
0.0
 32
0.0
 42
50.0
 43
0.0
 44
0.0
 50
0.0
 71
     0
  0
VIEW
  2
GEN6
 70
     0
 40
191.64756804123709
 10
143.0
 20
92.5
 41
285.99714
 11
0.0
 21
0.0
 31
1.0
 12
0.0
 22
0.0
 32
0.0
 42
50.0
 43
0.0
 44
0.0
 50
0.0
 71
     0
  0
VIEW
  2
AM_VIEW1
 70
     0
 40
370.00000000000023
 10
332.86372007366492
 20
555.00000000000011
 41
665.72744014732962
 11
0.0
 21
0.0
 31
1.0
 12
0.0
 22
0.0
 32
0.0
 42
50.0
 43
0.0
 44
0.0
 50
0.0
 71
     0
  0
VIEW
  2
AM_VIEW2
 70
     0
 40
370.00000000000023
 10
805.13627992633485
 20
555.00000000000011
 41
665.72744014732962
 11
0.0
 21
0.0
 31
1.0
 12
0.0
 22
0.0
 32
0.0
 42
50.0
 43
0.0
 44
0.0
 50
0.0
 71
     0
  0
VIEW
  2
AM_VIEW3
 70
     0
 40
370.00000000000023
 10
332.86372007366492
 20
185.0
 41
665.72744014732962
 11
0.0
 21
0.0
 31
1.0
 12
0.0
 22
0.0
 32
0.0
 42
50.0
 43
0.0
 44
0.0
 50
0.0
 71
     0
  0
VIEW
  2
AM_VIEW4
 70
     0
 40
370.00000000000023
 10
805.13627992633485
 20
185.0
 41
665.72744014732962
 11
0.0
 21
0.0
 31
1.0
 12
0.0
 22
0.0
 32
0.0
 42
50.0
 43
0.0
 44
0.0
 50
0.0
 71
     0
  0
VIEW
  2
AM_VIEW5
 70
     0
 40
370.00000000000023
 10
569.0
 20
370.00000000000023
 41
665.72744014732962
 11
0.0
 21
0.0
 31
1.0
 12
0.0
 22
0.0
 32
0.0
 42
50.0
 43
0.0
 44
0.0
 50
0.0
 71
     0
  0
VIEW
  2
AM_VIEW6
 70
     0
 40
739.99260000000015
 10
569.0
 20
370.00000000000023
 41
1331.4415657458569
 11
0.0
 21
0.0
 31
1.0
 12
0.0
 22
0.0
 32
0.0
 42
50.0
 43
0.0
 44
0.0
 50
0.0
 71
     0
  0
ENDTAB
  0
TABLE
  2
UCS
 70
     0
  0
ENDTAB
  0
TABLE
  2
APPID
 70
   101
  0
APPID
  2
ACAD
 70
     0
  0
APPID
  2
ACADANNOTATIVE
 70
     0
  0
APPID
  2
MCAD_NO_VIS
 70
     0
  0
APPID
  2
ACAD_TEMP_GRAPHIC
 70
     0
  0
APPID
  2
AD_DRAW
 70
     0
  0
APPID
  2
DESIGNERASSEMBLIES
 70
     0
  0
APPID
  2
ASURF_PCURVE_APPNAME
 70
     0
  0
APPID
  2
GENIUS_GE3SECT_13
 70
     0
  0
APPID
  2
GENIUS_GENCFG_13
 70
     0
  0
APPID
  2
GENIUS_GE3CFG0_13
 70
     0
  0
APPID
  2
GENIUS_GENCFG0_13
 70
     0
  0
APPID
  2
GENIUS_GENCFG1_13
 70
     0
  0
APPID
  2
GENIUS_GENCFG2_13
 70
     0
  0
APPID
  2
GENIUS_GENCFG3_13
 70
     0
  0
APPID
  2
GENIUS_GENCFG4_13
 70
     0
  0
APPID
  2
GENIUS_GEVCFG0_13
 70
     0
  0
APPID
  2
GENIUS_GENOENT_13
 70
     0
  0
APPID
  2
GENIUS_GENREC_14
 70
     0
  0
APPID
  2
GENIUS_GENODEF_13
 70
     0
  0
APPID
  2
GENIUS_GENOBJ-N-REC_13
 70
     0
  0
APPID
  2
GENIUS_GENHINW_13
 70
     0
  0
APPID
  2
GENIUS_FIRSTVISTXT_14
 70
     0
  0
APPID
  2
GENIUS_GENOBJ-N-LEADER_13
 70
     0
  0
APPID
  2
GENIUS_GENOREF_13
 70
     0
  0
APPID
  2
GENIUS_GENOLIS_13
 70
     0
  0
APPID
  2
GEV_VCCNULL_SWITCH_OFF
 70
     0
  0
APPID
  2
GENIUS_GENDTOL_13
 70
     0
  0
APPID
  2
GENIUS_GEFCFG0_13
 70
     0
  0
APPID
  2
GENIUS_GENOBJ-N-TIT_13
 70
     0
  0
APPID
  2
GENIUS_GENTITLE_13
 70
     0
  0
APPID
  2
GENIUS_GENZVEED_13
 70
     0
  0
APPID
  2
GENIUS_GENOBJ-N-SDF_13
 70
     0
  0
APPID
  2
GENIUS_GENSCREG_13
 70
     0
  0
APPID
  2
GENIUS_DUMCFG0_13
 70
     0
  0
APPID
  2
GEVID936201362
 70
     0
  0
APPID
  2
GEVDC
 70
     0
  0
APPID
  2
GEVCON
 70
     0
  0
APPID
  2
VCC
 70
     0
  0
APPID
  2
GEVPT
 70
     0
  0
APPID
  2
GEVIT
 70
     0
  0
APPID
  2
GENBH
 70
     0
  0
APPID
  2
GEVMK
 70
     0
  0
APPID
  2
GENIUS_GENBH_13
 70
     0
  0
APPID
  2
GENIUS_GENOBJ-NBEHI-BHF_13
 70
     0
  0
APPID
  2
GENIUS_GENOBJ-NBEHI-BHB_13
 70
     0
  0
APPID
  2
GENIUS_GENOBJ-F-DESC_13
 70
     0
  0
APPID
  2
GENIUS_GEFDESC_14
 70
     0
  0
APPID
  2
GENIUS_GENOBJ-F-PART_13
 70
     0
  0
APPID
  2
GENIUS_GEFSTDP_13
 70
     0
  0
APPID
  2
GENIUS_GEFPARTINS_13
 70
     0
  0
APPID
  2
GENIUS_GENTRA_14
 70
     0
  0
APPID
  2
GENIUS_GENINF13_13
 70
     0
  0
APPID
  2
GENIUS_GENOBJ-N-INFOPT_13
 70
     0
  0
APPID
  2
GENIUS_GENOBJ-N-RSSYM_13
 70
     0
  0
APPID
  2
GENIUS_GENSYMENT_13
 70
     0
  0
APPID
  2
GENIUS_GENSCSYM_13
 70
     0
  0
APPID
  2
GENIUS_GEFINFNAM_13
 70
     0
  0
APPID
  2
GENIUS_GENSCREG_15
 70
     0
  0
APPID
  2
GENIUS_GENOBJ-N-CEN_13
 70
     0
  0
APPID
  2
GENIUS_GENOBJ-N-CRS_13
 70
     0
  0
APPID
  2
GENIUS_GENOBJ-N-CRC_13
 70
     0
  0
APPID
  2
GENIUS_GENCRC_14
 70
     0
  0
APPID
  2
GEVID942827039
 70
     0
  0
APPID
  2
GEVID942827040
 70
     0
  0
APPID
  2
GEVID942827041
 70
     0
  0
APPID
  2
GENIUS_GENOBJ-F-SCPASSM_13
 70
     0
  0
APPID
  2
GENIUS_GENDIMSH_14
 70
     0
  0
APPID
  2
GENIUS_GENFIL_13
 70
     0
  0
APPID
  2
GENIUS_GENOBJ-N-CHA_13
 70
     0
  0
APPID
  2
GENIUS_GENOBJ-N-FIL_13
 70
     0
  0
APPID
  2
GEVID942827042
 70
     0
  0
APPID
  2
GEVID946020473
 70
     0
  0
APPID
  2
GEVID946020474
 70
     0
  0
APPID
  2
GEVID946020475
 70
     0
  0
APPID
  2
GENIUS_GENOBJ-N-HTC_13
 70
     0
  0
APPID
  2
GENIUS_GENHATCH_13
 70
     0
  0
APPID
  2
GEVID948854295
 70
     0
  0
APPID
  2
GEVID939402019
 70
     0
  0
APPID
  2
GEVID952919491
 70
     0
  0
APPID
  2
GEVID952919492
 70
     0
  0
APPID
  2
GENIUS_GEFWELD_13
 70
     0
  0
APPID
  2
GENIUS_GENOBJ-F-WELS_13
 70
     0
  0
APPID
  2
GEVID952919493
 70
     0
  0
APPID
  2
GENIUS_GENOBJ-N-RSBK_13
 70
     0
  0
APPID
  2
GENIUS_GENOBJ-N-LIB_13
 70
     0
  0
APPID
  2
GENIUS_GENSCALE_13
 70
     0
  0
APPID
  2
GEVID986376691
 70
     0
  0
APPID
  2
ACATTRIBSERVICES
 70
     0
  0
APPID
  2
DCO15
 70
     0
  0
APPID
  2
ACADM_DIM_EDIT
 70
     0
  0
APPID
  2
AMDT_DM_ADJ
 70
     0
  0
APPID
  2
ACAD_MLEADERVER
 70
     0
  0
APPID
  2
CONTENTBLOCKDESCRIPTION
 70
     0
  0
APPID
  2
GEVID1057795304
 70
     0
  0
APPID
  2
GENIUS_GEFSH_13
 70
     0
  0
APPID
  2
GENIUS_GENOBJ-F-SHS_13
 70
     0
  0
APPID
  2
ACAD_DSTYLE_DIMBREAK
 70
     0
  0
APPID
  2
ACAD_DSTYLE_DIMJAG
 70
     0
  0
APPID
  2
ACAD_NAV_VCDISPLAY
 70
     0
  0
APPID
  2
ACAD_EXEMPT_FROM_CAD_STANDARDS
 70
     0
  0
APPID
  2
ACADANNOPO
 70
     0
  0
ENDTAB
  0
TABLE
  2
DIMSTYLE
 70
    23
  0
DIMSTYLE
  2
STANDARD
 70
     0
  3

  4

  5

  6

  7

 40
1.0
 41
0.18
 42
0.0625
 43
0.38
 44
0.18
 45
0.0
 46
0.0
 47
0.0
 48
0.0
140
0.18
141
0.09
142
0.0
143
25.399999999999999
144
1.0
145
0.0
146
1.0
147
0.09
 71
     0
 72
     0
 73
     1
 74
     1
 75
     0
 76
     0
 77
     0
 78
     0
170
     0
171
     2
172
     0
173
     0
174
     0
175
     0
176
     0
177
     0
178
     0
  0
DIMSTYLE
  2
ANNOTATIVE
 70
     0
  3

  4

  5

  6

  7

 40
1.0
 41
0.18
 42
0.0625
 43
0.38
 44
0.18
 45
0.0
 46
0.0
 47
0.0
 48
0.0
140
0.18
141
0.09
142
0.0
143
25.399999999999999
144
1.0
145
0.0
146
1.0
147
0.09
 71
     0
 72
     0
 73
     1
 74
     1
 75
     0
 76
     0
 77
     0
 78
     0
170
     0
171
     2
172
     0
173
     0
174
     0
175
     0
176
     0
177
     0
178
     0
  0
DIMSTYLE
  2
AM_JIS
 70
     0
  3

  4
"
  5

  6

  7

 40
1.0
 41
2.0
 42
1.0
 43
8.0
 44
1.0
 45
0.0
 46
0.0
 47
0.1
 48
0.1
140
2.5
141
0.0
142
0.0
143
0.0393701
144
1.0
145
0.0
146
0.71
147
1.5
 71
     0
 72
     0
 73
     0
 74
     0
 75
     0
 76
     0
 77
     3
 78
     8
170
     0
171
     2
172
     1
173
     0
174
     0
175
     0
176
     2
177
     2
178
     4
  0
DIMSTYLE
  2
AM_ISO
 70
     0
  3

  4
"
  5

  6

  7

 40
1.0
 41
2.5
 42
1.0
 43
10.0
 44
1.0
 45
0.0
 46
0.0
 47
0.1
 48
0.1
140
3.5
141
0.0
142
0.0
143
0.0393701
144
1.0
145
0.0
146
0.71
147
1.5
 71
     0
 72
     0
 73
     0
 74
     0
 75
     0
 76
     0
 77
     1
 78
     8
170
     0
171
     2
172
     1
173
     0
174
     0
175
     0
176
   256
177
   256
178
     2
  0
DIMSTYLE
  2
AM_ISO$3
 70
     0
  3

  4
"
  5

  6

  7

 40
1.0
 41
2.5
 42
1.0
 43
10.0
 44
1.0
 45
0.0
 46
0.0
 47
0.1
 48
0.1
140
3.5
141
0.0
142
0.0
143
0.0393701
144
1.0
145
0.0
146
0.71
147
1.5
 71
     0
 72
     0
 73
     0
 74
     1
 75
     0
 76
     0
 77
     1
 78
     8
170
     0
171
     2
172
     0
173
     0
174
     0
175
     0
176
   256
177
   256
178
     2
  0
DIMSTYLE
  2
AM_ISO$4
 70
     0
  3

  4
"
  5

  6

  7

 40
1.0
 41
2.5
 42
1.0
 43
10.0
 44
1.0
 45
0.0
 46
0.0
 47
0.1
 48
0.1
140
3.5
141
0.0
142
0.0
143
0.0393701
144
1.0
145
0.0
146
0.71
147
1.5
 71
     0
 72
     0
 73
     0
 74
     1
 75
     0
 76
     0
 77
     1
 78
     8
170
     0
171
     2
172
     0
173
     0
174
     0
175
     0
176
   256
177
   256
178
     2
  0
DIMSTYLE
  2
AM_ISO$6
 70
     0
  3

  4
"
  5

  6

  7

 40
1.0
 41
2.5
 42
1.0
 43
10.0
 44
1.0
 45
0.0
 46
0.0
 47
0.1
 48
0.1
140
3.5
141
0.0
142
0.0
143
0.0393701
144
1.0
145
0.0
146
0.71
147
1.5
 71
     0
 72
     0
 73
     0
 74
     0
 75
     0
 76
     0
 77
     0
 78
     8
170
     0
171
     2
172
     1
173
     0
174
     0
175
     0
176
   256
177
   256
178
     2
  0
DIMSTYLE
  2
AM_ISO$7
 70
     0
  3

  4
"
  5

  6

  7

 40
1.0
 41
2.5
 42
1.0
 43
10.0
 44
1.0
 45
0.0
 46
0.0
 47
0.1
 48
0.1
140
5.0
141
0.0
142
0.0
143
0.0393701
144
1.0
145
0.0
146
0.71
147
1.5
 71
     0
 72
     0
 73
     0
 74
     0
 75
     0
 76
     0
 77
     1
 78
     8
170
     0
171
     2
172
     1
173
     0
174
     0
175
     0
176
   256
177
   256
178
     2
  0
DIMSTYLE
  2
AM_ISO$SF
 70
     0
  3

  4
"
  5

  6

  7

 40
1.0
 41
2.5
 42
1.0
 43
10.0
 44
1.0
 45
0.0
 46
0.0
 47
0.1
 48
0.1
140
3.5
141
0.0
142
0.0
143
0.0393701
144
1.0
145
0.0
146
0.71
147
1.5
 71
     0
 72
     0
 73
     0
 74
     0
 75
     1
 76
     1
 77
     1
 78
     8
170
     0
171
     2
172
     1
173
     0
174
     0
175
     0
176
   256
177
   256
178
     2
  0
DIMSTYLE
  2
AM_ISO$SH
 70
     0
  3

  4
"
  5

  6

  7

 40
1.0
 41
2.5
 42
1.0
 43
10.0
 44
1.0
 45
0.0
 46
0.0
 47
0.1
 48
0.1
140
3.5
141
0.0
142
0.0
143
0.0393701
144
2.0
145
0.0
146
0.71
147
1.5
 71
     0
 72
     0
 73
     0
 74
     0
 75
     1
 76
     1
 77
     1
 78
     8
170
     0
171
     2
172
     1
173
     1
174
     0
175
     0
176
   256
177
   256
178
     2
  0
DIMSTYLE
  2
AM_ANSI
 70
     0
  3

  4
"
  5

  6

  7

 40
1.0
 41
2.5
 42
1.0
 43
10.0
 44
1.0
 45
0.0
 46
0.0
 47
0.1
 48
0.1
140
3.5
141
0.0
142
0.0
143
0.0393701
144
1.0
145
0.0
146
0.71
147
1.5
 71
     0
 72
     0
 73
     1
 74
     1
 75
     0
 76
     0
 77
     0
 78
     8
170
     0
171
     2
172
     0
173
     0
174
     0
175
     0
176
     2
177
     2
178
     4
  0
DIMSTYLE
  2
AM_ANSI$3
 70
     0
  3

  4
"
  5

  6

  7

 40
1.0
 41
2.5
 42
1.0
 43
10.0
 44
1.0
 45
0.0
 46
0.0
 47
0.1
 48
0.1
140
3.5
141
0.0
142
0.0
143
0.0393701
144
1.0
145
0.0
146
0.71
147
1.5
 71
     0
 72
     0
 73
     1
 74
     1
 75
     0
 76
     0
 77
     0
 78
     8
170
     0
171
     2
172
     0
173
     0
174
     0
175
     0
176
     2
177
     2
178
     4
  0
DIMSTYLE
  2
AM_ANSI$4
 70
     0
  3

  4
"
  5

  6

  7

 40
1.0
 41
2.5
 42
1.0
 43
10.0
 44
1.0
 45
0.0
 46
0.0
 47
0.1
 48
0.1
140
3.5
141
0.0
142
0.0
143
0.0393701
144
1.0
145
0.0
146
0.71
147
1.5
 71
     0
 72
     0
 73
     1
 74
     1
 75
     0
 76
     0
 77
     0
 78
     8
170
     0
171
     2
172
     0
173
     0
174
     0
175
     0
176
     2
177
     2
178
     4
  0
DIMSTYLE
  2
AM_ANSI$7
 70
     0
  3

  4
"
  5

  6

  7

 40
1.0
 41
2.5
 42
1.0
 43
10.0
 44
1.0
 45
0.0
 46
0.0
 47
0.1
 48
0.1
140
5.0
141
0.0
142
0.0
143
0.0393701
144
1.0
145
0.0
146
0.71
147
1.5
 71
     0
 72
     0
 73
     1
 74
     1
 75
     0
 76
     0
 77
     0
 78
     8
170
     0
171
     2
172
     0
173
     0
174
     0
175
     0
176
     2
177
     2
178
     4
  0
DIMSTYLE
  2
AM_ANSI$SF
 70
     0
  3

  4
"
  5

  6

  7

 40
1.0
 41
2.5
 42
1.0
 43
10.0
 44
1.0
 45
0.0
 46
0.0
 47
0.1
 48
0.1
140
3.5
141
0.0
142
0.0
143
0.0393701
144
1.0
145
0.0
146
0.71
147
1.5
 71
     0
 72
     0
 73
     1
 74
     1
 75
     1
 76
     1
 77
     0
 78
     8
170
     0
171
     2
172
     0
173
     0
174
     0
175
     0
176
     2
177
     2
178
     4
  0
DIMSTYLE
  2
AM_ANSI$SH
 70
     0
  3

  4
"
  5

  6

  7

 40
1.0
 41
2.5
 42
1.0
 43
10.0
 44
1.0
 45
0.0
 46
0.0
 47
0.1
 48
0.1
140
3.5
141
0.0
142
0.0
143
0.0393701
144
1.0
145
0.0
146
0.71
147
1.5
 71
     0
 72
     0
 73
     1
 74
     1
 75
     1
 76
     1
 77
     0
 78
     8
170
     0
171
     2
172
     0
173
     1
174
     0
175
     0
176
     2
177
     2
178
     4
  0
DIMSTYLE
  2
AM_JIS$3
 70
     0
  3

  4
"
  5

  6

  7

 40
1.0
 41
2.0
 42
1.0
 43
10.0
 44
1.0
 45
0.0
 46
0.0
 47
0.1
 48
0.1
140
2.5
141
0.0
142
0.0
143
0.0393701
144
1.0
145
0.0
146
0.71
147
1.5
 71
     0
 72
     0
 73
     0
 74
     1
 75
     0
 76
     0
 77
     3
 78
     8
170
     0
171
     2
172
     0
173
     0
174
     0
175
     0
176
     2
177
     2
178
     4
  0
DIMSTYLE
  2
AM_JIS$4
 70
     0
  3

  4
"
  5

  6

  7

 40
1.0
 41
2.0
 42
1.0
 43
10.0
 44
1.0
 45
0.0
 46
0.0
 47
0.1
 48
0.1
140
2.5
141
0.0
142
0.0
143
0.0393701
144
1.0
145
0.0
146
0.71
147
1.5
 71
     0
 72
     0
 73
     0
 74
     0
 75
     0
 76
     0
 77
     3
 78
     8
170
     0
171
     2
172
     0
173
     0
174
     0
175
     0
176
     2
177
     2
178
     4
  0
DIMSTYLE
  2
AM_JIS$6
 70
     0
  3

  4
"
  5

  6

  7

 40
1.0
 41
2.0
 42
1.0
 43
10.0
 44
1.0
 45
0.0
 46
0.0
 47
0.1
 48
0.1
140
2.5
141
0.0
142
0.0
143
0.0393701
144
1.0
145
0.0
146
0.71
147
1.5
 71
     0
 72
     0
 73
     0
 74
     0
 75
     0
 76
     0
 77
     0
 78
     8
170
     0
171
     2
172
     1
173
     0
174
     0
175
     0
176
     2
177
     2
178
     4
  0
DIMSTYLE
  2
AM_JIS$7
 70
     0
  3

  4
"
  5

  6

  7

 40
1.0
 41
2.0
 42
1.0
 43
10.0
 44
1.0
 45
0.0
 46
0.0
 47
0.1
 48
0.1
140
2.5
141
0.0
142
0.0
143
0.0393701
144
1.0
145
0.0
146
0.71
147
1.5
 71
     0
 72
     0
 73
     0
 74
     0
 75
     0
 76
     0
 77
     3
 78
     8
170
     0
171
     2
172
     1
173
     0
174
     0
175
     0
176
     2
177
     2
178
     4
  0
DIMSTYLE
  2
AM_JIS$SF
 70
     0
  3

  4
"
  5

  6

  7

 40
1.0
 41
2.0
 42
1.0
 43
10.0
 44
1.0
 45
0.0
 46
0.0
 47
0.1
 48
0.1
140
2.5
141
0.0
142
0.0
143
0.0393701
144
1.0
145
0.0
146
0.71
147
1.5
 71
     0
 72
     0
 73
     0
 74
     0
 75
     1
 76
     1
 77
     3
 78
     8
170
     0
171
     2
172
     1
173
     0
174
     0
175
     0
176
     2
177
     2
178
     4
  0
DIMSTYLE
  2
AM_JIS$SH
 70
     0
  3

  4
"
  5

  6

  7

 40
1.0
 41
2.0
 42
1.0
 43
10.0
 44
1.0
 45
0.0
 46
0.0
 47
0.1
 48
0.1
140
2.5
141
0.0
142
0.0
143
0.0393701
144
2.0
145
0.0
146
0.71
147
1.5
 71
     0
 72
     0
 73
     0
 74
     0
 75
     1
 76
     1
 77
     3
 78
     8
170
     0
171
     2
172
     1
173
     1
174
     0
175
     0
176
     2
177
     2
178
     4
  0
ENDTAB
  0
ENDSEC
  0
SECTION
  2
BLOCKS
  0
BLOCK
  8
0
  2
$MODEL_SPACE
 70
     0
 10
0.0
 20
0.0
 30
0.0
  3
$MODEL_SPACE
  1

  0
ENDBLK
  5
1DFA4
  8
0
  0
BLOCK
 67
     1
  8
0
  2
$PAPER_SPACE
 70
     0
 10
0.0
 20
0.0
 30
0.0
  3
$PAPER_SPACE
  1

  0
ENDBLK
  5
1DFA0
 67
     1
  8
0
  0
BLOCK
  8
0
  2
GENAXEH
 70
     0
 10
0.0
 20
0.0
 30
0.0
  3
GENAXEH
  1

  0
LINE
  5
1DB84
  8
0
 10
-1.0
 20
0.0
 30
0.0
 11
1.0
 21
0.0
 31
0.0
  0
ENDBLK
  5
1DB85
  8
0
  0
BLOCK
  8
0
  6
BYBLOCK
 62
     0
  2
$6-44
 70
     0
 10
0.0
 20
0.0
 30
0.0
  3
$6-44
  1

  0
ARC
  5
1CF0A
  8
AM_0
 10
-2.300003000000002
 20
2.3999909999999991
 30
0.0
 40
2.2000009999999981
 50
90.000003000000945
 51
179.99997799999841
  0
ARC
  5
1CF0B
  8
AM_0
 10
2.300003000000002
 20
2.3999909999999991
 30
0.0
 40
2.1999970000000002
 50
0.0
 51
89.999982000000827
  0
LINE
  5
1CF0C
  8
AM_0
 10
-0.0494449999999915
 20
0.0
 30
0.0
 11
-0.8000000000000112
 21
1.30000000000001
 31
0.0
  0
LINE
  5
1CF0D
  8
AM_0
 10
0.9505550000000083
 20
0.0
 30
0.0
 11
0.1999999999999886
 21
1.30000000000001
 31
0.0
  0
LINE
  5
1CF0E
  8
AM_0
 10
4.600000000000021
 20
1.30000000000001
 30
0.0
 11
4.600000000000021
 21
0.0
 31
0.0
  0
LINE
  5
1CF0F
  8
AM_0
 10
-4.600000000000021
 20
1.30000000000001
 30
0.0
 11
-4.600000000000021
 21
0.0
 31
0.0
  0
LINE
  5
1CF10
  8
AM_0
 10
4.600000000000021
 20
0.0
 30
0.0
 11
-4.600000000000021
 21
0.0
 31
0.0
  0
LINE
  5
1CF11
  8
AM_0
 10
2.300003000000002
 20
4.6000030000000152
 30
0.0
 11
-2.300003000000002
 21
4.6000030000000152
 31
0.0
  0
LINE
  5
1CF12
  8
AM_0
 10
4.600000000000021
 20
1.30000000000001
 30
0.0
 11
-4.600000000000021
 21
1.30000000000001
 31
0.0
  0
LINE
  5
1CF13
  8
AM_0
 10
-4.5
 20
1.30000000000001
 30
0.0
 11
-4.5
 21
2.3999909999999991
 31
0.0
  0
LINE
  5
1CF14
  8
AM_0
 10
4.5
 20
1.30000000000001
 30
0.0
 11
4.5
 21
2.3999909999999991
 31
0.0
  0
ENDBLK
  5
1CF15
  8
0
  6
BYBLOCK
 62
     0
  0
BLOCK
  8
0
  2
_OPEN30
 70
     0
 10
0.0
 20
0.0
 30
0.0
  3
_OPEN30
  1

  0
LINE
  5
1DBCB
  8
0
  6
BYBLOCK
 62
     0
 10
-1.0
 20
0.26794919
 30
0.0
 11
0.0
 21
0.0
 31
0.0
  0
LINE
  5
1DBCC
  8
0
  6
BYBLOCK
 62
     0
 10
0.0
 20
0.0
 30
0.0
 11
-1.0
 21
-0.26794919
 31
0.0
  0
LINE
  5
1DBCD
  8
0
  6
BYBLOCK
 62
     0
 10
0.0
 20
0.0
 30
0.0
 11
-1.0
 21
0.0
 31
0.0
  0
ENDBLK
  5
1DBCE
  8
0
  0
BLOCK
  8
0
  2
_ACMFILLEDHALF
 70
     0
 10
0.0
 20
0.0
 30
0.0
  3
_ACMFILLEDHALF
  1

  0
TRACE
  5
1E0B0
  8
AM_0
 62
     0
 10
-0.8
 20
0.0
 30
0.0
 11
-1.0
 21
0.166666666
 31
0.0
 12
0.0
 22
0.0
 32
0.0
 13
0.0
 23
0.0
 33
0.0
  0
LINE
  5
1E0B1
  8
AM_0
 62
     0
 10
-1.0
 20
0.0
 30
0.0
 11
-0.8
 21
0.0
 31
0.0
  0
ENDBLK
  5
1E0AF
  8
0
  0
ENDSEC
  0
SECTION
  2
ENTITIES
  0
POINT
  5
1B94
  8
0
 10
0.0
 20
0.0
 30
0.0
1001
GENIUS_GENODEF_13
1002
{
1000
HIER
1070
     1
1002
}
1002
{
1000
MANEDIT
1070
     0
1002
}
1002
{
1000
NOSEL
1070
     0
1002
}
1002
{
1000
BEHIND
1070
     0
1002
}
1002
{
1000
REACTOR
1002
}
1001
GENIUS_GENOBJ-N-SDF_13
1002
{
1000
OWNER
1000
GEN
1002
}
1001
GENIUS_GENOENT_13
1002
{
1000
MYREF
1005
1B94
1002
}
1002
{
1000
GRP
1005
0
1002
}
1001
GENIUS_GENOLIS_13
1002
{
1000
ENT
1005
89
1002
}
  0
LINE
  5
18D34
  8
ﾁｭｳｼﾝｾﾝ1
 10
735.66358231374613
 20
331.07652922917941
 30
0.0
 11
482.25797168237023
 21
331.07652922917958
 31
0.0
  0
POLYLINE
  5
18D36
  8
AM_0
 66
     1
 10
0.0
 20
0.0
 30
0.0
 70
     8
  0
VERTEX
  5
1DDAE
  8
AM_0
 10
545.75800000000004
 20
331.077
 30
0.0
 70
    32
  0
VERTEX
  5
1DDAF
  8
AM_0
 10
545.79700000000003
 20
332.67099999999999
 30
0.0
 70
    32
  0
VERTEX
  5
1DDB0
  8
AM_0
 10
545.91399999999987
 20
334.262
 30
0.0
 70
    32
  0
VERTEX
  5
1DDB1
  8
AM_0
 10
546.11000000000001
 20
335.84500000000003
 30
0.0
 70
    32
  0
VERTEX
  5
1DDB2
  8
AM_0
 10
546.38199999999995
 20
337.41699999999997
 30
0.0
 70
    32
  0
VERTEX
  5
1DDB3
  8
AM_0
 10
546.73199999999986
 20
338.97399999999999
 30
0.0
 70
    32
  0
VERTEX
  5
1DDB4
  8
AM_0
 10
547.15699999999981
 20
340.51100000000002
 30
0.0
 70
    32
  0
VERTEX
  5
1DDB5
  8
AM_0
 10
547.65800000000002
 20
342.02600000000001
 30
0.0
 70
    32
  0
VERTEX
  5
1DDB6
  8
AM_0
 10
548.23199999999986
 20
343.51400000000001
 30
0.0
 70
    32
  0
VERTEX
  5
1DDB7
  8
AM_0
 10
548.87800000000004
 20
344.97199999999998
 30
0.0
 70
    32
  0
VERTEX
  5
1DDB8
  8
AM_0
 10
549.596
 20
346.39699999999999
 30
0.0
 70
    32
  0
VERTEX
  5
1DDB9
  8
AM_0
 10
550.38199999999995
 20
347.78500000000003
 30
0.0
 70
    32
  0
VERTEX
  5
1DDBA
  8
AM_0
 10
551.23500000000001
 20
349.13299999999998
 30
0.0
 70
    32
  0
VERTEX
  5
1DDBB
  8
AM_0
 10
552.15399999999988
 20
350.43700000000001
 30
0.0
 70
    32
  0
VERTEX
  5
1DDBC
  8
AM_0
 10
553.13499999999988
 20
351.69499999999999
 30
0.0
 70
    32
  0
VERTEX
  5
1DDBD
  8
AM_0
 10
554.17700000000002
 20
352.90300000000002
 30
0.0
 70
    32
  0
VERTEX
  5
1DDBE
  8
AM_0
 10
555.27699999999993
 20
354.05800000000011
 30
0.0
 70
    32
  0
VERTEX
  5
1DDBF
  8
AM_0
 10
556.43200000000002
 20
355.15800000000002
 30
0.0
 70
    32
  0
VERTEX
  5
1DDC0
  8
AM_0
 10
557.63999999999987
 20
356.19999999999999
 30
0.0
 70
    32
  0
VERTEX
  5
1DDC1
  8
AM_0
 10
558.89800000000002
 20
357.18099999999998
 30
0.0
 70
    32
  0
VERTEX
  5
1DDC2
  8
AM_0
 10
560.202
 20
358.10000000000002
 30
0.0
 70
    32
  0
VERTEX
  5
1DDC3
  8
AM_0
 10
561.54999999999995
 20
358.95299999999997
 30
0.0
 70
    32
  0
VERTEX
  5
1DDC4
  8
AM_0
 10
562.93799999999999
 20
359.74000000000001
 30
0.0
 70
    32
  0
VERTEX
  5
1DDC5
  8
AM_0
 10
564.36199999999985
 20
360.45699999999999
 30
0.0
 70
    32
  0
VERTEX
  5
1DDC6
  8
AM_0
 10
565.82100000000003
 20
361.10300000000001
 30
0.0
 70
    32
  0
VERTEX
  5
1DDC7
  8
AM_0
 10
567.30899999999997
 20
361.67700000000002
 30
0.0
 70
    32
  0
VERTEX
  5
1DDC8
  8
AM_0
 10
568.82399999999996
 20
362.17800000000011
 30
0.0
 70
    32
  0
VERTEX
  5
1DDC9
  8
AM_0
 10
570.36099999999999
 20
362.60300000000001
 30
0.0
 70
    32
  0
VERTEX
  5
1DDCA
  8
AM_0
 10
571.91800000000001
 20
362.95299999999997
 30
0.0
 70
    32
  0
VERTEX
  5
1DDCB
  8
AM_0
 10
573.48900000000003
 20
363.22500000000002
 30
0.0
 70
    32
  0
VERTEX
  5
1DDCC
  8
AM_0
 10
575.072
 20
363.42099999999999
 30
0.0
 70
    32
  0
VERTEX
  5
1DDCD
  8
AM_0
 10
576.66300000000001
 20
363.53800000000001
 30
0.0
 70
    32
  0
VERTEX
  5
1DDCE
  8
AM_0
 10
578.25800000000004
 20
363.577
 30
0.0
 70
    32
  0
VERTEX
  5
1DDCF
  8
AM_0
 10
579.85299999999995
 20
363.53800000000001
 30
0.0
 70
    32
  0
VERTEX
  5
1DDD0
  8
AM_0
 10
581.44399999999985
 20
363.42099999999999
 30
0.0
 70
    32
  0
VERTEX
  5
1DDD1
  8
AM_0
 10
583.02699999999993
 20
363.22500000000002
 30
0.0
 70
    32
  0
VERTEX
  5
1DDD2
  8
AM_0
 10
584.59799999999996
 20
362.95299999999997
 30
0.0
 70
    32
  0
VERTEX
  5
1DDD3
  8
AM_0
 10
586.15499999999997
 20
362.60300000000001
 30
0.0
 70
    32
  0
VERTEX
  5
1DDD4
  8
AM_0
 10
587.69200000000001
 20
362.17800000000011
 30
0.0
 70
    32
  0
VERTEX
  5
1DDD5
  8
AM_0
 10
589.20699999999999
 20
361.67700000000002
 30
0.0
 70
    32
  0
VERTEX
  5
1DDD6
  8
AM_0
 10
590.69500000000005
 20
361.10300000000001
 30
0.0
 70
    32
  0
VERTEX
  5
1DDD7
  8
AM_0
 10
592.154
 20
360.45699999999999
 30
0.0
 70
    32
  0
VERTEX
  5
1DDD8
  8
AM_0
 10
593.57799999999997
 20
359.74000000000001
 30
0.0
 70
    32
  0
VERTEX
  5
1DDD9
  8
AM_0
 10
594.96600000000001
 20
358.95299999999997
 30
0.0
 70
    32
  0
VERTEX
  5
1DDDA
  8
AM_0
 10
596.31399999999996
 20
358.10000000000002
 30
0.0
 70
    32
  0
VERTEX
  5
1DDDB
  8
AM_0
 10
597.61800000000005
 20
357.18099999999998
 30
0.0
 70
    32
  0
VERTEX
  5
1DDDC
  8
AM_0
 10
598.87599999999998
 20
356.19999999999999
 30
0.0
 70
    32
  0
VERTEX
  5
1DDDD
  8
AM_0
 10
600.08400000000006
 20
355.15800000000002
 30
0.0
 70
    32
  0
VERTEX
  5
1DDDE
  8
AM_0
 10
601.23900000000003
 20
354.05800000000011
 30
0.0
 70
    32
  0
VERTEX
  5
1DDDF
  8
AM_0
 10
602.33900000000006
 20
352.90300000000002
 30
0.0
 70
    32
  0
VERTEX
  5
1DDE0
  8
AM_0
 10
603.38099999999986
 20
351.69499999999999
 30
0.0
 70
    32
  0
VERTEX
  5
1DDE1
  8
AM_0
 10
604.36199999999985
 20
350.43700000000001
 30
0.0
 70
    32
  0
VERTEX
  5
1DDE2
  8
AM_0
 10
605.28099999999995
 20
349.13299999999998
 30
0.0
 70
    32
  0
VERTEX
  5
1DDE3
  8
AM_0
 10
606.13400000000001
 20
347.78500000000003
 30
0.0
 70
    32
  0
VERTEX
  5
1DDE4
  8
AM_0
 10
606.91999999999985
 20
346.39699999999999
 30
0.0
 70
    32
  0
VERTEX
  5
1DDE5
  8
AM_0
 10
607.63800000000003
 20
344.97199999999998
 30
0.0
 70
    32
  0
VERTEX
  5
1DDE6
  8
AM_0
 10
608.28399999999999
 20
343.51400000000001
 30
0.0
 70
    32
  0
VERTEX
  5
1DDE7
  8
AM_0
 10
608.85799999999995
 20
342.02600000000001
 30
0.0
 70
    32
  0
VERTEX
  5
1DDE8
  8
AM_0
 10
609.35900000000004
 20
340.51100000000002
 30
0.0
 70
    32
  0
VERTEX
  5
1DDE9
  8
AM_0
 10
609.78399999999988
 20
338.97399999999999
 30
0.0
 70
    32
  0
VERTEX
  5
1DDEA
  8
AM_0
 10
610.13300000000004
 20
337.41699999999997
 30
0.0
 70
    32
  0
VERTEX
  5
1DDEB
  8
AM_0
 10
610.40599999999995
 20
335.84500000000003
 30
0.0
 70
    32
  0
VERTEX
  5
1DDEC
  8
AM_0
 10
610.601
 20
334.262
 30
0.0
 70
    32
  0
VERTEX
  5
1DDED
  8
AM_0
 10
610.71900000000005
 20
332.67099999999999
 30
0.0
 70
    32
  0
VERTEX
  5
1DDEE
  8
AM_0
 10
610.75800000000004
 20
331.077
 30
0.0
 70
    32
  0
VERTEX
  5
1DDEF
  8
AM_0
 10
610.71900000000005
 20
329.48200000000003
 30
0.0
 70
    32
  0
VERTEX
  5
1DDF0
  8
AM_0
 10
610.601
 20
327.89100000000002
 30
0.0
 70
    32
  0
VERTEX
  5
1DDF1
  8
AM_0
 10
610.40599999999995
 20
326.30799999999999
 30
0.0
 70
    32
  0
VERTEX
  5
1DDF2
  8
AM_0
 10
610.13300000000004
 20
324.73599999999999
 30
0.0
 70
    32
  0
VERTEX
  5
1DDF3
  8
AM_0
 10
609.78399999999988
 20
323.18000000000001
 30
0.0
 70
    32
  0
VERTEX
  5
1DDF4
  8
AM_0
 10
609.35900000000004
 20
321.642
 30
0.0
 70
    32
  0
VERTEX
  5
1DDF5
  8
AM_0
 10
608.85799999999995
 20
320.12700000000001
 30
0.0
 70
    32
  0
VERTEX
  5
1DDF6
  8
AM_0
 10
608.28399999999999
 20
318.63900000000001
 30
0.0
 70
    32
  0
VERTEX
  5
1DDF7
  8
AM_0
 10
607.63800000000003
 20
317.18099999999998
 30
0.0
 70
    32
  0
VERTEX
  5
1DDF8
  8
AM_0
 10
606.91999999999985
 20
315.75599999999997
 30
0.0
 70
    32
  0
VERTEX
  5
1DDF9
  8
AM_0
 10
606.13400000000001
 20
314.36799999999999
 30
0.0
 70
    32
  0
VERTEX
  5
1DDFA
  8
AM_0
 10
605.28099999999995
 20
313.01999999999998
 30
0.0
 70
    32
  0
VERTEX
  5
1DDFB
  8
AM_0
 10
604.36199999999985
 20
311.71600000000001
 30
0.0
 70
    32
  0
VERTEX
  5
1DDFC
  8
AM_0
 10
603.38099999999986
 20
310.45800000000003
 30
0.0
 70
    32
  0
VERTEX
  5
1DDFD
  8
AM_0
 10
602.33900000000006
 20
309.25
 30
0.0
 70
    32
  0
VERTEX
  5
1DDFE
  8
AM_0
 10
601.23900000000003
 20
308.09500000000003
 30
0.0
 70
    32
  0
VERTEX
  5
1DDFF
  8
AM_0
 10
600.08400000000006
 20
306.995
 30
0.0
 70
    32
  0
VERTEX
  5
1DE00
  8
AM_0
 10
598.87599999999998
 20
305.95299999999997
 30
0.0
 70
    32
  0
VERTEX
  5
1DE01
  8
AM_0
 10
597.61800000000005
 20
304.97199999999998
 30
0.0
 70
    32
  0
VERTEX
  5
1DE02
  8
AM_0
 10
596.31399999999996
 20
304.053
 30
0.0
 70
    32
  0
VERTEX
  5
1DE03
  8
AM_0
 10
594.96600000000001
 20
303.19999999999999
 30
0.0
 70
    32
  0
VERTEX
  5
1DE04
  8
AM_0
 10
593.57799999999997
 20
302.41399999999999
 30
0.0
 70
    32
  0
VERTEX
  5
1DE05
  8
AM_0
 10
592.154
 20
301.69600000000003
 30
0.0
 70
    32
  0
VERTEX
  5
1DE06
  8
AM_0
 10
590.69500000000005
 20
301.05000000000001
 30
0.0
 70
    32
  0
VERTEX
  5
1DE07
  8
AM_0
 10
589.20699999999999
 20
300.476
 30
0.0
 70
    32
  0
VERTEX
  5
1DE08
  8
AM_0
 10
587.69200000000001
 20
299.97500000000002
 30
0.0
 70
    32
  0
VERTEX
  5
1DE09
  8
AM_0
 10
586.15499999999997
 20
299.55000000000001
 30
0.0
 70
    32
  0
VERTEX
  5
1DE0A
  8
AM_0
 10
584.59799999999996
 20
299.19999999999999
 30
0.0
 70
    32
  0
VERTEX
  5
1DE0B
  8
AM_0
 10
583.02699999999993
 20
298.928
 30
0.0
 70
    32
  0
VERTEX
  5
1DE0C
  8
AM_0
 10
581.44399999999985
 20
298.73200000000003
 30
0.0
 70
    32
  0
VERTEX
  5
1DE0D
  8
AM_0
 10
579.85299999999995
 20
298.61500000000001
 30
0.0
 70
    32
  0
VERTEX
  5
1DE0E
  8
AM_0
 10
578.25800000000004
 20
298.57599999999991
 30
0.0
 70
    32
  0
VERTEX
  5
1DE0F
  8
AM_0
 10
576.66300000000001
 20
298.61500000000001
 30
0.0
 70
    32
  0
VERTEX
  5
1DE10
  8
AM_0
 10
575.072
 20
298.73200000000003
 30
0.0
 70
    32
  0
VERTEX
  5
1DE11
  8
AM_0
 10
573.48900000000003
 20
298.928
 30
0.0
 70
    32
  0
VERTEX
  5
1DE12
  8
AM_0
 10
571.91800000000001
 20
299.19999999999999
 30
0.0
 70
    32
  0
VERTEX
  5
1DE13
  8
AM_0
 10
570.36099999999999
 20
299.55000000000001
 30
0.0
 70
    32
  0
VERTEX
  5
1DE14
  8
AM_0
 10
568.82399999999996
 20
299.97500000000002
 30
0.0
 70
    32
  0
VERTEX
  5
1DE15
  8
AM_0
 10
567.30899999999997
 20
300.476
 30
0.0
 70
    32
  0
VERTEX
  5
1DE16
  8
AM_0
 10
565.82100000000003
 20
301.05000000000001
 30
0.0
 70
    32
  0
VERTEX
  5
1DE17
  8
AM_0
 10
564.36199999999985
 20
301.69600000000003
 30
0.0
 70
    32
  0
VERTEX
  5
1DE18
  8
AM_0
 10
562.93799999999999
 20
302.41399999999999
 30
0.0
 70
    32
  0
VERTEX
  5
1DE19
  8
AM_0
 10
561.54999999999995
 20
303.19999999999999
 30
0.0
 70
    32
  0
VERTEX
  5
1DE1A
  8
AM_0
 10
560.202
 20
304.053
 30
0.0
 70
    32
  0
VERTEX
  5
1DE1B
  8
AM_0
 10
558.89800000000002
 20
304.97199999999998
 30
0.0
 70
    32
  0
VERTEX
  5
1DE1C
  8
AM_0
 10
557.63999999999987
 20
305.95299999999997
 30
0.0
 70
    32
  0
VERTEX
  5
1DE1D
  8
AM_0
 10
556.43200000000002
 20
306.995
 30
0.0
 70
    32
  0
VERTEX
  5
1DE1E
  8
AM_0
 10
555.27699999999993
 20
308.09500000000003
 30
0.0
 70
    32
  0
VERTEX
  5
1DE1F
  8
AM_0
 10
554.17700000000002
 20
309.25
 30
0.0
 70
    32
  0
VERTEX
  5
1DE20
  8
AM_0
 10
553.13499999999988
 20
310.45800000000003
 30
0.0
 70
    32
  0
VERTEX
  5
1DE21
  8
AM_0
 10
552.15399999999988
 20
311.71600000000001
 30
0.0
 70
    32
  0
VERTEX
  5
1DE22
  8
AM_0
 10
551.23500000000001
 20
313.01999999999998
 30
0.0
 70
    32
  0
VERTEX
  5
1DE23
  8
AM_0
 10
550.38199999999995
 20
314.36799999999999
 30
0.0
 70
    32
  0
VERTEX
  5
1DE24
  8
AM_0
 10
549.596
 20
315.75599999999997
 30
0.0
 70
    32
  0
VERTEX
  5
1DE25
  8
AM_0
 10
548.87800000000004
 20
317.18099999999998
 30
0.0
 70
    32
  0
VERTEX
  5
1DE26
  8
AM_0
 10
548.23199999999986
 20
318.63900000000001
 30
0.0
 70
    32
  0
VERTEX
  5
1DE27
  8
AM_0
 10
547.65800000000002
 20
320.12700000000001
 30
0.0
 70
    32
  0
VERTEX
  5
1DE28
  8
AM_0
 10
547.15699999999981
 20
321.642
 30
0.0
 70
    32
  0
VERTEX
  5
1DE29
  8
AM_0
 10
546.73199999999986
 20
323.18000000000001
 30
0.0
 70
    32
  0
VERTEX
  5
1DE2A
  8
AM_0
 10
546.38199999999995
 20
324.73599999999999
 30
0.0
 70
    32
  0
VERTEX
  5
1DE2B
  8
AM_0
 10
546.11000000000001
 20
326.30799999999999
 30
0.0
 70
    32
  0
VERTEX
  5
1DE2C
  8
AM_0
 10
545.91399999999987
 20
327.89100000000002
 30
0.0
 70
    32
  0
VERTEX
  5
1DE2D
  8
AM_0
 10
545.79700000000003
 20
329.48200000000003
 30
0.0
 70
    32
  0
VERTEX
  5
1DE2E
  8
AM_0
 10
545.75800000000004
 20
331.077
 30
0.0
 70
    32
  0
SEQEND
  5
1DE2F
  8
AM_0
  0
LINE
  5
18D38
  8
0
 10
696.25797420826188
 20
193.0765292291795
 30
0.0
 11
526.25794568284346
 21
193.0765292291795
 31
0.0
  0
LINE
  5
18D39
  8
0
 10
674.69411555298996
 20
200.0765292291795
 30
0.0
 11
547.82180433669419
 21
200.07652922917941
 31
0.0
  0
CIRCLE
  5
18D3A
  8
0
 10
578.25797421096524
 20
331.07652922917941
 30
0.0
 40
52.5
  0
LINE
  5
18D3B
  8
0
 10
594.3760311948314
 20
244.076536858574
 30
0.0
 11
560.75795331494135
 21
244.076536858574
 31
0.0
  0
LINE
  5
18D3C
  8
0
 10
594.37603119483151
 20
418.07652159978483
 30
0.0
 11
560.75795331494169
 21
418.07652159978483
 31
0.0
  0
LINE
  5
18D3D
  8
0
 10
674.69411555298996
 20
462.0765292291793
 30
0.0
 11
547.82180433669453
 21
462.0765292291793
 31
0.0
  0
LINE
  5
18D3E
  8
0
 10
696.257974208262
 20
469.0765292291793
 30
0.0
 11
526.25794568284357
 21
469.0765292291793
 31
0.0
  0
LINE
  5
18D5A
  8
ﾁｭｳｼﾝｾﾝ1
 10
199.44001889135129
 20
472.8806619312432
 30
0.0
 11
199.4400463721766
 21
217.79835674694129
 31
0.0
  0
LINE
  5
18D5E
  8
AM_0
 10
129.44004033908749
 20
239.04709804410609
 30
0.0
 11
129.44004033908749
 21
423.10594515515822
 31
0.0
  0
LINE
  5
18D5F
  8
AM_0
 10
242.44004755534729
 20
237.07464642770549
 30
0.0
 11
242.44004755534729
 21
425.07841203065368
 31
0.0
  0
LINE
  5
18D61
  8
AM_0
 10
124.440044003273
 20
281.07552773903348
 30
0.0
 11
124.440044003273
 21
381.0775307193253
 31
0.0
  0
LINE
  5
18D63
  8
AM_0
 10
299.44003258193038
 20
193.07652922464521
 30
0.0
 11
299.4400324520941
 21
469.0765292291793
 31
0.0
  0
LINE
  5
18D66
  8
AM_0
 10
499.25797168237023
 20
252.0749468747486
 30
0.0
 11
499.2579716823704
 21
410.07811158360971
 31
0.0
  0
LINE
  5
18D67
  8
AM_0
 10
492.25797168237023
 20
255.07651397039069
 30
0.0
 11
492.2579716823704
 21
407.076521599785
 31
0.0
  0
LINE
  5
18D6B
  8
ﾁｭｳｼﾝｾﾝ1
 10
313.27825683019751
 20
331.07652922917941
 30
0.0
 11
114.440045157432
 21
331.07652922917941
 31
0.0
  0
LINE
  5
18D6C
  8
ﾁｭｳｼﾝｾﾝ1
 10
281.24491670477693
 20
344.07652922917941
 30
0.0
 11
117.63514883088069
 21
344.07652922917941
 31
0.0
  0
LINE
  5
18D6E
  8
AM_0
 10
129.44004033908749
 20
239.04709804410609
 30
0.0
 11
242.44004755534729
 21
237.07464642770549
 31
0.0
  0
LINE
  5
18D76
  8
0
 10
126.4400403390875
 20
240.07500696415781
 30
0.0
 11
126.4400403390875
 21
270.07500696415758
 31
0.0
  0
LINE
  5
18D77
  8
0
 10
110.4400403390875
 20
243.07500696415781
 30
0.0
 11
110.4400403390875
 21
267.07500696415758
 31
0.0
  0
LINE
  5
18D78
  8
0
 10
126.4400403390875
 20
243.07500696415781
 30
0.0
 11
110.4400403390875
 21
243.07500696415781
 31
0.0
  0
LINE
  5
18D7D
  8
0
 10
126.4400403390875
 20
240.07500696415781
 30
0.0
 11
129.44004033908749
 21
240.07500696415781
 31
0.0
  0
LINE
  5
18D82
  8
AM_0
 10
119.44033922672421
 20
363.57718019777428
 30
0.0
 11
124.4403393772357
 21
363.57718019777428
 31
0.0
  0
LINE
  5
18D83
  8
AM_0
 10
119.4400438527616
 20
363.57718019777428
 30
0.0
 11
124.440044003273
 21
363.57718019777428
 31
0.0
  0
LINE
  5
18D84
  8
AM_0
 10
119.4400438527616
 20
298.57587826058437
 30
0.0
 11
124.440044003273
 21
298.57587826058437
 31
0.0
  0
LINE
  5
18D85
  8
0
 10
110.4400403390875
 20
267.07500696415758
 30
0.0
 11
126.4400403390875
 21
267.07500696415758
 31
0.0
  0
LINE
  5
18D86
  8
AM_0
 10
119.4400438527616
 20
298.57587826058437
 30
0.0
 11
119.4400438527616
 21
363.57718019777428
 31
0.0
  0
LINE
  5
18D8C
  8
AM_0
 10
124.440044003273
 20
281.07552773903348
 30
0.0
 11
129.44004415378481
 21
281.07552773903348
 31
0.0
  0
LINE
  5
18D8D
  8
0
 10
126.4400403390875
 20
270.07500696415758
 30
0.0
 11
129.44004033908749
 21
270.07500696415758
 31
0.0
  0
LINE
  5
18D99
  8
ﾁｭｳｼﾝｾﾝ1
 10
267.20111578431738
 20
213.0765292291795
 30
0.0
 11
306.66287371938802
 21
213.0765292291795
 31
0.0
  0
ARC
  5
18D9A
  8
0
 10
277.44003245386739
 20
196.8466147908326
 30
0.0
 40
3.0
 50
179.99999997304599
 51
267.99999999999642
1001
GENIUS_GENOBJ-N-FIL_13
1002
{
1000
OWNER
1000
GEN
1002
}
1001
GENIUS_GENODEF_13
1002
{
1000
HIER
1070
     0
1002
}
1002
{
1000
MANEDIT
1070
     0
1002
}
1002
{
1000
NOSEL
1070
     0
1002
}
1002
{
1000
BEHIND
1070
     0
1002
}
1002
{
1000
OTHER
1070
     0
1002
}
1002
{
1000
REACTOR
1002
}
  0
LINE
  5
18D9C
  8
0
 10
277.33533396375992
 20
193.84844230977521
 30
0.0
 11
299.4400324520941
 21
193.0765292291795
 31
0.0
  0
LINE
  5
18D9D
  8
0
 10
242.44004755534729
 20
237.07464642770549
 30
0.0
 11
269.61452995350709
 21
236.1256925918216
 31
0.0
  0
LINE
  5
18DA4
  8
AM_0
 10
274.44003246999478
 20
231.128738454374
 30
0.0
 11
274.44003245386739
 21
196.84661479224371
 31
0.0
  0
ARC
  5
18DA8
  8
0
 10
269.44003246999478
 20
231.1287384567259
 30
0.0
 40
5.0
 50
359.9999999730461
 51
88.000000000002842
1001
GENIUS_GENOBJ-N-FIL_13
1002
{
1000
OWNER
1000
GEN
1002
}
1001
GENIUS_GENODEF_13
1002
{
1000
HIER
1070
     0
1002
}
1002
{
1000
MANEDIT
1070
     0
1002
}
1002
{
1000
NOSEL
1070
     0
1002
}
1002
{
1000
BEHIND
1070
     0
1002
}
1002
{
1000
OTHER
1070
     0
1002
}
1002
{
1000
REACTOR
1002
}
  0
ARC
  5
18DBD
  8
0
 10
512.2579742109657
 20
255.07651397039049
 30
0.0
 40
20.0
 50
180.0
 51
198.4349200441674
  0
CIRCLE
  5
18DBF
  8
0
 10
512.25793571511156
 20
255.0765582989626
 30
0.0
 40
6.5
  0
CIRCLE
  5
18DC0
  8
0
  6
CONTINUOUS
 62
     2
 10
512.2579742109657
 20
255.07651397039049
 30
0.0
 40
8.0
  0
ARC
  5
18DC4
  8
0
 10
526.25794568284346
 20
213.07652922647591
 30
0.0
 40
19.99999999729641
 50
198.4349200441674
 51
270.0
  0
CIRCLE
  5
18DC7
  8
0
 10
526.25794568284346
 20
213.07652922647591
 30
0.0
 40
9.0
  0
LINE
  5
18DC9
  8
0
 10
552.30820584663536
 20
244.076536858574
 30
0.0
 11
509.25797168237028
 21
244.076536858574
 31
0.0
  0
ARC
  5
18DCA
  8
0
 10
526.25794568284346
 20
213.07652922647591
 30
0.0
 40
18.0
 50
339.64559360894788
 51
129.86377856364891
  0
ARC
  5
18DCB
  8
0
 10
511.51576185150321
 20
230.73065100817229
 30
0.0
 40
5.0
 50
199.5093721725961
 51
309.86377856364879
1001
GENIUS_GENODEF_13
1002
{
1000
HIER
1070
     0
1002
}
1002
{
1000
MANEDIT
1070
     0
1002
}
1002
{
1000
NOSEL
1070
     0
1002
}
1002
{
1000
BEHIND
1070
     0
1002
}
1002
{
1000
OTHER
1070
     0
1002
}
1002
{
1000
REACTOR
1002
}
1001
GENIUS_GENOBJ-N-FIL_13
1002
{
1000
OWNER
1000
GEN
1002
}
  0
LINE
  5
18DCC
  8
0
 10
507.28427654729057
 20
206.75198343832369
 30
0.0
 11
493.2843050728481
 21
248.75196818138329
 31
0.0
  0
LINE
  5
18DCD
  8
0
 10
499.83210294895161
 20
248.7353362479187
 30
0.0
 11
506.80282747183122
 21
229.0608457701546
 31
0.0
  0
ARC
  5
18DCE
  8
0
 10
509.25797168237023
 20
254.07651397039041
 30
0.0
 40
10.0
 50
180.0
 51
270.0
1001
GENIUS_GENOBJ-N-FIL_13
1002
{
1000
OWNER
1000
GEN
1002
}
1001
GENIUS_GENODEF_13
1002
{
1000
HIER
1070
     0
1002
}
1002
{
1000
MANEDIT
1070
     0
1002
}
1002
{
1000
NOSEL
1070
     0
1002
}
1002
{
1000
BEHIND
1070
     0
1002
}
1002
{
1000
OTHER
1070
     0
1002
}
1002
{
1000
REACTOR
1002
}
  0
ARC
  5
18DCF
  8
0
 10
509.25797213390518
 20
252.074946874749
 30
0.0
 40
10.0000004515349
 50
180.0
 51
199.5093721725961
  0
ARC
  5
18DD0
  8
0
 10
547.38043458263633
 20
222.17820284609761
 30
0.0
 40
5.0
 50
134.99999999999969
 51
203.3111943818586
1001
GENIUS_GENOBJ-N-FIL_13
1002
{
1000
OWNER
1000
GEN
1002
}
1001
GENIUS_GENODEF_13
1002
{
1000
HIER
1070
     0
1002
}
1002
{
1000
MANEDIT
1070
     0
1002
}
1002
{
1000
NOSEL
1070
     0
1002
}
1002
{
1000
BEHIND
1070
     0
1002
}
1002
{
1000
OTHER
1070
     0
1002
}
1002
{
1000
REACTOR
1002
}
  0
ARC
  5
18DD1
  8
0
 10
547.82180433669419
 20
205.07652922917961
 30
0.0
 40
5.0
 50
159.64559360894779
 51
270.0
1001
GENIUS_GENODEF_13
1002
{
1000
HIER
1070
     0
1002
}
1002
{
1000
MANEDIT
1070
     0
1002
}
1002
{
1000
NOSEL
1070
     0
1002
}
1002
{
1000
BEHIND
1070
     0
1002
}
1002
{
1000
OTHER
1070
     0
1002
}
1002
{
1000
REACTOR
1002
}
1001
GENIUS_GENOBJ-N-FIL_13
1002
{
1000
OWNER
1000
GEN
1002
}
  0
LINE
  5
18DD2
  8
0
 10
543.84490067670367
 20
225.71373675203051
 30
0.0
 11
559.73282704909434
 21
241.60166312442109
 31
0.0
  0
LINE
  5
18DD3
  8
0
 10
538.89515320839803
 20
230.66348422033619
 30
0.0
 11
554.78307958078835
 21
246.5514105927268
 31
0.0
  0
ARC
  5
18DD4
  8
0
 10
535.35961930246515
 20
234.1990181262689
 30
0.0
 40
5.0
 50
246.6888056181416
 51
314.99999999999989
1001
GENIUS_GENODEF_13
1002
{
1000
HIER
1070
     0
1002
}
1002
{
1000
MANEDIT
1070
     0
1002
}
1002
{
1000
NOSEL
1070
     0
1002
}
1002
{
1000
BEHIND
1070
     0
1002
}
1002
{
1000
OTHER
1070
     0
1002
}
1002
{
1000
REACTOR
1002
}
1001
GENIUS_GENOBJ-N-FIL_13
1002
{
1000
OWNER
1000
GEN
1002
}
  0
ARC
  5
18DD5
  8
0
 10
557.25795331494169
 20
244.076536858574
 30
0.0
 40
3.499999999999988
 50
314.99999999999989
 51
134.99999999999969
  0
ARC
  5
18DD7
  8
0
 10
502.25797168237023
 20
301.07652922917941
 30
0.0
 40
3.0
 50
0.0
 51
90.0
  0
ARC
  5
18DD8
  8
0
 10
502.25797168237023
 20
301.07652922917941
 30
0.0
 40
3.0
 50
270.0
 51
0.0
  0
ARC
  5
18DD9
  8
0
 10
502.25797168237023
 20
295.0765292291793
 30
0.0
 40
3.0
 50
90.0
 51
180.0
1001
GENIUS_GENODEF_13
1002
{
1000
HIER
1070
     0
1002
}
1002
{
1000
MANEDIT
1070
     0
1002
}
1002
{
1000
NOSEL
1070
     0
1002
}
1002
{
1000
BEHIND
1070
     0
1002
}
1002
{
1000
OTHER
1070
     0
1002
}
1002
{
1000
REACTOR
1002
}
1001
GENIUS_GENOBJ-N-FIL_13
1002
{
1000
OWNER
1000
GEN
1002
}
  0
ARC
  5
18DDA
  8
0
 10
502.25797168237023
 20
307.07652922917941
 30
0.0
 40
3.0
 50
180.0
 51
270.0
1001
GENIUS_GENOBJ-N-FIL_13
1002
{
1000
OWNER
1000
GEN
1002
}
1001
GENIUS_GENODEF_13
1002
{
1000
HIER
1070
     0
1002
}
1002
{
1000
MANEDIT
1070
     0
1002
}
1002
{
1000
NOSEL
1070
     0
1002
}
1002
{
1000
BEHIND
1070
     0
1002
}
1002
{
1000
OTHER
1070
     0
1002
}
1002
{
1000
REACTOR
1002
}
  0
ARC
  5
18DDB
  8
0
 10
502.25797168237023
 20
361.07652922917941
 30
0.0
 40
3.0
 50
270.0
 51
0.0
  0
ARC
  5
18DDC
  8
0
 10
502.25797168237023
 20
361.07652922917941
 30
0.0
 40
3.0
 50
0.0
 51
90.0
  0
ARC
  5
18DDD
  8
0
 10
502.25797168237023
 20
355.07652922917941
 30
0.0
 40
3.0
 50
90.0
 51
180.0
1001
GENIUS_GENODEF_13
1002
{
1000
HIER
1070
     0
1002
}
1002
{
1000
MANEDIT
1070
     0
1002
}
1002
{
1000
NOSEL
1070
     0
1002
}
1002
{
1000
BEHIND
1070
     0
1002
}
1002
{
1000
OTHER
1070
     0
1002
}
1002
{
1000
REACTOR
1002
}
1001
GENIUS_GENOBJ-N-FIL_13
1002
{
1000
OWNER
1000
GEN
1002
}
  0
ARC
  5
18DDE
  8
0
 10
502.25797168237023
 20
367.07652922917941
 30
0.0
 40
3.0
 50
180.0
 51
270.0
1001
GENIUS_GENOBJ-N-FIL_13
1002
{
1000
OWNER
1000
GEN
1002
}
1001
GENIUS_GENODEF_13
1002
{
1000
HIER
1070
     0
1002
}
1002
{
1000
MANEDIT
1070
     0
1002
}
1002
{
1000
NOSEL
1070
     0
1002
}
1002
{
1000
BEHIND
1070
     0
1002
}
1002
{
1000
OTHER
1070
     0
1002
}
1002
{
1000
REACTOR
1002
}
  0
LINE
  5
18DE0
  8
ﾁｭｳｼﾝｾﾝ1
 10
224.0070013500565
 20
446.07652966078689
 30
0.0
 11
174.70855822509631
 21
446.07652966078689
 31
0.0
  0
ARC
  5
18DE1
  8
AM_0
 10
199.4400338216808
 20
446.07652966078689
 30
0.0
 40
17.000000002124999
 50
0.0
 51
180.0
  0
LINE
  5
18DE3
  8
AM_0
 10
129.44004033908749
 20
423.10594515515822
 30
0.0
 11
242.44004755534729
 21
425.07841203065368
 31
0.0
  0
LINE
  5
18DE4
  8
AM_0
 10
254.44004627744721
 20
433.07856964642031
 30
0.0
 11
144.4400462444473
 21
433.07856964642031
 31
0.0
  0
LINE
  5
18DE9
  8
0
 10
126.4400403390875
 20
419.07805149420102
 30
0.0
 11
110.4400403390875
 21
419.07805149420102
 31
0.0
  0
LINE
  5
18DEA
  8
0
 10
110.4400403390875
 20
395.07805149420119
 30
0.0
 11
126.4400403390875
 21
395.07805149420119
 31
0.0
  0
LINE
  5
18DEB
  8
0
 10
110.4400403390875
 20
419.07805149420102
 30
0.0
 11
110.4400403390875
 21
395.07805149420119
 31
0.0
  0
POLYLINE
  5
18DEE
  8
AM_0
 66
     1
 10
0.0
 20
0.0
 30
0.0
 70
     8
  0
VERTEX
  5
1DE30
  8
AM_0
 10
144.44
 20
433.07900000000001
 30
0.0
 70
    32
  0
VERTEX
  5
1DE31
  8
AM_0
 10
144.34200000000001
 20
433.07799999999997
 30
0.0
 70
    32
  0
VERTEX
  5
1DE32
  8
AM_0
 10
144.244
 20
433.07599999999991
 30
0.0
 70
    32
  0
VERTEX
  5
1DE33
  8
AM_0
 10
144.14599999999999
 20
433.07299999999998
 30
0.0
 70
    32
  0
VERTEX
  5
1DE34
  8
AM_0
 10
144.048
 20
433.06900000000002
 30
0.0
 70
    32
  0
VERTEX
  5
1DE35
  8
AM_0
 10
143.94900000000001
 20
433.06400000000002
 30
0.0
 70
    32
  0
VERTEX
  5
1DE36
  8
AM_0
 10
143.852
 20
433.0569999999999
 30
0.0
 70
    32
  0
VERTEX
  5
1DE37
  8
AM_0
 10
143.75399999999999
 20
433.04899999999998
 30
0.0
 70
    32
  0
VERTEX
  5
1DE38
  8
AM_0
 10
143.65600000000001
 20
433.04000000000002
 30
0.0
 70
    32
  0
VERTEX
  5
1DE39
  8
AM_0
 10
143.55799999999999
 20
433.02999999999997
 30
0.0
 70
    32
  0
VERTEX
  5
1DE3A
  8
AM_0
 10
143.46100000000001
 20
433.01799999999997
 30
0.0
 70
    32
  0
VERTEX
  5
1DE3B
  8
AM_0
 10
143.363
 20
433.00599999999991
 30
0.0
 70
    32
  0
VERTEX
  5
1DE3C
  8
AM_0
 10
143.26599999999999
 20
432.9919999999999
 30
0.0
 70
    32
  0
VERTEX
  5
1DE3D
  8
AM_0
 10
143.16900000000001
 20
432.97699999999992
 30
0.0
 70
    32
  0
VERTEX
  5
1DE3E
  8
AM_0
 10
143.072
 20
432.96100000000001
 30
0.0
 70
    32
  0
VERTEX
  5
1DE3F
  8
AM_0
 10
142.976
 20
432.94299999999998
 30
0.0
 70
    32
  0
VERTEX
  5
1DE40
  8
AM_0
 10
142.87899999999999
 20
432.92500000000001
 30
0.0
 70
    32
  0
VERTEX
  5
1DE41
  8
AM_0
 10
142.78299999999999
 20
432.90499999999992
 30
0.0
 70
    32
  0
VERTEX
  5
1DE42
  8
AM_0
 10
142.68700000000001
 20
432.88400000000001
 30
0.0
 70
    32
  0
VERTEX
  5
1DE43
  8
AM_0
 10
142.59200000000001
 20
432.86199999999991
 30
0.0
 70
    32
  0
VERTEX
  5
1DE44
  8
AM_0
 10
142.49600000000001
 20
432.83899999999988
 30
0.0
 70
    32
  0
VERTEX
  5
1DE45
  8
AM_0
 10
142.40100000000001
 20
432.81400000000002
 30
0.0
 70
    32
  0
VERTEX
  5
1DE46
  8
AM_0
 10
142.30600000000001
 20
432.78899999999999
 30
0.0
 70
    32
  0
VERTEX
  5
1DE47
  8
AM_0
 10
142.21199999999999
 20
432.76199999999989
 30
0.0
 70
    32
  0
VERTEX
  5
1DE48
  8
AM_0
 10
142.11799999999999
 20
432.73399999999998
 30
0.0
 70
    32
  0
VERTEX
  5
1DE49
  8
AM_0
 10
142.024
 20
432.70499999999993
 30
0.0
 70
    32
  0
VERTEX
  5
1DE4A
  8
AM_0
 10
141.93100000000001
 20
432.67500000000001
 30
0.0
 70
    32
  0
VERTEX
  5
1DE4B
  8
AM_0
 10
141.83799999999999
 20
432.64299999999997
 30
0.0
 70
    32
  0
VERTEX
  5
1DE4C
  8
AM_0
 10
141.745
 20
432.61099999999988
 30
0.0
 70
    32
  0
VERTEX
  5
1DE4D
  8
AM_0
 10
141.65299999999999
 20
432.577
 30
0.0
 70
    32
  0
VERTEX
  5
1DE4E
  8
AM_0
 10
141.56100000000001
 20
432.54299999999989
 30
0.0
 70
    32
  0
VERTEX
  5
1DE4F
  8
AM_0
 10
141.47
 20
432.50699999999989
 30
0.0
 70
    32
  0
VERTEX
  5
1DE50
  8
AM_0
 10
141.37899999999999
 20
432.46999999999991
 30
0.0
 70
    32
  0
VERTEX
  5
1DE51
  8
AM_0
 10
141.28800000000001
 20
432.43099999999993
 30
0.0
 70
    32
  0
VERTEX
  5
1DE52
  8
AM_0
 10
141.19799999999989
 20
432.392
 30
0.0
 70
    32
  0
VERTEX
  5
1DE53
  8
AM_0
 10
141.10900000000001
 20
432.35199999999998
 30
0.0
 70
    32
  0
VERTEX
  5
1DE54
  8
AM_0
 10
141.02000000000001
 20
432.31
 30
0.0
 70
    32
  0
VERTEX
  5
1DE55
  8
AM_0
 10
140.93100000000001
 20
432.26799999999997
 30
0.0
 70
    32
  0
VERTEX
  5
1DE56
  8
AM_0
 10
140.84299999999999
 20
432.22399999999988
 30
0.0
 70
    32
  0
VERTEX
  5
1DE57
  8
AM_0
 10
140.756
 20
432.18000000000001
 30
0.0
 70
    32
  0
VERTEX
  5
1DE58
  8
AM_0
 10
140.66900000000001
 20
432.13400000000001
 30
0.0
 70
    32
  0
VERTEX
  5
1DE59
  8
AM_0
 10
140.583
 20
432.08699999999999
 30
0.0
 70
    32
  0
VERTEX
  5
1DE5A
  8
AM_0
 10
140.49700000000001
 20
432.03899999999987
 30
0.0
 70
    32
  0
VERTEX
  5
1DE5B
  8
AM_0
 10
140.41200000000001
 20
431.99000000000001
 30
0.0
 70
    32
  0
VERTEX
  5
1DE5C
  8
AM_0
 10
140.327
 20
431.93999999999988
 30
0.0
 70
    32
  0
VERTEX
  5
1DE5D
  8
AM_0
 10
140.24299999999999
 20
431.88900000000001
 30
0.0
 70
    32
  0
VERTEX
  5
1DE5E
  8
AM_0
 10
140.16
 20
431.83699999999988
 30
0.0
 70
    32
  0
VERTEX
  5
1DE5F
  8
AM_0
 10
140.077
 20
431.78399999999999
 30
0.0
 70
    32
  0
VERTEX
  5
1DE60
  8
AM_0
 10
139.995
 20
431.73000000000002
 30
0.0
 70
    32
  0
VERTEX
  5
1DE61
  8
AM_0
 10
139.91399999999999
 20
431.6749999999999
 30
0.0
 70
    32
  0
VERTEX
  5
1DE62
  8
AM_0
 10
139.834
 20
431.61900000000003
 30
0.0
 70
    32
  0
VERTEX
  5
1DE63
  8
AM_0
 10
139.75399999999999
 20
431.56200000000001
 30
0.0
 70
    32
  0
VERTEX
  5
1DE64
  8
AM_0
 10
139.67400000000001
 20
431.50400000000002
 30
0.0
 70
    32
  0
VERTEX
  5
1DE65
  8
AM_0
 10
139.596
 20
431.44499999999988
 30
0.0
 70
    32
  0
VERTEX
  5
1DE66
  8
AM_0
 10
139.518
 20
431.38499999999999
 30
0.0
 70
    32
  0
VERTEX
  5
1DE67
  8
AM_0
 10
139.441
 20
431.32400000000001
 30
0.0
 70
    32
  0
VERTEX
  5
1DE68
  8
AM_0
 10
139.36500000000001
 20
431.26299999999998
 30
0.0
 70
    32
  0
VERTEX
  5
1DE69
  8
AM_0
 10
139.28899999999999
 20
431.19999999999999
 30
0.0
 70
    32
  0
VERTEX
  5
1DE6A
  8
AM_0
 10
139.215
 20
431.13599999999991
 30
0.0
 70
    32
  0
VERTEX
  5
1DE6B
  8
AM_0
 10
139.14099999999999
 20
431.07199999999989
 30
0.0
 70
    32
  0
VERTEX
  5
1DE6C
  8
AM_0
 10
139.06800000000001
 20
431.00599999999997
 30
0.0
 70
    32
  0
VERTEX
  5
1DE6D
  8
AM_0
 10
138.995
 20
430.94
 30
0.0
 70
    32
  0
VERTEX
  5
1DE6E
  8
AM_0
 10
138.92400000000001
 20
430.87299999999999
 30
0.0
 70
    32
  0
VERTEX
  5
1DE6F
  8
AM_0
 10
138.85300000000001
 20
430.80399999999997
 30
0.0
 70
    32
  0
VERTEX
  5
1DE70
  8
AM_0
 10
138.78299999999999
 20
430.73500000000001
 30
0.0
 70
    32
  0
VERTEX
  5
1DE71
  8
AM_0
 10
138.714
 20
430.66599999999988
 30
0.0
 70
    32
  0
VERTEX
  5
1DE72
  8
AM_0
 10
138.64599999999999
 20
430.59500000000003
 30
0.0
 70
    32
  0
VERTEX
  5
1DE73
  8
AM_0
 10
138.57900000000001
 20
430.52300000000002
 30
0.0
 70
    32
  0
VERTEX
  5
1DE74
  8
AM_0
 10
138.512
 20
430.45099999999991
 30
0.0
 70
    32
  0
VERTEX
  5
1DE75
  8
AM_0
 10
138.447
 20
430.37799999999999
 30
0.0
 70
    32
  0
VERTEX
  5
1DE76
  8
AM_0
 10
138.38200000000001
 20
430.30399999999997
 30
0.0
 70
    32
  0
VERTEX
  5
1DE77
  8
AM_0
 10
138.31899999999999
 20
430.22899999999998
 30
0.0
 70
    32
  0
VERTEX
  5
1DE78
  8
AM_0
 10
138.256
 20
430.154
 30
0.0
 70
    32
  0
VERTEX
  5
1DE79
  8
AM_0
 10
138.19399999999999
 20
430.07699999999988
 30
0.0
 70
    32
  0
VERTEX
  5
1DE7A
  8
AM_0
 10
138.13300000000001
 20
430.0
 30
0.0
 70
    32
  0
VERTEX
  5
1DE7B
  8
AM_0
 10
138.07300000000001
 20
429.923
 30
0.0
 70
    32
  0
VERTEX
  5
1DE7C
  8
AM_0
 10
138.01400000000001
 20
429.84399999999999
 30
0.0
 70
    32
  0
VERTEX
  5
1DE7D
  8
AM_0
 10
137.95599999999999
 20
429.76499999999987
 30
0.0
 70
    32
  0
VERTEX
  5
1DE7E
  8
AM_0
 10
137.899
 20
429.685
 30
0.0
 70
    32
  0
VERTEX
  5
1DE7F
  8
AM_0
 10
137.84299999999999
 20
429.60399999999998
 30
0.0
 70
    32
  0
VERTEX
  5
1DE80
  8
AM_0
 10
137.7879999999999
 20
429.52300000000002
 30
0.0
 70
    32
  0
VERTEX
  5
1DE81
  8
AM_0
 10
137.73400000000001
 20
429.44099999999997
 30
0.0
 70
    32
  0
VERTEX
  5
1DE82
  8
AM_0
 10
137.68100000000001
 20
429.358
 30
0.0
 70
    32
  0
VERTEX
  5
1DE83
  8
AM_0
 10
137.62899999999999
 20
429.27499999999992
 30
0.0
 70
    32
  0
VERTEX
  5
1DE84
  8
AM_0
 10
137.578
 20
429.19099999999992
 30
0.0
 70
    32
  0
VERTEX
  5
1DE85
  8
AM_0
 10
137.52799999999999
 20
429.10699999999991
 30
0.0
 70
    32
  0
VERTEX
  5
1DE86
  8
AM_0
 10
137.47900000000001
 20
429.02199999999988
 30
0.0
 70
    32
  0
VERTEX
  5
1DE87
  8
AM_0
 10
137.43100000000001
 20
428.93599999999998
 30
0.0
 70
    32
  0
VERTEX
  5
1DE88
  8
AM_0
 10
137.38499999999999
 20
428.84999999999991
 30
0.0
 70
    32
  0
VERTEX
  5
1DE89
  8
AM_0
 10
137.339
 20
428.76299999999998
 30
0.0
 70
    32
  0
VERTEX
  5
1DE8A
  8
AM_0
 10
137.29400000000001
 20
428.67500000000001
 30
0.0
 70
    32
  0
VERTEX
  5
1DE8B
  8
AM_0
 10
137.251
 20
428.58699999999999
 30
0.0
 70
    32
  0
VERTEX
  5
1DE8C
  8
AM_0
 10
137.208
 20
428.49900000000002
 30
0.0
 70
    32
  0
VERTEX
  5
1DE8D
  8
AM_0
 10
137.167
 20
428.41000000000003
 30
0.0
 70
    32
  0
VERTEX
  5
1DE8E
  8
AM_0
 10
137.126
 20
428.31999999999988
 30
0.0
 70
    32
  0
VERTEX
  5
1DE8F
  8
AM_0
 10
137.08699999999999
 20
428.23000000000002
 30
0.0
 70
    32
  0
VERTEX
  5
1DE90
  8
AM_0
 10
137.04900000000001
 20
428.13999999999987
 30
0.0
 70
    32
  0
VERTEX
  5
1DE91
  8
AM_0
 10
137.012
 20
428.04899999999998
 30
0.0
 70
    32
  0
VERTEX
  5
1DE92
  8
AM_0
 10
136.976
 20
427.95800000000003
 30
0.0
 70
    32
  0
VERTEX
  5
1DE93
  8
AM_0
 10
136.941
 20
427.86599999999999
 30
0.0
 70
    32
  0
VERTEX
  5
1DE94
  8
AM_0
 10
136.90799999999999
 20
427.774
 30
0.0
 70
    32
  0
VERTEX
  5
1DE95
  8
AM_0
 10
136.875
 20
427.68099999999998
 30
0.0
 70
    32
  0
VERTEX
  5
1DE96
  8
AM_0
 10
136.84399999999999
 20
427.58799999999991
 30
0.0
 70
    32
  0
VERTEX
  5
1DE97
  8
AM_0
 10
136.81399999999999
 20
427.495
 30
0.0
 70
    32
  0
VERTEX
  5
1DE98
  8
AM_0
 10
136.785
 20
427.40100000000001
 30
0.0
 70
    32
  0
VERTEX
  5
1DE99
  8
AM_0
 10
136.75700000000001
 20
427.3069999999999
 30
0.0
 70
    32
  0
VERTEX
  5
1DE9A
  8
AM_0
 10
136.72999999999999
 20
427.21199999999999
 30
0.0
 70
    32
  0
VERTEX
  5
1DE9B
  8
AM_0
 10
136.70400000000001
 20
427.1169999999999
 30
0.0
 70
    32
  0
VERTEX
  5
1DE9C
  8
AM_0
 10
136.68000000000001
 20
427.02199999999999
 30
0.0
 70
    32
  0
VERTEX
  5
1DE9D
  8
AM_0
 10
136.65700000000001
 20
426.92699999999991
 30
0.0
 70
    32
  0
VERTEX
  5
1DE9E
  8
AM_0
 10
136.63399999999999
 20
426.8309999999999
 30
0.0
 70
    32
  0
VERTEX
  5
1DE9F
  8
AM_0
 10
136.614
 20
426.73500000000001
 30
0.0
 70
    32
  0
VERTEX
  5
1DEA0
  8
AM_0
 10
136.59399999999999
 20
426.63900000000001
 30
0.0
 70
    32
  0
VERTEX
  5
1DEA1
  8
AM_0
 10
136.57499999999999
 20
426.54300000000001
 30
0.0
 70
    32
  0
VERTEX
  5
1DEA2
  8
AM_0
 10
136.55799999999999
 20
426.44599999999991
 30
0.0
 70
    32
  0
VERTEX
  5
1DEA3
  8
AM_0
 10
136.542
 20
426.34899999999999
 30
0.0
 70
    32
  0
VERTEX
  5
1DEA4
  8
AM_0
 10
136.52699999999999
 20
426.2519999999999
 30
0.0
 70
    32
  0
VERTEX
  5
1DEA5
  8
AM_0
 10
136.51300000000001
 20
426.15499999999992
 30
0.0
 70
    32
  0
VERTEX
  5
1DEA6
  8
AM_0
 10
136.5
 20
426.05799999999999
 30
0.0
 70
    32
  0
VERTEX
  5
1DEA7
  8
AM_0
 10
136.489
 20
425.95999999999992
 30
0.0
 70
    32
  0
VERTEX
  5
1DEA8
  8
AM_0
 10
136.47900000000001
 20
425.86300000000011
 30
0.0
 70
    32
  0
VERTEX
  5
1DEA9
  8
AM_0
 10
136.47
 20
425.76499999999987
 30
0.0
 70
    32
  0
VERTEX
  5
1DEAA
  8
AM_0
 10
136.46199999999999
 20
425.66699999999992
 30
0.0
 70
    32
  0
VERTEX
  5
1DEAB
  8
AM_0
 10
136.45500000000001
 20
425.56900000000002
 30
0.0
 70
    32
  0
VERTEX
  5
1DEAC
  8
AM_0
 10
136.44999999999999
 20
425.471
 30
0.0
 70
    32
  0
VERTEX
  5
1DEAD
  8
AM_0
 10
136.44499999999999
 20
425.37299999999999
 30
0.0
 70
    32
  0
VERTEX
  5
1DEAE
  8
AM_0
 10
136.44200000000001
 20
425.27499999999992
 30
0.0
 70
    32
  0
VERTEX
  5
1DEAF
  8
AM_0
 10
136.441
 20
425.17699999999991
 30
0.0
 70
    32
  0
VERTEX
  5
1DEB0
  8
AM_0
 10
136.44
 20
425.07799999999997
 30
0.0
 70
    32
  0
SEQEND
  5
1DEB1
  8
AM_0
  0
LINE
  5
18DEF
  8
0
 10
126.4400403390875
 20
422.07805149420119
 30
0.0
 11
126.4400403390875
 21
392.07805149420119
 31
0.0
  0
LINE
  5
18DF1
  8
AM_0
 10
124.440044003273
 20
381.0775307193253
 30
0.0
 11
129.44004415378481
 21
381.0775307193253
 31
0.0
  0
LINE
  5
18DF2
  8
0
 10
126.4400403390875
 20
392.07805149420119
 30
0.0
 11
129.44004033908749
 21
392.07805149420119
 31
0.0
  0
LINE
  5
18DF3
  8
0
 10
126.4400403390875
 20
422.07805149420119
 30
0.0
 11
129.44004033908749
 21
422.07805149420119
 31
0.0
  0
LINE
  5
18DF4
  8
AM_0
 10
136.4400462420474
 20
425.07840964642043
 30
0.0
 11
136.4400462420474
 21
423.22813346392007
 31
0.0
  0
CIRCLE
  5
18DF6
  8
AM_0
 10
199.4400338216808
 20
446.07652966078689
 30
0.0
 40
10.000000001249999
  0
LINE
  5
18DF7
  8
AM_0
 10
182.44003381955611
 20
446.07652966078689
 30
0.0
 11
182.44003381955571
 21
436.64795823103702
 31
0.0
  0
ARC
  5
18DF8
  8
AM_0
 10
177.44003381893091
 20
436.64795823103702
 30
0.0
 40
5.0000000006249961
 50
314.4153085971879
 51
0.0
1001
GENIUS_GENOBJ-N-FIL_13
1002
{
1000
OWNER
1000
GEN
1002
}
1001
GENIUS_GENODEF_13
1002
{
1000
HIER
1070
     0
1002
}
1002
{
1000
MANEDIT
1070
     0
1002
}
1002
{
1000
NOSEL
1070
     0
1002
}
1002
{
1000
BEHIND
1070
     0
1002
}
1002
{
1000
OTHER
1070
     0
1002
}
1002
{
1000
REACTOR
1002
}
  0
LINE
  5
18DFD
  8
ﾁｭｳｼﾝｾﾝ1
 10
267.20111578431738
 20
449.0765292291793
 30
0.0
 11
306.66287371938802
 21
449.0765292291793
 31
0.0
  0
POLYLINE
  5
18DFE
  8
AM_0
 66
     1
 10
0.0
 20
0.0
 30
0.0
 70
     8
  0
VERTEX
  5
1DEB2
  8
AM_0
 10
262.41000000000003
 20
425.77600000000001
 30
0.0
 70
    32
  0
VERTEX
  5
1DEB3
  8
AM_0
 10
262.40100000000001
 20
425.86799999999999
 30
0.0
 70
    32
  0
VERTEX
  5
1DEB4
  8
AM_0
 10
262.39099999999991
 20
425.95999999999992
 30
0.0
 70
    32
  0
VERTEX
  5
1DEB5
  8
AM_0
 10
262.38099999999997
 20
426.05199999999991
 30
0.0
 70
    32
  0
VERTEX
  5
1DEB6
  8
AM_0
 10
262.36900000000003
 20
426.14400000000001
 30
0.0
 70
    32
  0
VERTEX
  5
1DEB7
  8
AM_0
 10
262.35599999999999
 20
426.23599999999999
 30
0.0
 70
    32
  0
VERTEX
  5
1DEB8
  8
AM_0
 10
262.34199999999998
 20
426.32799999999992
 30
0.0
 70
    32
  0
VERTEX
  5
1DEB9
  8
AM_0
 10
262.327
 20
426.41899999999998
 30
0.0
 70
    32
  0
VERTEX
  5
1DEBA
  8
AM_0
 10
262.31099999999998
 20
426.51099999999991
 30
0.0
 70
    32
  0
VERTEX
  5
1DEBB
  8
AM_0
 10
262.29399999999998
 20
426.60199999999998
 30
0.0
 70
    32
  0
VERTEX
  5
1DEBC
  8
AM_0
 10
262.27499999999998
 20
426.69299999999998
 30
0.0
 70
    32
  0
VERTEX
  5
1DEBD
  8
AM_0
 10
262.25599999999997
 20
426.78300000000002
 30
0.0
 70
    32
  0
VERTEX
  5
1DEBE
  8
AM_0
 10
262.23599999999999
 20
426.87400000000002
 30
0.0
 70
    32
  0
VERTEX
  5
1DEBF
  8
AM_0
 10
262.21499999999997
 20
426.96399999999988
 30
0.0
 70
    32
  0
VERTEX
  5
1DEC0
  8
AM_0
 10
262.19200000000001
 20
427.05399999999997
 30
0.0
 70
    32
  0
VERTEX
  5
1DEC1
  8
AM_0
 10
262.16899999999998
 20
427.14400000000001
 30
0.0
 70
    32
  0
VERTEX
  5
1DEC2
  8
AM_0
 10
262.14400000000001
 20
427.233
 30
0.0
 70
    32
  0
VERTEX
  5
1DEC3
  8
AM_0
 10
262.11900000000003
 20
427.32199999999989
 30
0.0
 70
    32
  0
VERTEX
  5
1DEC4
  8
AM_0
 10
262.09199999999998
 20
427.411
 30
0.0
 70
    32
  0
VERTEX
  5
1DEC5
  8
AM_0
 10
262.065
 20
427.5
 30
0.0
 70
    32
  0
VERTEX
  5
1DEC6
  8
AM_0
 10
262.036
 20
427.58799999999991
 30
0.0
 70
    32
  0
VERTEX
  5
1DEC7
  8
AM_0
 10
262.00700000000001
 20
427.67599999999999
 30
0.0
 70
    32
  0
VERTEX
  5
1DEC8
  8
AM_0
 10
261.976
 20
427.76299999999998
 30
0.0
 70
    32
  0
VERTEX
  5
1DEC9
  8
AM_0
 10
261.94400000000002
 20
427.85099999999989
 30
0.0
 70
    32
  0
VERTEX
  5
1DECA
  8
AM_0
 10
261.91200000000009
 20
427.9369999999999
 30
0.0
 70
    32
  0
VERTEX
  5
1DECB
  8
AM_0
 10
261.87799999999999
 20
428.024
 30
0.0
 70
    32
  0
VERTEX
  5
1DECC
  8
AM_0
 10
261.84399999999999
 20
428.11000000000001
 30
0.0
 70
    32
  0
VERTEX
  5
1DECD
  8
AM_0
 10
261.80799999999999
 20
428.19499999999999
 30
0.0
 70
    32
  0
VERTEX
  5
1DECE
  8
AM_0
 10
261.77100000000002
 20
428.28100000000001
 30
0.0
 70
    32
  0
VERTEX
  5
1DECF
  8
AM_0
 10
261.73399999999998
 20
428.36500000000001
 30
0.0
 70
    32
  0
VERTEX
  5
1DED0
  8
AM_0
 10
261.69499999999999
 20
428.44999999999999
 30
0.0
 70
    32
  0
VERTEX
  5
1DED1
  8
AM_0
 10
261.65600000000001
 20
428.53300000000002
 30
0.0
 70
    32
  0
VERTEX
  5
1DED2
  8
AM_0
 10
261.61500000000001
 20
428.6169999999999
 30
0.0
 70
    32
  0
VERTEX
  5
1DED3
  8
AM_0
 10
261.57400000000001
 20
428.69999999999987
 30
0.0
 70
    32
  0
VERTEX
  5
1DED4
  8
AM_0
 10
261.53100000000001
 20
428.78199999999993
 30
0.0
 70
    32
  0
VERTEX
  5
1DED5
  8
AM_0
 10
261.488
 20
428.86399999999998
 30
0.0
 70
    32
  0
VERTEX
  5
1DED6
  8
AM_0
 10
261.44299999999998
 20
428.94600000000003
 30
0.0
 70
    32
  0
VERTEX
  5
1DED7
  8
AM_0
 10
261.39800000000002
 20
429.0259999999999
 30
0.0
 70
    32
  0
VERTEX
  5
1DED8
  8
AM_0
 10
261.35199999999998
 20
429.10699999999991
 30
0.0
 70
    32
  0
VERTEX
  5
1DED9
  8
AM_0
 10
261.30500000000001
 20
429.1869999999999
 30
0.0
 70
    32
  0
VERTEX
  5
1DEDA
  8
AM_0
 10
261.25700000000001
 20
429.26599999999991
 30
0.0
 70
    32
  0
VERTEX
  5
1DEDB
  8
AM_0
 10
261.20800000000003
 20
429.34499999999991
 30
0.0
 70
    32
  0
VERTEX
  5
1DEDC
  8
AM_0
 10
261.15800000000002
 20
429.42299999999989
 30
0.0
 70
    32
  0
VERTEX
  5
1DEDD
  8
AM_0
 10
261.10700000000003
 20
429.49999999999989
 30
0.0
 70
    32
  0
VERTEX
  5
1DEDE
  8
AM_0
 10
261.05500000000001
 20
429.577
 30
0.0
 70
    32
  0
VERTEX
  5
1DEDF
  8
AM_0
 10
261.00299999999999
 20
429.654
 30
0.0
 70
    32
  0
VERTEX
  5
1DEE0
  8
AM_0
 10
260.94900000000001
 20
429.7299999999999
 30
0.0
 70
    32
  0
VERTEX
  5
1DEE1
  8
AM_0
 10
260.89499999999998
 20
429.80499999999989
 30
0.0
 70
    32
  0
VERTEX
  5
1DEE2
  8
AM_0
 10
260.83999999999997
 20
429.87900000000002
 30
0.0
 70
    32
  0
VERTEX
  5
1DEE3
  8
AM_0
 10
260.78399999999999
 20
429.95299999999997
 30
0.0
 70
    32
  0
VERTEX
  5
1DEE4
  8
AM_0
 10
260.72699999999998
 20
430.02600000000001
 30
0.0
 70
    32
  0
VERTEX
  5
1DEE5
  8
AM_0
 10
260.66899999999998
 20
430.09899999999988
 30
0.0
 70
    32
  0
VERTEX
  5
1DEE6
  8
AM_0
 10
260.61000000000001
 20
430.17099999999988
 30
0.0
 70
    32
  0
VERTEX
  5
1DEE7
  8
AM_0
 10
260.55099999999999
 20
430.2419999999999
 30
0.0
 70
    32
  0
VERTEX
  5
1DEE8
  8
AM_0
 10
260.49099999999999
 20
430.3119999999999
 30
0.0
 70
    32
  0
VERTEX
  5
1DEE9
  8
AM_0
 10
260.42899999999997
 20
430.38199999999989
 30
0.0
 70
    32
  0
VERTEX
  5
1DEEA
  8
AM_0
 10
260.36799999999999
 20
430.45099999999991
 30
0.0
 70
    32
  0
VERTEX
  5
1DEEB
  8
AM_0
 10
260.30500000000001
 20
430.51900000000001
 30
0.0
 70
    32
  0
VERTEX
  5
1DEEC
  8
AM_0
 10
260.24200000000002
 20
430.58699999999988
 30
0.0
 70
    32
  0
VERTEX
  5
1DEED
  8
AM_0
 10
260.17700000000002
 20
430.654
 30
0.0
 70
    32
  0
VERTEX
  5
1DEEE
  8
AM_0
 10
260.11200000000002
 20
430.72000000000003
 30
0.0
 70
    32
  0
VERTEX
  5
1DEEF
  8
AM_0
 10
260.04700000000003
 20
430.78500000000003
 30
0.0
 70
    32
  0
VERTEX
  5
1DEF0
  8
AM_0
 10
259.98000000000002
 20
430.85000000000002
 30
0.0
 70
    32
  0
VERTEX
  5
1DEF1
  8
AM_0
 10
259.91300000000001
 20
430.91399999999999
 30
0.0
 70
    32
  0
VERTEX
  5
1DEF2
  8
AM_0
 10
259.84500000000003
 20
430.97699999999992
 30
0.0
 70
    32
  0
VERTEX
  5
1DEF3
  8
AM_0
 10
259.77600000000001
 20
431.03899999999987
 30
0.0
 70
    32
  0
VERTEX
  5
1DEF4
  8
AM_0
 10
259.70699999999999
 20
431.09999999999991
 30
0.0
 70
    32
  0
VERTEX
  5
1DEF5
  8
AM_0
 10
259.63600000000002
 20
431.16099999999989
 30
0.0
 70
    32
  0
VERTEX
  5
1DEF6
  8
AM_0
 10
259.56599999999997
 20
431.221
 30
0.0
 70
    32
  0
VERTEX
  5
1DEF7
  8
AM_0
 10
259.49400000000003
 20
431.27999999999997
 30
0.0
 70
    32
  0
VERTEX
  5
1DEF8
  8
AM_0
 10
259.42200000000003
 20
431.33800000000002
 30
0.0
 70
    32
  0
VERTEX
  5
1DEF9
  8
AM_0
 10
259.34899999999999
 20
431.39499999999998
 30
0.0
 70
    32
  0
VERTEX
  5
1DEFA
  8
AM_0
 10
259.27499999999998
 20
431.45199999999988
 30
0.0
 70
    32
  0
VERTEX
  5
1DEFB
  8
AM_0
 10
259.20100000000002
 20
431.50699999999989
 30
0.0
 70
    32
  0
VERTEX
  5
1DEFC
  8
AM_0
 10
259.12599999999998
 20
431.56200000000001
 30
0.0
 70
    32
  0
VERTEX
  5
1DEFD
  8
AM_0
 10
259.05099999999999
 20
431.61599999999987
 30
0.0
 70
    32
  0
VERTEX
  5
1DEFE
  8
AM_0
 10
258.97500000000002
 20
431.66899999999998
 30
0.0
 70
    32
  0
VERTEX
  5
1DEFF
  8
AM_0
 10
258.89800000000002
 20
431.721
 30
0.0
 70
    32
  0
VERTEX
  5
1DF00
  8
AM_0
 10
258.82100000000003
 20
431.77199999999999
 30
0.0
 70
    32
  0
VERTEX
  5
1DF01
  8
AM_0
 10
258.74299999999999
 20
431.82299999999998
 30
0.0
 70
    32
  0
VERTEX
  5
1DF02
  8
AM_0
 10
258.66500000000002
 20
431.8719999999999
 30
0.0
 70
    32
  0
VERTEX
  5
1DF03
  8
AM_0
 10
258.58600000000001
 20
431.92099999999988
 30
0.0
 70
    32
  0
VERTEX
  5
1DF04
  8
AM_0
 10
258.50599999999997
 20
431.9679999999999
 30
0.0
 70
    32
  0
VERTEX
  5
1DF05
  8
AM_0
 10
258.42599999999999
 20
432.01499999999987
 30
0.0
 70
    32
  0
VERTEX
  5
1DF06
  8
AM_0
 10
258.34500000000003
 20
432.06099999999998
 30
0.0
 70
    32
  0
VERTEX
  5
1DF07
  8
AM_0
 10
258.26400000000001
 20
432.10500000000002
 30
0.0
 70
    32
  0
VERTEX
  5
1DF08
  8
AM_0
 10
258.18200000000002
 20
432.14899999999989
 30
0.0
 70
    32
  0
VERTEX
  5
1DF09
  8
AM_0
 10
258.10000000000002
 20
432.19199999999989
 30
0.0
 70
    32
  0
VERTEX
  5
1DF0A
  8
AM_0
 10
258.017
 20
432.23399999999998
 30
0.0
 70
    32
  0
VERTEX
  5
1DF0B
  8
AM_0
 10
257.93400000000003
 20
432.27499999999998
 30
0.0
 70
    32
  0
VERTEX
  5
1DF0C
  8
AM_0
 10
257.851
 20
432.315
 30
0.0
 70
    32
  0
VERTEX
  5
1DF0D
  8
AM_0
 10
257.76600000000002
 20
432.35399999999998
 30
0.0
 70
    32
  0
VERTEX
  5
1DF0E
  8
AM_0
 10
257.68200000000002
 20
432.392
 30
0.0
 70
    32
  0
VERTEX
  5
1DF0F
  8
AM_0
 10
257.59699999999998
 20
432.42899999999997
 30
0.0
 70
    32
  0
VERTEX
  5
1DF10
  8
AM_0
 10
257.512
 20
432.46499999999997
 30
0.0
 70
    32
  0
VERTEX
  5
1DF11
  8
AM_0
 10
257.42599999999999
 20
432.50099999999992
 30
0.0
 70
    32
  0
VERTEX
  5
1DF12
  8
AM_0
 10
257.33999999999997
 20
432.53500000000003
 30
0.0
 70
    32
  0
VERTEX
  5
1DF13
  8
AM_0
 10
257.25299999999999
 20
432.56799999999998
 30
0.0
 70
    32
  0
VERTEX
  5
1DF14
  8
AM_0
 10
257.166
 20
432.60000000000002
 30
0.0
 70
    32
  0
VERTEX
  5
1DF15
  8
AM_0
 10
257.07900000000001
 20
432.63099999999991
 30
0.0
 70
    32
  0
VERTEX
  5
1DF16
  8
AM_0
 10
256.99099999999999
 20
432.661
 30
0.0
 70
    32
  0
VERTEX
  5
1DF17
  8
AM_0
 10
256.90300000000002
 20
432.69
 30
0.0
 70
    32
  0
VERTEX
  5
1DF18
  8
AM_0
 10
256.81400000000002
 20
432.71800000000002
 30
0.0
 70
    32
  0
VERTEX
  5
1DF19
  8
AM_0
 10
256.726
 20
432.74499999999989
 30
0.0
 70
    32
  0
VERTEX
  5
1DF1A
  8
AM_0
 10
256.637
 20
432.7709999999999
 30
0.0
 70
    32
  0
VERTEX
  5
1DF1B
  8
AM_0
 10
256.54700000000003
 20
432.79599999999999
 30
0.0
 70
    32
  0
VERTEX
  5
1DF1C
  8
AM_0
 10
256.45800000000003
 20
432.81999999999988
 30
0.0
 70
    32
  0
VERTEX
  5
1DF1D
  8
AM_0
 10
256.36799999999999
 20
432.8429999999999
 30
0.0
 70
    32
  0
VERTEX
  5
1DF1E
  8
AM_0
 10
256.27800000000002
 20
432.86500000000001
 30
0.0
 70
    32
  0
VERTEX
  5
1DF1F
  8
AM_0
 10
256.18799999999999
 20
432.88499999999999
 30
0.0
 70
    32
  0
VERTEX
  5
1DF20
  8
AM_0
 10
256.09699999999998
 20
432.90499999999992
 30
0.0
 70
    32
  0
VERTEX
  5
1DF21
  8
AM_0
 10
256.00599999999997
 20
432.92399999999998
 30
0.0
 70
    32
  0
VERTEX
  5
1DF22
  8
AM_0
 10
255.91499999999999
 20
432.94099999999997
 30
0.0
 70
    32
  0
VERTEX
  5
1DF23
  8
AM_0
 10
255.82400000000001
 20
432.95799999999991
 30
0.0
 70
    32
  0
VERTEX
  5
1DF24
  8
AM_0
 10
255.732
 20
432.97300000000001
 30
0.0
 70
    32
  0
VERTEX
  5
1DF25
  8
AM_0
 10
255.64099999999999
 20
432.98800000000011
 30
0.0
 70
    32
  0
VERTEX
  5
1DF26
  8
AM_0
 10
255.54900000000001
 20
433.00099999999992
 30
0.0
 70
    32
  0
VERTEX
  5
1DF27
  8
AM_0
 10
255.45699999999999
 20
433.01400000000001
 30
0.0
 70
    32
  0
VERTEX
  5
1DF28
  8
AM_0
 10
255.36500000000001
 20
433.02499999999992
 30
0.0
 70
    32
  0
VERTEX
  5
1DF29
  8
AM_0
 10
255.273
 20
433.03500000000003
 30
0.0
 70
    32
  0
VERTEX
  5
1DF2A
  8
AM_0
 10
255.18100000000001
 20
433.04399999999998
 30
0.0
 70
    32
  0
VERTEX
  5
1DF2B
  8
AM_0
 10
255.08799999999999
 20
433.05199999999991
 30
0.0
 70
    32
  0
VERTEX
  5
1DF2C
  8
AM_0
 10
254.99600000000001
 20
433.05899999999991
 30
0.0
 70
    32
  0
VERTEX
  5
1DF2D
  8
AM_0
 10
254.90299999999999
 20
433.065
 30
0.0
 70
    32
  0
VERTEX
  5
1DF2E
  8
AM_0
 10
254.81100000000001
 20
433.06999999999999
 30
0.0
 70
    32
  0
VERTEX
  5
1DF2F
  8
AM_0
 10
254.71799999999999
 20
433.07400000000001
 30
0.0
 70
    32
  0
VERTEX
  5
1DF30
  8
AM_0
 10
254.625
 20
433.07599999999991
 30
0.0
 70
    32
  0
VERTEX
  5
1DF31
  8
AM_0
 10
254.53299999999999
 20
433.07799999999997
 30
0.0
 70
    32
  0
VERTEX
  5
1DF32
  8
AM_0
 10
254.44
 20
433.07900000000001
 30
0.0
 70
    32
  0
SEQEND
  5
1DF33
  8
AM_0
  0
ARC
  5
18E01
  8
0
 10
269.44003246999449
 20
431.02432000163282
 30
0.0
 40
5.0
 50
271.9999999999971
 51
0.000000026954005
1001
GENIUS_GENOBJ-N-FIL_13
1002
{
1000
OWNER
1000
GEN
1002
}
1001
GENIUS_GENODEF_13
1002
{
1000
HIER
1070
     0
1002
}
1002
{
1000
MANEDIT
1070
     0
1002
}
1002
{
1000
NOSEL
1070
     0
1002
}
1002
{
1000
BEHIND
1070
     0
1002
}
1002
{
1000
OTHER
1070
     0
1002
}
1002
{
1000
REACTOR
1002
}
  0
LINE
  5
18E02
  8
0
 10
242.44004755534729
 20
425.07841203065368
 30
0.0
 11
269.61452995350697
 21
426.0273658665372
 31
0.0
  0
LINE
  5
18E12
  8
AM_0
 10
216.44003382380581
 20
446.07652966078689
 30
0.0
 11
216.44003382380581
 21
436.64795823103702
 31
0.0
  0
ARC
  5
18E13
  8
AM_0
 10
221.44003382443111
 20
436.64795823103702
 30
0.0
 40
5.0000000006249961
 50
180.0
 51
225.58469140281031
1001
GENIUS_GENOBJ-N-FIL_13
1002
{
1000
OWNER
1000
GEN
1002
}
1001
GENIUS_GENODEF_13
1002
{
1000
HIER
1070
     0
1002
}
1002
{
1000
MANEDIT
1070
     0
1002
}
1002
{
1000
NOSEL
1070
     0
1002
}
1002
{
1000
BEHIND
1070
     0
1002
}
1002
{
1000
OTHER
1070
     0
1002
}
1002
{
1000
REACTOR
1002
}
  0
LINE
  5
18E17
  8
AM_0
 10
274.44003246999449
 20
431.02432000398483
 30
0.0
 11
274.44003245386739
 21
465.30644366611517
 31
0.0
  0
LINE
  5
18E19
  8
0
 10
277.33533396375992
 20
468.30461614858359
 30
0.0
 11
299.4400324520941
 21
469.0765292291793
 31
0.0
  0
ARC
  5
18E1A
  8
0
 10
277.44003245386739
 20
465.30644366752682
 30
0.0
 40
3.0
 50
92.000000000003624
 51
180.00000002695401
1001
GENIUS_GENOBJ-N-FIL_13
1002
{
1000
OWNER
1000
GEN
1002
}
1001
GENIUS_GENODEF_13
1002
{
1000
HIER
1070
     0
1002
}
1002
{
1000
MANEDIT
1070
     0
1002
}
1002
{
1000
NOSEL
1070
     0
1002
}
1002
{
1000
BEHIND
1070
     0
1002
}
1002
{
1000
OTHER
1070
     0
1002
}
1002
{
1000
REACTOR
1002
}
  0
LINE
  5
18E1E
  8
ﾁｭｳｼﾝｾﾝ1
 10
526.25794568243793
 20
431.07652923188249
 30
0.0
 11
526.2579456832492
 21
467.07652923188277
 31
0.0
1001
GENIUS_GENODEF_13
1002
{
1000
HIER
1070
     0
1002
}
1002
{
1000
MANEDIT
1070
     0
1002
}
1002
{
1000
NOSEL
1070
     0
1002
}
1002
{
1000
BEHIND
1070
     0
1002
}
1002
{
1000
OTHER
1070
     0
1002
}
1002
{
1000
REACTOR
1002
}
1001
GENIUS_GENOBJ-N-CEN_13
1002
{
1000
OWNER
1000
GEN
1002
}
  0
LINE
  5
18E1F
  8
0
 10
499.83210294895167
 20
413.41772221044022
 30
0.0
 11
506.80282747183122
 21
433.09221268820431
 31
0.0
  0
LINE
  5
18E20
  8
0
 10
543.84490067670367
 20
436.43932170632792
 30
0.0
 11
559.73282704909457
 21
420.55139533393771
 31
0.0
  0
LINE
  5
18E21
  8
0
 10
538.89515320839803
 20
431.48957423802278
 30
0.0
 11
554.78307958078881
 21
415.601647865632
 31
0.0
  0
ARC
  5
18E22
  8
0
 10
526.25794568284357
 20
449.07652923188311
 30
0.0
 40
18.0
 50
230.13622143635109
 51
20.354406391052141
  0
LINE
  5
18E23
  8
0
 10
507.28427654729057
 20
455.40107502003502
 30
0.0
 11
493.2843050728481
 21
413.40109027697542
 31
0.0
  0
LINE
  5
18E24
  8
0
 10
552.30820584663536
 20
418.07652159978483
 30
0.0
 11
509.25797168237051
 21
418.07652159978483
 31
0.0
  0
ARC
  5
18E25
  8
0
 10
509.25797168237051
 20
408.076521599785
 30
0.0
 40
10.0
 50
90.0
 51
180.0
1001
GENIUS_GENOBJ-N-FIL_13
1002
{
1000
OWNER
1000
GEN
1002
}
1001
GENIUS_GENODEF_13
1002
{
1000
HIER
1070
     0
1002
}
1002
{
1000
MANEDIT
1070
     0
1002
}
1002
{
1000
NOSEL
1070
     0
1002
}
1002
{
1000
BEHIND
1070
     0
1002
}
1002
{
1000
OTHER
1070
     0
1002
}
1002
{
1000
REACTOR
1002
}
  0
ARC
  5
18E26
  8
0
 10
509.25797213390541
 20
410.07811158361
 30
0.0
 40
10.0000004515349
 50
160.49062782740381
 51
180.0
  0
ARC
  5
18E27
  8
0
 10
512.2579742109657
 20
407.07654448796819
 30
0.0
 40
20.0
 50
161.56507995583269
 51
180.0
  0
CIRCLE
  5
18E28
  8
0
 10
512.25793571511156
 20
407.0765659283569
 30
0.0
 40
6.5
  0
CIRCLE
  5
18E29
  8
0
  6
CONTINUOUS
 62
     2
 10
512.2579742109657
 20
407.0765215997846
 30
0.0
 40
8.0
  0
ARC
  5
18E2A
  8
0
 10
557.25795331494169
 20
418.07652159978483
 30
0.0
 40
3.499999999999988
 50
225.00000000000031
 51
45.00000000000027
  0
CIRCLE
  5
18E2B
  8
0
 10
526.25794568284357
 20
449.07652923188311
 30
0.0
 40
9.0
  0
ARC
  5
18E2C
  8
0
 10
526.25794568284346
 20
449.07652923188272
 30
0.0
 40
19.99999999729641
 50
90.0
 51
161.56507995583269
  0
LINE
  5
18E2D
  8
ﾁｭｳｼﾝｾﾝ1
 10
508.25794568284317
 20
449.07652940668061
 30
0.0
 11
544.25794568284346
 21
449.07652940586962
 31
0.0
1001
GENIUS_GENOBJ-N-CEN_13
1002
{
1000
OWNER
1000
GEN
1002
}
1001
GENIUS_GENODEF_13
1002
{
1000
HIER
1070
     0
1002
}
1002
{
1000
MANEDIT
1070
     0
1002
}
1002
{
1000
NOSEL
1070
     0
1002
}
1002
{
1000
BEHIND
1070
     0
1002
}
1002
{
1000
OTHER
1070
     0
1002
}
1002
{
1000
REACTOR
1002
}
  0
ARC
  5
18E2E
  8
0
 10
511.51576185150321
 20
431.42240745018682
 30
0.0
 40
5.0
 50
50.136221436351072
 51
160.49062782741061
1001
GENIUS_GENODEF_13
1002
{
1000
HIER
1070
     0
1002
}
1002
{
1000
MANEDIT
1070
     0
1002
}
1002
{
1000
NOSEL
1070
     0
1002
}
1002
{
1000
BEHIND
1070
     0
1002
}
1002
{
1000
OTHER
1070
     0
1002
}
1002
{
1000
REACTOR
1002
}
1001
GENIUS_GENOBJ-N-FIL_13
1002
{
1000
OWNER
1000
GEN
1002
}
  0
ARC
  5
18E2F
  8
0
 10
547.82180433669419
 20
457.07652922917941
 30
0.0
 40
5.0
 50
89.999999999996732
 51
200.35440639105209
1001
GENIUS_GENODEF_13
1002
{
1000
HIER
1070
     0
1002
}
1002
{
1000
MANEDIT
1070
     0
1002
}
1002
{
1000
NOSEL
1070
     0
1002
}
1002
{
1000
BEHIND
1070
     0
1002
}
1002
{
1000
OTHER
1070
     0
1002
}
1002
{
1000
REACTOR
1002
}
1001
GENIUS_GENOBJ-N-FIL_13
1002
{
1000
OWNER
1000
GEN
1002
}
  0
ARC
  5
18E30
  8
0
 10
535.35961930246515
 20
427.95404033209002
 30
0.0
 40
5.0
 50
45.00000000000027
 51
113.3111943818583
1001
GENIUS_GENODEF_13
1002
{
1000
HIER
1070
     0
1002
}
1002
{
1000
MANEDIT
1070
     0
1002
}
1002
{
1000
NOSEL
1070
     0
1002
}
1002
{
1000
BEHIND
1070
     0
1002
}
1002
{
1000
OTHER
1070
     0
1002
}
1002
{
1000
REACTOR
1002
}
1001
GENIUS_GENOBJ-N-FIL_13
1002
{
1000
OWNER
1000
GEN
1002
}
  0
ARC
  5
18E31
  8
0
 10
547.38043458263655
 20
439.97485561226091
 30
0.0
 40
5.0
 50
156.6888056181414
 51
225.00000000000031
1001
GENIUS_GENOBJ-N-FIL_13
1002
{
1000
OWNER
1000
GEN
1002
}
1001
GENIUS_GENODEF_13
1002
{
1000
HIER
1070
     0
1002
}
1002
{
1000
MANEDIT
1070
     0
1002
}
1002
{
1000
NOSEL
1070
     0
1002
}
1002
{
1000
BEHIND
1070
     0
1002
}
1002
{
1000
OTHER
1070
     0
1002
}
1002
{
1000
REACTOR
1002
}
  0
LINE
  5
18E3E
  8
AM_0
 10
754.25794213686174
 20
462.07914961661749
 30
0.0
 11
754.25794213686152
 21
344.0767724377983
 31
0.0
  0
LINE
  5
18E3F
  8
AM_0
 10
740.25794213266124
 20
344.07678961661719
 30
0.0
 11
740.25794213266124
 21
432.07854961661718
 31
0.0
  0
LINE
  5
18E40
  8
AM_0
 10
723.25794820873489
 20
252.0749468747486
 30
0.0
 11
723.25794820873523
 21
410.07811158360971
 31
0.0
  0
LINE
  5
18E41
  8
AM_0
 10
730.25794820873489
 20
255.07651397039061
 30
0.0
 11
730.25794820873523
 21
407.07652159978511
 31
0.0
  0
LINE
  5
18E42
  8
ﾁｭｳｼﾝｾﾝ1
 10
578.2579742109657
 20
479.07652922917907
 30
0.0
 11
578.2579742109657
 21
183.0765292291795
 31
0.0
  0
LINE
  5
18E45
  8
ﾁｭｳｼﾝｾﾝ1
 10
1056.53
 20
344.0767749707004
 30
0.0
 11
710.66873246837736
 21
344.07679078875321
 31
0.0
  0
LINE
  5
18E4F
  8
AM_0
 10
740.25794213266124
 20
305.01503881650569
 30
0.0
 11
754.25794213686152
 21
305.01503881650569
 31
0.0
  0
LINE
  5
18E50
  8
AM_0
 10
754.25794213686152
 20
256.07502961661748
 30
0.0
 11
740.25794213266124
 21
256.07502961661748
 31
0.0
  0
ARC
  5
18E51
  8
0
 10
710.25797421096547
 20
255.07651397039049
 30
0.0
 40
20.0
 50
341.56507995583269
 51
0.0
  0
CIRCLE
  5
18E52
  8
AM_0
 10
611.2579742109657
 20
247.076536858574
 30
0.0
 40
8.0
  0
ARC
  5
18E53
  8
0
 10
611.25797421096524
 20
247.07653685857409
 30
0.0
 40
12.0
 50
6.7563270305881966
 51
173.24367296941179
  0
CIRCLE
  5
18E54
  8
0
 10
710.25793571511167
 20
255.0765582989624
 30
0.0
 40
6.5
  0
CIRCLE
  5
18E55
  8
0
  6
CONTINUOUS
 62
     2
 10
710.25797421096547
 20
255.07651397039029
 30
0.0
 40
8.0
  0
CIRCLE
  5
18E56
  8
AM_0
 10
611.2579742109657
 20
247.076536858574
 30
0.0
 40
8.5
  0
LINE
  5
18E58
  8
0
 10
661.75799510698948
 20
244.076536858574
 30
0.0
 11
628.13991722709955
 21
244.076536858574
 31
0.0
  0
POLYLINE
  5
18E5C
  8
AM_0
 66
     1
 10
0.0
 20
0.0
 30
0.0
 70
     1
  0
VERTEX
  5
18E5D
  8
AM_0
 10
615.2579742109657
 20
244.76713578181551
 30
0.0
  0
VERTEX
  5
18E5E
  8
AM_0
 10
611.2579742109657
 20
242.45773470505699
 30
0.0
  0
VERTEX
  5
18E5F
  8
AM_0
 10
607.2579742109657
 20
244.76713578181551
 30
0.0
  0
VERTEX
  5
18E60
  8
AM_0
 10
607.2579742109657
 20
249.38593793533249
 30
0.0
  0
VERTEX
  5
18E61
  8
AM_0
 10
611.2579742109657
 20
251.69533901209101
 30
0.0
  0
VERTEX
  5
18E62
  8
AM_0
 10
615.2579742109657
 20
249.38593793533249
 30
0.0
  0
SEQEND
  5
18E63
  8
AM_0
  0
ARC
  5
18E64
  8
0
 10
594.37603119483151
 20
249.07653685857409
 30
0.0
 40
5.0
 50
270.0
 51
353.24367296941188
1001
GENIUS_GENOBJ-N-FIL_13
1002
{
1000
OWNER
1000
GEN
1002
}
1001
GENIUS_GENODEF_13
1002
{
1000
HIER
1070
     0
1002
}
1002
{
1000
MANEDIT
1070
     0
1002
}
1002
{
1000
NOSEL
1070
     0
1002
}
1002
{
1000
BEHIND
1070
     0
1002
}
1002
{
1000
OTHER
1070
     0
1002
}
1002
{
1000
REACTOR
1002
}
  0
ARC
  5
18E65
  8
0
 10
628.13991722709955
 20
249.07653685857409
 30
0.0
 40
5.0
 50
186.75632703058821
 51
270.0
1001
GENIUS_GENODEF_13
1002
{
1000
HIER
1070
     0
1002
}
1002
{
1000
MANEDIT
1070
     0
1002
}
1002
{
1000
NOSEL
1070
     0
1002
}
1002
{
1000
BEHIND
1070
     0
1002
}
1002
{
1000
OTHER
1070
     0
1002
}
1002
{
1000
REACTOR
1002
}
1001
GENIUS_GENOBJ-N-FIL_13
1002
{
1000
OWNER
1000
GEN
1002
}
  0
ARC
  5
18E67
  8
0
 10
696.25800273908771
 20
213.07652922647591
 30
0.0
 40
19.99999999729641
 50
270.0
 51
341.56507995583269
  0
CIRCLE
  5
18E68
  8
0
 10
696.25797420826188
 20
213.07652922647571
 30
0.0
 40
9.0
  0
LINE
  5
18E6A
  8
0
 10
670.2077425752957
 20
244.076536858574
 30
0.0
 11
713.25797673956072
 21
244.0765368585738
 31
0.0
  0
ARC
  5
18E6B
  8
0
 10
696.25797420826188
 20
213.07652922264521
 30
0.0
 40
18.0
 50
50.136221439750997
 51
200.35440638087391
  0
ARC
  5
18E6C
  8
0
 10
675.1355138392945
 20
222.17820284609761
 30
0.0
 40
5.0
 50
336.68880561814137
 51
45.00000000000027
1001
GENIUS_GENOBJ-N-FIL_13
1002
{
1000
OWNER
1000
GEN
1002
}
1001
GENIUS_GENODEF_13
1002
{
1000
HIER
1070
     0
1002
}
1002
{
1000
MANEDIT
1070
     0
1002
}
1002
{
1000
NOSEL
1070
     0
1002
}
1002
{
1000
BEHIND
1070
     0
1002
}
1002
{
1000
OTHER
1070
     0
1002
}
1002
{
1000
REACTOR
1002
}
  0
ARC
  5
18E6D
  8
0
 10
674.69411555298996
 20
205.07652922917961
 30
0.0
 40
5.0
 50
270.0
 51
20.354406380873922
1001
GENIUS_GENODEF_13
1002
{
1000
HIER
1070
     0
1002
}
1002
{
1000
MANEDIT
1070
     0
1002
}
1002
{
1000
NOSEL
1070
     0
1002
}
1002
{
1000
BEHIND
1070
     0
1002
}
1002
{
1000
OTHER
1070
     0
1002
}
1002
{
1000
REACTOR
1002
}
1001
GENIUS_GENOBJ-N-FIL_13
1002
{
1000
OWNER
1000
GEN
1002
}
  0
LINE
  5
18E6E
  8
0
 10
683.62079521353326
 20
230.66348422033619
 30
0.0
 11
667.73286884114236
 21
246.5514105927268
 31
0.0
  0
LINE
  5
18E6F
  8
0
 10
678.6710477452275
 20
225.71373675203051
 30
0.0
 11
662.78312137283672
 21
241.60166312442109
 31
0.0
  0
ARC
  5
18E70
  8
0
 10
665.25799510698948
 20
244.076536858574
 30
0.0
 40
3.499999999999988
 50
45.00000000000027
 51
225.00000000000031
  0
ARC
  5
18E71
  8
0
 10
687.15632911946614
 20
234.1990181262689
 30
0.0
 40
5.0
 50
225.00000000000031
 51
293.3111943818584
1001
GENIUS_GENODEF_13
1002
{
1000
HIER
1070
     0
1002
}
1002
{
1000
MANEDIT
1070
     0
1002
}
1002
{
1000
NOSEL
1070
     0
1002
}
1002
{
1000
BEHIND
1070
     0
1002
}
1002
{
1000
OTHER
1070
     0
1002
}
1002
{
1000
REACTOR
1002
}
1001
GENIUS_GENOBJ-N-FIL_13
1002
{
1000
OWNER
1000
GEN
1002
}
  0
ARC
  5
18E72
  8
0
 10
711.00015803855513
 20
230.7306510052162
 30
0.0
 40
5.0
 50
230.13622143975101
 51
340.49062782740373
1001
GENIUS_GENOBJ-N-FIL_13
1002
{
1000
OWNER
1000
GEN
1002
}
1001
GENIUS_GENODEF_13
1002
{
1000
HIER
1070
     0
1002
}
1002
{
1000
MANEDIT
1070
     0
1002
}
1002
{
1000
NOSEL
1070
     0
1002
}
1002
{
1000
BEHIND
1070
     0
1002
}
1002
{
1000
OTHER
1070
     0
1002
}
1002
{
1000
REACTOR
1002
}
  0
LINE
  5
18E73
  8
0
 10
715.23167187464014
 20
206.75198343832369
 30
0.0
 11
729.2316433490829
 21
248.75196818138329
 31
0.0
  0
ARC
  5
18E74
  8
0
 10
713.25794820873489
 20
254.07651397039029
 30
0.0
 40
10.0
 50
270.0
 51
0.0
1001
GENIUS_GENODEF_13
1002
{
1000
HIER
1070
     0
1002
}
1002
{
1000
MANEDIT
1070
     0
1002
}
1002
{
1000
NOSEL
1070
     0
1002
}
1002
{
1000
BEHIND
1070
     0
1002
}
1002
{
1000
OTHER
1070
     0
1002
}
1002
{
1000
REACTOR
1002
}
1001
GENIUS_GENOBJ-N-FIL_13
1002
{
1000
OWNER
1000
GEN
1002
}
  0
LINE
  5
18E75
  8
0
 10
722.68381694215373
 20
248.7353362479185
 30
0.0
 11
715.71309241822632
 21
229.06084576719849
 31
0.0
  0
ARC
  5
18E76
  8
0
 10
713.25794775720033
 20
252.074946874749
 30
0.0
 40
10.0000004515349
 50
340.49062782740373
 51
0.0
  0
LINE
  5
18E77
  8
AM_0
 10
571.25797400024953
 20
357.37707449830168
 30
0.0
 11
571.25797400024953
 21
352.45993394054329
 31
0.0
  0
LINE
  5
18E78
  8
AM_0
 10
585.25797442168198
 20
357.37707449830168
 30
0.0
 11
585.25797442168198
 21
352.45993394054318
 31
0.0
  0
LINE
  5
18E79
  8
AM_0
 10
585.25797442168198
 20
357.37707449830168
 30
0.0
 11
571.25797400024953
 21
357.37707449830168
 31
0.0
  0
LINE
  5
18E7B
  8
AM_0
 10
740.25794213266124
 20
344.07678961661719
 30
0.0
 11
740.25794213266124
 21
256.07502961661748
 31
0.0
  0
LINE
  5
18E7D
  8
AM_0
 10
730.25794820873443
 20
256.075029791009
 30
0.0
 11
740.25794213266124
 21
256.075029791009
 31
0.0
  0
LINE
  5
18E7E
  8
AM_0
 10
740.25794213266113
 20
272.0753497910091
 30
0.0
 11
730.25794820873489
 21
272.0753497910091
 31
0.0
  0
LINE
  5
18E7F
  8
AM_0
 10
738.8293707036612
 20
280.16135355704591
 30
0.0
 11
730.25794820873443
 21
280.16127993347692
 31
0.0
  0
ARC
  5
18E80
  8
0
 10
720.25797673956117
 20
301.07652922917941
 30
0.0
 40
3.0
 50
180.0
 51
270.0
  0
ARC
  5
18E81
  8
0
 10
720.25797673956117
 20
295.0765292291793
 30
0.0
 40
3.0
 50
0.0
 51
90.0
1001
GENIUS_GENODEF_13
1002
{
1000
HIER
1070
     0
1002
}
1002
{
1000
MANEDIT
1070
     0
1002
}
1002
{
1000
NOSEL
1070
     0
1002
}
1002
{
1000
BEHIND
1070
     0
1002
}
1002
{
1000
OTHER
1070
     0
1002
}
1002
{
1000
REACTOR
1002
}
1001
GENIUS_GENOBJ-N-FIL_13
1002
{
1000
OWNER
1000
GEN
1002
}
  0
ARC
  5
18E82
  8
0
 10
720.25797673956117
 20
301.07652922917941
 30
0.0
 40
3.0
 50
90.0
 51
180.0
  0
ARC
  5
18E83
  8
0
 10
720.25797673956117
 20
307.07652922917941
 30
0.0
 40
3.0
 50
270.0
 51
0.0
1001
GENIUS_GENOBJ-N-FIL_13
1002
{
1000
OWNER
1000
GEN
1002
}
1001
GENIUS_GENODEF_13
1002
{
1000
HIER
1070
     0
1002
}
1002
{
1000
MANEDIT
1070
     0
1002
}
1002
{
1000
NOSEL
1070
     0
1002
}
1002
{
1000
BEHIND
1070
     0
1002
}
1002
{
1000
OTHER
1070
     0
1002
}
1002
{
1000
REACTOR
1002
}
  0
ARC
  5
18E84
  8
0
 10
720.25797673956117
 20
355.07652922917941
 30
0.0
 40
3.0
 50
0.0
 51
90.0
1001
GENIUS_GENODEF_13
1002
{
1000
HIER
1070
     0
1002
}
1002
{
1000
MANEDIT
1070
     0
1002
}
1002
{
1000
NOSEL
1070
     0
1002
}
1002
{
1000
BEHIND
1070
     0
1002
}
1002
{
1000
OTHER
1070
     0
1002
}
1002
{
1000
REACTOR
1002
}
1001
GENIUS_GENOBJ-N-FIL_13
1002
{
1000
OWNER
1000
GEN
1002
}
  0
ARC
  5
18E85
  8
0
 10
720.25797673956117
 20
361.07652922917941
 30
0.0
 40
3.0
 50
180.0
 51
270.0
  0
ARC
  5
18E86
  8
0
 10
720.25797673956117
 20
361.07652922917941
 30
0.0
 40
3.0
 50
90.0
 51
180.0
  0
ARC
  5
18E87
  8
0
 10
720.25797673956117
 20
367.07652922917941
 30
0.0
 40
3.0
 50
270.0
 51
0.0
1001
GENIUS_GENOBJ-N-FIL_13
1002
{
1000
OWNER
1000
GEN
1002
}
1001
GENIUS_GENODEF_13
1002
{
1000
HIER
1070
     0
1002
}
1002
{
1000
MANEDIT
1070
     0
1002
}
1002
{
1000
NOSEL
1070
     0
1002
}
1002
{
1000
BEHIND
1070
     0
1002
}
1002
{
1000
OTHER
1070
     0
1002
}
1002
{
1000
REACTOR
1002
}
  0
LINE
  5
18EB5
  8
AM_0
 10
754.25794213686152
 20
256.07502961661748
 30
0.0
 11
754.25794213686152
 21
344.0767724377983
 31
0.0
  0
LINE
  5
18F09
  8
AM_0
 10
754.25794213686152
 20
432.07854961661718
 30
0.0
 11
740.25794213266124
 21
432.07854961661718
 31
0.0
  0
LINE
  5
18F0A
  8
AM_0
 10
754.25794213686152
 20
383.13850605909101
 30
0.0
 11
740.25794213266124
 21
383.13850605909101
 31
0.0
  0
LINE
  5
18F0B
  8
AM_0
 10
740.25794213266124
 20
383.13850605909101
 30
0.0
 11
754.25794213686152
 21
383.13850605909101
 31
0.0
  0
LINE
  5
18F0D
  8
0
 10
661.75799510698948
 20
418.07652159978483
 30
0.0
 11
628.13991722709955
 21
418.07652159978483
 31
0.0
  0
ARC
  5
18F0E
  8
0
 10
611.2579742109657
 20
415.0765215997846
 30
0.0
 40
12.0
 50
186.75632703058821
 51
353.24367296941188
  0
CIRCLE
  5
18F0F
  8
AM_0
 10
611.2579742109657
 20
415.0765215997846
 30
0.0
 40
8.5
  0
CIRCLE
  5
18F10
  8
AM_0
 10
611.2579742109657
 20
415.0765215997846
 30
0.0
 40
8.0
  0
POLYLINE
  5
18F11
  8
AM_0
 66
     1
 10
0.0
 20
0.0
 30
0.0
 70
     1
  0
VERTEX
  5
18F12
  8
AM_0
 10
615.2579742109657
 20
417.38592267654337
 30
0.0
  0
VERTEX
  5
18F13
  8
AM_0
 10
611.2579742109657
 20
419.69532375330158
 30
0.0
  0
VERTEX
  5
18F14
  8
AM_0
 10
607.2579742109657
 20
417.38592267654337
 30
0.0
  0
VERTEX
  5
18F15
  8
AM_0
 10
607.2579742109657
 20
412.76712052302622
 30
0.0
  0
VERTEX
  5
18F16
  8
AM_0
 10
611.2579742109657
 20
410.45771944626762
 30
0.0
  0
VERTEX
  5
18F17
  8
AM_0
 10
615.2579742109657
 20
412.76712052302622
 30
0.0
  0
SEQEND
  5
18F18
  8
AM_0
  0
ARC
  5
18F19
  8
0
 10
594.37603119483151
 20
413.076521599785
 30
0.0
 40
5.0
 50
6.7563270305881966
 51
90.0
1001
GENIUS_GENOBJ-N-FIL_13
1002
{
1000
OWNER
1000
GEN
1002
}
1001
GENIUS_GENODEF_13
1002
{
1000
HIER
1070
     0
1002
}
1002
{
1000
MANEDIT
1070
     0
1002
}
1002
{
1000
NOSEL
1070
     0
1002
}
1002
{
1000
BEHIND
1070
     0
1002
}
1002
{
1000
OTHER
1070
     0
1002
}
1002
{
1000
REACTOR
1002
}
  0
ARC
  5
18F1A
  8
0
 10
628.13991722709955
 20
413.076521599785
 30
0.0
 40
5.0
 50
90.0
 51
173.24367296941179
1001
GENIUS_GENODEF_13
1002
{
1000
HIER
1070
     0
1002
}
1002
{
1000
MANEDIT
1070
     0
1002
}
1002
{
1000
NOSEL
1070
     0
1002
}
1002
{
1000
BEHIND
1070
     0
1002
}
1002
{
1000
OTHER
1070
     0
1002
}
1002
{
1000
REACTOR
1002
}
1001
GENIUS_GENOBJ-N-FIL_13
1002
{
1000
OWNER
1000
GEN
1002
}
  0
LINE
  5
18F1C
  8
0
 10
722.68381694215395
 20
413.41772221044022
 30
0.0
 11
715.71309241822632
 21
433.09221269116028
 31
0.0
  0
LINE
  5
18F1D
  8
0
 10
715.23167187464014
 20
455.40107502003502
 30
0.0
 11
729.2316433490829
 21
413.40109027697542
 31
0.0
  0
ARC
  5
18F1E
  8
0
 10
696.257974208262
 20
449.07652923571351
 30
0.0
 40
18.0
 50
159.64559361912609
 51
309.86377856024887
  0
LINE
  5
18F1F
  8
0
 10
683.62079521353326
 20
431.48957423802278
 30
0.0
 11
667.7328688411427
 21
415.601647865632
 31
0.0
  0
LINE
  5
18F20
  8
0
 10
678.6710477452275
 20
436.43932170632792
 30
0.0
 11
662.78312137283672
 21
420.55139533393771
 31
0.0
  0
CIRCLE
  5
18F21
  8
0
  6
CONTINUOUS
 62
     2
 10
710.25797421096547
 20
407.0765215997846
 30
0.0
 40
8.0
  0
LINE
  5
18F22
  8
0
 10
670.2077425752957
 20
418.07652159978483
 30
0.0
 11
713.25797673956072
 21
418.07652159978483
 31
0.0
  0
ARC
  5
18F23
  8
0
 10
665.25799510698948
 20
418.07652159978483
 30
0.0
 40
3.499999999999988
 50
134.99999999999969
 51
314.99999999999989
  0
ARC
  5
18F24
  8
0
 10
713.25794820873523
 20
408.07652159978471
 30
0.0
 40
10.0
 50
0.0
 51
90.0
1001
GENIUS_GENOBJ-N-FIL_13
1002
{
1000
OWNER
1000
GEN
1002
}
1001
GENIUS_GENODEF_13
1002
{
1000
HIER
1070
     0
1002
}
1002
{
1000
MANEDIT
1070
     0
1002
}
1002
{
1000
NOSEL
1070
     0
1002
}
1002
{
1000
BEHIND
1070
     0
1002
}
1002
{
1000
OTHER
1070
     0
1002
}
1002
{
1000
REACTOR
1002
}
  0
ARC
  5
18F25
  8
0
 10
713.25794775720033
 20
410.07811158360971
 30
0.0
 40
10.0000004515349
 50
0.0
 51
19.509372172589359
  0
CIRCLE
  5
18F26
  8
0
 10
710.25793571511167
 20
407.0765659283569
 30
0.0
 40
6.5
  0
ARC
  5
18F27
  8
0
 10
710.25797421096547
 20
407.07654448796819
 30
0.0
 40
20.0
 50
0.0
 51
18.434920044167288
  0
LINE
  5
18F28
  8
AM_0
 10
738.8293707036612
 20
407.99222602497213
 30
0.0
 11
730.23699801485304
 21
407.99229982849181
 31
0.0
  0
LINE
  5
18F29
  8
AM_0
 10
740.25794213266113
 20
416.07822979100911
 30
0.0
 11
728.11769598105536
 21
416.07822979100911
 31
0.0
  0
LINE
  5
18F2A
  8
AM_0
 10
726.00588810721888
 20
423.07837220504598
 30
0.0
 11
740.25794213266124
 21
423.07837220504598
 31
0.0
  0
CIRCLE
  5
18F2B
  8
0
 10
696.257974208262
 20
449.07652923188272
 30
0.0
 40
9.0
  0
ARC
  5
18F2C
  8
0
 10
696.25800273908771
 20
449.07652923188272
 30
0.0
 40
19.99999999729641
 50
18.434920044167288
 51
90.0
  0
ARC
  5
18F2E
  8
0
 10
674.69411555298996
 20
457.07652922917941
 30
0.0
 40
5.0
 50
339.64559361912598
 51
90.0
1001
GENIUS_GENODEF_13
1002
{
1000
HIER
1070
     0
1002
}
1002
{
1000
MANEDIT
1070
     0
1002
}
1002
{
1000
NOSEL
1070
     0
1002
}
1002
{
1000
BEHIND
1070
     0
1002
}
1002
{
1000
OTHER
1070
     0
1002
}
1002
{
1000
REACTOR
1002
}
1001
GENIUS_GENOBJ-N-FIL_13
1002
{
1000
OWNER
1000
GEN
1002
}
  0
ARC
  5
18F2F
  8
0
 10
675.13551383929473
 20
439.97485561226091
 30
0.0
 40
5.0
 50
314.99999999999989
 51
23.311194381858591
1001
GENIUS_GENOBJ-N-FIL_13
1002
{
1000
OWNER
1000
GEN
1002
}
1001
GENIUS_GENODEF_13
1002
{
1000
HIER
1070
     0
1002
}
1002
{
1000
MANEDIT
1070
     0
1002
}
1002
{
1000
NOSEL
1070
     0
1002
}
1002
{
1000
BEHIND
1070
     0
1002
}
1002
{
1000
OTHER
1070
     0
1002
}
1002
{
1000
REACTOR
1002
}
  0
ARC
  5
18F30
  8
0
 10
687.15632911946614
 20
427.95404033208979
 30
0.0
 40
5.0
 50
66.688805618141615
 51
134.99999999999969
1001
GENIUS_GENODEF_13
1002
{
1000
HIER
1070
     0
1002
}
1002
{
1000
MANEDIT
1070
     0
1002
}
1002
{
1000
NOSEL
1070
     0
1002
}
1002
{
1000
BEHIND
1070
     0
1002
}
1002
{
1000
OTHER
1070
     0
1002
}
1002
{
1000
REACTOR
1002
}
1001
GENIUS_GENOBJ-N-FIL_13
1002
{
1000
OWNER
1000
GEN
1002
}
  0
ARC
  5
18F31
  8
0
 10
711.00015803855513
 20
431.42240745314251
 30
0.0
 40
5.0
 50
19.509372172589359
 51
129.86377856024899
1001
GENIUS_GENOBJ-N-FIL_13
1002
{
1000
OWNER
1000
GEN
1002
}
1001
GENIUS_GENODEF_13
1002
{
1000
HIER
1070
     0
1002
}
1002
{
1000
MANEDIT
1070
     0
1002
}
1002
{
1000
NOSEL
1070
     0
1002
}
1002
{
1000
BEHIND
1070
     0
1002
}
1002
{
1000
OTHER
1070
     0
1002
}
1002
{
1000
REACTOR
1002
}
  0
LINE
  5
18F3F
  8
AM_0
 10
756.55794213755155
 20
462.07914961661749
 30
0.0
 11
756.55794213755155
 21
409.57809961661718
 31
0.0
  0
LINE
  5
18F51
  8
AM_0
 10
756.55794213755155
 20
409.57809961661718
 30
0.0
 11
754.25794213686152
 21
409.57809961661718
 31
0.0
  0
LINE
  5
18F67
  8
AM_0
 10
756.55794213755155
 20
432.57855961661733
 30
0.0
 11
754.25794213686152
 21
432.57855961661681
 31
0.0
  0
LINE
  5
18F68
  8
AM_0
 10
756.55794213755155
 20
462.07914961661749
 30
0.0
 11
754.25794213686152
 21
462.07914961661749
 31
0.0
  0
LINE
  5
192D1
  8
ﾁｭｳｼﾝｾﾝ1
 10
696.25797420785636
 20
431.07652906132091
 30
0.0
 11
696.25797420866775
 21
467.07652906132103
 31
0.0
1001
GENIUS_GENODEF_13
1002
{
1000
HIER
1070
     0
1002
}
1002
{
1000
MANEDIT
1070
     0
1002
}
1002
{
1000
NOSEL
1070
     0
1002
}
1002
{
1000
BEHIND
1070
     0
1002
}
1002
{
1000
OTHER
1070
     0
1002
}
1002
{
1000
REACTOR
1002
}
1001
GENIUS_GENOBJ-N-CEN_13
1002
{
1000
OWNER
1000
GEN
1002
}
  0
LINE
  5
192D2
  8
ﾁｭｳｼﾝｾﾝ1
 10
678.257974208262
 20
449.07652923611892
 30
0.0
 11
714.25797420826177
 21
449.07652923530799
 31
0.0
1001
GENIUS_GENOBJ-N-CEN_13
1002
{
1000
OWNER
1000
GEN
1002
}
1001
GENIUS_GENODEF_13
1002
{
1000
HIER
1070
     0
1002
}
1002
{
1000
MANEDIT
1070
     0
1002
}
1002
{
1000
NOSEL
1070
     0
1002
}
1002
{
1000
BEHIND
1070
     0
1002
}
1002
{
1000
OTHER
1070
     0
1002
}
1002
{
1000
REACTOR
1002
}
  0
LINE
  5
192D3
  8
ﾁｭｳｼﾝｾﾝ1
 10
696.25797420785636
 20
195.0765290520834
 30
0.0
 11
696.25797420866763
 21
231.07652905208349
 31
0.0
1001
GENIUS_GENODEF_13
1002
{
1000
HIER
1070
     0
1002
}
1002
{
1000
MANEDIT
1070
     0
1002
}
1002
{
1000
NOSEL
1070
     0
1002
}
1002
{
1000
BEHIND
1070
     0
1002
}
1002
{
1000
OTHER
1070
     0
1002
}
1002
{
1000
REACTOR
1002
}
1001
GENIUS_GENOBJ-N-CEN_13
1002
{
1000
OWNER
1000
GEN
1002
}
  0
LINE
  5
192D4
  8
ﾁｭｳｼﾝｾﾝ1
 10
678.25797420826154
 20
213.07652922688129
 30
0.0
 11
714.25797420826177
 21
213.07652922607019
 31
0.0
1001
GENIUS_GENOBJ-N-CEN_13
1002
{
1000
OWNER
1000
GEN
1002
}
1001
GENIUS_GENODEF_13
1002
{
1000
HIER
1070
     0
1002
}
1002
{
1000
MANEDIT
1070
     0
1002
}
1002
{
1000
NOSEL
1070
     0
1002
}
1002
{
1000
BEHIND
1070
     0
1002
}
1002
{
1000
OTHER
1070
     0
1002
}
1002
{
1000
REACTOR
1002
}
  0
LINE
  5
192D5
  8
ﾁｭｳｼﾝｾﾝ1
 10
526.25794568243793
 20
195.0765290520836
 30
0.0
 11
526.2579456832492
 21
231.0765290520836
 31
0.0
1001
GENIUS_GENODEF_13
1002
{
1000
HIER
1070
     0
1002
}
1002
{
1000
MANEDIT
1070
     0
1002
}
1002
{
1000
NOSEL
1070
     0
1002
}
1002
{
1000
BEHIND
1070
     0
1002
}
1002
{
1000
OTHER
1070
     0
1002
}
1002
{
1000
REACTOR
1002
}
1001
GENIUS_GENOBJ-N-CEN_13
1002
{
1000
OWNER
1000
GEN
1002
}
  0
LINE
  5
192D6
  8
ﾁｭｳｼﾝｾﾝ1
 10
508.25794568284317
 20
213.07652922688141
 30
0.0
 11
544.25794568284346
 21
213.07652922607039
 31
0.0
1001
GENIUS_GENOBJ-N-CEN_13
1002
{
1000
OWNER
1000
GEN
1002
}
1001
GENIUS_GENODEF_13
1002
{
1000
HIER
1070
     0
1002
}
1002
{
1000
MANEDIT
1070
     0
1002
}
1002
{
1000
NOSEL
1070
     0
1002
}
1002
{
1000
BEHIND
1070
     0
1002
}
1002
{
1000
OTHER
1070
     0
1002
}
1002
{
1000
REACTOR
1002
}
  0
LINE
  5
192D7
  8
AM_0
 10
274.44003247226601
 20
426.1958761276764
 30
0.0
 11
299.44003247226613
 21
426.1958761276764
 31
0.0
  0
LINE
  5
192D8
  8
AM_0
 10
274.44003247226601
 20
235.95718233068209
 30
0.0
 11
299.44003247226613
 21
235.95718233068209
 31
0.0
  0
LINE
  5
19500
  8
AM_0
 10
276.44003848389463
 20
575.13200650524118
 30
0.0
 11
276.44003848389463
 21
620.13200650524061
 31
0.0
  0
LINE
  5
19501
  8
AM_0
 10
251.34003848389449
 20
573.88200650524084
 30
0.0
 11
251.34003848389449
 21
621.38200650524084
 31
0.0
  0
LINE
  5
19502
  8
AM_0
 10
249.4400384838944
 20
573.88200650524084
 30
0.0
 11
249.4400384838944
 21
621.38200650524084
 31
0.0
  0
LINE
  5
19503
  8
AM_0
 10
212.4400384838944
 20
574.88200650524084
 30
0.0
 11
212.44003848389451
 21
620.38200650524095
 31
0.0
  0
LINE
  5
19504
  8
AM_0
 10
149.4397442088395
 20
573.88200650524084
 30
0.0
 11
149.4397442088397
 21
621.38200650524084
 31
0.0
  0
LINE
  5
19505
  8
AM_0
 10
147.53974420883961
 20
573.88200650524084
 30
0.0
 11
147.53974420883961
 21
621.38200650524084
 31
0.0
  0
LINE
  5
19506
  8
AM_0
 10
186.43974420883961
 20
574.88200650524084
 30
0.0
 11
186.4397442088395
 21
620.38200650524095
 31
0.0
  0
LINE
  5
19507
  8
AM_0
 10
122.4397442088395
 20
575.13200650524118
 30
0.0
 11
122.4397442088395
 21
620.13200650524061
 31
0.0
  0
LINE
  5
19508
  8
AM_0
 10
119.4400298528256
 20
565.13135553664574
 30
0.0
 11
119.4400298528256
 21
630.13265747383559
 31
0.0
  0
LINE
  5
19509
  8
ﾁｭｳｼﾝｾﾝ1
 10
199.43988910858059
 20
637.63200650524084
 30
0.0
 11
199.43980047177911
 21
557.63200650524084
 31
0.0
  0
LINE
  5
1950A
  8
AM_0
 10
279.44003848389463
 20
565.13135553664574
 30
0.0
 11
279.44003848389463
 21
630.13265747383559
 31
0.0
  0
LINE
  5
1950B
  8
AM_0
 10
122.4397442088395
 20
575.13200650524118
 30
0.0
 11
147.53974420883961
 21
575.13200650524095
 31
0.0
  0
LINE
  5
1950C
  8
AM_0
 10
124.4400300033372
 20
553.63200650524084
 30
0.0
 11
136.4400300033372
 21
565.13135553664631
 31
0.0
  0
LINE
  5
1950D
  8
AM_0
 10
136.4400300033372
 20
553.63200650524084
 30
0.0
 11
124.4400300033372
 21
565.13135553664631
 31
0.0
  0
POLYLINE
  5
1950E
  8
AM_4
 66
     1
 10
0.0
 20
0.0
 30
0.0
  0
VERTEX
  5
1950F
  8
AM_4
 10
274.44003833338297
 20
548.81810393023943
 30
0.0
  0
VERTEX
  5
19510
  8
AM_4
 10
273.58574242547422
 20
549.0404369304249
 30
0.0
  0
VERTEX
  5
19511
  8
AM_4
 10
271.9008120665801
 20
549.5658576501944
 30
0.0
  0
VERTEX
  5
19512
  8
AM_4
 10
270.67792933453097
 20
550.02438199883204
 30
0.0
  0
VERTEX
  5
19513
  8
AM_4
 10
269.8032336574754
 20
550.41208271007451
 30
0.0
  0
VERTEX
  5
19514
  8
AM_4
 10
269.1628644635623
 20
550.7250325176592
 30
0.0
  0
VERTEX
  5
19515
  8
AM_4
 10
268.64296118094052
 20
550.959304155322
 30
0.0
  0
VERTEX
  5
19516
  8
AM_4
 10
268.14648456943792
 20
551.11639078957614
 30
0.0
  0
VERTEX
  5
19517
  8
AM_4
 10
267.64368071560142
 20
551.21946731803973
 30
0.0
  0
VERTEX
  5
19518
  8
AM_4
 10
267.12161703765668
 20
551.29712907110525
 30
0.0
  0
VERTEX
  5
19519
  8
AM_4
 10
266.56736095383019
 20
551.37797137916675
 30
0.0
  0
VERTEX
  5
1951A
  8
AM_4
 10
265.96797988234732
 20
551.49058957261775
 30
0.0
  0
VERTEX
  5
1951B
  8
AM_4
 10
265.31054124143441
 20
551.66357898185186
 30
0.0
  0
VERTEX
  5
1951C
  8
AM_4
 10
264.58211244931738
 20
551.92553493726234
 30
0.0
  0
VERTEX
  5
1951D
  8
AM_4
 10
263.76976092422228
 20
552.30505276924305
 30
0.0
  0
VERTEX
  5
1951E
  8
AM_4
 10
262.8662310724161
 20
552.82291697758922
 30
0.0
  0
VERTEX
  5
1951F
  8
AM_4
 10
261.8869752523313
 20
553.46866873970498
 30
0.0
  0
VERTEX
  5
19520
  8
AM_4
 10
260.85312281044082
 20
554.22403840239645
 30
0.0
  0
VERTEX
  5
19521
  8
AM_4
 10
259.78580309321791
 20
555.07075631246914
 30
0.0
  0
VERTEX
  5
19522
  8
AM_4
 10
258.7061454471359
 20
555.99055281672963
 30
0.0
  0
VERTEX
  5
19523
  8
AM_4
 10
257.63527921866779
 20
556.96515826198367
 30
0.0
  0
VERTEX
  5
19524
  8
AM_4
 10
256.59433375428688
 20
557.97630299503714
 30
0.0
  0
VERTEX
  5
19525
  8
AM_4
 10
255.6044384004669
 20
559.00571736269637
 30
0.0
  0
VERTEX
  5
19526
  8
AM_4
 10
254.67924373974191
 20
560.03604151363834
 30
0.0
  0
VERTEX
  5
19527
  8
AM_4
 10
253.80248529889039
 20
561.05355480402523
 30
0.0
  0
VERTEX
  5
19528
  8
AM_4
 10
252.95041984075249
 20
562.04544639189203
 30
0.0
  0
VERTEX
  5
19529
  8
AM_4
 10
252.099304128168
 20
562.99890543527124
 30
0.0
  0
VERTEX
  5
1952A
  8
AM_4
 10
251.22539492397681
 20
563.90112109219763
 30
0.0
  0
VERTEX
  5
1952B
  8
AM_4
 10
250.3049489910189
 20
564.73928252070425
 30
0.0
  0
VERTEX
  5
1952C
  8
AM_4
 10
249.314223092134
 20
565.50057887882565
 30
0.0
  0
VERTEX
  5
1952D
  8
AM_4
 10
248.22947399016209
 20
566.17219932459523
 30
0.0
  0
VERTEX
  5
1952E
  8
AM_4
 10
247.03423970639031
 20
566.74380151359355
 30
0.0
  0
VERTEX
  5
1952F
  8
AM_4
 10
245.7411832958953
 20
567.21491709158522
 30
0.0
  0
VERTEX
  5
19530
  8
AM_4
 10
244.3702490722014
 20
567.58754620188324
 30
0.0
  0
VERTEX
  5
19531
  8
AM_4
 10
242.94138134883241
 20
567.86368898779881
 30
0.0
  0
VERTEX
  5
19532
  8
AM_4
 10
241.474524439313
 20
568.04534559264368
 30
0.0
  0
VERTEX
  5
19533
  8
AM_4
 10
239.98962265716659
 20
568.1345161597302
 30
0.0
  0
VERTEX
  5
19534
  8
AM_4
 10
238.5066203159177
 20
568.13320083236999
 30
0.0
  0
VERTEX
  5
19535
  8
AM_4
 10
237.04546172909031
 20
568.04339975387472
 30
0.0
  0
VERTEX
  5
19536
  8
AM_4
 10
235.62324202375771
 20
567.87107795045324
 30
0.0
  0
VERTEX
  5
19537
  8
AM_4
 10
234.2456595811897
 20
567.63805997990289
 30
0.0
  0
VERTEX
  5
19538
  8
AM_4
 10
232.91556359620549
 20
567.370135282918
 30
0.0
  0
VERTEX
  5
19539
  8
AM_4
 10
231.63580326362421
 20
567.09309330019175
 30
0.0
  0
VERTEX
  5
1953A
  8
AM_4
 10
230.40922777826461
 20
566.83272347241893
 30
0.0
  0
VERTEX
  5
1953B
  8
AM_4
 10
229.23868633494629
 20
566.61481524029318
 30
0.0
  0
VERTEX
  5
1953C
  8
AM_4
 10
228.12702812848789
 20
566.46515804450894
 30
0.0
  0
VERTEX
  5
1953D
  8
AM_4
 10
227.0771023537088
 20
566.40954132575962
 30
0.0
  0
VERTEX
  5
1953E
  8
AM_4
 10
226.08234005365571
 20
566.46357645859325
 30
0.0
  0
VERTEX
  5
1953F
  8
AM_4
 10
225.09849966428621
 20
566.60216255296837
 30
0.0
  0
VERTEX
  5
19540
  8
AM_4
 10
224.07192146978591
 20
566.79002065269833
 30
0.0
  0
VERTEX
  5
19541
  8
AM_4
 10
222.94894575434051
 20
566.99187180159424
 30
0.0
  0
VERTEX
  5
19542
  8
AM_4
 10
221.67591280213509
 20
567.17243704346981
 30
0.0
  0
VERTEX
  5
19543
  8
AM_4
 10
220.19916289735531
 20
567.29643742213705
 30
0.0
  0
VERTEX
  5
19544
  8
AM_4
 10
218.4650363241868
 20
567.32859398140806
 30
0.0
  0
VERTEX
  5
19545
  8
AM_4
 10
216.41987336681481
 20
567.23362776509555
 30
0.0
  0
VERTEX
  5
19546
  8
AM_4
 10
214.02972119562631
 20
566.99003053243086
 30
0.0
  0
VERTEX
  5
19547
  8
AM_4
 10
211.33945452581321
 20
566.63137690432018
 30
0.0
  0
VERTEX
  5
19548
  8
AM_4
 10
208.4136549587694
 20
566.2050122170881
 30
0.0
  0
VERTEX
  5
19549
  8
AM_4
 10
205.31690409588811
 20
565.75828180705992
 30
0.0
  0
VERTEX
  5
1954A
  8
AM_4
 10
202.11378353856321
 20
565.33853101056025
 30
0.0
  0
VERTEX
  5
1954B
  8
AM_4
 10
198.8688748881878
 20
564.99310516391415
 30
0.0
  0
VERTEX
  5
1954C
  8
AM_4
 10
195.6467597461554
 20
564.7693496034467
 30
0.0
  0
VERTEX
  5
1954D
  8
AM_4
 10
192.51201971386001
 20
564.71460966548239
 30
0.0
  0
VERTEX
  5
1954E
  8
AM_4
 10
189.51871022466659
 20
564.8599744320295
 30
0.0
  0
VERTEX
  5
1954F
  8
AM_4
 10
186.6787820398288
 20
565.17150796782607
 30
0.0
  0
VERTEX
  5
19550
  8
AM_4
 10
183.9936597525722
 20
565.59901808329357
 30
0.0
  0
VERTEX
  5
19551
  8
AM_4
 10
181.46476795612199
 20
566.09231258885211
 30
0.0
  0
VERTEX
  5
19552
  8
AM_4
 10
179.09353124370369
 20
566.60119929492475
 30
0.0
  0
VERTEX
  5
19553
  8
AM_4
 10
176.8813742085425
 20
567.07548601193105
 30
0.0
  0
VERTEX
  5
19554
  8
AM_4
 10
174.82972144386451
 20
567.46498055029269
 30
0.0
  0
VERTEX
  5
19555
  8
AM_4
 10
172.9399975428941
 20
567.71949072043071
 30
0.0
  0
VERTEX
  5
19556
  8
AM_4
 10
171.20816579805779
 20
567.80306923153523
 30
0.0
  0
VERTEX
  5
19557
  8
AM_4
 10
169.6083442985809
 20
567.7367483878736
 30
0.0
  0
VERTEX
  5
19558
  8
AM_4
 10
168.1091898328898
 20
567.5558053924816
 30
0.0
  0
VERTEX
  5
19559
  8
AM_4
 10
166.67935918941029
 20
567.29551744839557
 30
0.0
  0
VERTEX
  5
1955A
  8
AM_4
 10
165.28750915656869
 20
566.99116175865129
 30
0.0
  0
VERTEX
  5
1955B
  8
AM_4
 10
163.90229652279081
 20
566.67801552628453
 30
0.0
  0
VERTEX
  5
1955C
  8
AM_4
 10
162.492378076503
 20
566.39135595433163
 30
0.0
  0
VERTEX
  5
1955D
  8
AM_4
 10
161.02641060613121
 20
566.16646024582838
 30
0.0
  0
VERTEX
  5
1955E
  8
AM_4
 10
159.4830244861156
 20
566.02700527825561
 30
0.0
  0
VERTEX
  5
1955F
  8
AM_4
 10
157.88074443495341
 20
565.95026662687349
 30
0.0
  0
VERTEX
  5
19560
  8
AM_4
 10
156.24806875715581
 20
565.90191954138595
 30
0.0
  0
VERTEX
  5
19561
  8
AM_4
 10
154.6134957572346
 20
565.84763927149868
 30
0.0
  0
VERTEX
  5
19562
  8
AM_4
 10
153.00552373970081
 20
565.75310106691495
 30
0.0
  0
VERTEX
  5
19563
  8
AM_4
 10
151.45265100906579
 20
565.58398017733987
 30
0.0
  0
VERTEX
  5
19564
  8
AM_4
 10
149.98337586984101
 20
565.30595185247762
 30
0.0
  0
VERTEX
  5
19565
  8
AM_4
 10
148.62619662653759
 20
564.88469134203365
 30
0.0
  0
VERTEX
  5
19566
  8
AM_4
 10
147.40197271595321
 20
564.2965974641163
 30
0.0
  0
VERTEX
  5
19567
  8
AM_4
 10
146.30100810402871
 20
563.56096331045273
 30
0.0
  0
VERTEX
  5
19568
  8
AM_4
 10
145.30596788899109
 20
562.70780554117459
 30
0.0
  0
VERTEX
  5
19569
  8
AM_4
 10
144.39951716906759
 20
561.7671408164133
 30
0.0
  0
VERTEX
  5
1956A
  8
AM_4
 10
143.56432104248509
 20
560.76898579630063
 30
0.0
  0
VERTEX
  5
1956B
  8
AM_4
 10
142.78304460747091
 20
559.7433571409681
 30
0.0
  0
VERTEX
  5
1956C
  8
AM_4
 10
142.03835296225191
 20
558.72027151054726
 30
0.0
  0
VERTEX
  5
1956D
  8
AM_4
 10
141.3129112050552
 20
557.72974556516988
 30
0.0
  0
VERTEX
  5
1956E
  8
AM_4
 10
140.59294462451459
 20
556.79734872058941
 30
0.0
  0
VERTEX
  5
1956F
  8
AM_4
 10
139.87891927089231
 20
555.93086141504909
 30
0.0
  0
VERTEX
  5
19570
  8
AM_4
 10
139.17486138485691
 20
555.13361684241431
 30
0.0
  0
VERTEX
  5
19571
  8
AM_4
 10
138.48479720707761
 20
554.40894819655023
 30
0.0
  0
VERTEX
  5
19572
  8
AM_4
 10
137.8127529782229
 20
553.76018867132245
 30
0.0
  0
VERTEX
  5
19573
  8
AM_4
 10
137.1627549389618
 20
553.19067146059581
 30
0.0
  0
VERTEX
  5
19574
  8
AM_4
 10
136.53882932996331
 20
552.70372975823614
 30
0.0
  0
VERTEX
  5
19575
  8
AM_4
 10
135.94500239189591
 20
552.30269675810871
 30
0.0
  0
VERTEX
  5
19576
  8
AM_4
 10
135.38385096206869
 20
551.98727521749845
 30
0.0
  0
VERTEX
  5
19577
  8
AM_4
 10
134.85215426434971
 20
551.74264614736876
 30
0.0
  0
VERTEX
  5
19578
  8
AM_4
 10
134.34524211924651
 20
551.55036012210405
 30
0.0
  0
VERTEX
  5
19579
  8
AM_4
 10
133.85844434726741
 20
551.39196771608772
 30
0.0
  0
VERTEX
  5
1957A
  8
AM_4
 10
133.3870907689201
 20
551.2490195037027
 30
0.0
  0
VERTEX
  5
1957B
  8
AM_4
 10
132.92651120471251
 20
551.10306605933351
 30
0.0
  0
VERTEX
  5
1957C
  8
AM_4
 10
132.4720354751523
 20
550.93565795736322
 30
0.0
  0
VERTEX
  5
1957D
  8
AM_4
 10
132.01899340074769
 20
550.7283457721752
 30
0.0
  0
VERTEX
  5
1957E
  8
AM_4
 10
131.5480612772908
 20
550.46644107515306
 30
0.0
  0
VERTEX
  5
1957F
  8
AM_4
 10
130.9813013017102
 20
550.15029942567764
 30
0.0
  0
VERTEX
  5
19580
  8
AM_4
 10
130.22612214621941
 20
549.78403738013003
 30
0.0
  0
VERTEX
  5
19581
  8
AM_4
 10
129.1899324830311
 20
549.37177149489025
 30
0.0
  0
VERTEX
  5
19582
  8
AM_4
 10
127.7801409843587
 20
548.91761832633915
 30
0.0
  0
VERTEX
  5
19583
  8
AM_4
 10
125.9041563224151
 20
548.42569443085756
 30
0.0
  0
VERTEX
  5
19584
  8
AM_4
 10
124.4400300033372
 20
548.10964283382725
 30
0.0
  0
SEQEND
  5
19585
  8
AM_4
  0
LINE
  5
19586
  8
AM_0
 10
136.4400300033372
 20
553.63200650524084
 30
0.0
 11
124.4400300033372
 21
553.63200650524084
 31
0.0
  0
LINE
  5
19587
  8
AM_0
 10
119.4400298528256
 20
565.13135553664631
 30
0.0
 11
149.4208771548432
 21
565.13135553664631
 31
0.0
  0
LINE
  5
19588
  8
AM_0
 10
124.4400300033372
 20
565.13135553664631
 30
0.0
 11
124.4400300033372
 21
548.10964283382725
 31
0.0
  0
LINE
  5
19589
  8
AM_0
 10
122.4397442088395
 20
575.13200650524118
 30
0.0
 11
119.4397442088395
 21
573.39995569767211
 31
0.0
  0
LINE
  5
1958A
  8
AM_0
 10
276.44003848389463
 20
575.13200650524118
 30
0.0
 11
251.34003848389449
 21
575.13200650524095
 31
0.0
  0
LINE
  5
1958B
  8
AM_0
 10
249.79471813676139
 20
565.13135553664631
 30
0.0
 11
279.44003848389463
 21
565.13135553664631
 31
0.0
  0
LINE
  5
1958C
  8
AM_0
 10
212.4400384838946
 20
574.88200650524084
 30
0.0
 11
186.4397442088395
 21
574.88200650524084
 31
0.0
  0
LINE
  5
1958D
  8
AM_0
 10
149.4397442088397
 20
575.13200650524095
 30
0.0
 11
186.4397442088395
 21
575.13200650524095
 31
0.0
  0
LINE
  5
1958E
  8
AM_0
 10
136.4400300033372
 20
565.13135553664631
 30
0.0
 11
136.44003000333711
 21
553.63200650524084
 31
0.0
  0
LINE
  5
1958F
  8
AM_0
 10
147.53974420883961
 20
573.88200650524084
 30
0.0
 11
149.4397442088397
 21
573.88200650524084
 31
0.0
  0
LINE
  5
19590
  8
AM_0
 10
249.4400384838944
 20
575.13200650524095
 30
0.0
 11
212.44003848389451
 21
575.13200650524095
 31
0.0
  0
LINE
  5
19591
  8
AM_0
 10
251.34003848389449
 20
573.88200650524084
 30
0.0
 11
249.4400384838944
 21
573.88200650524084
 31
0.0
  0
LINE
  5
19592
  8
AM_0
 10
262.44003833338297
 20
565.13135553664631
 30
0.0
 11
262.44003833338297
 21
553.63200650524084
 31
0.0
  0
LINE
  5
19593
  8
AM_0
 10
262.44003833338297
 20
553.63200650524084
 30
0.0
 11
274.44003833338297
 21
565.13135553664631
 31
0.0
  0
LINE
  5
19594
  8
AM_0
 10
274.44003833338292
 20
553.63200650524095
 30
0.0
 11
262.44003833338297
 21
565.13135553664631
 31
0.0
  0
LINE
  5
19595
  8
AM_0
 10
274.44003833338297
 20
565.13135553664631
 30
0.0
 11
274.44003833338297
 21
548.81810393023943
 31
0.0
  0
LINE
  5
19596
  8
AM_0
 10
274.44003833338292
 20
553.63200650524095
 30
0.0
 11
262.44003833338309
 21
553.63200650524084
 31
0.0
  0
LINE
  5
19597
  8
AM_0
 10
276.44003848389463
 20
575.13200650524118
 30
0.0
 11
279.44003848389463
 21
573.39995569767211
 31
0.0
  0
LINE
  5
19598
  8
AM_0
 10
119.4400298528256
 20
630.13265747383559
 30
0.0
 11
149.4208771548432
 21
630.13265747383559
 31
0.0
  0
POLYLINE
  5
19599
  8
AM_4
 66
     1
 10
0.0
 20
0.0
 30
0.0
  0
VERTEX
  5
1959A
  8
AM_4
 10
274.44003833338297
 20
646.44590908024225
 30
0.0
  0
VERTEX
  5
1959B
  8
AM_4
 10
273.58574242547422
 20
646.22357608005677
 30
0.0
  0
VERTEX
  5
1959C
  8
AM_4
 10
271.9008120665801
 20
645.6981553602875
 30
0.0
  0
VERTEX
  5
1959D
  8
AM_4
 10
270.67792933453097
 20
645.23963101164975
 30
0.0
  0
VERTEX
  5
1959E
  8
AM_4
 10
269.8032336574754
 20
644.85193030040716
 30
0.0
  0
VERTEX
  5
1959F
  8
AM_4
 10
269.1628644635623
 20
644.53898049282236
 30
0.0
  0
VERTEX
  5
195A0
  8
AM_4
 10
268.64296118094052
 20
644.30470885515979
 30
0.0
  0
VERTEX
  5
195A1
  8
AM_4
 10
268.14648456943792
 20
644.14762222090553
 30
0.0
  0
VERTEX
  5
195A2
  8
AM_4
 10
267.64368071560142
 20
644.0445456924424
 30
0.0
  0
VERTEX
  5
195A3
  8
AM_4
 10
267.12161703765668
 20
643.96688393937654
 30
0.0
  0
VERTEX
  5
195A4
  8
AM_4
 10
266.56736095383019
 20
643.88604163131504
 30
0.0
  0
VERTEX
  5
195A5
  8
AM_4
 10
265.96797988234732
 20
643.77342343786404
 30
0.0
  0
VERTEX
  5
195A6
  8
AM_4
 10
265.31054124143441
 20
643.60043402862948
 30
0.0
  0
VERTEX
  5
195A7
  8
AM_4
 10
264.58211244931738
 20
643.33847807321911
 30
0.0
  0
VERTEX
  5
195A8
  8
AM_4
 10
263.76976092422228
 20
642.95896024123874
 30
0.0
  0
VERTEX
  5
195A9
  8
AM_4
 10
262.8662310724161
 20
642.4410960328928
 30
0.0
  0
VERTEX
  5
195AA
  8
AM_4
 10
261.8869752523313
 20
641.79534427077692
 30
0.0
  0
VERTEX
  5
195AB
  8
AM_4
 10
260.85312281044082
 20
641.03997460808523
 30
0.0
  0
VERTEX
  5
195AC
  8
AM_4
 10
259.78580309321791
 20
640.19325669801276
 30
0.0
  0
VERTEX
  5
195AD
  8
AM_4
 10
258.7061454471359
 20
639.27346019375193
 30
0.0
  0
VERTEX
  5
195AE
  8
AM_4
 10
257.63527921866779
 20
638.29885474849812
 30
0.0
  0
VERTEX
  5
195AF
  8
AM_4
 10
256.59433375428688
 20
637.28771001544465
 30
0.0
  0
VERTEX
  5
195B0
  8
AM_4
 10
255.6044384004669
 20
636.25829564778553
 30
0.0
  0
VERTEX
  5
195B1
  8
AM_4
 10
254.67924373974191
 20
635.22797149684322
 30
0.0
  0
VERTEX
  5
195B2
  8
AM_4
 10
253.80248529889039
 20
634.210458206456
 30
0.0
  0
VERTEX
  5
195B3
  8
AM_4
 10
252.95041984075249
 20
633.21856661858988
 30
0.0
  0
VERTEX
  5
195B4
  8
AM_4
 10
252.099304128168
 20
632.26510757521055
 30
0.0
  0
VERTEX
  5
195B5
  8
AM_4
 10
251.22539492397681
 20
631.36289191828428
 30
0.0
  0
VERTEX
  5
195B6
  8
AM_4
 10
250.3049489910189
 20
630.52473048977754
 30
0.0
  0
VERTEX
  5
195B7
  8
AM_4
 10
249.314223092134
 20
629.76343413165614
 30
0.0
  0
VERTEX
  5
195B8
  8
AM_4
 10
248.22947399016209
 20
629.09181368588622
 30
0.0
  0
VERTEX
  5
195B9
  8
AM_4
 10
247.03423970639031
 20
628.52021149688812
 30
0.0
  0
VERTEX
  5
195BA
  8
AM_4
 10
245.7411832958953
 20
628.04909591889611
 30
0.0
  0
VERTEX
  5
195BB
  8
AM_4
 10
244.3702490722014
 20
627.67646680859843
 30
0.0
  0
VERTEX
  5
195BC
  8
AM_4
 10
242.94138134883241
 20
627.40032402268287
 30
0.0
  0
VERTEX
  5
195BD
  8
AM_4
 10
241.474524439313
 20
627.21866741783799
 30
0.0
  0
VERTEX
  5
195BE
  8
AM_4
 10
239.98962265716659
 20
627.12949685075159
 30
0.0
  0
VERTEX
  5
195BF
  8
AM_4
 10
238.5066203159177
 20
627.13081217811168
 30
0.0
  0
VERTEX
  5
195C0
  8
AM_4
 10
237.04546172909031
 20
627.22061325660707
 30
0.0
  0
VERTEX
  5
195C1
  8
AM_4
 10
235.62324202375771
 20
627.39293506002855
 30
0.0
  0
VERTEX
  5
195C2
  8
AM_4
 10
234.2456595811897
 20
627.62595303057878
 30
0.0
  0
VERTEX
  5
195C3
  8
AM_4
 10
232.91556359620549
 20
627.8938777275639
 30
0.0
  0
VERTEX
  5
195C4
  8
AM_4
 10
231.63580326362421
 20
628.17091971029015
 30
0.0
  0
VERTEX
  5
195C5
  8
AM_4
 10
230.40922777826461
 20
628.43128953806286
 30
0.0
  0
VERTEX
  5
195C6
  8
AM_4
 10
229.23868633494629
 20
628.64919777018861
 30
0.0
  0
VERTEX
  5
195C7
  8
AM_4
 10
228.12702812848789
 20
628.79885496597274
 30
0.0
  0
VERTEX
  5
195C8
  8
AM_4
 10
227.0771023537088
 20
628.85447168472194
 30
0.0
  0
VERTEX
  5
195C9
  8
AM_4
 10
226.08234005365571
 20
628.80043655188854
 30
0.0
  0
VERTEX
  5
195CA
  8
AM_4
 10
225.09849966428621
 20
628.66185045751331
 30
0.0
  0
VERTEX
  5
195CB
  8
AM_4
 10
224.07192146978591
 20
628.47399235778369
 30
0.0
  0
VERTEX
  5
195CC
  8
AM_4
 10
222.94894575434051
 20
628.27214120888743
 30
0.0
  0
VERTEX
  5
195CD
  8
AM_4
 10
221.67591280213509
 20
628.09157596701186
 30
0.0
  0
VERTEX
  5
195CE
  8
AM_4
 10
220.19916289735531
 20
627.96757558834474
 30
0.0
  0
VERTEX
  5
195CF
  8
AM_4
 10
218.4650363241868
 20
627.93541902907361
 30
0.0
  0
VERTEX
  5
195D0
  8
AM_4
 10
216.41987336681481
 20
628.03038524538601
 30
0.0
  0
VERTEX
  5
195D1
  8
AM_4
 10
214.02972119562631
 20
628.27398247805081
 30
0.0
  0
VERTEX
  5
195D2
  8
AM_4
 10
211.33945452581321
 20
628.63263610616161
 30
0.0
  0
VERTEX
  5
195D3
  8
AM_4
 10
208.4136549587694
 20
629.05900079339358
 30
0.0
  0
VERTEX
  5
195D4
  8
AM_4
 10
205.31690409588811
 20
629.50573120342165
 30
0.0
  0
VERTEX
  5
195D5
  8
AM_4
 10
202.11378353856321
 20
629.92548199992154
 30
0.0
  0
VERTEX
  5
195D6
  8
AM_4
 10
198.8688748881878
 20
630.27090784656764
 30
0.0
  0
VERTEX
  5
195D7
  8
AM_4
 10
195.6467597461554
 20
630.49466340703509
 30
0.0
  0
VERTEX
  5
195D8
  8
AM_4
 10
192.51201971386001
 20
630.54940334499929
 30
0.0
  0
VERTEX
  5
195D9
  8
AM_4
 10
189.51871022466659
 20
630.40403857845217
 30
0.0
  0
VERTEX
  5
195DA
  8
AM_4
 10
186.6787820398288
 20
630.0925050426556
 30
0.0
  0
VERTEX
  5
195DB
  8
AM_4
 10
183.9936597525722
 20
629.6649949271881
 30
0.0
  0
VERTEX
  5
195DC
  8
AM_4
 10
181.46476795612199
 20
629.17170042162923
 30
0.0
  0
VERTEX
  5
195DD
  8
AM_4
 10
179.09353124370369
 20
628.66281371555715
 30
0.0
  0
VERTEX
  5
195DE
  8
AM_4
 10
176.8813742085425
 20
628.18852699855074
 30
0.0
  0
VERTEX
  5
195DF
  8
AM_4
 10
174.82972144386451
 20
627.7990324601891
 30
0.0
  0
VERTEX
  5
195E0
  8
AM_4
 10
172.9399975428941
 20
627.54452229005074
 30
0.0
  0
VERTEX
  5
195E1
  8
AM_4
 10
171.20816579805779
 20
627.46094377894622
 30
0.0
  0
VERTEX
  5
195E2
  8
AM_4
 10
169.6083442985809
 20
627.52726462260762
 30
0.0
  0
VERTEX
  5
195E3
  8
AM_4
 10
168.1091898328898
 20
627.70820761799962
 30
0.0
  0
VERTEX
  5
195E4
  8
AM_4
 10
166.67935918941029
 20
627.9684955620861
 30
0.0
  0
VERTEX
  5
195E5
  8
AM_4
 10
165.28750915656869
 20
628.27285125183039
 30
0.0
  0
VERTEX
  5
195E6
  8
AM_4
 10
163.90229652279081
 20
628.58599748419715
 30
0.0
  0
VERTEX
  5
195E7
  8
AM_4
 10
162.492378076503
 20
628.87265705615005
 30
0.0
  0
VERTEX
  5
195E8
  8
AM_4
 10
161.02641060613121
 20
629.09755276465353
 30
0.0
  0
VERTEX
  5
195E9
  8
AM_4
 10
159.4830244861156
 20
629.23700773222595
 30
0.0
  0
VERTEX
  5
195EA
  8
AM_4
 10
157.88074443495341
 20
629.31374638360808
 30
0.0
  0
VERTEX
  5
195EB
  8
AM_4
 10
156.24806875715581
 20
629.3620934690955
 30
0.0
  0
VERTEX
  5
195EC
  8
AM_4
 10
154.6134957572346
 20
629.41637373898322
 30
0.0
  0
VERTEX
  5
195ED
  8
AM_4
 10
153.00552373970081
 20
629.51091194356673
 30
0.0
  0
VERTEX
  5
195EE
  8
AM_4
 10
151.45265100906579
 20
629.68003283314181
 30
0.0
  0
VERTEX
  5
195EF
  8
AM_4
 10
149.98337586984101
 20
629.9580611580036
 30
0.0
  0
VERTEX
  5
195F0
  8
AM_4
 10
148.62619662653759
 20
630.37932166844814
 30
0.0
  0
VERTEX
  5
195F1
  8
AM_4
 10
147.40197271595321
 20
630.96741554636571
 30
0.0
  0
VERTEX
  5
195F2
  8
AM_4
 10
146.30100810402871
 20
631.70304970002894
 30
0.0
  0
VERTEX
  5
195F3
  8
AM_4
 10
145.30596788899109
 20
632.55620746930697
 30
0.0
  0
VERTEX
  5
195F4
  8
AM_4
 10
144.39951716906759
 20
633.49687219406837
 30
0.0
  0
VERTEX
  5
195F5
  8
AM_4
 10
143.56432104248509
 20
634.49502721418116
 30
0.0
  0
VERTEX
  5
195F6
  8
AM_4
 10
142.78304460747091
 20
635.5206558695138
 30
0.0
  0
VERTEX
  5
195F7
  8
AM_4
 10
142.03835296225191
 20
636.54374149993441
 30
0.0
  0
VERTEX
  5
195F8
  8
AM_4
 10
141.3129112050552
 20
637.53426744531168
 30
0.0
  0
VERTEX
  5
195F9
  8
AM_4
 10
140.59294462451459
 20
638.46666428989249
 30
0.0
  0
VERTEX
  5
195FA
  8
AM_4
 10
139.87891927089231
 20
639.3331515954327
 30
0.0
  0
VERTEX
  5
195FB
  8
AM_4
 10
139.17486138485691
 20
640.13039616806748
 30
0.0
  0
VERTEX
  5
195FC
  8
AM_4
 10
138.48479720707761
 20
640.85506481393168
 30
0.0
  0
VERTEX
  5
195FD
  8
AM_4
 10
137.8127529782229
 20
641.50382433915922
 30
0.0
  0
VERTEX
  5
195FE
  8
AM_4
 10
137.1627549389618
 20
642.07334154988575
 30
0.0
  0
VERTEX
  5
195FF
  8
AM_4
 10
136.53882932996331
 20
642.56028325224565
 30
0.0
  0
VERTEX
  5
19600
  8
AM_4
 10
135.94500239189591
 20
642.96131625237285
 30
0.0
  0
VERTEX
  5
19601
  8
AM_4
 10
135.38385096206869
 20
643.27673779298345
 30
0.0
  0
VERTEX
  5
19602
  8
AM_4
 10
134.85215426434971
 20
643.52136686311292
 30
0.0
  0
VERTEX
  5
19603
  8
AM_4
 10
134.34524211924651
 20
643.71365288837774
 30
0.0
  0
VERTEX
  5
19604
  8
AM_4
 10
133.85844434726741
 20
643.87204529439407
 30
0.0
  0
VERTEX
  5
19605
  8
AM_4
 10
133.3870907689201
 20
644.01499350677898
 30
0.0
  0
VERTEX
  5
19606
  8
AM_4
 10
132.92651120471251
 20
644.16094695114805
 30
0.0
  0
VERTEX
  5
19607
  8
AM_4
 10
132.4720354751523
 20
644.32835505311857
 30
0.0
  0
VERTEX
  5
19608
  8
AM_4
 10
132.01899340074769
 20
644.53566723830647
 30
0.0
  0
VERTEX
  5
19609
  8
AM_4
 10
131.5480612772908
 20
644.79757193532873
 30
0.0
  0
VERTEX
  5
1960A
  8
AM_4
 10
130.9813013017102
 20
645.11371358480403
 30
0.0
  0
VERTEX
  5
1960B
  8
AM_4
 10
130.22612214621941
 20
645.47997563035165
 30
0.0
  0
VERTEX
  5
1960C
  8
AM_4
 10
129.1899324830311
 20
645.89224151559165
 30
0.0
  0
VERTEX
  5
1960D
  8
AM_4
 10
127.7801409843587
 20
646.34639468414252
 30
0.0
  0
VERTEX
  5
1960E
  8
AM_4
 10
125.9041563224151
 20
646.83831857962412
 30
0.0
  0
VERTEX
  5
1960F
  8
AM_4
 10
124.4400300033372
 20
647.15437017665465
 30
0.0
  0
SEQEND
  5
19610
  8
AM_4
  0
LINE
  5
19611
  8
AM_0
 10
136.4400300033372
 20
641.63200650524095
 30
0.0
 11
124.4400300033372
 21
630.13265747383559
 31
0.0
  0
LINE
  5
19612
  8
AM_0
 10
124.4400300033372
 20
641.63200650524084
 30
0.0
 11
136.4400300033372
 21
630.13265747383559
 31
0.0
  0
LINE
  5
19613
  8
AM_0
 10
136.4400300033372
 20
641.63200650524095
 30
0.0
 11
124.4400300033372
 21
641.63200650524084
 31
0.0
  0
LINE
  5
19614
  8
AM_0
 10
279.44003848389451
 20
623.832006505241
 30
0.0
 11
119.4400298528256
 21
623.83200650524111
 31
0.0
  0
LINE
  5
19615
  8
AM_0
 10
122.4397442088395
 20
620.13200650524061
 30
0.0
 11
147.53974420883961
 21
620.13200650524084
 31
0.0
  0
LINE
  5
19616
  8
ﾁｭｳｼﾝｾﾝ1
 10
284.44003848389463
 20
597.63200650524084
 30
0.0
 11
114.4400298528255
 21
597.63200650524084
 31
0.0
  0
LINE
  5
19617
  8
AM_0
 10
124.4400300033372
 20
630.13265747383559
 30
0.0
 11
124.4400300033372
 21
647.15437017665465
 31
0.0
  0
LINE
  5
19618
  8
AM_0
 10
122.4397442088395
 20
620.13200650524061
 30
0.0
 11
119.4397442088395
 21
621.86405731280945
 31
0.0
  0
LINE
  5
19619
  8
AM_0
 10
249.79471813676139
 20
630.13265747383559
 30
0.0
 11
279.44003848389463
 21
630.13265747383559
 31
0.0
  0
LINE
  5
1961A
  8
AM_0
 10
276.44003848389463
 20
620.13200650524061
 30
0.0
 11
251.34003848389449
 21
620.13200650524084
 31
0.0
  0
LINE
  5
1961B
  8
AM_0
 10
212.4400384838946
 20
620.38200650524095
 30
0.0
 11
186.43974420883939
 21
620.38200650524084
 31
0.0
  0
LINE
  5
1961C
  8
AM_0
 10
149.4397442088397
 20
620.13200650524084
 30
0.0
 11
186.4397442088395
 21
620.13200650524084
 31
0.0
  0
LINE
  5
1961D
  8
AM_0
 10
136.4400300033372
 20
630.13265747383559
 30
0.0
 11
136.44003000333711
 21
641.63200650524084
 31
0.0
  0
LINE
  5
1961E
  8
AM_0
 10
147.53974420883961
 20
621.38200650524084
 30
0.0
 11
149.4397442088397
 21
621.38200650524084
 31
0.0
  0
LINE
  5
1961F
  8
AM_0
 10
249.4400384838944
 20
620.13200650524084
 30
0.0
 11
212.44003848389451
 21
620.13200650524084
 31
0.0
  0
LINE
  5
19620
  8
AM_0
 10
251.34003848389449
 20
621.38200650524084
 30
0.0
 11
249.4400384838944
 21
621.38200650524084
 31
0.0
  0
LINE
  5
19621
  8
AM_0
 10
274.44003833338297
 20
630.13265747383559
 30
0.0
 11
274.44003833338297
 21
646.44590908024225
 31
0.0
  0
LINE
  5
19622
  8
AM_0
 10
274.44003833338292
 20
641.63200650524084
 30
0.0
 11
262.44003833338297
 21
630.13265747383559
 31
0.0
  0
LINE
  5
19623
  8
AM_0
 10
262.44003833338297
 20
641.63200650524084
 30
0.0
 11
274.44003833338297
 21
630.13265747383559
 31
0.0
  0
LINE
  5
19624
  8
AM_0
 10
262.44003833338297
 20
630.13265747383559
 30
0.0
 11
262.44003833338297
 21
641.63200650524084
 31
0.0
  0
LINE
  5
19625
  8
AM_0
 10
276.44003848389463
 20
620.13200650524061
 30
0.0
 11
279.44003848389463
 21
621.86405731280945
 31
0.0
  0
LINE
  5
19626
  8
AM_0
 10
274.44003833338292
 20
641.63200650524084
 30
0.0
 11
262.44003833338309
 21
641.63200650524084
 31
0.0
  0
LINE
  5
19627
  8
AM_0
 10
628.25897570111147
 20
819.23169205390104
 30
0.0
 11
528.25697272081982
 21
819.23169205390104
 31
0.0
  0
LINE
  5
19628
  8
AM_0
 10
610.75862517956045
 20
824.23169220441275
 30
0.0
 11
545.75732324237083
 21
824.23169220441196
 31
0.0
  0
LINE
  5
19629
  8
AM_0
 10
726.28549659233408
 20
814.23169571808671
 30
0.0
 11
496.23043855786602
 21
814.23169571808626
 31
0.0
  0
LINE
  5
19631
  8
AM_0
 10
728.25794820873443
 20
701.23168850182685
 30
0.0
 11
494.25797168237051
 21
701.23168850182674
 31
0.0
  0
LINE
  5
19632
  8
ﾁｭｳｼﾝｾﾝ1
 10
1055.9200000000001
 20
744.23202194088913
 30
0.0
 11
489.25797168237028
 21
744.23202694088911
 31
0.0
  0
LINE
  5
19633
  8
AM_0
 10
740.25800213686114
 20
681.23202420965856
 30
0.0
 11
740.25800213686114
 21
811.41718061457493
 31
0.0
  0
LINE
  5
19634
  8
AM_0
 10
726.28549659233408
 20
814.23169571808671
 30
0.0
 11
728.25794820873443
 21
701.23168850182685
 31
0.0
  0
LINE
  5
19638
  8
AM_0
 10
754.25800213686114
 20
670.7320379408892
 30
0.0
 11
754.25800213686114
 21
817.73202694088911
 31
0.0
  0
LINE
  5
19639
  8
AM_0
 10
738.25800215862409
 20
741.73202423142175
 30
0.0
 11
729.58621710109242
 21
741.73202432578296
 31
0.0
  0
LINE
  5
1963A
  8
AM_0
 10
738.25800211509875
 20
746.73202423142175
 30
0.0
 11
729.42911915121852
 21
746.73202432749201
 31
0.0
  0
LINE
  5
1963B
  8
AM_0
 10
737.48853784262133
 20
705.23168850182685
 30
0.0
 11
730.2233422279794
 21
705.23168850182685
 31
0.0
  0
LINE
  5
1963C
  8
AM_0
 10
740.55726563259554
 20
672.66223894748407
 30
0.0
 11
739.48731949665944
 21
703.30148749523198
 31
0.0
  0
LINE
  5
1963D
  8
AM_0
 10
754.2579421368614
 20
670.7320379408892
 30
0.0
 11
742.55604728663377
 21
670.7320379408892
 31
0.0
  0
ARC
  5
1963E
  8
AM_0
 10
742.55604728663377
 20
672.73203794088874
 30
0.0
 40
2.0
 50
181.9999999999971
 51
270.0
1001
GENIUS_GENODEF_13
1002
{
1000
HIER
1070
     0
1002
}
1002
{
1000
MANEDIT
1070
     0
1002
}
1002
{
1000
NOSEL
1070
     0
1002
}
1002
{
1000
BEHIND
1070
     0
1002
}
1002
{
1000
OTHER
1070
     0
1002
}
1002
{
1000
REACTOR
1002
}
1001
GENIUS_GENOBJ-N-FIL_13
1002
{
1000
OWNER
1000
GEN
1002
}
  0
ARC
  5
1963F
  8
AM_0
 10
737.48853784262133
 20
703.23168850182674
 30
0.0
 40
2.0
 50
1.999999999997115
 51
90.0
1001
GENIUS_GENODEF_13
1002
{
1000
HIER
1070
     0
1002
}
1002
{
1000
MANEDIT
1070
     0
1002
}
1002
{
1000
NOSEL
1070
     0
1002
}
1002
{
1000
BEHIND
1070
     0
1002
}
1002
{
1000
OTHER
1070
     0
1002
}
1002
{
1000
REACTOR
1002
}
1001
GENIUS_GENOBJ-N-FIL_13
1002
{
1000
OWNER
1000
GEN
1002
}
  0
ARC
  5
19640
  8
AM_0
 10
738.25800213686171
 20
739.73202423142186
 30
0.0
 40
2.0
 50
0.0
 51
89.999999376540444
1001
GENIUS_GENOBJ-N-FIL_13
1002
{
1000
OWNER
1000
GEN
1002
}
1001
GENIUS_GENODEF_13
1002
{
1000
HIER
1070
     0
1002
}
1002
{
1000
MANEDIT
1070
     0
1002
}
1002
{
1000
NOSEL
1070
     0
1002
}
1002
{
1000
BEHIND
1070
     0
1002
}
1002
{
1000
OTHER
1070
     0
1002
}
1002
{
1000
REACTOR
1002
}
  0
ARC
  5
19641
  8
AM_0
 10
738.25800213686159
 20
748.73202423142175
 30
0.0
 40
2.0
 50
269.99999937654042
 51
0.0
1001
GENIUS_GENOBJ-N-FIL_13
1002
{
1000
OWNER
1000
GEN
1002
}
1001
GENIUS_GENODEF_13
1002
{
1000
HIER
1070
     0
1002
}
1002
{
1000
MANEDIT
1070
     0
1002
}
1002
{
1000
NOSEL
1070
     0
1002
}
1002
{
1000
BEHIND
1070
     0
1002
}
1002
{
1000
OTHER
1070
     0
1002
}
1002
{
1000
REACTOR
1002
}
  0
ARC
  5
19646
  8
AM_0
 10
730.22334222797963
 20
703.23168850182674
 30
0.0
 40
2.0
 50
90.0
 51
181.00001477758079
1001
GENIUS_GENOBJ-N-FIL_13
1002
{
1000
OWNER
1000
GEN
1002
}
1001
GENIUS_GENODEF_13
1002
{
1000
HIER
1070
     0
1002
}
1002
{
1000
MANEDIT
1070
     0
1002
}
1002
{
1000
NOSEL
1070
     0
1002
}
1002
{
1000
BEHIND
1070
     0
1002
}
1002
{
1000
OTHER
1070
     0
1002
}
1002
{
1000
REACTOR
1002
}
  0
ARC
  5
19647
  8
AM_0
 10
729.58621707932923
 20
739.73202432578273
 30
0.0
 40
2.0
 50
89.999999376540444
 51
181.00001477758079
1001
GENIUS_GENOBJ-N-FIL_13
1002
{
1000
OWNER
1000
GEN
1002
}
1001
GENIUS_GENODEF_13
1002
{
1000
HIER
1070
     0
1002
}
1002
{
1000
MANEDIT
1070
     0
1002
}
1002
{
1000
NOSEL
1070
     0
1002
}
1002
{
1000
BEHIND
1070
     0
1002
}
1002
{
1000
OTHER
1070
     0
1002
}
1002
{
1000
REACTOR
1002
}
  0
ARC
  5
19648
  8
AM_0
 10
729.42911917298159
 20
748.73202432749201
 30
0.0
 40
2.0
 50
181.00001477758079
 51
269.99999937654042
1001
GENIUS_GENODEF_13
1002
{
1000
HIER
1070
     0
1002
}
1002
{
1000
MANEDIT
1070
     0
1002
}
1002
{
1000
NOSEL
1070
     0
1002
}
1002
{
1000
BEHIND
1070
     0
1002
}
1002
{
1000
OTHER
1070
     0
1002
}
1002
{
1000
REACTOR
1002
}
1001
GENIUS_GENOBJ-N-FIL_13
1002
{
1000
OWNER
1000
GEN
1002
}
  0
LINE
  5
1964D
  8
AM_0
 10
738.43137542454394
 20
810.23169571808671
 30
0.0
 11
728.32071190327542
 21
810.23169571808671
 31
0.0
  0
LINE
  5
1964E
  8
AM_0
 10
740.43015707858228
 20
812.1618967246817
 30
0.0
 11
740.55726620747714
 21
815.80182593429424
 31
0.0
  0
ARC
  5
1964F
  8
AM_0
 10
738.43137542454394
 20
812.23169571808626
 30
0.0
 40
2.0
 50
270.0
 51
358.0000000000029
1001
GENIUS_GENODEF_13
1002
{
1000
HIER
1070
     0
1002
}
1002
{
1000
MANEDIT
1070
     0
1002
}
1002
{
1000
NOSEL
1070
     0
1002
}
1002
{
1000
BEHIND
1070
     0
1002
}
1002
{
1000
OTHER
1070
     0
1002
}
1002
{
1000
REACTOR
1002
}
1001
GENIUS_GENOBJ-N-FIL_13
1002
{
1000
OWNER
1000
GEN
1002
}
  0
LINE
  5
19650
  8
AM_0
 10
754.2579421368614
 20
817.73202694088911
 30
0.0
 11
742.55604786151582
 21
817.73202694088911
 31
0.0
  0
ARC
  5
19651
  8
AM_0
 10
742.55604786151582
 20
815.732026940889
 30
0.0
 40
2.0
 50
90.0
 51
178.00000000000259
1001
GENIUS_GENODEF_13
1002
{
1000
HIER
1070
     0
1002
}
1002
{
1000
MANEDIT
1070
     0
1002
}
1002
{
1000
NOSEL
1070
     0
1002
}
1002
{
1000
BEHIND
1070
     0
1002
}
1002
{
1000
OTHER
1070
     0
1002
}
1002
{
1000
REACTOR
1002
}
1001
GENIUS_GENOBJ-N-FIL_13
1002
{
1000
OWNER
1000
GEN
1002
}
  0
ARC
  5
19652
  8
AM_0
 10
728.32071190327542
 20
812.23169571808626
 30
0.0
 40
2.0
 50
181.00001477758079
 51
270.0
1001
GENIUS_GENOBJ-N-FIL_13
1002
{
1000
OWNER
1000
GEN
1002
}
1001
GENIUS_GENODEF_13
1002
{
1000
HIER
1070
     0
1002
}
1002
{
1000
MANEDIT
1070
     0
1002
}
1002
{
1000
NOSEL
1070
     0
1002
}
1002
{
1000
BEHIND
1070
     0
1002
}
1002
{
1000
OTHER
1070
     0
1002
}
1002
{
1000
REACTOR
1002
}
  0
LINE
  5
19653
  8
AM_0
 10
628.25897570111147
 20
819.23169205390104
 30
0.0
 11
628.25897570111147
 21
814.23169190338933
 31
0.0
  0
LINE
  5
19654
  8
AM_0
 10
610.75862517956045
 20
824.23169220441275
 30
0.0
 11
610.75862517956045
 21
819.23169205390104
 31
0.0
  0
LINE
  5
19655
  8
ﾁｭｳｼﾝｾﾝ1
 10
578.2579742109657
 20
634.23168850182674
 30
0.0
 11
578.25797421096524
 21
829.23169220441252
 31
0.0
  0
LINE
  5
19659
  8
AM_0
 10
496.23043855786602
 20
814.23169571808626
 30
0.0
 11
494.25797168237051
 21
701.23168850182674
 31
0.0
  0
LINE
  5
19661
  8
AM_0
 10
545.75732324237083
 20
824.23169220441196
 30
0.0
 11
545.75732324237083
 21
819.23169205390104
 31
0.0
  0
LINE
  5
19662
  8
AM_0
 10
528.25697272081982
 20
819.23169205390104
 30
0.0
 11
528.25697272081982
 21
814.23169190338911
 31
0.0
  0
LINE
  5
196C3
  8
AM_0
 10
756.55800213686155
 20
677.2320240322922
 30
0.0
 11
756.55800213686155
 21
811.2320240322922
 31
0.0
  0
LINE
  5
196C4
  8
AM_0
 10
756.55800213686155
 20
677.2320240322922
 30
0.0
 11
754.25800213686114
 21
677.23202405731945
 31
0.0
  0
LINE
  5
196C5
  8
AM_0
 10
756.55800213686155
 20
727.2320240322922
 30
0.0
 11
754.25800213686114
 21
727.23202405731922
 31
0.0
  0
LINE
  5
196C6
  8
AM_0
 10
756.55800359497164
 20
811.2320240322922
 30
0.0
 11
754.25800359497146
 21
811.23202405731922
 31
0.0
  0
LINE
  5
196C7
  8
AM_0
 10
756.55800250682955
 20
761.23202403229209
 30
0.0
 11
754.2580025068296
 21
761.23202405731922
 31
0.0
  0
LINE
  5
196C8
  8
0
 10
524.25833221882306
 20
817.2316957180866
 30
0.0
 11
524.25833221882306
 21
833.2316957180866
 31
0.0
  0
LINE
  5
196C9
  8
0
 10
500.258332218823
 20
833.2316957180866
 30
0.0
 11
500.258332218823
 21
817.2316957180866
 31
0.0
  0
LINE
  5
196CA
  8
0
 10
524.25833221882306
 20
833.2316957180866
 30
0.0
 11
500.258332218823
 21
833.2316957180866
 31
0.0
  0
LINE
  5
196CB
  8
0
 10
527.25833221882306
 20
817.2316957180866
 30
0.0
 11
497.258332218823
 21
817.2316957180866
 31
0.0
  0
LINE
  5
196CC
  8
0
 10
497.258332218823
 20
817.2316957180866
 30
0.0
 11
497.258332218823
 21
814.23169571808626
 31
0.0
  0
LINE
  5
196CD
  8
0
 10
527.25833221882306
 20
817.2316957180866
 30
0.0
 11
527.25833221882306
 21
814.23169571808626
 31
0.0
  0
LINE
  5
196CE
  8
0
 10
722.25794766689273
 20
817.2316957180866
 30
0.0
 11
722.25794766689273
 21
833.2316957180866
 31
0.0
  0
LINE
  5
196CF
  8
0
 10
698.2579476668933
 20
833.2316957180866
 30
0.0
 11
698.2579476668933
 21
817.2316957180866
 31
0.0
  0
LINE
  5
196D0
  8
0
 10
722.25794766689273
 20
833.2316957180866
 30
0.0
 11
698.2579476668933
 21
833.2316957180866
 31
0.0
  0
LINE
  5
196D1
  8
0
 10
725.25794766689273
 20
817.2316957180866
 30
0.0
 11
695.25794766689296
 21
817.2316957180866
 31
0.0
  0
LINE
  5
196D2
  8
0
 10
695.25794766689296
 20
817.2316957180866
 30
0.0
 11
695.25794766689296
 21
814.23169571808671
 31
0.0
  0
LINE
  5
196D3
  8
0
 10
725.25794766689273
 20
817.2316957180866
 30
0.0
 11
725.25794766689273
 21
814.23169571808671
 31
0.0
  0
LINE
  5
198AA
  8
AM_0
 10
492.2579716823704
 20
644.23168850182697
 30
0.0
 11
730.24843206976448
 21
644.23168850182674
 31
0.0
  0
LINE
  5
198AB
  8
AM_0
 10
728.25794820873443
 20
701.23168850182685
 30
0.0
 11
730.24843206976448
 21
644.23168850182674
 31
0.0
  0
LINE
  5
198AC
  8
AM_0
 10
494.25797168237051
 20
701.23168850182674
 30
0.0
 11
492.2579716823704
 21
644.23168850182697
 31
0.0
  0
LINE
  5
19A86
  8
AM_0
 10
729.37541283253267
 20
669.23168850005345
 30
0.0
 11
493.13516466476449
 21
669.23168850005356
 31
0.0
  0
LINE
  5
19A89
  8
AM_0
 10
514.56373591640943
 20
644.23168850182697
 30
0.0
 11
514.56373591640943
 21
669.23168850005356
 31
0.0
  0
LINE
  5
19A8B
  8
ﾁｭｳｼﾝｾﾝ1
 10
526.2579456832492
 20
634.23168850182674
 30
0.0
 11
526.2579456832492
 21
679.23168850005345
 31
0.0
  0
LINE
  5
19A8E
  8
AM_0
 10
707.9426678357255
 20
644.23168850182697
 30
0.0
 11
707.9426678357255
 21
669.23168850005356
 31
0.0
  0
LINE
  5
19A8F
  8
ﾁｭｳｼﾝｾﾝ1
 10
696.24845806888584
 20
634.23168850182674
 30
0.0
 11
696.24845806888584
 21
679.23168850005345
 31
0.0
  0
ARC
  5
1D458
  8
AM_0
 10
763.25794213686152
 20
282.03796443779822
 30
0.0
 40
1.0
 50
270.0
 51
0.000000000000007
  0
ARC
  5
1D459
  8
AM_0
 10
763.25794213686152
 20
406.11558043779843
 30
0.0
 40
1.0
 50
0.000000000000007
 51
90.0
  0
ARC
  5
1D45A
  8
AM_0
 10
765.26637713686114
 20
810.73206144088886
 30
0.0
 40
2.0
 50
90.0
 51
164.99999999999881
  0
LINE
  5
1D45B
  8
AM_0
 10
762.25800213686114
 20
807.23206144088886
 30
0.0
 11
763.33452513686154
 21
811.24969944088934
 31
0.0
  0
LINE
  5
1D45C
  8
AM_0
 10
762.25800213686114
 20
808.85364244088885
 30
0.0
 11
765.14976913686155
 21
819.64586444088923
 31
0.0
  0
ARC
  5
1D45D
  8
AM_0
 10
767.08162113686114
 20
819.12822644088942
 30
0.0
 40
2.0
 50
90.0
 51
165.0000029999982
  0
LINE
  5
1D45E
  8
AM_0
 10
831.25800213686125
 20
822.09425944088923
 30
0.0
 11
831.25800213686125
 21
821.12822644088897
 31
0.0
  0
ARC
  5
1D45F
  8
AM_0
 10
833.25800213686114
 20
820.66163044088887
 30
0.0
 40
2.0
 50
90.0
 51
166.50868899999799
  0
ARC
  5
1D460
  8
AM_0
 10
833.25800213686114
 20
821.66698144088912
 30
0.0
 40
2.0
 50
90.0
 51
180.0
  0
ARC
  5
1D461
  8
AM_0
 10
833.25800213686114
 20
822.09425944088923
 30
0.0
 40
2.0
 50
90.0
 51
180.0
  0
ARC
  5
1D462
  8
AM_0
 10
918.25800213686114
 20
822.75405644088914
 30
0.0
 40
2.0
 50
195.7695469999999
 51
270.0
  0
ARC
  5
1D463
  8
AM_0
 10
918.25800213686114
 20
820.11641744088888
 30
0.0
 40
2.0
 50
180.0
 51
270.0
  0
LINE
  5
1D464
  8
AM_0
 10
916.25800213686114
 20
815.76042844088897
 30
0.0
 11
916.25800213686114
 21
819.12822644088942
 31
0.0
  0
ARC
  5
1D465
  8
AM_0
 10
914.25800213686125
 20
819.12822644088942
 30
0.0
 40
2.0
 50
0.0
 51
90.0
  0
ARC
  5
1D466
  8
AM_0
 10
914.25800213686125
 20
820.66163044088887
 30
0.0
 40
2.0
 50
0.0
 51
90.0
  0
ARC
  5
1D467
  8
AM_0
 10
914.4085521368612
 20
821.66698144088912
 30
0.0
 40
2.0
 50
15.76954699999988
 51
90.0
  0
LINE
  5
1D468
  8
AM_0
 10
916.25800213686114
 20
820.11641744088888
 30
0.0
 11
916.25800213686114
 21
820.66163044088887
 31
0.0
  0
ARC
  5
1D469
  8
AM_0
 10
914.25800213686125
 20
822.09425944088923
 30
0.0
 40
2.0
 50
0.0
 51
90.0
  0
ARC
  5
1D46A
  8
AM_0
 10
918.25800213686114
 20
815.76042844088897
 30
0.0
 40
2.0
 50
180.0
 51
270.0
  0
LINE
  5
1D46B
  8
AM_0
 10
914.25800213686125
 20
821.12822644088897
 30
0.0
 11
767.08162113686114
 21
821.12822644088897
 31
0.0
  0
LINE
  5
1D46C
  8
AM_0
 10
914.25800213686125
 20
822.66163044088921
 30
0.0
 11
833.25800213686114
 21
822.66163044088921
 31
0.0
  0
LINE
  5
1D46D
  8
AM_0
 10
914.4085521368612
 20
823.66698144088934
 30
0.0
 11
833.25800213686114
 21
823.66698144088934
 31
0.0
  0
LINE
  5
1D46E
  8
AM_0
 10
914.25800213686125
 20
824.09425944088923
 30
0.0
 11
833.25800213686114
 21
824.09425944088923
 31
0.0
  0
LINE
  5
1D46F
  8
AM_0
 10
918.25800213686114
 20
813.7604284408892
 30
0.0
 11
926.25800213686114
 21
813.7604284408892
 31
0.0
  0
LINE
  5
1D470
  8
AM_0
 10
918.25800213686114
 20
818.11641744088911
 30
0.0
 11
926.25800213686114
 21
818.11641744088911
 31
0.0
  0
LINE
  5
1D471
  8
AM_0
 10
918.25800213686114
 20
820.75405644088914
 30
0.0
 11
926.25800213686114
 21
820.75405644088914
 31
0.0
  0
ARC
  5
1D472
  8
AM_0
 10
765.26637713686114
 20
677.73206144088886
 30
0.0
 40
2.0
 50
195.00000000000111
 51
270.0
  0
LINE
  5
1D473
  8
AM_0
 10
762.25800213686114
 20
681.23206144088874
 30
0.0
 11
763.33452513686154
 21
677.21442344088894
 31
0.0
  0
ARC
  5
1D474
  8
AM_0
 10
767.08162113686114
 20
669.33589644088875
 30
0.0
 40
2.0
 50
194.9999970000016
 51
270.0
  0
LINE
  5
1D475
  8
AM_0
 10
762.25800213686114
 20
679.61048044088921
 30
0.0
 11
765.14976913686155
 21
668.81825844088928
 31
0.0
  0
ARC
  5
1D476
  8
AM_0
 10
833.25800213686114
 20
666.36986344088893
 30
0.0
 40
2.0
 50
180.0
 51
270.0
  0
ARC
  5
1D477
  8
AM_0
 10
833.25800213686114
 20
666.79714144088939
 30
0.0
 40
2.0
 50
180.0
 51
270.0
  0
ARC
  5
1D478
  8
AM_0
 10
833.25800213686114
 20
667.8024924408893
 30
0.0
 40
2.0
 50
193.49131100000179
 51
270.0
  0
LINE
  5
1D479
  8
AM_0
 10
831.25800213686125
 20
666.36986344088893
 30
0.0
 11
831.25800213686125
 21
667.33589644088886
 31
0.0
  0
ARC
  5
1D47A
  8
AM_0
 10
918.25800213686114
 20
672.70369444088931
 30
0.0
 40
2.0
 50
90.0
 51
180.0
  0
LINE
  5
1D47B
  8
AM_0
 10
918.25800213686114
 20
674.70369444088919
 30
0.0
 11
926.25800213686114
 21
674.70369444088919
 31
0.0
  0
LINE
  5
1D47C
  8
AM_0
 10
918.25800213686114
 20
670.34770544088917
 30
0.0
 11
926.25800213686114
 21
670.34770544088917
 31
0.0
  0
ARC
  5
1D47D
  8
AM_0
 10
914.25800213686125
 20
666.36986344088893
 30
0.0
 40
2.0
 50
270.0
 51
0.0
  0
LINE
  5
1D47E
  8
AM_0
 10
916.25800213686114
 20
668.34770544088951
 30
0.0
 11
916.25800213686114
 21
667.8024924408893
 31
0.0
  0
ARC
  5
1D47F
  8
AM_0
 10
914.4085521368612
 20
666.79714144088939
 30
0.0
 40
2.0
 50
270.0
 51
344.23045300000013
  0
ARC
  5
1D480
  8
AM_0
 10
918.25800213686114
 20
665.71006644088902
 30
0.0
 40
2.0
 50
90.0
 51
164.2304530000001
  0
ARC
  5
1D481
  8
AM_0
 10
914.25800213686125
 20
667.8024924408893
 30
0.0
 40
2.0
 50
270.0
 51
0.0
  0
ARC
  5
1D482
  8
AM_0
 10
914.25800213686125
 20
669.33589644088875
 30
0.0
 40
2.0
 50
270.0
 51
0.0
  0
LINE
  5
1D483
  8
AM_0
 10
916.25800213686114
 20
672.70369444088931
 30
0.0
 11
916.25800213686114
 21
669.33589644088875
 31
0.0
  0
ARC
  5
1D484
  8
AM_0
 10
918.25800213686114
 20
668.34770544088951
 30
0.0
 40
2.0
 50
90.0
 51
180.0
  0
LINE
  5
1D485
  8
AM_0
 10
914.25800213686125
 20
667.33589644088886
 30
0.0
 11
767.08162113686114
 21
667.33589644088886
 31
0.0
  0
LINE
  5
1D486
  8
AM_0
 10
914.25800213686125
 20
665.80249244088895
 30
0.0
 11
833.25800213686114
 21
665.80249244088895
 31
0.0
  0
LINE
  5
1D487
  8
AM_0
 10
914.4085521368612
 20
664.79714144088894
 30
0.0
 11
833.25800213686114
 21
664.79714144088894
 31
0.0
  0
LINE
  5
1D488
  8
AM_0
 10
914.25800213686125
 20
664.36986344088893
 30
0.0
 11
833.25800213686114
 21
664.36986344088893
 31
0.0
  0
LINE
  5
1D489
  8
AM_0
 10
918.25800213686114
 20
667.71006644088891
 30
0.0
 11
926.25800213686114
 21
667.71006644088891
 31
0.0
  0
ARC
  5
1D48C
  8
AM_0
 10
763.25800213686114
 20
682.23206144088886
 30
0.0
 40
1.0
 50
270.0
 51
0.0
  0
ARC
  5
1D48D
  8
AM_0
 10
763.25800213686114
 20
806.23206144088886
 30
0.0
 40
1.0
 50
0.0
 51
90.0
  0
LINE
  5
1D4BA
  8
AM_0
 10
764.25800213686125
 20
788.06206144088901
 30
0.0
 11
764.25800213686125
 21
780.42206144088914
 31
0.0
  0
ARC
  5
1D4BB
  8
AM_0
 10
763.26297713686131
 20
787.19644144088932
 30
0.0
 40
1.006985999999999
 50
98.392163000002284
 51
179.64700200000121
  0
ARC
  5
1D4BC
  8
AM_0
 10
763.25864113686112
 20
791.27359244088882
 30
0.0
 40
1.0026319999999971
 50
180.05408499999839
 51
261.24375900000098
  0
LINE
  5
1D4BD
  8
AM_0
 10
762.25600913686162
 20
787.20264544088923
 30
0.0
 11
762.25600913686162
 21
791.27264544088882
 31
0.0
  0
ARC
  5
1D4BE
  8
AM_0
 10
764.79936513686152
 20
789.22600144088926
 30
0.0
 40
0.8033630000000001
 50
180.23932999999781
 51
269.76067000000211
  0
LINE
  5
1D4BF
  8
AM_0
 10
763.11600913686152
 20
788.19264544088924
 30
0.0
 11
764.71869713686112
 21
788.41206144088881
 31
0.0
  0
ARC
  5
1D4C0
  8
AM_0
 10
764.80107113686131
 20
789.21758344088903
 30
0.0
 40
0.8050779999999997
 50
90.360251000001654
 51
179.63974899999829
  0
LINE
  5
1D4C1
  8
AM_0
 10
763.10600913686153
 20
790.28264544088915
 30
0.0
 11
764.86480813686114
 21
790.01206144088917
 31
0.0
  0
LINE
  5
1D4C2
  8
AM_0
 10
764.25800213686125
 20
698.06206144088924
 30
0.0
 11
764.25800213686125
 21
682.23206144088886
 31
0.0
  0
ARC
  5
1D4C3
  8
AM_0
 10
763.26297713686131
 20
701.26768144088931
 30
0.0
 40
1.006985999999999
 50
180.35299799999879
 51
261.6078369999978
  0
ARC
  5
1D4C4
  8
AM_0
 10
764.80107113686131
 20
699.24653944088914
 30
0.0
 40
0.8050779999999997
 50
180.3602510000016
 51
269.6397489999984
  0
ARC
  5
1D4C5
  8
AM_0
 10
764.79936513686152
 20
699.23812144088902
 30
0.0
 40
0.8033630000000001
 50
90.239329999997906
 51
179.76067000000199
  0
ARC
  5
1D4C6
  8
AM_0
 10
763.25864113686112
 20
697.19053044088923
 30
0.0
 40
1.0026319999999971
 50
98.756240999999065
 51
179.94591500000149
  0
LINE
  5
1D4C7
  8
AM_0
 10
762.25600913686162
 20
701.26147744088883
 30
0.0
 11
762.25600913686162
 21
697.19147744088923
 31
0.0
  0
LINE
  5
1D4C8
  8
AM_0
 10
763.10600913686153
 20
698.18147744088924
 30
0.0
 11
764.86480813686114
 21
698.45206144088934
 31
0.0
  0
LINE
  5
1D4C9
  8
AM_0
 10
763.11600913686152
 20
700.27147744088893
 30
0.0
 11
764.71869713686112
 21
700.05206144088925
 31
0.0
  0
LINE
  5
1D4CA
  8
AM_0
 10
764.25800213686125
 20
706.36811644088903
 30
0.0
 11
756.55800213686155
 21
706.36811644088903
 31
0.0
  0
LINE
  5
1D4CB
  8
AM_0
 10
764.25800213686125
 20
782.08600644088926
 30
0.0
 11
756.55800213686155
 21
782.08600644088926
 31
0.0
  0
LINE
  5
1D556
  8
AM_0
 10
124.440044003273
 20
377.98627059415912
 30
0.0
 11
123.4577167678287
 21
378.08116222917943
 31
0.0
  0
LINE
  5
1D557
  8
AM_0
 10
124.440044003273
 20
380.15129418177582
 30
0.0
 11
123.4734307678288
 21
380.07328922917941
 31
0.0
  0
ARC
  5
1D56A
  8
AM_0
 10
123.55386776782881
 20
379.07652922917941
 30
0.0
 40
1.0
 50
94.613730000001624
 51
264.4824159999979
  0
LINE
  5
1D56D
  8
AM_0
 10
121.9935097678289
 20
370.07592022917947
 30
0.0
 11
124.4400440032729
 21
370.16135492028923
 31
0.0
  0
ARC
  5
1D56E
  8
AM_0
 10
122.02840876782869
 20
369.07652922917941
 30
0.0
 40
1.0
 50
91.999999999997186
 51
268.0000000000029
  0
LINE
  5
1D56F
  8
AM_0
 10
121.9935097678289
 20
368.07713822917941
 30
0.0
 11
124.4400440032729
 21
367.99170332158712
 31
0.0
  0
ARC
  5
1D5CC
  8
ｶｸﾚｾﾝ2
 10
774.25800213686114
 20
710.23206144088886
 30
0.0
 40
2.0
 50
180.0
 51
270.0
  0
LINE
  5
1D5CD
  8
ｶｸﾚｾﾝ2
 10
774.25800213686114
 20
719.73206144088886
 30
0.0
 11
774.75800213686114
 21
719.73206144088886
 31
0.0
  0
ARC
  5
1D5CE
  8
ｶｸﾚｾﾝ2
 10
774.25800213686114
 20
717.73206144088886
 30
0.0
 40
2.0
 50
90.0
 51
180.0
  0
LINE
  5
1D5CF
  8
ｶｸﾚｾﾝ2
 10
772.25800213686125
 20
710.23206144088886
 30
0.0
 11
772.25800213686125
 21
717.73206144088886
 31
0.0
  0
ARC
  5
1D5D0
  8
ｶｸﾚｾﾝ2
 10
774.75800213686114
 20
721.73206144088886
 30
0.0
 40
2.0
 50
270.0
 51
0.0
  0
ARC
  5
1D5D1
  8
ｶｸﾚｾﾝ2
 10
774.25800213686114
 20
778.23206144088886
 30
0.0
 40
2.0
 50
90.0
 51
180.0
  0
LINE
  5
1D5D2
  8
ｶｸﾚｾﾝ2
 10
772.25800213686125
 20
778.23206144088886
 30
0.0
 11
772.25800213686125
 21
770.73206144088897
 31
0.0
  0
LINE
  5
1D5D3
  8
ｶｸﾚｾﾝ2
 10
774.25800213686114
 20
768.73206144088886
 30
0.0
 11
774.75800213686114
 21
768.73206144088886
 31
0.0
  0
ARC
  5
1D5D4
  8
ｶｸﾚｾﾝ2
 10
774.25800213686114
 20
770.73206144088897
 30
0.0
 40
2.0
 50
180.0
 51
270.0
  0
ARC
  5
1D5D5
  8
ｶｸﾚｾﾝ2
 10
774.75800213686114
 20
766.73206144088897
 30
0.0
 40
2.0
 50
0.0
 51
90.0
  0
LINE
  5
1D5D6
  8
AM_0
 10
1009.558002136861
 20
746.73206144088886
 30
0.0
 11
1009.558002136861
 21
824.2120614408891
 31
0.0
  0
ARC
  5
1D5D7
  8
AM_0
 10
1035.380052136861
 20
671.59015044088892
 30
0.0
 40
5.745309999999999
 50
272.8728220000034
 51
349.99567800000131
  0
ARC
  5
1D5D8
  8
AM_0
 10
1010.339279136861
 20
663.26405544088925
 30
0.0
 40
1.260022999999999
 50
93.242827000000702
 51
144.14698200000089
  0
ARC
  5
1D5D9
  8
AM_0
 10
1008.307638136861
 20
664.7236344408891
 30
0.0
 40
1.241573
 50
270.0168160000004
 51
324.46666699999912
  0
ARC
  5
1D5DA
  8
AM_0
 10
1035.3738641368609
 20
816.86696244088898
 30
0.0
 40
5.7526239999999991
 50
10.06237400000038
 51
87.069124999997058
  0
ARC
  5
1D5DB
  8
AM_0
 10
1010.334208136861
 20
825.19080344088911
 30
0.0
 40
1.2504959999999981
 50
215.64507799999589
 51
266.96511300000299
  0
ARC
  5
1D5DC
  8
AM_0
 10
1008.302665136861
 20
823.73083044088935
 30
0.0
 40
1.2512430000000001
 50
35.760896999997613
 51
89.755619999999979
  0
ARC
  5
1D5DD
  8
AM_0
 10
1044.3081521368611
 20
807.03651744088882
 30
0.0
 40
2.249854
 50
359.8865100000022
 51
81.569506999999646
  0
ARC
  5
1D5DE
  8
AM_0
 10
1045.0737221368611
 20
812.23123044088914
 30
0.0
 40
3.0009689999999982
 50
189.96231799999899
 51
261.65154100000308
  0
LINE
  5
1D5DF
  8
AM_0
 10
1038.488002136861
 20
670.73206144088897
 30
0.0
 11
1038.488002136861
 21
741.58127944088869
 31
0.0
  0
LINE
  5
1D5E0
  8
AM_0
 10
1042.558002136861
 20
807.88206144088929
 30
0.0
 11
1042.558002136861
 21
745.56535444088934
 31
0.0
  0
LINE
  5
1D5E1
  8
AM_0
 10
1010.268002136861
 20
664.52206144088893
 30
0.0
 11
1035.6680021368611
 21
665.85206144088897
 31
0.0
  0
LINE
  5
1D5E2
  8
AM_0
 10
1042.118001136861
 20
676.75206144088895
 30
0.0
 11
1041.038002136861
 21
670.59206144088932
 31
0.0
  0
LINE
  5
1D5E3
  8
AM_0
 10
1010.268002136861
 20
823.94206144088901
 30
0.0
 11
1035.6680021368611
 21
822.61206144088885
 31
0.0
  0
LINE
  5
1D5E4
  8
AM_0
 10
1009.558002136861
 20
664.25262244088924
 30
0.0
 11
1009.558002136861
 21
741.73206144088897
 31
0.0
  0
LINE
  5
1D5E5
  8
AM_0
 10
1042.1180021368609
 20
811.7120614408891
 30
0.0
 11
1041.038002136861
 21
817.87206144088896
 31
0.0
  0
LINE
  5
1D5E6
  8
AM_0
 10
1046.558002136861
 20
807.03206144088881
 30
0.0
 11
1046.558002136861
 21
743.08811744088916
 31
0.0
  0
LINE
  5
1D5E7
  8
ﾁｭｳｼﾝｾﾝ1
 10
956.25800213686125
 20
731.5121794408891
 30
0.0
 11
956.25800213686125
 21
757.8398214408893
 31
0.0
  0
LINE
  5
1D5E8
  8
AM_0
 10
1008.308002136861
 20
824.98206144088886
 30
0.0
 11
1001.258002136861
 21
824.98206144088886
 31
0.0
  0
LINE
  5
1D5E9
  8
AM_0
 10
1008.308002136861
 20
663.48206144088886
 30
0.0
 11
1001.258002136861
 21
663.48206144088886
 31
0.0
  0
LINE
  5
1D5EA
  8
ｶｸﾚｾﾝ2
 10
857.75800213686125
 20
780.23206144088886
 30
0.0
 11
774.25800213686114
 21
780.23206144088886
 31
0.0
  0
ARC
  5
1D5EB
  8
ｶｸﾚｾﾝ2
 10
857.7653581368611
 20
711.72470544088924
 30
0.0
 40
3.492651999999997
 50
269.87932800000158
 51
0.1206719999985139
  0
LINE
  5
1D5EC
  8
ｶｸﾚｾﾝ2
 10
857.75800213686125
 20
708.23206144088897
 30
0.0
 11
774.25800213686114
 21
708.23206144088897
 31
0.0
  0
LINE
  5
1D5ED
  8
ｶｸﾚｾﾝ2
 10
776.75800213686125
 20
766.73206144088897
 30
0.0
 11
776.75800213686125
 21
721.73206144088886
 31
0.0
  0
LINE
  5
1D5EE
  8
ｶｸﾚｾﾝ2
 10
861.25800213686114
 20
711.73206144088886
 30
0.0
 11
861.25800213686114
 21
776.73206144088886
 31
0.0
  0
ARC
  5
1D5EF
  8
ｶｸﾚｾﾝ2
 10
857.75750313686115
 20
776.73156244088932
 30
0.0
 40
3.5004989999999969
 50
0.0081640000011518
 51
89.991835999998841
  0
LINE
  5
1D5F0
  8
AM_0
 10
926.25800213686114
 20
826.23206144088886
 30
0.0
 11
926.25800213686114
 21
662.23206144088897
 31
0.0
  0
LINE
  5
1D5F1
  8
AM_0
 10
1001.258002136861
 20
662.23206144088897
 30
0.0
 11
1001.258002136861
 21
741.73206144088897
 31
0.0
  0
LINE
  5
1D5F2
  8
AM_0
 10
1001.258002136861
 20
826.23206144088886
 30
0.0
 11
926.25800213686114
 21
826.23206144088886
 31
0.0
  0
LINE
  5
1D5F3
  8
AM_0
 10
1001.258002136861
 20
662.23206144088897
 30
0.0
 11
926.25800213686114
 21
662.23206144088897
 31
0.0
  0
LINE
  5
1D5F4
  8
AM_0
 10
1001.258002136861
 20
746.73206144088886
 30
0.0
 11
1001.258002136861
 21
826.23206144088886
 31
0.0
  0
LINE
  5
1D5F5
  8
AM_0
 10
918.25800213686114
 20
680.87614244088877
 30
0.0
 11
926.25800213686114
 21
680.87614244088877
 31
0.0
  0
LINE
  5
1D5F6
  8
AM_0
 10
926.25800213686114
 20
698.30072944088886
 30
0.0
 11
916.25800213686114
 21
698.30072944088886
 31
0.0
  0
LINE
  5
1D5F7
  8
AM_0
 10
926.25800213686114
 20
698.71206144088887
 30
0.0
 11
916.25800213686114
 21
698.71206144088887
 31
0.0
  0
LINE
  5
1D5F8
  8
AM_0
 10
926.25800213686114
 20
709.23206144088886
 30
0.0
 11
916.25800213686114
 21
709.23206144088886
 31
0.0
  0
LINE
  5
1D5F9
  8
AM_0
 10
926.25800213686114
 20
714.95050444088884
 30
0.0
 11
916.25800213686114
 21
714.95050444088884
 31
0.0
  0
LINE
  5
1D5FA
  8
AM_0
 10
926.25800213686114
 20
698.06206144088924
 30
0.0
 11
762.76295413686114
 21
698.06206144088924
 31
0.0
  0
LINE
  5
1D5FB
  8
AM_0
 10
916.25800213686114
 20
700.40206144088927
 30
0.0
 11
846.10800213686161
 21
700.40206144088927
 31
0.0
  0
LINE
  5
1D5FC
  8
AM_0
 10
916.25800213686114
 20
700.05206144088925
 30
0.0
 11
764.71869713686112
 21
700.05206144088925
 31
0.0
  0
LINE
  5
1D5FD
  8
AM_0
 10
887.60800213686105
 20
740.0320614408887
 30
0.0
 11
926.25800213686114
 21
740.0320614408887
 31
0.0
  0
LINE
  5
1D5FE
  8
AM_0
 10
887.7180021368614
 20
738.43206144088924
 30
0.0
 11
926.25800213686114
 21
738.43206144088924
 31
0.0
  0
LINE
  5
1D5FF
  8
AM_0
 10
887.12800213686126
 20
730.03206144088881
 30
0.0
 11
926.25800213686114
 21
730.03206144088881
 31
0.0
  0
LINE
  5
1D600
  8
AM_0
 10
886.76800213686113
 20
728.43206144088924
 30
0.0
 11
926.25800213686114
 21
728.43206144088924
 31
0.0
  0
LINE
  5
1D601
  8
AM_0
 10
884.16800213686111
 20
720.0320614408887
 30
0.0
 11
926.25800213686114
 21
720.0320614408887
 31
0.0
  0
LINE
  5
1D602
  8
AM_0
 10
883.5980021368614
 20
718.43206144088913
 30
0.0
 11
926.25800213686114
 21
718.43206144088913
 31
0.0
  0
LINE
  5
1D603
  8
AM_0
 10
887.58800213686129
 20
740.24206144088885
 30
0.0
 11
926.25800213686114
 21
740.24206144088885
 31
0.0
  0
LINE
  5
1D604
  8
AM_0
 10
926.25800213686114
 20
738.2120614408891
 30
0.0
 11
763.36800213686115
 21
738.2120614408891
 31
0.0
  0
LINE
  5
1D605
  8
AM_0
 10
926.25800213686114
 20
730.26206144088883
 30
0.0
 11
763.11800213686149
 21
730.26206144088883
 31
0.0
  0
LINE
  5
1D606
  8
AM_0
 10
886.70800213686141
 20
728.18206144088924
 30
0.0
 11
926.25800213686114
 21
728.18206144088924
 31
0.0
  0
LINE
  5
1D607
  8
AM_0
 10
884.26800213686136
 20
720.31206144088924
 30
0.0
 11
926.25800213686114
 21
720.31206144088924
 31
0.0
  0
LINE
  5
1D608
  8
AM_0
 10
883.48800213686116
 20
718.13206144088929
 30
0.0
 11
926.25800213686114
 21
718.13206144088929
 31
0.0
  0
LINE
  5
1D609
  8
AM_0
 10
916.25800213686114
 20
708.04206144088903
 30
0.0
 11
794.31437313686115
 21
708.04206144088903
 31
0.0
  0
LINE
  5
1D60A
  8
AM_0
 10
916.25800213686114
 20
710.03206144088881
 30
0.0
 11
764.55800213686132
 21
710.03206144088881
 31
0.0
  0
LINE
  5
1D60B
  8
AM_0
 10
916.25800213686114
 20
678.876142440889
 30
0.0
 11
916.25800213686114
 21
677.73206144088886
 31
0.0
  0
ARC
  5
1D60C
  8
AM_0
 10
918.25800213686114
 20
678.876142440889
 30
0.0
 40
2.0
 50
90.0
 51
180.0
  0
ARC
  5
1D60D
  8
AM_0
 10
914.25800213686125
 20
677.73206144088886
 30
0.0
 40
2.0
 50
270.0
 51
0.0
  0
LINE
  5
1D60E
  8
AM_0
 10
916.25800213686114
 20
678.876142440889
 30
0.0
 11
916.25800213686114
 21
691.33101144088914
 31
0.0
  0
ARC
  5
1D60F
  8
AM_0
 10
918.25800213686114
 20
691.33101144088914
 30
0.0
 40
2.0
 50
90.0
 51
180.0
  0
LINE
  5
1D610
  8
AM_0
 10
916.25800213686114
 20
698.30072944088886
 30
0.0
 11
916.25800213686114
 21
714.95050444088884
 31
0.0
  0
LINE
  5
1D611
  8
AM_0
 10
914.25800213686125
 20
675.73206144088886
 30
0.0
 11
765.26637713686114
 21
675.73206144088886
 31
0.0
  0
LINE
  5
1D612
  8
AM_0
 10
926.25800213686114
 20
693.33101144088914
 30
0.0
 11
765.75800213686114
 21
693.33101144088914
 31
0.0
  0
LINE
  5
1D613
  8
AM_0
 10
916.25800213686114
 20
698.45206144088934
 30
0.0
 11
764.86480813686114
 21
698.45206144088934
 31
0.0
  0
LINE
  5
1D614
  8
AM_0
 10
765.75800213686114
 20
740.24206144088885
 30
0.0
 11
765.75800213686114
 21
744.23206144088886
 31
0.0
  0
LINE
  5
1D615
  8
AM_0
 10
762.76295413686114
 20
708.04206144088903
 30
0.0
 11
794.31437313686115
 21
708.04206144088903
 31
0.0
  0
LINE
  5
1D616
  8
AM_0
 10
883.5980021368614
 20
718.43206144088913
 30
0.0
 11
764.55800213686132
 21
718.43206144088913
 31
0.0
  0
LINE
  5
1D617
  8
AM_0
 10
916.25800213686114
 20
708.43206144088924
 30
0.0
 11
764.55800213686132
 21
708.43206144088924
 31
0.0
  0
LINE
  5
1D618
  8
AM_0
 10
886.76800213686113
 20
728.43206144088924
 30
0.0
 11
764.55800213686132
 21
728.43206144088924
 31
0.0
  0
LINE
  5
1D619
  8
AM_0
 10
887.60800213686105
 20
740.0320614408887
 30
0.0
 11
764.55800213686132
 21
740.0320614408887
 31
0.0
  0
LINE
  5
1D61A
  8
AM_0
 10
764.25800213686125
 20
740.24206144088885
 30
0.0
 11
764.25800213686125
 21
744.23206144088886
 31
0.0
  0
LINE
  5
1D61B
  8
AM_0
 10
764.34555813686131
 20
671.81961744088903
 30
0.0
 11
764.25800213686125
 21
671.73206144088886
 31
0.0
  0
LINE
  5
1D61C
  8
AM_0
 10
764.25800213686125
 20
671.7270674408893
 30
0.0
 11
764.25800213686125
 21
671.73206144088886
 31
0.0
  0
LINE
  5
1D61D
  8
AM_0
 10
763.11800213686149
 20
740.26206144088883
 30
0.0
 11
764.55800213686132
 21
740.06491844088885
 31
0.0
  0
LINE
  5
1D61E
  8
AM_0
 10
763.10800213686161
 20
738.17206144088914
 30
0.0
 11
764.55800213686132
 21
738.39513844088879
 31
0.0
  0
LINE
  5
1D61F
  8
AM_0
 10
762.25800213686114
 20
741.25206144088884
 30
0.0
 11
762.25800213686114
 21
737.18206144088913
 31
0.0
  0
LINE
  5
1D620
  8
AM_0
 10
763.11800213686149
 20
730.26206144088883
 30
0.0
 11
764.55800213686132
 21
730.06491844088885
 31
0.0
  0
LINE
  5
1D621
  8
AM_0
 10
763.10800213686161
 20
728.17206144088914
 30
0.0
 11
764.55800213686132
 21
728.39513844088901
 31
0.0
  0
LINE
  5
1D622
  8
AM_0
 10
762.25800213686114
 20
731.25206144088895
 30
0.0
 11
762.25800213686114
 21
727.18206144088924
 31
0.0
  0
LINE
  5
1D623
  8
AM_0
 10
763.10800213686161
 20
718.17206144088914
 30
0.0
 11
764.55800213686132
 21
718.39513844088901
 31
0.0
  0
LINE
  5
1D624
  8
AM_0
 10
763.11800213686149
 20
720.26206144088883
 30
0.0
 11
764.55800213686132
 21
720.06491844088885
 31
0.0
  0
LINE
  5
1D625
  8
AM_0
 10
762.25800213686114
 20
721.25206144088884
 30
0.0
 11
762.25800213686114
 21
717.18206144088924
 31
0.0
  0
ARC
  5
1D626
  8
AM_0
 10
764.80639713686094
 20
739.23206144088886
 30
0.0
 40
0.8000439999999999
 50
108.08794099999641
 51
251.9120590000035
  0
ARC
  5
1D627
  8
AM_0
 10
763.26063413686131
 20
737.18111544088924
 30
0.0
 40
1.0026319999999971
 50
98.756240999999065
 51
179.94591500000149
  0
ARC
  5
1D628
  8
AM_0
 10
763.26496913686105
 20
741.25826544088909
 30
0.0
 40
1.006985999999999
 50
180.35299799999879
 51
261.6078369999978
  0
ARC
  5
1D629
  8
AM_0
 10
764.80306413686105
 20
729.23712344088915
 30
0.0
 40
0.8050779999999997
 50
180.3602510000016
 51
252.27820999999719
  0
ARC
  5
1D62A
  8
AM_0
 10
763.26063413686131
 20
727.18111544088924
 30
0.0
 40
1.0026319999999971
 50
98.756240999999065
 51
179.94591500000149
  0
ARC
  5
1D62B
  8
AM_0
 10
763.26496913686105
 20
731.25826544088932
 30
0.0
 40
1.006985999999999
 50
180.35299799999879
 51
261.6078369999978
  0
ARC
  5
1D62C
  8
AM_0
 10
764.80135813686115
 20
719.22870544088914
 30
0.0
 40
0.8033630000000001
 50
107.6331500000031
 51
179.76067000000199
  0
ARC
  5
1D62D
  8
AM_0
 10
764.80306413686105
 20
719.23712344088915
 30
0.0
 40
0.8050779999999997
 50
180.3602510000016
 51
252.27820999999719
  0
ARC
  5
1D62E
  8
AM_0
 10
763.26496913686105
 20
721.25826544088898
 30
0.0
 40
1.006985999999999
 50
180.35299799999879
 51
261.6078369999978
  0
ARC
  5
1D62F
  8
AM_0
 10
763.26063413686131
 20
717.18111544088924
 30
0.0
 40
1.0026319999999971
 50
98.756240999999065
 51
179.94591500000149
  0
ARC
  5
1D630
  8
AM_0
 10
764.80135813686115
 20
729.2287054408896
 30
0.0
 40
0.8033630000000001
 50
107.6331500000031
 51
179.76067000000199
  0
ARC
  5
1D631
  8
AM_0
 10
763.26049913686097
 20
671.72956444088913
 30
0.0
 40
0.9975059999999999
 50
269.8565780000028
 51
0.1434219999970843
  0
LINE
  5
1D632
  8
AM_0
 10
764.25800213686125
 20
671.73206144088886
 30
0.0
 11
764.25800213686125
 21
672.14637844088895
 31
0.0
  0
LINE
  5
1D633
  8
AM_0
 10
764.25800213686125
 20
730.26206144088883
 30
0.0
 11
764.25800213686125
 21
738.2120614408891
 31
0.0
  0
LINE
  5
1D634
  8
AM_0
 10
764.25800213686125
 20
720.31206144088924
 30
0.0
 11
764.25800213686125
 21
728.18206144088924
 31
0.0
  0
LINE
  5
1D635
  8
AM_0
 10
765.75800213686114
 20
700.40206144088927
 30
0.0
 11
765.75800213686114
 21
708.04206144088903
 31
0.0
  0
LINE
  5
1D636
  8
AM_0
 10
765.75800213686114
 20
693.33101144088914
 30
0.0
 11
765.75800213686114
 21
698.06206144088924
 31
0.0
  0
LINE
  5
1D637
  8
AM_0
 10
764.25800213686125
 20
708.04206144088903
 30
0.0
 11
764.25800213686125
 21
700.40206144088927
 31
0.0
  0
LINE
  5
1D638
  8
AM_0
 10
765.75800213686114
 20
693.33101144088914
 30
0.0
 11
765.64184713686154
 21
692.12308544088876
 31
0.0
  0
LINE
  5
1D639
  8
AM_0
 10
765.75800213686114
 20
730.26206144088883
 30
0.0
 11
765.75800213686114
 21
738.2120614408891
 31
0.0
  0
LINE
  5
1D63A
  8
AM_0
 10
765.75800213686114
 20
720.31206144088924
 30
0.0
 11
765.75800213686114
 21
728.18206144088924
 31
0.0
  0
LINE
  5
1D63B
  8
AM_0
 10
765.75800213686114
 20
710.38206144088895
 30
0.0
 11
765.75800213686114
 21
718.13206144088929
 31
0.0
  0
ARC
  5
1D63C
  8
AM_0
 10
763.26297713686131
 20
711.24768144088932
 30
0.0
 40
1.006985999999999
 50
180.35299799999879
 51
261.6078369999978
  0
ARC
  5
1D63D
  8
AM_0
 10
763.25864113686112
 20
707.17053044088925
 30
0.0
 40
1.0026319999999971
 50
98.756240999999065
 51
179.94591500000149
  0
LINE
  5
1D63E
  8
AM_0
 10
762.25600913686162
 20
711.24147744088896
 30
0.0
 11
762.25600913686162
 21
707.17147744088925
 31
0.0
  0
ARC
  5
1D63F
  8
AM_0
 10
764.80107113686131
 20
709.22653944088916
 30
0.0
 40
0.8050779999999997
 50
180.3602510000016
 51
252.27820999999719
  0
LINE
  5
1D640
  8
AM_0
 10
763.10600913686153
 20
708.16147744088914
 30
0.0
 11
764.55600913686123
 21
708.38455444088913
 31
0.0
  0
ARC
  5
1D641
  8
AM_0
 10
764.79936513686152
 20
709.21812144088881
 30
0.0
 40
0.8033630000000001
 50
107.6331500000031
 51
179.76067000000199
  0
LINE
  5
1D642
  8
AM_0
 10
763.11600913686152
 20
710.25147744088895
 30
0.0
 11
764.55600913686123
 21
710.05433444088885
 31
0.0
  0
LINE
  5
1D643
  8
AM_0
 10
764.25800213686125
 20
710.38206144088895
 30
0.0
 11
764.25800213686125
 21
718.13206144088929
 31
0.0
  0
LINE
  5
1D644
  8
AM_0
 10
846.10800213686161
 20
700.40206144088927
 30
0.0
 11
762.74846313686146
 21
700.40206144088927
 31
0.0
  0
LINE
  5
1D645
  8
AM_0
 10
883.48800213686116
 20
718.13206144088929
 30
0.0
 11
762.94287313686095
 21
718.13206144088929
 31
0.0
  0
LINE
  5
1D646
  8
AM_0
 10
886.70800213686141
 20
728.18206144088924
 30
0.0
 11
763.20251713686162
 21
728.18206144088924
 31
0.0
  0
LINE
  5
1D647
  8
AM_0
 10
887.58800213686129
 20
740.24206144088885
 30
0.0
 11
763.26408913686112
 21
740.24206144088885
 31
0.0
  0
LINE
  5
1D648
  8
AM_0
 10
887.7180021368614
 20
738.43206144088924
 30
0.0
 11
764.55800213686132
 21
738.43206144088924
 31
0.0
  0
LINE
  5
1D649
  8
AM_0
 10
887.12800213686126
 20
730.03206144088881
 30
0.0
 11
764.55800213686132
 21
730.03206144088881
 31
0.0
  0
LINE
  5
1D64A
  8
AM_0
 10
884.16800213686111
 20
720.0320614408887
 30
0.0
 11
764.55800213686132
 21
720.0320614408887
 31
0.0
  0
LINE
  5
1D64B
  8
AM_0
 10
918.25800213686114
 20
807.58798044088905
 30
0.0
 11
926.25800213686114
 21
807.58798044088905
 31
0.0
  0
LINE
  5
1D64C
  8
AM_0
 10
926.25800213686114
 20
790.16339344088897
 30
0.0
 11
916.25800213686114
 21
790.16339344088897
 31
0.0
  0
LINE
  5
1D64D
  8
AM_0
 10
926.25800213686114
 20
789.75206144088895
 30
0.0
 11
916.25800213686114
 21
789.75206144088895
 31
0.0
  0
LINE
  5
1D64E
  8
AM_0
 10
926.25800213686114
 20
779.23206144088897
 30
0.0
 11
916.25800213686114
 21
779.23206144088897
 31
0.0
  0
LINE
  5
1D64F
  8
AM_0
 10
926.25800213686114
 20
773.51361844088933
 30
0.0
 11
916.25800213686114
 21
773.51361844088933
 31
0.0
  0
LINE
  5
1D650
  8
AM_0
 10
914.25800213686125
 20
812.73206144088886
 30
0.0
 11
765.26637713686114
 21
812.73206144088886
 31
0.0
  0
LINE
  5
1D651
  8
AM_0
 10
926.25800213686114
 20
795.13311144088925
 30
0.0
 11
765.75800213686114
 21
795.13311144088925
 31
0.0
  0
LINE
  5
1D652
  8
AM_0
 10
926.25800213686114
 20
790.40206144088916
 30
0.0
 11
762.76295413686114
 21
790.40206144088916
 31
0.0
  0
LINE
  5
1D653
  8
AM_0
 10
916.25800213686114
 20
788.06206144088901
 30
0.0
 11
846.10800213686161
 21
788.06206144088901
 31
0.0
  0
LINE
  5
1D654
  8
AM_0
 10
916.25800213686114
 20
788.41206144088881
 30
0.0
 11
764.71869713686112
 21
788.41206144088881
 31
0.0
  0
LINE
  5
1D655
  8
AM_0
 10
916.25800213686114
 20
790.01206144088917
 30
0.0
 11
764.86480813686114
 21
790.01206144088917
 31
0.0
  0
LINE
  5
1D656
  8
AM_0
 10
887.60800213686105
 20
748.43206144088924
 30
0.0
 11
926.25800213686114
 21
748.43206144088924
 31
0.0
  0
LINE
  5
1D657
  8
AM_0
 10
887.7180021368614
 20
750.03206144088881
 30
0.0
 11
926.25800213686114
 21
750.03206144088881
 31
0.0
  0
LINE
  5
1D658
  8
AM_0
 10
887.12800213686126
 20
758.43206144088924
 30
0.0
 11
926.25800213686114
 21
758.43206144088924
 31
0.0
  0
LINE
  5
1D659
  8
AM_0
 10
886.76800213686113
 20
760.03206144088881
 30
0.0
 11
926.25800213686114
 21
760.03206144088881
 31
0.0
  0
LINE
  5
1D65A
  8
AM_0
 10
884.16800213686111
 20
768.43206144088913
 30
0.0
 11
926.25800213686114
 21
768.43206144088913
 31
0.0
  0
LINE
  5
1D65B
  8
AM_0
 10
883.5980021368614
 20
770.03206144088881
 30
0.0
 11
926.25800213686114
 21
770.03206144088881
 31
0.0
  0
LINE
  5
1D65C
  8
AM_0
 10
887.58800213686129
 20
748.22206144088932
 30
0.0
 11
926.25800213686114
 21
748.22206144088932
 31
0.0
  0
LINE
  5
1D65D
  8
AM_0
 10
887.72800213686162
 20
750.25206144088941
 30
0.0
 11
926.25800213686114
 21
750.25206144088941
 31
0.0
  0
LINE
  5
1D65E
  8
AM_0
 10
887.1780021368611
 20
758.20206144088934
 30
0.0
 11
926.25800213686114
 21
758.20206144088934
 31
0.0
  0
LINE
  5
1D65F
  8
AM_0
 10
886.70800213686141
 20
760.28206144088881
 30
0.0
 11
926.25800213686114
 21
760.28206144088881
 31
0.0
  0
LINE
  5
1D660
  8
AM_0
 10
884.26800213686136
 20
768.15206144088916
 30
0.0
 11
926.25800213686114
 21
768.15206144088916
 31
0.0
  0
LINE
  5
1D661
  8
AM_0
 10
883.48800213686116
 20
770.33206144088933
 30
0.0
 11
926.25800213686114
 21
770.33206144088933
 31
0.0
  0
LINE
  5
1D662
  8
AM_0
 10
916.25800213686114
 20
778.43206144088924
 30
0.0
 11
764.55800213686132
 21
778.43206144088924
 31
0.0
  0
LINE
  5
1D663
  8
AM_0
 10
916.25800213686114
 20
790.16339344088897
 30
0.0
 11
916.25800213686114
 21
773.51361844088933
 31
0.0
  0
ARC
  5
1D664
  8
AM_0
 10
918.25800213686114
 20
797.13311144088925
 30
0.0
 40
2.0
 50
180.0
 51
270.0
  0
LINE
  5
1D665
  8
AM_0
 10
916.25800213686114
 20
809.58798044088894
 30
0.0
 11
916.25800213686114
 21
797.13311144088925
 31
0.0
  0
ARC
  5
1D666
  8
AM_0
 10
914.25800213686125
 20
810.73206144088886
 30
0.0
 40
2.0
 50
0.0
 51
90.0
  0
ARC
  5
1D667
  8
AM_0
 10
918.25800213686114
 20
809.58798044088894
 30
0.0
 40
2.0
 50
180.0
 51
270.0
  0
LINE
  5
1D668
  8
AM_0
 10
916.25800213686114
 20
809.58798044088894
 30
0.0
 11
916.25800213686114
 21
810.73206144088886
 31
0.0
  0
LINE
  5
1D669
  8
AM_0
 10
883.48800213686116
 20
770.33206144088933
 30
0.0
 11
762.94287313686095
 21
770.33206144088933
 31
0.0
  0
LINE
  5
1D66A
  8
AM_0
 10
886.70800213686141
 20
760.28206144088881
 30
0.0
 11
763.20251713686162
 21
760.28206144088881
 31
0.0
  0
LINE
  5
1D66B
  8
AM_0
 10
887.72800213686162
 20
750.25206144088941
 30
0.0
 11
763.36800213686115
 21
750.25206144088941
 31
0.0
  0
LINE
  5
1D66C
  8
AM_0
 10
887.60800213686105
 20
748.43206144088924
 30
0.0
 11
764.55800213686132
 21
748.43206144088924
 31
0.0
  0
LINE
  5
1D66D
  8
AM_0
 10
887.12800213686126
 20
758.43206144088924
 30
0.0
 11
764.55800213686132
 21
758.43206144088924
 31
0.0
  0
LINE
  5
1D66E
  8
AM_0
 10
884.16800213686111
 20
768.43206144088913
 30
0.0
 11
764.55800213686132
 21
768.43206144088913
 31
0.0
  0
LINE
  5
1D66F
  8
AM_0
 10
846.10800213686161
 20
788.06206144088901
 30
0.0
 11
762.74846313686146
 21
788.06206144088901
 31
0.0
  0
LINE
  5
1D670
  8
AM_0
 10
765.75800213686114
 20
788.06206144088901
 30
0.0
 11
765.75800213686114
 21
780.42206144088914
 31
0.0
  0
LINE
  5
1D671
  8
AM_0
 10
764.25800213686125
 20
806.23206144088886
 30
0.0
 11
764.25800213686125
 21
790.40206144088916
 31
0.0
  0
LINE
  5
1D672
  8
AM_0
 10
765.75800213686114
 20
795.13311144088925
 30
0.0
 11
765.64184713686154
 21
796.34103844088884
 31
0.0
  0
LINE
  5
1D673
  8
AM_0
 10
765.75800213686114
 20
795.13311144088925
 30
0.0
 11
765.75800213686114
 21
790.40206144088916
 31
0.0
  0
LINE
  5
1D674
  8
AM_0
 10
764.25800213686125
 20
816.73206144088897
 30
0.0
 11
764.25800213686125
 21
816.3177444408891
 31
0.0
  0
ARC
  5
1D675
  8
AM_0
 10
763.26049913686097
 20
816.73455844088903
 30
0.0
 40
0.9975059999999999
 50
359.85657800000291
 51
90.143421999997074
  0
LINE
  5
1D676
  8
AM_0
 10
764.25800213686125
 20
816.73705544088898
 30
0.0
 11
764.25800213686125
 21
816.73206144088897
 31
0.0
  0
LINE
  5
1D677
  8
AM_0
 10
764.34555813686131
 20
816.64450544088913
 30
0.0
 11
764.25800213686125
 21
816.73206144088897
 31
0.0
  0
LINE
  5
1D678
  8
AM_0
 10
765.75800213686114
 20
748.22206144088932
 30
0.0
 11
765.75800213686114
 21
744.23206144088886
 31
0.0
  0
LINE
  5
1D679
  8
AM_0
 10
916.25800213686114
 20
780.42206144088914
 30
0.0
 11
762.76295413686114
 21
780.42206144088914
 31
0.0
  0
LINE
  5
1D67A
  8
AM_0
 10
883.5980021368614
 20
770.03206144088881
 30
0.0
 11
764.55800213686132
 21
770.03206144088881
 31
0.0
  0
LINE
  5
1D67B
  8
AM_0
 10
916.25800213686114
 20
780.03206144088881
 30
0.0
 11
764.55800213686132
 21
780.03206144088881
 31
0.0
  0
LINE
  5
1D67C
  8
AM_0
 10
887.1780021368611
 20
758.20206144088934
 30
0.0
 11
763.11800213686149
 21
758.20206144088934
 31
0.0
  0
LINE
  5
1D67D
  8
AM_0
 10
886.76800213686113
 20
760.03206144088881
 30
0.0
 11
764.55800213686132
 21
760.03206144088881
 31
0.0
  0
LINE
  5
1D67E
  8
AM_0
 10
887.7180021368614
 20
750.03206144088881
 30
0.0
 11
764.55800213686132
 21
750.03206144088881
 31
0.0
  0
LINE
  5
1D67F
  8
AM_0
 10
764.25800213686125
 20
748.22206144088932
 30
0.0
 11
764.25800213686125
 21
744.23206144088886
 31
0.0
  0
LINE
  5
1D680
  8
AM_0
 10
764.25800213686125
 20
778.08206144088911
 30
0.0
 11
764.25800213686125
 21
770.33206144088933
 31
0.0
  0
LINE
  5
1D681
  8
AM_0
 10
763.11600913686152
 20
778.21264544088933
 30
0.0
 11
764.55600913686123
 21
778.40978844088909
 31
0.0
  0
ARC
  5
1D682
  8
AM_0
 10
764.79936513686152
 20
779.24600144088924
 30
0.0
 40
0.8033630000000001
 50
180.23932999999781
 51
252.36684999999679
  0
LINE
  5
1D683
  8
AM_0
 10
763.10600913686153
 20
780.30264544088914
 30
0.0
 11
764.55600913686123
 21
780.07956844088926
 31
0.0
  0
ARC
  5
1D684
  8
AM_0
 10
764.80107113686131
 20
779.23758344088901
 30
0.0
 40
0.8050779999999997
 50
107.7217900000028
 51
179.63974899999829
  0
LINE
  5
1D685
  8
AM_0
 10
762.25600913686162
 20
777.22264544088932
 30
0.0
 11
762.25600913686162
 21
781.2926454408888
 31
0.0
  0
ARC
  5
1D686
  8
AM_0
 10
763.25864113686112
 20
781.2935924408888
 30
0.0
 40
1.0026319999999971
 50
180.05408499999839
 51
261.24375900000098
  0
ARC
  5
1D687
  8
AM_0
 10
763.26297713686131
 20
777.21644144088884
 30
0.0
 40
1.006985999999999
 50
98.392163000002284
 51
179.64700200000121
  0
LINE
  5
1D688
  8
AM_0
 10
765.75800213686114
 20
778.08206144088911
 30
0.0
 11
765.75800213686114
 21
770.33206144088933
 31
0.0
  0
LINE
  5
1D689
  8
AM_0
 10
765.75800213686114
 20
768.15206144088916
 30
0.0
 11
765.75800213686114
 21
760.28206144088881
 31
0.0
  0
LINE
  5
1D68A
  8
AM_0
 10
765.75800213686114
 20
758.20206144088934
 30
0.0
 11
765.75800213686114
 21
750.25206144088941
 31
0.0
  0
LINE
  5
1D68B
  8
AM_0
 10
764.25800213686125
 20
768.15206144088916
 30
0.0
 11
764.25800213686125
 21
760.28206144088881
 31
0.0
  0
LINE
  5
1D68C
  8
AM_0
 10
764.25800213686125
 20
758.20206144088934
 30
0.0
 11
764.25800213686125
 21
750.25206144088941
 31
0.0
  0
ARC
  5
1D68D
  8
AM_0
 10
764.80135813686115
 20
759.2354174408888
 30
0.0
 40
0.8033630000000001
 50
180.23932999999781
 51
252.36684999999679
  0
ARC
  5
1D68E
  8
AM_0
 10
763.26063413686131
 20
771.28300744088881
 30
0.0
 40
1.0026319999999971
 50
180.05408499999839
 51
261.24375900000098
  0
ARC
  5
1D68F
  8
AM_0
 10
763.26496913686105
 20
767.20585744088896
 30
0.0
 40
1.006985999999999
 50
98.392163000002284
 51
179.64700200000121
  0
ARC
  5
1D690
  8
AM_0
 10
764.80306413686105
 20
769.22699944088879
 30
0.0
 40
0.8050779999999997
 50
107.7217900000028
 51
179.63974899999829
  0
ARC
  5
1D691
  8
AM_0
 10
764.80135813686115
 20
769.23541744088902
 30
0.0
 40
0.8033630000000001
 50
180.23932999999781
 51
252.36684999999679
  0
ARC
  5
1D692
  8
AM_0
 10
763.26496913686105
 20
757.20585744088885
 30
0.0
 40
1.006985999999999
 50
98.392163000002284
 51
179.64700200000121
  0
ARC
  5
1D693
  8
AM_0
 10
763.26063413686131
 20
761.28300744088881
 30
0.0
 40
1.0026319999999971
 50
180.05408499999839
 51
261.24375900000098
  0
ARC
  5
1D694
  8
AM_0
 10
764.80306413686105
 20
759.22699944088856
 30
0.0
 40
0.8050779999999997
 50
107.7217900000028
 51
179.63974899999829
  0
ARC
  5
1D695
  8
AM_0
 10
763.26496913686105
 20
747.20585744088885
 30
0.0
 40
1.006985999999999
 50
98.392163000002284
 51
179.64700200000121
  0
ARC
  5
1D696
  8
AM_0
 10
763.26063413686131
 20
751.28300744088881
 30
0.0
 40
1.0026319999999971
 50
180.05408499999839
 51
261.24375900000098
  0
ARC
  5
1D697
  8
AM_0
 10
764.80639713686094
 20
749.23206144088886
 30
0.0
 40
0.8000439999999999
 50
108.08794099999641
 51
251.9120590000035
  0
LINE
  5
1D698
  8
AM_0
 10
762.25800213686114
 20
767.2120614408891
 30
0.0
 11
762.25800213686114
 21
771.2820614408887
 31
0.0
  0
LINE
  5
1D699
  8
AM_0
 10
763.11800213686149
 20
768.20206144088934
 30
0.0
 11
764.55800213686132
 21
768.39920444088932
 31
0.0
  0
LINE
  5
1D69A
  8
AM_0
 10
763.10800213686161
 20
770.29206144088903
 30
0.0
 11
764.55800213686132
 21
770.06898444088915
 31
0.0
  0
LINE
  5
1D69B
  8
AM_0
 10
762.25800213686114
 20
757.21206144088887
 30
0.0
 11
762.25800213686114
 21
761.28206144088881
 31
0.0
  0
LINE
  5
1D69C
  8
AM_0
 10
763.10800213686161
 20
760.29206144088903
 30
0.0
 11
764.55800213686132
 21
760.06898444088927
 31
0.0
  0
LINE
  5
1D69D
  8
AM_0
 10
763.11800213686149
 20
758.20206144088934
 30
0.0
 11
764.55800213686132
 21
758.39920444088909
 31
0.0
  0
LINE
  5
1D69E
  8
AM_0
 10
762.25800213686114
 20
747.2120614408891
 30
0.0
 11
762.25800213686114
 21
751.2820614408887
 31
0.0
  0
LINE
  5
1D69F
  8
AM_0
 10
763.10800213686161
 20
750.29206144088903
 30
0.0
 11
764.55800213686132
 21
750.06898444088915
 31
0.0
  0
LINE
  5
1D6A0
  8
AM_0
 10
763.11800213686149
 20
748.20206144088911
 30
0.0
 11
764.55800213686132
 21
748.39920444088932
 31
0.0
  0
LINE
  5
1D6A1
  8
AM_0
 10
1046.758002136861
 20
667.23151344088865
 30
0.0
 11
1046.758002136861
 21
731.73206144088886
 31
0.0
  0
LINE
  5
1D6A2
  8
AM_0
 10
1051.758002136861
 20
667.23151344088865
 30
0.0
 11
1051.758002136861
 21
731.73206144088886
 31
0.0
  0
ARC
  5
1D6A3
  8
AM_0
 10
1049.258002136861
 20
667.23151344088865
 30
0.0
 40
2.5
 50
180.0
 51
0.0
  0
ARC
  5
1D6A4
  8
AM_0
 10
1036.758002136861
 20
731.73206144088886
 30
0.0
 40
15.0
 50
0.0
 51
90.0
  0
ARC
  5
1D6A5
  8
AM_0
 10
1036.758002136861
 20
731.73206144088886
 30
0.0
 40
10.0
 50
0.0
 51
90.0
  0
LINE
  5
1D6A6
  8
AM_0
 10
963.25800213686102
 20
741.73206144088897
 30
0.0
 11
1036.758002136861
 21
741.73206144088897
 31
0.0
  0
LINE
  5
1D6A7
  8
AM_0
 10
963.25800213686102
 20
746.73206144088886
 30
0.0
 11
1036.758002136861
 21
746.73206144088886
 31
0.0
  0
ARC
  5
1D6A8
  8
AM_0
 10
956.25800213686125
 20
744.23206144088886
 30
0.0
 40
6.0
 50
199.4712200000001
 51
340.52877899999879
  0
LINE
  5
1D6A9
  8
AM_0
 10
963.25800213686102
 20
742.23206144088897
 30
0.0
 11
963.25800213686102
 21
741.73206144088897
 31
0.0
  0
ARC
  5
1D6AA
  8
AM_0
 10
956.25800213686125
 20
744.23206144088886
 30
0.0
 40
7.0
 50
196.60154999999881
 51
343.39845000000122
  0
LINE
  5
1D6AB
  8
AM_0
 10
947.25800213686125
 20
742.23206144088897
 30
0.0
 11
947.25800213686125
 21
741.73206144088897
 31
0.0
  0
LINE
  5
1D6AC
  8
AM_0
 10
947.25800213686125
 20
741.73206144088897
 30
0.0
 11
942.25800213686114
 21
741.73206144088897
 31
0.0
  0
LINE
  5
1D6AD
  8
AM_0
 10
947.25800213686125
 20
742.23206144088897
 30
0.0
 11
963.25800213686102
 21
742.23206144088897
 31
0.0
  0
ARC
  5
1D6AE
  8
AM_0
 10
1045.0737221368611
 20
676.23289244088892
 30
0.0
 40
3.0009689999999982
 50
98.383608000000606
 51
170.03768200000101
  0
LINE
  5
1D6AF
  8
AM_0
 10
1042.558002136861
 20
739.87822644088897
 30
0.0
 11
1042.558002136861
 21
680.86142144088899
 31
0.0
  0
LINE
  5
1D6B0
  8
AM_0
 10
1038.488002136861
 20
746.63196444088896
 30
0.0
 11
1038.488002136861
 21
818.25206144088895
 31
0.0
  0
LINE
  5
1D6B1
  8
AM_0
 10
942.25800213686114
 20
741.73206144088897
 30
0.0
 11
942.25800213686114
 21
746.73206144088886
 31
0.0
  0
LINE
  5
1D6B2
  8
AM_0
 10
947.25800213686125
 20
746.23206144088897
 30
0.0
 11
963.25800213686102
 21
746.23206144088897
 31
0.0
  0
LINE
  5
1D6B3
  8
AM_0
 10
947.25800213686125
 20
746.73206144088886
 30
0.0
 11
942.25800213686114
 21
746.73206144088886
 31
0.0
  0
LINE
  5
1D6B4
  8
AM_0
 10
947.25800213686125
 20
746.23206144088897
 30
0.0
 11
947.25800213686125
 21
746.73206144088886
 31
0.0
  0
LINE
  5
1D6B5
  8
AM_0
 10
963.25800213686102
 20
746.23206144088897
 30
0.0
 11
963.25800213686102
 21
746.73206144088886
 31
0.0
  0
ARC
  5
1D6B6
  8
AM_0
 10
956.25800213686125
 20
744.23206144088886
 30
0.0
 40
6.0
 50
19.471221000001218
 51
160.5287799999999
  0
ARC
  5
1D6B7
  8
AM_0
 10
956.25800213686125
 20
744.23206144088886
 30
0.0
 40
7.0
 50
16.601549999998781
 51
163.39845000000111
  0
ARC
  5
1D6B8
  8
AM_0
 10
1044.3081521368611
 20
681.42760544088924
 30
0.0
 40
2.249854
 50
278.38360800000061
 51
0.1134899999977179
  0
ARC
  5
1D6B9
  8
AM_0
 10
1049.258002136861
 20
667.23151344088865
 30
0.0
 40
3.0
 50
146.44268999999861
 51
319.99999999999739
  0
LINE
  5
1D6BA
  8
AM_0
 10
1051.0257691368611
 20
665.46374644088871
 30
0.0
 11
1053.6044491368609
 21
668.04242644088924
 31
0.0
  0
LINE
  5
1D6BB
  8
AM_0
 10
1051.379322136861
 20
665.11019344088913
 30
0.0
 11
1053.9580021368611
 21
667.68887344088898
 31
0.0
  0
LINE
  5
1D6BC
  8
AM_0
 10
1053.9580021368611
 20
667.68887344088898
 30
0.0
 11
1053.6044491368609
 21
668.04242644088924
 31
0.0
  0
LINE
  5
1D6BD
  8
AM_0
 10
763.25800213686114
 20
817.73206144088886
 30
0.0
 11
754.25800213686114
 21
817.73206144088886
 31
0.0
  0
LINE
  5
1D6BE
  8
AM_0
 10
763.25800213686114
 20
807.23206144088886
 30
0.0
 11
756.55800213686155
 21
807.23206144088886
 31
0.0
  0
LINE
  5
1D6BF
  8
AM_0
 10
763.25800213686114
 20
670.73206144088897
 30
0.0
 11
754.25800213686114
 21
670.73206144088897
 31
0.0
  0
LINE
  5
1D6C0
  8
AM_0
 10
763.25800213686114
 20
681.23206144088874
 30
0.0
 11
756.55800213686155
 21
681.23206144088874
 31
0.0
  0
INSERT
  5
1D6C2
  8
AM_0
  2
$6-44
 10
764.25800113787022
 20
687.6230105879082
 30
0.0
 41
-1.0
 42
-1.0
 50
89.999998988889274
  0
INSERT
  5
1D6C3
  8
AM_0
  2
$6-44
 10
764.25800513585102
 20
800.84096358790748
 30
0.0
 50
269.99999898888939
  0
LINE
  5
1D6C4
  8
AM_0
 10
884.26800213686136
 20
768.15206144088916
 30
0.0
 11
762.92041213686105
 21
768.15206144088916
 31
0.0
  0
LINE
  5
1D6C5
  8
AM_0
 10
887.58800213686129
 20
748.22206144088932
 30
0.0
 11
763.26408913686112
 21
748.22206144088932
 31
0.0
  0
LINE
  5
1D6C6
  8
AM_0
 10
916.25800213686114
 20
778.08206144088911
 30
0.0
 11
762.75278513686112
 21
778.08206144088911
 31
0.0
  0
LINE
  5
1D6C7
  8
AM_0
 10
916.25800213686114
 20
710.38206144088895
 30
0.0
 11
762.75278513686112
 21
710.38206144088895
 31
0.0
  0
LINE
  5
1D6C8
  8
AM_0
 10
884.26800213686136
 20
720.31206144088924
 30
0.0
 11
762.92041213686105
 21
720.31206144088924
 31
0.0
  0
INSERT
  5
1D6D9
  8
AM_0
  2
$6-44
 10
764.25794413686106
 20
287.46779643779843
 30
0.0
 41
-1.0
 42
-1.0
 50
90.0
  0
INSERT
  5
1D6DA
  8
AM_0
  2
$6-44
 10
764.25794213686152
 20
400.68574943779811
 30
0.0
 50
270.0
  0
LINE
  5
1D6DC
  8
AM_0
 10
235.44003676782879
 20
228.57652922917941
 30
0.0
 11
163.4400327678288
 21
228.57652922917941
 31
0.0
  0
LINE
  5
1D6E0
  8
AM_0
 10
175.8100427678288
 20
238.23769467771481
 30
0.0
 11
175.8100427678288
 21
228.57652922917941
 31
0.0
  0
LINE
  5
1D6E2
  8
AM_0
 10
163.4400327678288
 20
228.57652922917941
 30
0.0
 11
163.4400327678288
 21
238.4536171968409
 31
0.0
  0
LINE
  5
1D6E4
  8
AM_0
 10
165.94005276782869
 20
228.57652922917941
 30
0.0
 11
165.94005276782869
 21
238.40997854042379
 31
0.0
  0
LINE
  5
1D6E8
  8
AM_0
 10
223.07005276782891
 20
228.57652922917941
 30
0.0
 11
223.07005276782891
 21
237.4127559417623
 31
0.0
  0
LINE
  5
1D6E9
  8
AM_0
 10
235.44003676782879
 20
237.19683387647481
 30
0.0
 11
235.44003676782879
 21
228.57652922917941
 31
0.0
  0
LINE
  5
1D6EC
  8
AM_0
 10
232.94002876782881
 20
228.57652922917941
 30
0.0
 11
232.94002876782881
 21
237.24047232342789
 31
0.0
  0
ARC
  5
1D863
  8
AM_0
 10
916.23906713686165
 20
265.6018424377985
 30
0.0
 40
2.0
 50
90.0
 51
119.6883029999991
  0
LINE
  5
1D864
  8
AM_0
 10
926.25794213686152
 20
267.6018424377985
 30
0.0
 11
916.23906713686165
 21
267.6018424377985
 31
0.0
  0
ARC
  5
1D865
  8
AM_0
 10
918.18331513686155
 20
268.30771443779832
 30
0.0
 40
2.0
 50
90.0
 51
168.91503000000159
  0
LINE
  5
1D866
  8
AM_0
 10
926.25794213686152
 20
270.30771443779832
 30
0.0
 11
918.18331513686155
 21
270.30771443779832
 31
0.0
  0
ARC
  5
1D867
  8
AM_0
 10
914.25794213686163
 20
269.0767724377983
 30
0.0
 40
2.0
 50
270.0
 51
0.000000000000007
  0
ARC
  5
1D868
  8
AM_0
 10
914.25794213686163
 20
277.5767764377984
 30
0.0
 40
2.0
 50
270.0
 51
0.000000000000007
  0
LINE
  5
1D869
  8
AM_0
 10
916.25794213686152
 20
291.27725943779831
 30
0.0
 11
916.25794213686152
 21
269.0767724377983
 31
0.0
  0
LINE
  5
1D86A
  8
AM_0
 10
926.25794213686152
 20
289.88947543779841
 30
0.0
 11
916.25794213686152
 21
289.88947543779841
 31
0.0
  0
LINE
  5
1D86B
  8
AM_0
 10
926.25794213686152
 20
278.31278043779849
 30
0.0
 11
916.25794213686152
 21
278.31278043779849
 31
0.0
  0
LINE
  5
1D86C
  8
AM_0
 10
926.25794213686152
 20
272.25261743779828
 30
0.0
 11
916.25794213686152
 21
272.25261743779828
 31
0.0
  0
ARC
  5
1D86D
  8
AM_0
 10
766.25794413686106
 20
277.57676843779842
 30
0.0
 40
2.0
 50
180.00000200000281
 51
270.00000200000278
  0
LINE
  5
1D86E
  8
AM_0
 10
914.25794213686163
 20
293.27725943779842
 30
0.0
 11
766.25794513686162
 21
293.27725943779842
 31
0.0
  0
LINE
  5
1D86F
  8
AM_0
 10
914.25794213686163
 20
275.5767764377984
 30
0.0
 11
766.25224113686124
 21
275.5767764377984
 31
0.0
  0
LINE
  5
1D870
  8
AM_0
 10
764.25794213686152
 20
270.57677243779841
 30
0.0
 11
754.25794513686162
 21
270.57677243779841
 31
0.0
  0
LINE
  5
1D871
  8
AM_0
 10
763.25794213686152
 20
281.03796443779839
 30
0.0
 11
754.2579441368614
 21
281.03796443779839
 31
0.0
  0
LINE
  5
1D872
  8
AM_0
 10
916.25794213686152
 20
419.02956043779818
 30
0.0
 11
916.25794213686152
 21
415.99075643779832
 31
0.0
  0
ARC
  5
1D873
  8
AM_0
 10
914.25794213686163
 20
410.57677643779829
 30
0.0
 40
2.0
 50
0.000000000000007
 51
90.0
  0
LINE
  5
1D874
  8
AM_0
 10
926.25794213686152
 20
398.35137343779837
 30
0.0
 11
916.25794213686152
 21
398.35137343779837
 31
0.0
  0
LINE
  5
1D875
  8
AM_0
 10
926.25794213686152
 20
409.9173924377983
 30
0.0
 11
916.25794213686152
 21
409.9173924377983
 31
0.0
  0
LINE
  5
1D876
  8
AM_0
 10
926.25794213686152
 20
415.99075643779832
 30
0.0
 11
916.25794213686152
 21
415.99075643779832
 31
0.0
  0
LINE
  5
1D877
  8
AM_0
 10
916.25794213686152
 20
420.55501843779808
 30
0.0
 11
916.25794213686152
 21
419.95174243779798
 31
0.0
  0
ARC
  5
1D878
  8
AM_0
 10
914.25794213686163
 20
419.02956043779818
 30
0.0
 40
2.0
 50
0.000000000000007
 51
90.0
  0
LINE
  5
1D879
  8
AM_0
 10
926.25794213686152
 20
421.9699174377983
 30
0.0
 11
917.77727113686115
 21
421.9699174377983
 31
0.0
  0
LINE
  5
1D87A
  8
AM_0
 10
926.25794213686152
 20
420.65540543779832
 30
0.0
 11
918.10663113686098
 21
420.65540543779832
 31
0.0
  0
ARC
  5
1D87B
  8
AM_0
 10
918.10663113686098
 20
422.65540543779809
 30
0.0
 40
2.0
 50
195.80962600000129
 51
270.0
  0
ARC
  5
1D87C
  8
AM_0
 10
914.25794213686163
 20
421.56563843779833
 30
0.0
 40
2.0
 50
15.80962600000136
 51
90.0
  0
ARC
  5
1D87D
  8
AM_0
 10
917.77727113686115
 20
423.9699174377983
 30
0.0
 40
2.0
 50
208.37785700000401
 51
270.0
  0
ARC
  5
1D87E
  8
AM_0
 10
914.25794213686163
 20
422.06878043779841
 30
0.0
 40
2.0
 50
28.377856000001401
 51
90.0
  0
ARC
  5
1D87F
  8
AM_0
 10
766.25794213686152
 20
410.57677643779829
 30
0.0
 40
2.0
 50
90.0
 51
180.0
  0
ARC
  5
1D880
  8
AM_0
 10
767.38543413686114
 20
419.02956043779818
 30
0.0
 40
2.0
 50
90.0
 51
164.99999999999881
  0
LINE
  5
1D881
  8
AM_0
 10
762.25794213686152
 20
407.620906437798
 30
0.0
 11
765.45358213686154
 21
419.5471984377981
 31
0.0
  0
ARC
  5
1D882
  8
AM_0
 10
766.42091813686113
 20
420.55501843779808
 30
0.0
 40
2.0
 50
90.0
 51
164.99999999999881
  0
LINE
  5
1D883
  8
AM_0
 10
762.25794213686152
 20
412.74598943779802
 30
0.0
 11
764.48906613686154
 21
421.072657437798
 31
0.0
  0
ARC
  5
1D884
  8
AM_0
 10
765.87322413686161
 20
421.56563843779833
 30
0.0
 40
2.0
 50
90.0
 51
164.99999999999881
  0
LINE
  5
1D885
  8
AM_0
 10
762.25794213686152
 20
415.80062643779809
 30
0.0
 11
763.94137313686144
 21
422.08327643779808
 31
0.0
  0
ARC
  5
1D886
  8
AM_0
 10
765.59219013686152
 20
422.06878043779841
 30
0.0
 40
2.0
 50
90.0
 51
164.99999999999881
  0
LINE
  5
1D887
  8
AM_0
 10
762.25794213686152
 20
417.35260443779828
 30
0.0
 11
763.66033813686124
 21
422.5864194377981
 31
0.0
  0
ARC
  5
1D888
  8
AM_0
 10
918.25794213686152
 20
419.95174243779798
 30
0.0
 40
2.0
 50
180.0
 51
270.0
  0
ARC
  5
1D889
  8
AM_0
 10
914.25794213686163
 20
420.55501843779808
 30
0.0
 40
2.0
 50
0.000000000000007
 51
90.0
  0
LINE
  5
1D88A
  8
AM_0
 10
926.25794213686152
 20
417.95174243779809
 30
0.0
 11
918.25794213686152
 21
417.95174243779809
 31
0.0
  0
LINE
  5
1D88B
  8
AM_0
 10
916.25794213686152
 20
415.99075643779832
 30
0.0
 11
916.25794213686152
 21
396.94811243779839
 31
0.0
  0
LINE
  5
1D88C
  8
AM_0
 10
763.25794213686152
 20
407.11558043779809
 30
0.0
 11
754.25794213686152
 21
407.11558043779809
 31
0.0
  0
LINE
  5
1D88D
  8
AM_0
 10
914.25794213686163
 20
394.94811243779839
 30
0.0
 11
766.25794213686152
 21
394.94811243779839
 31
0.0
  0
LINE
  5
1D88E
  8
AM_0
 10
914.25794213686163
 20
424.06878043779841
 30
0.0
 11
765.59219013686152
 21
424.06878043779841
 31
0.0
  0
LINE
  5
1D88F
  8
AM_0
 10
914.25794213686163
 20
412.57677643779812
 30
0.0
 11
766.25794213686152
 21
412.57677643779812
 31
0.0
  0
LINE
  5
1D890
  8
AM_0
 10
914.25794213686163
 20
421.02956043779801
 30
0.0
 11
767.38543413686114
 21
421.02956043779801
 31
0.0
  0
LINE
  5
1D891
  8
AM_0
 10
914.25794213686163
 20
422.55501843779848
 30
0.0
 11
766.42091813686113
 21
422.55501843779848
 31
0.0
  0
LINE
  5
1D892
  8
AM_0
 10
914.25794213686163
 20
423.56563843779838
 30
0.0
 11
765.87322413686161
 21
423.56563843779838
 31
0.0
  0
LINE
  5
1D893
  8
AM_0
 10
777.25794213686152
 20
267.0767724377983
 30
0.0
 11
777.25794213686152
 21
265.0767724377983
 31
0.0
  0
LINE
  5
1D894
  8
AM_0
 10
844.2579421368614
 20
267.0767724377983
 30
0.0
 11
844.2579421368614
 21
265.0767724377983
 31
0.0
  0
LINE
  5
1D895
  8
AM_0
 10
844.2579421368614
 20
265.0767724377983
 30
0.0
 11
777.25794213686152
 21
265.0767724377983
 31
0.0
  0
LINE
  5
1D896
  8
AM_0
 10
914.25794213686163
 20
267.0767724377983
 30
0.0
 11
767.47742213686161
 21
267.0767724377983
 31
0.0
  0
LINE
  5
1D897
  8
AM_0
 10
800.7579421368614
 20
370.07677243779841
 30
0.0
 11
926.25794213686152
 21
370.07677243779841
 31
0.0
  0
LINE
  5
1D898
  8
AM_0
 10
800.7579421368614
 20
318.07677243779841
 30
0.0
 11
926.25794213686152
 21
318.07677243779841
 31
0.0
  0
LINE
  5
1D899
  8
AM_0
 10
784.7579421368614
 20
371.0767724377983
 30
0.0
 11
784.7579421368614
 21
377.07677243779841
 31
0.0
  0
LINE
  5
1D89A
  8
AM_0
 10
799.75794213686152
 20
371.0767724377983
 30
0.0
 11
799.75794213686152
 21
377.07677243779841
 31
0.0
  0
LINE
  5
1D89B
  8
AM_0
 10
784.7579421368614
 20
317.0767724377983
 30
0.0
 11
784.7579421368614
 21
311.0767724377983
 31
0.0
  0
LINE
  5
1D89C
  8
AM_0
 10
799.75794213686152
 20
317.0767724377983
 30
0.0
 11
799.75794213686152
 21
311.0767724377983
 31
0.0
  0
LINE
  5
1D89D
  8
AM_0
 10
828.2579421368614
 20
364.57677243779841
 30
0.0
 11
828.2579421368614
 21
323.57677243779813
 31
0.0
  0
LINE
  5
1D89E
  8
AM_0
 10
765.2579421368614
 20
364.57677243779841
 30
0.0
 11
765.2579421368614
 21
323.57677243779813
 31
0.0
  0
LINE
  5
1D89F
  8
AM_0
 10
828.2579421368614
 20
364.57677243779841
 30
0.0
 11
765.2579421368614
 21
364.57677243779841
 31
0.0
  0
LINE
  5
1D8A0
  8
AM_0
 10
828.2579421368614
 20
323.57677243779813
 30
0.0
 11
765.2579421368614
 21
323.57677243779813
 31
0.0
  0
LINE
  5
1D8A1
  8
AM_0
 10
828.2579421368614
 20
357.0767724377983
 30
0.0
 11
765.2579421368614
 21
357.0767724377983
 31
0.0
  0
LINE
  5
1D8A2
  8
AM_0
 10
916.25794213686152
 20
347.07677243779841
 30
0.0
 11
916.25794213686152
 21
341.07677243779841
 31
0.0
  0
LINE
  5
1D8A3
  8
AM_0
 10
765.5458421368611
 20
268.5580624377983
 30
0.0
 11
764.5579321368615
 21
272.2367424377984
 31
0.0
  0
LINE
  5
1D8A4
  8
AM_0
 10
766.13392213686132
 20
268.5580624377983
 30
0.0
 11
764.5579321368615
 21
274.42678243779852
 31
0.0
  0
LINE
  5
1D8A5
  8
AM_0
 10
764.25794213686152
 20
307.11855243779843
 30
0.0
 11
764.25794213686152
 21
270.57677243779841
 31
0.0
  0
LINE
  5
1D8A6
  8
AM_0
 10
765.2579421368614
 20
320.07677243779841
 30
0.0
 11
926.25794213686152
 21
320.07677243779841
 31
0.0
  0
LINE
  5
1D8A7
  8
AM_0
 10
765.2579421368614
 20
318.07677243779841
 30
0.0
 11
783.7579421368614
 21
318.07677243779841
 31
0.0
  0
LINE
  5
1D8A8
  8
AM_0
 10
832.25794213686152
 20
328.07677243779841
 30
0.0
 11
926.25794213686152
 21
328.07677243779841
 31
0.0
  0
LINE
  5
1D8A9
  8
AM_0
 10
832.25794213686152
 20
330.07677243779841
 30
0.0
 11
926.25794213686152
 21
330.07677243779841
 31
0.0
  0
LINE
  5
1D8AA
  8
AM_0
 10
832.25794213686152
 20
338.0767724377983
 30
0.0
 11
926.25794213686152
 21
338.0767724377983
 31
0.0
  0
LINE
  5
1D8AB
  8
AM_0
 10
832.25794213686152
 20
340.0767724377983
 30
0.0
 11
915.25794213686152
 21
340.0767724377983
 31
0.0
  0
LINE
  5
1D8AC
  8
AM_0
 10
765.2579421368614
 20
298.0767724377983
 30
0.0
 11
926.25794213686152
 21
298.0767724377983
 31
0.0
  0
LINE
  5
1D8AD
  8
AM_0
 10
765.2579421368614
 20
310.07677243779841
 30
0.0
 11
926.25794213686152
 21
310.07677243779841
 31
0.0
  0
LINE
  5
1D8AE
  8
AM_0
 10
765.2579421368614
 20
308.07677243779841
 30
0.0
 11
926.25794213686152
 21
308.07677243779841
 31
0.0
  0
LINE
  5
1D8AF
  8
AM_0
 10
765.2579421368614
 20
300.07677243779841
 30
0.0
 11
926.25794213686152
 21
300.07677243779841
 31
0.0
  0
LINE
  5
1D8B0
  8
AM_0
 10
765.2579421368614
 20
388.0767724377983
 30
0.0
 11
926.25794213686152
 21
388.0767724377983
 31
0.0
  0
LINE
  5
1D8B1
  8
AM_0
 10
765.2579421368614
 20
380.07677243779841
 30
0.0
 11
926.25794213686152
 21
380.07677243779841
 31
0.0
  0
LINE
  5
1D8B2
  8
AM_0
 10
765.2579421368614
 20
378.07677243779841
 30
0.0
 11
926.25794213686152
 21
378.07677243779841
 31
0.0
  0
LINE
  5
1D8B3
  8
AM_0
 10
765.2579421368614
 20
390.0767724377983
 30
0.0
 11
926.25794213686152
 21
390.0767724377983
 31
0.0
  0
LINE
  5
1D8B4
  8
AM_0
 10
832.25794213686152
 20
348.0767724377983
 30
0.0
 11
915.25794213686152
 21
348.0767724377983
 31
0.0
  0
LINE
  5
1D8B5
  8
AM_0
 10
832.25794213686152
 20
350.07677243779841
 30
0.0
 11
926.25794213686152
 21
350.07677243779841
 31
0.0
  0
LINE
  5
1D8B6
  8
AM_0
 10
832.25794213686152
 20
358.07677243779841
 30
0.0
 11
926.25794213686152
 21
358.07677243779841
 31
0.0
  0
LINE
  5
1D8B7
  8
AM_0
 10
832.25794213686152
 20
360.07677243779841
 30
0.0
 11
926.25794213686152
 21
360.07677243779841
 31
0.0
  0
LINE
  5
1D8B8
  8
AM_0
 10
765.2579421368614
 20
370.07677243779841
 30
0.0
 11
783.7579421368614
 21
370.07677243779841
 31
0.0
  0
LINE
  5
1D8B9
  8
AM_0
 10
765.2579421368614
 20
368.07677243779841
 30
0.0
 11
926.25794213686152
 21
368.07677243779841
 31
0.0
  0
LINE
  5
1D8BA
  8
AM_0
 10
764.25794213686152
 20
381.03499243779839
 30
0.0
 11
764.25794213686152
 21
410.57677643779829
 31
0.0
  0
ARC
  5
1D8BB
  8
AM_0
 10
767.47742213686161
 20
269.0767724377983
 30
0.0
 40
2.0
 50
195.03168999999829
 51
270.000010000001
  0
ARC
  5
1D8BC
  8
AM_0
 10
768.06550213686126
 20
269.0767724377983
 30
0.0
 40
2.0
 50
195.03168999999829
 51
270.000010000001
  0
ARC
  5
1D8BD
  8
AM_0
 10
783.7579421368614
 20
311.0767724377983
 30
0.0
 40
1.0
 50
270.0
 51
0.0000100000010134
  0
ARC
  5
1D8BE
  8
AM_0
 10
800.7579421368614
 20
311.0767724377983
 30
0.0
 40
1.0
 50
179.99999899999861
 51
270.000010000001
  0
ARC
  5
1D8BF
  8
AM_0
 10
800.7579421368614
 20
377.07677243779841
 30
0.0
 40
1.0
 50
89.999997000002296
 51
180.0
  0
ARC
  5
1D8C0
  8
AM_0
 10
783.7579421368614
 20
377.07677243779841
 30
0.0
 40
1.0
 50
359.999989999999
 51
89.999997000002296
  0
ARC
  5
1D8C1
  8
AM_0
 10
783.7579421368614
 20
317.0767724377983
 30
0.0
 40
1.0
 50
359.999989999999
 51
89.999997000002296
  0
ARC
  5
1D8C2
  8
AM_0
 10
800.7579421368614
 20
317.0767724377983
 30
0.0
 40
1.0
 50
89.999997000002296
 51
180.0
  0
ARC
  5
1D8C3
  8
AM_0
 10
783.7579421368614
 20
371.0767724377983
 30
0.0
 40
1.0
 50
270.0
 51
0.0000100000010134
  0
ARC
  5
1D8C4
  8
AM_0
 10
800.7579421368614
 20
371.0767724377983
 30
0.0
 40
1.0
 50
179.99999899999861
 51
270.000010000001
  0
CIRCLE
  5
1D8C5
  8
AM_0
 10
789.75794213686152
 20
372.57677243779841
 30
0.0
 40
1.0
  0
CIRCLE
  5
1D8C6
  8
AM_0
 10
794.75794213686152
 20
372.57677243779841
 30
0.0
 40
1.149999999999999
  0
CIRCLE
  5
1D8C7
  8
AM_0
 10
794.75794213686152
 20
372.57677243779841
 30
0.0
 40
1.1000000000000001
  0
CIRCLE
  5
1D8C8
  8
AM_0
 10
794.75794213686152
 20
315.57677243779813
 30
0.0
 40
1.1000000000000001
  0
CIRCLE
  5
1D8C9
  8
AM_0
 10
794.75794213686152
 20
315.57677243779813
 30
0.0
 40
1.149999999999999
  0
CIRCLE
  5
1D8CA
  8
AM_0
 10
789.75794213686152
 20
315.57677243779813
 30
0.0
 40
1.0
  0
ARC
  5
1D8CB
  8
AM_0
 10
832.25794213686152
 20
359.0767724377983
 30
0.0
 40
1.0
 50
89.999997000002296
 51
270.000010000001
  0
ARC
  5
1D8CC
  8
AM_0
 10
832.25794213686152
 20
349.07677243779841
 30
0.0
 40
1.0
 50
89.999997000002296
 51
270.000010000001
  0
ARC
  5
1D8CD
  8
AM_0
 10
832.25794213686152
 20
339.07677243779841
 30
0.0
 40
1.0
 50
89.999997000002296
 51
270.000010000001
  0
ARC
  5
1D8CE
  8
AM_0
 10
832.25794213686152
 20
329.07677243779841
 30
0.0
 40
1.0
 50
89.999997000002296
 51
270.000010000001
  0
ARC
  5
1D8CF
  8
AM_0
 10
767.20795213686131
 20
309.0767724377983
 30
0.0
 40
1.0
 50
89.999997000002296
 51
270.000010000001
  0
ARC
  5
1D8D0
  8
AM_0
 10
765.2579421368614
 20
309.0767724377983
 30
0.0
 40
1.0
 50
89.999997000002296
 51
270.000010000001
  0
ARC
  5
1D8D1
  8
AM_0
 10
767.20795213686131
 20
319.0767724377983
 30
0.0
 40
1.0
 50
89.999997000002296
 51
270.000010000001
  0
ARC
  5
1D8D2
  8
AM_0
 10
765.2579421368614
 20
319.0767724377983
 30
0.0
 40
1.0
 50
89.999997000002296
 51
270.000010000001
  0
ARC
  5
1D8D3
  8
AM_0
 10
767.20795213686131
 20
369.0767724377983
 30
0.0
 40
1.0
 50
89.999997000002296
 51
270.000010000001
  0
ARC
  5
1D8D4
  8
AM_0
 10
765.2579421368614
 20
369.0767724377983
 30
0.0
 40
1.0
 50
89.999997000002296
 51
270.000010000001
  0
ARC
  5
1D8D5
  8
AM_0
 10
767.20795213686131
 20
379.07677243779841
 30
0.0
 40
1.0
 50
89.999997000002296
 51
270.000010000001
  0
ARC
  5
1D8D6
  8
AM_0
 10
765.2579421368614
 20
379.07677243779841
 30
0.0
 40
1.0
 50
89.999997000002296
 51
270.000010000001
  0
ARC
  5
1D8D7
  8
AM_0
 10
915.25794213686152
 20
347.07677243779841
 30
0.0
 40
1.0
 50
359.999989999999
 51
89.999997000002296
  0
ARC
  5
1D8D8
  8
AM_0
 10
915.25794213686152
 20
341.07677243779841
 30
0.0
 40
1.0
 50
270.0
 51
0.0000100000010134
  0
ARC
  5
1D8D9
  8
AM_0
 10
915.25797213686155
 20
329.07677243779841
 30
0.0
 40
1.0
 50
270.0
 51
89.999997000002296
  0
ARC
  5
1D8DA
  8
AM_0
 10
915.25797213686155
 20
319.0767724377983
 30
0.0
 40
1.0
 50
270.0
 51
89.999997000002296
  0
ARC
  5
1D8DB
  8
AM_0
 10
767.20795213686131
 20
299.07677243779841
 30
0.0
 40
1.0
 50
89.999997000002296
 51
270.000010000001
  0
ARC
  5
1D8DC
  8
AM_0
 10
765.2579421368614
 20
299.07677243779841
 30
0.0
 40
1.0
 50
89.999997000002296
 51
270.000010000001
  0
ARC
  5
1D8DD
  8
AM_0
 10
915.25797213686155
 20
299.07677243779841
 30
0.0
 40
1.0
 50
270.0
 51
89.999997000002296
  0
ARC
  5
1D8DE
  8
AM_0
 10
915.25797213686155
 20
309.0767724377983
 30
0.0
 40
1.0
 50
270.0
 51
89.999997000002296
  0
ARC
  5
1D8DF
  8
AM_0
 10
763.11188213686114
 20
271.85637243779843
 30
0.0
 40
1.4952499999999991
 50
14.73739999999794
 51
39.962349999997393
  0
ARC
  5
1D8E0
  8
AM_0
 10
763.1169521368613
 20
274.0322724377985
 30
0.0
 40
1.494020999999998
 50
15.30965999999974
 51
40.207419999999743
  0
ARC
  5
1D8E1
  8
AM_0
 10
763.11378213686169
 20
417.84383243779831
 30
0.0
 40
1.495147999999999
 50
344.99378700000182
 51
344.99811000000318
  0
ARC
  5
1D8E2
  8
AM_0
 10
915.25797213686155
 20
379.07677243779841
 30
0.0
 40
1.0
 50
270.0
 51
89.999997000002296
  0
ARC
  5
1D8E3
  8
AM_0
 10
915.25797213686155
 20
389.07677243779841
 30
0.0
 40
1.0
 50
270.0
 51
89.999997000002296
  0
ARC
  5
1D8E4
  8
AM_0
 10
765.2579421368614
 20
389.07677243779841
 30
0.0
 40
1.0
 50
89.999997000002296
 51
270.000010000001
  0
ARC
  5
1D8E5
  8
AM_0
 10
767.20795213686131
 20
389.07677243779841
 30
0.0
 40
1.0
 50
89.999997000002296
 51
270.000010000001
  0
ARC
  5
1D8E6
  8
AM_0
 10
915.25797213686155
 20
369.0767724377983
 30
0.0
 40
1.0
 50
270.0
 51
89.999997000002296
  0
ARC
  5
1D8E7
  8
AM_0
 10
915.25797213686155
 20
359.0767724377983
 30
0.0
 40
1.0
 50
270.0
 51
89.999997000002296
  0
LINE
  5
1D8E8
  8
AM_0
 10
756.55794213755155
 20
417.576777437798
 30
0.0
 11
762.31800913686152
 21
417.576777437798
 31
0.0
  0
LINE
  5
1D8E9
  8
ﾁｭｳｼﾝｾﾝ1
 10
810.75794213686152
 20
272.16148843779843
 30
0.0
 11
810.75794213686152
 21
258.17466643779841
 31
0.0
  0
POINT
  5
1D8EA
  8
AM_0
 10
810.75794213686152
 20
262.07677243779841
 30
0.0
  0
LINE
  5
1D8EB
  8
AM_0
 10
768.00794213686152
 20
262.57677243779841
 30
0.0
 11
852.00794213686152
 21
262.57677243779841
 31
0.0
  0
LINE
  5
1D8EC
  8
AM_0
 10
850.40794213686149
 20
232.57677243779841
 30
0.0
 11
774.10794213686154
 21
245.57677243779841
 31
0.0
  0
LINE
  5
1D8ED
  8
AM_0
 10
850.48794213686131
 20
233.5767724377983
 30
0.0
 11
818.5079421368614
 21
239.0267724377984
 31
0.0
  0
LINE
  5
1D8EE
  8
AM_0
 10
774.60794213686154
 20
228.57677243779841
 30
0.0
 11
850.07794213686157
 21
228.57677243779841
 31
0.0
  0
LINE
  5
1D8EF
  8
AM_0
 10
773.77794213686161
 20
241.57677243779841
 30
0.0
 11
850.07794213686157
 21
228.57677243779841
 31
0.0
  0
LINE
  5
1D8F0
  8
ﾁｭｳｼﾝｾﾝ1
 10
848.65675713686153
 20
246.5767724377983
 30
0.0
 11
858.80762113686114
 21
246.5767724377983
 31
0.0
  0
ARC
  5
1D8F1
  8
AM_0
 10
854.70057513686152
 20
237.2694054377985
 30
0.0
 40
0.307456
 50
1.373079999999403
 51
88.626920000000638
  0
ARC
  5
1D8F2
  8
AM_0
 10
853.5078971368614
 20
230.07681743779841
 30
0.0
 40
1.5000450000000001
 50
270.00171900000248
 51
359.99828099999741
  0
ARC
  5
1D8F3
  8
AM_0
 10
853.8080241368616
 20
237.27669043779841
 30
0.0
 40
0.300082
 50
90.015733000000253
 51
179.9842669999997
  0
ARC
  5
1D8F4
  8
AM_0
 10
854.2005751368614
 20
232.2694054377985
 30
0.0
 40
0.307456
 50
1.373079999999403
 51
88.626920000000638
  0
ARC
  5
1D8F5
  8
AM_0
 10
853.00789713686129
 20
230.07681743779841
 30
0.0
 40
1.5000450000000001
 50
270.00171900000248
 51
359.99828099999741
  0
ARC
  5
1D8F6
  8
AM_0
 10
854.2005751368614
 20
233.2694054377985
 30
0.0
 40
0.307456
 50
1.373079999999403
 51
88.626920000000638
  0
ARC
  5
1D8F7
  8
AM_0
 10
852.00053213686158
 20
261.56936243779842
 30
0.0
 40
1.007436999999999
 50
0.4214379999981099
 51
89.578562000001924
  0
LINE
  5
1D8F8
  8
AM_0
 10
853.5079421368614
 20
228.57677243779841
 30
0.0
 11
853.20794213686145
 21
228.57677243779841
 31
0.0
  0
LINE
  5
1D8F9
  8
AM_0
 10
855.0079421368614
 20
237.2767724377984
 30
0.0
 11
855.0079421368614
 21
230.0767724377983
 31
0.0
  0
LINE
  5
1D8FA
  8
AM_0
 10
854.20794213686145
 20
237.57677243779841
 30
0.0
 11
854.70794213686156
 21
237.57677243779841
 31
0.0
  0
LINE
  5
1D8FB
  8
AM_0
 10
853.80794213686124
 20
237.57677243779841
 30
0.0
 11
854.20794213686145
 21
237.57677243779841
 31
0.0
  0
LINE
  5
1D8FC
  8
AM_0
 10
854.50794213686152
 20
232.2767724377984
 30
0.0
 11
854.50794213686152
 21
230.0767724377983
 31
0.0
  0
LINE
  5
1D8FD
  8
AM_0
 10
853.00794213686129
 20
228.57677243779841
 30
0.0
 11
850.07794213686157
 21
228.57677243779841
 31
0.0
  0
LINE
  5
1D8FE
  8
AM_0
 10
853.30794213686113
 20
238.37677243779831
 30
0.0
 11
853.10794213686142
 21
238.57677243779841
 31
0.0
  0
LINE
  5
1D8FF
  8
AM_0
 10
854.50794213686152
 20
233.2767724377984
 30
0.0
 11
854.50794213686152
 21
232.57677243779841
 31
0.0
  0
LINE
  5
1D900
  8
AM_0
 10
850.48794213686131
 20
233.5767724377983
 30
0.0
 11
854.20794213686145
 21
233.5767724377983
 31
0.0
  0
LINE
  5
1D901
  8
AM_0
 10
853.00794213686129
 20
261.57677243779841
 30
0.0
 11
853.00794213686129
 21
238.57677243779841
 31
0.0
  0
LINE
  5
1D902
  8
AM_0
 10
853.30794213686113
 20
233.5767724377983
 30
0.0
 11
853.30794213686113
 21
234.56677243779831
 31
0.0
  0
LINE
  5
1D903
  8
AM_0
 10
853.00794213686129
 20
238.57677243779841
 30
0.0
 11
853.00794213686129
 21
233.5767724377983
 31
0.0
  0
LINE
  5
1D904
  8
AM_0
 10
853.30794213686113
 20
234.56677243779831
 30
0.0
 11
853.5079421368614
 21
234.56677243779831
 31
0.0
  0
LINE
  5
1D905
  8
AM_0
 10
853.30794213686113
 20
234.56677243779831
 30
0.0
 11
853.30794213686113
 21
235.76677243779841
 31
0.0
  0
LINE
  5
1D906
  8
AM_0
 10
853.5079421368614
 20
235.76677243779841
 30
0.0
 11
853.30794213686113
 21
235.76677243779841
 31
0.0
  0
LINE
  5
1D907
  8
AM_0
 10
853.30794213686113
 20
235.76677243779841
 30
0.0
 11
853.30794213686113
 21
238.37677243779831
 31
0.0
  0
LINE
  5
1D908
  8
AM_0
 10
853.10794213686142
 20
238.57677243779841
 30
0.0
 11
853.00794213686129
 21
238.57677243779841
 31
0.0
  0
LINE
  5
1D909
  8
AM_0
 10
854.50794213686152
 20
232.57677243779841
 30
0.0
 11
850.40794213686149
 21
232.57677243779841
 31
0.0
  0
LINE
  5
1D90A
  8
AM_0
 10
853.5079421368614
 20
233.5767724377983
 30
0.0
 11
853.5079421368614
 21
237.2767724377984
 31
0.0
  0
LINE
  5
1D90B
  8
AM_0
 10
767.0079421368614
 20
242.0767724377983
 30
0.0
 11
767.0079421368614
 21
261.57677243779841
 31
0.0
  0
LINE
  5
1D90C
  8
AM_0
 10
847.20794213686145
 20
262.57677243779841
 30
0.0
 11
847.20794213686145
 21
245.57677243779841
 31
0.0
  0
LINE
  5
1D90D
  8
AM_0
 10
780.72794213686154
 20
245.45677243779849
 30
0.0
 11
780.72794213686154
 21
262.57677243779841
 31
0.0
  0
LINE
  5
1D90E
  8
AM_0
 10
828.60794213686154
 20
262.57677243779841
 30
0.0
 11
828.60794213686154
 21
245.57677243779841
 31
0.0
  0
ARC
  5
1D90F
  8
AM_0
 10
774.6005231368614
 20
231.06935443779821
 30
0.0
 40
2.4925929999999981
 50
179.82947499999719
 51
270.17052500000273
  0
ARC
  5
1D910
  8
AM_0
 10
771.6005231368614
 20
241.06935443779821
 30
0.0
 40
0.507473
 50
0.8376109999979384
 51
89.162389000002094
  0
CIRCLE
  5
1D911
  8
AM_0
 10
788.90053713686154
 20
245.56938943779821
 30
0.0
 40
0.75
  0
CIRCLE
  5
1D912
  8
AM_0
 10
837.90053013686111
 20
245.56938943779821
 30
0.0
 40
6.299999999999998
  0
ARC
  5
1D913
  8
AM_0
 10
837.90794213686149
 20
245.57677243779841
 30
0.0
 40
9.3000030000000002
 50
180.0
 51
0.000000000000007
  0
LINE
  5
1D914
  8
ﾁｭｳｼﾝｾﾝ1
 10
837.90794213686149
 20
237.90677243779831
 30
0.0
 11
837.90794213686149
 21
253.6067724377983
 31
0.0
  0
LINE
  5
1D915
  8
ﾁｭｳｼﾝｾﾝ1
 10
830.14794213686105
 20
245.57677243779841
 30
0.0
 11
845.35794213686154
 21
245.57677243779841
 31
0.0
  0
LINE
  5
1D916
  8
AM_0
 10
782.37794213686152
 20
228.57677243779841
 30
0.0
 11
782.37794213686152
 21
240.1067724377983
 31
0.0
  0
LINE
  5
1D917
  8
AM_0
 10
781.5079421368614
 20
240.25677243779839
 30
0.0
 11
781.5079421368614
 21
244.31677243779839
 31
0.0
  0
LINE
  5
1D918
  8
AM_0
 10
767.50794213686129
 20
241.57677243779841
 30
0.0
 11
773.77794213686161
 21
241.57677243779841
 31
0.0
  0
LINE
  5
1D919
  8
AM_0
 10
772.10794213686154
 20
241.07677243779841
 30
0.0
 11
772.10794213686154
 21
231.07677243779841
 31
0.0
  0
LINE
  5
1D91A
  8
AM_0
 10
816.50794213686152
 20
239.36677243779829
 30
0.0
 11
814.30794213686136
 21
239.73677243779841
 31
0.0
  0
LINE
  5
1D91B
  8
AM_0
 10
812.80794213686124
 20
239.9967724377984
 30
0.0
 11
810.60794213686154
 21
240.3667724377982
 31
0.0
  0
LINE
  5
1D91C
  8
AM_0
 10
809.10794213686154
 20
240.62677243779831
 30
0.0
 11
806.90794213686115
 21
240.9967724377984
 31
0.0
  0
LINE
  5
1D91D
  8
AM_0
 10
804.90794213686115
 20
241.3367724377982
 30
0.0
 11
803.20794213686145
 21
241.62677243779831
 31
0.0
  0
LINE
  5
1D91E
  8
AM_0
 10
801.70794213686145
 20
241.8867724377983
 30
0.0
 11
799.49794213686152
 21
242.25677243779839
 31
0.0
  0
LINE
  5
1D91F
  8
AM_0
 10
797.99794213686152
 20
242.51677243779841
 30
0.0
 11
795.79794213686114
 21
242.89677243779829
 31
0.0
  0
LINE
  5
1D920
  8
AM_0
 10
794.29794213686125
 20
243.14677243779821
 30
0.0
 11
792.09794213686155
 21
243.5267724377984
 31
0.0
  0
LINE
  5
1D921
  8
AM_0
 10
790.59794213686155
 20
243.7767724377984
 30
0.0
 11
774.18794213686124
 21
246.5767724377983
 31
0.0
  0
LINE
  5
1D922
  8
AM_0
 10
767.0079421368614
 20
246.5767724377983
 30
0.0
 11
774.18794213686124
 21
246.5767724377983
 31
0.0
  0
LINE
  5
1D923
  8
AM_0
 10
790.59794213686155
 20
243.7767724377984
 30
0.0
 11
790.59794213686155
 21
257.57677243779841
 31
0.0
  0
LINE
  5
1D924
  8
AM_0
 10
790.59794213686155
 20
257.57677243779841
 30
0.0
 11
792.09794213686155
 21
257.57677243779841
 31
0.0
  0
LINE
  5
1D925
  8
AM_0
 10
792.09794213686155
 20
257.57677243779841
 30
0.0
 11
792.09794213686155
 21
243.5267724377984
 31
0.0
  0
LINE
  5
1D926
  8
AM_0
 10
794.29794213686125
 20
243.14677243779821
 30
0.0
 11
794.29794213686125
 21
257.57677243779841
 31
0.0
  0
LINE
  5
1D927
  8
AM_0
 10
794.29794213686125
 20
257.57677243779841
 30
0.0
 11
795.79794213686114
 21
257.57677243779841
 31
0.0
  0
LINE
  5
1D928
  8
AM_0
 10
795.79794213686114
 20
257.57677243779841
 30
0.0
 11
795.79794213686114
 21
242.89677243779829
 31
0.0
  0
LINE
  5
1D929
  8
AM_0
 10
797.99794213686152
 20
242.51677243779841
 30
0.0
 11
797.99794213686152
 21
257.57677243779841
 31
0.0
  0
LINE
  5
1D92A
  8
AM_0
 10
797.99794213686152
 20
257.57677243779841
 30
0.0
 11
799.49794213686152
 21
257.57677243779841
 31
0.0
  0
LINE
  5
1D92B
  8
AM_0
 10
799.49794213686152
 20
257.57677243779841
 30
0.0
 11
799.49794213686152
 21
242.25677243779839
 31
0.0
  0
LINE
  5
1D92C
  8
AM_0
 10
801.70794213686145
 20
241.8867724377983
 30
0.0
 11
801.70794213686145
 21
257.57677243779841
 31
0.0
  0
LINE
  5
1D92D
  8
AM_0
 10
801.70794213686145
 20
257.57677243779841
 30
0.0
 11
803.20794213686145
 21
257.57677243779841
 31
0.0
  0
LINE
  5
1D92E
  8
AM_0
 10
803.20794213686145
 20
257.57677243779841
 30
0.0
 11
803.20794213686145
 21
241.62677243779831
 31
0.0
  0
LINE
  5
1D92F
  8
AM_0
 10
804.90794213686115
 20
241.3367724377982
 30
0.0
 11
804.90794213686115
 21
254.8667724377982
 31
0.0
  0
LINE
  5
1D930
  8
AM_0
 10
805.60794213686154
 20
257.57677243779841
 30
0.0
 11
806.90794213686115
 21
257.57677243779841
 31
0.0
  0
LINE
  5
1D931
  8
AM_0
 10
806.90794213686115
 20
257.57677243779841
 30
0.0
 11
806.90794213686115
 21
240.9967724377984
 31
0.0
  0
LINE
  5
1D932
  8
AM_0
 10
809.10794213686154
 20
240.62677243779831
 30
0.0
 11
809.10794213686154
 21
257.57677243779841
 31
0.0
  0
LINE
  5
1D933
  8
AM_0
 10
809.10794213686154
 20
257.57677243779841
 30
0.0
 11
810.60794213686154
 21
257.57677243779841
 31
0.0
  0
LINE
  5
1D934
  8
AM_0
 10
810.60794213686154
 20
257.57677243779841
 30
0.0
 11
810.60794213686154
 21
240.3667724377982
 31
0.0
  0
LINE
  5
1D935
  8
AM_0
 10
812.80794213686124
 20
239.9967724377984
 30
0.0
 11
812.80794213686124
 21
257.57677243779841
 31
0.0
  0
LINE
  5
1D936
  8
AM_0
 10
812.80794213686124
 20
257.57677243779841
 30
0.0
 11
814.30794213686136
 21
257.57677243779841
 31
0.0
  0
LINE
  5
1D937
  8
AM_0
 10
814.30794213686136
 20
257.57677243779841
 30
0.0
 11
814.30794213686136
 21
239.73677243779841
 31
0.0
  0
LINE
  5
1D938
  8
AM_0
 10
816.50794213686152
 20
239.36677243779829
 30
0.0
 11
816.50794213686152
 21
257.57677243779841
 31
0.0
  0
LINE
  5
1D939
  8
AM_0
 10
816.50794213686152
 20
257.57677243779841
 30
0.0
 11
817.80794213686136
 21
257.57677243779841
 31
0.0
  0
LINE
  5
1D93A
  8
AM_0
 10
817.80794213686136
 20
257.57677243779841
 30
0.0
 11
817.80794213686136
 21
255.5267724377984
 31
0.0
  0
LINE
  5
1D93B
  8
AM_0
 10
790.59794213686155
 20
253.57677243779841
 30
0.0
 11
792.09794213686155
 21
253.57677243779841
 31
0.0
  0
LINE
  5
1D93C
  8
AM_0
 10
794.29794213686125
 20
253.57677243779841
 30
0.0
 11
795.79794213686114
 21
253.57677243779841
 31
0.0
  0
LINE
  5
1D93D
  8
AM_0
 10
797.99794213686152
 20
253.57677243779841
 30
0.0
 11
799.49794213686152
 21
253.57677243779841
 31
0.0
  0
LINE
  5
1D93E
  8
AM_0
 10
801.70794213686145
 20
253.57677243779841
 30
0.0
 11
803.20794213686145
 21
253.57677243779841
 31
0.0
  0
LINE
  5
1D93F
  8
AM_0
 10
804.90794213686115
 20
253.57677243779841
 30
0.0
 11
806.90794213686115
 21
253.57677243779841
 31
0.0
  0
LINE
  5
1D940
  8
AM_0
 10
809.10794213686154
 20
253.57677243779841
 30
0.0
 11
810.60794213686154
 21
253.57677243779841
 31
0.0
  0
LINE
  5
1D941
  8
AM_0
 10
812.80794213686124
 20
253.57677243779841
 30
0.0
 11
814.30794213686136
 21
253.57677243779841
 31
0.0
  0
LINE
  5
1D942
  8
AM_0
 10
816.50794213686152
 20
253.57677243779841
 30
0.0
 11
818.5079421368614
 21
253.57677243779841
 31
0.0
  0
LINE
  5
1D943
  8
AM_0
 10
818.5079421368614
 20
254.8667724377982
 30
0.0
 11
818.5079421368614
 21
239.0267724377984
 31
0.0
  0
LINE
  5
1D944
  8
AM_0
 10
817.80794213686136
 20
255.5267724377984
 30
0.0
 11
818.5079421368614
 21
254.8667724377982
 31
0.0
  0
LINE
  5
1D945
  8
AM_0
 10
804.90794213686115
 20
254.8667724377982
 30
0.0
 11
805.60794213686154
 21
255.5267724377984
 31
0.0
  0
LINE
  5
1D946
  8
AM_0
 10
805.60794213686154
 20
255.5267724377984
 30
0.0
 11
805.60794213686154
 21
257.57677243779841
 31
0.0
  0
LINE
  5
1D947
  8
AM_0
 10
774.10794213686154
 20
245.57677243779841
 30
0.0
 11
767.0079421368614
 21
245.57677243779841
 31
0.0
  0
ARC
  5
1D948
  8
AM_0
 10
767.50794213686129
 20
242.0767724377983
 30
0.0
 40
0.5
 50
180.0
 51
270.0
  0
ARC
  5
1D949
  8
AM_0
 10
768.00794213686152
 20
261.57677243779841
 30
0.0
 40
1.0
 50
90.0
 51
180.0
  0
LINE
  5
1D94A
  8
AM_0
 10
844.2579421368614
 20
262.57677243779841
 30
0.0
 11
844.2579421368614
 21
265.0767724377983
 31
0.0
  0
LINE
  5
1D94B
  8
AM_0
 10
777.25794213686152
 20
262.57677243779841
 30
0.0
 11
777.25794213686152
 21
265.0767724377983
 31
0.0
  0
LINE
  5
1D94C
  8
AM_0
 10
1009.557942136861
 20
264.0973334377984
 30
0.0
 11
1009.557942136861
 21
424.05677243779809
 31
0.0
  0
ARC
  5
1D94D
  8
AM_0
 10
1035.3738041368611
 20
416.71167343779803
 30
0.0
 40
5.7526239999999991
 50
10.062374000000419
 51
87.069124999997058
  0
LINE
  5
1D94E
  8
AM_0
 10
1001.2579421368609
 20
426.07677243779818
 30
0.0
 11
926.25794213686152
 21
426.07677243779818
 31
0.0
  0
LINE
  5
1D94F
  8
AM_0
 10
1001.2579421368609
 20
262.07677243779841
 30
0.0
 11
1001.2579421368609
 21
426.07677243779818
 31
0.0
  0
LINE
  5
1D950
  8
AM_0
 10
1038.487942136861
 20
270.57677243779841
 30
0.0
 11
1038.487942136861
 21
418.09677243779828
 31
0.0
  0
LINE
  5
1D951
  8
AM_0
 10
1008.307942136861
 20
424.82677243779801
 30
0.0
 11
1001.2579421368609
 21
424.82677243779801
 31
0.0
  0
LINE
  5
1D952
  8
AM_0
 10
1010.2679421368611
 20
423.78677243779822
 30
0.0
 11
1035.667942136861
 21
422.45677243779818
 31
0.0
  0
ARC
  5
1D953
  8
AM_0
 10
1008.302605136861
 20
423.57554143779828
 30
0.0
 40
1.2512430000000001
 50
35.760896999997641
 51
89.755619999999936
  0
ARC
  5
1D954
  8
AM_0
 10
1010.334148136861
 20
425.03551443779838
 30
0.0
 40
1.2504959999999981
 50
215.64507799999589
 51
266.96511300000299
  0
LINE
  5
1D955
  8
AM_0
 10
1042.5579421368609
 20
280.70613243779832
 30
0.0
 11
1042.5579421368609
 21
407.7267724377981
 31
0.0
  0
LINE
  5
1D956
  8
AM_0
 10
1010.2679421368611
 20
264.36677243779832
 30
0.0
 11
1035.667942136861
 21
265.69677243779807
 31
0.0
  0
ARC
  5
1D958
  8
AM_0
 10
1045.073662136861
 20
276.07760343779842
 30
0.0
 40
3.0009689999999982
 50
109.6864454280737
 51
170.03768200000101
  0
LINE
  5
1D959
  8
AM_0
 10
1042.117941136861
 20
276.59677243779828
 30
0.0
 11
1041.0379421368609
 21
270.43677243779848
 31
0.0
  0
ARC
  5
1D95A
  8
AM_0
 10
1035.3799921368609
 20
271.43486143779842
 30
0.0
 40
5.745309999999999
 50
272.8728220000034
 51
349.99567800000131
  0
LINE
  5
1D95B
  8
AM_0
 10
1001.2579421368609
 20
262.07677243779841
 30
0.0
 11
926.25794213686152
 21
262.07677243779841
 31
0.0
  0
LINE
  5
1D95C
  8
AM_0
 10
1008.307942136861
 20
263.3267724377983
 30
0.0
 11
1001.2579421368609
 21
263.3267724377983
 31
0.0
  0
ARC
  5
1D95D
  8
AM_0
 10
1008.307578136862
 20
264.56834543779843
 30
0.0
 40
1.241573
 50
270.0168160000004
 51
324.46666699999912
  0
ARC
  5
1D95E
  8
AM_0
 10
1010.3392191368609
 20
263.10876643779829
 30
0.0
 40
1.260022999999999
 50
93.242827000000744
 51
144.1469820000008
  0
ARC
  5
1D95F
  8
AM_0
 10
1045.073662136861
 20
412.07594143779829
 30
0.0
 40
3.0009689999999982
 50
189.96231799999899
 51
250.31355457192609
  0
LINE
  5
1D960
  8
AM_0
 10
1042.1179421368611
 20
411.55677243779809
 30
0.0
 11
1041.0379421368609
 21
417.716772437798
 31
0.0
  0
LINE
  5
1D962
  8
AM_0
 10
926.25794213686152
 20
426.07677243779818
 30
0.0
 11
926.25794213686152
 21
262.07677243779841
 31
0.0
  0
LINE
  5
1D963
  8
AM_0
 10
962.26003113686113
 20
436.0767724377983
 30
0.0
 11
962.26003113686113
 21
426.07677243779818
 31
0.0
  0
LINE
  5
1D964
  8
AM_0
 10
950.25585313686145
 20
436.0767724377983
 30
0.0
 11
950.25585313686145
 21
426.07677243779818
 31
0.0
  0
LINE
  5
1D965
  8
AM_0
 10
1024.0627181368609
 20
431.07677243779801
 30
0.0
 11
962.26003113686113
 21
431.07677243779801
 31
0.0
  0
LINE
  5
1D966
  8
AM_0
 10
1024.0587701368611
 20
436.0767724377983
 30
0.0
 11
946.05794213686124
 21
436.0767724377983
 31
0.0
  0
LINE
  5
1D967
  8
AM_0
 10
950.25585313686145
 20
431.07677243779801
 30
0.0
 11
946.05794213686124
 21
431.07677243779801
 31
0.0
  0
ARC
  5
1D968
  8
AM_0
 10
1024.0587701368611
 20
411.0767724377983
 30
0.0
 40
25.0
 50
0.000000000000007
 51
90.0
  0
LINE
  5
1D969
  8
AM_0
 10
950.25585313686145
 20
262.07677243779841
 30
0.0
 11
950.25585313686145
 21
252.07677243779841
 31
0.0
  0
LINE
  5
1D96A
  8
AM_0
 10
962.26003113686113
 20
262.07677243779841
 30
0.0
 11
962.26003113686113
 21
252.07677243779841
 31
0.0
  0
LINE
  5
1D96B
  8
AM_0
 10
1024.0627181368609
 20
257.0767724377983
 30
0.0
 11
962.26003113686113
 21
257.0767724377983
 31
0.0
  0
LINE
  5
1D96C
  8
AM_0
 10
1024.0587701368611
 20
252.07677243779841
 30
0.0
 11
946.05794213686124
 21
252.07677243779841
 31
0.0
  0
LINE
  5
1D96D
  8
AM_0
 10
950.25585313686145
 20
257.0767724377983
 30
0.0
 11
946.05794213686124
 21
257.0767724377983
 31
0.0
  0
ARC
  5
1D96E
  8
AM_0
 10
1024.0627181368609
 20
411.0767724377983
 30
0.0
 40
20.0
 50
0.000000000000007
 51
90.0
  0
LINE
  5
1D970
  8
AM_0
 10
1051.5327181368609
 20
346.5767724377983
 30
0.0
 11
1044.0627181368609
 21
346.5767724377983
 31
0.0
  0
LINE
  5
1D971
  8
AM_0
 10
1049.0587701368611
 20
277.07677243779841
 30
0.0
 11
1049.0587701368611
 21
411.0767724377983
 31
0.0
  0
LINE
  5
1D972
  8
AM_0
 10
1051.5327181368609
 20
341.57677243779841
 30
0.0
 11
1044.0627181368609
 21
341.57677243779841
 31
0.0
  0
ARC
  5
1D973
  8
AM_0
 10
1024.0587701368611
 20
277.07677243779841
 30
0.0
 40
25.0
 50
270.0
 51
0.000000000000007
  0
ARC
  5
1D974
  8
AM_0
 10
1024.0627181368609
 20
277.07677243779841
 30
0.0
 40
20.0
 50
270.0
 51
0.000000000000007
  0
LINE
  5
1D975
  8
AM_0
 10
946.05794213686124
 20
431.07677243779801
 30
0.0
 11
946.05794213686124
 21
436.0767724377983
 31
0.0
  0
LINE
  5
1D976
  8
AM_0
 10
946.05794213686124
 20
257.0767724377983
 30
0.0
 11
946.05794213686124
 21
252.07677243779841
 31
0.0
  0
LINE
  5
1D97A
  8
AM_0
 10
1051.5327181368609
 20
346.5767724377983
 30
0.0
 11
1051.5327181368609
 21
341.57677243779841
 31
0.0
  0
LINE
  5
1D97C
  8
AM_0
 10
1044.0627181368609
 20
411.0767724377983
 30
0.0
 11
1044.0627181368609
 21
277.07677243779841
 31
0.0
  0
LINE
  5
1D97D
  8
AM_0
 10
763.25794213686152
 20
307.11855243779843
 30
0.0
 11
754.25794213686152
 21
307.11855243779843
 31
0.0
  0
LINE
  5
1D97E
  8
AM_0
 10
763.25794213686152
 20
381.03499243779839
 30
0.0
 11
754.25794213686152
 21
381.03499243779839
 31
0.0
  0
TEXT
  5
1DCD0
  8
AM_0
 10
86.95905937018324
 20
776.24367449703016
 30
0.0
 40
10.0
  1
VC08-080EFBH~VC08-160EFBH
1001
ACAD
1000
MTEXTBEGIN
1070
    73
1070
     1
1070
    44
1040
1.0
1070
    74
1070
     0
1000
MTEXTEND
  0
ARC
  5
1E102
  8
AM_0
 10
578.2579742109657
 20
331.07652922917953
 30
0.0
 40
22.5
 50
108.1262045251603
 51
71.873795474839369
  0
VIEWPORT
  5
89
 67
     1
  8
0
 10
210.0
 20
148.5
 30
0.0
 40
420.0
 41
297.0
 68
     1
 69
     1
1001
ACAD
1000
MVIEW
1002
{
1070
    16
1010
0.0
1020
0.0
1030
0.0
1010
0.0
1020
0.0
1030
1.0
1040
0.0
1040
297.0
1040
221.70154043645701
1040
148.5
1040
50.0
1040
0.0
1040
0.0
1070
     0
1070
   100
1070
     1
1070
     1
1070
     0
1070
     0
1070
     0
1070
     0
1040
0.0
1040
0.0
1040
0.0
1040
10.0
1040
10.0
1040
10.0
1040
10.0
1070
     0
1002
{
1002
}
1002
}
1001
GENIUS_GENOREF_13
1005
1B94
1001
GENIUS_GENSCREG_15
1000
PF
1040
1.0
1000
DF
1040
1.0
1000
MIN
1011
0.0
1021
0.0
1031
0.0
1021
0.0
1031
0.0
1000
MAX
1011
420.0
1021
0.0
1031
0.0
1021
297.0
1031
0.0
1000
FLAGS
1070
     4
  0
ENDSEC
  0
EOF
