  0
SECTION
  2
HEADER
  9
$ACADVER
  1
AC1009
  9
$INSBASE
 10
0.0
 20
0.0
 30
0.0
  9
$EXTMIN
 10
85.146837413481975
 20
139.9567704336493
 30
-0.0015258207003583
  9
$EXTMAX
 10
776.94859503774023
 20
595.88687977868096
 30
0.0000000349246037
  9
$LIMMIN
 10
0.0
 20
0.0
  9
$LIMMAX
 10
853.5
 20
555.00000000000011
  9
$ORTHOMODE
 70
     0
  9
$REGENMODE
 70
     1
  9
$FILLMODE
 70
     1
  9
$QTEXTMODE
 70
     0
  9
$MIRRTEXT
 70
     1
  9
$DRAGMODE
 70
     2
  9
$LTSCALE
 40
3.0
  9
$OSMODE
 70
   551
  9
$ATTMODE
 70
     1
  9
$TEXTSIZE
 40
2.5
  9
$TRACEWID
 40
1.0
  9
$TEXTSTYLE
  7
STANDARD
  9
$CLAYER
  8
AM_0
  9
$CELTYPE
  6
BYLAYER
  9
$CECOLOR
 62
   256
  9
$DIMSCALE
 40
3.0
  9
$DIMASZ
 40
2.5
  9
$DIMEXO
 40
1.0
  9
$DIMDLI
 40
7.0
  9
$DIMRND
 40
0.0
  9
$DIMDLE
 40
0.0
  9
$DIMEXE
 40
1.0
  9
$DIMTP
 40
0.1
  9
$DIMTM
 40
0.1000000001
  9
$DIMTXT
 40
2.5
  9
$DIMCEN
 40
0.0
  9
$DIMTSZ
 40
0.0
  9
$DIMTOL
 70
     0
  9
$DIMLIM
 70
     0
  9
$DIMTIH
 70
     0
  9
$DIMTOH
 70
     0
  9
$DIMSE1
 70
     0
  9
$DIMSE2
 70
     0
  9
$DIMTAD
 70
     3
  9
$DIMZIN
 70
     8
  9
$DIMBLK
  1

  9
$DIMASO
 70
     1
  9
$DIMSHO
 70
     1
  9
$DIMPOST
  1

  9
$DIMAPOST
  1
"
  9
$DIMALT
 70
     0
  9
$DIMALTD
 70
     2
  9
$DIMALTF
 40
0.0393701
  9
$DIMLFAC
 40
1.0
  9
$DIMTOFL
 70
     1
  9
$DIMTVP
 40
0.0
  9
$DIMTIX
 70
     0
  9
$DIMSOXD
 70
     0
  9
$DIMSAH
 70
     0
  9
$DIMBLK1
  1

  9
$DIMBLK2
  1

  9
$DIMSTYLE
  2
AM_JIS
  9
$DIMCLRD
 70
   256
  9
$DIMCLRE
 70
   256
  9
$DIMCLRT
 70
     4
  9
$DIMTFAC
 40
0.71
  9
$DIMGAP
 40
1.0
  9
$LUNITS
 70
     2
  9
$LUPREC
 70
     2
  9
$SKETCHINC
 40
1.0
  9
$FILLETRAD
 40
5.0
  9
$AUNITS
 70
     0
  9
$AUPREC
 70
     3
  9
$MENU
  1
.
  9
$ELEVATION
 40
0.0
  9
$PELEVATION
 40
0.0
  9
$THICKNESS
 40
0.0
  9
$LIMCHECK
 70
     0
  9
$BLIPMODE
 70
     0
  9
$CHAMFERA
 40
7.5
  9
$CHAMFERB
 40
7.5
  9
$SKPOLY
 70
     0
  9
$TDCREATE
 40
2452753.643349607
  9
$TDUPDATE
 40
2458543.4983734721
  9
$TDINDWG
 40
0.4320462963
  9
$TDUSRTIMER
 40
0.4320460995
  9
$USRTIMER
 70
     1
  9
$ANGBASE
 50
0.0
  9
$ANGDIR
 70
     0
  9
$PDMODE
 70
     0
  9
$PDSIZE
 40
0.0
  9
$PLINEWID
 40
0.0
  9
$COORDS
 70
     1
  9
$SPLFRAME
 70
     0
  9
$SPLINETYPE
 70
     6
  9
$SPLINESEGS
 70
     8
  9
$ATTDIA
 70
     1
  9
$ATTREQ
 70
     1
  9
$HANDLING
 70
     1
  9
$HANDSEED
  5
18CE9
  9
$SURFTAB1
 70
     6
  9
$SURFTAB2
 70
     6
  9
$SURFTYPE
 70
     6
  9
$SURFU
 70
     6
  9
$SURFV
 70
     6
  9
$UCSNAME
  2

  9
$UCSORG
 10
0.0
 20
0.0
 30
0.0
  9
$UCSXDIR
 10
1.0
 20
0.0
 30
0.0
  9
$UCSYDIR
 10
0.0
 20
1.0
 30
0.0
  9
$PUCSNAME
  2

  9
$PUCSORG
 10
0.0
 20
0.0
 30
0.0
  9
$PUCSXDIR
 10
1.0
 20
0.0
 30
0.0
  9
$PUCSYDIR
 10
0.0
 20
1.0
 30
0.0
  9
$USERI1
 70
     0
  9
$USERI2
 70
     0
  9
$USERI3
 70
     0
  9
$USERI4
 70
     0
  9
$USERI5
 70
     0
  9
$USERR1
 40
0.0
  9
$USERR2
 40
0.0
  9
$USERR3
 40
0.0
  9
$USERR4
 40
0.0
  9
$USERR5
 40
0.0
  9
$WORLDVIEW
 70
     1
  9
$SHADEDGE
 70
     3
  9
$SHADEDIF
 70
    70
  9
$TILEMODE
 70
     1
  9
$MAXACTVP
 70
    48
  9
$PLIMCHECK
 70
     0
  9
$PEXTMIN
 10
1.0000000000000000E+020
 20
1.0000000000000000E+020
 30
1.0000000000000000E+020
  9
$PEXTMAX
 10
-1.0000000000000000E+020
 20
-1.0000000000000000E+020
 30
-1.0000000000000000E+020
  9
$PLIMMIN
 10
0.0
 20
0.0
  9
$PLIMMAX
 10
420.0
 20
297.0
  9
$UNITMODE
 70
     0
  9
$VISRETAIN
 70
     1
  9
$PLINEGEN
 70
     0
  9
$PSLTSCALE
 70
     1
  0
ENDSEC
  0
SECTION
  2
TABLES
  0
TABLE
  2
VPORT
 70
     1
  0
VPORT
  2
*ACTIVE
 70
     0
 10
0.0
 20
0.0
 11
1.0
 21
1.0
 12
431.047716225611
 22
367.92182510616522
 13
0.0
 23
0.0
 14
7.5
 24
7.5
 15
30.0
 25
30.0
 16
0.0
 26
0.0
 36
1.0
 17
0.0
 27
0.0
 37
0.0
 40
459.06006432909368
 41
1.7571592210767459
 42
50.0
 43
0.0
 44
0.0
 50
0.0
 51
0.0
 71
    16
 72
   100
 73
     1
 74
     1
 75
     0
 76
     0
 77
     0
 78
     0
  0
ENDTAB
  0
TABLE
  2
LTYPE
 70
    21
  0
LTYPE
  2
CONTINUOUS
 70
     0
  3
Solid line
 72
    65
 73
     0
 40
0.0
  0
LTYPE
  2
PHANTOM2
 70
     0
  3
Phantom (.5x) ___ _ _ ___ _ _ ___ _ _ ___ _ _
 72
    65
 73
     6
 40
31.75
 49
15.875
 49
-3.174999999999998
 49
3.174999999999998
 49
-3.174999999999998
 49
3.174999999999998
 49
-3.174999999999998
  0
LTYPE
  2
CENTER
 70
     0
  3
Center ____ _ ____ _ ____ _ ____ _ ____ _ ____
 72
    65
 73
     4
 40
50.799999999999997
 49
31.75
 49
-6.3499999999999979
 49
6.3499999999999979
 49
-6.3499999999999979
  0
LTYPE
  2
ACANSTGBM
 70
     0
  3
__ . . __ . .
 72
    65
 73
     6
 40
9.0
 49
4.0
 49
-1.0
 49
1.0
 49
-1.0
 49
1.0
 49
-1.0
  0
LTYPE
  2
ACANSTGLM
 70
     0
  3
_ _ _ _ _
 72
    65
 73
     2
 40
3.0
 49
2.0
 49
-1.0
  0
LTYPE
  2
GEN3B
 70
     0
  3
 - - - - -
 72
    65
 73
     2
 40
1.0
 49
0.5
 49
-0.5
  0
LTYPE
  2
GEN7A
 70
     0
  3
__ . __ . __
 72
    65
 73
     4
 40
7.375
 49
4.75
 49
-0.875
 49
0.875
 49
-0.875
  0
LTYPE
  2
AM_ISO02W050
 70
     0
  3
__ __ __ __ __ __ __ __ __ __ __ __ __ __ __
 72
    65
 73
     2
 40
7.5
 49
6.0
 49
-1.5
  0
LTYPE
  2
AM_ISO08W050
 70
     0
  3
____ . ____ . ____ . ____ . ____ . ____ . ____
 72
    65
 73
     4
 40
18.0
 49
12.0
 49
-1.5
 49
3.0
 49
-1.5
  0
LTYPE
  2
AM_ISO09W050
 70
     0
  3
_____ . . _____ . . _____ . . ____ .. ____
 72
    65
 73
     6
 40
22.5
 49
12.0
 49
-1.5
 49
3.0
 49
-1.5
 49
3.0
 49
-1.5
  0
LTYPE
  2
AMCONSTR
 70
     0
  3
_______________________
 72
    65
 73
     2
 40
9999.0
 49
9999.0
 49
0.0
  0
LTYPE
  2
AM_ISO02W050X2
 70
     0
  3
 _ _ _ _ _ _ _ _ _ _ _ _
 72
    65
 73
     2
 40
3.75
 49
3.0
 49
-0.75
  0
LTYPE
  2
AM_ISO08W050X2
 70
     0
  3
__ . __ . __ . __ . __ . __
 72
    65
 73
     4
 40
9.0
 49
6.0
 49
-0.75
 49
1.5
 49
-0.75
  0
LTYPE
  2
AMZIGZAG
 70
     0
  3
/\/-/\/-/\/-/\/-/\/-/\/
 72
    65
 73
     2
 40
11.0001
 49
0.0001
 49
-11.0
  0
LTYPE
  2
ACJISTGB
 70
     0
  3
__ . . __ . .
 72
    65
 73
     6
 40
9.0
 49
4.0
 49
-1.0
 49
1.0
 49
-1.0
 49
1.0
 49
-1.0
  0
LTYPE
  2
ACJISTGL
 70
     0
  3
_ _ _ _ _
 72
    65
 73
     2
 40
3.0
 49
2.0
 49
-1.0
  0
LTYPE
  2
ACISOWELD
 70
     0
  3
_ _ _ _ _
 72
    65
 73
     2
 40
2.0
 49
2.0
 49
-1.0
  0
LTYPE
  2
ACISOTGB
 70
     0
  3
__ . . __ . .
 72
    65
 73
     6
 40
9.0
 49
4.0
 49
-1.0
 49
1.0
 49
-1.0
 49
1.0
 49
-1.0
  0
LTYPE
  2
ACISOTGL
 70
     0
  3
_ _ _ _ _
 72
    65
 73
     2
 40
3.0
 49
2.0
 49
-1.0
  0
LTYPE
  2
HIDDEN
 70
     0
  3
Hidden __ __ __ __ __ __ __ __ __ __ __ __ __ _
 72
    65
 73
     2
 40
9.5249999999999968
 49
6.3499999999999979
 49
-3.174999999999998
  0
ENDTAB
  0
TABLE
  2
LAYER
 70
     8
  0
LAYER
  2
0
 70
     0
 62
     7
  6
CONTINUOUS
  0
LAYER
  2
ｽﾝﾎﾟｳｾﾝ
 70
     0
 62
     2
  6
CONTINUOUS
  0
LAYER
  2
DEFPOINTS
 70
     0
 62
     7
  6
CONTINUOUS
  0
LAYER
  2
ｶｸﾚｾﾝ2
 70
     0
 62
     3
  6
GEN3B
  0
LAYER
  2
ﾁｭｳｼﾝｾﾝ1
 70
     0
 62
     1
  6
GEN7A
  0
LAYER
  2
AM_0
 70
     0
 62
     7
  6
CONTINUOUS
  0
LAYER
  2
AM_0N
 70
     0
 62
     7
  6
CONTINUOUS
  0
LAYER
  2
AM_5
 70
     0
 62
     2
  6
CONTINUOUS
  0
ENDTAB
  0
TABLE
  2
STYLE
 70
     8
  0
STYLE
  2
STANDARD
 70
     0
 40
0.0
 41
0.8299999999999999
 50
0.0
 71
     0
 42
2.5
  3
txt.shx
  4
bigfont.shx
  0
STYLE
  2
ACANSTS
 70
     0
 40
1.0
 41
1.0
 50
0.0
 71
     0
 42
2.5
  3
romans.shx
  4
bigfont.shx
  0
STYLE
  2
ACANSGDT
 70
     0
 40
0.0
 41
1.0
 50
0.0
 71
     0
 42
2.5
  3
amgdtans.shx
  4

  0
STYLE
  2

 70
     1
 40
0.0
 41
1.0
 50
0.0
 71
     0
 42
2.5
  3
ltypeshp.shx
  4

  0
STYLE
  2
ACJISTS
 70
     0
 40
1.0
 41
1.0
 50
0.0
 71
     0
 42
2.5
  3
isocp.shx
  4
bigfont.shx
  0
STYLE
  2
ACJISGDT
 70
     0
 40
0.0
 41
1.0
 50
0.0
 71
     0
 42
2.5
  3
amgdt.shx
  4

  0
STYLE
  2
ACISOTS
 70
     0
 40
3.0
 41
1.0
 50
0.0
 71
     0
 42
2.5
  3
isocp.shx
  4
extfont.shx
  0
STYLE
  2
ACISOGDT
 70
     0
 40
0.0
 41
1.0
 50
0.0
 71
     0
 42
2.5
  3
amgdt.shx
  4

  0
ENDTAB
  0
TABLE
  2
VIEW
 70
    12
  0
VIEW
  2
GEN1
 70
     0
 40
95.824742268041234
 10
71.5
 20
137.08762886597941
 41
143.0
 11
0.0
 21
0.0
 31
1.0
 12
0.0
 22
0.0
 32
0.0
 42
50.0
 43
0.0
 44
0.0
 50
0.0
 71
     0
  0
VIEW
  2
GEN2
 70
     0
 40
95.824742268041234
 10
214.5
 20
137.08762886597941
 41
143.0
 11
0.0
 21
0.0
 31
1.0
 12
0.0
 22
0.0
 32
0.0
 42
50.0
 43
0.0
 44
0.0
 50
0.0
 71
     0
  0
VIEW
  2
GEN3
 70
     0
 40
95.824742268041234
 10
71.5
 20
47.912371134020603
 41
143.0
 11
0.0
 21
0.0
 31
1.0
 12
0.0
 22
0.0
 32
0.0
 42
50.0
 43
0.0
 44
0.0
 50
0.0
 71
     0
  0
VIEW
  2
GEN4
 70
     0
 40
95.824742268041234
 10
214.5
 20
47.912371134020603
 41
143.0
 11
0.0
 21
0.0
 31
1.0
 12
0.0
 22
0.0
 32
0.0
 42
50.0
 43
0.0
 44
0.0
 50
0.0
 71
     0
  0
VIEW
  2
GEN5
 70
     0
 40
95.824742268041234
 10
143.0
 20
92.500000000000057
 41
143.0
 11
0.0
 21
0.0
 31
1.0
 12
0.0
 22
0.0
 32
0.0
 42
50.0
 43
0.0
 44
0.0
 50
0.0
 71
     0
  0
VIEW
  2
GEN6
 70
     0
 40
191.64756804123709
 10
143.0
 20
92.5
 41
285.99714
 11
0.0
 21
0.0
 31
1.0
 12
0.0
 22
0.0
 32
0.0
 42
50.0
 43
0.0
 44
0.0
 50
0.0
 71
     0
  0
VIEW
  2
AM_VIEW1
 70
     0
 40
277.50000000000011
 10
249.64779005524869
 20
416.25000000000011
 41
499.29558011049721
 11
0.0
 21
0.0
 31
1.0
 12
0.0
 22
0.0
 32
0.0
 42
50.0
 43
0.0
 44
0.0
 50
0.0
 71
    16
  0
VIEW
  2
AM_VIEW2
 70
     0
 40
277.50000000000011
 10
603.85220994475117
 20
416.25000000000011
 41
499.29558011049721
 11
0.0
 21
0.0
 31
1.0
 12
0.0
 22
0.0
 32
0.0
 42
50.0
 43
0.0
 44
0.0
 50
0.0
 71
    16
  0
VIEW
  2
AM_VIEW3
 70
     0
 40
277.50000000000011
 10
249.64779005524869
 20
138.75
 41
499.29558011049721
 11
0.0
 21
0.0
 31
1.0
 12
0.0
 22
0.0
 32
0.0
 42
50.0
 43
0.0
 44
0.0
 50
0.0
 71
    16
  0
VIEW
  2
AM_VIEW4
 70
     0
 40
277.50000000000011
 10
603.85220994475117
 20
138.75
 41
499.29558011049721
 11
0.0
 21
0.0
 31
1.0
 12
0.0
 22
0.0
 32
0.0
 42
50.0
 43
0.0
 44
0.0
 50
0.0
 71
    16
  0
VIEW
  2
AM_VIEW5
 70
     0
 40
277.50000000000011
 10
426.75
 20
277.50000000000011
 41
499.2955801104971
 11
0.0
 21
0.0
 31
1.0
 12
0.0
 22
0.0
 32
0.0
 42
50.0
 43
0.0
 44
0.0
 50
0.0
 71
    16
  0
VIEW
  2
AM_VIEW6
 70
     0
 40
554.99445000000014
 10
426.75
 20
277.5
 41
998.5811743093924
 11
0.0
 21
0.0
 31
1.0
 12
0.0
 22
0.0
 32
0.0
 42
50.0
 43
0.0
 44
0.0
 50
0.0
 71
    16
  0
ENDTAB
  0
TABLE
  2
UCS
 70
     0
  0
ENDTAB
  0
TABLE
  2
APPID
 70
    97
  0
APPID
  2
ACAD
 70
     0
  0
APPID
  2
MCAD_NO_VIS
 70
     0
  0
APPID
  2
ACAD_TEMP_GRAPHIC
 70
     0
  0
APPID
  2
AD_DRAW
 70
     0
  0
APPID
  2
DESIGNERASSEMBLIES
 70
     0
  0
APPID
  2
ASURF_PCURVE_APPNAME
 70
     0
  0
APPID
  2
GENIUS_GE3SECT_13
 70
     0
  0
APPID
  2
GENIUS_GENCFG_13
 70
     0
  0
APPID
  2
GENIUS_GE3CFG0_13
 70
     0
  0
APPID
  2
GENIUS_GENCFG0_13
 70
     0
  0
APPID
  2
GENIUS_GENCFG1_13
 70
     0
  0
APPID
  2
GENIUS_GENCFG2_13
 70
     0
  0
APPID
  2
GENIUS_GENCFG3_13
 70
     0
  0
APPID
  2
GENIUS_GENCFG4_13
 70
     0
  0
APPID
  2
GENIUS_GEVCFG0_13
 70
     0
  0
APPID
  2
GENIUS_GENOENT_13
 70
     0
  0
APPID
  2
GENIUS_GENREC_14
 70
     0
  0
APPID
  2
GENIUS_GENODEF_13
 70
     0
  0
APPID
  2
GENIUS_GENOBJ-N-REC_13
 70
     0
  0
APPID
  2
GENIUS_GENHINW_13
 70
     0
  0
APPID
  2
GENIUS_FIRSTVISTXT_14
 70
     0
  0
APPID
  2
GENIUS_GENOBJ-N-LEADER_13
 70
     0
  0
APPID
  2
GENIUS_GENOREF_13
 70
     0
  0
APPID
  2
GENIUS_GENOLIS_13
 70
     0
  0
APPID
  2
GEV_VCCNULL_SWITCH_OFF
 70
     0
  0
APPID
  2
GENIUS_GENDTOL_13
 70
     0
  0
APPID
  2
GENIUS_GEFCFG0_13
 70
     0
  0
APPID
  2
GENIUS_GENOBJ-N-TIT_13
 70
     0
  0
APPID
  2
GENIUS_GENTITLE_13
 70
     0
  0
APPID
  2
GENIUS_GENZVEED_13
 70
     0
  0
APPID
  2
GENIUS_GENOBJ-N-SDF_13
 70
     0
  0
APPID
  2
GENIUS_GENSCREG_13
 70
     0
  0
APPID
  2
GENIUS_DUMCFG0_13
 70
     0
  0
APPID
  2
GEVID936201362
 70
     0
  0
APPID
  2
GEVDC
 70
     0
  0
APPID
  2
GEVCON
 70
     0
  0
APPID
  2
VCC
 70
     0
  0
APPID
  2
GEVPT
 70
     0
  0
APPID
  2
GEVIT
 70
     0
  0
APPID
  2
GENBH
 70
     0
  0
APPID
  2
GEVMK
 70
     0
  0
APPID
  2
GENIUS_GENBH_13
 70
     0
  0
APPID
  2
GENIUS_GENOBJ-NBEHI-BHF_13
 70
     0
  0
APPID
  2
GENIUS_GENOBJ-NBEHI-BHB_13
 70
     0
  0
APPID
  2
GENIUS_GENOBJ-F-DESC_13
 70
     0
  0
APPID
  2
GENIUS_GEFDESC_14
 70
     0
  0
APPID
  2
GENIUS_GENOBJ-F-PART_13
 70
     0
  0
APPID
  2
GENIUS_GEFSTDP_13
 70
     0
  0
APPID
  2
GENIUS_GEFPARTINS_13
 70
     0
  0
APPID
  2
GENIUS_GENTRA_14
 70
     0
  0
APPID
  2
GENIUS_GENINF13_13
 70
     0
  0
APPID
  2
GENIUS_GENOBJ-N-INFOPT_13
 70
     0
  0
APPID
  2
GENIUS_GENOBJ-N-RSSYM_13
 70
     0
  0
APPID
  2
GENIUS_GENSYMENT_13
 70
     0
  0
APPID
  2
GENIUS_GENSCSYM_13
 70
     0
  0
APPID
  2
GENIUS_GEFINFNAM_13
 70
     0
  0
APPID
  2
GENIUS_GENSCREG_15
 70
     0
  0
APPID
  2
GENIUS_GENOBJ-N-CEN_13
 70
     0
  0
APPID
  2
GENIUS_GENOBJ-N-CRS_13
 70
     0
  0
APPID
  2
GENIUS_GENOBJ-N-CRC_13
 70
     0
  0
APPID
  2
GENIUS_GENCRC_14
 70
     0
  0
APPID
  2
GEVID942827039
 70
     0
  0
APPID
  2
GEVID942827040
 70
     0
  0
APPID
  2
GEVID942827041
 70
     0
  0
APPID
  2
GENIUS_GENOBJ-F-SCPASSM_13
 70
     0
  0
APPID
  2
GENIUS_GENDIMSH_14
 70
     0
  0
APPID
  2
GENIUS_GENFIL_13
 70
     0
  0
APPID
  2
GENIUS_GENOBJ-N-CHA_13
 70
     0
  0
APPID
  2
GENIUS_GENOBJ-N-FIL_13
 70
     0
  0
APPID
  2
GEVID942827042
 70
     0
  0
APPID
  2
GEVID946020473
 70
     0
  0
APPID
  2
GEVID946020474
 70
     0
  0
APPID
  2
GEVID946020475
 70
     0
  0
APPID
  2
GENIUS_GENOBJ-N-HTC_13
 70
     0
  0
APPID
  2
GENIUS_GENHATCH_13
 70
     0
  0
APPID
  2
GEVID948854295
 70
     0
  0
APPID
  2
GEVID939402019
 70
     0
  0
APPID
  2
GEVID952919491
 70
     0
  0
APPID
  2
GEVID952919492
 70
     0
  0
APPID
  2
GENIUS_GEFWELD_13
 70
     0
  0
APPID
  2
GENIUS_GENOBJ-F-WELS_13
 70
     0
  0
APPID
  2
GEVID952919493
 70
     0
  0
APPID
  2
GENIUS_GENOBJ-N-RSBK_13
 70
     0
  0
APPID
  2
GENIUS_GENOBJ-N-LIB_13
 70
     0
  0
APPID
  2
GENIUS_GENSCALE_13
 70
     0
  0
APPID
  2
GEVID986376691
 70
     0
  0
APPID
  2
ACATTRIBSERVICES
 70
     0
  0
APPID
  2
DCO15
 70
     0
  0
APPID
  2
GEVID1088155249
 70
     0
  0
APPID
  2
ACADM_DIM_EDIT
 70
     0
  0
APPID
  2
AMDT_DM_ADJ
 70
     0
  0
APPID
  2
ACAD_MLEADERVER
 70
     0
  0
APPID
  2
ACAD_DSTYLE_DIMBREAK
 70
     0
  0
APPID
  2
ACAD_DSTYLE_DIMJAG
 70
     0
  0
APPID
  2
ACAD_NAV_VCDISPLAY
 70
     0
  0
APPID
  2
ACADANNOPO
 70
     0
  0
APPID
  2
ACAD_EXEMPT_FROM_CAD_STANDARDS
 70
     0
  0
ENDTAB
  0
TABLE
  2
DIMSTYLE
 70
    16
  0
DIMSTYLE
  2
STANDARD
 70
     0
  3

  4

  5

  6

  7

 40
1.0
 41
0.18
 42
0.0625
 43
0.38
 44
0.18
 45
0.0
 46
0.0
 47
0.0
 48
0.0
140
0.18
141
0.09
142
0.0
143
25.399999999999999
144
1.0
145
0.0
146
1.0
147
0.09
 71
     0
 72
     0
 73
     1
 74
     1
 75
     0
 76
     0
 77
     0
 78
     0
170
     0
171
     2
172
     0
173
     0
174
     0
175
     0
176
     0
177
     0
178
     0
  0
DIMSTYLE
  2
AM_JIS
 70
     0
  3

  4
"
  5

  6

  7

 40
1.0
 41
2.5
 42
1.0
 43
7.0
 44
1.0
 45
0.0
 46
0.0
 47
0.1
 48
0.1000000001
140
2.5
141
0.0
142
0.0
143
0.0393701
144
1.0
145
0.0
146
0.71
147
1.0
 71
     0
 72
     0
 73
     0
 74
     0
 75
     0
 76
     0
 77
     3
 78
     8
170
     0
171
     2
172
     1
173
     0
174
     0
175
     0
176
   256
177
   256
178
     4
  0
DIMSTYLE
  2
AM_JIS$3
 70
     0
  3

  4
"
  5

  6

  7

 40
1.0
 41
2.5
 42
1.0
 43
7.0
 44
1.0
 45
0.0
 46
0.0
 47
0.1
 48
0.1000000001
140
2.5
141
0.0
142
0.0
143
0.0393701
144
1.0
145
0.0
146
0.71
147
1.0
 71
     0
 72
     0
 73
     0
 74
     1
 75
     0
 76
     0
 77
     3
 78
     8
170
     0
171
     2
172
     0
173
     0
174
     0
175
     0
176
   256
177
   256
178
     4
  0
DIMSTYLE
  2
AM_JIS$4
 70
     0
  3

  4
"
  5

  6

  7

 40
1.0
 41
2.5
 42
1.0
 43
7.0
 44
1.0
 45
0.0
 46
0.0
 47
0.1
 48
0.1000000001
140
2.5
141
0.0
142
0.0
143
0.0393701
144
1.0
145
0.0
146
0.71
147
1.0
 71
     0
 72
     0
 73
     0
 74
     0
 75
     0
 76
     0
 77
     3
 78
     8
170
     0
171
     2
172
     0
173
     0
174
     0
175
     0
176
   256
177
   256
178
     4
  0
DIMSTYLE
  2
AM_JIS$6
 70
     0
  3

  4
"
  5

  6

  7

 40
1.0
 41
2.5
 42
1.0
 43
7.0
 44
1.0
 45
0.0
 46
0.0
 47
0.1
 48
0.1000000001
140
2.5
141
0.0
142
0.0
143
0.0393701
144
1.0
145
0.0
146
0.71
147
1.0
 71
     0
 72
     0
 73
     0
 74
     0
 75
     0
 76
     0
 77
     0
 78
     8
170
     0
171
     2
172
     1
173
     0
174
     0
175
     0
176
   256
177
   256
178
     4
  0
DIMSTYLE
  2
AM_JIS$7
 70
     0
  3

  4
"
  5

  6

  7

 40
1.0
 41
2.5
 42
1.0
 43
7.0
 44
1.0
 45
0.0
 46
0.0
 47
0.1
 48
0.1000000001
140
2.5
141
0.0
142
0.0
143
0.0393701
144
1.0
145
0.0
146
0.71
147
1.0
 71
     0
 72
     0
 73
     0
 74
     0
 75
     0
 76
     0
 77
     3
 78
     8
170
     0
171
     2
172
     1
173
     0
174
     0
175
     0
176
   256
177
   256
178
     4
  0
DIMSTYLE
  2
AM_JIS$SF
 70
     0
  3

  4
"
  5
OPEN30
  6
OPEN30
  7
OPEN30
 40
1.0
 41
2.5
 42
1.0
 43
10.0
 44
1.0
 45
0.0
 46
0.0
 47
0.1
 48
0.1
140
3.5
141
0.0
142
0.0
143
0.0393701
144
1.0
145
0.0
146
0.71
147
1.5
 71
     0
 72
     0
 73
     0
 74
     0
 75
     1
 76
     1
 77
     3
 78
     8
170
     0
171
     2
172
     1
173
     0
174
     0
175
     0
176
   256
177
   256
178
     4
  0
DIMSTYLE
  2
AM_JIS$SH
 70
     0
  3

  4
"
  5

  6
NONE
  7

 40
1.0
 41
2.5
 42
1.0
 43
10.0
 44
1.0
 45
0.0
 46
0.0
 47
0.1
 48
0.1
140
3.5
141
0.0
142
0.0
143
0.0393701
144
1.0
145
0.0
146
0.71
147
1.5
 71
     0
 72
     0
 73
     0
 74
     0
 75
     1
 76
     0
 77
     3
 78
     8
170
     0
171
     2
172
     1
173
     1
174
     0
175
     0
176
   256
177
   256
178
     4
  0
DIMSTYLE
  2
AM_ISO
 70
     0
  3

  4
"
  5

  6

  7

 40
1.0
 41
2.5
 42
1.0
 43
10.0
 44
1.0
 45
0.0
 46
0.0
 47
0.0
 48
0.000000001
140
3.0
141
0.0
142
0.0
143
0.0393701
144
1.0
145
0.0
146
0.71
147
1.299999999999998
 71
     1
 72
     0
 73
     0
 74
     0
 75
     0
 76
     0
 77
     1
 78
     8
170
     0
171
     2
172
     1
173
     0
174
     0
175
     0
176
   256
177
   256
178
     4
  0
DIMSTYLE
  2
AM_ISO$3
 70
     0
  3

  4
"
  5

  6

  7

 40
1.0
 41
2.5
 42
1.0
 43
10.0
 44
1.0
 45
0.0
 46
0.0
 47
0.0
 48
0.000000001
140
2.5
141
0.0
142
0.0
143
0.0393701
144
1.0
145
0.0
146
0.71
147
1.299999999999998
 71
     1
 72
     0
 73
     0
 74
     1
 75
     0
 76
     0
 77
     1
 78
     8
170
     0
171
     2
172
     0
173
     0
174
     0
175
     0
176
   256
177
   256
178
     4
  0
DIMSTYLE
  2
AM_ISO$4
 70
     0
  3

  4
"
  5

  6

  7

 40
1.0
 41
2.5
 42
1.0
 43
10.0
 44
1.0
 45
0.0
 46
0.0
 47
0.0
 48
0.000000001
140
2.5
141
0.0
142
0.0
143
0.0393701
144
1.0
145
0.0
146
0.71
147
1.299999999999998
 71
     1
 72
     0
 73
     0
 74
     1
 75
     0
 76
     0
 77
     1
 78
     8
170
     0
171
     2
172
     0
173
     0
174
     0
175
     0
176
   256
177
   256
178
     4
  0
DIMSTYLE
  2
AM_ISO$6
 70
     0
  3

  4
"
  5

  6

  7

 40
1.0
 41
2.5
 42
1.0
 43
10.0
 44
1.0
 45
0.0
 46
0.0
 47
0.0
 48
0.000000001
140
2.5
141
0.0
142
0.0
143
0.0393701
144
1.0
145
0.0
146
0.71
147
1.299999999999998
 71
     1
 72
     0
 73
     0
 74
     0
 75
     0
 76
     0
 77
     0
 78
     8
170
     0
171
     2
172
     1
173
     0
174
     0
175
     0
176
   256
177
   256
178
     4
  0
DIMSTYLE
  2
AM_ISO$7
 70
     0
  3

  4
"
  5

  6

  7

 40
1.0
 41
2.5
 42
1.0
 43
10.0
 44
1.0
 45
0.0
 46
0.0
 47
0.0
 48
0.000000001
140
2.5
141
0.0
142
0.0
143
0.0393701
144
1.0
145
0.0
146
0.71
147
1.299999999999998
 71
     1
 72
     0
 73
     0
 74
     0
 75
     0
 76
     0
 77
     1
 78
     8
170
     0
171
     2
172
     1
173
     0
174
     0
175
     0
176
   256
177
   256
178
     4
  0
DIMSTYLE
  2
AM_ISO$SF
 70
     0
  3

  4
"
  5

  6

  7

 40
1.0
 41
2.5
 42
1.0
 43
10.0
 44
1.0
 45
0.0
 46
0.0
 47
0.1
 48
0.1
140
3.5
141
0.0
142
0.0
143
0.0393701
144
1.0
145
0.0
146
0.71
147
1.5
 71
     0
 72
     0
 73
     0
 74
     0
 75
     1
 76
     1
 77
     1
 78
     8
170
     0
171
     2
172
     1
173
     0
174
     0
175
     0
176
   256
177
   256
178
     4
  0
DIMSTYLE
  2
AM_ISO$SH
 70
     0
  3

  4
"
  5

  6
GENAXEH
  7

 40
1.0
 41
2.5
 42
1.0
 43
10.0
 44
1.0
 45
0.0
 46
0.0
 47
0.1
 48
0.1
140
3.5
141
0.0
142
0.0
143
0.0393701
144
2.0
145
0.0
146
0.71
147
1.5
 71
     0
 72
     0
 73
     0
 74
     0
 75
     1
 76
     1
 77
     1
 78
     8
170
     0
171
     2
172
     1
173
     1
174
     0
175
     0
176
   256
177
   256
178
     4
  0
DIMSTYLE
  2
AM_JIS$0
 70
     0
  3

  4
"
  5

  6

  7

 40
1.0
 41
2.5
 42
1.0
 43
7.0
 44
1.0
 45
0.0
 46
0.0
 47
0.1
 48
0.1000000001
140
2.5
141
0.0
142
0.0
143
0.0393701
144
1.0
145
0.0
146
0.71
147
1.0
 71
     0
 72
     0
 73
     0
 74
     0
 75
     0
 76
     0
 77
     3
 78
     8
170
     0
171
     2
172
     1
173
     0
174
     0
175
     0
176
   256
177
   256
178
     4
  0
ENDTAB
  0
ENDSEC
  0
SECTION
  2
BLOCKS
  0
BLOCK
  8
0
  2
$MODEL_SPACE
 70
     0
 10
0.0
 20
0.0
 30
0.0
  3
$MODEL_SPACE
  1

  0
ENDBLK
  5
1A
  8
0
  0
BLOCK
 67
     1
  8
0
  2
$PAPER_SPACE
 70
     0
 10
0.0
 20
0.0
 30
0.0
  3
$PAPER_SPACE
  1

  0
ENDBLK
  5
17
 67
     1
  8
0
  0
BLOCK
  8
0
  2
_OPEN30
 70
     0
 10
0.0
 20
0.0
 30
0.0
  3
_OPEN30
  1

  0
LINE
  5
21C5
  8
0
 62
     0
 10
-1.0
 20
0.26794919
 30
0.0
 11
0.0
 21
0.0
 31
0.0
  0
LINE
  5
21C6
  8
0
 62
     0
 10
0.0
 20
0.0
 30
0.0
 11
-1.0
 21
-0.26794919
 31
0.0
  0
LINE
  5
21C7
  8
0
 62
     0
 10
0.0
 20
0.0
 30
0.0
 11
-1.0
 21
0.0
 31
0.0
  0
ENDBLK
  5
21C9
  8
0
  0
BLOCK
  8
0
  2
GENAXEH
 70
     0
 10
0.0
 20
0.0
 30
0.0
  3
GENAXEH
  1

  0
LINE
  5
21D0
  8
0
 10
-1.0
 20
0.0
 30
0.0
 11
1.0
 21
0.0
 31
0.0
  0
ENDBLK
  5
21D2
  8
0
  0
BLOCK
  8
0
  2
_NONE
 70
     0
 10
0.0
 20
0.0
 30
0.0
  3
_NONE
  1

  0
ENDBLK
  5
8193
  8
0
  0
ENDSEC
  0
SECTION
  2
ENTITIES
  0
POINT
  5
1B94
  8
0
 10
0.0
 20
0.0
 30
0.0
1001
GENIUS_GENODEF_13
1002
{
1000
HIER
1070
     1
1002
}
1002
{
1000
MANEDIT
1070
     0
1002
}
1002
{
1000
NOSEL
1070
     0
1002
}
1002
{
1000
BEHIND
1070
     0
1002
}
1002
{
1000
REACTOR
1002
}
1001
GENIUS_GENOBJ-N-SDF_13
1002
{
1000
OWNER
1000
GEN
1002
}
1001
GENIUS_GENOENT_13
1002
{
1000
MYREF
1005
1B94
1002
}
1002
{
1000
GRP
1005
0
1002
}
1001
GENIUS_GENOLIS_13
1002
{
1000
ENT
1005
89
1002
}
  0
CIRCLE
  5
15BDB
  8
0
 10
383.25697993684588
 20
248.23370126071029
 30
0.0
 40
15.00000044703483
  0
LINE
  5
15BDC
  8
0
 10
318.25697993684611
 20
171.23370126071029
 30
0.0
 11
413.2569788937646
 21
171.23370126071029
 31
0.0
  0
LINE
  5
15BDD
  8
0
 10
318.25697993684611
 20
325.23370126071018
 30
0.0
 11
413.2569788937646
 21
325.23370126071018
 31
0.0
  0
CIRCLE
  5
15BDE
  8
AM_0
 10
383.25697993684588
 20
248.23370126071029
 30
0.0
 40
27.500000819563869
  0
LINE
  5
15BDF
  8
AM_0
 10
324.2569777016717
 20
293.23370260181508
 30
0.0
 11
407.25698112893889
 21
293.23370260181508
 31
0.0
  0
LINE
  5
15BE0
  8
AM_0
 10
324.2569777016717
 20
203.23369991960581
 30
0.0
 11
407.25698112893889
 21
203.23369991960581
 31
0.0
  0
LINE
  5
15BE1
  8
AM_0
 10
308.2569777016717
 20
299.23370278062862
 30
0.0
 11
423.25698112893878
 21
299.23370278062862
 31
0.0
  0
LINE
  5
15BE2
  8
AM_0
 10
308.2569777016717
 20
197.23369974079179
 30
0.0
 11
423.25698112893878
 21
197.23369974079179
 31
0.0
  0
LINE
  5
15BE8
  8
ﾁｭｳｼﾝｾﾝ1
 10
439.99488465146459
 20
248.23370126071029
 30
0.0
 11
85.204671838516546
 21
248.23370126071029
 31
0.0
  0
LINE
  5
15BF5
  8
ｶｸﾚｾﾝ2
 10
295.25697737384633
 20
288.23370245280307
 30
0.0
 11
295.25697737384633
 21
208.2337000686174
 31
0.0
  0
ARC
  5
15BF6
  8
AM_0
 10
308.2569775526602
 20
272.23370245280307
 30
0.0
 40
4.9999999999999982
 50
89.999999466388203
 51
180.0
1001
GENIUS_GENOBJ-N-FIL_13
1002
{
1000
OWNER
1000
GEN
1002
}
1001
GENIUS_GENODEF_13
1002
{
1000
HIER
1070
     0
1002
}
1002
{
1000
MANEDIT
1070
     0
1002
}
1002
{
1000
NOSEL
1070
     0
1002
}
1002
{
1000
BEHIND
1070
     0
1002
}
1002
{
1000
OTHER
1070
     0
1002
}
1002
{
1000
REACTOR
1002
}
  0
LINE
  5
15BF7
  8
AM_0
 10
297.25697737384621
 20
288.23370245280307
 30
0.0
 11
297.25697737384621
 21
208.2337000686174
 31
0.0
  0
LINE
  5
15BFB
  8
ﾁｭｳｼﾝｾﾝ1
 10
383.25697993684588
 20
332.36030603527843
 30
0.0
 11
383.25697993684588
 21
164.1070964861421
 31
0.0
  0
LINE
  5
15BFC
  8
AM_0
 10
272.75087385822121
 20
304.23370126071018
 30
0.0
 11
272.75087385822121
 21
192.23370126071029
 31
0.0
  0
LINE
  5
15BFD
  8
AM_0
 10
284.25697737384633
 20
197.59341958346411
 30
0.0
 11
284.25697737384633
 21
298.8739905673508
 31
0.0
  0
ARC
  5
15BFF
  8
AM_0
 10
516.25696211505704
 20
248.23370126071029
 30
0.0
 40
235.99999999999989
 50
169.4360382876412
 51
180.00000500895041
  0
LINE
  5
15D5B
  8
0
 10
307.288464000445
 20
178.3662935160356
 30
0.0
 11
298.02830677802342
 21
199.23370126071021
 31
0.0
  0
CIRCLE
  5
15D5C
  8
0
 10
318.25697993684611
 20
183.2337012607104
 30
0.0
 40
4.4999999999999982
  0
LINE
  5
15D5D
  8
ﾁｭｳｼﾝｾﾝ1
 10
318.25697993684611
 20
170.23370126071029
 30
0.0
 11
318.25697993684611
 21
196.23370126071009
 31
0.0
1001
GENIUS_GENODEF_13
1002
{
1000
HIER
1070
     0
1002
}
1002
{
1000
MANEDIT
1070
     0
1002
}
1002
{
1000
NOSEL
1070
     0
1002
}
1002
{
1000
BEHIND
1070
     0
1002
}
1002
{
1000
OTHER
1070
     0
1002
}
1002
{
1000
REACTOR
1002
}
1001
GENIUS_GENOBJ-N-CEN_13
1002
{
1000
OWNER
1000
GEN
1002
}
  0
LINE
  5
15D60
  8
ﾁｭｳｼﾝｾﾝ1
 10
305.25697993684611
 20
183.23370126071029
 30
0.0
 11
331.25697993684599
 21
183.23370126071029
 31
0.0
1001
GENIUS_GENODEF_13
1002
{
1000
HIER
1070
     0
1002
}
1002
{
1000
MANEDIT
1070
     0
1002
}
1002
{
1000
NOSEL
1070
     0
1002
}
1002
{
1000
BEHIND
1070
     0
1002
}
1002
{
1000
OTHER
1070
     0
1002
}
1002
{
1000
REACTOR
1002
}
1001
GENIUS_GENOBJ-N-CEN_13
1002
{
1000
OWNER
1000
GEN
1002
}
  0
ARC
  5
15D62
  8
0
 10
318.25697993684611
 20
183.23370126071029
 30
0.0
 40
11.999999999999989
 50
203.92981687403849
 51
270.0
  0
LINE
  5
15D65
  8
AM_0
 10
303.2569775526602
 20
272.23370245280307
 30
0.0
 11
303.2569775526602
 21
224.2337000686174
 31
0.0
  0
ARC
  5
15D66
  8
AM_0
 10
516.25696211505704
 20
248.23370126071029
 30
0.0
 40
235.99999999999989
 50
180.00000500895041
 51
190.5639717302731
  0
ARC
  5
15D67
  8
ｶｸﾚｾﾝ2
 10
308.2569777016717
 20
208.2337000686174
 30
0.0
 40
13.00000032782555
 50
179.999994991043
 51
203.92981687403849
  0
ARC
  5
15D69
  8
AM_0
 10
308.2569777016717
 20
208.2337000686174
 30
0.0
 40
11.00000032782558
 50
180.00000500895689
 51
270.000000683243
  0
LINE
  5
15D6A
  8
AM_0
 10
284.75697737384633
 20
204.96709206881579
 30
0.0
 11
297.25697737384638
 21
204.96709206881579
 31
0.0
  0
LINE
  5
15D6B
  8
AM_0
 10
285.45076395122862
 20
199.23370126071021
 30
0.0
 11
301.93242205350958
 21
199.23370126071021
 31
0.0
  0
LINE
  5
15D6D
  8
AM_0
 10
272.75087385822121
 20
202.23370126071021
 30
0.0
 11
284.25697737384633
 21
202.23370126071021
 31
0.0
  0
LINE
  5
15D6E
  8
AM_0
 10
272.75087385822121
 20
192.23370126071029
 30
0.0
 11
282.30810243702427
 21
192.23370126071029
 31
0.0
  0
ARC
  5
15D71
  8
AM_0
 10
285.4520312554543
 20
198.2303484051115
 30
0.0
 40
1.003353655944897
 50
90.072368503728555
 51
175.63494469419581
  0
ARC
  5
15D72
  8
AM_0
 10
282.30810243702427
 20
194.23370126071029
 30
0.0
 40
1.9999999999999989
 50
270.0
 51
357.99953469735487
1001
GENIUS_GENOBJ-N-FIL_13
1002
{
1000
OWNER
1000
GEN
1002
}
1001
GENIUS_GENODEF_13
1002
{
1000
HIER
1070
     0
1002
}
1002
{
1000
MANEDIT
1070
     0
1002
}
1002
{
1000
NOSEL
1070
     0
1002
}
1002
{
1000
BEHIND
1070
     0
1002
}
1002
{
1000
OTHER
1070
     0
1002
}
1002
{
1000
REACTOR
1002
}
  0
LINE
  5
15D73
  8
AM_0
 10
284.3068835241545
 20
194.16388603507551
 30
0.0
 11
284.45158796954928
 21
198.3067145663743
 31
0.0
  0
LINE
  5
15D74
  8
AM_0
 10
272.75087385822121
 20
216.2937612607102
 30
0.0
 11
282.43162421921488
 21
216.2937612607102
 31
0.0
  0
CIRCLE
  5
15D76
  8
0
 10
308.2569777016717
 20
208.2337000686174
 30
0.0
 40
6.4999999999999929
  0
POLYLINE
  5
15D77
  8
0
 66
     1
 10
0.0
 20
0.0
 30
0.0
 70
     1
  0
VERTEX
  5
18C92
  8
0
 10
311.25697770167181
 20
209.96575087618629
 30
0.0
  0
VERTEX
  5
18C93
  8
0
 10
308.2569777016717
 20
211.69780168375539
 30
0.0
  0
VERTEX
  5
18C94
  8
0
 10
305.25697770167181
 20
209.96575087618629
 30
0.0
  0
VERTEX
  5
18C95
  8
0
 10
305.25697770167181
 20
206.5016492610487
 30
0.0
  0
VERTEX
  5
18C96
  8
0
 10
308.2569777016717
 20
204.7695984534796
 30
0.0
  0
VERTEX
  5
18C97
  8
0
 10
311.25697770167181
 20
206.5016492610487
 30
0.0
  0
SEQEND
  5
18C98
  8
0
  0
CIRCLE
  5
15D78
  8
0
 10
308.2569777016717
 20
208.2337000686174
 30
0.0
 40
8.4999999999999911
  0
ARC
  5
15D7A
  8
AM_0
 10
308.2569777016717
 20
208.2337000686174
 30
0.0
 40
10.999999999999989
 50
359.99999946639139
 51
90.000000533608556
  0
ARC
  5
15D7B
  8
AM_0
 10
324.2569777016717
 20
208.23369991960541
 30
0.0
 40
4.9999999999999982
 50
179.99999946639139
 51
270.0
1001
GENIUS_GENODEF_13
1002
{
1000
HIER
1070
     0
1002
}
1002
{
1000
MANEDIT
1070
     0
1002
}
1002
{
1000
NOSEL
1070
     0
1002
}
1002
{
1000
BEHIND
1070
     0
1002
}
1002
{
1000
OTHER
1070
     0
1002
}
1002
{
1000
REACTOR
1002
}
1001
GENIUS_GENOBJ-N-FIL_13
1002
{
1000
OWNER
1000
GEN
1002
}
  0
ARC
  5
15D7C
  8
AM_0
 10
308.2569775526602
 20
224.2337000686174
 30
0.0
 40
4.9999999999999982
 50
180.0
 51
270.0000005336085
1001
GENIUS_GENOBJ-N-FIL_13
1002
{
1000
OWNER
1000
GEN
1002
}
1001
GENIUS_GENODEF_13
1002
{
1000
HIER
1070
     0
1002
}
1002
{
1000
MANEDIT
1070
     0
1002
}
1002
{
1000
NOSEL
1070
     0
1002
}
1002
{
1000
BEHIND
1070
     0
1002
}
1002
{
1000
OTHER
1070
     0
1002
}
1002
{
1000
REACTOR
1002
}
  0
ARC
  5
15D7D
  8
0
 10
383.25697993684588
 20
248.23370126071029
 30
0.0
 40
9.5000000000000124
 50
108.4084801705864
 51
71.591519829413585
  0
CIRCLE
  5
15D7E
  8
ｽﾝﾎﾟｳｾﾝ
 10
383.25697993684588
 20
248.23370126071029
 30
0.0
 40
3.0
  0
LINE
  5
15D7F
  8
0
 10
386.25697993684599
 20
254.23370126071029
 30
0.0
 11
380.25697993684588
 21
254.23370126071029
 31
0.0
  0
LINE
  5
15D80
  8
0
 10
386.25697993684599
 20
260.23370126071029
 30
0.0
 11
386.25697993684599
 21
254.23370126071029
 31
0.0
  0
LINE
  5
15D81
  8
0
 10
380.25697993684588
 20
260.23370126071029
 30
0.0
 11
386.25697993684599
 21
260.23370126071029
 31
0.0
  0
LINE
  5
15D82
  8
0
 10
380.25697993684588
 20
254.23370126071029
 30
0.0
 11
380.25697993684588
 21
260.23370126071029
 31
0.0
  0
LINE
  5
15DE6
  8
ﾁｭｳｼﾝｾﾝ1
 10
305.25697993684611
 20
313.23370126071018
 30
0.0
 11
331.25697993684599
 21
313.23370126071018
 31
0.0
1001
GENIUS_GENODEF_13
1002
{
1000
HIER
1070
     0
1002
}
1002
{
1000
MANEDIT
1070
     0
1002
}
1002
{
1000
NOSEL
1070
     0
1002
}
1002
{
1000
BEHIND
1070
     0
1002
}
1002
{
1000
OTHER
1070
     0
1002
}
1002
{
1000
REACTOR
1002
}
1001
GENIUS_GENOBJ-N-CEN_13
1002
{
1000
OWNER
1000
GEN
1002
}
  0
LINE
  5
15DE7
  8
0
 10
307.288464000445
 20
318.1011090053849
 30
0.0
 11
298.02830677802319
 21
297.23370126070989
 31
0.0
  0
CIRCLE
  5
15DE8
  8
0
 10
318.25697993684611
 20
313.23370126071018
 30
0.0
 40
4.4999999999999982
  0
LINE
  5
15DE9
  8
ﾁｭｳｼﾝｾﾝ1
 10
318.25697993684611
 20
326.23370126071018
 30
0.0
 11
318.25697993684611
 21
300.23370126071001
 31
0.0
1001
GENIUS_GENODEF_13
1002
{
1000
HIER
1070
     0
1002
}
1002
{
1000
MANEDIT
1070
     0
1002
}
1002
{
1000
NOSEL
1070
     0
1002
}
1002
{
1000
BEHIND
1070
     0
1002
}
1002
{
1000
OTHER
1070
     0
1002
}
1002
{
1000
REACTOR
1002
}
1001
GENIUS_GENOBJ-N-CEN_13
1002
{
1000
OWNER
1000
GEN
1002
}
  0
ARC
  5
15DEA
  8
ｶｸﾚｾﾝ2
 10
308.2569777016717
 20
288.23370245280307
 30
0.0
 40
13.00000032782555
 50
156.07018312596151
 51
180.00000500895689
  0
ARC
  5
15DEC
  8
AM_0
 10
308.2569777016717
 20
288.23370245280307
 30
0.0
 40
11.00000032782555
 50
90.000002504475205
 51
180.00000500895689
  0
LINE
  5
15DED
  8
AM_0
 10
284.75697737384633
 20
291.50031808199918
 30
0.0
 11
297.25697737384621
 21
291.50031808199918
 31
0.0
  0
LINE
  5
15DEE
  8
AM_0
 10
285.45076395122862
 20
297.23370126070989
 30
0.0
 11
301.93242205350958
 21
297.23370126070989
 31
0.0
  0
LINE
  5
15DEF
  8
AM_0
 10
272.75087385822121
 20
294.2337012607104
 30
0.0
 11
284.25697737384633
 21
294.2337012607104
 31
0.0
  0
LINE
  5
15DF0
  8
AM_0
 10
272.75087385822121
 20
280.1736512607103
 30
0.0
 11
282.35688999418409
 21
280.1736512607103
 31
0.0
  0
LINE
  5
15DF7
  8
AM_0
 10
272.75087385822121
 20
304.23370126071018
 30
0.0
 11
282.30810296999698
 21
304.23370126071018
 31
0.0
  0
LINE
  5
15DF9
  8
AM_0
 10
284.30688405712732
 20
302.30351648634502
 30
0.0
 11
284.45158796954928
 21
298.16070321383518
 31
0.0
  0
ARC
  5
15DFA
  8
AM_0
 10
285.45076399494008
 20
298.23370126071018
 30
0.0
 40
1.0000000000000091
 50
187.1807504503941
 51
269.99999749551819
  0
ARC
  5
15DFB
  8
AM_0
 10
282.30810296999698
 20
302.23370126071018
 30
0.0
 40
1.9999999999999989
 50
2.0004653026450301
 51
90.0
1001
GENIUS_GENODEF_13
1002
{
1000
HIER
1070
     0
1002
}
1002
{
1000
MANEDIT
1070
     0
1002
}
1002
{
1000
NOSEL
1070
     0
1002
}
1002
{
1000
BEHIND
1070
     0
1002
}
1002
{
1000
OTHER
1070
     0
1002
}
1002
{
1000
REACTOR
1002
}
1001
GENIUS_GENOBJ-N-FIL_13
1002
{
1000
OWNER
1000
GEN
1002
}
  0
CIRCLE
  5
15DFC
  8
0
 10
308.2569777016717
 20
288.23370245280307
 30
0.0
 40
8.4999999999999911
  0
CIRCLE
  5
15DFE
  8
0
 10
308.2569777016717
 20
288.23370245280307
 30
0.0
 40
6.4999999999999929
  0
ARC
  5
15DFF
  8
AM_0
 10
308.2569777016717
 20
288.23370245280307
 30
0.0
 40
10.999999999999989
 50
269.9999994663882
 51
0.0000005336085289
  0
POLYLINE
  5
15E00
  8
0
 66
     1
 10
0.0
 20
0.0
 30
0.0
 70
     1
  0
VERTEX
  5
18C99
  8
0
 10
311.25697770167181
 20
289.9657532603722
 30
0.0
  0
VERTEX
  5
18C9A
  8
0
 10
308.2569777016717
 20
291.69780406794098
 30
0.0
  0
VERTEX
  5
18C9B
  8
0
 10
305.25697770167181
 20
289.9657532603722
 30
0.0
  0
VERTEX
  5
18C9C
  8
0
 10
305.25697770167181
 20
286.50165164523418
 30
0.0
  0
VERTEX
  5
18C9D
  8
0
 10
308.2569777016717
 20
284.76960083766522
 30
0.0
  0
VERTEX
  5
18C9E
  8
0
 10
311.25697770167181
 20
286.50165164523418
 30
0.0
  0
SEQEND
  5
18C9F
  8
0
  0
ARC
  5
15E01
  8
AM_0
 10
324.2569777016717
 20
288.23370260181491
 30
0.0
 40
4.9999999999999982
 50
90.0
 51
180.0000005336085
1001
GENIUS_GENODEF_13
1002
{
1000
HIER
1070
     0
1002
}
1002
{
1000
MANEDIT
1070
     0
1002
}
1002
{
1000
NOSEL
1070
     0
1002
}
1002
{
1000
BEHIND
1070
     0
1002
}
1002
{
1000
OTHER
1070
     0
1002
}
1002
{
1000
REACTOR
1002
}
1001
GENIUS_GENOBJ-N-FIL_13
1002
{
1000
OWNER
1000
GEN
1002
}
  0
ARC
  5
15E02
  8
0
 10
318.25697993684611
 20
313.23370126071018
 30
0.0
 40
11.999999999999989
 50
90.0
 51
156.07018312596151
  0
LINE
  5
15E05
  8
AM_0
 10
436.25698145676438
 20
288.23370245280307
 30
0.0
 11
436.25698145676438
 21
208.2337000686174
 31
0.0
  0
ARC
  5
15E06
  8
AM_0
 10
423.25698127795027
 20
272.23370245280307
 30
0.0
 40
4.9999999999999982
 50
0.0
 51
90.000000533608556
1001
GENIUS_GENOBJ-N-FIL_13
1002
{
1000
OWNER
1000
GEN
1002
}
1001
GENIUS_GENODEF_13
1002
{
1000
HIER
1070
     0
1002
}
1002
{
1000
MANEDIT
1070
     0
1002
}
1002
{
1000
NOSEL
1070
     0
1002
}
1002
{
1000
BEHIND
1070
     0
1002
}
1002
{
1000
OTHER
1070
     0
1002
}
1002
{
1000
REACTOR
1002
}
  0
LINE
  5
15E07
  8
AM_0
 10
434.25698145676432
 20
288.23370245280307
 30
0.0
 11
434.25698145676432
 21
208.2337000686174
 31
0.0
  0
ARC
  5
15E0A
  8
AM_0
 10
664.41083226211219
 20
248.23370126071029
 30
0.0
 40
56.499999999999972
 50
144.9813717379198
 51
165.88809156090579
  0
LINE
  5
15E0F
  8
0
 10
734.41083185361947
 20
171.23370044451451
 30
0.0
 11
734.41083229346134
 21
325.23370209226567
 31
0.0
  0
ARC
  5
15E10
  8
AM_0
 10
606.29576206127604
 20
273.26092115965059
 30
0.0
 40
0.9999999999999996
 50
92.000000000005315
 51
166.84888173935161
1001
GENIUS_GENODEF_13
1002
{
1000
HIER
1070
     0
1002
}
1002
{
1000
MANEDIT
1070
     0
1002
}
1002
{
1000
NOSEL
1070
     0
1002
}
1002
{
1000
BEHIND
1070
     0
1002
}
1002
{
1000
REACTOR
1002
}
1001
GENIUS_GENOBJ-N-FIL_13
1002
{
1000
OWNER
1000
GEN
1002
}
  0
LINE
  5
15E11
  8
AM_0
 10
606.26086256457347
 20
274.26031198666982
 30
0.0
 11
614.41113766467925
 21
274.54492586473492
 31
0.0
  0
LINE
  5
15E12
  8
AM_0
 10
626.41083112962394
 20
298.1340336573781
 30
0.0
 11
626.41083112962394
 21
198.3333688640424
 31
0.0
  0
LINE
  5
15E13
  8
AM_0
 10
689.41083300717025
 20
299.23370278062879
 30
0.0
 11
689.41083300717025
 21
197.23369974079191
 31
0.0
  0
LINE
  5
15E14
  8
AM_0
 10
622.41083101041465
 20
275.7337020802741
 30
0.0
 11
622.41083101041465
 21
220.73370044114671
 31
0.0
  0
LINE
  5
15E17
  8
ﾁｭｳｼﾝｾﾝ1
 10
664.41083207211216
 20
139.9933880731987
 30
0.0
 11
664.41083207211216
 21
318.32730111547733
 31
0.0
  0
ARC
  5
15E1F
  8
AM_0
 10
632.44828131813415
 20
192.2743371387196
 30
0.0
 40
1.965536666759129
 50
3.1584702260748112
 51
179.35044678892791
  0
LINE
  5
15E20
  8
AM_0
 10
689.41083300717173
 20
197.23369974079179
 30
0.0
 11
626.41083112962372
 21
198.3333688640424
 31
0.0
  0
LINE
  5
15E22
  8
ﾁｭｳｼﾝｾﾝ1
 10
562.0569750948257
 20
248.23370126071029
 30
0.0
 11
739.99624728543074
 21
248.23370126071029
 31
0.0
  0
CIRCLE
  5
15E23
  8
0
 10
413.2569788937646
 20
183.23370126071029
 30
0.0
 40
4.4999999999999982
  0
LINE
  5
15E24
  8
ﾁｭｳｼﾝｾﾝ1
 10
413.2569788937646
 20
170.23370126071029
 30
0.0
 11
413.2569788937646
 21
196.23370126071009
 31
0.0
1001
GENIUS_GENODEF_13
1002
{
1000
HIER
1070
     0
1002
}
1002
{
1000
MANEDIT
1070
     0
1002
}
1002
{
1000
NOSEL
1070
     0
1002
}
1002
{
1000
BEHIND
1070
     0
1002
}
1002
{
1000
OTHER
1070
     0
1002
}
1002
{
1000
REACTOR
1002
}
1001
GENIUS_GENOBJ-N-CEN_13
1002
{
1000
OWNER
1000
GEN
1002
}
  0
LINE
  5
15E25
  8
0
 10
424.22549483016559
 20
178.3662935160356
 30
0.0
 11
435.13954035968652
 21
202.96067487891489
 31
0.0
  0
LINE
  5
15E28
  8
ﾁｭｳｼﾝｾﾝ1
 10
426.25697889376448
 20
183.23370126071029
 30
0.0
 11
400.25697889376471
 21
183.23370126071029
 31
0.0
1001
GENIUS_GENODEF_13
1002
{
1000
HIER
1070
     0
1002
}
1002
{
1000
MANEDIT
1070
     0
1002
}
1002
{
1000
NOSEL
1070
     0
1002
}
1002
{
1000
BEHIND
1070
     0
1002
}
1002
{
1000
OTHER
1070
     0
1002
}
1002
{
1000
REACTOR
1002
}
1001
GENIUS_GENOBJ-N-CEN_13
1002
{
1000
OWNER
1000
GEN
1002
}
  0
ARC
  5
15E29
  8
0
 10
413.2569788937646
 20
183.23370126071029
 30
0.0
 40
11.999999999999989
 50
270.0
 51
336.07018312596148
  0
LINE
  5
15E2C
  8
AM_0
 10
428.25698127795027
 20
272.23370245280307
 30
0.0
 11
428.25698127795027
 21
223.94405820283819
 31
0.0
  0
CIRCLE
  5
15E2D
  8
0
 10
423.25698112893878
 20
208.2337000686174
 30
0.0
 40
6.4999999999999929
  0
CIRCLE
  5
15E2E
  8
0
 10
423.25698112893878
 20
208.2337000686174
 30
0.0
 40
8.4999999999999911
  0
ARC
  5
15E30
  8
AM_0
 10
423.25698112893878
 20
208.2337000686174
 30
0.0
 40
11.00000032782555
 50
269.99999749551819
 51
0.0
  0
ARC
  5
15E31
  8
AM_0
 10
423.25698127795027
 20
224.2337000686174
 30
0.0
 40
4.9999999999999982
 50
269.9999994663882
 51
0.0
1001
GENIUS_GENOBJ-N-FIL_13
1002
{
1000
OWNER
1000
GEN
1002
}
1001
GENIUS_GENODEF_13
1002
{
1000
HIER
1070
     0
1002
}
1002
{
1000
MANEDIT
1070
     0
1002
}
1002
{
1000
NOSEL
1070
     0
1002
}
1002
{
1000
BEHIND
1070
     0
1002
}
1002
{
1000
OTHER
1070
     0
1002
}
1002
{
1000
REACTOR
1002
}
  0
POLYLINE
  5
15E32
  8
0
 66
     1
 10
0.0
 20
0.0
 30
0.0
 70
     1
  0
VERTEX
  5
18CA0
  8
0
 10
426.25698112893878
 20
209.96575087618629
 30
0.0
  0
VERTEX
  5
18CA1
  8
0
 10
423.25698112893878
 20
211.69780168375539
 30
0.0
  0
VERTEX
  5
18CA2
  8
0
 10
420.25698112893878
 20
209.96575087618629
 30
0.0
  0
VERTEX
  5
18CA3
  8
0
 10
420.25698112893878
 20
206.5016492610487
 30
0.0
  0
VERTEX
  5
18CA4
  8
0
 10
423.25698112893878
 20
204.7695984534796
 30
0.0
  0
VERTEX
  5
18CA5
  8
0
 10
426.25698112893878
 20
206.5016492610487
 30
0.0
  0
SEQEND
  5
18CA6
  8
0
  0
ARC
  5
15E34
  8
AM_0
 10
423.25698112893878
 20
208.2337000686174
 30
0.0
 40
10.999999999999989
 50
89.999999466388203
 51
180.0000005336085
  0
ARC
  5
15E35
  8
AM_0
 10
407.25698112893889
 20
208.23369991960541
 30
0.0
 40
4.9999999999999982
 50
270.0
 51
0.0000005336085289
1001
GENIUS_GENODEF_13
1002
{
1000
HIER
1070
     0
1002
}
1002
{
1000
MANEDIT
1070
     0
1002
}
1002
{
1000
NOSEL
1070
     0
1002
}
1002
{
1000
BEHIND
1070
     0
1002
}
1002
{
1000
OTHER
1070
     0
1002
}
1002
{
1000
REACTOR
1002
}
1001
GENIUS_GENOBJ-N-FIL_13
1002
{
1000
OWNER
1000
GEN
1002
}
  0
ARC
  5
15E36
  8
AM_0
 10
423.25698112893878
 20
208.2337000686174
 30
0.0
 40
13.00000032782555
 50
336.07018312596148
 51
0.0000050089569452
  0
ARC
  5
15E3F
  8
AM_0
 10
664.41083226211219
 20
248.23370126071029
 30
0.0
 40
56.499999999999972
 50
194.11190843909421
 51
215.0186282620802
  0
LINE
  5
15E40
  8
0
 10
616.82083112962425
 20
201.73370006265719
 30
0.0
 11
616.82083112962425
 21
214.73370006265719
 31
0.0
  0
LINE
  5
15E41
  8
AM_0
 10
624.82083112962425
 20
216.73370006265739
 30
0.0
 11
624.82083112962425
 21
199.73370006265711
 31
0.0
  0
ARC
  5
15E42
  8
AM_0
 10
629.37652103691914
 20
191.2337012607104
 30
0.0
 40
0.9999999999999996
 50
181.9999999999971
 51
270.0
1001
GENIUS_GENODEF_13
1002
{
1000
HIER
1070
     0
1002
}
1002
{
1000
MANEDIT
1070
     0
1002
}
1002
{
1000
NOSEL
1070
     0
1002
}
1002
{
1000
BEHIND
1070
     0
1002
}
1002
{
1000
REACTOR
1002
}
1001
GENIUS_GENOBJ-N-FIL_13
1002
{
1000
OWNER
1000
GEN
1002
}
  0
LINE
  5
15E43
  8
AM_0
 10
629.44514348730524
 20
190.23370126071029
 30
0.0
 11
629.37652103691914
 21
190.23370126071029
 31
0.0
  0
ARC
  5
15E44
  8
AM_0
 10
629.44514348730524
 20
191.2337012607104
 30
0.0
 40
0.9999999999999996
 50
269.999999999995
 51
357.99999999999642
1001
GENIUS_GENODEF_13
1002
{
1000
HIER
1070
     0
1002
}
1002
{
1000
MANEDIT
1070
     0
1002
}
1002
{
1000
NOSEL
1070
     0
1002
}
1002
{
1000
BEHIND
1070
     0
1002
}
1002
{
1000
REACTOR
1002
}
1001
GENIUS_GENOBJ-N-FIL_13
1002
{
1000
OWNER
1000
GEN
1002
}
  0
LINE
  5
15E45
  8
AM_0
 10
630.4445343143243
 20
191.19880176400801
 30
0.0
 11
630.69106989231238
 21
198.2586570185313
 31
0.0
  0
LINE
  5
15E46
  8
AM_0
 10
628.37713020990032
 20
191.19880176400761
 30
0.0
 11
628.12903295690455
 21
198.30337753958739
 31
0.0
  0
LINE
  5
15E47
  8
0
 10
626.41083112962394
 20
199.73370006265711
 30
0.0
 11
624.82083112962425
 21
199.73370006265711
 31
0.0
  0
LINE
  5
15E48
  8
0
 10
624.82083112962425
 20
201.73370006265719
 30
0.0
 11
616.82083112962425
 21
201.73370006265719
 31
0.0
  0
LINE
  5
15E49
  8
AM_0
 10
609.07687698494203
 20
214.28016712710721
 30
0.0
 11
616.82083112962425
 21
214.55059196474841
 31
0.0
  0
LINE
  5
15E4A
  8
AM_0
 10
609.10096088928219
 20
212.2096014380015
 30
0.0
 11
616.82083112962425
 21
211.94001762883229
 31
0.0
  0
LINE
  5
15E4B
  8
AM_0
 10
610.41083226211219
 20
214.32674987185331
 30
0.0
 11
610.41083226211219
 21
222.06217039954549
 31
0.0
  0
ARC
  5
15E4C
  8
AM_0
 10
609.13586038598464
 20
213.2089922650207
 30
0.0
 40
0.9999999999999996
 50
198.56658080190309
 51
267.9999999999946
1001
GENIUS_GENODEF_13
1002
{
1000
HIER
1070
     0
1002
}
1002
{
1000
MANEDIT
1070
     0
1002
}
1002
{
1000
NOSEL
1070
     0
1002
}
1002
{
1000
BEHIND
1070
     0
1002
}
1002
{
1000
REACTOR
1002
}
1001
GENIUS_GENOBJ-N-FIL_13
1002
{
1000
OWNER
1000
GEN
1002
}
  0
ARC
  5
15E4D
  8
AM_0
 10
609.11177648164471
 20
213.28077630008829
 30
0.0
 40
0.9999999999999996
 50
92.000000000005315
 51
198.52714231446819
1001
GENIUS_GENODEF_13
1002
{
1000
HIER
1070
     0
1002
}
1002
{
1000
MANEDIT
1070
     0
1002
}
1002
{
1000
NOSEL
1070
     0
1002
}
1002
{
1000
BEHIND
1070
     0
1002
}
1002
{
1000
REACTOR
1002
}
1001
GENIUS_GENOBJ-N-FIL_13
1002
{
1000
OWNER
1000
GEN
1002
}
  0
ARC
  5
15E4E
  8
AM_0
 10
713.41083226211231
 20
248.23370126071029
 30
0.0
 40
110.9999999999999
 50
198.52714231446819
 51
198.56658080189649
  0
LINE
  5
15E4F
  8
AM_0
 10
606.24452783025083
 20
224.27588718375469
 30
0.0
 11
613.12987820399223
 21
224.51632891702619
 31
0.0
  0
LINE
  5
15E50
  8
AM_0
 10
606.26086256457347
 20
222.20709053475119
 30
0.0
 11
614.41113766467925
 21
221.92247665668609
 31
0.0
  0
ARC
  5
15E51
  8
AM_0
 10
713.41083226211231
 20
248.23370126071029
 30
0.0
 40
110.9999999999999
 50
193.1136701432988
 51
193.15111826064839
  0
ARC
  5
15E52
  8
AM_0
 10
606.29576206127604
 20
223.2064813617703
 30
0.0
 40
0.9999999999999996
 50
193.15111826064839
 51
267.9999999999946
1001
GENIUS_GENODEF_13
1002
{
1000
HIER
1070
     0
1002
}
1002
{
1000
MANEDIT
1070
     0
1002
}
1002
{
1000
NOSEL
1070
     0
1002
}
1002
{
1000
BEHIND
1070
     0
1002
}
1002
{
1000
REACTOR
1002
}
1001
GENIUS_GENOBJ-N-FIL_13
1002
{
1000
OWNER
1000
GEN
1002
}
  0
ARC
  5
15E53
  8
AM_0
 10
606.27942732695317
 20
223.27649635673549
 30
0.0
 40
0.9999999999999996
 50
92.000000000005315
 51
193.1136701432988
1001
GENIUS_GENODEF_13
1002
{
1000
HIER
1070
     0
1002
}
1002
{
1000
MANEDIT
1070
     0
1002
}
1002
{
1000
NOSEL
1070
     0
1002
}
1002
{
1000
BEHIND
1070
     0
1002
}
1002
{
1000
REACTOR
1002
}
1001
GENIUS_GENOBJ-N-FIL_13
1002
{
1000
OWNER
1000
GEN
1002
}
  0
LINE
  5
15E54
  8
0
 10
626.41083112962394
 20
216.73370006265719
 30
0.0
 11
624.82083112962425
 21
216.73370006265719
 31
0.0
  0
LINE
  5
15E55
  8
0
 10
616.82083112962425
 20
214.73370006265719
 30
0.0
 11
624.82083112962425
 21
214.73370006265719
 31
0.0
  0
ARC
  5
15E56
  8
AM_0
 10
616.91083226211231
 20
214.95082277942541
 30
0.0
 40
1.4999999999999989
 50
0.0
 51
35.01862826208832
1001
GENIUS_GENODEF_13
1002
{
1000
HIER
1070
     0
1002
}
1002
{
1000
MANEDIT
1070
     0
1002
}
1002
{
1000
NOSEL
1070
     0
1002
}
1002
{
1000
BEHIND
1070
     0
1002
}
1002
{
1000
REACTOR
1002
}
1001
GENIUS_GENOBJ-N-FIL_13
1002
{
1000
OWNER
1000
GEN
1002
}
  0
LINE
  5
15E57
  8
AM_0
 10
618.41083226211219
 20
214.95082277942541
 30
0.0
 11
618.41083226211208
 21
214.73370006265719
 31
0.0
1001
GENIUS_GENODEF_13
1002
{
1000
HIER
1070
     0
1002
}
1002
{
1000
MANEDIT
1070
     0
1002
}
1002
{
1000
NOSEL
1070
     0
1002
}
1002
{
1000
BEHIND
1070
     0
1002
}
1002
{
1000
REACTOR
1002
}
1001
GENIUS_GENOBJ-N-CEN_13
1002
{
1000
OWNER
1000
GEN
1002
}
  0
LINE
  5
15E58
  8
AM_0
 10
622.41083101041465
 20
220.7337004411464
 30
0.0
 11
626.41083112962394
 21
220.7337004411464
 31
0.0
  0
LINE
  5
15E59
  8
0
 10
619.41083054100773
 20
233.2337008136756
 30
0.0
 11
595.41083054100773
 21
236.23370126071029
 31
0.0
  0
LINE
  5
15E5A
  8
0
 10
619.41083054100773
 20
263.23370170774513
 30
0.0
 11
595.41083054100773
 21
260.23370126071029
 31
0.0
  0
LINE
  5
15E5B
  8
AM_0
 10
595.41083054100773
 20
260.23370126071029
 30
0.0
 11
595.41083054100773
 21
236.23370126071029
 31
0.0
  0
LINE
  5
15E5C
  8
0
 10
567.41083054100761
 20
238.73370126071029
 30
0.0
 11
567.41083054100761
 21
260.23370126071029
 31
0.0
  0
LINE
  5
15E5D
  8
0
 10
567.41083054100761
 20
238.73370126071029
 30
0.0
 11
595.41083054100773
 21
238.73370125774829
 31
0.0
  0
LINE
  5
15E5E
  8
0
 10
567.41083054100761
 20
260.23370126071029
 30
0.0
 11
589.41083054100773
 21
260.23370126071029
 31
0.0
  0
LINE
  5
15E5F
  8
0
 10
595.41083054100773
 20
257.73370126071029
 30
0.0
 11
567.41083054100761
 21
257.73370126071029
 31
0.0
  0
LINE
  5
15E60
  8
0
 10
589.41083054100773
 20
260.23370126071029
 30
0.0
 11
589.41083054100773
 21
257.73370126071029
 31
0.0
  0
LINE
  5
15E63
  8
AM_0
 10
619.41083054100773
 20
263.23370170774513
 30
0.0
 11
619.41083054100773
 21
233.2337008136756
 31
0.0
  0
LINE
  5
15E64
  8
AM_0
 10
604.39809092676649
 20
234.27214331461701
 30
0.0
 11
609.61685009269252
 21
234.45438640048309
 31
0.0
  0
LINE
  5
15E65
  8
AM_0
 10
604.40757307914009
 20
232.20445390464411
 30
0.0
 11
610.29353741608907
 21
231.99891150079691
 31
0.0
  0
ARC
  5
15E66
  8
AM_0
 10
713.41083226211231
 20
248.23370126071029
 30
0.0
 40
110.9999999999999
 50
187.81694783169451
 51
187.85317808881271
  0
ARC
  5
15E67
  8
AM_0
 10
604.44247257584254
 20
233.2038447316632
 30
0.0
 40
0.9999999999999996
 50
187.853178088806
 51
267.9999999999946
1001
GENIUS_GENODEF_13
1002
{
1000
HIER
1070
     0
1002
}
1002
{
1000
MANEDIT
1070
     0
1002
}
1002
{
1000
NOSEL
1070
     0
1002
}
1002
{
1000
BEHIND
1070
     0
1002
}
1002
{
1000
REACTOR
1002
}
1001
GENIUS_GENOBJ-N-FIL_13
1002
{
1000
OWNER
1000
GEN
1002
}
  0
ARC
  5
15E68
  8
AM_0
 10
604.43299042346905
 20
233.2727524875979
 30
0.0
 40
0.9999999999999996
 50
92.000000000005315
 51
187.81694783169451
1001
GENIUS_GENODEF_13
1002
{
1000
HIER
1070
     0
1002
}
1002
{
1000
MANEDIT
1070
     0
1002
}
1002
{
1000
NOSEL
1070
     0
1002
}
1002
{
1000
BEHIND
1070
     0
1002
}
1002
{
1000
REACTOR
1002
}
1001
GENIUS_GENOBJ-N-FIL_13
1002
{
1000
OWNER
1000
GEN
1002
}
  0
LINE
  5
15E6F
  8
AM_0
 10
619.41083054100773
 20
233.2337008136756
 30
0.0
 11
622.41083063041458
 21
233.2337008136756
 31
0.0
  0
ARC
  5
15E70
  8
AM_0
 10
604.44247257584254
 20
263.26355778975761
 30
0.0
 40
0.9999999999999996
 50
92.000000000005315
 51
172.14682191119391
1001
GENIUS_GENODEF_13
1002
{
1000
HIER
1070
     0
1002
}
1002
{
1000
MANEDIT
1070
     0
1002
}
1002
{
1000
NOSEL
1070
     0
1002
}
1002
{
1000
BEHIND
1070
     0
1002
}
1002
{
1000
REACTOR
1002
}
1001
GENIUS_GENOBJ-N-FIL_13
1002
{
1000
OWNER
1000
GEN
1002
}
  0
LINE
  5
15E71
  8
AM_0
 10
604.39809092676649
 20
262.19525920680411
 30
0.0
 11
609.61685009269252
 21
262.01301612093761
 31
0.0
  0
ARC
  5
15E72
  8
AM_0
 10
713.41083226211231
 20
248.23370126071029
 30
0.0
 40
110.9999999999999
 50
172.14682191118709
 51
172.18305216830549
  0
ARC
  5
15E76
  8
AM_0
 10
604.43299042346905
 20
263.194650033823
 30
0.0
 40
0.9999999999999996
 50
172.18305216830549
 51
267.9999999999946
1001
GENIUS_GENODEF_13
1002
{
1000
HIER
1070
     0
1002
}
1002
{
1000
MANEDIT
1070
     0
1002
}
1002
{
1000
NOSEL
1070
     0
1002
}
1002
{
1000
BEHIND
1070
     0
1002
}
1002
{
1000
REACTOR
1002
}
1001
GENIUS_GENOBJ-N-FIL_13
1002
{
1000
OWNER
1000
GEN
1002
}
  0
LINE
  5
15E77
  8
AM_0
 10
604.40757307914009
 20
264.2629486167765
 30
0.0
 11
610.29353741608907
 21
264.4684910206239
 31
0.0
  0
LINE
  5
15E78
  8
AM_0
 10
606.24452783025083
 20
272.1915153376662
 30
0.0
 11
613.12987820399223
 21
271.95107360439488
 31
0.0
  0
ARC
  5
15E79
  8
AM_0
 10
713.41083226211231
 20
248.23370126071029
 30
0.0
 40
110.9999999999999
 50
166.84888173935161
 51
166.88632985669449
  0
ARC
  5
15E7A
  8
AM_0
 10
606.27942732695317
 20
273.19090616468532
 30
0.0
 40
0.9999999999999996
 50
166.8863298567012
 51
267.9999999999946
1001
GENIUS_GENODEF_13
1002
{
1000
HIER
1070
     0
1002
}
1002
{
1000
MANEDIT
1070
     0
1002
}
1002
{
1000
NOSEL
1070
     0
1002
}
1002
{
1000
BEHIND
1070
     0
1002
}
1002
{
1000
REACTOR
1002
}
1001
GENIUS_GENOBJ-N-FIL_13
1002
{
1000
OWNER
1000
GEN
1002
}
  0
LINE
  5
15E7B
  8
AM_0
 10
619.41083054100773
 20
263.23370170774513
 30
0.0
 11
622.41083063041458
 21
263.23370170774513
 31
0.0
  0
LINE
  5
15E7C
  8
0
 10
718.41083222892848
 20
193.32381992344909
 30
0.0
 11
718.4108322863492
 21
173.7238102851731
 31
0.0
  0
LINE
  5
16419
  8
ﾁｭｳｼﾝｾﾝ1
 10
714.61601753214813
 20
183.2337012607104
 30
0.0
 11
740.61601753214813
 21
183.2337012607104
 31
0.0
1001
GENIUS_GENODEF_13
1002
{
1000
HIER
1070
     0
1002
}
1002
{
1000
MANEDIT
1070
     0
1002
}
1002
{
1000
NOSEL
1070
     0
1002
}
1002
{
1000
BEHIND
1070
     0
1002
}
1002
{
1000
OTHER
1070
     0
1002
}
1002
{
1000
REACTOR
1002
}
1001
GENIUS_GENOBJ-N-CEN_13
1002
{
1000
OWNER
1000
GEN
1002
}
  0
LINE
  5
1641A
  8
0
 10
720.34103329294419
 20
171.72502863684721
 30
0.0
 11
734.41083232200481
 21
171.23370042815799
 31
0.0
  0
ARC
  5
1641F
  8
0
 10
720.4108322863492
 20
173.72381029088541
 30
0.0
 40
1.9999999999999989
 50
180.00000016364561
 51
267.99999999999949
1001
GENIUS_GENOBJ-N-FIL_13
1002
{
1000
OWNER
1000
GEN
1002
}
1001
GENIUS_GENODEF_13
1002
{
1000
HIER
1070
     0
1002
}
1002
{
1000
MANEDIT
1070
     0
1002
}
1002
{
1000
NOSEL
1070
     0
1002
}
1002
{
1000
BEHIND
1070
     0
1002
}
1002
{
1000
OTHER
1070
     0
1002
}
1002
{
1000
REACTOR
1002
}
  0
LINE
  5
16421
  8
0
 10
689.40446546406997
 20
197.2338108866702
 30
0.0
 11
715.51553071903595
 21
196.3219923957175
 31
0.0
  0
ARC
  5
16423
  8
AM_0
 10
699.44514348730524
 20
191.2337012607104
 30
0.0
 40
0.9999999999999996
 50
269.999999999995
 51
357.99999999999642
1001
GENIUS_GENODEF_13
1002
{
1000
HIER
1070
     0
1002
}
1002
{
1000
MANEDIT
1070
     0
1002
}
1002
{
1000
NOSEL
1070
     0
1002
}
1002
{
1000
BEHIND
1070
     0
1002
}
1002
{
1000
REACTOR
1002
}
1001
GENIUS_GENOBJ-N-FIL_13
1002
{
1000
OWNER
1000
GEN
1002
}
  0
ARC
  5
16424
  8
AM_0
 10
664.41083226211219
 20
248.23370126071029
 30
0.0
 40
56.499999999999972
 50
242.4821246347978
 51
295.51787536520271
  0
LINE
  5
16425
  8
AM_0
 10
699.37652103691914
 20
190.23370126071029
 30
0.0
 11
699.44514348730524
 21
190.23370126071029
 31
0.0
  0
ARC
  5
16426
  8
AM_0
 10
699.37652103691914
 20
191.2337012607104
 30
0.0
 40
0.9999999999999996
 50
181.9999999999971
 51
270.0
1001
GENIUS_GENODEF_13
1002
{
1000
HIER
1070
     0
1002
}
1002
{
1000
MANEDIT
1070
     0
1002
}
1002
{
1000
NOSEL
1070
     0
1002
}
1002
{
1000
BEHIND
1070
     0
1002
}
1002
{
1000
REACTOR
1002
}
1001
GENIUS_GENOBJ-N-FIL_13
1002
{
1000
OWNER
1000
GEN
1002
}
  0
LINE
  5
16427
  8
AM_0
 10
698.37713020990009
 20
191.19880176400801
 30
0.0
 11
698.17708090231406
 21
196.92746440511149
 31
0.0
  0
ARC
  5
16429
  8
AM_0
 10
696.37338320609024
 20
192.2743371387196
 30
0.0
 40
1.965536666759129
 50
0.6495532110655964
 51
176.84152977392509
  0
ARC
  5
1642C
  8
0
 10
715.41083222892837
 20
193.32381991466011
 30
0.0
 40
2.9999999999999978
 50
0.0000001678534934
 51
87.999999999999517
1001
GENIUS_GENOBJ-N-FIL_13
1002
{
1000
OWNER
1000
GEN
1002
}
1001
GENIUS_GENODEF_13
1002
{
1000
HIER
1070
     0
1002
}
1002
{
1000
MANEDIT
1070
     0
1002
}
1002
{
1000
NOSEL
1070
     0
1002
}
1002
{
1000
BEHIND
1070
     0
1002
}
1002
{
1000
OTHER
1070
     0
1002
}
1002
{
1000
REACTOR
1002
}
  0
LINE
  5
1642E
  8
AM_0
 10
700.44453431432419
 20
191.19880176400761
 30
0.0
 11
700.64157826560586
 21
196.841402260775
 31
0.0
  0
LINE
  5
16435
  8
AM_0
 10
689.41083300717173
 20
299.23370278062862
 30
0.0
 11
626.41083112962394
 21
298.1340336573781
 31
0.0
  0
CIRCLE
  5
16436
  8
0
 10
413.2569788937646
 20
313.23370126071018
 30
0.0
 40
4.4999999999999982
  0
LINE
  5
16437
  8
ﾁｭｳｼﾝｾﾝ1
 10
413.2569788937646
 20
326.23370126071018
 30
0.0
 11
413.2569788937646
 21
300.23370126071001
 31
0.0
1001
GENIUS_GENODEF_13
1002
{
1000
HIER
1070
     0
1002
}
1002
{
1000
MANEDIT
1070
     0
1002
}
1002
{
1000
NOSEL
1070
     0
1002
}
1002
{
1000
BEHIND
1070
     0
1002
}
1002
{
1000
OTHER
1070
     0
1002
}
1002
{
1000
REACTOR
1002
}
1001
GENIUS_GENOBJ-N-CEN_13
1002
{
1000
OWNER
1000
GEN
1002
}
  0
LINE
  5
16438
  8
0
 10
424.22549483016559
 20
318.1011090053849
 30
0.0
 11
435.13954035968652
 21
293.50672764250572
 31
0.0
  0
CIRCLE
  5
16439
  8
0
 10
423.25698112893878
 20
288.23370245280307
 30
0.0
 40
6.4999999999999929
  0
CIRCLE
  5
1643A
  8
0
 10
423.25698112893878
 20
288.23370245280307
 30
0.0
 40
8.4999999999999911
  0
ARC
  5
1643C
  8
AM_0
 10
423.25698112893878
 20
288.23370245280307
 30
0.0
 40
11.000000327825539
 50
0.0
 51
90.000002504475205
  0
ARC
  5
1643E
  8
AM_0
 10
407.25698112893889
 20
288.23370260181491
 30
0.0
 40
4.9999999999999982
 50
359.99999946639139
 51
90.0
1001
GENIUS_GENODEF_13
1002
{
1000
HIER
1070
     0
1002
}
1002
{
1000
MANEDIT
1070
     0
1002
}
1002
{
1000
NOSEL
1070
     0
1002
}
1002
{
1000
BEHIND
1070
     0
1002
}
1002
{
1000
OTHER
1070
     0
1002
}
1002
{
1000
REACTOR
1002
}
1001
GENIUS_GENOBJ-N-FIL_13
1002
{
1000
OWNER
1000
GEN
1002
}
  0
ARC
  5
1643F
  8
AM_0
 10
423.25698112893878
 20
288.23370245280307
 30
0.0
 40
10.999999999999989
 50
179.99999946639139
 51
270.0000005336085
  0
POLYLINE
  5
16440
  8
0
 66
     1
 10
0.0
 20
0.0
 30
0.0
 70
     1
  0
VERTEX
  5
18CA7
  8
0
 10
426.25698112893878
 20
289.9657532603722
 30
0.0
  0
VERTEX
  5
18CA8
  8
0
 10
423.25698112893878
 20
291.69780406794098
 30
0.0
  0
VERTEX
  5
18CA9
  8
0
 10
420.25698112893878
 20
289.9657532603722
 30
0.0
  0
VERTEX
  5
18CAA
  8
0
 10
420.25698112893878
 20
286.50165164523418
 30
0.0
  0
VERTEX
  5
18CAB
  8
0
 10
423.25698112893878
 20
284.76960083766522
 30
0.0
  0
VERTEX
  5
18CAC
  8
0
 10
426.25698112893878
 20
286.50165164523418
 30
0.0
  0
SEQEND
  5
18CAD
  8
0
  0
LINE
  5
16441
  8
ﾁｭｳｼﾝｾﾝ1
 10
426.25697889376448
 20
313.23370126071018
 30
0.0
 11
400.25697889376471
 21
313.23370126071018
 31
0.0
1001
GENIUS_GENODEF_13
1002
{
1000
HIER
1070
     0
1002
}
1002
{
1000
MANEDIT
1070
     0
1002
}
1002
{
1000
NOSEL
1070
     0
1002
}
1002
{
1000
BEHIND
1070
     0
1002
}
1002
{
1000
OTHER
1070
     0
1002
}
1002
{
1000
REACTOR
1002
}
1001
GENIUS_GENOBJ-N-CEN_13
1002
{
1000
OWNER
1000
GEN
1002
}
  0
ARC
  5
16442
  8
AM_0
 10
423.25698112893878
 20
288.23370245280307
 30
0.0
 40
13.00000032782555
 50
359.99999499104308
 51
23.92981687403848
  0
ARC
  5
16443
  8
0
 10
413.2569788937646
 20
313.23370126071018
 30
0.0
 40
11.999999999999989
 50
23.92981687403848
 51
90.0
  0
LINE
  5
16444
  8
AM_0
 10
624.82083112962425
 20
279.73370245876328
 30
0.0
 11
624.82083112962425
 21
296.7337024587635
 31
0.0
  0
LINE
  5
16445
  8
AM_0
 10
609.10096088928219
 20
284.25780108341939
 30
0.0
 11
616.82083112962425
 21
284.5273848925886
 31
0.0
  0
LINE
  5
16446
  8
AM_0
 10
609.07687698494203
 20
282.18723539431369
 30
0.0
 11
616.82083112962425
 21
281.91681055667271
 31
0.0
  0
ARC
  5
16447
  8
AM_0
 10
609.11177648164471
 20
283.18662622133292
 30
0.0
 40
0.9999999999999996
 50
161.47285768553169
 51
267.9999999999946
1001
GENIUS_GENODEF_13
1002
{
1000
HIER
1070
     0
1002
}
1002
{
1000
MANEDIT
1070
     0
1002
}
1002
{
1000
NOSEL
1070
     0
1002
}
1002
{
1000
BEHIND
1070
     0
1002
}
1002
{
1000
REACTOR
1002
}
1001
GENIUS_GENOBJ-N-FIL_13
1002
{
1000
OWNER
1000
GEN
1002
}
  0
ARC
  5
16448
  8
AM_0
 10
609.13586038598464
 20
283.25841025640023
 30
0.0
 40
0.9999999999999996
 50
92.000000000010218
 51
161.4334191980968
1001
GENIUS_GENODEF_13
1002
{
1000
HIER
1070
     0
1002
}
1002
{
1000
MANEDIT
1070
     0
1002
}
1002
{
1000
NOSEL
1070
     0
1002
}
1002
{
1000
BEHIND
1070
     0
1002
}
1002
{
1000
REACTOR
1002
}
1001
GENIUS_GENOBJ-N-FIL_13
1002
{
1000
OWNER
1000
GEN
1002
}
  0
ARC
  5
16449
  8
AM_0
 10
713.41083226211231
 20
248.23370126071029
 30
0.0
 40
110.9999999999999
 50
161.43341919810351
 51
161.47285768553169
  0
LINE
  5
1644A
  8
AM_0
 10
610.41083226211219
 20
282.14065264956741
 30
0.0
 11
610.41083226211219
 21
274.40523212187509
 31
0.0
  0
LINE
  5
1644B
  8
0
 10
616.82083112962425
 20
294.7337024587635
 30
0.0
 11
616.82083112962425
 21
281.73370245876339
 31
0.0
  0
LINE
  5
1644C
  8
0
 10
626.41083112962394
 20
279.73370245876339
 30
0.0
 11
624.82083112962425
 21
279.73370245876339
 31
0.0
  0
LINE
  5
1644D
  8
AM_0
 10
622.41083101041465
 20
275.7337020802741
 30
0.0
 11
626.41083112962394
 21
275.7337020802741
 31
0.0
  0
LINE
  5
1644E
  8
0
 10
616.82083112962425
 20
281.73370245876339
 30
0.0
 11
624.82083112962425
 21
281.73370245876339
 31
0.0
  0
ARC
  5
1644F
  8
AM_0
 10
616.91083226211231
 20
281.51657974199571
 30
0.0
 40
1.4999999999999989
 50
324.9813717379198
 51
0.0
1001
GENIUS_GENODEF_13
1002
{
1000
HIER
1070
     0
1002
}
1002
{
1000
MANEDIT
1070
     0
1002
}
1002
{
1000
NOSEL
1070
     0
1002
}
1002
{
1000
BEHIND
1070
     0
1002
}
1002
{
1000
REACTOR
1002
}
1001
GENIUS_GENOBJ-N-FIL_13
1002
{
1000
OWNER
1000
GEN
1002
}
  0
LINE
  5
16450
  8
0
 10
624.82083112962425
 20
294.7337024587635
 30
0.0
 11
616.82083112962425
 21
294.7337024587635
 31
0.0
  0
LINE
  5
16451
  8
0
 10
626.41083112962394
 20
296.7337024587635
 30
0.0
 11
624.82083112962425
 21
296.7337024587635
 31
0.0
  0
LINE
  5
16452
  8
AM_0
 10
628.3867324394032
 20
303.54357263354029
 30
0.0
 11
628.19891709336514
 21
298.16524481397261
 31
0.0
  0
LINE
  5
16453
  8
AM_0
 10
630.45729812850914
 20
303.56765653788051
 30
0.0
 11
630.64446383394613
 21
298.20793199111438
 31
0.0
  0
ARC
  5
16454
  8
AM_0
 10
664.41083226211219
 20
199.23370126071029
 30
0.0
 40
110.9999999999999
 50
108.5271423144729
 51
108.5665808018983
  0
ARC
  5
16455
  8
AM_0
 10
629.3861232664226
 20
303.50867313683767
 30
0.0
 40
0.9999999999999996
 50
108.5665808019029
 51
177.99999999999631
1001
GENIUS_GENODEF_13
1002
{
1000
HIER
1070
     0
1002
}
1002
{
1000
MANEDIT
1070
     0
1002
}
1002
{
1000
NOSEL
1070
     0
1002
}
1002
{
1000
BEHIND
1070
     0
1002
}
1002
{
1000
REACTOR
1002
}
1001
GENIUS_GENOBJ-N-FIL_13
1002
{
1000
OWNER
1000
GEN
1002
}
  0
ARC
  5
16456
  8
AM_0
 10
629.45790730148985
 20
303.53275704117772
 30
0.0
 40
0.9999999999999996
 50
1.999999999997129
 51
108.5271423144729
1001
GENIUS_GENODEF_13
1002
{
1000
HIER
1070
     0
1002
}
1002
{
1000
MANEDIT
1070
     0
1002
}
1002
{
1000
NOSEL
1070
     0
1002
}
1002
{
1000
BEHIND
1070
     0
1002
}
1002
{
1000
REACTOR
1002
}
1001
GENIUS_GENOBJ-N-FIL_13
1002
{
1000
OWNER
1000
GEN
1002
}
  0
LINE
  5
1645A
  8
0
 10
689.40446546406997
 20
299.23359163475038
 30
0.0
 11
715.51553071903595
 21
300.14541012570311
 31
0.0
  0
ARC
  5
1645B
  8
AM_0
 10
699.43554125780167
 20
303.50867313683767
 30
0.0
 40
0.9999999999999996
 50
2.0000000000036389
 51
71.43341919809707
1001
GENIUS_GENODEF_13
1002
{
1000
HIER
1070
     0
1002
}
1002
{
1000
MANEDIT
1070
     0
1002
}
1002
{
1000
NOSEL
1070
     0
1002
}
1002
{
1000
BEHIND
1070
     0
1002
}
1002
{
1000
REACTOR
1002
}
1001
GENIUS_GENOBJ-N-FIL_13
1002
{
1000
OWNER
1000
GEN
1002
}
  0
ARC
  5
1645F
  8
AM_0
 10
664.41083226211219
 20
248.23370126071029
 30
0.0
 40
56.499999999999972
 50
64.482124634797998
 51
117.5178753652022
  0
ARC
  5
16461
  8
AM_0
 10
649.4498834889996
 20
308.21154309935321
 30
0.0
 40
0.9999999999999996
 50
1.999999999997129
 51
97.816947831692445
1001
GENIUS_GENODEF_13
1002
{
1000
HIER
1070
     0
1002
}
1002
{
1000
MANEDIT
1070
     0
1002
}
1002
{
1000
NOSEL
1070
     0
1002
}
1002
{
1000
BEHIND
1070
     0
1002
}
1002
{
1000
REACTOR
1002
}
1001
GENIUS_GENOBJ-N-FIL_13
1002
{
1000
OWNER
1000
GEN
1002
}
  0
ARC
  5
16462
  8
AM_0
 10
639.38361236317201
 20
306.34877146154662
 30
0.0
 40
0.9999999999999996
 50
103.1511182606541
 51
178.00000000000281
1001
GENIUS_GENODEF_13
1002
{
1000
HIER
1070
     0
1002
}
1002
{
1000
MANEDIT
1070
     0
1002
}
1002
{
1000
NOSEL
1070
     0
1002
}
1002
{
1000
BEHIND
1070
     0
1002
}
1002
{
1000
REACTOR
1002
}
1001
GENIUS_GENOBJ-N-FIL_13
1002
{
1000
OWNER
1000
GEN
1002
}
  0
ARC
  5
16463
  8
AM_0
 10
639.45362735813728
 20
306.3651061958692
 30
0.0
 40
0.9999999999999996
 50
2.0000000000036389
 51
103.11367014329829
1001
GENIUS_GENODEF_13
1002
{
1000
HIER
1070
     0
1002
}
1002
{
1000
MANEDIT
1070
     0
1002
}
1002
{
1000
NOSEL
1070
     0
1002
}
1002
{
1000
BEHIND
1070
     0
1002
}
1002
{
1000
REACTOR
1002
}
1001
GENIUS_GENOBJ-N-FIL_13
1002
{
1000
OWNER
1000
GEN
1002
}
  0
LINE
  5
16464
  8
AM_0
 10
648.38158490604599
 20
308.23696044368251
 30
0.0
 11
648.17604250219858
 21
302.35099610673331
 31
0.0
  0
LINE
  5
16465
  8
AM_0
 10
640.45301818515622
 20
306.40000569257188
 30
0.0
 11
640.69345991842761
 21
299.51465531883048
 31
0.0
  0
LINE
  5
16466
  8
AM_0
 10
638.38422153615295
 20
306.38367095824913
 30
0.0
 11
638.10326490992861
 21
298.33812584818241
 31
0.0
  0
ARC
  5
16467
  8
AM_0
 10
664.41083226211219
 20
199.23370126071029
 30
0.0
 40
110.9999999999999
 50
103.11367014329829
 51
103.1511182606541
  0
ARC
  5
16468
  8
AM_0
 10
649.38097573306504
 20
308.20206094697988
 30
0.0
 40
0.9999999999999996
 50
97.853178088805777
 51
178.00000000000281
1001
GENIUS_GENODEF_13
1002
{
1000
HIER
1070
     0
1002
}
1002
{
1000
MANEDIT
1070
     0
1002
}
1002
{
1000
NOSEL
1070
     0
1002
}
1002
{
1000
BEHIND
1070
     0
1002
}
1002
{
1000
REACTOR
1002
}
1001
GENIUS_GENOBJ-N-FIL_13
1002
{
1000
OWNER
1000
GEN
1002
}
  0
ARC
  5
16469
  8
AM_0
 10
664.41083226211219
 20
199.23370126071029
 30
0.0
 40
110.9999999999999
 50
97.816947831692445
 51
97.853178088805777
  0
LINE
  5
1646A
  8
AM_0
 10
650.44927431601866
 20
308.246442596056
 30
0.0
 11
650.63151740188482
 21
303.0276834301302
 31
0.0
  0
LINE
  5
1646B
  8
AM_0
 10
660.44593047136766
 20
309.1565245652871
 30
0.0
 11
660.60486043272886
 21
304.60536593751328
 31
0.0
  0
LINE
  5
1646C
  8
AM_0
 10
658.37877478321388
 20
309.15341438682668
 30
0.0
 11
658.21252630936578
 21
304.39268098182117
 31
0.0
  0
ARC
  5
1646D
  8
AM_0
 10
659.37816561023283
 20
309.11851489012417
 30
0.0
 40
0.9999999999999996
 50
92.622284087954625
 51
178.00000000000281
1001
GENIUS_GENODEF_13
1002
{
1000
HIER
1070
     0
1002
}
1002
{
1000
MANEDIT
1070
     0
1002
}
1002
{
1000
NOSEL
1070
     0
1002
}
1002
{
1000
BEHIND
1070
     0
1002
}
1002
{
1000
REACTOR
1002
}
1001
GENIUS_GENOBJ-N-FIL_13
1002
{
1000
OWNER
1000
GEN
1002
}
  0
ARC
  5
16472
  8
AM_0
 10
659.44653964434872
 20
309.12162506858459
 30
0.0
 40
0.9999999999999996
 50
2.0000000000036389
 51
92.586633228774915
1001
GENIUS_GENODEF_13
1002
{
1000
HIER
1070
     0
1002
}
1002
{
1000
MANEDIT
1070
     0
1002
}
1002
{
1000
NOSEL
1070
     0
1002
}
1002
{
1000
BEHIND
1070
     0
1002
}
1002
{
1000
REACTOR
1002
}
1001
GENIUS_GENOBJ-N-FIL_13
1002
{
1000
OWNER
1000
GEN
1002
}
  0
ARC
  5
16473
  8
AM_0
 10
664.41083226211219
 20
199.23370126071029
 30
0.0
 40
110.9999999999999
 50
92.586633228774915
 51
92.622284087959514
  0
LINE
  5
1647B
  8
AM_0
 10
680.44007961817817
 20
308.23696044368251
 30
0.0
 11
680.64562202202592
 21
302.35099610673331
 31
0.0
  0
LINE
  5
1647C
  8
AM_0
 10
670.44288974101062
 20
309.15341438682668
 30
0.0
 11
670.60913821485883
 21
304.39268098182117
 31
0.0
  0
LINE
  5
1647D
  8
AM_0
 10
668.37573405285661
 20
309.1565245652871
 30
0.0
 11
668.21680409149565
 21
304.60536593751328
 31
0.0
  0
LINE
  5
1647E
  8
AM_0
 10
678.37239020820573
 20
308.246442596056
 30
0.0
 11
678.19014712233945
 21
303.0276834301302
 31
0.0
  0
ARC
  5
16480
  8
AM_0
 10
669.44349891399168
 20
309.11851489012417
 30
0.0
 40
0.9999999999999996
 50
1.999999999997129
 51
87.377715912045389
1001
GENIUS_GENODEF_13
1002
{
1000
HIER
1070
     0
1002
}
1002
{
1000
MANEDIT
1070
     0
1002
}
1002
{
1000
NOSEL
1070
     0
1002
}
1002
{
1000
BEHIND
1070
     0
1002
}
1002
{
1000
REACTOR
1002
}
1001
GENIUS_GENOBJ-N-FIL_13
1002
{
1000
OWNER
1000
GEN
1002
}
  0
ARC
  5
16481
  8
AM_0
 10
669.37512487987556
 20
309.12162506858459
 30
0.0
 40
0.9999999999999996
 50
87.413366771225085
 51
177.99999999999631
1001
GENIUS_GENODEF_13
1002
{
1000
HIER
1070
     0
1002
}
1002
{
1000
MANEDIT
1070
     0
1002
}
1002
{
1000
NOSEL
1070
     0
1002
}
1002
{
1000
BEHIND
1070
     0
1002
}
1002
{
1000
REACTOR
1002
}
1001
GENIUS_GENOBJ-N-FIL_13
1002
{
1000
OWNER
1000
GEN
1002
}
  0
ARC
  5
16483
  8
AM_0
 10
664.41083226211219
 20
199.23370126071029
 30
0.0
 40
110.9999999999999
 50
87.377715912040486
 51
87.413366771225085
  0
ARC
  5
16484
  8
AM_0
 10
679.37178103522479
 20
308.21154309935321
 30
0.0
 40
0.9999999999999996
 50
82.183052168307555
 51
178.00000000000281
1001
GENIUS_GENODEF_13
1002
{
1000
HIER
1070
     0
1002
}
1002
{
1000
MANEDIT
1070
     0
1002
}
1002
{
1000
NOSEL
1070
     0
1002
}
1002
{
1000
BEHIND
1070
     0
1002
}
1002
{
1000
REACTOR
1002
}
1001
GENIUS_GENOBJ-N-FIL_13
1002
{
1000
OWNER
1000
GEN
1002
}
  0
ARC
  5
16485
  8
AM_0
 10
679.44068879115957
 20
308.20206094697988
 30
0.0
 40
0.9999999999999996
 50
1.999999999997129
 51
82.146821911194223
1001
GENIUS_GENODEF_13
1002
{
1000
HIER
1070
     0
1002
}
1002
{
1000
MANEDIT
1070
     0
1002
}
1002
{
1000
NOSEL
1070
     0
1002
}
1002
{
1000
BEHIND
1070
     0
1002
}
1002
{
1000
REACTOR
1002
}
1001
GENIUS_GENOBJ-N-FIL_13
1002
{
1000
OWNER
1000
GEN
1002
}
  0
ARC
  5
16486
  8
AM_0
 10
664.41083226211219
 20
199.23370126071029
 30
0.0
 40
110.9999999999999
 50
82.146821911194223
 51
82.183052168307555
  0
ARC
  5
16487
  8
AM_0
 10
689.4380521610525
 20
306.34877146154662
 30
0.0
 40
0.9999999999999996
 50
1.999999999997129
 51
76.848881739345899
1001
GENIUS_GENODEF_13
1002
{
1000
HIER
1070
     0
1002
}
1002
{
1000
MANEDIT
1070
     0
1002
}
1002
{
1000
NOSEL
1070
     0
1002
}
1002
{
1000
BEHIND
1070
     0
1002
}
1002
{
1000
REACTOR
1002
}
1001
GENIUS_GENOBJ-N-FIL_13
1002
{
1000
OWNER
1000
GEN
1002
}
  0
ARC
  5
16488
  8
AM_0
 10
689.36803716608688
 20
306.3651061958692
 30
0.0
 40
0.9999999999999996
 50
76.886329856701593
 51
177.99999999999631
1001
GENIUS_GENODEF_13
1002
{
1000
HIER
1070
     0
1002
}
1002
{
1000
MANEDIT
1070
     0
1002
}
1002
{
1000
NOSEL
1070
     0
1002
}
1002
{
1000
BEHIND
1070
     0
1002
}
1002
{
1000
REACTOR
1002
}
1001
GENIUS_GENOBJ-N-FIL_13
1002
{
1000
OWNER
1000
GEN
1002
}
  0
LINE
  5
1648A
  8
AM_0
 10
688.36864633906805
 20
306.40000569257188
 30
0.0
 11
688.12820460579655
 21
299.51465531883048
 31
0.0
  0
LINE
  5
1648B
  8
AM_0
 10
690.43744298807144
 20
306.38367095824913
 30
0.0
 11
690.68790380990265
 21
299.21141142684888
 31
0.0
  0
LINE
  5
1648C
  8
AM_0
 10
698.36436639571514
 20
303.56765653788051
 30
0.0
 11
698.22377230744564
 21
299.54156861610488
 31
0.0
  0
ARC
  5
1648D
  8
AM_0
 10
664.41083226211219
 20
199.23370126071029
 30
0.0
 40
110.9999999999999
 50
71.433419198101703
 51
71.472857685527131
  0
ARC
  5
1648E
  8
AM_0
 10
699.36375722273453
 20
303.53275704117772
 30
0.0
 40
0.9999999999999996
 50
71.472857685527131
 51
178.00000000000281
1001
GENIUS_GENODEF_13
1002
{
1000
HIER
1070
     0
1002
}
1002
{
1000
MANEDIT
1070
     0
1002
}
1002
{
1000
NOSEL
1070
     0
1002
}
1002
{
1000
BEHIND
1070
     0
1002
}
1002
{
1000
REACTOR
1002
}
1001
GENIUS_GENOBJ-N-FIL_13
1002
{
1000
OWNER
1000
GEN
1002
}
  0
ARC
  5
1648F
  8
AM_0
 10
664.41083226211219
 20
199.23370126071029
 30
0.0
 40
110.9999999999999
 50
76.848881739345899
 51
76.886329856701593
  0
LINE
  5
16492
  8
0
 10
718.41083222892814
 20
303.14358259797137
 30
0.0
 11
718.4108322863492
 21
322.74359223624742
 31
0.0
  0
LINE
  5
16494
  8
ﾁｭｳｼﾝｾﾝ1
 10
714.61601753214813
 20
313.23370126071029
 30
0.0
 11
740.61601753214813
 21
313.23370126071029
 31
0.0
1001
GENIUS_GENODEF_13
1002
{
1000
HIER
1070
     0
1002
}
1002
{
1000
MANEDIT
1070
     0
1002
}
1002
{
1000
NOSEL
1070
     0
1002
}
1002
{
1000
BEHIND
1070
     0
1002
}
1002
{
1000
OTHER
1070
     0
1002
}
1002
{
1000
REACTOR
1002
}
1001
GENIUS_GENOBJ-N-CEN_13
1002
{
1000
OWNER
1000
GEN
1002
}
  0
ARC
  5
16499
  8
0
 10
715.41083222892837
 20
303.14358260676028
 30
0.0
 40
2.9999999999999978
 50
272.00000000000051
 51
359.9999998321465
1001
GENIUS_GENOBJ-N-FIL_13
1002
{
1000
OWNER
1000
GEN
1002
}
1001
GENIUS_GENODEF_13
1002
{
1000
HIER
1070
     0
1002
}
1002
{
1000
MANEDIT
1070
     0
1002
}
1002
{
1000
NOSEL
1070
     0
1002
}
1002
{
1000
BEHIND
1070
     0
1002
}
1002
{
1000
OTHER
1070
     0
1002
}
1002
{
1000
REACTOR
1002
}
  0
LINE
  5
1649A
  8
AM_0
 10
700.4349320848213
 20
303.54357263354029
 30
0.0
 11
700.57182179186145
 21
299.62356431090541
 31
0.0
  0
LINE
  5
1649E
  8
0
 10
720.34103329294419
 20
324.74237388457328
 30
0.0
 11
734.41083232200481
 21
325.23370209326248
 31
0.0
  0
ARC
  5
164A0
  8
0
 10
720.4108322863492
 20
322.74359223053523
 30
0.0
 40
1.9999999999999989
 50
92.000000000000483
 51
179.99999983635439
1001
GENIUS_GENOBJ-N-FIL_13
1002
{
1000
OWNER
1000
GEN
1002
}
1001
GENIUS_GENODEF_13
1002
{
1000
HIER
1070
     0
1002
}
1002
{
1000
MANEDIT
1070
     0
1002
}
1002
{
1000
NOSEL
1070
     0
1002
}
1002
{
1000
BEHIND
1070
     0
1002
}
1002
{
1000
OTHER
1070
     0
1002
}
1002
{
1000
REACTOR
1002
}
  0
CIRCLE
  5
16FCD
  8
AM_0
 10
383.25697993684588
 20
248.23370126071029
 30
0.0
 40
2.5
  0
LINE
  5
16FCE
  8
ｶｸﾚｾﾝ2
 10
298.02830677802319
 20
297.23370126070989
 30
0.0
 11
296.37441847092401
 21
293.50672764250561
 31
0.0
  0
LINE
  5
16FD0
  8
ｶｸﾚｾﾝ2
 10
298.02830677802342
 20
199.23370126071021
 30
0.0
 11
296.37441847092401
 21
202.96067487891489
 31
0.0
  0
LINE
  5
1719A
  8
AM_0
 10
433.15731260127188
 20
480.4978072020138
 30
0.0
 11
298.35664596158051
 21
480.4978072020138
 31
0.0
  0
LINE
  5
1719B
  8
ﾁｭｳｼﾝｾﾝ1
 10
89.014897755561833
 20
518.49782827936906
 30
0.0
 11
439.25698145676421
 21
518.497784829794
 31
0.0
1001
GENIUS_GENODEF_13
1002
{
1000
HIER
1070
     0
1002
}
1002
{
1000
MANEDIT
1070
     0
1002
}
1002
{
1000
NOSEL
1070
     0
1002
}
1002
{
1000
BEHIND
1070
     0
1002
}
1002
{
1000
REACTOR
1002
}
1001
GENIUS_GENOBJ-N-CEN_13
1002
{
1000
OWNER
1000
GEN
1002
}
  0
LINE
  5
1722F
  8
AM_0
 10
297.25697683834079
 20
543.49780907956028
 30
0.0
 11
298.35664622933859
 21
480.49779186215937
 31
0.0
  0
LINE
  5
17230
  8
AM_0
 10
282.38845103373592
 20
462.9657198009586
 30
0.0
 11
282.38846629185042
 21
574.02989757343437
 31
0.0
  0
LINE
  5
17231
  8
AM_0
 10
272.75087385822121
 20
462.49779827936908
 30
0.0
 11
272.75087385822121
 21
574.49781927936897
 31
0.0
  0
LINE
  5
17232
  8
AM_0
 10
283.07250696669939
 20
572.84510231014838
 30
0.0
 11
288.3084598515166
 21
543.15051300665925
 31
0.0
1001
GENIUS_GENODEF_13
1002
{
1000
HIER
1070
     0
1002
}
1002
{
1000
MANEDIT
1070
     0
1002
}
1002
{
1000
NOSEL
1070
     0
1002
}
1002
{
1000
BEHIND
1070
     0
1002
}
1002
{
1000
REACTOR
1002
}
1001
GENIUS_GENOBJ-N-CEN_13
1002
{
1000
OWNER
1000
GEN
1002
}
  0
ARC
  5
17233
  8
AM_0
 10
281.10289096263023
 20
572.49780877936894
 30
0.0
 40
2.0
 50
9.9999917840675501
 51
90.0
1001
GENIUS_GENOBJ-N-CEN_13
1002
{
1000
OWNER
1000
GEN
1002
}
1001
GENIUS_GENODEF_13
1002
{
1000
HIER
1070
     0
1002
}
1002
{
1000
MANEDIT
1070
     0
1002
}
1002
{
1000
NOSEL
1070
     0
1002
}
1002
{
1000
BEHIND
1070
     0
1002
}
1002
{
1000
OTHER
1070
     0
1002
}
1002
{
1000
REACTOR
1002
}
1001
GENIUS_GENOBJ-N-FIL_13
1002
{
1000
OWNER
1000
GEN
1002
}
  0
LINE
  5
17234
  8
AM_0
 10
272.75087385822121
 20
574.49780877936917
 30
0.0
 11
281.10289096263023
 21
574.49780877936917
 31
0.0
  0
LINE
  5
17235
  8
AM_0
 10
296.2742795752248
 20
541.49780907956006
 30
0.0
 11
290.27807540734159
 21
541.49780907956006
 31
0.0
  0
LINE
  5
17236
  8
AM_0
 10
272.75087385822121
 20
564.49783427936893
 30
0.0
 11
282.38846498232249
 21
564.49781292039415
 31
0.0
  0
LINE
  5
17237
  8
AM_0
 10
272.75087385822121
 20
550.43526627936899
 30
0.0
 11
282.38846305073429
 21
550.43773771125996
 31
0.0
  0
ARC
  5
17238
  8
AM_0
 10
290.27807540734159
 20
543.49780907955994
 30
0.0
 40
2.0
 50
189.9999917840675
 51
270.0
1001
GENIUS_GENODEF_13
1002
{
1000
HIER
1070
     0
1002
}
1002
{
1000
MANEDIT
1070
     0
1002
}
1002
{
1000
NOSEL
1070
     0
1002
}
1002
{
1000
BEHIND
1070
     0
1002
}
1002
{
1000
OTHER
1070
     0
1002
}
1002
{
1000
REACTOR
1002
}
1001
GENIUS_GENOBJ-N-FIL_13
1002
{
1000
OWNER
1000
GEN
1002
}
  0
ARC
  5
17239
  8
AM_0
 10
296.2742795752248
 20
542.49780907955994
 30
0.0
 40
1.0
 50
270.0
 51
0.9999999999887256
1001
GENIUS_GENODEF_13
1002
{
1000
HIER
1070
     0
1002
}
1002
{
1000
MANEDIT
1070
     0
1002
}
1002
{
1000
NOSEL
1070
     0
1002
}
1002
{
1000
BEHIND
1070
     0
1002
}
1002
{
1000
OTHER
1070
     0
1002
}
1002
{
1000
REACTOR
1002
}
1001
GENIUS_GENOBJ-N-FIL_13
1002
{
1000
OWNER
1000
GEN
1002
}
  0
LINE
  5
1723A
  8
AM_0
 10
296.35634130549261
 20
482.4978072020138
 30
0.0
 11
287.25697993684588
 21
482.4978072020138
 31
0.0
  0
LINE
  5
1723B
  8
AM_0
 10
283.07249138043358
 20
464.15051214160212
 30
0.0
 11
285.25697993684588
 21
476.53935198847842
 31
0.0
1001
GENIUS_GENODEF_13
1002
{
1000
HIER
1070
     0
1002
}
1002
{
1000
MANEDIT
1070
     0
1002
}
1002
{
1000
NOSEL
1070
     0
1002
}
1002
{
1000
BEHIND
1070
     0
1002
}
1002
{
1000
REACTOR
1002
}
1001
GENIUS_GENOBJ-N-CEN_13
1002
{
1000
OWNER
1000
GEN
1002
}
  0
LINE
  5
1723C
  8
AM_0
 10
272.75087385822121
 20
486.55785877936921
 30
0.0
 11
282.3884542748491
 21
486.55785877936921
 31
0.0
  0
ARC
  5
1723D
  8
AM_0
 10
287.25697993684582
 20
480.49780720201358
 30
0.0
 40
2.0
 50
90.0
 51
180.0
1001
GENIUS_GENODEF_13
1002
{
1000
HIER
1070
     0
1002
}
1002
{
1000
MANEDIT
1070
     0
1002
}
1002
{
1000
NOSEL
1070
     0
1002
}
1002
{
1000
BEHIND
1070
     0
1002
}
1002
{
1000
OTHER
1070
     0
1002
}
1002
{
1000
REACTOR
1002
}
1001
GENIUS_GENOBJ-N-FIL_13
1002
{
1000
OWNER
1000
GEN
1002
}
  0
LINE
  5
1723E
  8
AM_0
 10
285.25697993684588
 20
480.4978072020138
 30
0.0
 11
285.25697993684588
 21
476.53935198847842
 31
0.0
  0
ARC
  5
1723F
  8
AM_0
 10
281.1028759242098
 20
464.49780877936882
 30
0.0
 40
2.0
 50
270.0
 51
349.99999178406978
1001
GENIUS_GENOBJ-N-CEN_13
1002
{
1000
OWNER
1000
GEN
1002
}
1001
GENIUS_GENOBJ-N-FIL_13
1002
{
1000
OWNER
1000
GEN
1002
}
1001
GENIUS_GENODEF_13
1002
{
1000
HIER
1070
     0
1002
}
1002
{
1000
MANEDIT
1070
     0
1002
}
1002
{
1000
NOSEL
1070
     0
1002
}
1002
{
1000
BEHIND
1070
     0
1002
}
1002
{
1000
OTHER
1070
     0
1002
}
1002
{
1000
REACTOR
1002
}
  0
LINE
  5
17240
  8
AM_0
 10
272.75087385822121
 20
472.49780877936911
 30
0.0
 11
282.38845234326442
 21
472.49780877936911
 31
0.0
  0
LINE
  5
17241
  8
AM_0
 10
272.75087385822121
 20
462.49780877936911
 30
0.0
 11
281.10287592420991
 21
462.49780877936911
 31
0.0
  0
ARC
  5
17242
  8
AM_0
 10
296.35634130549261
 20
480.49780720201358
 30
0.0
 40
2.0
 50
1.000000000001755
 51
90.0
1001
GENIUS_GENODEF_13
1002
{
1000
HIER
1070
     0
1002
}
1002
{
1000
MANEDIT
1070
     0
1002
}
1002
{
1000
NOSEL
1070
     0
1002
}
1002
{
1000
BEHIND
1070
     0
1002
}
1002
{
1000
OTHER
1070
     0
1002
}
1002
{
1000
REACTOR
1002
}
1001
GENIUS_GENOBJ-N-FIL_13
1002
{
1000
OWNER
1000
GEN
1002
}
  0
LINE
  5
17243
  8
AM_0
 10
434.25698145676432
 20
543.49779373970705
 30
0.0
 11
433.15731233351391
 21
480.49779186215937
 31
0.0
  0
LINE
  5
17244
  8
ﾁｭｳｼﾝｾﾝ1
 10
383.25697993684588
 20
595.86869392187577
 30
0.0
 11
383.25697993684571
 21
416.17834561332
 31
0.0
  0
LINE
  5
17246
  8
AM_0
 10
410.7569807564098
 20
476.4978070828044
 30
0.0
 11
355.75697911728219
 21
476.4978070828044
 31
0.0
  0
LINE
  5
17247
  8
AM_0
 10
355.75697911728213
 20
476.4978070828044
 30
0.0
 11
355.75697911728213
 21
480.49780720201358
 31
0.0
  0
LINE
  5
1724A
  8
AM_0
 10
410.7569807564098
 20
476.4978070828044
 30
0.0
 11
410.7569807564098
 21
480.4978072020138
 31
0.0
  0
LINE
  5
17347
  8
AM_0
 10
297.25697683834079
 20
543.49780907956028
 30
0.0
 11
434.25698145676432
 21
543.49779373970705
 31
0.0
  0
LINE
  5
17348
  8
AM_0
 10
434.25698145676432
 20
543.49779373970705
 30
0.0
 11
436.25698145676381
 21
588.49780907956006
 31
0.0
  0
LINE
  5
17349
  8
AM_0
 10
436.25698145676381
 20
588.49780907956006
 30
0.0
 11
295.25697737384581
 21
588.49780907956028
 31
0.0
  0
LINE
  5
1734A
  8
AM_0
 10
297.25697683834079
 20
543.49780907956028
 30
0.0
 11
295.25697737384581
 21
588.49780907956028
 31
0.0
  0
LINE
  5
1734B
  8
AM_0
 10
295.9680882961473
 20
572.49780904373756
 30
0.0
 11
435.5458705864682
 21
572.49780904373756
 31
0.0
  0
LINE
  5
1734C
  8
AM_0
 10
431.756981128939
 20
478.90780720201383
 30
0.0
 11
414.75698112893889
 21
478.90780720201383
 31
0.0
  0
LINE
  5
1734D
  8
0
 10
431.75698112893889
 20
480.4978072020138
 30
0.0
 11
431.75698112893889
 21
478.90780720201383
 31
0.0
  0
LINE
  5
1734E
  8
0
 10
429.75698112893878
 20
470.90780720201411
 30
0.0
 11
429.75698112893878
 21
478.90780720201383
 31
0.0
  0
LINE
  5
1734F
  8
0
 10
416.75698112893872
 20
478.90780720201383
 30
0.0
 11
416.75698112893872
 21
470.90780720201411
 31
0.0
  0
LINE
  5
17350
  8
0
 10
414.75698112893889
 20
480.4978072020138
 30
0.0
 11
414.75698112893889
 21
478.90780720201383
 31
0.0
  0
LINE
  5
17351
  8
AM_0
 10
416.75698112893872
 20
470.90780720201411
 30
0.0
 11
429.75698112893878
 21
470.90780720201388
 31
0.0
  0
LINE
  5
17352
  8
AM_0
 10
316.75697770167187
 20
478.90780720201383
 30
0.0
 11
299.75697770167181
 21
478.90780720201383
 31
0.0
  0
LINE
  5
17353
  8
0
 10
316.7569777016717
 20
480.49780720201358
 30
0.0
 11
316.7569777016717
 21
478.90780720201383
 31
0.0
  0
LINE
  5
17354
  8
0
 10
314.7569777016717
 20
470.90780720201388
 30
0.0
 11
314.7569777016717
 21
478.90780720201383
 31
0.0
  0
LINE
  5
17355
  8
0
 10
301.75697770167181
 20
478.90780720201383
 30
0.0
 11
301.75697770167181
 21
470.90780720201411
 31
0.0
  0
LINE
  5
17356
  8
0
 10
299.75697770167181
 20
480.4978072020138
 30
0.0
 11
299.75697770167181
 21
478.90780720201383
 31
0.0
  0
LINE
  5
17357
  8
AM_0
 10
301.75697770167181
 20
470.90780720201411
 30
0.0
 11
314.7569777016717
 21
470.90780720201383
 31
0.0
  0
LINE
  5
17358
  8
AM_0
 10
419.7988099472197
 20
588.49780907956028
 30
0.0
 11
419.79880994721958
 21
572.49780904373756
 31
0.0
  0
LINE
  5
17359
  8
AM_0
 10
311.7151488833901
 20
588.49780907956028
 30
0.0
 11
311.7151488833901
 21
572.49780904373756
 31
0.0
  0
LINE
  5
1735A
  8
ﾁｭｳｼﾝｾﾝ1
 10
413.25697889376409
 20
593.49780907956028
 30
0.0
 11
413.25697889376409
 21
567.49780904373756
 31
0.0
  0
LINE
  5
1735B
  8
ﾁｭｳｼﾝｾﾝ1
 10
318.25697993702062
 20
593.49780907956028
 30
0.0
 11
318.25697993702062
 21
567.49780904373756
 31
0.0
  0
LINE
  5
17366
  8
AM_0
 10
718.41083222044085
 20
300.24651627436288
 30
0.0
 11
734.41083222209477
 21
300.24651627436288
 31
0.0
  0
LINE
  5
17367
  8
AM_0
 10
718.41083222044085
 20
196.22088623169799
 30
0.0
 11
734.41083222209477
 21
196.22088623169799
 31
0.0
  0
LINE
  5
17368
  8
0
 10
398.25698038388072
 20
473.49780661339719
 30
0.0
 11
395.25697993684599
 21
449.4978066133973
 31
0.0
  0
LINE
  5
17369
  8
0
 10
368.25697948981121
 20
473.49780661339719
 30
0.0
 11
371.25697993684599
 21
449.4978066133973
 31
0.0
  0
LINE
  5
1736A
  8
AM_0
 10
371.25697993684599
 20
449.4978066133973
 30
0.0
 11
395.25697993684599
 21
449.4978066133973
 31
0.0
  0
LINE
  5
1736B
  8
0
 10
392.75697993684599
 20
421.49780661339719
 30
0.0
 11
373.75697993684599
 21
421.49780661339707
 31
0.0
  0
LINE
  5
1736C
  8
0
 10
392.75697993684599
 20
421.49780661339719
 30
0.0
 11
392.75697993980799
 21
449.4978066133973
 31
0.0
  0
LINE
  5
1736E
  8
0
 10
373.75697993684599
 20
449.4978066133973
 30
0.0
 11
373.75697993684599
 21
421.49780661339719
 31
0.0
  0
LINE
  5
17370
  8
AM_0
 10
368.25697948981121
 20
473.49780661339719
 30
0.0
 11
398.25698038388072
 21
473.49780661339719
 31
0.0
  0
LINE
  5
17371
  8
AM_0
 10
398.25698038388072
 20
473.49780661339719
 30
0.0
 11
398.25698038388072
 21
476.4978067028041
 31
0.0
  0
LINE
  5
17372
  8
AM_0
 10
368.25697948981121
 20
473.49780661339719
 30
0.0
 11
368.25697948981121
 21
476.49780670280433
 31
0.0
  0
LINE
  5
173B3
  8
AM_0
 10
380.25697993684599
 20
421.49780661339707
 30
0.0
 11
380.25697993684588
 21
443.4978066133973
 31
0.0
  0
LINE
  5
173B9
  8
AM_0
 10
386.25697993684599
 20
421.49780661339707
 30
0.0
 11
386.25697993684599
 21
443.4978066133973
 31
0.0
  0
LINE
  5
173BA
  8
AM_0
 10
380.25697993684588
 20
443.4978066133973
 30
0.0
 11
386.25697993684599
 21
443.4978066133973
 31
0.0
  0
ARC
  5
173BB
  8
AM_0
 10
383.25697993684588
 20
443.4978066133973
 30
0.0
 40
3.0
 50
0.0
 51
180.0
  0
LINE
  5
18296
  8
AM_0
 10
634.41083207211193
 20
185.73370126071029
 30
0.0
 11
694.41083207211193
 21
185.73370126071029
 31
0.0
  0
LINE
  5
18297
  8
AM_0
 10
634.41083207211193
 20
198.19372832484899
 30
0.0
 11
634.41083207211193
 21
181.73370126071049
 31
0.0
  0
LINE
  5
18298
  8
AM_0
 10
694.41083207211204
 20
197.32097505242791
 30
0.0
 11
694.41083207211193
 21
181.7337012607106
 31
0.0
  0
LINE
  5
18299
  8
AM_0
 10
659.4704590974552
 20
310.12098735667331
 30
0.0
 11
659.4704590974552
 21
313.23370175244872
 31
0.0
  0
LINE
  5
1829A
  8
AM_0
 10
662.67045909745536
 20
312.46596513459019
 30
0.0
 11
662.67045909745525
 21
313.23370175244872
 31
0.0
  0
LINE
  5
1829B
  8
AM_0
 10
659.4704590974552
 20
313.23370175244872
 30
0.0
 11
662.67045909745525
 21
313.23370175244872
 31
0.0
  0
CIRCLE
  5
1829C
  8
AM_0
 10
664.47045909745555
 20
310.73973479469021
 30
0.0
 40
2.4939669577585151
  0
LINE
  5
1829D
  8
AM_0
 10
662.67045909745525
 20
306.98370175244872
 30
0.0
 11
662.67045909745536
 21
309.01350445479022
 31
0.0
  0
LINE
  5
1829E
  8
AM_0
 10
662.67045909745525
 20
306.98370175244872
 30
0.0
 11
666.27045909745539
 21
306.98370175244872
 31
0.0
  0
LINE
  5
1829F
  8
AM_0
 10
666.27045909745539
 20
313.23370175244872
 30
0.0
 11
669.47045909745532
 21
313.23370175244872
 31
0.0
  0
LINE
  5
182A0
  8
AM_0
 10
666.27045909745539
 20
306.98370175244872
 30
0.0
 11
666.27045909745539
 21
309.01350445479
 31
0.0
  0
LINE
  5
182A1
  8
AM_0
 10
664.47045909745532
 20
308.24576783693169
 30
0.0
 11
666.27045909745561
 21
308.2457678369318
 31
0.0
  0
LINE
  5
182A2
  8
AM_0
 10
666.27045909745539
 20
312.46596513459042
 30
0.0
 11
666.27045909745539
 21
313.23370175244872
 31
0.0
  0
LINE
  5
182A3
  8
AM_0
 10
664.47045909745532
 20
313.23370175244872
 30
0.0
 11
666.27045909745561
 21
313.23370175244878
 31
0.0
  0
LINE
  5
182A4
  8
AM_0
 10
669.4704590974552
 20
310.11798119263523
 30
0.0
 11
669.47045909745532
 21
313.23370175244872
 31
0.0
  0
LINE
  5
182A5
  8
AM_0
 10
669.47045909745532
 20
313.23370175244872
 30
0.0
 11
686.32123490728111
 21
313.23370175244872
 31
0.0
  0
LINE
  5
182A6
  8
AM_0
 10
670.53421229230287
 20
308.24576783693169
 30
0.0
 11
678.43199348044141
 21
308.24576783693158
 31
0.0
  0
LINE
  5
182A7
  8
AM_0
 10
680.49939889257223
 20
308.24576783693169
 30
0.0
 11
685.47045909745509
 21
308.24576783693169
 31
0.0
  0
ARC
  5
182A8
  8
AM_0
 10
685.47045909745509
 20
283.24576783693169
 30
0.0
 40
25.0
 50
57.467847186513779
 51
90.0
1001
GENIUS_GENOBJ-N-FIL_13
1002
{
1000
OWNER
1000
GEN
1002
}
1001
GENIUS_GENODEF_13
1002
{
1000
HIER
1070
     0
1002
}
1002
{
1000
MANEDIT
1070
     0
1002
}
1002
{
1000
NOSEL
1070
     0
1002
}
1002
{
1000
BEHIND
1070
     0
1002
}
1002
{
1000
OTHER
1070
     0
1002
}
1002
{
1000
REACTOR
1002
}
  0
ARC
  5
182A9
  8
AM_0
 10
685.47045909745509
 20
283.24576783693169
 30
0.0
 40
30.0
 50
33.872197976287723
 51
88.374920016406037
1001
GENIUS_GENOBJ-N-FIL_13
1002
{
1000
OWNER
1000
GEN
1002
}
1001
GENIUS_GENODEF_13
1002
{
1000
HIER
1070
     0
1002
}
1002
{
1000
MANEDIT
1070
     0
1002
}
1002
{
1000
NOSEL
1070
     0
1002
}
1002
{
1000
BEHIND
1070
     0
1002
}
1002
{
1000
OTHER
1070
     0
1002
}
1002
{
1000
REACTOR
1002
}
  0
ARC
  5
182AA
  8
AM_0
 10
685.47045909745509
 20
283.24576783693169
 30
0.0
 40
25.0
 50
41.318565358690563
 51
53.155059700517981
1001
GENIUS_GENOBJ-N-FIL_13
1002
{
1000
OWNER
1000
GEN
1002
}
1001
GENIUS_GENODEF_13
1002
{
1000
HIER
1070
     0
1002
}
1002
{
1000
MANEDIT
1070
     0
1002
}
1002
{
1000
NOSEL
1070
     0
1002
}
1002
{
1000
BEHIND
1070
     0
1002
}
1002
{
1000
OTHER
1070
     0
1002
}
1002
{
1000
REACTOR
1002
}
  0
ARC
  5
182AB
  8
AM_0
 10
685.47045909745509
 20
213.22163468448889
 30
0.0
 40
30.0
 50
287.45760312371908
 51
326.12780202371232
1001
GENIUS_GENOBJ-N-FIL_13
1002
{
1000
OWNER
1000
GEN
1002
}
1001
GENIUS_GENODEF_13
1002
{
1000
HIER
1070
     0
1002
}
1002
{
1000
MANEDIT
1070
     0
1002
}
1002
{
1000
NOSEL
1070
     0
1002
}
1002
{
1000
BEHIND
1070
     0
1002
}
1002
{
1000
OTHER
1070
     0
1002
}
1002
{
1000
REACTOR
1002
}
  0
ARC
  5
182AC
  8
AM_0
 10
685.47045909745509
 20
213.22163468448889
 30
0.0
 40
25.0
 50
307.00156130594928
 51
318.68143464130941
1001
GENIUS_GENOBJ-N-FIL_13
1002
{
1000
OWNER
1000
GEN
1002
}
1001
GENIUS_GENODEF_13
1002
{
1000
HIER
1070
     0
1002
}
1002
{
1000
MANEDIT
1070
     0
1002
}
1002
{
1000
NOSEL
1070
     0
1002
}
1002
{
1000
BEHIND
1070
     0
1002
}
1002
{
1000
OTHER
1070
     0
1002
}
1002
{
1000
REACTOR
1002
}
  0
ARC
  5
182AD
  8
AM_0
 10
685.47045909745509
 20
213.22163468448889
 30
0.0
 40
25.0
 50
291.10019602408693
 51
301.02616100631201
1001
GENIUS_GENOBJ-N-FIL_13
1002
{
1000
OWNER
1000
GEN
1002
}
1001
GENIUS_GENODEF_13
1002
{
1000
HIER
1070
     0
1002
}
1002
{
1000
MANEDIT
1070
     0
1002
}
1002
{
1000
NOSEL
1070
     0
1002
}
1002
{
1000
BEHIND
1070
     0
1002
}
1002
{
1000
OTHER
1070
     0
1002
}
1002
{
1000
REACTOR
1002
}
  0
LINE
  5
182AE
  8
AM_0
 10
658.91082582194804
 20
172.01691482048261
 30
0.0
 11
669.91082582194781
 21
172.01691482048261
 31
0.0
  0
LINE
  5
182AF
  8
AM_0
 10
633.01082582194761
 20
144.7337012607104
 30
0.0
 11
695.81082582194722
 21
144.7337012607104
 31
0.0
  0
LINE
  5
182B0
  8
AM_0
 10
697.91088660738865
 20
181.73370126071049
 30
0.0
 11
630.91083582194824
 21
181.73370126071049
 31
0.0
  0
LINE
  5
182B1
  8
AM_0
 10
699.41082582194952
 20
178.73370126071069
 30
0.0
 11
629.41082582194963
 21
178.73370126071069
 31
0.0
  0
LINE
  5
182B2
  8
AM_0
 10
700.41082582194952
 20
157.7337012607104
 30
0.0
 11
628.41082582194952
 21
157.7337012607104
 31
0.0
  0
LINE
  5
182B3
  8
AM_0
 10
658.91082582194804
 20
157.73370126071069
 30
0.0
 11
658.91082582194804
 21
172.01691482048261
 31
0.0
  0
LINE
  5
182B4
  8
AM_0
 10
639.91082582194963
 20
177.7337012607108
 30
0.0
 11
639.91082582194963
 21
161.73370126071049
 31
0.0
  0
LINE
  5
182B5
  8
AM_0
 10
628.41082582194952
 20
177.7337012607108
 30
0.0
 11
628.41082582194952
 21
145.23370126071049
 31
0.0
  0
LINE
  5
182B6
  8
AM_0
 10
640.78067430293072
 20
157.7337012607104
 30
0.0
 11
640.78067430293072
 21
147.23370126070631
 31
0.0
  0
LINE
  5
182B7
  8
AM_0
 10
630.51082582194761
 20
156.26870126071049
 30
0.0
 11
630.51082582194761
 21
147.2337012607104
 31
0.0
  0
ARC
  5
182B8
  8
AM_0
 10
633.01082582194761
 20
147.2337012607104
 30
0.0
 40
2.4999999999999991
 50
180.0
 51
270.0
  0
ARC
  5
182B9
  8
AM_0
 10
628.91082582194804
 20
145.23370126071049
 30
0.0
 40
0.5
 50
180.0
 51
270.0
  0
LINE
  5
182BA
  8
AM_0
 10
628.91082582194804
 20
144.7337012607104
 30
0.0
 11
633.01082582194761
 21
144.7337012607104
 31
0.0
  0
POLYLINE
  5
182BB
  8
AM_0
 66
     1
 10
0.0
 20
0.0
 30
0.0
 70
     8
  0
VERTEX
  5
182BC
  8
AM_0
 10
640.78041101890472
 20
147.23365419563629
 30
0.0
 70
    32
  0
VERTEX
  5
182BD
  8
AM_0
 10
640.78041101890472
 20
147.2296541956365
 30
0.0
 70
    32
  0
VERTEX
  5
182BE
  8
AM_0
 10
640.78041101890472
 20
147.22565419563659
 30
0.0
 70
    32
  0
VERTEX
  5
182BF
  8
AM_0
 10
640.78041101890472
 20
147.2206541956364
 30
0.0
 70
    32
  0
VERTEX
  5
182C0
  8
AM_0
 10
640.78041101890472
 20
147.21665419563629
 30
0.0
 70
    32
  0
VERTEX
  5
182C1
  8
AM_0
 10
640.78041101890472
 20
147.21265419563659
 30
0.0
 70
    32
  0
VERTEX
  5
182C2
  8
AM_0
 10
640.78041101890472
 20
147.20765419563651
 30
0.0
 70
    32
  0
VERTEX
  5
182C3
  8
AM_0
 10
640.78141101890503
 20
147.20365419563669
 30
0.0
 70
    32
  0
VERTEX
  5
182C4
  8
AM_0
 10
640.78141101890503
 20
147.19965419563641
 30
0.0
 70
    32
  0
VERTEX
  5
182C5
  8
AM_0
 10
640.78141101890503
 20
147.19565419563639
 30
0.0
 70
    32
  0
VERTEX
  5
182C6
  8
AM_0
 10
640.78141101890503
 20
147.1906541956364
 30
0.0
 70
    32
  0
VERTEX
  5
182C7
  8
AM_0
 10
640.78141101890503
 20
147.18665419563609
 30
0.0
 70
    32
  0
VERTEX
  5
182C8
  8
AM_0
 10
640.78141101890503
 20
147.1826541956365
 30
0.0
 70
    32
  0
VERTEX
  5
182C9
  8
AM_0
 10
640.78141101890503
 20
147.1786541956364
 30
0.0
 70
    32
  0
VERTEX
  5
182CA
  8
AM_0
 10
640.78141101890503
 20
147.1736541956364
 30
0.0
 70
    32
  0
VERTEX
  5
182CB
  8
AM_0
 10
640.78141101890503
 20
147.1696541956363
 30
0.0
 70
    32
  0
VERTEX
  5
182CC
  8
AM_0
 10
640.78141101890503
 20
147.16565419563659
 30
0.0
 70
    32
  0
VERTEX
  5
182CD
  8
AM_0
 10
640.78141101890503
 20
147.16065419563631
 30
0.0
 70
    32
  0
VERTEX
  5
182CE
  8
AM_0
 10
640.78141101890503
 20
147.15665419563669
 30
0.0
 70
    32
  0
VERTEX
  5
182CF
  8
AM_0
 10
640.78141101890503
 20
147.15265419563619
 30
0.0
 70
    32
  0
VERTEX
  5
182D0
  8
AM_0
 10
640.78141101890503
 20
147.1486541956364
 30
0.0
 70
    32
  0
VERTEX
  5
182D1
  8
AM_0
 10
640.78141101890503
 20
147.1436541956364
 30
0.0
 70
    32
  0
VERTEX
  5
182D2
  8
AM_0
 10
640.78141101890503
 20
147.1396541956363
 30
0.0
 70
    32
  0
VERTEX
  5
182D3
  8
AM_0
 10
640.78141101890503
 20
147.1356541956365
 30
0.0
 70
    32
  0
VERTEX
  5
182D4
  8
AM_0
 10
640.78141101890503
 20
147.1316541956364
 30
0.0
 70
    32
  0
VERTEX
  5
182D5
  8
AM_0
 10
640.78241101890455
 20
147.12665419563641
 30
0.0
 70
    32
  0
VERTEX
  5
182D6
  8
AM_0
 10
640.78241101890455
 20
147.12265419563619
 30
0.0
 70
    32
  0
VERTEX
  5
182D7
  8
AM_0
 10
640.78241101890455
 20
147.11865419563659
 30
0.0
 70
    32
  0
VERTEX
  5
182D8
  8
AM_0
 10
640.78241101890455
 20
147.11465419563601
 30
0.0
 70
    32
  0
VERTEX
  5
182D9
  8
AM_0
 10
640.78241101890455
 20
147.10965419563661
 30
0.0
 70
    32
  0
VERTEX
  5
182DA
  8
AM_0
 10
640.78241101890455
 20
147.10565419563619
 30
0.0
 70
    32
  0
VERTEX
  5
182DB
  8
AM_0
 10
640.78241101890455
 20
147.1016541956364
 30
0.0
 70
    32
  0
VERTEX
  5
182DC
  8
AM_0
 10
640.78241101890455
 20
147.0966541956364
 30
0.0
 70
    32
  0
VERTEX
  5
182DD
  8
AM_0
 10
640.78241101890455
 20
147.09265419563619
 30
0.0
 70
    32
  0
VERTEX
  5
182DE
  8
AM_0
 10
640.78241101890455
 20
147.08865419563651
 30
0.0
 70
    32
  0
VERTEX
  5
182DF
  8
AM_0
 10
640.7834110189051
 20
147.08465419563629
 30
0.0
 70
    32
  0
VERTEX
  5
182E0
  8
AM_0
 10
640.7834110189051
 20
147.07965419563629
 30
0.0
 70
    32
  0
VERTEX
  5
182E1
  8
AM_0
 10
640.7834110189051
 20
147.07565419563619
 30
0.0
 70
    32
  0
VERTEX
  5
182E2
  8
AM_0
 10
640.7834110189051
 20
147.0716541956366
 30
0.0
 70
    32
  0
VERTEX
  5
182E3
  8
AM_0
 10
640.7834110189051
 20
147.06765419563649
 30
0.0
 70
    32
  0
VERTEX
  5
182E4
  8
AM_0
 10
640.7834110189051
 20
147.06265419563661
 30
0.0
 70
    32
  0
VERTEX
  5
182E5
  8
AM_0
 10
640.7834110189051
 20
147.05865419563611
 30
0.0
 70
    32
  0
VERTEX
  5
182E6
  8
AM_0
 10
640.78441101890485
 20
147.05465419563629
 30
0.0
 70
    32
  0
VERTEX
  5
182E7
  8
AM_0
 10
640.78441101890485
 20
147.05065419563641
 30
0.0
 70
    32
  0
VERTEX
  5
182E8
  8
AM_0
 10
640.78441101890485
 20
147.04565419563659
 30
0.0
 70
    32
  0
VERTEX
  5
182E9
  8
AM_0
 10
640.78441101890485
 20
147.0416541956364
 30
0.0
 70
    32
  0
VERTEX
  5
182EA
  8
AM_0
 10
640.78441101890485
 20
147.03765419563649
 30
0.0
 70
    32
  0
VERTEX
  5
182EB
  8
AM_0
 10
640.78441101890485
 20
147.03265419563661
 30
0.0
 70
    32
  0
VERTEX
  5
182EC
  8
AM_0
 10
640.78441101890485
 20
147.02865419563619
 30
0.0
 70
    32
  0
VERTEX
  5
182ED
  8
AM_0
 10
640.78541101890471
 20
147.0246541956364
 30
0.0
 70
    32
  0
VERTEX
  5
182EE
  8
AM_0
 10
640.78541101890471
 20
147.02065419563661
 30
0.0
 70
    32
  0
VERTEX
  5
182EF
  8
AM_0
 10
640.78541101890471
 20
147.01565419563661
 30
0.0
 70
    32
  0
VERTEX
  5
182F0
  8
AM_0
 10
640.78541101890471
 20
147.01165419563631
 30
0.0
 70
    32
  0
VERTEX
  5
182F1
  8
AM_0
 10
640.78541101890471
 20
147.00765419563629
 30
0.0
 70
    32
  0
VERTEX
  5
182F2
  8
AM_0
 10
640.78641101890503
 20
147.00365419563619
 30
0.0
 70
    32
  0
VERTEX
  5
182F3
  8
AM_0
 10
640.78641101890503
 20
146.9986541956365
 30
0.0
 70
    32
  0
VERTEX
  5
182F4
  8
AM_0
 10
640.78641101890503
 20
146.9946541956364
 30
0.0
 70
    32
  0
VERTEX
  5
182F5
  8
AM_0
 10
640.78641101890503
 20
146.99065419563641
 30
0.0
 70
    32
  0
VERTEX
  5
182F6
  8
AM_0
 10
640.78641101890503
 20
146.9866541956365
 30
0.0
 70
    32
  0
VERTEX
  5
182F7
  8
AM_0
 10
640.78641101890503
 20
146.9816541956362
 30
0.0
 70
    32
  0
VERTEX
  5
182F8
  8
AM_0
 10
640.78741101890455
 20
146.97765419563629
 30
0.0
 70
    32
  0
VERTEX
  5
182F9
  8
AM_0
 10
640.78741101890455
 20
146.97365419563661
 30
0.0
 70
    32
  0
VERTEX
  5
182FA
  8
AM_0
 10
640.78741101890455
 20
146.96965419563639
 30
0.0
 70
    32
  0
VERTEX
  5
182FB
  8
AM_0
 10
640.78741101890455
 20
146.9646541956364
 30
0.0
 70
    32
  0
VERTEX
  5
182FC
  8
AM_0
 10
640.78841101890475
 20
146.96065419563649
 30
0.0
 70
    32
  0
VERTEX
  5
182FD
  8
AM_0
 10
640.78841101890475
 20
146.9566541956363
 30
0.0
 70
    32
  0
VERTEX
  5
182FE
  8
AM_0
 10
640.78841101890475
 20
146.95165419563619
 30
0.0
 70
    32
  0
VERTEX
  5
182FF
  8
AM_0
 10
640.78841101890475
 20
146.9476541956364
 30
0.0
 70
    32
  0
VERTEX
  5
18300
  8
AM_0
 10
640.78841101890475
 20
146.94365419563641
 30
0.0
 70
    32
  0
VERTEX
  5
18301
  8
AM_0
 10
640.78941101890484
 20
146.93965419563631
 30
0.0
 70
    32
  0
VERTEX
  5
18302
  8
AM_0
 10
640.78941101890484
 20
146.93465419563631
 30
0.0
 70
    32
  0
VERTEX
  5
18303
  8
AM_0
 10
640.78941101890484
 20
146.93065419563649
 30
0.0
 70
    32
  0
VERTEX
  5
18304
  8
AM_0
 10
640.78941101890484
 20
146.9266541956365
 30
0.0
 70
    32
  0
VERTEX
  5
18305
  8
AM_0
 10
640.79041101890471
 20
146.9226541956364
 30
0.0
 70
    32
  0
VERTEX
  5
18306
  8
AM_0
 10
640.79041101890471
 20
146.9176541956364
 30
0.0
 70
    32
  0
VERTEX
  5
18307
  8
AM_0
 10
640.79041101890471
 20
146.9136541956363
 30
0.0
 70
    32
  0
VERTEX
  5
18308
  8
AM_0
 10
640.79141101890468
 20
146.90965419563611
 30
0.0
 70
    32
  0
VERTEX
  5
18309
  8
AM_0
 10
640.79141101890468
 20
146.90565419563629
 30
0.0
 70
    32
  0
VERTEX
  5
1830A
  8
AM_0
 10
640.79141101890468
 20
146.90065419563641
 30
0.0
 70
    32
  0
VERTEX
  5
1830B
  8
AM_0
 10
640.79141101890468
 20
146.89665419563639
 30
0.0
 70
    32
  0
VERTEX
  5
1830C
  8
AM_0
 10
640.79241101890489
 20
146.89265419563631
 30
0.0
 70
    32
  0
VERTEX
  5
1830D
  8
AM_0
 10
640.79241101890489
 20
146.8886541956366
 30
0.0
 70
    32
  0
VERTEX
  5
1830E
  8
AM_0
 10
640.79241101890489
 20
146.8836541956365
 30
0.0
 70
    32
  0
VERTEX
  5
1830F
  8
AM_0
 10
640.79241101890489
 20
146.8796541956365
 30
0.0
 70
    32
  0
VERTEX
  5
18310
  8
AM_0
 10
640.79341101890486
 20
146.8756541956364
 30
0.0
 70
    32
  0
VERTEX
  5
18311
  8
AM_0
 10
640.79341101890486
 20
146.8716541956363
 30
0.0
 70
    32
  0
VERTEX
  5
18312
  8
AM_0
 10
640.79341101890486
 20
146.86665419563619
 30
0.0
 70
    32
  0
VERTEX
  5
18313
  8
AM_0
 10
640.79441101890484
 20
146.86265419563651
 30
0.0
 70
    32
  0
VERTEX
  5
18314
  8
AM_0
 10
640.79441101890484
 20
146.85865419563629
 30
0.0
 70
    32
  0
VERTEX
  5
18315
  8
AM_0
 10
640.79441101890484
 20
146.8536541956363
 30
0.0
 70
    32
  0
VERTEX
  5
18316
  8
AM_0
 10
640.7954110189047
 20
146.84965419563639
 30
0.0
 70
    32
  0
VERTEX
  5
18317
  8
AM_0
 10
640.7954110189047
 20
146.8456541956362
 30
0.0
 70
    32
  0
VERTEX
  5
18318
  8
AM_0
 10
640.7954110189047
 20
146.84165419563629
 30
0.0
 70
    32
  0
VERTEX
  5
18319
  8
AM_0
 10
640.79641101890456
 20
146.8366541956363
 30
0.0
 70
    32
  0
VERTEX
  5
1831A
  8
AM_0
 10
640.79641101890456
 20
146.83265419563651
 30
0.0
 70
    32
  0
VERTEX
  5
1831B
  8
AM_0
 10
640.79641101890456
 20
146.82865419563669
 30
0.0
 70
    32
  0
VERTEX
  5
1831C
  8
AM_0
 10
640.79741101890488
 20
146.82465419563641
 30
0.0
 70
    32
  0
VERTEX
  5
1831D
  8
AM_0
 10
640.79741101890488
 20
146.81965419563619
 30
0.0
 70
    32
  0
VERTEX
  5
1831E
  8
AM_0
 10
640.79741101890488
 20
146.8156541956364
 30
0.0
 70
    32
  0
VERTEX
  5
1831F
  8
AM_0
 10
640.79841101890474
 20
146.81165419563629
 30
0.0
 70
    32
  0
VERTEX
  5
18320
  8
AM_0
 10
640.79841101890474
 20
146.8076541956365
 30
0.0
 70
    32
  0
VERTEX
  5
18321
  8
AM_0
 10
640.79841101890474
 20
146.80265419563631
 30
0.0
 70
    32
  0
VERTEX
  5
18322
  8
AM_0
 10
640.79941101890483
 20
146.7986541956362
 30
0.0
 70
    32
  0
VERTEX
  5
18323
  8
AM_0
 10
640.79941101890483
 20
146.79465419563661
 30
0.0
 70
    32
  0
VERTEX
  5
18324
  8
AM_0
 10
640.8004110189047
 20
146.79065419563659
 30
0.0
 70
    32
  0
VERTEX
  5
18325
  8
AM_0
 10
640.8004110189047
 20
146.78565419563651
 30
0.0
 70
    32
  0
VERTEX
  5
18326
  8
AM_0
 10
640.8004110189047
 20
146.78165419563669
 30
0.0
 70
    32
  0
VERTEX
  5
18327
  8
AM_0
 10
640.80141101890501
 20
146.7776541956365
 30
0.0
 70
    32
  0
VERTEX
  5
18328
  8
AM_0
 10
640.80141101890501
 20
146.7736541956366
 30
0.0
 70
    32
  0
VERTEX
  5
18329
  8
AM_0
 10
640.80241101890488
 20
146.7686541956362
 30
0.0
 70
    32
  0
VERTEX
  5
1832A
  8
AM_0
 10
640.80241101890488
 20
146.76465419563661
 30
0.0
 70
    32
  0
VERTEX
  5
1832B
  8
AM_0
 10
640.80241101890488
 20
146.7606541956365
 30
0.0
 70
    32
  0
VERTEX
  5
1832C
  8
AM_0
 10
640.80341101890497
 20
146.75665419563629
 30
0.0
 70
    32
  0
VERTEX
  5
1832D
  8
AM_0
 10
640.80341101890497
 20
146.75165419563641
 30
0.0
 70
    32
  0
VERTEX
  5
1832E
  8
AM_0
 10
640.80441101890483
 20
146.74765419563661
 30
0.0
 70
    32
  0
VERTEX
  5
1832F
  8
AM_0
 10
640.80441101890483
 20
146.74365419563659
 30
0.0
 70
    32
  0
VERTEX
  5
18330
  8
AM_0
 10
640.80541101890469
 20
146.73965419563649
 30
0.0
 70
    32
  0
VERTEX
  5
18331
  8
AM_0
 10
640.80541101890469
 20
146.73465419563661
 30
0.0
 70
    32
  0
VERTEX
  5
18332
  8
AM_0
 10
640.80541101890469
 20
146.7306541956365
 30
0.0
 70
    32
  0
VERTEX
  5
18333
  8
AM_0
 10
640.80641101890501
 20
146.7266541956364
 30
0.0
 70
    32
  0
VERTEX
  5
18334
  8
AM_0
 10
640.80641101890501
 20
146.72265419563641
 30
0.0
 70
    32
  0
VERTEX
  5
18335
  8
AM_0
 10
640.80741101890487
 20
146.71765419563661
 30
0.0
 70
    32
  0
VERTEX
  5
18336
  8
AM_0
 10
640.80741101890487
 20
146.71365419563631
 30
0.0
 70
    32
  0
VERTEX
  5
18337
  8
AM_0
 10
640.80841101890474
 20
146.70965419563629
 30
0.0
 70
    32
  0
VERTEX
  5
18338
  8
AM_0
 10
640.80841101890474
 20
146.7056541956365
 30
0.0
 70
    32
  0
VERTEX
  5
18339
  8
AM_0
 10
640.80941101890483
 20
146.70165419563639
 30
0.0
 70
    32
  0
VERTEX
  5
1833A
  8
AM_0
 10
640.80941101890483
 20
146.6966541956364
 30
0.0
 70
    32
  0
VERTEX
  5
1833B
  8
AM_0
 10
640.81041101890514
 20
146.69265419563629
 30
0.0
 70
    32
  0
VERTEX
  5
1833C
  8
AM_0
 10
640.81041101890514
 20
146.6886541956363
 30
0.0
 70
    32
  0
VERTEX
  5
1833D
  8
AM_0
 10
640.81141101890501
 20
146.68465419563631
 30
0.0
 70
    32
  0
VERTEX
  5
1833E
  8
AM_0
 10
640.81141101890501
 20
146.67965419563629
 30
0.0
 70
    32
  0
VERTEX
  5
1833F
  8
AM_0
 10
640.81241101890521
 20
146.67565419563641
 30
0.0
 70
    32
  0
VERTEX
  5
18340
  8
AM_0
 10
640.81241101890521
 20
146.67165419563639
 30
0.0
 70
    32
  0
VERTEX
  5
18341
  8
AM_0
 10
640.81341101890507
 20
146.6676541956366
 30
0.0
 70
    32
  0
VERTEX
  5
18342
  8
AM_0
 10
640.81341101890507
 20
146.66265419563649
 30
0.0
 70
    32
  0
VERTEX
  5
18343
  8
AM_0
 10
640.81441101890459
 20
146.6586541956363
 30
0.0
 70
    32
  0
VERTEX
  5
18344
  8
AM_0
 10
640.81441101890459
 20
146.6546541956364
 30
0.0
 70
    32
  0
VERTEX
  5
18345
  8
AM_0
 10
640.81541101890457
 20
146.65065419563629
 30
0.0
 70
    32
  0
VERTEX
  5
18346
  8
AM_0
 10
640.81541101890457
 20
146.64565419563661
 30
0.0
 70
    32
  0
VERTEX
  5
18347
  8
AM_0
 10
640.816411018905
 20
146.64165419563651
 30
0.0
 70
    32
  0
VERTEX
  5
18348
  8
AM_0
 10
640.816411018905
 20
146.63765419563629
 30
0.0
 70
    32
  0
VERTEX
  5
18349
  8
AM_0
 10
640.81741101890475
 20
146.63365419563641
 30
0.0
 70
    32
  0
VERTEX
  5
1834A
  8
AM_0
 10
640.81741101890475
 20
146.62865419563639
 30
0.0
 70
    32
  0
VERTEX
  5
1834B
  8
AM_0
 10
640.81841101890473
 20
146.6246541956364
 30
0.0
 70
    32
  0
VERTEX
  5
1834C
  8
AM_0
 10
640.81841101890473
 20
146.62065419563629
 30
0.0
 70
    32
  0
VERTEX
  5
1834D
  8
AM_0
 10
640.81941101890493
 20
146.6166541956365
 30
0.0
 70
    32
  0
VERTEX
  5
1834E
  8
AM_0
 10
640.81941101890493
 20
146.61265419563651
 30
0.0
 70
    32
  0
VERTEX
  5
1834F
  8
AM_0
 10
640.82041101890457
 20
146.60765419563671
 30
0.0
 70
    32
  0
VERTEX
  5
18350
  8
AM_0
 10
640.82141101890488
 20
146.60365419563641
 30
0.0
 70
    32
  0
VERTEX
  5
18351
  8
AM_0
 10
640.82141101890488
 20
146.59965419563639
 30
0.0
 70
    32
  0
VERTEX
  5
18352
  8
AM_0
 10
640.82241101890475
 20
146.59565419563631
 30
0.0
 70
    32
  0
VERTEX
  5
18353
  8
AM_0
 10
640.82241101890475
 20
146.5906541956366
 30
0.0
 70
    32
  0
VERTEX
  5
18354
  8
AM_0
 10
640.82341101890495
 20
146.5866541956365
 30
0.0
 70
    32
  0
VERTEX
  5
18355
  8
AM_0
 10
640.82341101890495
 20
146.58265419563639
 30
0.0
 70
    32
  0
VERTEX
  5
18356
  8
AM_0
 10
640.82441101890493
 20
146.5786541956362
 30
0.0
 70
    32
  0
VERTEX
  5
18357
  8
AM_0
 10
640.82541101890456
 20
146.57365419563621
 30
0.0
 70
    32
  0
VERTEX
  5
18358
  8
AM_0
 10
640.82541101890456
 20
146.56965419563659
 30
0.0
 70
    32
  0
VERTEX
  5
18359
  8
AM_0
 10
640.82641101890476
 20
146.56565419563651
 30
0.0
 70
    32
  0
VERTEX
  5
1835A
  8
AM_0
 10
640.82641101890476
 20
146.56165419563641
 30
0.0
 70
    32
  0
VERTEX
  5
1835B
  8
AM_0
 10
640.82741101890474
 20
146.55765419563639
 30
0.0
 70
    32
  0
VERTEX
  5
1835C
  8
AM_0
 10
640.82841101890472
 20
146.55265419563659
 30
0.0
 70
    32
  0
VERTEX
  5
1835D
  8
AM_0
 10
640.82841101890472
 20
146.54865419563629
 30
0.0
 70
    32
  0
VERTEX
  5
1835E
  8
AM_0
 10
640.82941101890492
 20
146.5446541956365
 30
0.0
 70
    32
  0
VERTEX
  5
1835F
  8
AM_0
 10
640.82941101890492
 20
146.54065419563671
 30
0.0
 70
    32
  0
VERTEX
  5
18360
  8
AM_0
 10
640.83041101890501
 20
146.53565419563631
 30
0.0
 70
    32
  0
VERTEX
  5
18361
  8
AM_0
 10
640.83141101890476
 20
146.53165419563621
 30
0.0
 70
    32
  0
VERTEX
  5
18362
  8
AM_0
 10
640.83141101890476
 20
146.52765419563639
 30
0.0
 70
    32
  0
VERTEX
  5
18363
  8
AM_0
 10
640.83241101890474
 20
146.52365419563651
 30
0.0
 70
    32
  0
VERTEX
  5
18364
  8
AM_0
 10
640.83341101890505
 20
146.51965419563649
 30
0.0
 70
    32
  0
VERTEX
  5
18365
  8
AM_0
 10
640.83341101890505
 20
146.5146541956363
 30
0.0
 70
    32
  0
VERTEX
  5
18366
  8
AM_0
 10
640.83441101890492
 20
146.51065419563639
 30
0.0
 70
    32
  0
VERTEX
  5
18367
  8
AM_0
 10
640.83441101890492
 20
146.5066541956366
 30
0.0
 70
    32
  0
VERTEX
  5
18368
  8
AM_0
 10
640.83541101890512
 20
146.50265419563661
 30
0.0
 70
    32
  0
VERTEX
  5
18369
  8
AM_0
 10
640.83641101890476
 20
146.49765419563639
 30
0.0
 70
    32
  0
VERTEX
  5
1836A
  8
AM_0
 10
640.83641101890476
 20
146.49365419563671
 30
0.0
 70
    32
  0
VERTEX
  5
1836B
  8
AM_0
 10
640.83741101890473
 20
146.48965419563649
 30
0.0
 70
    32
  0
VERTEX
  5
1836C
  8
AM_0
 10
640.83841101890471
 20
146.48565419563641
 30
0.0
 70
    32
  0
VERTEX
  5
1836D
  8
AM_0
 10
640.83841101890471
 20
146.48165419563639
 30
0.0
 70
    32
  0
VERTEX
  5
1836E
  8
AM_0
 10
640.83941101890491
 20
146.4766541956366
 30
0.0
 70
    32
  0
VERTEX
  5
1836F
  8
AM_0
 10
640.84041101890512
 20
146.4726541956363
 30
0.0
 70
    32
  0
VERTEX
  5
18370
  8
AM_0
 10
640.84041101890512
 20
146.4686541956363
 30
0.0
 70
    32
  0
VERTEX
  5
18371
  8
AM_0
 10
640.84141101890464
 20
146.46465419563651
 30
0.0
 70
    32
  0
VERTEX
  5
18372
  8
AM_0
 10
640.84241101890473
 20
146.4596541956364
 30
0.0
 70
    32
  0
VERTEX
  5
18373
  8
AM_0
 10
640.84241101890473
 20
146.4556541956365
 30
0.0
 70
    32
  0
VERTEX
  5
18374
  8
AM_0
 10
640.84341101890504
 20
146.45165419563631
 30
0.0
 70
    32
  0
VERTEX
  5
18375
  8
AM_0
 10
640.84441101890491
 20
146.44765419563629
 30
0.0
 70
    32
  0
VERTEX
  5
18376
  8
AM_0
 10
640.84541101890466
 20
146.44365419563621
 30
0.0
 70
    32
  0
VERTEX
  5
18377
  8
AM_0
 10
640.84541101890466
 20
146.43865419563639
 30
0.0
 70
    32
  0
VERTEX
  5
18378
  8
AM_0
 10
640.84641101890463
 20
146.4346541956364
 30
0.0
 70
    32
  0
VERTEX
  5
18379
  8
AM_0
 10
640.84741101890472
 20
146.43065419563641
 30
0.0
 70
    32
  0
VERTEX
  5
1837A
  8
AM_0
 10
640.84741101890472
 20
146.4266541956367
 30
0.0
 70
    32
  0
VERTEX
  5
1837B
  8
AM_0
 10
640.84841101890504
 20
146.4226541956362
 30
0.0
 70
    32
  0
VERTEX
  5
1837C
  8
AM_0
 10
640.8494110189049
 20
146.41765419563649
 30
0.0
 70
    32
  0
VERTEX
  5
1837D
  8
AM_0
 10
640.85041101890465
 20
146.41365419563641
 30
0.0
 70
    32
  0
VERTEX
  5
1837E
  8
AM_0
 10
640.85041101890465
 20
146.40965419563619
 30
0.0
 70
    32
  0
VERTEX
  5
1837F
  8
AM_0
 10
640.85141101890508
 20
146.40565419563629
 30
0.0
 70
    32
  0
VERTEX
  5
18380
  8
AM_0
 10
640.85241101890472
 20
146.4016541956365
 30
0.0
 70
    32
  0
VERTEX
  5
18381
  8
AM_0
 10
640.85341101890504
 20
146.3966541956363
 30
0.0
 70
    32
  0
VERTEX
  5
18382
  8
AM_0
 10
640.85341101890504
 20
146.3926541956362
 30
0.0
 70
    32
  0
VERTEX
  5
18383
  8
AM_0
 10
640.8544110189049
 20
146.3886541956366
 30
0.0
 70
    32
  0
VERTEX
  5
18384
  8
AM_0
 10
640.85541101890465
 20
146.38465419563639
 30
0.0
 70
    32
  0
VERTEX
  5
18385
  8
AM_0
 10
640.85641101890496
 20
146.38065419563631
 30
0.0
 70
    32
  0
VERTEX
  5
18386
  8
AM_0
 10
640.85641101890496
 20
146.3756541956362
 30
0.0
 70
    32
  0
VERTEX
  5
18387
  8
AM_0
 10
640.85741101890505
 20
146.37165419563649
 30
0.0
 70
    32
  0
VERTEX
  5
18388
  8
AM_0
 10
640.85841101890458
 20
146.36765419563639
 30
0.0
 70
    32
  0
VERTEX
  5
18389
  8
AM_0
 10
640.85941101890478
 20
146.3636541956364
 30
0.0
 70
    32
  0
VERTEX
  5
1838A
  8
AM_0
 10
640.85941101890478
 20
146.35965419563661
 30
0.0
 70
    32
  0
VERTEX
  5
1838B
  8
AM_0
 10
640.8604110189051
 20
146.3546541956365
 30
0.0
 70
    32
  0
VERTEX
  5
1838C
  8
AM_0
 10
640.86141101890485
 20
146.35065419563651
 30
0.0
 70
    32
  0
VERTEX
  5
1838D
  8
AM_0
 10
640.8624110189046
 20
146.3466541956364
 30
0.0
 70
    32
  0
VERTEX
  5
1838E
  8
AM_0
 10
640.86341101890503
 20
146.3426541956363
 30
0.0
 70
    32
  0
VERTEX
  5
1838F
  8
AM_0
 10
640.86341101890503
 20
146.33865419563631
 30
0.0
 70
    32
  0
VERTEX
  5
18390
  8
AM_0
 10
640.86441101890455
 20
146.33365419563651
 30
0.0
 70
    32
  0
VERTEX
  5
18391
  8
AM_0
 10
640.86541101890475
 20
146.32965419563629
 30
0.0
 70
    32
  0
VERTEX
  5
18392
  8
AM_0
 10
640.86641101890484
 20
146.32565419563639
 30
0.0
 70
    32
  0
VERTEX
  5
18393
  8
AM_0
 10
640.86741101890459
 20
146.3216541956364
 30
0.0
 70
    32
  0
VERTEX
  5
18394
  8
AM_0
 10
640.86741101890459
 20
146.31765419563629
 30
0.0
 70
    32
  0
VERTEX
  5
18395
  8
AM_0
 10
640.86841101890468
 20
146.3126541956363
 30
0.0
 70
    32
  0
VERTEX
  5
18396
  8
AM_0
 10
640.86941101890466
 20
146.30865419563651
 30
0.0
 70
    32
  0
VERTEX
  5
18397
  8
AM_0
 10
640.87041101890497
 20
146.3046541956364
 30
0.0
 70
    32
  0
VERTEX
  5
18398
  8
AM_0
 10
640.87141101890484
 20
146.30065419563621
 30
0.0
 70
    32
  0
VERTEX
  5
18399
  8
AM_0
 10
640.8724110189047
 20
146.29665419563639
 30
0.0
 70
    32
  0
VERTEX
  5
1839A
  8
AM_0
 10
640.8724110189047
 20
146.2926541956366
 30
0.0
 70
    32
  0
VERTEX
  5
1839B
  8
AM_0
 10
640.87341101890468
 20
146.28765419563629
 30
0.0
 70
    32
  0
VERTEX
  5
1839C
  8
AM_0
 10
640.87441101890465
 20
146.2836541956365
 30
0.0
 70
    32
  0
VERTEX
  5
1839D
  8
AM_0
 10
640.87541101890497
 20
146.2796541956362
 30
0.0
 70
    32
  0
VERTEX
  5
1839E
  8
AM_0
 10
640.87641101890483
 20
146.27565419563621
 30
0.0
 70
    32
  0
VERTEX
  5
1839F
  8
AM_0
 10
640.87741101890515
 20
146.2716541956365
 30
0.0
 70
    32
  0
VERTEX
  5
183A0
  8
AM_0
 10
640.87841101890501
 20
146.26665419563639
 30
0.0
 70
    32
  0
VERTEX
  5
183A1
  8
AM_0
 10
640.87841101890501
 20
146.26265419563629
 30
0.0
 70
    32
  0
VERTEX
  5
183A2
  8
AM_0
 10
640.87941101890488
 20
146.25865419563641
 30
0.0
 70
    32
  0
VERTEX
  5
183A3
  8
AM_0
 10
640.88041101890497
 20
146.25465419563639
 30
0.0
 70
    32
  0
VERTEX
  5
183A4
  8
AM_0
 10
640.88141101890483
 20
146.2506541956364
 30
0.0
 70
    32
  0
VERTEX
  5
183A5
  8
AM_0
 10
640.88241101890469
 20
146.24665419563649
 30
0.0
 70
    32
  0
VERTEX
  5
183A6
  8
AM_0
 10
640.88341101890501
 20
146.2416541956365
 30
0.0
 70
    32
  0
VERTEX
  5
183A7
  8
AM_0
 10
640.88441101890487
 20
146.23765419563631
 30
0.0
 70
    32
  0
VERTEX
  5
183A8
  8
AM_0
 10
640.88541101890473
 20
146.2336541956364
 30
0.0
 70
    32
  0
VERTEX
  5
183A9
  8
AM_0
 10
640.88641101890482
 20
146.22965419563641
 30
0.0
 70
    32
  0
VERTEX
  5
183AA
  8
AM_0
 10
640.88641101890482
 20
146.22565419563651
 30
0.0
 70
    32
  0
VERTEX
  5
183AB
  8
AM_0
 10
640.88741101890434
 20
146.22165419563649
 30
0.0
 70
    32
  0
VERTEX
  5
183AC
  8
AM_0
 10
640.888411018905
 20
146.21665419563629
 30
0.0
 70
    32
  0
VERTEX
  5
183AD
  8
AM_0
 10
640.88941101890487
 20
146.21265419563619
 30
0.0
 70
    32
  0
VERTEX
  5
183AE
  8
AM_0
 10
640.89041101890496
 20
146.2086541956366
 30
0.0
 70
    32
  0
VERTEX
  5
183AF
  8
AM_0
 10
640.89141101890436
 20
146.20465419563629
 30
0.0
 70
    32
  0
VERTEX
  5
183B0
  8
AM_0
 10
640.89241101890468
 20
146.2006541956363
 30
0.0
 70
    32
  0
VERTEX
  5
183B1
  8
AM_0
 10
640.893411018905
 20
146.19665419563651
 30
0.0
 70
    32
  0
VERTEX
  5
183B2
  8
AM_0
 10
640.89441101890475
 20
146.19165419563649
 30
0.0
 70
    32
  0
VERTEX
  5
183B3
  8
AM_0
 10
640.89541101890472
 20
146.18765419563641
 30
0.0
 70
    32
  0
VERTEX
  5
183B4
  8
AM_0
 10
640.8964110189047
 20
146.18365419563639
 30
0.0
 70
    32
  0
VERTEX
  5
183B5
  8
AM_0
 10
640.89741101890513
 20
146.17965419563629
 30
0.0
 70
    32
  0
VERTEX
  5
183B6
  8
AM_0
 10
640.89841101890499
 20
146.1756541956363
 30
0.0
 70
    32
  0
VERTEX
  5
183B7
  8
AM_0
 10
640.89941101890474
 20
146.17165419563651
 30
0.0
 70
    32
  0
VERTEX
  5
183B8
  8
AM_0
 10
640.90041101890506
 20
146.1666541956364
 30
0.0
 70
    32
  0
VERTEX
  5
183B9
  8
AM_0
 10
640.9014110189047
 20
146.16265419563641
 30
0.0
 70
    32
  0
VERTEX
  5
183BA
  8
AM_0
 10
640.90241101890456
 20
146.15865419563659
 30
0.0
 70
    32
  0
VERTEX
  5
183BB
  8
AM_0
 10
640.90341101890499
 20
146.15465419563611
 30
0.0
 70
    32
  0
VERTEX
  5
183BC
  8
AM_0
 10
640.90441101890474
 20
146.15065419563649
 30
0.0
 70
    32
  0
VERTEX
  5
183BD
  8
AM_0
 10
640.90541101890472
 20
146.14665419563639
 30
0.0
 70
    32
  0
VERTEX
  5
183BE
  8
AM_0
 10
640.90641101890492
 20
146.1426541956364
 30
0.0
 70
    32
  0
VERTEX
  5
183BF
  8
AM_0
 10
640.90741101890512
 20
146.13765419563629
 30
0.0
 70
    32
  0
VERTEX
  5
183C0
  8
AM_0
 10
640.90841101890476
 20
146.1336541956365
 30
0.0
 70
    32
  0
VERTEX
  5
183C1
  8
AM_0
 10
640.90941101890473
 20
146.12965419563631
 30
0.0
 70
    32
  0
VERTEX
  5
183C2
  8
AM_0
 10
640.91041101890505
 20
146.1256541956364
 30
0.0
 70
    32
  0
VERTEX
  5
183C3
  8
AM_0
 10
640.91141101890491
 20
146.12165419563621
 30
0.0
 70
    32
  0
VERTEX
  5
183C4
  8
AM_0
 10
640.91241101890466
 20
146.11765419563639
 30
0.0
 70
    32
  0
VERTEX
  5
183C5
  8
AM_0
 10
640.91341101890475
 20
146.11265419563631
 30
0.0
 70
    32
  0
VERTEX
  5
183C6
  8
AM_0
 10
640.91441101890439
 20
146.10865419563629
 30
0.0
 70
    32
  0
VERTEX
  5
183C7
  8
AM_0
 10
640.91541101890471
 20
146.1046541956365
 30
0.0
 70
    32
  0
VERTEX
  5
183C8
  8
AM_0
 10
640.91641101890491
 20
146.10065419563639
 30
0.0
 70
    32
  0
VERTEX
  5
183C9
  8
AM_0
 10
640.917411018905
 20
146.0966541956364
 30
0.0
 70
    32
  0
VERTEX
  5
183CA
  8
AM_0
 10
640.91841101890464
 20
146.0926541956363
 30
0.0
 70
    32
  0
VERTEX
  5
183CB
  8
AM_0
 10
640.91941101890473
 20
146.08865419563631
 30
0.0
 70
    32
  0
VERTEX
  5
183CC
  8
AM_0
 10
640.92041101890504
 20
146.0846541956364
 30
0.0
 70
    32
  0
VERTEX
  5
183CD
  8
AM_0
 10
640.92141101890491
 20
146.07965419563621
 30
0.0
 70
    32
  0
VERTEX
  5
183CE
  8
AM_0
 10
640.92241101890477
 20
146.07565419563639
 30
0.0
 70
    32
  0
VERTEX
  5
183CF
  8
AM_0
 10
640.92341101890463
 20
146.0716541956366
 30
0.0
 70
    32
  0
VERTEX
  5
183D0
  8
AM_0
 10
640.9254110189047
 20
146.06765419563649
 30
0.0
 70
    32
  0
VERTEX
  5
183D1
  8
AM_0
 10
640.9264110189049
 20
146.06365419563639
 30
0.0
 70
    32
  0
VERTEX
  5
183D2
  8
AM_0
 10
640.92741101890476
 20
146.0596541956362
 30
0.0
 70
    32
  0
VERTEX
  5
183D3
  8
AM_0
 10
640.92841101890485
 20
146.05565419563629
 30
0.0
 70
    32
  0
VERTEX
  5
183D4
  8
AM_0
 10
640.92941101890472
 20
146.0516541956367
 30
0.0
 70
    32
  0
VERTEX
  5
183D5
  8
AM_0
 10
640.93041101890503
 20
146.04665419563631
 30
0.0
 70
    32
  0
VERTEX
  5
183D6
  8
AM_0
 10
640.9314110189049
 20
146.04265419563649
 30
0.0
 70
    32
  0
VERTEX
  5
183D7
  8
AM_0
 10
640.93241101890465
 20
146.03865419563621
 30
0.0
 70
    32
  0
VERTEX
  5
183D8
  8
AM_0
 10
640.93341101890508
 20
146.03465419563619
 30
0.0
 70
    32
  0
VERTEX
  5
183D9
  8
AM_0
 10
640.93541101890503
 20
146.03065419563649
 30
0.0
 70
    32
  0
VERTEX
  5
183DA
  8
AM_0
 10
640.93641101890489
 20
146.0266541956363
 30
0.0
 70
    32
  0
VERTEX
  5
183DB
  8
AM_0
 10
640.9374110189051
 20
146.02265419563651
 30
0.0
 70
    32
  0
VERTEX
  5
183DC
  8
AM_0
 10
640.93841101890496
 20
146.0186541956364
 30
0.0
 70
    32
  0
VERTEX
  5
183DD
  8
AM_0
 10
640.93941101890505
 20
146.0136541956366
 30
0.0
 70
    32
  0
VERTEX
  5
183DE
  8
AM_0
 10
640.94041101890502
 20
146.0096541956363
 30
0.0
 70
    32
  0
VERTEX
  5
183DF
  8
AM_0
 10
640.94141101890455
 20
146.00565419563651
 30
0.0
 70
    32
  0
VERTEX
  5
183E0
  8
AM_0
 10
640.94341101890484
 20
146.00165419563629
 30
0.0
 70
    32
  0
VERTEX
  5
183E1
  8
AM_0
 10
640.94441101890504
 20
145.99765419563639
 30
0.0
 70
    32
  0
VERTEX
  5
183E2
  8
AM_0
 10
640.94541101890457
 20
145.99365419563659
 30
0.0
 70
    32
  0
VERTEX
  5
183E3
  8
AM_0
 10
640.94641101890466
 20
145.98965419563649
 30
0.0
 70
    32
  0
VERTEX
  5
183E4
  8
AM_0
 10
640.94741101890509
 20
145.9856541956365
 30
0.0
 70
    32
  0
VERTEX
  5
183E5
  8
AM_0
 10
640.94841101890484
 20
145.9816541956362
 30
0.0
 70
    32
  0
VERTEX
  5
183E6
  8
AM_0
 10
640.95041101890467
 20
145.97765419563621
 30
0.0
 70
    32
  0
VERTEX
  5
183E7
  8
AM_0
 10
640.95141101890465
 20
145.97265419563641
 30
0.0
 70
    32
  0
VERTEX
  5
183E8
  8
AM_0
 10
640.95241101890474
 20
145.9686541956363
 30
0.0
 70
    32
  0
VERTEX
  5
183E9
  8
AM_0
 10
640.95341101890483
 20
145.96465419563671
 30
0.0
 70
    32
  0
VERTEX
  5
183EA
  8
AM_0
 10
640.95441101890458
 20
145.96065419563621
 30
0.0
 70
    32
  0
VERTEX
  5
183EB
  8
AM_0
 10
640.95641101890465
 20
145.95665419563639
 30
0.0
 70
    32
  0
VERTEX
  5
183EC
  8
AM_0
 10
640.95741101890496
 20
145.9526541956364
 30
0.0
 70
    32
  0
VERTEX
  5
183ED
  8
AM_0
 10
640.95841101890483
 20
145.94865419563629
 30
0.0
 70
    32
  0
VERTEX
  5
183EE
  8
AM_0
 10
640.95941101890469
 20
145.9446541956363
 30
0.0
 70
    32
  0
VERTEX
  5
183EF
  8
AM_0
 10
640.96141101890476
 20
145.94065419563651
 30
0.0
 70
    32
  0
VERTEX
  5
183F0
  8
AM_0
 10
640.96241101890473
 20
145.93665419563641
 30
0.0
 70
    32
  0
VERTEX
  5
183F1
  8
AM_0
 10
640.96341101890482
 20
145.9326541956365
 30
0.0
 70
    32
  0
VERTEX
  5
183F2
  8
AM_0
 10
640.96441101890514
 20
145.92765419563651
 30
0.0
 70
    32
  0
VERTEX
  5
183F3
  8
AM_0
 10
640.96641101890475
 20
145.92365419563649
 30
0.0
 70
    32
  0
VERTEX
  5
183F4
  8
AM_0
 10
640.96741101890495
 20
145.91965419563641
 30
0.0
 70
    32
  0
VERTEX
  5
183F5
  8
AM_0
 10
640.96841101890436
 20
145.91565419563659
 30
0.0
 70
    32
  0
VERTEX
  5
183F6
  8
AM_0
 10
640.96941101890468
 20
145.9116541956364
 30
0.0
 70
    32
  0
VERTEX
  5
183F7
  8
AM_0
 10
640.97141101890486
 20
145.90765419563661
 30
0.0
 70
    32
  0
VERTEX
  5
183F8
  8
AM_0
 10
640.97241101890461
 20
145.90365419563651
 30
0.0
 70
    32
  0
VERTEX
  5
183F9
  8
AM_0
 10
640.97341101890493
 20
145.8996541956364
 30
0.0
 70
    32
  0
VERTEX
  5
183FA
  8
AM_0
 10
640.97441101890513
 20
145.89565419563661
 30
0.0
 70
    32
  0
VERTEX
  5
183FB
  8
AM_0
 10
640.97641101890486
 20
145.89165419563639
 30
0.0
 70
    32
  0
VERTEX
  5
183FC
  8
AM_0
 10
640.97741101890495
 20
145.88765419563629
 30
0.0
 70
    32
  0
VERTEX
  5
183FD
  8
AM_0
 10
640.97841101890492
 20
145.8836541956365
 30
0.0
 70
    32
  0
VERTEX
  5
183FE
  8
AM_0
 10
640.98041101890499
 20
145.87965419563639
 30
0.0
 70
    32
  0
VERTEX
  5
183FF
  8
AM_0
 10
640.98141101890474
 20
145.8746541956364
 30
0.0
 70
    32
  0
VERTEX
  5
18400
  8
AM_0
 10
640.98241101890471
 20
145.87065419563629
 30
0.0
 70
    32
  0
VERTEX
  5
18401
  8
AM_0
 10
640.98441101890512
 20
145.8666541956361
 30
0.0
 70
    32
  0
VERTEX
  5
18402
  8
AM_0
 10
640.98541101890498
 20
145.86265419563651
 30
0.0
 70
    32
  0
VERTEX
  5
18403
  8
AM_0
 10
640.98641101890473
 20
145.8586541956364
 30
0.0
 70
    32
  0
VERTEX
  5
18404
  8
AM_0
 10
640.98841101890469
 20
145.85465419563641
 30
0.0
 70
    32
  0
VERTEX
  5
18405
  8
AM_0
 10
640.98941101890466
 20
145.85065419563659
 30
0.0
 70
    32
  0
VERTEX
  5
18406
  8
AM_0
 10
640.99041101890487
 20
145.84665419563621
 30
0.0
 70
    32
  0
VERTEX
  5
18407
  8
AM_0
 10
640.9924110189047
 20
145.8426541956365
 30
0.0
 70
    32
  0
VERTEX
  5
18408
  8
AM_0
 10
640.99341101890468
 20
145.8386541956362
 30
0.0
 70
    32
  0
VERTEX
  5
18409
  8
AM_0
 10
640.99441101890511
 20
145.8346541956364
 30
0.0
 70
    32
  0
VERTEX
  5
1840A
  8
AM_0
 10
640.99641101890472
 20
145.8306541956367
 30
0.0
 70
    32
  0
VERTEX
  5
1840B
  8
AM_0
 10
640.99741101890504
 20
145.82665419563619
 30
0.0
 70
    32
  0
VERTEX
  5
1840C
  8
AM_0
 10
640.9984110189049
 20
145.8226541956364
 30
0.0
 70
    32
  0
VERTEX
  5
1840D
  8
AM_0
 10
641.00041101890463
 20
145.8186541956361
 30
0.0
 70
    32
  0
VERTEX
  5
1840E
  8
AM_0
 10
641.00141101890472
 20
145.81465419563631
 30
0.0
 70
    32
  0
VERTEX
  5
1840F
  8
AM_0
 10
641.0034110189049
 20
145.8106541956366
 30
0.0
 70
    32
  0
VERTEX
  5
18410
  8
AM_0
 10
641.00441101890488
 20
145.80665419563641
 30
0.0
 70
    32
  0
VERTEX
  5
18411
  8
AM_0
 10
641.00541101890485
 20
145.80265419563639
 30
0.0
 70
    32
  0
VERTEX
  5
18412
  8
AM_0
 10
641.00741101890503
 20
145.7986541956364
 30
0.0
 70
    32
  0
VERTEX
  5
18413
  8
AM_0
 10
641.00841101890489
 20
145.7946541956361
 30
0.0
 70
    32
  0
VERTEX
  5
18414
  8
AM_0
 10
641.01041101890485
 20
145.79065419563671
 30
0.0
 70
    32
  0
VERTEX
  5
18415
  8
AM_0
 10
641.01141101890471
 20
145.78665419563649
 30
0.0
 70
    32
  0
VERTEX
  5
18416
  8
AM_0
 10
641.01241101890457
 20
145.78265419563661
 30
0.0
 70
    32
  0
VERTEX
  5
18417
  8
AM_0
 10
641.01441101890509
 20
145.77865419563639
 30
0.0
 70
    32
  0
VERTEX
  5
18418
  8
AM_0
 10
641.01541101890484
 20
145.77465419563649
 30
0.0
 70
    32
  0
VERTEX
  5
18419
  8
AM_0
 10
641.01741101890502
 20
145.76965419563649
 30
0.0
 70
    32
  0
VERTEX
  5
1841A
  8
AM_0
 10
641.01841101890454
 20
145.7656541956365
 30
0.0
 70
    32
  0
VERTEX
  5
1841B
  8
AM_0
 10
641.02041101890484
 20
145.76165419563659
 30
0.0
 70
    32
  0
VERTEX
  5
1841C
  8
AM_0
 10
641.0214110189047
 20
145.75765419563641
 30
0.0
 70
    32
  0
VERTEX
  5
1841D
  8
AM_0
 10
641.02341101890477
 20
145.7536541956361
 30
0.0
 70
    32
  0
VERTEX
  5
1841E
  8
AM_0
 10
641.02441101890508
 20
145.74965419563651
 30
0.0
 70
    32
  0
VERTEX
  5
1841F
  8
AM_0
 10
641.02641101890458
 20
145.7456541956364
 30
0.0
 70
    32
  0
VERTEX
  5
18420
  8
AM_0
 10
641.02741101890456
 20
145.74165419563619
 30
0.0
 70
    32
  0
VERTEX
  5
18421
  8
AM_0
 10
641.02941101890474
 20
145.73765419563651
 30
0.0
 70
    32
  0
VERTEX
  5
18422
  8
AM_0
 10
641.03041101890483
 20
145.73365419563629
 30
0.0
 70
    32
  0
VERTEX
  5
18423
  8
AM_0
 10
641.03241101890501
 20
145.72965419563641
 30
0.0
 70
    32
  0
VERTEX
  5
18424
  8
AM_0
 10
641.03341101890464
 20
145.72565419563659
 30
0.0
 70
    32
  0
VERTEX
  5
18425
  8
AM_0
 10
641.03541101890471
 20
145.72165419563629
 30
0.0
 70
    32
  0
VERTEX
  5
18426
  8
AM_0
 10
641.03641101890457
 20
145.7176541956365
 30
0.0
 70
    32
  0
VERTEX
  5
18427
  8
AM_0
 10
641.03841101890475
 20
145.71365419563631
 30
0.0
 70
    32
  0
VERTEX
  5
18428
  8
AM_0
 10
641.03941101890473
 20
145.7096541956364
 30
0.0
 70
    32
  0
VERTEX
  5
18429
  8
AM_0
 10
641.04141101890434
 20
145.7066541956365
 30
0.0
 70
    32
  0
VERTEX
  5
1842A
  8
AM_0
 10
641.04241101890477
 20
145.70265419563651
 30
0.0
 70
    32
  0
VERTEX
  5
1842B
  8
AM_0
 10
641.04441101890495
 20
145.69865419563641
 30
0.0
 70
    32
  0
VERTEX
  5
1842C
  8
AM_0
 10
641.04541101890447
 20
145.69465419563619
 30
0.0
 70
    32
  0
VERTEX
  5
1842D
  8
AM_0
 10
641.04741101890477
 20
145.6906541956364
 30
0.0
 70
    32
  0
VERTEX
  5
1842E
  8
AM_0
 10
641.04841101890474
 20
145.68665419563629
 30
0.0
 70
    32
  0
VERTEX
  5
1842F
  8
AM_0
 10
641.05041101890436
 20
145.6826541956365
 30
0.0
 70
    32
  0
VERTEX
  5
18430
  8
AM_0
 10
641.05241101890499
 20
145.6786541956364
 30
0.0
 70
    32
  0
VERTEX
  5
18431
  8
AM_0
 10
641.05341101890474
 20
145.67465419563641
 30
0.0
 70
    32
  0
VERTEX
  5
18432
  8
AM_0
 10
641.05541101890492
 20
145.67065419563639
 30
0.0
 70
    32
  0
VERTEX
  5
18433
  8
AM_0
 10
641.05641101890512
 20
145.66665419563631
 30
0.0
 70
    32
  0
VERTEX
  5
18434
  8
AM_0
 10
641.05841101890485
 20
145.66265419563649
 30
0.0
 70
    32
  0
VERTEX
  5
18435
  8
AM_0
 10
641.06041101890492
 20
145.65865419563639
 30
0.0
 70
    32
  0
VERTEX
  5
18436
  8
AM_0
 10
641.06141101890512
 20
145.6546541956364
 30
0.0
 70
    32
  0
VERTEX
  5
18437
  8
AM_0
 10
641.06341101890473
 20
145.65065419563629
 30
0.0
 70
    32
  0
VERTEX
  5
18438
  8
AM_0
 10
641.06441101890505
 20
145.6466541956363
 30
0.0
 70
    32
  0
VERTEX
  5
18439
  8
AM_0
 10
641.06641101890466
 20
145.6426541956366
 30
0.0
 70
    32
  0
VERTEX
  5
1843A
  8
AM_0
 10
641.0684110189045
 20
145.6386541956366
 30
0.0
 70
    32
  0
VERTEX
  5
1843B
  8
AM_0
 10
641.06941101890504
 20
145.6346541956365
 30
0.0
 70
    32
  0
VERTEX
  5
1843C
  8
AM_0
 10
641.07141101890511
 20
145.63065419563631
 30
0.0
 70
    32
  0
VERTEX
  5
1843D
  8
AM_0
 10
641.07341101890461
 20
145.62665419563641
 30
0.0
 70
    32
  0
VERTEX
  5
1843E
  8
AM_0
 10
641.07441101890504
 20
145.62265419563661
 30
0.0
 70
    32
  0
VERTEX
  5
1843F
  8
AM_0
 10
641.07641101890465
 20
145.61865419563659
 30
0.0
 70
    32
  0
VERTEX
  5
18440
  8
AM_0
 10
641.07841101890472
 20
145.61565419563621
 30
0.0
 70
    32
  0
VERTEX
  5
18441
  8
AM_0
 10
641.07941101890503
 20
145.61165419563639
 30
0.0
 70
    32
  0
VERTEX
  5
18442
  8
AM_0
 10
641.0814110189051
 20
145.6076541956366
 30
0.0
 70
    32
  0
VERTEX
  5
18443
  8
AM_0
 10
641.08341101890471
 20
145.60365419563649
 30
0.0
 70
    32
  0
VERTEX
  5
18444
  8
AM_0
 10
641.08441101890503
 20
145.5996541956363
 30
0.0
 70
    32
  0
VERTEX
  5
18445
  8
AM_0
 10
641.08641101890476
 20
145.5956541956362
 30
0.0
 70
    32
  0
VERTEX
  5
18446
  8
AM_0
 10
641.08841101890471
 20
145.59165419563661
 30
0.0
 70
    32
  0
VERTEX
  5
18447
  8
AM_0
 10
641.08941101890503
 20
145.58765419563659
 30
0.0
 70
    32
  0
VERTEX
  5
18448
  8
AM_0
 10
641.09141101890486
 20
145.58365419563631
 30
0.0
 70
    32
  0
VERTEX
  5
18449
  8
AM_0
 10
641.0934110189047
 20
145.57965419563629
 30
0.0
 70
    32
  0
VERTEX
  5
1844A
  8
AM_0
 10
641.09541101890454
 20
145.57565419563619
 30
0.0
 70
    32
  0
VERTEX
  5
1844B
  8
AM_0
 10
641.09641101890475
 20
145.5716541956364
 30
0.0
 70
    32
  0
VERTEX
  5
1844C
  8
AM_0
 10
641.09841101890515
 20
145.5686541956361
 30
0.0
 70
    32
  0
VERTEX
  5
1844D
  8
AM_0
 10
641.10041101890488
 20
145.56465419563651
 30
0.0
 70
    32
  0
VERTEX
  5
1844E
  8
AM_0
 10
641.10241101890483
 20
145.56065419563649
 30
0.0
 70
    32
  0
VERTEX
  5
1844F
  8
AM_0
 10
641.10341101890469
 20
145.55665419563641
 30
0.0
 70
    32
  0
VERTEX
  5
18450
  8
AM_0
 10
641.10541101890487
 20
145.55265419563659
 30
0.0
 70
    32
  0
VERTEX
  5
18451
  8
AM_0
 10
641.10741101890483
 20
145.5486541956362
 30
0.0
 70
    32
  0
VERTEX
  5
18452
  8
AM_0
 10
641.10941101890501
 20
145.5446541956365
 30
0.0
 70
    32
  0
VERTEX
  5
18453
  8
AM_0
 10
641.11041101890476
 20
145.54065419563659
 30
0.0
 70
    32
  0
VERTEX
  5
18454
  8
AM_0
 10
641.11241101890482
 20
145.5366541956364
 30
0.0
 70
    32
  0
VERTEX
  5
18455
  8
AM_0
 10
641.114411018905
 20
145.5336541956363
 30
0.0
 70
    32
  0
VERTEX
  5
18456
  8
AM_0
 10
641.11641101890473
 20
145.5296541956364
 30
0.0
 70
    32
  0
VERTEX
  5
18457
  8
AM_0
 10
641.11841101890514
 20
145.52565419563621
 30
0.0
 70
    32
  0
VERTEX
  5
18458
  8
AM_0
 10
641.11941101890488
 20
145.5216541956363
 30
0.0
 70
    32
  0
VERTEX
  5
18459
  8
AM_0
 10
641.12141101890495
 20
145.51765419563651
 30
0.0
 70
    32
  0
VERTEX
  5
1845A
  8
AM_0
 10
641.12341101890456
 20
145.51365419563649
 30
0.0
 70
    32
  0
VERTEX
  5
1845B
  8
AM_0
 10
641.12541101890474
 20
145.50965419563639
 30
0.0
 70
    32
  0
VERTEX
  5
1845C
  8
AM_0
 10
641.12741101890492
 20
145.50665419563649
 30
0.0
 70
    32
  0
VERTEX
  5
1845D
  8
AM_0
 10
641.12841101890501
 20
145.50265419563669
 30
0.0
 70
    32
  0
VERTEX
  5
1845E
  8
AM_0
 10
641.13041101890474
 20
145.49865419563639
 30
0.0
 70
    32
  0
VERTEX
  5
1845F
  8
AM_0
 10
641.13241101890492
 20
145.4946541956364
 30
0.0
 70
    32
  0
VERTEX
  5
18460
  8
AM_0
 10
641.13441101890476
 20
145.4906541956363
 30
0.0
 70
    32
  0
VERTEX
  5
18461
  8
AM_0
 10
641.13641101890471
 20
145.4866541956365
 30
0.0
 70
    32
  0
VERTEX
  5
18462
  8
AM_0
 10
641.13841101890512
 20
145.48265419563671
 30
0.0
 70
    32
  0
VERTEX
  5
18463
  8
AM_0
 10
641.14041101890473
 20
145.47965419563641
 30
0.0
 70
    32
  0
VERTEX
  5
18464
  8
AM_0
 10
641.14241101890491
 20
145.47565419563631
 30
0.0
 70
    32
  0
VERTEX
  5
18465
  8
AM_0
 10
641.14341101890466
 20
145.47165419563649
 30
0.0
 70
    32
  0
VERTEX
  5
18466
  8
AM_0
 10
641.1454110189045
 20
145.4676541956365
 30
0.0
 70
    32
  0
VERTEX
  5
18467
  8
AM_0
 10
641.1474110189049
 20
145.4636541956362
 30
0.0
 70
    32
  0
VERTEX
  5
18468
  8
AM_0
 10
641.14941101890463
 20
145.46065419563629
 30
0.0
 70
    32
  0
VERTEX
  5
18469
  8
AM_0
 10
641.15141101890504
 20
145.4566541956363
 30
0.0
 70
    32
  0
VERTEX
  5
1846A
  8
AM_0
 10
641.15341101890465
 20
145.4526541956362
 30
0.0
 70
    32
  0
VERTEX
  5
1846B
  8
AM_0
 10
641.1554110189046
 20
145.44865419563621
 30
0.0
 70
    32
  0
VERTEX
  5
1846C
  8
AM_0
 10
641.15741101890467
 20
145.44465419563659
 30
0.0
 70
    32
  0
VERTEX
  5
1846D
  8
AM_0
 10
641.15941101890485
 20
145.44165419563649
 30
0.0
 70
    32
  0
VERTEX
  5
1846E
  8
AM_0
 10
641.16141101890503
 20
145.43765419563641
 30
0.0
 70
    32
  0
VERTEX
  5
1846F
  8
AM_0
 10
641.16341101890475
 20
145.43365419563619
 30
0.0
 70
    32
  0
VERTEX
  5
18470
  8
AM_0
 10
641.16541101890471
 20
145.42965419563629
 30
0.0
 70
    32
  0
VERTEX
  5
18471
  8
AM_0
 10
641.16741101890466
 20
145.4256541956363
 30
0.0
 70
    32
  0
VERTEX
  5
18472
  8
AM_0
 10
641.16941101890484
 20
145.4226541956362
 30
0.0
 70
    32
  0
VERTEX
  5
18473
  8
AM_0
 10
641.17141101890502
 20
145.41865419563661
 30
0.0
 70
    32
  0
VERTEX
  5
18474
  8
AM_0
 10
641.17341101890474
 20
145.4146541956365
 30
0.0
 70
    32
  0
VERTEX
  5
18475
  8
AM_0
 10
641.1754110189047
 20
145.41065419563631
 30
0.0
 70
    32
  0
VERTEX
  5
18476
  8
AM_0
 10
641.17741101890488
 20
145.40665419563661
 30
0.0
 70
    32
  0
VERTEX
  5
18477
  8
AM_0
 10
641.17941101890483
 20
145.40365419563651
 30
0.0
 70
    32
  0
VERTEX
  5
18478
  8
AM_0
 10
641.18141101890456
 20
145.39965419563649
 30
0.0
 70
    32
  0
VERTEX
  5
18479
  8
AM_0
 10
641.18341101890474
 20
145.39565419563669
 30
0.0
 70
    32
  0
VERTEX
  5
1847A
  8
AM_0
 10
641.18541101890469
 20
145.39165419563659
 30
0.0
 70
    32
  0
VERTEX
  5
1847B
  8
AM_0
 10
641.18741101890487
 20
145.3886541956366
 30
0.0
 70
    32
  0
VERTEX
  5
1847C
  8
AM_0
 10
641.18941101890482
 20
145.3846541956365
 30
0.0
 70
    32
  0
VERTEX
  5
1847D
  8
AM_0
 10
641.191411018905
 20
145.3806541956364
 30
0.0
 70
    32
  0
VERTEX
  5
1847E
  8
AM_0
 10
641.19341101890473
 20
145.37665419563641
 30
0.0
 70
    32
  0
VERTEX
  5
1847F
  8
AM_0
 10
641.19541101890434
 20
145.37365419563631
 30
0.0
 70
    32
  0
VERTEX
  5
18480
  8
AM_0
 10
641.19741101890531
 20
145.36965419563629
 30
0.0
 70
    32
  0
VERTEX
  5
18481
  8
AM_0
 10
641.1994110189047
 20
145.36565419563621
 30
0.0
 70
    32
  0
VERTEX
  5
18482
  8
AM_0
 10
641.20141101890488
 20
145.36265419563631
 30
0.0
 70
    32
  0
VERTEX
  5
18483
  8
AM_0
 10
641.20441101890492
 20
145.35865419563629
 30
0.0
 70
    32
  0
VERTEX
  5
18484
  8
AM_0
 10
641.20641101890476
 20
145.3546541956365
 30
0.0
 70
    32
  0
VERTEX
  5
18485
  8
AM_0
 10
641.20841101890471
 20
145.35065419563639
 30
0.0
 70
    32
  0
VERTEX
  5
18486
  8
AM_0
 10
641.21041101890478
 20
145.3476541956363
 30
0.0
 70
    32
  0
VERTEX
  5
18487
  8
AM_0
 10
641.21241101890473
 20
145.34365419563639
 30
0.0
 70
    32
  0
VERTEX
  5
18488
  8
AM_0
 10
641.21441101890491
 20
145.33965419563651
 30
0.0
 70
    32
  0
VERTEX
  5
18489
  8
AM_0
 10
641.21641101890475
 20
145.3366541956365
 30
0.0
 70
    32
  0
VERTEX
  5
1848A
  8
AM_0
 10
641.21841101890504
 20
145.33265419563631
 30
0.0
 70
    32
  0
VERTEX
  5
1848B
  8
AM_0
 10
641.22141101890475
 20
145.3286541956364
 30
0.0
 70
    32
  0
VERTEX
  5
1848C
  8
AM_0
 10
641.22341101890504
 20
145.32565419563639
 30
0.0
 70
    32
  0
VERTEX
  5
1848D
  8
AM_0
 10
641.22541101890511
 20
145.32165419563651
 30
0.0
 70
    32
  0
VERTEX
  5
1848E
  8
AM_0
 10
641.22741101890472
 20
145.31765419563621
 30
0.0
 70
    32
  0
VERTEX
  5
1848F
  8
AM_0
 10
641.2294110189049
 20
145.31465419563619
 30
0.0
 70
    32
  0
VERTEX
  5
18490
  8
AM_0
 10
641.23241101890471
 20
145.3106541956366
 30
0.0
 70
    32
  0
VERTEX
  5
18491
  8
AM_0
 10
641.23441101890489
 20
145.3066541956365
 30
0.0
 70
    32
  0
VERTEX
  5
18492
  8
AM_0
 10
641.23641101890496
 20
145.3036541956366
 30
0.0
 70
    32
  0
VERTEX
  5
18493
  8
AM_0
 10
641.23841101890503
 20
145.29965419563621
 30
0.0
 70
    32
  0
VERTEX
  5
18494
  8
AM_0
 10
641.24041101890475
 20
145.2956541956365
 30
0.0
 70
    32
  0
VERTEX
  5
18495
  8
AM_0
 10
641.24341101890502
 20
145.29265419563649
 30
0.0
 70
    32
  0
VERTEX
  5
18496
  8
AM_0
 10
641.24541101890509
 20
145.28865419563641
 30
0.0
 70
    32
  0
VERTEX
  5
18497
  8
AM_0
 10
641.24741101890459
 20
145.28465419563619
 30
0.0
 70
    32
  0
VERTEX
  5
18498
  8
AM_0
 10
641.24941101890454
 20
145.28165419563669
 30
0.0
 70
    32
  0
VERTEX
  5
18499
  8
AM_0
 10
641.25241101890515
 20
145.2776541956365
 30
0.0
 70
    32
  0
VERTEX
  5
1849A
  8
AM_0
 10
641.25441101890465
 20
145.2746541956366
 30
0.0
 70
    32
  0
VERTEX
  5
1849B
  8
AM_0
 10
641.25641101890483
 20
145.27065419563661
 30
0.0
 70
    32
  0
VERTEX
  5
1849C
  8
AM_0
 10
641.25841101890467
 20
145.26665419563631
 30
0.0
 70
    32
  0
VERTEX
  5
1849D
  8
AM_0
 10
641.26141101890482
 20
145.26365419563641
 30
0.0
 70
    32
  0
VERTEX
  5
1849E
  8
AM_0
 10
641.263411018905
 20
145.2596541956363
 30
0.0
 70
    32
  0
VERTEX
  5
1849F
  8
AM_0
 10
641.26541101890496
 20
145.25665419563649
 30
0.0
 70
    32
  0
VERTEX
  5
184A0
  8
AM_0
 10
641.268411018905
 20
145.2526541956365
 30
0.0
 70
    32
  0
VERTEX
  5
184A1
  8
AM_0
 10
641.27041101890461
 20
145.24865419563639
 30
0.0
 70
    32
  0
VERTEX
  5
184A2
  8
AM_0
 10
641.27241101890513
 20
145.24565419563649
 30
0.0
 70
    32
  0
VERTEX
  5
184A3
  8
AM_0
 10
641.27541101890495
 20
145.24165419563639
 30
0.0
 70
    32
  0
VERTEX
  5
184A4
  8
AM_0
 10
641.27741101890456
 20
145.2386541956364
 30
0.0
 70
    32
  0
VERTEX
  5
184A5
  8
AM_0
 10
641.27941101890474
 20
145.23465419563661
 30
0.0
 70
    32
  0
VERTEX
  5
184A6
  8
AM_0
 10
641.28241101890512
 20
145.2316541956362
 30
0.0
 70
    32
  0
VERTEX
  5
184A7
  8
AM_0
 10
641.28441101890473
 20
145.22765419563621
 30
0.0
 70
    32
  0
VERTEX
  5
184A8
  8
AM_0
 10
641.28741101890466
 20
145.22465419563611
 30
0.0
 70
    32
  0
VERTEX
  5
184A9
  8
AM_0
 10
641.28941101890473
 20
145.22065419563651
 30
0.0
 70
    32
  0
VERTEX
  5
184AA
  8
AM_0
 10
641.29141101890491
 20
145.21665419563641
 30
0.0
 70
    32
  0
VERTEX
  5
184AB
  8
AM_0
 10
641.29441101890473
 20
145.21365419563639
 30
0.0
 70
    32
  0
VERTEX
  5
184AC
  8
AM_0
 10
641.29641101890491
 20
145.20965419563629
 30
0.0
 70
    32
  0
VERTEX
  5
184AD
  8
AM_0
 10
641.29941101890427
 20
145.20665419563639
 30
0.0
 70
    32
  0
VERTEX
  5
184AE
  8
AM_0
 10
641.3014110189049
 20
145.20265419563631
 30
0.0
 70
    32
  0
VERTEX
  5
184AF
  8
AM_0
 10
641.30441101890472
 20
145.1996541956365
 30
0.0
 70
    32
  0
VERTEX
  5
184B0
  8
AM_0
 10
641.30641101890524
 20
145.19565419563639
 30
0.0
 70
    32
  0
VERTEX
  5
184B1
  8
AM_0
 10
641.30841101890462
 20
145.19265419563629
 30
0.0
 70
    32
  0
VERTEX
  5
184B2
  8
AM_0
 10
641.31141101890489
 20
145.1886541956363
 30
0.0
 70
    32
  0
VERTEX
  5
184B3
  8
AM_0
 10
641.31341101890484
 20
145.1856541956366
 30
0.0
 70
    32
  0
VERTEX
  5
184B4
  8
AM_0
 10
641.31641101890489
 20
145.18165419563641
 30
0.0
 70
    32
  0
VERTEX
  5
184B5
  8
AM_0
 10
641.31841101890495
 20
145.17865419563651
 30
0.0
 70
    32
  0
VERTEX
  5
184B6
  8
AM_0
 10
641.32141101890477
 20
145.17565419563621
 30
0.0
 70
    32
  0
VERTEX
  5
184B7
  8
AM_0
 10
641.32341101890484
 20
145.17165419563639
 30
0.0
 70
    32
  0
VERTEX
  5
184B8
  8
AM_0
 10
641.32641101890454
 20
145.16865419563629
 30
0.0
 70
    32
  0
VERTEX
  5
184B9
  8
AM_0
 10
641.32841101890483
 20
145.16465419563639
 30
0.0
 70
    32
  0
VERTEX
  5
184BA
  8
AM_0
 10
641.33141101890465
 20
145.1616541956364
 30
0.0
 70
    32
  0
VERTEX
  5
184BB
  8
AM_0
 10
641.33341101890471
 20
145.15765419563661
 30
0.0
 70
    32
  0
VERTEX
  5
184BC
  8
AM_0
 10
641.33641101890476
 20
145.1546541956362
 30
0.0
 70
    32
  0
VERTEX
  5
184BD
  8
AM_0
 10
641.33941101890514
 20
145.15165419563641
 30
0.0
 70
    32
  0
VERTEX
  5
184BE
  8
AM_0
 10
641.34141101890521
 20
145.1476541956367
 30
0.0
 70
    32
  0
VERTEX
  5
184BF
  8
AM_0
 10
641.34441101890468
 20
145.14465419563641
 30
0.0
 70
    32
  0
VERTEX
  5
184C0
  8
AM_0
 10
641.34641101890475
 20
145.14065419563661
 30
0.0
 70
    32
  0
VERTEX
  5
184C1
  8
AM_0
 10
641.34941101890513
 20
145.13765419563629
 30
0.0
 70
    32
  0
VERTEX
  5
184C2
  8
AM_0
 10
641.35241101890495
 20
145.13465419563619
 30
0.0
 70
    32
  0
VERTEX
  5
184C3
  8
AM_0
 10
641.35441101890467
 20
145.13065419563659
 30
0.0
 70
    32
  0
VERTEX
  5
184C4
  8
AM_0
 10
641.35741101890449
 20
145.12765419563669
 30
0.0
 70
    32
  0
VERTEX
  5
184C5
  8
AM_0
 10
641.35941101890512
 20
145.1236541956365
 30
0.0
 70
    32
  0
VERTEX
  5
184C6
  8
AM_0
 10
641.36241101890471
 20
145.1206541956366
 30
0.0
 70
    32
  0
VERTEX
  5
184C7
  8
AM_0
 10
641.36541101890498
 20
145.11765419563631
 30
0.0
 70
    32
  0
VERTEX
  5
184C8
  8
AM_0
 10
641.3674110189047
 20
145.11365419563651
 30
0.0
 70
    32
  0
VERTEX
  5
184C9
  8
AM_0
 10
641.37041101890486
 20
145.11065419563661
 30
0.0
 70
    32
  0
VERTEX
  5
184CA
  8
AM_0
 10
641.37341101890468
 20
145.10765419563671
 30
0.0
 70
    32
  0
VERTEX
  5
184CB
  8
AM_0
 10
641.37541101890486
 20
145.10365419563661
 30
0.0
 70
    32
  0
VERTEX
  5
184CC
  8
AM_0
 10
641.37841101890456
 20
145.10065419563651
 30
0.0
 70
    32
  0
VERTEX
  5
184CD
  8
AM_0
 10
641.38141101890471
 20
145.09765419563641
 30
0.0
 70
    32
  0
VERTEX
  5
184CE
  8
AM_0
 10
641.38441101890464
 20
145.0946541956362
 30
0.0
 70
    32
  0
VERTEX
  5
184CF
  8
AM_0
 10
641.38641101890471
 20
145.09065419563629
 30
0.0
 70
    32
  0
VERTEX
  5
184D0
  8
AM_0
 10
641.38941101890475
 20
145.08765419563619
 30
0.0
 70
    32
  0
VERTEX
  5
184D1
  8
AM_0
 10
641.39241101890502
 20
145.0846541956364
 30
0.0
 70
    32
  0
VERTEX
  5
184D2
  8
AM_0
 10
641.39541101890484
 20
145.08065419563661
 30
0.0
 70
    32
  0
VERTEX
  5
184D3
  8
AM_0
 10
641.39741101890502
 20
145.0776541956362
 30
0.0
 70
    32
  0
VERTEX
  5
184D4
  8
AM_0
 10
641.40041101890483
 20
145.07465419563641
 30
0.0
 70
    32
  0
VERTEX
  5
184D5
  8
AM_0
 10
641.40341101890454
 20
145.07165419563651
 30
0.0
 70
    32
  0
VERTEX
  5
184D6
  8
AM_0
 10
641.40641101890515
 20
145.06765419563621
 30
0.0
 70
    32
  0
VERTEX
  5
184D7
  8
AM_0
 10
641.40841101890476
 20
145.06465419563631
 30
0.0
 70
    32
  0
VERTEX
  5
184D8
  8
AM_0
 10
641.41141101890457
 20
145.06165419563641
 30
0.0
 70
    32
  0
VERTEX
  5
184D9
  8
AM_0
 10
641.41441101890473
 20
145.05865419563631
 30
0.0
 70
    32
  0
VERTEX
  5
184DA
  8
AM_0
 10
641.41741101890489
 20
145.05565419563629
 30
0.0
 70
    32
  0
VERTEX
  5
184DB
  8
AM_0
 10
641.42041101890493
 20
145.0516541956365
 30
0.0
 70
    32
  0
VERTEX
  5
184DC
  8
AM_0
 10
641.42341101890474
 20
145.0486541956364
 30
0.0
 70
    32
  0
VERTEX
  5
184DD
  8
AM_0
 10
641.42541101890492
 20
145.0456541956365
 30
0.0
 70
    32
  0
VERTEX
  5
184DE
  8
AM_0
 10
641.42841101890474
 20
145.0426541956366
 30
0.0
 70
    32
  0
VERTEX
  5
184DF
  8
AM_0
 10
641.43141101890456
 20
145.0396541956361
 30
0.0
 70
    32
  0
VERTEX
  5
184E0
  8
AM_0
 10
641.43441101890471
 20
145.0366541956366
 30
0.0
 70
    32
  0
VERTEX
  5
184E1
  8
AM_0
 10
641.43741101890521
 20
145.03365419563659
 30
0.0
 70
    32
  0
VERTEX
  5
184E2
  8
AM_0
 10
641.44041101890491
 20
145.0296541956362
 30
0.0
 70
    32
  0
VERTEX
  5
184E3
  8
AM_0
 10
641.44341101890473
 20
145.02665419563661
 30
0.0
 70
    32
  0
VERTEX
  5
184E4
  8
AM_0
 10
641.44641101890511
 20
145.0236541956366
 30
0.0
 70
    32
  0
VERTEX
  5
184E5
  8
AM_0
 10
641.44941101890504
 20
145.02065419563669
 30
0.0
 70
    32
  0
VERTEX
  5
184E6
  8
AM_0
 10
641.45241101890485
 20
145.0176541956364
 30
0.0
 70
    32
  0
VERTEX
  5
184E7
  8
AM_0
 10
641.45541101890467
 20
145.0146541956363
 30
0.0
 70
    32
  0
VERTEX
  5
184E8
  8
AM_0
 10
641.4584110189046
 20
145.01165419563659
 30
0.0
 70
    32
  0
VERTEX
  5
184E9
  8
AM_0
 10
641.46141101890476
 20
145.0086541956365
 30
0.0
 70
    32
  0
VERTEX
  5
184EA
  8
AM_0
 10
641.46441101890503
 20
145.00565419563659
 30
0.0
 70
    32
  0
VERTEX
  5
184EB
  8
AM_0
 10
641.46741101890484
 20
145.00265419563661
 30
0.0
 70
    32
  0
VERTEX
  5
184EC
  8
AM_0
 10
641.47041101890488
 20
144.9996541956362
 30
0.0
 70
    32
  0
VERTEX
  5
184ED
  8
AM_0
 10
641.47341101890515
 20
144.9966541956363
 30
0.0
 70
    32
  0
VERTEX
  5
184EE
  8
AM_0
 10
641.47641101890497
 20
144.99365419563671
 30
0.0
 70
    32
  0
VERTEX
  5
184EF
  8
AM_0
 10
641.47941101890501
 20
144.99065419563641
 30
0.0
 70
    32
  0
VERTEX
  5
184F0
  8
AM_0
 10
641.48241101890483
 20
144.98765419563631
 30
0.0
 70
    32
  0
VERTEX
  5
184F1
  8
AM_0
 10
641.48541101890487
 20
144.98465419563649
 30
0.0
 70
    32
  0
VERTEX
  5
184F2
  8
AM_0
 10
641.48841101890469
 20
144.98165419563631
 30
0.0
 70
    32
  0
VERTEX
  5
184F3
  8
AM_0
 10
641.49141101890473
 20
144.97865419563649
 30
0.0
 70
    32
  0
VERTEX
  5
184F4
  8
AM_0
 10
641.494411018905
 20
144.97565419563639
 30
0.0
 70
    32
  0
VERTEX
  5
184F5
  8
AM_0
 10
641.49741101890493
 20
144.9726541956363
 30
0.0
 70
    32
  0
VERTEX
  5
184F6
  8
AM_0
 10
641.50041101890531
 20
144.96965419563639
 30
0.0
 70
    32
  0
VERTEX
  5
184F7
  8
AM_0
 10
641.50341101890513
 20
144.96665419563629
 30
0.0
 70
    32
  0
VERTEX
  5
184F8
  8
AM_0
 10
641.50641101890506
 20
144.96365419563631
 30
0.0
 70
    32
  0
VERTEX
  5
184F9
  8
AM_0
 10
641.51041101890473
 20
144.96065419563621
 30
0.0
 70
    32
  0
VERTEX
  5
184FA
  8
AM_0
 10
641.51341101890489
 20
144.95765419563651
 30
0.0
 70
    32
  0
VERTEX
  5
184FB
  8
AM_0
 10
641.51641101890471
 20
144.95465419563621
 30
0.0
 70
    32
  0
VERTEX
  5
184FC
  8
AM_0
 10
641.51941101890475
 20
144.95265419563651
 30
0.0
 70
    32
  0
VERTEX
  5
184FD
  8
AM_0
 10
641.52241101890525
 20
144.94965419563641
 30
0.0
 70
    32
  0
VERTEX
  5
184FE
  8
AM_0
 10
641.52541101890472
 20
144.9466541956366
 30
0.0
 70
    32
  0
VERTEX
  5
184FF
  8
AM_0
 10
641.52941101890508
 20
144.94365419563641
 30
0.0
 70
    32
  0
VERTEX
  5
18500
  8
AM_0
 10
641.5324110189049
 20
144.9406541956364
 30
0.0
 70
    32
  0
VERTEX
  5
18501
  8
AM_0
 10
641.5354110189046
 20
144.9376541956365
 30
0.0
 70
    32
  0
VERTEX
  5
18502
  8
AM_0
 10
641.53841101890475
 20
144.9356541956366
 30
0.0
 70
    32
  0
VERTEX
  5
18503
  8
AM_0
 10
641.54241101890466
 20
144.9326541956365
 30
0.0
 70
    32
  0
VERTEX
  5
18504
  8
AM_0
 10
641.54541101890459
 20
144.9296541956362
 30
0.0
 70
    32
  0
VERTEX
  5
18505
  8
AM_0
 10
641.54841101890474
 20
144.9266541956367
 30
0.0
 70
    32
  0
VERTEX
  5
18506
  8
AM_0
 10
641.55141101890501
 20
144.92465419563621
 30
0.0
 70
    32
  0
VERTEX
  5
18507
  8
AM_0
 10
641.55541101890469
 20
144.92165419563631
 30
0.0
 70
    32
  0
VERTEX
  5
18508
  8
AM_0
 10
641.55841101890474
 20
144.91865419563641
 30
0.0
 70
    32
  0
VERTEX
  5
18509
  8
AM_0
 10
641.56141101890455
 20
144.91665419563631
 30
0.0
 70
    32
  0
VERTEX
  5
1850A
  8
AM_0
 10
641.56541101890468
 20
144.9136541956361
 30
0.0
 70
    32
  0
VERTEX
  5
1850B
  8
AM_0
 10
641.56841101890473
 20
144.91065419563651
 30
0.0
 70
    32
  0
VERTEX
  5
1850C
  8
AM_0
 10
641.571411018905
 20
144.90865419563659
 30
0.0
 70
    32
  0
VERTEX
  5
1850D
  8
AM_0
 10
641.57541101890456
 20
144.9056541956364
 30
0.0
 70
    32
  0
VERTEX
  5
1850E
  8
AM_0
 10
641.57841101890472
 20
144.90265419563639
 30
0.0
 70
    32
  0
VERTEX
  5
1850F
  8
AM_0
 10
641.58141101890499
 20
144.90065419563629
 30
0.0
 70
    32
  0
VERTEX
  5
18510
  8
AM_0
 10
641.58541101890467
 20
144.89765419563639
 30
0.0
 70
    32
  0
VERTEX
  5
18511
  8
AM_0
 10
641.58841101890471
 20
144.89565419563661
 30
0.0
 70
    32
  0
VERTEX
  5
18512
  8
AM_0
 10
641.59241101890473
 20
144.8926541956364
 30
0.0
 70
    32
  0
VERTEX
  5
18513
  8
AM_0
 10
641.59541101890477
 20
144.8896541956361
 30
0.0
 70
    32
  0
VERTEX
  5
18514
  8
AM_0
 10
641.5984110189047
 20
144.8876541956362
 30
0.0
 70
    32
  0
VERTEX
  5
18515
  8
AM_0
 10
641.60241101890472
 20
144.88465419563639
 30
0.0
 70
    32
  0
VERTEX
  5
18516
  8
AM_0
 10
641.60541101890476
 20
144.88265419563641
 30
0.0
 70
    32
  0
VERTEX
  5
18517
  8
AM_0
 10
641.60941101890489
 20
144.8796541956365
 30
0.0
 70
    32
  0
VERTEX
  5
18518
  8
AM_0
 10
641.61241101890471
 20
144.87765419563661
 30
0.0
 70
    32
  0
VERTEX
  5
18519
  8
AM_0
 10
641.61641101890461
 20
144.8746541956364
 30
0.0
 70
    32
  0
VERTEX
  5
1851A
  8
AM_0
 10
641.61941101890477
 20
144.87265419563639
 30
0.0
 70
    32
  0
VERTEX
  5
1851B
  8
AM_0
 10
641.62341101890502
 20
144.87065419563629
 30
0.0
 70
    32
  0
VERTEX
  5
1851C
  8
AM_0
 10
641.62641101890483
 20
144.86765419563619
 30
0.0
 70
    32
  0
VERTEX
  5
1851D
  8
AM_0
 10
641.63041101890508
 20
144.86565419563621
 30
0.0
 70
    32
  0
VERTEX
  5
1851E
  8
AM_0
 10
641.63341101890478
 20
144.86265419563659
 30
0.0
 70
    32
  0
VERTEX
  5
1851F
  8
AM_0
 10
641.63741101890457
 20
144.8606541956365
 30
0.0
 70
    32
  0
VERTEX
  5
18520
  8
AM_0
 10
641.64141101890527
 20
144.8586541956364
 30
0.0
 70
    32
  0
VERTEX
  5
18521
  8
AM_0
 10
641.64441101890475
 20
144.8556541956365
 30
0.0
 70
    32
  0
VERTEX
  5
18522
  8
AM_0
 10
641.64841101890499
 20
144.8536541956363
 30
0.0
 70
    32
  0
VERTEX
  5
18523
  8
AM_0
 10
641.65141101890492
 20
144.8516541956364
 30
0.0
 70
    32
  0
VERTEX
  5
18524
  8
AM_0
 10
641.65541101890449
 20
144.84865419563661
 30
0.0
 70
    32
  0
VERTEX
  5
18525
  8
AM_0
 10
641.6594110189053
 20
144.84665419563621
 30
0.0
 70
    32
  0
VERTEX
  5
18526
  8
AM_0
 10
641.66241101890466
 20
144.84465419563631
 30
0.0
 70
    32
  0
VERTEX
  5
18527
  8
AM_0
 10
641.66641101890468
 20
144.8426541956365
 30
0.0
 70
    32
  0
VERTEX
  5
18528
  8
AM_0
 10
641.6704110189047
 20
144.83965419563671
 30
0.0
 70
    32
  0
VERTEX
  5
18529
  8
AM_0
 10
641.67341101890474
 20
144.83765419563659
 30
0.0
 70
    32
  0
VERTEX
  5
1852A
  8
AM_0
 10
641.67741101890499
 20
144.83565419563649
 30
0.0
 70
    32
  0
VERTEX
  5
1852B
  8
AM_0
 10
641.68141101890524
 20
144.83365419563651
 30
0.0
 70
    32
  0
VERTEX
  5
1852C
  8
AM_0
 10
641.68441101890426
 20
144.83165419563639
 30
0.0
 70
    32
  0
VERTEX
  5
1852D
  8
AM_0
 10
641.6884110189045
 20
144.82965419563629
 30
0.0
 70
    32
  0
VERTEX
  5
1852E
  8
AM_0
 10
641.69241101890475
 20
144.8276541956364
 30
0.0
 70
    32
  0
VERTEX
  5
1852F
  8
AM_0
 10
641.69541101890457
 20
144.8246541956363
 30
0.0
 70
    32
  0
VERTEX
  5
18530
  8
AM_0
 10
641.6994110189047
 20
144.82265419563629
 30
0.0
 70
    32
  0
VERTEX
  5
18531
  8
AM_0
 10
641.70341101890494
 20
144.82065419563639
 30
0.0
 70
    32
  0
VERTEX
  5
18532
  8
AM_0
 10
641.70741101890508
 20
144.8186541956361
 30
0.0
 70
    32
  0
VERTEX
  5
18533
  8
AM_0
 10
641.71041101890501
 20
144.8166541956362
 30
0.0
 70
    32
  0
VERTEX
  5
18534
  8
AM_0
 10
641.71441101890514
 20
144.81465419563631
 30
0.0
 70
    32
  0
VERTEX
  5
18535
  8
AM_0
 10
641.71841101890493
 20
144.81265419563661
 30
0.0
 70
    32
  0
VERTEX
  5
18536
  8
AM_0
 10
641.72241101890495
 20
144.81065419563649
 30
0.0
 70
    32
  0
VERTEX
  5
18537
  8
AM_0
 10
641.72641101890508
 20
144.80865419563611
 30
0.0
 70
    32
  0
VERTEX
  5
18538
  8
AM_0
 10
641.72941101890467
 20
144.8076541956365
 30
0.0
 70
    32
  0
VERTEX
  5
18539
  8
AM_0
 10
641.73341101890492
 20
144.80565419563661
 30
0.0
 70
    32
  0
VERTEX
  5
1853A
  8
AM_0
 10
641.73741101890505
 20
144.80365419563631
 30
0.0
 70
    32
  0
VERTEX
  5
1853B
  8
AM_0
 10
641.74141101890473
 20
144.80165419563659
 30
0.0
 70
    32
  0
VERTEX
  5
1853C
  8
AM_0
 10
641.74541101890497
 20
144.79965419563641
 30
0.0
 70
    32
  0
VERTEX
  5
1853D
  8
AM_0
 10
641.74941101890465
 20
144.79765419563651
 30
0.0
 70
    32
  0
VERTEX
  5
1853E
  8
AM_0
 10
641.75341101890467
 20
144.79665419563639
 30
0.0
 70
    32
  0
VERTEX
  5
1853F
  8
AM_0
 10
641.75641101890471
 20
144.79465419563641
 30
0.0
 70
    32
  0
VERTEX
  5
18540
  8
AM_0
 10
641.76041101890485
 20
144.79265419563649
 30
0.0
 70
    32
  0
VERTEX
  5
18541
  8
AM_0
 10
641.76441101890498
 20
144.79065419563659
 30
0.0
 70
    32
  0
VERTEX
  5
18542
  8
AM_0
 10
641.76841101890489
 20
144.78965419563619
 30
0.0
 70
    32
  0
VERTEX
  5
18543
  8
AM_0
 10
641.77241101890502
 20
144.78765419563629
 30
0.0
 70
    32
  0
VERTEX
  5
18544
  8
AM_0
 10
641.7764110189047
 20
144.7856541956366
 30
0.0
 70
    32
  0
VERTEX
  5
18545
  8
AM_0
 10
641.78041101890483
 20
144.78465419563639
 30
0.0
 70
    32
  0
VERTEX
  5
18546
  8
AM_0
 10
641.78441101890508
 20
144.78265419563661
 30
0.0
 70
    32
  0
VERTEX
  5
18547
  8
AM_0
 10
641.78841101890453
 20
144.7806541956364
 30
0.0
 70
    32
  0
VERTEX
  5
18548
  8
AM_0
 10
641.79241101890455
 20
144.7796541956364
 30
0.0
 70
    32
  0
VERTEX
  5
18549
  8
AM_0
 10
641.79641101890456
 20
144.7776541956363
 30
0.0
 70
    32
  0
VERTEX
  5
1854A
  8
AM_0
 10
641.80041101890492
 20
144.77665419563641
 30
0.0
 70
    32
  0
VERTEX
  5
1854B
  8
AM_0
 10
641.80441101890494
 20
144.77465419563649
 30
0.0
 70
    32
  0
VERTEX
  5
1854C
  8
AM_0
 10
641.80841101890474
 20
144.77365419563651
 30
0.0
 70
    32
  0
VERTEX
  5
1854D
  8
AM_0
 10
641.81241101890475
 20
144.7716541956363
 30
0.0
 70
    32
  0
VERTEX
  5
1854E
  8
AM_0
 10
641.81641101890477
 20
144.77065419563661
 30
0.0
 70
    32
  0
VERTEX
  5
1854F
  8
AM_0
 10
641.82041101890445
 20
144.76965419563641
 30
0.0
 70
    32
  0
VERTEX
  5
18550
  8
AM_0
 10
641.82441101890458
 20
144.76765419563631
 30
0.0
 70
    32
  0
VERTEX
  5
18551
  8
AM_0
 10
641.82841101890472
 20
144.76665419563651
 30
0.0
 70
    32
  0
VERTEX
  5
18552
  8
AM_0
 10
641.83241101890496
 20
144.76565419563661
 30
0.0
 70
    32
  0
VERTEX
  5
18553
  8
AM_0
 10
641.83641101890476
 20
144.76365419563649
 30
0.0
 70
    32
  0
VERTEX
  5
18554
  8
AM_0
 10
641.84041101890523
 20
144.76265419563629
 30
0.0
 70
    32
  0
VERTEX
  5
18555
  8
AM_0
 10
641.84441101890491
 20
144.76165419563659
 30
0.0
 70
    32
  0
VERTEX
  5
18556
  8
AM_0
 10
641.84941101890502
 20
144.76065419563639
 30
0.0
 70
    32
  0
VERTEX
  5
18557
  8
AM_0
 10
641.85341101890469
 20
144.75965419563639
 30
0.0
 70
    32
  0
VERTEX
  5
18558
  8
AM_0
 10
641.85741101890483
 20
144.75765419563649
 30
0.0
 70
    32
  0
VERTEX
  5
18559
  8
AM_0
 10
641.86141101890496
 20
144.75665419563629
 30
0.0
 70
    32
  0
VERTEX
  5
1855A
  8
AM_0
 10
641.86541101890452
 20
144.7556541956362
 30
0.0
 70
    32
  0
VERTEX
  5
1855B
  8
AM_0
 10
641.86941101890454
 20
144.75465419563639
 30
0.0
 70
    32
  0
VERTEX
  5
1855C
  8
AM_0
 10
641.87341101890456
 20
144.75365419563619
 30
0.0
 70
    32
  0
VERTEX
  5
1855D
  8
AM_0
 10
641.8774110189047
 20
144.75265419563669
 30
0.0
 70
    32
  0
VERTEX
  5
1855E
  8
AM_0
 10
641.88241101890492
 20
144.75165419563649
 30
0.0
 70
    32
  0
VERTEX
  5
1855F
  8
AM_0
 10
641.88641101890471
 20
144.7506541956364
 30
0.0
 70
    32
  0
VERTEX
  5
18560
  8
AM_0
 10
641.89041101890473
 20
144.7496541956364
 30
0.0
 70
    32
  0
VERTEX
  5
18561
  8
AM_0
 10
641.89441101890475
 20
144.74865419563619
 30
0.0
 70
    32
  0
VERTEX
  5
18562
  8
AM_0
 10
641.89841101890488
 20
144.7476541956365
 30
0.0
 70
    32
  0
VERTEX
  5
18563
  8
AM_0
 10
641.9024110189049
 20
144.7466541956363
 30
0.0
 70
    32
  0
VERTEX
  5
18564
  8
AM_0
 10
641.90741101890524
 20
144.7466541956363
 30
0.0
 70
    32
  0
VERTEX
  5
18565
  8
AM_0
 10
641.91141101890503
 20
144.74565419563629
 30
0.0
 70
    32
  0
VERTEX
  5
18566
  8
AM_0
 10
641.91541101890448
 20
144.7446541956364
 30
0.0
 70
    32
  0
VERTEX
  5
18567
  8
AM_0
 10
641.91941101890461
 20
144.74365419563651
 30
0.0
 70
    32
  0
VERTEX
  5
18568
  8
AM_0
 10
641.92341101890474
 20
144.74265419563631
 30
0.0
 70
    32
  0
VERTEX
  5
18569
  8
AM_0
 10
641.92841101890474
 20
144.74265419563631
 30
0.0
 70
    32
  0
VERTEX
  5
1856A
  8
AM_0
 10
641.93241101890465
 20
144.7416541956361
 30
0.0
 70
    32
  0
VERTEX
  5
1856B
  8
AM_0
 10
641.93641101890501
 20
144.7406541956363
 30
0.0
 70
    32
  0
VERTEX
  5
1856C
  8
AM_0
 10
641.94041101890468
 20
144.7406541956363
 30
0.0
 70
    32
  0
VERTEX
  5
1856D
  8
AM_0
 10
641.94541101890513
 20
144.7396541956364
 30
0.0
 70
    32
  0
VERTEX
  5
1856E
  8
AM_0
 10
641.94941101890493
 20
144.73865419563651
 30
0.0
 70
    32
  0
VERTEX
  5
1856F
  8
AM_0
 10
641.95341101890472
 20
144.73865419563651
 30
0.0
 70
    32
  0
VERTEX
  5
18570
  8
AM_0
 10
641.95741101890474
 20
144.73765419563651
 30
0.0
 70
    32
  0
VERTEX
  5
18571
  8
AM_0
 10
641.96241101890473
 20
144.73765419563651
 30
0.0
 70
    32
  0
VERTEX
  5
18572
  8
AM_0
 10
641.96641101890521
 20
144.73665419563631
 30
0.0
 70
    32
  0
VERTEX
  5
18573
  8
AM_0
 10
641.97041101890466
 20
144.73665419563631
 30
0.0
 70
    32
  0
VERTEX
  5
18574
  8
AM_0
 10
641.9744110189049
 20
144.73565419563661
 30
0.0
 70
    32
  0
VERTEX
  5
18575
  8
AM_0
 10
641.9794110189049
 20
144.73565419563661
 30
0.0
 70
    32
  0
VERTEX
  5
18576
  8
AM_0
 10
641.98341101890469
 20
144.73565419563661
 30
0.0
 70
    32
  0
VERTEX
  5
18577
  8
AM_0
 10
641.98741101890471
 20
144.73465419563661
 30
0.0
 70
    32
  0
VERTEX
  5
18578
  8
AM_0
 10
641.99141101890484
 20
144.73465419563661
 30
0.0
 70
    32
  0
VERTEX
  5
18579
  8
AM_0
 10
641.99641101890484
 20
144.73465419563661
 30
0.0
 70
    32
  0
VERTEX
  5
1857A
  8
AM_0
 10
642.00041101890474
 20
144.73465419563661
 30
0.0
 70
    32
  0
VERTEX
  5
1857B
  8
AM_0
 10
642.00441101890465
 20
144.7336541956364
 30
0.0
 70
    32
  0
VERTEX
  5
1857C
  8
AM_0
 10
642.00841101890501
 20
144.7336541956364
 30
0.0
 70
    32
  0
VERTEX
  5
1857D
  8
AM_0
 10
642.01341101890489
 20
144.7336541956364
 30
0.0
 70
    32
  0
VERTEX
  5
1857E
  8
AM_0
 10
642.01741101890457
 20
144.7336541956364
 30
0.0
 70
    32
  0
VERTEX
  5
1857F
  8
AM_0
 10
642.02141101890493
 20
144.7336541956364
 30
0.0
 70
    32
  0
VERTEX
  5
18580
  8
AM_0
 10
642.02641101890492
 20
144.7336541956364
 30
0.0
 70
    32
  0
VERTEX
  5
18581
  8
AM_0
 10
642.03041101890472
 20
144.7336541956364
 30
0.0
 70
    32
  0
VERTEX
  5
18582
  8
AM_0
 10
642.03441101890485
 20
144.7336541956364
 30
0.0
 70
    32
  0
VERTEX
  5
18583
  8
AM_0
 10
642.03841101890498
 20
144.7336541956364
 30
0.0
 70
    32
  0
VERTEX
  5
18584
  8
AM_0
 10
642.04341101890509
 20
144.7336541956364
 30
0.0
 70
    32
  0
VERTEX
  5
18585
  8
AM_0
 10
642.04741101890465
 20
144.73465419563661
 30
0.0
 70
    32
  0
VERTEX
  5
18586
  8
AM_0
 10
642.05141101890467
 20
144.73465419563661
 30
0.0
 70
    32
  0
VERTEX
  5
18587
  8
AM_0
 10
642.05541101890469
 20
144.73465419563661
 30
0.0
 70
    32
  0
VERTEX
  5
18588
  8
AM_0
 10
642.06041101890469
 20
144.73465419563661
 30
0.0
 70
    32
  0
VERTEX
  5
18589
  8
AM_0
 10
642.06441101890471
 20
144.73565419563661
 30
0.0
 70
    32
  0
VERTEX
  5
1858A
  8
AM_0
 10
642.06841101890484
 20
144.73565419563661
 30
0.0
 70
    32
  0
VERTEX
  5
1858B
  8
AM_0
 10
642.07241101890486
 20
144.73565419563661
 30
0.0
 70
    32
  0
VERTEX
  5
1858C
  8
AM_0
 10
642.07741101890474
 20
144.73665419563631
 30
0.0
 70
    32
  0
VERTEX
  5
1858D
  8
AM_0
 10
642.08141101890487
 20
144.73665419563631
 30
0.0
 70
    32
  0
VERTEX
  5
1858E
  8
AM_0
 10
642.08541101890501
 20
144.73665419563631
 30
0.0
 70
    32
  0
VERTEX
  5
1858F
  8
AM_0
 10
642.08941101890514
 20
144.73765419563651
 30
0.0
 70
    32
  0
VERTEX
  5
18590
  8
AM_0
 10
642.09441101890457
 20
144.73765419563651
 30
0.0
 70
    32
  0
VERTEX
  5
18591
  8
AM_0
 10
642.09841101890493
 20
144.73865419563651
 30
0.0
 70
    32
  0
VERTEX
  5
18592
  8
AM_0
 10
642.10241101890495
 20
144.73865419563651
 30
0.0
 70
    32
  0
VERTEX
  5
18593
  8
AM_0
 10
642.10641101890474
 20
144.7396541956364
 30
0.0
 70
    32
  0
VERTEX
  5
18594
  8
AM_0
 10
642.11141101890473
 20
144.7396541956364
 30
0.0
 70
    32
  0
VERTEX
  5
18595
  8
AM_0
 10
642.11541101890498
 20
144.7406541956363
 30
0.0
 70
    32
  0
VERTEX
  5
18596
  8
AM_0
 10
642.11941101890511
 20
144.7406541956363
 30
0.0
 70
    32
  0
VERTEX
  5
18597
  8
AM_0
 10
642.12341101890445
 20
144.7416541956361
 30
0.0
 70
    32
  0
VERTEX
  5
18598
  8
AM_0
 10
642.12841101890467
 20
144.7416541956361
 30
0.0
 70
    32
  0
VERTEX
  5
18599
  8
AM_0
 10
642.13241101890469
 20
144.74265419563631
 30
0.0
 70
    32
  0
VERTEX
  5
1859A
  8
AM_0
 10
642.1364110189046
 20
144.74265419563631
 30
0.0
 70
    32
  0
VERTEX
  5
1859B
  8
AM_0
 10
642.14041101890484
 20
144.74365419563651
 30
0.0
 70
    32
  0
SEQEND
  5
1859C
  8
AM_0
  0
LINE
  5
1859D
  8
AM_0
 10
628.41082582194781
 20
161.73370126071049
 30
0.0
 11
658.91082582194804
 21
161.73370126071049
 31
0.0
  0
LINE
  5
1859E
  8
AM_0
 10
639.33082582194811
 20
157.7337012607104
 30
0.0
 11
630.51082582194761
 21
156.26870126071049
 31
0.0
  0
LINE
  5
1859F
  8
AM_0
 10
639.91082582194963
 20
161.73370126071049
 30
0.0
 11
628.41082582194952
 21
161.73370126071049
 31
0.0
  0
LINE
  5
185A0
  8
AM_0
 10
630.91088660738865
 20
178.73370126071069
 30
0.0
 11
630.91088660738865
 21
181.73370126071049
 31
0.0
  0
ARC
  5
185A1
  8
AM_0
 10
629.41082582194963
 20
177.7337012607108
 30
0.0
 40
0.9999999999998859
 50
90.0
 51
180.0
  0
ARC
  5
185A2
  8
AM_0
 10
638.9108258219494
 20
177.7337012607108
 30
0.0
 40
0.9999999999999996
 50
0.0
 51
90.0
  0
LINE
  5
185A3
  8
AM_0
 10
688.91082582194929
 20
177.7337012607108
 30
0.0
 11
688.91082582194929
 21
161.73370126071049
 31
0.0
  0
LINE
  5
185A4
  8
AM_0
 10
669.91082582194781
 20
172.01691482048261
 30
0.0
 11
669.91082582194781
 21
157.73370126071069
 31
0.0
  0
LINE
  5
185A5
  8
AM_0
 10
700.41082582194952
 20
145.23370126071049
 30
0.0
 11
700.41082582194952
 21
177.7337012607108
 31
0.0
  0
LINE
  5
185A6
  8
AM_0
 10
700.41082582194952
 20
161.73370126071049
 30
0.0
 11
688.91082582194929
 21
161.73370126071049
 31
0.0
  0
LINE
  5
185A7
  8
AM_0
 10
689.49082582194774
 20
157.7337012607104
 30
0.0
 11
698.31082582194722
 21
156.26870126071049
 31
0.0
  0
LINE
  5
185A8
  8
AM_0
 10
669.91082582194781
 20
161.73370126071049
 30
0.0
 11
700.41082582194781
 21
161.73370126071049
 31
0.0
  0
LINE
  5
185A9
  8
AM_0
 10
688.04097734096422
 20
157.7337012607104
 30
0.0
 11
688.04097734096422
 21
147.2337012607104
 31
0.0
  0
POLYLINE
  5
185AA
  8
AM_0
 66
     1
 10
0.0
 20
0.0
 30
0.0
 70
     8
  0
VERTEX
  5
185AB
  8
AM_0
 10
686.90101101890502
 20
144.74365419563651
 30
0.0
 70
    32
  0
VERTEX
  5
185AC
  8
AM_0
 10
686.90521101890511
 20
144.7446541956364
 30
0.0
 70
    32
  0
VERTEX
  5
185AD
  8
AM_0
 10
686.9095110189046
 20
144.74565419563629
 30
0.0
 70
    32
  0
VERTEX
  5
185AE
  8
AM_0
 10
686.91371101890445
 20
144.7466541956363
 30
0.0
 70
    32
  0
VERTEX
  5
185AF
  8
AM_0
 10
686.91801101890462
 20
144.7476541956365
 30
0.0
 70
    32
  0
VERTEX
  5
185B0
  8
AM_0
 10
686.92221101890493
 20
144.74865419563619
 30
0.0
 70
    32
  0
VERTEX
  5
185B1
  8
AM_0
 10
686.92651101890499
 20
144.7496541956364
 30
0.0
 70
    32
  0
VERTEX
  5
185B2
  8
AM_0
 10
686.93071101890473
 20
144.7506541956364
 30
0.0
 70
    32
  0
VERTEX
  5
185B3
  8
AM_0
 10
686.93491101890515
 20
144.75165419563649
 30
0.0
 70
    32
  0
VERTEX
  5
185B4
  8
AM_0
 10
686.93921101890464
 20
144.75265419563669
 30
0.0
 70
    32
  0
VERTEX
  5
185B5
  8
AM_0
 10
686.94341101890461
 20
144.75365419563619
 30
0.0
 70
    32
  0
VERTEX
  5
185B6
  8
AM_0
 10
686.94761101890492
 20
144.75465419563639
 30
0.0
 70
    32
  0
VERTEX
  5
185B7
  8
AM_0
 10
686.95191101890498
 20
144.7556541956362
 30
0.0
 70
    32
  0
VERTEX
  5
185B8
  8
AM_0
 10
686.95611101890529
 20
144.75665419563629
 30
0.0
 70
    32
  0
VERTEX
  5
185B9
  8
AM_0
 10
686.96031101890514
 20
144.75765419563649
 30
0.0
 70
    32
  0
VERTEX
  5
185BA
  8
AM_0
 10
686.96451101890455
 20
144.7586541956365
 30
0.0
 70
    32
  0
VERTEX
  5
185BB
  8
AM_0
 10
686.96871101890474
 20
144.75965419563639
 30
0.0
 70
    32
  0
VERTEX
  5
185BC
  8
AM_0
 10
686.97291101890482
 20
144.76165419563659
 30
0.0
 70
    32
  0
VERTEX
  5
185BD
  8
AM_0
 10
686.97711101890445
 20
144.76265419563629
 30
0.0
 70
    32
  0
VERTEX
  5
185BE
  8
AM_0
 10
686.98121101890456
 20
144.76365419563649
 30
0.0
 70
    32
  0
VERTEX
  5
185BF
  8
AM_0
 10
686.98541101890498
 20
144.7646541956365
 30
0.0
 70
    32
  0
VERTEX
  5
185C0
  8
AM_0
 10
686.98961101890472
 20
144.76565419563661
 30
0.0
 70
    32
  0
VERTEX
  5
185C1
  8
AM_0
 10
686.99371101890426
 20
144.76765419563631
 30
0.0
 70
    32
  0
VERTEX
  5
185C2
  8
AM_0
 10
686.99791101890469
 20
144.7686541956362
 30
0.0
 70
    32
  0
VERTEX
  5
185C3
  8
AM_0
 10
687.00201101890491
 20
144.76965419563641
 30
0.0
 70
    32
  0
VERTEX
  5
185C4
  8
AM_0
 10
687.00611101890456
 20
144.7716541956363
 30
0.0
 70
    32
  0
VERTEX
  5
185C5
  8
AM_0
 10
687.0102110189049
 20
144.77265419563631
 30
0.0
 70
    32
  0
VERTEX
  5
185C6
  8
AM_0
 10
687.01441101890475
 20
144.77365419563651
 30
0.0
 70
    32
  0
VERTEX
  5
185C7
  8
AM_0
 10
687.01841101890489
 20
144.77565419563621
 30
0.0
 70
    32
  0
VERTEX
  5
185C8
  8
AM_0
 10
687.02251101890499
 20
144.77665419563641
 30
0.0
 70
    32
  0
VERTEX
  5
185C9
  8
AM_0
 10
687.02661101890465
 20
144.77865419563651
 30
0.0
 70
    32
  0
VERTEX
  5
185CA
  8
AM_0
 10
687.03071101890498
 20
144.7796541956364
 30
0.0
 70
    32
  0
VERTEX
  5
185CB
  8
AM_0
 10
687.03471101890455
 20
144.78165419563661
 30
0.0
 70
    32
  0
VERTEX
  5
185CC
  8
AM_0
 10
687.03881101890499
 20
144.78265419563661
 30
0.0
 70
    32
  0
VERTEX
  5
185CD
  8
AM_0
 10
687.04281101890456
 20
144.78465419563639
 30
0.0
 70
    32
  0
VERTEX
  5
185CE
  8
AM_0
 10
687.04681101890503
 20
144.7866541956364
 30
0.0
 70
    32
  0
VERTEX
  5
185CF
  8
AM_0
 10
687.05081101890482
 20
144.78765419563629
 30
0.0
 70
    32
  0
VERTEX
  5
185D0
  8
AM_0
 10
687.05481101890518
 20
144.78965419563619
 30
0.0
 70
    32
  0
VERTEX
  5
185D1
  8
AM_0
 10
687.05881101890475
 20
144.79165419563631
 30
0.0
 70
    32
  0
VERTEX
  5
185D2
  8
AM_0
 10
687.06281101890465
 20
144.79365419563629
 30
0.0
 70
    32
  0
VERTEX
  5
185D3
  8
AM_0
 10
687.06671101890515
 20
144.79465419563641
 30
0.0
 70
    32
  0
VERTEX
  5
185D4
  8
AM_0
 10
687.07071101890472
 20
144.79665419563639
 30
0.0
 70
    32
  0
VERTEX
  5
185D5
  8
AM_0
 10
687.07461101890465
 20
144.79865419563649
 30
0.0
 70
    32
  0
VERTEX
  5
185D6
  8
AM_0
 10
687.07861101890524
 20
144.80065419563641
 30
0.0
 70
    32
  0
VERTEX
  5
185D7
  8
AM_0
 10
687.08251101890482
 20
144.80265419563631
 30
0.0
 70
    32
  0
VERTEX
  5
185D8
  8
AM_0
 10
687.08641101890487
 20
144.80465419563629
 30
0.0
 70
    32
  0
VERTEX
  5
185D9
  8
AM_0
 10
687.09031101890469
 20
144.8066541956363
 30
0.0
 70
    32
  0
VERTEX
  5
185DA
  8
AM_0
 10
687.09421101890484
 20
144.80865419563611
 30
0.0
 70
    32
  0
VERTEX
  5
185DB
  8
AM_0
 10
687.09811101890512
 20
144.81065419563649
 30
0.0
 70
    32
  0
VERTEX
  5
185DC
  8
AM_0
 10
687.10201101890505
 20
144.81265419563661
 30
0.0
 70
    32
  0
VERTEX
  5
185DD
  8
AM_0
 10
687.105811018905
 20
144.81465419563631
 30
0.0
 70
    32
  0
VERTEX
  5
185DE
  8
AM_0
 10
687.10971101890493
 20
144.8166541956362
 30
0.0
 70
    32
  0
VERTEX
  5
185DF
  8
AM_0
 10
687.11351101890466
 20
144.8186541956361
 30
0.0
 70
    32
  0
VERTEX
  5
185E0
  8
AM_0
 10
687.11731101890473
 20
144.82065419563639
 30
0.0
 70
    32
  0
VERTEX
  5
185E1
  8
AM_0
 10
687.12121101890455
 20
144.82265419563629
 30
0.0
 70
    32
  0
VERTEX
  5
185E2
  8
AM_0
 10
687.12501101890484
 20
144.8246541956363
 30
0.0
 70
    32
  0
VERTEX
  5
185E3
  8
AM_0
 10
687.12881101890434
 20
144.82665419563619
 30
0.0
 70
    32
  0
VERTEX
  5
185E4
  8
AM_0
 10
687.13251101890455
 20
144.8286541956366
 30
0.0
 70
    32
  0
VERTEX
  5
185E5
  8
AM_0
 10
687.13631101890451
 20
144.8306541956365
 30
0.0
 70
    32
  0
VERTEX
  5
185E6
  8
AM_0
 10
687.14011101890446
 20
144.83365419563651
 30
0.0
 70
    32
  0
VERTEX
  5
185E7
  8
AM_0
 10
687.14381101890456
 20
144.83565419563649
 30
0.0
 70
    32
  0
VERTEX
  5
185E8
  8
AM_0
 10
687.14761101890474
 20
144.83765419563659
 30
0.0
 70
    32
  0
VERTEX
  5
185E9
  8
AM_0
 10
687.15131101890472
 20
144.83965419563671
 30
0.0
 70
    32
  0
VERTEX
  5
185EA
  8
AM_0
 10
687.15501101890493
 20
144.8426541956365
 30
0.0
 70
    32
  0
VERTEX
  5
185EB
  8
AM_0
 10
687.15881101890488
 20
144.84465419563631
 30
0.0
 70
    32
  0
VERTEX
  5
185EC
  8
AM_0
 10
687.16251101890475
 20
144.84665419563621
 30
0.0
 70
    32
  0
VERTEX
  5
185ED
  8
AM_0
 10
687.16611101890464
 20
144.84865419563661
 30
0.0
 70
    32
  0
VERTEX
  5
185EE
  8
AM_0
 10
687.16981101890462
 20
144.8516541956364
 30
0.0
 70
    32
  0
VERTEX
  5
185EF
  8
AM_0
 10
687.17351101890472
 20
144.8536541956363
 30
0.0
 70
    32
  0
VERTEX
  5
185F0
  8
AM_0
 10
687.17711101890472
 20
144.8556541956365
 30
0.0
 70
    32
  0
VERTEX
  5
185F1
  8
AM_0
 10
687.18081101890505
 20
144.8586541956364
 30
0.0
 70
    32
  0
VERTEX
  5
185F2
  8
AM_0
 10
687.18441101890505
 20
144.8606541956365
 30
0.0
 70
    32
  0
VERTEX
  5
185F3
  8
AM_0
 10
687.18811101890469
 20
144.8636541956364
 30
0.0
 70
    32
  0
VERTEX
  5
185F4
  8
AM_0
 10
687.19171101890504
 20
144.86565419563621
 30
0.0
 70
    32
  0
VERTEX
  5
185F5
  8
AM_0
 10
687.19531101890516
 20
144.86765419563619
 30
0.0
 70
    32
  0
VERTEX
  5
185F6
  8
AM_0
 10
687.19891101890471
 20
144.87065419563629
 30
0.0
 70
    32
  0
VERTEX
  5
185F7
  8
AM_0
 10
687.2024110189052
 20
144.87265419563639
 30
0.0
 70
    32
  0
VERTEX
  5
185F8
  8
AM_0
 10
687.20601101890452
 20
144.87565419563651
 30
0.0
 70
    32
  0
VERTEX
  5
185F9
  8
AM_0
 10
687.20961101890475
 20
144.87765419563661
 30
0.0
 70
    32
  0
VERTEX
  5
185FA
  8
AM_0
 10
687.2131110189049
 20
144.88065419563651
 30
0.0
 70
    32
  0
VERTEX
  5
185FB
  8
AM_0
 10
687.2166110189047
 20
144.88265419563641
 30
0.0
 70
    32
  0
VERTEX
  5
185FC
  8
AM_0
 10
687.22011101890484
 20
144.8856541956365
 30
0.0
 70
    32
  0
VERTEX
  5
185FD
  8
AM_0
 10
687.22371101890496
 20
144.8886541956366
 30
0.0
 70
    32
  0
VERTEX
  5
185FE
  8
AM_0
 10
687.22711101890445
 20
144.8906541956365
 30
0.0
 70
    32
  0
VERTEX
  5
185FF
  8
AM_0
 10
687.23061101890505
 20
144.8936541956362
 30
0.0
 70
    32
  0
VERTEX
  5
18600
  8
AM_0
 10
687.23411101890463
 20
144.89565419563661
 30
0.0
 70
    32
  0
VERTEX
  5
18601
  8
AM_0
 10
687.23761101890489
 20
144.8986541956366
 30
0.0
 70
    32
  0
VERTEX
  5
18602
  8
AM_0
 10
687.24101101890483
 20
144.9016541956363
 30
0.0
 70
    32
  0
VERTEX
  5
18603
  8
AM_0
 10
687.2445110189052
 20
144.90365419563639
 30
0.0
 70
    32
  0
VERTEX
  5
18604
  8
AM_0
 10
687.24791101890514
 20
144.90665419563669
 30
0.0
 70
    32
  0
VERTEX
  5
18605
  8
AM_0
 10
687.25131101890452
 20
144.90965419563631
 30
0.0
 70
    32
  0
VERTEX
  5
18606
  8
AM_0
 10
687.25471101890514
 20
144.91165419563649
 30
0.0
 70
    32
  0
VERTEX
  5
18607
  8
AM_0
 10
687.25811101890508
 20
144.91465419563619
 30
0.0
 70
    32
  0
VERTEX
  5
18608
  8
AM_0
 10
687.26151101890457
 20
144.91765419563649
 30
0.0
 70
    32
  0
VERTEX
  5
18609
  8
AM_0
 10
687.26481101890465
 20
144.92065419563639
 30
0.0
 70
    32
  0
VERTEX
  5
1860A
  8
AM_0
 10
687.26821101890505
 20
144.92265419563651
 30
0.0
 70
    32
  0
VERTEX
  5
1860B
  8
AM_0
 10
687.27151101890456
 20
144.9256541956365
 30
0.0
 70
    32
  0
VERTEX
  5
1860C
  8
AM_0
 10
687.27491101890473
 20
144.9286541956364
 30
0.0
 70
    32
  0
VERTEX
  5
1860D
  8
AM_0
 10
687.27821101890493
 20
144.9316541956365
 30
0.0
 70
    32
  0
VERTEX
  5
1860E
  8
AM_0
 10
687.28151101890455
 20
144.93365419563619
 30
0.0
 70
    32
  0
VERTEX
  5
1860F
  8
AM_0
 10
687.28481101890475
 20
144.93665419563629
 30
0.0
 70
    32
  0
VERTEX
  5
18610
  8
AM_0
 10
687.28811101890471
 20
144.93965419563619
 30
0.0
 70
    32
  0
VERTEX
  5
18611
  8
AM_0
 10
687.29141101890457
 20
144.94265419563649
 30
0.0
 70
    32
  0
VERTEX
  5
18612
  8
AM_0
 10
687.29471101890476
 20
144.94565419563639
 30
0.0
 70
    32
  0
VERTEX
  5
18613
  8
AM_0
 10
687.29791101890476
 20
144.94865419563641
 30
0.0
 70
    32
  0
VERTEX
  5
18614
  8
AM_0
 10
687.30121101890472
 20
144.95165419563631
 30
0.0
 70
    32
  0
VERTEX
  5
18615
  8
AM_0
 10
687.30441101890426
 20
144.95465419563621
 30
0.0
 70
    32
  0
VERTEX
  5
18616
  8
AM_0
 10
687.30761101890459
 20
144.95765419563651
 30
0.0
 70
    32
  0
VERTEX
  5
18617
  8
AM_0
 10
687.3108110189047
 20
144.9596541956364
 30
0.0
 70
    32
  0
VERTEX
  5
18618
  8
AM_0
 10
687.31401101890515
 20
144.9626541956367
 30
0.0
 70
    32
  0
VERTEX
  5
18619
  8
AM_0
 10
687.31721101890491
 20
144.9656541956364
 30
0.0
 70
    32
  0
VERTEX
  5
1861A
  8
AM_0
 10
687.32041101890457
 20
144.9686541956363
 30
0.0
 70
    32
  0
VERTEX
  5
1861B
  8
AM_0
 10
687.32361101890513
 20
144.9716541956364
 30
0.0
 70
    32
  0
VERTEX
  5
1861C
  8
AM_0
 10
687.32671101890503
 20
144.97465419563639
 30
0.0
 70
    32
  0
VERTEX
  5
1861D
  8
AM_0
 10
687.32991101890514
 20
144.97765419563629
 30
0.0
 70
    32
  0
VERTEX
  5
1861E
  8
AM_0
 10
687.33301101890447
 20
144.98065419563639
 30
0.0
 70
    32
  0
VERTEX
  5
1861F
  8
AM_0
 10
687.33611101890483
 20
144.98365419563629
 30
0.0
 70
    32
  0
VERTEX
  5
18620
  8
AM_0
 10
687.33931101890471
 20
144.98665419563619
 30
0.0
 70
    32
  0
VERTEX
  5
18621
  8
AM_0
 10
687.34241101890507
 20
144.98965419563621
 30
0.0
 70
    32
  0
VERTEX
  5
18622
  8
AM_0
 10
687.34551101890474
 20
144.99265419563631
 30
0.0
 70
    32
  0
VERTEX
  5
18623
  8
AM_0
 10
687.34851101890456
 20
144.9956541956364
 30
0.0
 70
    32
  0
VERTEX
  5
18624
  8
AM_0
 10
687.35161101890492
 20
144.9996541956362
 30
0.0
 70
    32
  0
VERTEX
  5
18625
  8
AM_0
 10
687.35471101890505
 20
145.00265419563661
 30
0.0
 70
    32
  0
VERTEX
  5
18626
  8
AM_0
 10
687.35771101890487
 20
145.00565419563659
 30
0.0
 70
    32
  0
VERTEX
  5
18627
  8
AM_0
 10
687.36081101890477
 20
145.0086541956365
 30
0.0
 70
    32
  0
VERTEX
  5
18628
  8
AM_0
 10
687.36381101890458
 20
145.01165419563659
 30
0.0
 70
    32
  0
VERTEX
  5
18629
  8
AM_0
 10
687.36681101890508
 20
145.0146541956363
 30
0.0
 70
    32
  0
VERTEX
  5
1862A
  8
AM_0
 10
687.3698110189049
 20
145.0176541956364
 30
0.0
 70
    32
  0
VERTEX
  5
1862B
  8
AM_0
 10
687.37281101890471
 20
145.02065419563669
 30
0.0
 70
    32
  0
VERTEX
  5
1862C
  8
AM_0
 10
687.37581101890521
 20
145.02465419563629
 30
0.0
 70
    32
  0
VERTEX
  5
1862D
  8
AM_0
 10
687.37881101890491
 20
145.02765419563639
 30
0.0
 70
    32
  0
VERTEX
  5
1862E
  8
AM_0
 10
687.38181101890495
 20
145.03065419563629
 30
0.0
 70
    32
  0
VERTEX
  5
1862F
  8
AM_0
 10
687.38471101890457
 20
145.03365419563659
 30
0.0
 70
    32
  0
VERTEX
  5
18630
  8
AM_0
 10
687.38771101890472
 20
145.0366541956366
 30
0.0
 70
    32
  0
VERTEX
  5
18631
  8
AM_0
 10
687.39061101890513
 20
145.0396541956361
 30
0.0
 70
    32
  0
VERTEX
  5
18632
  8
AM_0
 10
687.39361101890518
 20
145.04365419563629
 30
0.0
 70
    32
  0
VERTEX
  5
18633
  8
AM_0
 10
687.3965110189049
 20
145.04665419563619
 30
0.0
 70
    32
  0
VERTEX
  5
18634
  8
AM_0
 10
687.39941101890474
 20
145.04965419563629
 30
0.0
 70
    32
  0
VERTEX
  5
18635
  8
AM_0
 10
687.40231101890515
 20
145.05265419563639
 30
0.0
 70
    32
  0
VERTEX
  5
18636
  8
AM_0
 10
687.40521101890465
 20
145.0566541956365
 30
0.0
 70
    32
  0
VERTEX
  5
18637
  8
AM_0
 10
687.40811101890449
 20
145.05965419563631
 30
0.0
 70
    32
  0
VERTEX
  5
18638
  8
AM_0
 10
687.41091101890515
 20
145.0626541956365
 30
0.0
 70
    32
  0
VERTEX
  5
18639
  8
AM_0
 10
687.41381101890465
 20
145.06565419563631
 30
0.0
 70
    32
  0
VERTEX
  5
1863A
  8
AM_0
 10
687.41661101890475
 20
145.06965419563659
 30
0.0
 70
    32
  0
VERTEX
  5
1863B
  8
AM_0
 10
687.41951101890515
 20
145.0726541956364
 30
0.0
 70
    32
  0
VERTEX
  5
1863C
  8
AM_0
 10
687.42231101890513
 20
145.0756541956363
 30
0.0
 70
    32
  0
VERTEX
  5
1863D
  8
AM_0
 10
687.42511101890489
 20
145.07965419563629
 30
0.0
 70
    32
  0
VERTEX
  5
1863E
  8
AM_0
 10
687.42791101890475
 20
145.08265419563639
 30
0.0
 70
    32
  0
VERTEX
  5
1863F
  8
AM_0
 10
687.43071101890473
 20
145.08565419563629
 30
0.0
 70
    32
  0
VERTEX
  5
18640
  8
AM_0
 10
687.43351101890505
 20
145.0896541956366
 30
0.0
 70
    32
  0
VERTEX
  5
18641
  8
AM_0
 10
687.43631101890458
 20
145.09265419563641
 30
0.0
 70
    32
  0
VERTEX
  5
18642
  8
AM_0
 10
687.43911101890455
 20
145.0956541956364
 30
0.0
 70
    32
  0
VERTEX
  5
18643
  8
AM_0
 10
687.44181101890445
 20
145.09965419563611
 30
0.0
 70
    32
  0
VERTEX
  5
18644
  8
AM_0
 10
687.44461101890477
 20
145.10265419563629
 30
0.0
 70
    32
  0
VERTEX
  5
18645
  8
AM_0
 10
687.44731101890488
 20
145.1056541956365
 30
0.0
 70
    32
  0
VERTEX
  5
18646
  8
AM_0
 10
687.45011101890498
 20
145.10965419563661
 30
0.0
 70
    32
  0
VERTEX
  5
18647
  8
AM_0
 10
687.45281101890475
 20
145.11265419563631
 30
0.0
 70
    32
  0
VERTEX
  5
18648
  8
AM_0
 10
687.45551101890476
 20
145.1166541956365
 30
0.0
 70
    32
  0
VERTEX
  5
18649
  8
AM_0
 10
687.45821101890499
 20
145.11965419563609
 30
0.0
 70
    32
  0
VERTEX
  5
1864A
  8
AM_0
 10
687.46091101890465
 20
145.1226541956363
 30
0.0
 70
    32
  0
VERTEX
  5
1864B
  8
AM_0
 10
687.46361101890466
 20
145.12665419563649
 30
0.0
 70
    32
  0
VERTEX
  5
1864C
  8
AM_0
 10
687.46631101890478
 20
145.12965419563639
 30
0.0
 70
    32
  0
VERTEX
  5
1864D
  8
AM_0
 10
687.46891101890503
 20
145.1336541956361
 30
0.0
 70
    32
  0
VERTEX
  5
1864E
  8
AM_0
 10
687.47161101890515
 20
145.13665419563659
 30
0.0
 70
    32
  0
VERTEX
  5
1864F
  8
AM_0
 10
687.47431101890504
 20
145.14065419563661
 30
0.0
 70
    32
  0
VERTEX
  5
18650
  8
AM_0
 10
687.47691101890462
 20
145.14365419563649
 30
0.0
 70
    32
  0
VERTEX
  5
18651
  8
AM_0
 10
687.47951101890465
 20
145.1466541956365
 30
0.0
 70
    32
  0
VERTEX
  5
18652
  8
AM_0
 10
687.48211101890513
 20
145.15065419563621
 30
0.0
 70
    32
  0
VERTEX
  5
18653
  8
AM_0
 10
687.48481101890468
 20
145.15365419563651
 30
0.0
 70
    32
  0
VERTEX
  5
18654
  8
AM_0
 10
687.48741101890482
 20
145.15765419563661
 30
0.0
 70
    32
  0
VERTEX
  5
18655
  8
AM_0
 10
687.49001101890508
 20
145.1606541956362
 30
0.0
 70
    32
  0
VERTEX
  5
18656
  8
AM_0
 10
687.49251101890513
 20
145.16465419563639
 30
0.0
 70
    32
  0
VERTEX
  5
18657
  8
AM_0
 10
687.49511101890448
 20
145.1676541956366
 30
0.0
 70
    32
  0
VERTEX
  5
18658
  8
AM_0
 10
687.49771101890474
 20
145.17165419563639
 30
0.0
 70
    32
  0
VERTEX
  5
18659
  8
AM_0
 10
687.50021101890491
 20
145.17465419563641
 30
0.0
 70
    32
  0
VERTEX
  5
1865A
  8
AM_0
 10
687.50281101890516
 20
145.17865419563651
 30
0.0
 70
    32
  0
VERTEX
  5
1865B
  8
AM_0
 10
687.50531101890465
 20
145.18165419563641
 30
0.0
 70
    32
  0
VERTEX
  5
1865C
  8
AM_0
 10
687.50791101890457
 20
145.1856541956366
 30
0.0
 70
    32
  0
VERTEX
  5
1865D
  8
AM_0
 10
687.51041101890507
 20
145.1886541956363
 30
0.0
 70
    32
  0
VERTEX
  5
1865E
  8
AM_0
 10
687.51291101890445
 20
145.19265419563629
 30
0.0
 70
    32
  0
VERTEX
  5
1865F
  8
AM_0
 10
687.51541101890496
 20
145.1966541956366
 30
0.0
 70
    32
  0
VERTEX
  5
18660
  8
AM_0
 10
687.51791101890524
 20
145.1996541956365
 30
0.0
 70
    32
  0
VERTEX
  5
18661
  8
AM_0
 10
687.52041101890472
 20
145.2036541956366
 30
0.0
 70
    32
  0
VERTEX
  5
18662
  8
AM_0
 10
687.52291101890489
 20
145.20665419563639
 30
0.0
 70
    32
  0
VERTEX
  5
18663
  8
AM_0
 10
687.52531101890474
 20
145.21065419563641
 30
0.0
 70
    32
  0
VERTEX
  5
18664
  8
AM_0
 10
687.52781101890503
 20
145.21365419563639
 30
0.0
 70
    32
  0
VERTEX
  5
18665
  8
AM_0
 10
687.53021101890454
 20
145.2176541956363
 30
0.0
 70
    32
  0
VERTEX
  5
18666
  8
AM_0
 10
687.53271101890471
 20
145.2216541956364
 30
0.0
 70
    32
  0
VERTEX
  5
18667
  8
AM_0
 10
687.53511101890444
 20
145.22465419563611
 30
0.0
 70
    32
  0
VERTEX
  5
18668
  8
AM_0
 10
687.53751101890487
 20
145.2286541956363
 30
0.0
 70
    32
  0
VERTEX
  5
18669
  8
AM_0
 10
687.54001101890469
 20
145.2316541956362
 30
0.0
 70
    32
  0
VERTEX
  5
1866A
  8
AM_0
 10
687.54241101890523
 20
145.2356541956365
 30
0.0
 70
    32
  0
VERTEX
  5
1866B
  8
AM_0
 10
687.54481101890462
 20
145.23965419563649
 30
0.0
 70
    32
  0
VERTEX
  5
1866C
  8
AM_0
 10
687.54721101890493
 20
145.24265419563639
 30
0.0
 70
    32
  0
VERTEX
  5
1866D
  8
AM_0
 10
687.54961101890467
 20
145.24665419563649
 30
0.0
 70
    32
  0
VERTEX
  5
1866E
  8
AM_0
 10
687.55191101890466
 20
145.2506541956362
 30
0.0
 70
    32
  0
VERTEX
  5
1866F
  8
AM_0
 10
687.55431101890474
 20
145.25365419563639
 30
0.0
 70
    32
  0
VERTEX
  5
18670
  8
AM_0
 10
687.55671101890448
 20
145.25765419563641
 30
0.0
 70
    32
  0
VERTEX
  5
18671
  8
AM_0
 10
687.55901101890515
 20
145.26165419563659
 30
0.0
 70
    32
  0
VERTEX
  5
18672
  8
AM_0
 10
687.56141101890466
 20
145.2646541956363
 30
0.0
 70
    32
  0
VERTEX
  5
18673
  8
AM_0
 10
687.56371101890454
 20
145.2686541956364
 30
0.0
 70
    32
  0
VERTEX
  5
18674
  8
AM_0
 10
687.56601101890465
 20
145.27265419563659
 30
0.0
 70
    32
  0
VERTEX
  5
18675
  8
AM_0
 10
687.56831101890475
 20
145.27565419563629
 30
0.0
 70
    32
  0
VERTEX
  5
18676
  8
AM_0
 10
687.57061101890486
 20
145.27965419563631
 30
0.0
 70
    32
  0
VERTEX
  5
18677
  8
AM_0
 10
687.57301101890505
 20
145.28365419563659
 30
0.0
 70
    32
  0
VERTEX
  5
18678
  8
AM_0
 10
687.57521101890507
 20
145.28665419563649
 30
0.0
 70
    32
  0
VERTEX
  5
18679
  8
AM_0
 10
687.57751101890506
 20
145.29065419563659
 30
0.0
 70
    32
  0
VERTEX
  5
1867A
  8
AM_0
 10
687.57981101890482
 20
145.2946541956363
 30
0.0
 70
    32
  0
VERTEX
  5
1867B
  8
AM_0
 10
687.58211101890447
 20
145.2976541956362
 30
0.0
 70
    32
  0
VERTEX
  5
1867C
  8
AM_0
 10
687.58441101890514
 20
145.30165419563659
 30
0.0
 70
    32
  0
VERTEX
  5
1867D
  8
AM_0
 10
687.58661101890505
 20
145.30565419563641
 30
0.0
 70
    32
  0
VERTEX
  5
1867E
  8
AM_0
 10
687.58891101890492
 20
145.3096541956364
 30
0.0
 70
    32
  0
VERTEX
  5
1867F
  8
AM_0
 10
687.59111101890471
 20
145.3126541956363
 30
0.0
 70
    32
  0
VERTEX
  5
18680
  8
AM_0
 10
687.59331101890484
 20
145.31665419563649
 30
0.0
 70
    32
  0
VERTEX
  5
18681
  8
AM_0
 10
687.59561101890517
 20
145.32065419563639
 30
0.0
 70
    32
  0
VERTEX
  5
18682
  8
AM_0
 10
687.59781101890485
 20
145.32365419563649
 30
0.0
 70
    32
  0
VERTEX
  5
18683
  8
AM_0
 10
687.60001101890509
 20
145.3276541956362
 30
0.0
 70
    32
  0
VERTEX
  5
18684
  8
AM_0
 10
687.60221101890522
 20
145.3316541956363
 30
0.0
 70
    32
  0
VERTEX
  5
18685
  8
AM_0
 10
687.60441101890513
 20
145.33565419563641
 30
0.0
 70
    32
  0
VERTEX
  5
18686
  8
AM_0
 10
687.60661101890503
 20
145.33865419563631
 30
0.0
 70
    32
  0
VERTEX
  5
18687
  8
AM_0
 10
687.60871101890507
 20
145.3426541956363
 30
0.0
 70
    32
  0
VERTEX
  5
18688
  8
AM_0
 10
687.6109110189052
 20
145.3466541956364
 30
0.0
 70
    32
  0
VERTEX
  5
18689
  8
AM_0
 10
687.61311101890476
 20
145.35065419563639
 30
0.0
 70
    32
  0
VERTEX
  5
1868A
  8
AM_0
 10
687.61521101890514
 20
145.3546541956365
 30
0.0
 70
    32
  0
VERTEX
  5
1868B
  8
AM_0
 10
687.61741101890459
 20
145.3576541956366
 30
0.0
 70
    32
  0
VERTEX
  5
1868C
  8
AM_0
 10
687.61951101890509
 20
145.36165419563619
 30
0.0
 70
    32
  0
VERTEX
  5
1868D
  8
AM_0
 10
687.62171101890522
 20
145.36565419563621
 30
0.0
 70
    32
  0
VERTEX
  5
1868E
  8
AM_0
 10
687.62381101890514
 20
145.36965419563629
 30
0.0
 70
    32
  0
VERTEX
  5
1868F
  8
AM_0
 10
687.62591101890462
 20
145.37265419563639
 30
0.0
 70
    32
  0
VERTEX
  5
18690
  8
AM_0
 10
687.62801101890454
 20
145.37665419563641
 30
0.0
 70
    32
  0
VERTEX
  5
18691
  8
AM_0
 10
687.63011101890515
 20
145.3806541956364
 30
0.0
 70
    32
  0
VERTEX
  5
18692
  8
AM_0
 10
687.63221101890474
 20
145.3846541956365
 30
0.0
 70
    32
  0
VERTEX
  5
18693
  8
AM_0
 10
687.6343110189049
 20
145.3886541956366
 30
0.0
 70
    32
  0
VERTEX
  5
18694
  8
AM_0
 10
687.63641101890505
 20
145.3926541956364
 30
0.0
 70
    32
  0
VERTEX
  5
18695
  8
AM_0
 10
687.63851101890475
 20
145.39565419563669
 30
0.0
 70
    32
  0
VERTEX
  5
18696
  8
AM_0
 10
687.64051101890539
 20
145.39965419563649
 30
0.0
 70
    32
  0
VERTEX
  5
18697
  8
AM_0
 10
687.6426110189044
 20
145.40365419563651
 30
0.0
 70
    32
  0
VERTEX
  5
18698
  8
AM_0
 10
687.64471101890456
 20
145.40765419563661
 30
0.0
 70
    32
  0
VERTEX
  5
18699
  8
AM_0
 10
687.64671101890485
 20
145.4116541956364
 30
0.0
 70
    32
  0
VERTEX
  5
1869A
  8
AM_0
 10
687.64881101890489
 20
145.4146541956365
 30
0.0
 70
    32
  0
VERTEX
  5
1869B
  8
AM_0
 10
687.65081101890473
 20
145.41865419563661
 30
0.0
 70
    32
  0
VERTEX
  5
1869C
  8
AM_0
 10
687.65281101890457
 20
145.4226541956362
 30
0.0
 70
    32
  0
VERTEX
  5
1869D
  8
AM_0
 10
687.65481101890475
 20
145.4266541956365
 30
0.0
 70
    32
  0
VERTEX
  5
1869E
  8
AM_0
 10
687.65681101890505
 20
145.43065419563629
 30
0.0
 70
    32
  0
VERTEX
  5
1869F
  8
AM_0
 10
687.65881101890477
 20
145.43465419563651
 30
0.0
 70
    32
  0
VERTEX
  5
186A0
  8
AM_0
 10
687.66081101890472
 20
145.4386541956363
 30
0.0
 70
    32
  0
VERTEX
  5
186A1
  8
AM_0
 10
687.66281101890502
 20
145.44165419563649
 30
0.0
 70
    32
  0
VERTEX
  5
186A2
  8
AM_0
 10
687.66481101890508
 20
145.44565419563631
 30
0.0
 70
    32
  0
VERTEX
  5
186A3
  8
AM_0
 10
687.66681101890492
 20
145.44965419563641
 30
0.0
 70
    32
  0
VERTEX
  5
186A4
  8
AM_0
 10
687.66881101890465
 20
145.4536541956362
 30
0.0
 70
    32
  0
VERTEX
  5
186A5
  8
AM_0
 10
687.67071101890519
 20
145.45765419563639
 30
0.0
 70
    32
  0
VERTEX
  5
186A6
  8
AM_0
 10
687.67271101890469
 20
145.4616541956365
 30
0.0
 70
    32
  0
VERTEX
  5
186A7
  8
AM_0
 10
687.67461101890513
 20
145.4656541956366
 30
0.0
 70
    32
  0
VERTEX
  5
186A8
  8
AM_0
 10
687.67661101890474
 20
145.46965419563639
 30
0.0
 70
    32
  0
VERTEX
  5
186A9
  8
AM_0
 10
687.67851101890483
 20
145.47365419563661
 30
0.0
 70
    32
  0
VERTEX
  5
186AA
  8
AM_0
 10
687.68041101890469
 20
145.47665419563651
 30
0.0
 70
    32
  0
VERTEX
  5
186AB
  8
AM_0
 10
687.68241101890487
 20
145.4806541956363
 30
0.0
 70
    32
  0
VERTEX
  5
186AC
  8
AM_0
 10
687.68431101890485
 20
145.48465419563661
 30
0.0
 70
    32
  0
VERTEX
  5
186AD
  8
AM_0
 10
687.68621101890471
 20
145.4886541956364
 30
0.0
 70
    32
  0
VERTEX
  5
186AE
  8
AM_0
 10
687.68811101890515
 20
145.49265419563631
 30
0.0
 70
    32
  0
VERTEX
  5
186AF
  8
AM_0
 10
687.69001101890467
 20
145.49665419563649
 30
0.0
 70
    32
  0
VERTEX
  5
186B0
  8
AM_0
 10
687.69191101890522
 20
145.50065419563629
 30
0.0
 70
    32
  0
VERTEX
  5
186B1
  8
AM_0
 10
687.69371101890476
 20
145.50465419563639
 30
0.0
 70
    32
  0
VERTEX
  5
186B2
  8
AM_0
 10
687.69561101890486
 20
145.50865419563641
 30
0.0
 70
    32
  0
VERTEX
  5
186B3
  8
AM_0
 10
687.69751101890472
 20
145.51265419563629
 30
0.0
 70
    32
  0
VERTEX
  5
186B4
  8
AM_0
 10
687.69931101890472
 20
145.51665419563651
 30
0.0
 70
    32
  0
VERTEX
  5
186B5
  8
AM_0
 10
687.70121101890493
 20
145.51965419563641
 30
0.0
 70
    32
  0
VERTEX
  5
186B6
  8
AM_0
 10
687.70301101890493
 20
145.52365419563651
 30
0.0
 70
    32
  0
VERTEX
  5
186B7
  8
AM_0
 10
687.70491101890514
 20
145.5276541956365
 30
0.0
 70
    32
  0
VERTEX
  5
186B8
  8
AM_0
 10
687.70671101890491
 20
145.53165419563629
 30
0.0
 70
    32
  0
VERTEX
  5
186B9
  8
AM_0
 10
687.70851101890514
 20
145.5356541956362
 30
0.0
 70
    32
  0
VERTEX
  5
186BA
  8
AM_0
 10
687.71041101890523
 20
145.53965419563639
 30
0.0
 70
    32
  0
VERTEX
  5
186BB
  8
AM_0
 10
687.71221101890467
 20
145.54365419563621
 30
0.0
 70
    32
  0
VERTEX
  5
186BC
  8
AM_0
 10
687.71401101890467
 20
145.54765419563631
 30
0.0
 70
    32
  0
VERTEX
  5
186BD
  8
AM_0
 10
687.7158110189049
 20
145.55165419563659
 30
0.0
 70
    32
  0
VERTEX
  5
186BE
  8
AM_0
 10
687.7176110189049
 20
145.55565419563621
 30
0.0
 70
    32
  0
VERTEX
  5
186BF
  8
AM_0
 10
687.71941101890491
 20
145.55965419563631
 30
0.0
 70
    32
  0
VERTEX
  5
186C0
  8
AM_0
 10
687.72111101890505
 20
145.5636541956363
 30
0.0
 70
    32
  0
VERTEX
  5
186C1
  8
AM_0
 10
687.72291101890505
 20
145.56765419563629
 30
0.0
 70
    32
  0
VERTEX
  5
186C2
  8
AM_0
 10
687.72471101890449
 20
145.5716541956364
 30
0.0
 70
    32
  0
VERTEX
  5
186C3
  8
AM_0
 10
687.72651101890517
 20
145.57565419563619
 30
0.0
 70
    32
  0
VERTEX
  5
186C4
  8
AM_0
 10
687.72821101890497
 20
145.57965419563629
 30
0.0
 70
    32
  0
VERTEX
  5
186C5
  8
AM_0
 10
687.73001101890475
 20
145.58365419563631
 30
0.0
 70
    32
  0
VERTEX
  5
186C6
  8
AM_0
 10
687.73171101890466
 20
145.58765419563659
 30
0.0
 70
    32
  0
VERTEX
  5
186C7
  8
AM_0
 10
687.73341101890446
 20
145.59165419563661
 30
0.0
 70
    32
  0
VERTEX
  5
186C8
  8
AM_0
 10
687.73521101890503
 20
145.5956541956362
 30
0.0
 70
    32
  0
VERTEX
  5
186C9
  8
AM_0
 10
687.73691101890495
 20
145.5996541956363
 30
0.0
 70
    32
  0
VERTEX
  5
186CA
  8
AM_0
 10
687.73861101890475
 20
145.60365419563649
 30
0.0
 70
    32
  0
VERTEX
  5
186CB
  8
AM_0
 10
687.74031101890489
 20
145.6076541956366
 30
0.0
 70
    32
  0
VERTEX
  5
186CC
  8
AM_0
 10
687.74201101890469
 20
145.61165419563639
 30
0.0
 70
    32
  0
VERTEX
  5
186CD
  8
AM_0
 10
687.74371101890483
 20
145.61565419563621
 30
0.0
 70
    32
  0
VERTEX
  5
186CE
  8
AM_0
 10
687.74541101890509
 20
145.61965419563629
 30
0.0
 70
    32
  0
VERTEX
  5
186CF
  8
AM_0
 10
687.74711101890477
 20
145.62365419563639
 30
0.0
 70
    32
  0
VERTEX
  5
186D0
  8
AM_0
 10
687.74881101890458
 20
145.62765419563661
 30
0.0
 70
    32
  0
VERTEX
  5
186D1
  8
AM_0
 10
687.75051101890494
 20
145.63165419563629
 30
0.0
 70
    32
  0
VERTEX
  5
186D2
  8
AM_0
 10
687.75221101890475
 20
145.6356541956365
 30
0.0
 70
    32
  0
VERTEX
  5
186D3
  8
AM_0
 10
687.75381101890446
 20
145.63965419563661
 30
0.0
 70
    32
  0
VERTEX
  5
186D4
  8
AM_0
 10
687.75551101890471
 20
145.6436541956362
 30
0.0
 70
    32
  0
VERTEX
  5
186D5
  8
AM_0
 10
687.75711101890465
 20
145.64765419563651
 30
0.0
 70
    32
  0
VERTEX
  5
186D6
  8
AM_0
 10
687.75881101890445
 20
145.6516541956363
 30
0.0
 70
    32
  0
VERTEX
  5
186D7
  8
AM_0
 10
687.76041101890462
 20
145.65565419563649
 30
0.0
 70
    32
  0
VERTEX
  5
186D8
  8
AM_0
 10
687.76211101890465
 20
145.65965419563659
 30
0.0
 70
    32
  0
VERTEX
  5
186D9
  8
AM_0
 10
687.76371101890436
 20
145.66365419563621
 30
0.0
 70
    32
  0
VERTEX
  5
186DA
  8
AM_0
 10
687.76531101890498
 20
145.66765419563649
 30
0.0
 70
    32
  0
VERTEX
  5
186DB
  8
AM_0
 10
687.76691101890458
 20
145.67165419563631
 30
0.0
 70
    32
  0
VERTEX
  5
186DC
  8
AM_0
 10
687.76861101890461
 20
145.67565419563641
 30
0.0
 70
    32
  0
VERTEX
  5
186DD
  8
AM_0
 10
687.77021101890489
 20
145.6796541956362
 30
0.0
 70
    32
  0
VERTEX
  5
186DE
  8
AM_0
 10
687.7718110189046
 20
145.68365419563619
 30
0.0
 70
    32
  0
VERTEX
  5
186DF
  8
AM_0
 10
687.77341101890454
 20
145.6876541956365
 30
0.0
 70
    32
  0
VERTEX
  5
186E0
  8
AM_0
 10
687.77491101890473
 20
145.69165419563649
 30
0.0
 70
    32
  0
VERTEX
  5
186E1
  8
AM_0
 10
687.7765110189049
 20
145.69565419563639
 30
0.0
 70
    32
  0
VERTEX
  5
186E2
  8
AM_0
 10
687.77811101890472
 20
145.69965419563641
 30
0.0
 70
    32
  0
VERTEX
  5
186E3
  8
AM_0
 10
687.779711018905
 20
145.70365419563669
 30
0.0
 70
    32
  0
VERTEX
  5
186E4
  8
AM_0
 10
687.78121101890474
 20
145.70765419563631
 30
0.0
 70
    32
  0
VERTEX
  5
186E5
  8
AM_0
 10
687.78281101890491
 20
145.7116541956365
 30
0.0
 70
    32
  0
VERTEX
  5
186E6
  8
AM_0
 10
687.78441101890485
 20
145.71665419563629
 30
0.0
 70
    32
  0
VERTEX
  5
186E7
  8
AM_0
 10
687.78591101890515
 20
145.7206541956362
 30
0.0
 70
    32
  0
VERTEX
  5
186E8
  8
AM_0
 10
687.78741101890455
 20
145.72465419563639
 30
0.0
 70
    32
  0
VERTEX
  5
186E9
  8
AM_0
 10
687.78901101890472
 20
145.7286541956363
 30
0.0
 70
    32
  0
VERTEX
  5
186EA
  8
AM_0
 10
687.79051101890502
 20
145.7326541956366
 30
0.0
 70
    32
  0
VERTEX
  5
186EB
  8
AM_0
 10
687.79201101890465
 20
145.73665419563631
 30
0.0
 70
    32
  0
VERTEX
  5
186EC
  8
AM_0
 10
687.79361101890515
 20
145.74065419563621
 30
0.0
 70
    32
  0
VERTEX
  5
186ED
  8
AM_0
 10
687.79511101890523
 20
145.7446541956364
 30
0.0
 70
    32
  0
VERTEX
  5
186EE
  8
AM_0
 10
687.79661101890463
 20
145.74865419563631
 30
0.0
 70
    32
  0
VERTEX
  5
186EF
  8
AM_0
 10
687.79811101890493
 20
145.75265419563661
 30
0.0
 70
    32
  0
VERTEX
  5
186F0
  8
AM_0
 10
687.79961101890501
 20
145.7566541956362
 30
0.0
 70
    32
  0
VERTEX
  5
186F1
  8
AM_0
 10
687.80111101890452
 20
145.76065419563639
 30
0.0
 70
    32
  0
VERTEX
  5
186F2
  8
AM_0
 10
687.80261101890517
 20
145.7646541956365
 30
0.0
 70
    32
  0
VERTEX
  5
186F3
  8
AM_0
 10
687.8040110189047
 20
145.76865419563629
 30
0.0
 70
    32
  0
VERTEX
  5
186F4
  8
AM_0
 10
687.80551101890467
 20
145.7736541956366
 30
0.0
 70
    32
  0
VERTEX
  5
186F5
  8
AM_0
 10
687.80701101890509
 20
145.77765419563639
 30
0.0
 70
    32
  0
VERTEX
  5
186F6
  8
AM_0
 10
687.80851101890505
 20
145.78165419563661
 30
0.0
 70
    32
  0
VERTEX
  5
186F7
  8
AM_0
 10
687.80991101890515
 20
145.78565419563651
 30
0.0
 70
    32
  0
VERTEX
  5
186F8
  8
AM_0
 10
687.81141101890489
 20
145.7896541956365
 30
0.0
 70
    32
  0
VERTEX
  5
186F9
  8
AM_0
 10
687.81281101890454
 20
145.79365419563629
 30
0.0
 70
    32
  0
VERTEX
  5
186FA
  8
AM_0
 10
687.81431101890485
 20
145.7976541956364
 30
0.0
 70
    32
  0
VERTEX
  5
186FB
  8
AM_0
 10
687.81571101890495
 20
145.8016541956365
 30
0.0
 70
    32
  0
VERTEX
  5
186FC
  8
AM_0
 10
687.81711101890505
 20
145.80565419563649
 30
0.0
 70
    32
  0
VERTEX
  5
186FD
  8
AM_0
 10
687.81851101890504
 20
145.80965419563631
 30
0.0
 70
    32
  0
VERTEX
  5
186FE
  8
AM_0
 10
687.82001101890523
 20
145.81465419563631
 30
0.0
 70
    32
  0
VERTEX
  5
186FF
  8
AM_0
 10
687.82141101890466
 20
145.8186541956361
 30
0.0
 70
    32
  0
VERTEX
  5
18700
  8
AM_0
 10
687.82281101890487
 20
145.8226541956364
 30
0.0
 70
    32
  0
VERTEX
  5
18701
  8
AM_0
 10
687.82421101890498
 20
145.82665419563619
 30
0.0
 70
    32
  0
VERTEX
  5
18702
  8
AM_0
 10
687.82561101890474
 20
145.8306541956367
 30
0.0
 70
    32
  0
VERTEX
  5
18703
  8
AM_0
 10
687.82701101890518
 20
145.8346541956364
 30
0.0
 70
    32
  0
VERTEX
  5
18704
  8
AM_0
 10
687.82841101890472
 20
145.8386541956362
 30
0.0
 70
    32
  0
VERTEX
  5
18705
  8
AM_0
 10
687.82981101890482
 20
145.8426541956365
 30
0.0
 70
    32
  0
VERTEX
  5
18706
  8
AM_0
 10
687.83111101890472
 20
145.84665419563621
 30
0.0
 70
    32
  0
VERTEX
  5
18707
  8
AM_0
 10
687.83251101890482
 20
145.85165419563631
 30
0.0
 70
    32
  0
VERTEX
  5
18708
  8
AM_0
 10
687.83391101890447
 20
145.8556541956365
 30
0.0
 70
    32
  0
VERTEX
  5
18709
  8
AM_0
 10
687.83521101890483
 20
145.85965419563661
 30
0.0
 70
    32
  0
VERTEX
  5
1870A
  8
AM_0
 10
687.83661101890459
 20
145.8636541956366
 30
0.0
 70
    32
  0
VERTEX
  5
1870B
  8
AM_0
 10
687.83791101890483
 20
145.86765419563631
 30
0.0
 70
    32
  0
VERTEX
  5
1870C
  8
AM_0
 10
687.8393110189046
 20
145.8716541956363
 30
0.0
 70
    32
  0
VERTEX
  5
1870D
  8
AM_0
 10
687.84061101890484
 20
145.8756541956364
 30
0.0
 70
    32
  0
VERTEX
  5
1870E
  8
AM_0
 10
687.84191101890485
 20
145.88065419563659
 30
0.0
 70
    32
  0
VERTEX
  5
1870F
  8
AM_0
 10
687.84331101890507
 20
145.88465419563639
 30
0.0
 70
    32
  0
VERTEX
  5
18710
  8
AM_0
 10
687.84461101890474
 20
145.88865419563649
 30
0.0
 70
    32
  0
VERTEX
  5
18711
  8
AM_0
 10
687.8459110189051
 20
145.89265419563631
 30
0.0
 70
    32
  0
VERTEX
  5
18712
  8
AM_0
 10
687.84721101890489
 20
145.89665419563639
 30
0.0
 70
    32
  0
VERTEX
  5
18713
  8
AM_0
 10
687.84851101890445
 20
145.90065419563621
 30
0.0
 70
    32
  0
VERTEX
  5
18714
  8
AM_0
 10
687.84981101890492
 20
145.9046541956362
 30
0.0
 70
    32
  0
VERTEX
  5
18715
  8
AM_0
 10
687.85111101890459
 20
145.90965419563619
 30
0.0
 70
    32
  0
VERTEX
  5
18716
  8
AM_0
 10
687.85241101890472
 20
145.9136541956361
 30
0.0
 70
    32
  0
VERTEX
  5
18717
  8
AM_0
 10
687.85371101890473
 20
145.91765419563649
 30
0.0
 70
    32
  0
VERTEX
  5
18718
  8
AM_0
 10
687.85501101890475
 20
145.92165419563619
 30
0.0
 70
    32
  0
VERTEX
  5
18719
  8
AM_0
 10
687.85631101890465
 20
145.92565419563641
 30
0.0
 70
    32
  0
VERTEX
  5
1871A
  8
AM_0
 10
687.85751101890457
 20
145.92965419563629
 30
0.0
 70
    32
  0
VERTEX
  5
1871B
  8
AM_0
 10
687.85881101890493
 20
145.93365419563611
 30
0.0
 70
    32
  0
VERTEX
  5
1871C
  8
AM_0
 10
687.86011101890495
 20
145.9386541956363
 30
0.0
 70
    32
  0
VERTEX
  5
1871D
  8
AM_0
 10
687.86131101890498
 20
145.94265419563641
 30
0.0
 70
    32
  0
VERTEX
  5
1871E
  8
AM_0
 10
687.86261101890466
 20
145.9466541956366
 30
0.0
 70
    32
  0
VERTEX
  5
1871F
  8
AM_0
 10
687.86381101890504
 20
145.9506541956365
 30
0.0
 70
    32
  0
VERTEX
  5
18720
  8
AM_0
 10
687.86511101890483
 20
145.95465419563629
 30
0.0
 70
    32
  0
VERTEX
  5
18721
  8
AM_0
 10
687.86631101890441
 20
145.95865419563651
 30
0.0
 70
    32
  0
VERTEX
  5
18722
  8
AM_0
 10
687.86751101890513
 20
145.96365419563631
 30
0.0
 70
    32
  0
VERTEX
  5
18723
  8
AM_0
 10
687.86881101890515
 20
145.9676541956365
 30
0.0
 70
    32
  0
VERTEX
  5
18724
  8
AM_0
 10
687.87001101890462
 20
145.9716541956364
 30
0.0
 70
    32
  0
VERTEX
  5
18725
  8
AM_0
 10
687.871211018905
 20
145.97565419563631
 30
0.0
 70
    32
  0
VERTEX
  5
18726
  8
AM_0
 10
687.87241101890515
 20
145.9796541956363
 30
0.0
 70
    32
  0
VERTEX
  5
18727
  8
AM_0
 10
687.87361101890474
 20
145.9836541956364
 30
0.0
 70
    32
  0
VERTEX
  5
18728
  8
AM_0
 10
687.87481101890501
 20
145.9886541956364
 30
0.0
 70
    32
  0
VERTEX
  5
18729
  8
AM_0
 10
687.87601101890459
 20
145.99265419563619
 30
0.0
 70
    32
  0
VERTEX
  5
1872A
  8
AM_0
 10
687.8772110189044
 20
145.99665419563641
 30
0.0
 70
    32
  0
VERTEX
  5
1872B
  8
AM_0
 10
687.87841101890501
 20
146.00065419563651
 30
0.0
 70
    32
  0
VERTEX
  5
1872C
  8
AM_0
 10
687.87961101890517
 20
146.00465419563631
 30
0.0
 70
    32
  0
VERTEX
  5
1872D
  8
AM_0
 10
687.88081101890475
 20
146.0096541956363
 30
0.0
 70
    32
  0
VERTEX
  5
1872E
  8
AM_0
 10
687.8819110189047
 20
146.0136541956366
 30
0.0
 70
    32
  0
VERTEX
  5
1872F
  8
AM_0
 10
687.88311101890486
 20
146.0176541956364
 30
0.0
 70
    32
  0
VERTEX
  5
18730
  8
AM_0
 10
687.88431101890524
 20
146.0216541956363
 30
0.0
 70
    32
  0
VERTEX
  5
18731
  8
AM_0
 10
687.88541101890519
 20
146.02565419563649
 30
0.0
 70
    32
  0
VERTEX
  5
18732
  8
AM_0
 10
687.886611018905
 20
146.02965419563631
 30
0.0
 70
    32
  0
VERTEX
  5
18733
  8
AM_0
 10
687.88771101890495
 20
146.03465419563619
 30
0.0
 70
    32
  0
VERTEX
  5
18734
  8
AM_0
 10
687.88891101890454
 20
146.03865419563621
 30
0.0
 70
    32
  0
VERTEX
  5
18735
  8
AM_0
 10
687.89001101890472
 20
146.04265419563649
 30
0.0
 70
    32
  0
VERTEX
  5
18736
  8
AM_0
 10
687.89121101890476
 20
146.04665419563631
 30
0.0
 70
    32
  0
VERTEX
  5
18737
  8
AM_0
 10
687.89231101890482
 20
146.05065419563641
 30
0.0
 70
    32
  0
VERTEX
  5
18738
  8
AM_0
 10
687.89341101890489
 20
146.05565419563629
 30
0.0
 70
    32
  0
VERTEX
  5
18739
  8
AM_0
 10
687.89451101890506
 20
146.0596541956362
 30
0.0
 70
    32
  0
VERTEX
  5
1873A
  8
AM_0
 10
687.89571101890476
 20
146.06365419563639
 30
0.0
 70
    32
  0
VERTEX
  5
1873B
  8
AM_0
 10
687.89681101890517
 20
146.06765419563649
 30
0.0
 70
    32
  0
VERTEX
  5
1873C
  8
AM_0
 10
687.89791101890489
 20
146.0716541956366
 30
0.0
 70
    32
  0
VERTEX
  5
1873D
  8
AM_0
 10
687.89901101890496
 20
146.07665419563631
 30
0.0
 70
    32
  0
VERTEX
  5
1873E
  8
AM_0
 10
687.90011101890457
 20
146.08065419563661
 30
0.0
 70
    32
  0
VERTEX
  5
1873F
  8
AM_0
 10
687.9012110189052
 20
146.0846541956364
 30
0.0
 70
    32
  0
VERTEX
  5
18740
  8
AM_0
 10
687.90231101890492
 20
146.08865419563631
 30
0.0
 70
    32
  0
VERTEX
  5
18741
  8
AM_0
 10
687.90331101890456
 20
146.0936541956363
 30
0.0
 70
    32
  0
VERTEX
  5
18742
  8
AM_0
 10
687.90441101890474
 20
146.0976541956363
 30
0.0
 70
    32
  0
VERTEX
  5
18743
  8
AM_0
 10
687.90551101890469
 20
146.10165419563631
 30
0.0
 70
    32
  0
VERTEX
  5
18744
  8
AM_0
 10
687.90661101890475
 20
146.10565419563639
 30
0.0
 70
    32
  0
VERTEX
  5
18745
  8
AM_0
 10
687.90761101890519
 20
146.10965419563649
 30
0.0
 70
    32
  0
VERTEX
  5
18746
  8
AM_0
 10
687.90871101890491
 20
146.11465419563621
 30
0.0
 70
    32
  0
VERTEX
  5
18747
  8
AM_0
 10
687.90971101890523
 20
146.11865419563659
 30
0.0
 70
    32
  0
VERTEX
  5
18748
  8
AM_0
 10
687.91081101890518
 20
146.1226541956365
 30
0.0
 70
    32
  0
VERTEX
  5
18749
  8
AM_0
 10
687.9118110189047
 20
146.12665419563641
 30
0.0
 70
    32
  0
VERTEX
  5
1874A
  8
AM_0
 10
687.91291101890522
 20
146.13065419563659
 30
0.0
 70
    32
  0
VERTEX
  5
1874B
  8
AM_0
 10
687.9139110189052
 20
146.13565419563639
 30
0.0
 70
    32
  0
VERTEX
  5
1874C
  8
AM_0
 10
687.91491101890472
 20
146.1396541956363
 30
0.0
 70
    32
  0
VERTEX
  5
1874D
  8
AM_0
 10
687.91601101890456
 20
146.14365419563649
 30
0.0
 70
    32
  0
VERTEX
  5
1874E
  8
AM_0
 10
687.91701101890487
 20
146.14765419563659
 30
0.0
 70
    32
  0
VERTEX
  5
1874F
  8
AM_0
 10
687.91801101890496
 20
146.15265419563639
 30
0.0
 70
    32
  0
VERTEX
  5
18750
  8
AM_0
 10
687.91901101890505
 20
146.15665419563649
 30
0.0
 70
    32
  0
VERTEX
  5
18751
  8
AM_0
 10
687.92001101890457
 20
146.1606541956362
 30
0.0
 70
    32
  0
VERTEX
  5
18752
  8
AM_0
 10
687.92101101890523
 20
146.1646541956365
 30
0.0
 70
    32
  0
VERTEX
  5
18753
  8
AM_0
 10
687.92201101890487
 20
146.16865419563629
 30
0.0
 70
    32
  0
VERTEX
  5
18754
  8
AM_0
 10
687.92301101890473
 20
146.1736541956364
 30
0.0
 70
    32
  0
VERTEX
  5
18755
  8
AM_0
 10
687.92401101890482
 20
146.17765419563611
 30
0.0
 70
    32
  0
VERTEX
  5
18756
  8
AM_0
 10
687.92501101890468
 20
146.1816541956365
 30
0.0
 70
    32
  0
VERTEX
  5
18757
  8
AM_0
 10
687.92591101890514
 20
146.18565419563669
 30
0.0
 70
    32
  0
VERTEX
  5
18758
  8
AM_0
 10
687.92691101890466
 20
146.19065419563631
 30
0.0
 70
    32
  0
VERTEX
  5
18759
  8
AM_0
 10
687.92791101890452
 20
146.19465419563659
 30
0.0
 70
    32
  0
VERTEX
  5
1875A
  8
AM_0
 10
687.92881101890475
 20
146.19865419563661
 30
0.0
 70
    32
  0
VERTEX
  5
1875B
  8
AM_0
 10
687.92981101890473
 20
146.2026541956362
 30
0.0
 70
    32
  0
VERTEX
  5
1875C
  8
AM_0
 10
687.93081101890459
 20
146.20765419563639
 30
0.0
 70
    32
  0
VERTEX
  5
1875D
  8
AM_0
 10
687.93171101890448
 20
146.2116541956365
 30
0.0
 70
    32
  0
VERTEX
  5
1875E
  8
AM_0
 10
687.93271101890468
 20
146.2156541956366
 30
0.0
 70
    32
  0
VERTEX
  5
1875F
  8
AM_0
 10
687.93361101890503
 20
146.2196541956362
 30
0.0
 70
    32
  0
VERTEX
  5
18760
  8
AM_0
 10
687.93451101890514
 20
146.22465419563611
 30
0.0
 70
    32
  0
VERTEX
  5
18761
  8
AM_0
 10
687.935511018905
 20
146.22865419563649
 30
0.0
 70
    32
  0
VERTEX
  5
18762
  8
AM_0
 10
687.93641101890501
 20
146.23265419563671
 30
0.0
 70
    32
  0
VERTEX
  5
18763
  8
AM_0
 10
687.93731101890501
 20
146.23665419563631
 30
0.0
 70
    32
  0
VERTEX
  5
18764
  8
AM_0
 10
687.93821101890501
 20
146.2416541956365
 30
0.0
 70
    32
  0
VERTEX
  5
18765
  8
AM_0
 10
687.93911101890467
 20
146.2456541956366
 30
0.0
 70
    32
  0
VERTEX
  5
18766
  8
AM_0
 10
687.94001101890501
 20
146.2496541956362
 30
0.0
 70
    32
  0
VERTEX
  5
18767
  8
AM_0
 10
687.94091101890501
 20
146.25365419563639
 30
0.0
 70
    32
  0
VERTEX
  5
18768
  8
AM_0
 10
687.94181101890501
 20
146.25865419563641
 30
0.0
 70
    32
  0
VERTEX
  5
18769
  8
AM_0
 10
687.94271101890502
 20
146.26265419563629
 30
0.0
 70
    32
  0
VERTEX
  5
1876A
  8
AM_0
 10
687.94361101890445
 20
146.26665419563639
 30
0.0
 70
    32
  0
VERTEX
  5
1876B
  8
AM_0
 10
687.94451101890456
 20
146.27065419563661
 30
0.0
 70
    32
  0
VERTEX
  5
1876C
  8
AM_0
 10
687.94541101890502
 20
146.27565419563621
 30
0.0
 70
    32
  0
VERTEX
  5
1876D
  8
AM_0
 10
687.94631101890502
 20
146.2796541956362
 30
0.0
 70
    32
  0
VERTEX
  5
1876E
  8
AM_0
 10
687.94711101890505
 20
146.2836541956365
 30
0.0
 70
    32
  0
VERTEX
  5
1876F
  8
AM_0
 10
687.94801101890505
 20
146.28765419563629
 30
0.0
 70
    32
  0
VERTEX
  5
18770
  8
AM_0
 10
687.94891101890471
 20
146.2926541956366
 30
0.0
 70
    32
  0
VERTEX
  5
18771
  8
AM_0
 10
687.94971101890462
 20
146.29665419563639
 30
0.0
 70
    32
  0
VERTEX
  5
18772
  8
AM_0
 10
687.95061101890462
 20
146.30065419563621
 30
0.0
 70
    32
  0
VERTEX
  5
18773
  8
AM_0
 10
687.95141101890488
 20
146.3046541956364
 30
0.0
 70
    32
  0
VERTEX
  5
18774
  8
AM_0
 10
687.95231101890465
 20
146.30965419563631
 30
0.0
 70
    32
  0
VERTEX
  5
18775
  8
AM_0
 10
687.95311101890491
 20
146.3136541956363
 30
0.0
 70
    32
  0
VERTEX
  5
18776
  8
AM_0
 10
687.95401101890513
 20
146.31765419563629
 30
0.0
 70
    32
  0
VERTEX
  5
18777
  8
AM_0
 10
687.95481101890482
 20
146.3216541956364
 30
0.0
 70
    32
  0
VERTEX
  5
18778
  8
AM_0
 10
687.95561101890507
 20
146.32665419563619
 30
0.0
 70
    32
  0
VERTEX
  5
18779
  8
AM_0
 10
687.95641101890465
 20
146.3306541956365
 30
0.0
 70
    32
  0
VERTEX
  5
1877A
  8
AM_0
 10
687.95731101890476
 20
146.33465419563629
 30
0.0
 70
    32
  0
VERTEX
  5
1877B
  8
AM_0
 10
687.95811101890467
 20
146.33965419563671
 30
0.0
 70
    32
  0
VERTEX
  5
1877C
  8
AM_0
 10
687.95891101890504
 20
146.3436541956365
 30
0.0
 70
    32
  0
VERTEX
  5
1877D
  8
AM_0
 10
687.95971101890473
 20
146.34765419563621
 30
0.0
 70
    32
  0
VERTEX
  5
1877E
  8
AM_0
 10
687.96051101890521
 20
146.3516541956366
 30
0.0
 70
    32
  0
VERTEX
  5
1877F
  8
AM_0
 10
687.96131101890478
 20
146.35665419563639
 30
0.0
 70
    32
  0
VERTEX
  5
18780
  8
AM_0
 10
687.96211101890515
 20
146.3606541956363
 30
0.0
 70
    32
  0
VERTEX
  5
18781
  8
AM_0
 10
687.96291101890483
 20
146.36465419563649
 30
0.0
 70
    32
  0
VERTEX
  5
18782
  8
AM_0
 10
687.9637110189052
 20
146.36865419563659
 30
0.0
 70
    32
  0
VERTEX
  5
18783
  8
AM_0
 10
687.96451101890477
 20
146.37365419563639
 30
0.0
 70
    32
  0
VERTEX
  5
18784
  8
AM_0
 10
687.96521101890505
 20
146.37765419563661
 30
0.0
 70
    32
  0
VERTEX
  5
18785
  8
AM_0
 10
687.96601101890474
 20
146.38165419563649
 30
0.0
 70
    32
  0
VERTEX
  5
18786
  8
AM_0
 10
687.96681101890454
 20
146.38665419563671
 30
0.0
 70
    32
  0
VERTEX
  5
18787
  8
AM_0
 10
687.96761101890468
 20
146.3906541956363
 30
0.0
 70
    32
  0
VERTEX
  5
18788
  8
AM_0
 10
687.96831101890484
 20
146.39465419563641
 30
0.0
 70
    32
  0
VERTEX
  5
18789
  8
AM_0
 10
687.9691110189051
 20
146.3986541956364
 30
0.0
 70
    32
  0
VERTEX
  5
1878A
  8
AM_0
 10
687.96981101890503
 20
146.40365419563639
 30
0.0
 70
    32
  0
VERTEX
  5
1878B
  8
AM_0
 10
687.97061101890449
 20
146.4076541956365
 30
0.0
 70
    32
  0
VERTEX
  5
1878C
  8
AM_0
 10
687.97131101890523
 20
146.41165419563649
 30
0.0
 70
    32
  0
VERTEX
  5
1878D
  8
AM_0
 10
687.97211101890468
 20
146.41665419563631
 30
0.0
 70
    32
  0
VERTEX
  5
1878E
  8
AM_0
 10
687.97281101890485
 20
146.4206541956365
 30
0.0
 70
    32
  0
VERTEX
  5
1878F
  8
AM_0
 10
687.97351101890501
 20
146.42465419563621
 30
0.0
 70
    32
  0
VERTEX
  5
18790
  8
AM_0
 10
687.97431101890459
 20
146.42865419563651
 30
0.0
 70
    32
  0
VERTEX
  5
18791
  8
AM_0
 10
687.97501101890475
 20
146.43365419563639
 30
0.0
 70
    32
  0
VERTEX
  5
18792
  8
AM_0
 10
687.97571101890492
 20
146.4376541956363
 30
0.0
 70
    32
  0
VERTEX
  5
18793
  8
AM_0
 10
687.97641101890486
 20
146.44165419563649
 30
0.0
 70
    32
  0
VERTEX
  5
18794
  8
AM_0
 10
687.97721101890522
 20
146.44665419563651
 30
0.0
 70
    32
  0
VERTEX
  5
18795
  8
AM_0
 10
687.97791101890505
 20
146.45065419563639
 30
0.0
 70
    32
  0
VERTEX
  5
18796
  8
AM_0
 10
687.97861101890487
 20
146.45465419563641
 30
0.0
 70
    32
  0
VERTEX
  5
18797
  8
AM_0
 10
687.97931101890492
 20
146.45865419563631
 30
0.0
 70
    32
  0
VERTEX
  5
18798
  8
AM_0
 10
687.98001101890497
 20
146.46365419563631
 30
0.0
 70
    32
  0
VERTEX
  5
18799
  8
AM_0
 10
687.98071101890457
 20
146.4676541956363
 30
0.0
 70
    32
  0
VERTEX
  5
1879A
  8
AM_0
 10
687.98141101890451
 20
146.4716541956364
 30
0.0
 70
    32
  0
VERTEX
  5
1879B
  8
AM_0
 10
687.98201101890493
 20
146.4766541956366
 30
0.0
 70
    32
  0
VERTEX
  5
1879C
  8
AM_0
 10
687.98271101890475
 20
146.48065419563619
 30
0.0
 70
    32
  0
VERTEX
  5
1879D
  8
AM_0
 10
687.98341101890469
 20
146.48465419563649
 30
0.0
 70
    32
  0
VERTEX
  5
1879E
  8
AM_0
 10
687.98411101890463
 20
146.48865419563629
 30
0.0
 70
    32
  0
VERTEX
  5
1879F
  8
AM_0
 10
687.98481101890468
 20
146.49365419563671
 30
0.0
 70
    32
  0
VERTEX
  5
187A0
  8
AM_0
 10
687.98541101890476
 20
146.49765419563639
 30
0.0
 70
    32
  0
VERTEX
  5
187A1
  8
AM_0
 10
687.98611101890469
 20
146.50165419563641
 30
0.0
 70
    32
  0
VERTEX
  5
187A2
  8
AM_0
 10
687.98671101890477
 20
146.5066541956366
 30
0.0
 70
    32
  0
VERTEX
  5
187A3
  8
AM_0
 10
687.98741101890482
 20
146.51065419563639
 30
0.0
 70
    32
  0
VERTEX
  5
187A4
  8
AM_0
 10
687.98811101890499
 20
146.5146541956363
 30
0.0
 70
    32
  0
VERTEX
  5
187A5
  8
AM_0
 10
687.98871101890472
 20
146.51865419563649
 30
0.0
 70
    32
  0
VERTEX
  5
187A6
  8
AM_0
 10
687.98931101890491
 20
146.52365419563651
 30
0.0
 70
    32
  0
VERTEX
  5
187A7
  8
AM_0
 10
687.99001101890474
 20
146.52765419563639
 30
0.0
 70
    32
  0
VERTEX
  5
187A8
  8
AM_0
 10
687.99061101890459
 20
146.53165419563621
 30
0.0
 70
    32
  0
VERTEX
  5
187A9
  8
AM_0
 10
687.99131101890498
 20
146.5366541956364
 30
0.0
 70
    32
  0
VERTEX
  5
187AA
  8
AM_0
 10
687.99191101890494
 20
146.54065419563671
 30
0.0
 70
    32
  0
VERTEX
  5
187AB
  8
AM_0
 10
687.99251101890491
 20
146.5446541956365
 30
0.0
 70
    32
  0
VERTEX
  5
187AC
  8
AM_0
 10
687.99311101890487
 20
146.54965419563649
 30
0.0
 70
    32
  0
VERTEX
  5
187AD
  8
AM_0
 10
687.99371101890483
 20
146.55365419563631
 30
0.0
 70
    32
  0
VERTEX
  5
187AE
  8
AM_0
 10
687.99441101890454
 20
146.55765419563639
 30
0.0
 70
    32
  0
VERTEX
  5
187AF
  8
AM_0
 10
687.99501101890485
 20
146.56265419563641
 30
0.0
 70
    32
  0
VERTEX
  5
187B0
  8
AM_0
 10
687.9956110189047
 20
146.5666541956364
 30
0.0
 70
    32
  0
VERTEX
  5
187B1
  8
AM_0
 10
687.99621101890477
 20
146.57065419563631
 30
0.0
 70
    32
  0
VERTEX
  5
187B2
  8
AM_0
 10
687.99681101890474
 20
146.57465419563641
 30
0.0
 70
    32
  0
VERTEX
  5
187B3
  8
AM_0
 10
687.99741101890493
 20
146.57965419563649
 30
0.0
 70
    32
  0
VERTEX
  5
187B4
  8
AM_0
 10
687.99801101890466
 20
146.5836541956362
 30
0.0
 70
    32
  0
VERTEX
  5
187B5
  8
AM_0
 10
687.99861101890474
 20
146.5876541956367
 30
0.0
 70
    32
  0
VERTEX
  5
187B6
  8
AM_0
 10
687.99911101890484
 20
146.5926541956365
 30
0.0
 70
    32
  0
VERTEX
  5
187B7
  8
AM_0
 10
687.99971101890458
 20
146.59665419563649
 30
0.0
 70
    32
  0
VERTEX
  5
187B8
  8
AM_0
 10
688.00031101890454
 20
146.60065419563659
 30
0.0
 70
    32
  0
VERTEX
  5
187B9
  8
AM_0
 10
688.00091101890507
 20
146.60565419563639
 30
0.0
 70
    32
  0
VERTEX
  5
187BA
  8
AM_0
 10
688.00141101890461
 20
146.60965419563661
 30
0.0
 70
    32
  0
VERTEX
  5
187BB
  8
AM_0
 10
688.00201101890491
 20
146.6136541956364
 30
0.0
 70
    32
  0
VERTEX
  5
187BC
  8
AM_0
 10
688.00261101890521
 20
146.61765419563631
 30
0.0
 70
    32
  0
VERTEX
  5
187BD
  8
AM_0
 10
688.00311101890475
 20
146.6226541956365
 30
0.0
 70
    32
  0
VERTEX
  5
187BE
  8
AM_0
 10
688.0037110189046
 20
146.62665419563629
 30
0.0
 70
    32
  0
VERTEX
  5
187BF
  8
AM_0
 10
688.00421101890515
 20
146.6306541956362
 30
0.0
 70
    32
  0
VERTEX
  5
187C0
  8
AM_0
 10
688.00481101890523
 20
146.63565419563639
 30
0.0
 70
    32
  0
VERTEX
  5
187C1
  8
AM_0
 10
688.00531101890522
 20
146.63965419563661
 30
0.0
 70
    32
  0
VERTEX
  5
187C2
  8
AM_0
 10
688.00581101890486
 20
146.6436541956362
 30
0.0
 70
    32
  0
VERTEX
  5
187C3
  8
AM_0
 10
688.00641101890471
 20
146.6486541956362
 30
0.0
 70
    32
  0
VERTEX
  5
187C4
  8
AM_0
 10
688.00691101890504
 20
146.6526541956365
 30
0.0
 70
    32
  0
VERTEX
  5
187C5
  8
AM_0
 10
688.00741101890492
 20
146.65665419563661
 30
0.0
 70
    32
  0
VERTEX
  5
187C6
  8
AM_0
 10
688.00801101890522
 20
146.6616541956364
 30
0.0
 70
    32
  0
VERTEX
  5
187C7
  8
AM_0
 10
688.0085110189051
 20
146.66565419563659
 30
0.0
 70
    32
  0
VERTEX
  5
187C8
  8
AM_0
 10
688.00901101890486
 20
146.6696541956365
 30
0.0
 70
    32
  0
VERTEX
  5
187C9
  8
AM_0
 10
688.00951101890462
 20
146.67465419563641
 30
0.0
 70
    32
  0
VERTEX
  5
187CA
  8
AM_0
 10
688.01001101890472
 20
146.67865419563631
 30
0.0
 70
    32
  0
VERTEX
  5
187CB
  8
AM_0
 10
688.01051101890471
 20
146.6826541956365
 30
0.0
 70
    32
  0
VERTEX
  5
187CC
  8
AM_0
 10
688.01101101890492
 20
146.68765419563661
 30
0.0
 70
    32
  0
VERTEX
  5
187CD
  8
AM_0
 10
688.01151101890468
 20
146.6916541956364
 30
0.0
 70
    32
  0
VERTEX
  5
187CE
  8
AM_0
 10
688.01201101890513
 20
146.69565419563639
 30
0.0
 70
    32
  0
VERTEX
  5
187CF
  8
AM_0
 10
688.01251101890523
 20
146.6996541956363
 30
0.0
 70
    32
  0
VERTEX
  5
187D0
  8
AM_0
 10
688.01301101890488
 20
146.70465419563629
 30
0.0
 70
    32
  0
VERTEX
  5
187D1
  8
AM_0
 10
688.01341101890523
 20
146.70865419563631
 30
0.0
 70
    32
  0
VERTEX
  5
187D2
  8
AM_0
 10
688.01391101890465
 20
146.71265419563659
 30
0.0
 70
    32
  0
VERTEX
  5
187D3
  8
AM_0
 10
688.01441101890498
 20
146.71765419563661
 30
0.0
 70
    32
  0
VERTEX
  5
187D4
  8
AM_0
 10
688.01481101890488
 20
146.72165419563621
 30
0.0
 70
    32
  0
VERTEX
  5
187D5
  8
AM_0
 10
688.01531101890475
 20
146.72565419563651
 30
0.0
 70
    32
  0
VERTEX
  5
187D6
  8
AM_0
 10
688.01581101890474
 20
146.7306541956365
 30
0.0
 70
    32
  0
VERTEX
  5
187D7
  8
AM_0
 10
688.01621101890498
 20
146.73465419563661
 30
0.0
 70
    32
  0
VERTEX
  5
187D8
  8
AM_0
 10
688.01661101890488
 20
146.7386541956364
 30
0.0
 70
    32
  0
VERTEX
  5
187D9
  8
AM_0
 10
688.01711101890476
 20
146.74365419563659
 30
0.0
 70
    32
  0
VERTEX
  5
187DA
  8
AM_0
 10
688.01751101890488
 20
146.74765419563661
 30
0.0
 70
    32
  0
VERTEX
  5
187DB
  8
AM_0
 10
688.01801101890499
 20
146.75165419563641
 30
0.0
 70
    32
  0
VERTEX
  5
187DC
  8
AM_0
 10
688.01841101890466
 20
146.75665419563629
 30
0.0
 70
    32
  0
VERTEX
  5
187DD
  8
AM_0
 10
688.01881101890513
 20
146.7606541956365
 30
0.0
 70
    32
  0
VERTEX
  5
187DE
  8
AM_0
 10
688.01921101890468
 20
146.76465419563661
 30
0.0
 70
    32
  0
VERTEX
  5
187DF
  8
AM_0
 10
688.01971101890467
 20
146.76965419563641
 30
0.0
 70
    32
  0
VERTEX
  5
187E0
  8
AM_0
 10
688.02011101890491
 20
146.7736541956366
 30
0.0
 70
    32
  0
VERTEX
  5
187E1
  8
AM_0
 10
688.02051101890504
 20
146.7776541956365
 30
0.0
 70
    32
  0
VERTEX
  5
187E2
  8
AM_0
 10
688.02091101890483
 20
146.7826541956365
 30
0.0
 70
    32
  0
VERTEX
  5
187E3
  8
AM_0
 10
688.02131101890461
 20
146.78665419563629
 30
0.0
 70
    32
  0
VERTEX
  5
187E4
  8
AM_0
 10
688.02171101890474
 20
146.79065419563659
 30
0.0
 70
    32
  0
VERTEX
  5
187E5
  8
AM_0
 10
688.02211101890521
 20
146.79565419563639
 30
0.0
 70
    32
  0
VERTEX
  5
187E6
  8
AM_0
 10
688.02241101890468
 20
146.79965419563641
 30
0.0
 70
    32
  0
VERTEX
  5
187E7
  8
AM_0
 10
688.02281101890514
 20
146.8036541956364
 30
0.0
 70
    32
  0
VERTEX
  5
187E8
  8
AM_0
 10
688.02321101890504
 20
146.80865419563619
 30
0.0
 70
    32
  0
VERTEX
  5
187E9
  8
AM_0
 10
688.02361101890483
 20
146.8126541956365
 30
0.0
 70
    32
  0
VERTEX
  5
187EA
  8
AM_0
 10
688.02391101890476
 20
146.81665419563649
 30
0.0
 70
    32
  0
VERTEX
  5
187EB
  8
AM_0
 10
688.02431101890488
 20
146.82165419563631
 30
0.0
 70
    32
  0
VERTEX
  5
187EC
  8
AM_0
 10
688.02471101890455
 20
146.82565419563639
 30
0.0
 70
    32
  0
VERTEX
  5
187ED
  8
AM_0
 10
688.02501101890471
 20
146.82965419563621
 30
0.0
 70
    32
  0
VERTEX
  5
187EE
  8
AM_0
 10
688.02541101890483
 20
146.8346541956364
 30
0.0
 70
    32
  0
VERTEX
  5
187EF
  8
AM_0
 10
688.02571101890453
 20
146.83865419563631
 30
0.0
 70
    32
  0
VERTEX
  5
187F0
  8
AM_0
 10
688.02601101890502
 20
146.8426541956365
 30
0.0
 70
    32
  0
VERTEX
  5
187F1
  8
AM_0
 10
688.02641101890515
 20
146.84765419563649
 30
0.0
 70
    32
  0
VERTEX
  5
187F2
  8
AM_0
 10
688.02671101890462
 20
146.85165419563631
 30
0.0
 70
    32
  0
VERTEX
  5
187F3
  8
AM_0
 10
688.027011018905
 20
146.85565419563639
 30
0.0
 70
    32
  0
VERTEX
  5
187F4
  8
AM_0
 10
688.02731101890515
 20
146.86065419563661
 30
0.0
 70
    32
  0
VERTEX
  5
187F5
  8
AM_0
 10
688.02771101890471
 20
146.86465419563649
 30
0.0
 70
    32
  0
VERTEX
  5
187F6
  8
AM_0
 10
688.02801101890475
 20
146.86865419563671
 30
0.0
 70
    32
  0
VERTEX
  5
187F7
  8
AM_0
 10
688.0283110189049
 20
146.87365419563631
 30
0.0
 70
    32
  0
VERTEX
  5
187F8
  8
AM_0
 10
688.02861101890505
 20
146.87765419563661
 30
0.0
 70
    32
  0
VERTEX
  5
187F9
  8
AM_0
 10
688.02891101890475
 20
146.8816541956362
 30
0.0
 70
    32
  0
VERTEX
  5
187FA
  8
AM_0
 10
688.02921101890513
 20
146.88665419563659
 30
0.0
 70
    32
  0
VERTEX
  5
187FB
  8
AM_0
 10
688.02951101890449
 20
146.8906541956365
 30
0.0
 70
    32
  0
VERTEX
  5
187FC
  8
AM_0
 10
688.02981101890475
 20
146.89465419563649
 30
0.0
 70
    32
  0
VERTEX
  5
187FD
  8
AM_0
 10
688.03011101890513
 20
146.89965419563649
 30
0.0
 70
    32
  0
VERTEX
  5
187FE
  8
AM_0
 10
688.03031101890474
 20
146.90365419563651
 30
0.0
 70
    32
  0
VERTEX
  5
187FF
  8
AM_0
 10
688.03061101890455
 20
146.90765419563661
 30
0.0
 70
    32
  0
VERTEX
  5
18800
  8
AM_0
 10
688.03091101890516
 20
146.91265419563621
 30
0.0
 70
    32
  0
VERTEX
  5
18801
  8
AM_0
 10
688.0312110189044
 20
146.9166541956362
 30
0.0
 70
    32
  0
VERTEX
  5
18802
  8
AM_0
 10
688.03141101890515
 20
146.9206541956365
 30
0.0
 70
    32
  0
VERTEX
  5
18803
  8
AM_0
 10
688.03171101890484
 20
146.9256541956363
 30
0.0
 70
    32
  0
VERTEX
  5
18804
  8
AM_0
 10
688.03191101890491
 20
146.92965419563629
 30
0.0
 70
    32
  0
VERTEX
  5
18805
  8
AM_0
 10
688.03221101890449
 20
146.93365419563631
 30
0.0
 70
    32
  0
VERTEX
  5
18806
  8
AM_0
 10
688.03241101890501
 20
146.93865419563619
 30
0.0
 70
    32
  0
VERTEX
  5
18807
  8
AM_0
 10
688.03271101890505
 20
146.94265419563641
 30
0.0
 70
    32
  0
VERTEX
  5
18808
  8
AM_0
 10
688.03291101890522
 20
146.94665419563651
 30
0.0
 70
    32
  0
VERTEX
  5
18809
  8
AM_0
 10
688.03321101890515
 20
146.95165419563619
 30
0.0
 70
    32
  0
VERTEX
  5
1880A
  8
AM_0
 10
688.03341101890464
 20
146.95565419563661
 30
0.0
 70
    32
  0
VERTEX
  5
1880B
  8
AM_0
 10
688.03361101890505
 20
146.9596541956364
 30
0.0
 70
    32
  0
VERTEX
  5
1880C
  8
AM_0
 10
688.03381101890454
 20
146.9646541956364
 30
0.0
 70
    32
  0
VERTEX
  5
1880D
  8
AM_0
 10
688.03411101890515
 20
146.96865419563659
 30
0.0
 70
    32
  0
VERTEX
  5
1880E
  8
AM_0
 10
688.03431101890465
 20
146.97265419563641
 30
0.0
 70
    32
  0
VERTEX
  5
1880F
  8
AM_0
 10
688.03451101890505
 20
146.97765419563629
 30
0.0
 70
    32
  0
VERTEX
  5
18810
  8
AM_0
 10
688.03471101890489
 20
146.9816541956362
 30
0.0
 70
    32
  0
VERTEX
  5
18811
  8
AM_0
 10
688.03491101890461
 20
146.98565419563661
 30
0.0
 70
    32
  0
VERTEX
  5
18812
  8
AM_0
 10
688.0351110189049
 20
146.99065419563641
 30
0.0
 70
    32
  0
VERTEX
  5
18813
  8
AM_0
 10
688.03531101890485
 20
146.9946541956364
 30
0.0
 70
    32
  0
VERTEX
  5
18814
  8
AM_0
 10
688.03551101890537
 20
146.9986541956365
 30
0.0
 70
    32
  0
VERTEX
  5
18815
  8
AM_0
 10
688.03571101890486
 20
147.00365419563619
 30
0.0
 70
    32
  0
VERTEX
  5
18816
  8
AM_0
 10
688.03591101890515
 20
147.00765419563629
 30
0.0
 70
    32
  0
VERTEX
  5
18817
  8
AM_0
 10
688.03611101890465
 20
147.01165419563631
 30
0.0
 70
    32
  0
VERTEX
  5
18818
  8
AM_0
 10
688.03631101890483
 20
147.01665419563639
 30
0.0
 70
    32
  0
VERTEX
  5
18819
  8
AM_0
 10
688.03651101890455
 20
147.02065419563661
 30
0.0
 70
    32
  0
VERTEX
  5
1881A
  8
AM_0
 10
688.03661101890475
 20
147.0246541956364
 30
0.0
 70
    32
  0
VERTEX
  5
1881B
  8
AM_0
 10
688.03681101890515
 20
147.0296541956362
 30
0.0
 70
    32
  0
VERTEX
  5
1881C
  8
AM_0
 10
688.03701101890476
 20
147.0336541956365
 30
0.0
 70
    32
  0
VERTEX
  5
1881D
  8
AM_0
 10
688.03711101890508
 20
147.0386541956365
 30
0.0
 70
    32
  0
VERTEX
  5
1881E
  8
AM_0
 10
688.03731101890514
 20
147.04265419563629
 30
0.0
 70
    32
  0
VERTEX
  5
1881F
  8
AM_0
 10
688.03751101890475
 20
147.04665419563639
 30
0.0
 70
    32
  0
VERTEX
  5
18820
  8
AM_0
 10
688.03761101890461
 20
147.05165419563659
 30
0.0
 70
    32
  0
VERTEX
  5
18821
  8
AM_0
 10
688.03781101890502
 20
147.05565419563661
 30
0.0
 70
    32
  0
VERTEX
  5
18822
  8
AM_0
 10
688.03791101890465
 20
147.05965419563631
 30
0.0
 70
    32
  0
VERTEX
  5
18823
  8
AM_0
 10
688.03811101890471
 20
147.06465419563651
 30
0.0
 70
    32
  0
VERTEX
  5
18824
  8
AM_0
 10
688.03821101890514
 20
147.0686541956365
 30
0.0
 70
    32
  0
VERTEX
  5
18825
  8
AM_0
 10
688.03831101890501
 20
147.0726541956366
 30
0.0
 70
    32
  0
VERTEX
  5
18826
  8
AM_0
 10
688.03851101890473
 20
147.0776541956364
 30
0.0
 70
    32
  0
VERTEX
  5
18827
  8
AM_0
 10
688.03861101890504
 20
147.08165419563659
 30
0.0
 70
    32
  0
VERTEX
  5
18828
  8
AM_0
 10
688.03871101890456
 20
147.08565419563649
 30
0.0
 70
    32
  0
VERTEX
  5
18829
  8
AM_0
 10
688.03881101890477
 20
147.0906541956362
 30
0.0
 70
    32
  0
VERTEX
  5
1882A
  8
AM_0
 10
688.03891101890486
 20
147.09465419563651
 30
0.0
 70
    32
  0
VERTEX
  5
1882B
  8
AM_0
 10
688.03901101890506
 20
147.09865419563661
 30
0.0
 70
    32
  0
VERTEX
  5
1882C
  8
AM_0
 10
688.03921101890455
 20
147.10365419563641
 30
0.0
 70
    32
  0
VERTEX
  5
1882D
  8
AM_0
 10
688.03931101890441
 20
147.1076541956362
 30
0.0
 70
    32
  0
VERTEX
  5
1882E
  8
AM_0
 10
688.03941101890496
 20
147.1116541956365
 30
0.0
 70
    32
  0
VERTEX
  5
1882F
  8
AM_0
 10
688.03951101890505
 20
147.11665419563619
 30
0.0
 70
    32
  0
VERTEX
  5
18830
  8
AM_0
 10
688.03951101890505
 20
147.12065419563629
 30
0.0
 70
    32
  0
VERTEX
  5
18831
  8
AM_0
 10
688.03961101890457
 20
147.12465419563631
 30
0.0
 70
    32
  0
VERTEX
  5
18832
  8
AM_0
 10
688.03971101890465
 20
147.12965419563611
 30
0.0
 70
    32
  0
VERTEX
  5
18833
  8
AM_0
 10
688.03981101890486
 20
147.13365419563641
 30
0.0
 70
    32
  0
VERTEX
  5
18834
  8
AM_0
 10
688.03991101890517
 20
147.1376541956364
 30
0.0
 70
    32
  0
VERTEX
  5
18835
  8
AM_0
 10
688.03991101890517
 20
147.1426541956364
 30
0.0
 70
    32
  0
VERTEX
  5
18836
  8
AM_0
 10
688.04001101890515
 20
147.14665419563619
 30
0.0
 70
    32
  0
VERTEX
  5
18837
  8
AM_0
 10
688.04011101890467
 20
147.15065419563649
 30
0.0
 70
    32
  0
VERTEX
  5
18838
  8
AM_0
 10
688.04011101890467
 20
147.15565419563649
 30
0.0
 70
    32
  0
VERTEX
  5
18839
  8
AM_0
 10
688.04021101890453
 20
147.15965419563659
 30
0.0
 70
    32
  0
VERTEX
  5
1883A
  8
AM_0
 10
688.04031101890462
 20
147.16465419563619
 30
0.0
 70
    32
  0
VERTEX
  5
1883B
  8
AM_0
 10
688.04031101890462
 20
147.16865419563641
 30
0.0
 70
    32
  0
VERTEX
  5
1883C
  8
AM_0
 10
688.04041101890516
 20
147.17265419563651
 30
0.0
 70
    32
  0
VERTEX
  5
1883D
  8
AM_0
 10
688.04041101890516
 20
147.17765419563651
 30
0.0
 70
    32
  0
VERTEX
  5
1883E
  8
AM_0
 10
688.04051101890502
 20
147.1816541956365
 30
0.0
 70
    32
  0
VERTEX
  5
1883F
  8
AM_0
 10
688.04051101890502
 20
147.1856541956364
 30
0.0
 70
    32
  0
VERTEX
  5
18840
  8
AM_0
 10
688.04061101890466
 20
147.1906541956364
 30
0.0
 70
    32
  0
VERTEX
  5
18841
  8
AM_0
 10
688.04061101890466
 20
147.19465419563659
 30
0.0
 70
    32
  0
VERTEX
  5
18842
  8
AM_0
 10
688.04071101890474
 20
147.19865419563649
 30
0.0
 70
    32
  0
VERTEX
  5
18843
  8
AM_0
 10
688.04071101890474
 20
147.20365419563669
 30
0.0
 70
    32
  0
VERTEX
  5
18844
  8
AM_0
 10
688.04071101890474
 20
147.20765419563651
 30
0.0
 70
    32
  0
VERTEX
  5
18845
  8
AM_0
 10
688.04081101890506
 20
147.21165419563641
 30
0.0
 70
    32
  0
VERTEX
  5
18846
  8
AM_0
 10
688.04081101890506
 20
147.21665419563629
 30
0.0
 70
    32
  0
VERTEX
  5
18847
  8
AM_0
 10
688.04091101890515
 20
147.2206541956364
 30
0.0
 70
    32
  0
VERTEX
  5
18848
  8
AM_0
 10
688.04091101890515
 20
147.22465419563619
 30
0.0
 70
    32
  0
VERTEX
  5
18849
  8
AM_0
 10
688.04091101890515
 20
147.2296541956365
 30
0.0
 70
    32
  0
VERTEX
  5
1884A
  8
AM_0
 10
688.04101101890524
 20
147.23365419563629
 30
0.0
 70
    32
  0
SEQEND
  5
1884B
  8
AM_0
  0
LINE
  5
1884C
  8
AM_0
 10
698.31082582194722
 20
147.2337012607104
 30
0.0
 11
698.31082582194722
 21
156.26870126071049
 31
0.0
  0
ARC
  5
1884D
  8
AM_0
 10
699.91082582194792
 20
145.23370126071049
 30
0.0
 40
0.5
 50
270.0
 51
0.0
  0
LINE
  5
1884E
  8
AM_0
 10
699.91082582194792
 20
144.7337012607104
 30
0.0
 11
695.81082582194722
 21
144.7337012607104
 31
0.0
  0
ARC
  5
1884F
  8
AM_0
 10
695.81082582194722
 20
147.2337012607104
 30
0.0
 40
2.4999999999999991
 50
270.0
 51
0.0
  0
ARC
  5
18850
  8
AM_0
 10
689.91082582194917
 20
177.7337012607108
 30
0.0
 40
0.9999999999998859
 50
90.0
 51
180.0
  0
LINE
  5
18851
  8
AM_0
 10
697.91088660738865
 20
178.73370126071069
 30
0.0
 11
697.91088660738865
 21
181.73370126071049
 31
0.0
  0
ARC
  5
18852
  8
AM_0
 10
699.41082582194952
 20
177.7337012607108
 30
0.0
 40
0.9999999999999996
 50
0.0
 51
90.0
  0
LINE
  5
18853
  8
AM_0
 10
148.75090385822119
 20
465.49784514132369
 30
0.0
 11
156.75090385822119
 21
465.49784514132369
 31
0.0
  0
LINE
  5
18854
  8
AM_0
 10
148.75090385822119
 20
465.5028351413236
 30
0.0
 11
156.75090385822119
 21
465.5028351413236
 31
0.0
  0
LINE
  5
18855
  8
AM_0
 10
149.44090385822119
 20
475.31285514132372
 30
0.0
 11
155.67088385822109
 21
475.31285514132372
 31
0.0
  0
LINE
  5
18856
  8
AM_0
 10
148.75090385822119
 20
571.49784914132374
 30
0.0
 11
156.75090385822119
 21
571.49784914132374
 31
0.0
  0
LINE
  5
18857
  8
AM_0
 10
148.75090385822119
 20
571.50283814132365
 30
0.0
 11
156.75090385822119
 21
571.50283814132365
 31
0.0
  0
LINE
  5
18858
  8
AM_0
 10
149.44090385822119
 20
561.69284914132356
 30
0.0
 11
155.67088385822109
 21
561.69284914132356
 31
0.0
  0
LINE
  5
18859
  8
ﾁｭｳｼﾝｾﾝ1
 10
213.75090385822111
 20
477.87281832662711
 30
0.0
 11
213.75090385822111
 21
559.1228213266271
 31
0.0
  0
LINE
  5
1885A
  8
AM_0
 10
156.75090385822119
 20
465.5028351413236
 30
0.0
 11
156.75090385822119
 21
567.94283314132383
 31
0.0
  0
LINE
  5
1885B
  8
AM_0
 10
264.75090385822108
 20
462.49784514132369
 30
0.0
 11
264.75090385822108
 21
574.49784914132374
 31
0.0
  0
LINE
  5
1885C
  8
AM_0
 10
159.9509138582211
 20
574.78285214132381
 30
0.0
 11
256.87087385822122
 21
574.78285214132381
 31
0.0
  0
LINE
  5
1885D
  8
AM_0
 10
182.25090385822111
 20
556.72284014132356
 30
0.0
 11
264.75090385822108
 21
556.72284014132356
 31
0.0
  0
LINE
  5
1885E
  8
AM_0
 10
156.75090385822119
 20
566.59285814132375
 30
0.0
 11
157.99089385822131
 21
573.15285514132381
 31
0.0
  0
LINE
  5
1885F
  8
AM_0
 10
156.75090385822119
 20
567.94284914132368
 30
0.0
 11
158.03087385822121
 21
575.94284114132381
 31
0.0
  0
LINE
  5
18860
  8
AM_0
 10
160.00090385822119
 20
577.63284314132363
 30
0.0
 11
193.75090385822111
 21
577.63284314132363
 31
0.0
  0
LINE
  5
18861
  8
AM_0
 10
160.02092385822121
 20
579.47284714132365
 30
0.0
 11
193.75090385822111
 21
579.47284714132365
 31
0.0
  0
LINE
  5
18862
  8
AM_0
 10
160.04088385822109
 20
580.39283814132375
 30
0.0
 11
193.75090385822111
 21
580.39283814132375
 31
0.0
  0
ARC
  5
18863
  8
AM_0
 10
160.0068838582211
 20
575.63266814132373
 30
0.0
 40
2.0001840999999998
 50
90.171470000000795
 51
171.079000000001
  0
LINE
  5
18864
  8
AM_0
 10
156.75096385822121
 20
569.28284514132383
 30
0.0
 11
158.0409438582212
 21
577.78283714132374
 31
0.0
  0
LINE
  5
18865
  8
AM_0
 10
156.75090385822119
 20
569.28282214132355
 30
0.0
 11
158.0609038582212
 21
578.66282714132365
 31
0.0
  0
ARC
  5
18866
  8
AM_0
 10
160.0430238582212
 20
578.39236514132347
 30
0.0
 40
2.0004758999999992
 50
90.060310000003966
 51
172.22953999999871
  0
ARC
  5
18867
  8
AM_0
 10
160.01445385822109
 20
577.47551014132375
 30
0.0
 40
1.9973480999999991
 50
89.815320000002416
 51
171.14853000000031
  0
ARC
  5
18868
  8
AM_0
 10
159.95555385822121
 20
572.78384414132381
 30
0.0
 40
1.9990078999999989
 50
90.133449999996998
 51
169.36258999999981
  0
ARC
  5
18869
  8
AM_0
 10
193.74370385822121
 20
575.62566414132345
 30
0.0
 40
2.0071799999999991
 50
0.2046200000009834
 51
89.795380000002282
  0
LINE
  5
1886A
  8
AM_0
 10
195.75090385822111
 20
578.39284514132373
 30
0.0
 11
195.75090385822111
 21
574.78285214132381
 31
0.0
  0
ARC
  5
1886B
  8
AM_0
 10
193.7429138582211
 20
578.38483514132372
 30
0.0
 40
2.0080360999999991
 50
0.2287899999994382
 51
89.771210000000551
  0
ARC
  5
1886C
  8
AM_0
 10
193.74761385822109
 20
577.46955914132354
 30
0.0
 40
2.003279899999999
 50
0.093790000000395
 51
89.906210000002858
  0
LINE
  5
1886D
  8
AM_0
 10
182.25090385822111
 20
556.72284014132356
 30
0.0
 11
162.07805385822121
 21
555.22284014132367
 31
0.0
  0
LINE
  5
1886E
  8
AM_0
 10
162.080451197505
 20
555.21778323176397
 30
0.0
 11
156.75084385822129
 21
566.59282014132373
 31
0.0
  0
LINE
  5
1886F
  8
AM_0
 10
263.25090385822108
 20
556.72283214132369
 30
0.0
 11
258.80089385822117
 21
573.30283414132373
 31
0.0
  0
LINE
  5
18870
  8
AM_0
 10
264.75090385822108
 20
574.49784914132374
 30
0.0
 11
272.75087385822121
 21
574.49784914132374
 31
0.0
  0
ARC
  5
18871
  8
AM_0
 10
256.86803385822111
 20
572.78070914132365
 30
0.0
 40
2.0021281000000002
 50
15.116699999998961
 51
89.918480000000116
  0
LINE
  5
18872
  8
AM_0
 10
259.29088385822121
 20
571.50283814132365
 30
0.0
 11
264.75090385822108
 21
571.50283814132365
 31
0.0
  0
LINE
  5
18873
  8
AM_0
 10
264.75090385822108
 20
550.43783614132371
 30
0.0
 11
272.75087385822121
 21
550.43783614132371
 31
0.0
  0
LINE
  5
18874
  8
AM_0
 10
264.75090385822108
 20
564.49784114132365
 30
0.0
 11
272.75087385822121
 21
564.49784114132365
 31
0.0
  0
LINE
  5
18875
  8
AM_0
 10
159.9509138582211
 20
462.21284514132378
 30
0.0
 11
256.87087385822122
 21
462.21284514132378
 31
0.0
  0
LINE
  5
18876
  8
AM_0
 10
182.25090385822111
 20
480.27285514132359
 30
0.0
 11
264.75090385822108
 21
480.27285514132359
 31
0.0
  0
LINE
  5
18877
  8
AM_0
 10
162.0757910745331
 20
481.77786857898758
 30
0.0
 11
156.75090385822119
 21
470.40284514132372
 31
0.0
  0
LINE
  5
18878
  8
AM_0
 10
182.25084385822129
 20
480.27284514132373
 30
0.0
 11
162.07341385822119
 21
481.77284514132378
 31
0.0
  0
LINE
  5
18879
  8
AM_0
 10
160.00090385822119
 20
459.37284514132369
 30
0.0
 11
193.75090385822111
 21
459.37284514132369
 31
0.0
  0
LINE
  5
1887A
  8
AM_0
 10
160.02092385822121
 20
457.52284514132373
 30
0.0
 11
193.75090385822111
 21
457.52284514132373
 31
0.0
  0
LINE
  5
1887B
  8
AM_0
 10
160.04088385822109
 20
456.61283514132379
 30
0.0
 11
193.75090385822111
 21
456.61283514132379
 31
0.0
  0
ARC
  5
1887C
  8
AM_0
 10
160.0355738582212
 20
458.60632514132379
 30
0.0
 40
1.9934921000000001
 50
187.88526000000061
 51
270.15390899999858
  0
LINE
  5
1887D
  8
AM_0
 10
156.75090385822119
 20
470.40283514132369
 30
0.0
 11
157.99089385822131
 21
463.8428351413238
 31
0.0
  0
LINE
  5
1887E
  8
AM_0
 10
156.75090385822119
 20
469.06283514132372
 30
0.0
 11
158.03087385822121
 21
461.05284514132359
 31
0.0
  0
LINE
  5
1887F
  8
AM_0
 10
156.75096385822121
 20
467.71282514132372
 30
0.0
 11
158.0409438582212
 21
459.2228351413238
 31
0.0
  0
LINE
  5
18880
  8
AM_0
 10
156.75090385822119
 20
467.71286514132362
 30
0.0
 11
158.0609038582212
 21
458.33285514132371
 31
0.0
  0
ARC
  5
18881
  8
AM_0
 10
159.95378385822119
 20
464.20974514132382
 30
0.0
 40
1.9969039999999989
 50
190.58743999999851
 51
269.91652600000037
  0
ARC
  5
18882
  8
AM_0
 10
159.99931385822109
 20
461.36598514132362
 30
0.0
 40
1.9931281000000001
 50
189.0388199999997
 51
270.04662699999949
  0
ARC
  5
18883
  8
AM_0
 10
160.01360385822119
 20
459.5174151413238
 30
0.0
 40
1.994588
 50
188.49291000000159
 51
270.20924699999762
  0
ARC
  5
18884
  8
AM_0
 10
193.7496238582211
 20
458.6141351413238
 30
0.0
 40
2.001287899999999
 50
270.036874000002
 51
359.96312800100111
  0
LINE
  5
18885
  8
AM_0
 10
195.75090385822111
 20
458.61285514132379
 30
0.0
 11
195.75090385822111
 21
462.21284514132378
 31
0.0
  0
ARC
  5
18886
  8
AM_0
 10
193.75047385822111
 20
461.3732651413236
 30
0.0
 40
2.000407899999999
 50
270.01165000000208
 51
359.98835099999928
  0
ARC
  5
18887
  8
AM_0
 10
193.7493138582212
 20
459.52439514132368
 30
0.0
 40
2.0015439999999991
 50
270.04421600000092
 51
359.95578600099913
  0
LINE
  5
18888
  8
AM_0
 10
262.95091385822121
 20
479.16282514132382
 30
0.0
 11
258.80092385822121
 21
463.7028351413237
 31
0.0
  0
LINE
  5
18889
  8
AM_0
 10
264.75090385822108
 20
486.55783514132378
 30
0.0
 11
272.75087385822121
 21
486.55783514132378
 31
0.0
  0
ARC
  5
1888A
  8
AM_0
 10
264.40410385822122
 20
478.77507514132378
 30
0.0
 40
1.5027759999999999
 50
90.122410000003583
 51
165.24357000000111
  0
LINE
  5
1888B
  8
AM_0
 10
264.75090385822108
 20
462.49784514132369
 30
0.0
 11
272.75087385822121
 21
462.49784514132369
 31
0.0
  0
LINE
  5
1888C
  8
AM_0
 10
264.75090385822108
 20
472.49784514132358
 30
0.0
 11
272.75087385822121
 21
472.49784514132358
 31
0.0
  0
ARC
  5
1888D
  8
AM_0
 10
256.86809385822119
 20
464.21144514132362
 30
0.0
 40
1.9986041000000001
 50
270.08048399999888
 51
345.25728400000048
  0
LINE
  5
1888E
  8
AM_0
 10
259.29088385822121
 20
465.5028351413236
 30
0.0
 11
264.75090385822108
 21
465.5028351413236
 31
0.0
  0
LINE
  5
1888F
  8
AM_0
 10
258.09090385822122
 20
554.49781323176387
 30
0.0
 11
159.11086385822131
 21
554.49781323176387
 31
0.0
  0
LINE
  5
18890
  8
AM_0
 10
258.09090385822122
 20
552.49781323176376
 30
0.0
 11
159.11086385822131
 21
552.49781323176376
 31
0.0
  0
LINE
  5
18891
  8
AM_0
 10
258.0837038582211
 20
542.49781323176376
 30
0.0
 11
159.11086385822131
 21
542.49781323176376
 31
0.0
  0
LINE
  5
18892
  8
AM_0
 10
158.43086385822119
 20
555.21778323176397
 30
0.0
 11
261.57088385822118
 21
555.21778323176397
 31
0.0
  0
LINE
  5
18893
  8
AM_0
 10
158.2108938582212
 20
542.05787323176389
 30
0.0
 11
261.78511385822139
 21
542.05787323176389
 31
0.0
  0
LINE
  5
18894
  8
AM_0
 10
258.09804385822127
 20
544.49781323176376
 30
0.0
 11
159.11086385822131
 21
544.49781323176376
 31
0.0
  0
LINE
  5
18895
  8
AM_0
 10
158.43086385822119
 20
551.86780323176356
 30
0.0
 11
261.57088385822118
 21
551.86780323176356
 31
0.0
  0
LINE
  5
18896
  8
AM_0
 10
158.2108938582212
 20
544.98780323176379
 30
0.0
 11
261.7965338582211
 21
544.98780323176379
 31
0.0
  0
POLYLINE
  5
18897
  8
AM_0
 66
     1
 10
0.0
 20
0.0
 30
0.0
  0
VERTEX
  5
18898
  8
AM_0
 10
159.1549238582212
 20
524.7681932317638
 30
0.0
 42
-0.00076691992
  0
VERTEX
  5
18899
  8
AM_0
 10
159.16972385822109
 20
525.38596323176375
 30
0.0
 42
-0.00073262792
  0
VERTEX
  5
1889A
  8
AM_0
 10
159.1863638582212
 20
526.00355323176382
 30
0.0
 42
-0.00076529537
  0
VERTEX
  5
1889B
  8
AM_0
 10
159.2048538582211
 20
526.62122323176379
 30
0.0
 42
-0.00075141097
  0
VERTEX
  5
1889C
  8
AM_0
 10
159.2252238582212
 20
527.23882323176383
 30
0.0
 42
-0.00075841687
  0
VERTEX
  5
1889D
  8
AM_0
 10
159.24745385822121
 20
527.85625323176384
 30
0.0
 42
-0.00075711788
  0
VERTEX
  5
1889E
  8
AM_0
 10
159.27156385822121
 20
528.47376323176377
 30
0.0
 42
-0.00075976003
  0
VERTEX
  5
1889F
  8
AM_0
 10
159.29755385822119
 20
529.09115323176388
 30
0.0
 42
-0.00075797311
  0
VERTEX
  5
188A0
  8
AM_0
 10
159.3253938582213
 20
529.70843323176382
 30
0.0
 42
-0.0007482613
  0
VERTEX
  5
188A1
  8
AM_0
 10
159.35512385822119
 20
530.32581323176385
 30
0.0
 42
-0.00074893561
  0
VERTEX
  5
188A2
  8
AM_0
 10
159.38668385822109
 20
530.94294323176382
 30
0.0
 42
-0.00076039839
  0
VERTEX
  5
188A3
  8
AM_0
 10
159.42010385822121
 20
531.55997323176382
 30
0.0
 42
-0.00075618786
  0
VERTEX
  5
188A4
  8
AM_0
 10
159.45540385822119
 20
532.17701323176368
 30
0.0
  0
SEQEND
  5
188A5
  8
AM_0
  0
LINE
  5
188A6
  8
AM_0
 10
258.0942401516325
 20
524.49781323176387
 30
0.0
 11
159.11086385822131
 21
524.49781323176387
 31
0.0
  0
LINE
  5
188A7
  8
AM_0
 10
258.0942401516325
 20
522.49781323176376
 30
0.0
 11
159.11086385822131
 21
522.49781323176376
 31
0.0
  0
LINE
  5
188A8
  8
AM_0
 10
158.0208938582212
 20
524.76783323176369
 30
0.0
 11
262.13699311172809
 21
524.76783323176369
 31
0.0
  0
LINE
  5
188A9
  8
AM_0
 10
158.0208938582212
 20
522.23780323176379
 30
0.0
 11
261.9737058342306
 21
522.23780323176379
 31
0.0
  0
POLYLINE
  5
188AA
  8
AM_0
 66
     1
 10
0.0
 20
0.0
 30
0.0
  0
VERTEX
  5
188AB
  8
AM_0
 10
159.11086385822131
 20
518.49781323176376
 30
0.0
 42
-0.00039106649
  0
VERTEX
  5
188AC
  8
AM_0
 10
159.10850385822121
 20
518.80894323176381
 30
0.0
 42
-0.00035488198
  0
VERTEX
  5
188AD
  8
AM_0
 10
159.10661385822121
 20
519.12005323176379
 30
0.0
 42
-0.00039706113
  0
VERTEX
  5
188AE
  8
AM_0
 10
159.10518385822121
 20
519.43116323176389
 30
0.0
 42
-0.00038765718
  0
VERTEX
  5
188AF
  8
AM_0
 10
159.1042538582212
 20
519.7423032317638
 30
0.0
 42
-0.00040613432
  0
VERTEX
  5
188B0
  8
AM_0
 10
159.1038038582212
 20
520.05340323176381
 30
0.0
 42
-0.00035573434
  0
VERTEX
  5
188B1
  8
AM_0
 10
159.1038438582213
 20
520.36451323176379
 30
0.0
 42
-0.00038545884
  0
VERTEX
  5
188B2
  8
AM_0
 10
159.1043338582212
 20
520.67564323176384
 30
0.0
 42
-0.00035501205
  0
VERTEX
  5
188B3
  8
AM_0
 10
159.1052938582213
 20
520.98675323176371
 30
0.0
 42
-0.00040120779
  0
VERTEX
  5
188B4
  8
AM_0
 10
159.10671385822121
 20
521.29798323176385
 30
0.0
 42
-0.00038317817
  0
VERTEX
  5
188B5
  8
AM_0
 10
159.10862385822131
 20
521.60911323176379
 30
0.0
 42
-0.00035656084
  0
VERTEX
  5
188B6
  8
AM_0
 10
159.11100385822121
 20
521.92035323176378
 30
0.0
 42
-0.00040143615
  0
VERTEX
  5
188B7
  8
AM_0
 10
159.1138538582212
 20
522.23145323176357
 30
0.0
  0
SEQEND
  5
188B8
  8
AM_0
  0
ARC
  5
188B9
  8
AM_0
 10
158.01503385822119
 20
523.50281323176375
 30
0.0
 40
1.2650129999999991
 50
89.735579000001735
 51
270.2644100000025
  0
ARC
  5
188BA
  8
AM_0
 10
159.29549385822131
 20
523.49781323176376
 30
0.0
 40
1.0000138999999999
 50
89.691659999999231
 51
270.30834000000073
  0
ARC
  5
188BB
  8
AM_0
 10
258.09086375822119
 20
523.49781323176376
 30
0.0
 40
1.000005699999998
 50
269.999989999999
 51
90.00000299999769
  0
ARC
  5
188BC
  8
AM_0
 10
261.97780025822118
 20
523.50782323176384
 30
0.0
 40
1.2700266
 50
269.62932000000001
 51
90.370669999998199
  0
LINE
  5
188BD
  8
AM_0
 10
258.09424015165371
 20
534.49781323176376
 30
0.0
 11
159.11086385822131
 21
534.49781323176376
 31
0.0
  0
LINE
  5
188BE
  8
AM_0
 10
258.09424015162892
 20
532.49781323176376
 30
0.0
 11
159.11086385822131
 21
532.49781323176376
 31
0.0
  0
LINE
  5
188BF
  8
AM_0
 10
158.08089385822109
 20
534.83777323176378
 30
0.0
 11
262.07947181462168
 21
534.83777323176378
 31
0.0
  0
LINE
  5
188C0
  8
AM_0
 10
158.08089385822109
 20
532.17786323176381
 30
0.0
 11
261.92794631621462
 21
532.17786323176381
 31
0.0
  0
ARC
  5
188C1
  8
AM_0
 10
159.29549385822131
 20
543.49781323176376
 30
0.0
 40
1.0000138999999999
 50
89.691659999999231
 51
270.30834000000073
  0
ARC
  5
188C2
  8
AM_0
 10
158.2108938582212
 20
543.52283323176368
 30
0.0
 40
1.465004
 50
90.00000299999769
 51
270.0
  0
POLYLINE
  5
188C3
  8
AM_0
 66
     1
 10
0.0
 20
0.0
 30
0.0
  0
VERTEX
  5
188C4
  8
AM_0
 10
159.62911385822119
 20
534.83838323176383
 30
0.0
 42
-0.0007337051
  0
VERTEX
  5
188C5
  8
AM_0
 10
159.67325385822119
 20
535.44080323176377
 30
0.0
 42
-0.00075211323
  0
VERTEX
  5
188C6
  8
AM_0
 10
159.71919385822119
 20
536.04319323176389
 30
0.0
 42
-0.0007297491
  0
VERTEX
  5
188C7
  8
AM_0
 10
159.76692385822119
 20
536.64539323176382
 30
0.0
 42
-0.00073593041
  0
VERTEX
  5
188C8
  8
AM_0
 10
159.81640385822109
 20
537.24738323176382
 30
0.0
 42
-0.00074742739
  0
VERTEX
  5
188C9
  8
AM_0
 10
159.86767385822131
 20
537.84925323176356
 30
0.0
 42
-0.00073217363
  0
VERTEX
  5
188CA
  8
AM_0
 10
159.92073385822121
 20
538.45105323176347
 30
0.0
 42
-0.00073754168
  0
VERTEX
  5
188CB
  8
AM_0
 10
159.97555385822119
 20
539.05259323176381
 30
0.0
 42
-0.00073075073
  0
VERTEX
  5
188CC
  8
AM_0
 10
160.03213385822119
 20
539.65395323176347
 30
0.0
 42
-0.00074550816
  0
VERTEX
  5
188CD
  8
AM_0
 10
160.09047385822109
 20
540.25501323176388
 30
0.0
 42
-0.00074288416
  0
VERTEX
  5
188CE
  8
AM_0
 10
160.15062385822119
 20
540.85603323176383
 30
0.0
 42
-0.00072504001
  0
VERTEX
  5
188CF
  8
AM_0
 10
160.21253385822121
 20
541.45678323176355
 30
0.0
 42
-0.00074640667
  0
VERTEX
  5
188D0
  8
AM_0
 10
160.27620385822121
 20
542.05738323176377
 30
0.0
  0
SEQEND
  5
188D1
  8
AM_0
  0
ARC
  5
188D2
  8
AM_0
 10
158.08089385822109
 20
533.50782323176384
 30
0.0
 40
1.3300049999999981
 50
90.00000299999769
 51
270.0
  0
ARC
  5
188D3
  8
AM_0
 10
159.29549385822131
 20
533.49781323176387
 30
0.0
 40
1.0000138999999999
 50
89.691659999999231
 51
270.30834000000073
  0
POLYLINE
  5
188D4
  8
AM_0
 66
     1
 10
0.0
 20
0.0
 30
0.0
  0
VERTEX
  5
188D5
  8
AM_0
 10
160.61177385822131
 20
544.98084323176374
 30
0.0
 42
-0.00068898288
  0
VERTEX
  5
188D6
  8
AM_0
 10
160.6826538582211
 20
545.55559323176374
 30
0.0
 42
-0.00070644354
  0
VERTEX
  5
188D7
  8
AM_0
 10
160.75515385822121
 20
546.13028323176377
 30
0.0
 42
-0.00069248071
  0
VERTEX
  5
188D8
  8
AM_0
 10
160.82924385822119
 20
546.70459323176385
 30
0.0
 42
-0.00069585665
  0
VERTEX
  5
188D9
  8
AM_0
 10
160.9049238582212
 20
547.27873323176357
 30
0.0
 42
-0.00068980191
  0
VERTEX
  5
188DA
  8
AM_0
 10
160.9822238582212
 20
547.85273323176375
 30
0.0
 42
-0.00072080104
  0
VERTEX
  5
188DB
  8
AM_0
 10
161.06111385822129
 20
548.42652323176355
 30
0.0
 42
-0.00071002307
  0
VERTEX
  5
188DC
  8
AM_0
 10
161.14165385822119
 20
548.99999323176382
 30
0.0
 42
-0.00072659056
  0
VERTEX
  5
188DD
  8
AM_0
 10
161.22381385822109
 20
549.57309323176389
 30
0.0
 42
-0.00069570481
  0
VERTEX
  5
188DE
  8
AM_0
 10
161.3076338582211
 20
550.14612323176368
 30
0.0
 42
-0.00071266935
  0
VERTEX
  5
188DF
  8
AM_0
 10
161.3930638582213
 20
550.71889323176379
 30
0.0
 42
-0.00071614426
  0
VERTEX
  5
188E0
  8
AM_0
 10
161.4800938582211
 20
551.29123323176384
 30
0.0
 42
-0.00072288975
  0
VERTEX
  5
188E1
  8
AM_0
 10
161.5688038582212
 20
551.86353323176377
 30
0.0
  0
SEQEND
  5
188E2
  8
AM_0
  0
ARC
  5
188E3
  8
AM_0
 10
158.4234838582212
 20
553.54285323176384
 30
0.0
 40
1.6750160000000001
 50
89.746145000004475
 51
270.25387000000092
  0
ARC
  5
188E4
  8
AM_0
 10
159.29549385822131
 20
553.49781323176387
 30
0.0
 40
1.0000138999999999
 50
89.691659999999231
 51
270.30834000000073
  0
ARC
  5
188E5
  8
AM_0
 10
258.09086375822119
 20
533.49781323176387
 30
0.0
 40
1.000005699999998
 50
269.999989999999
 51
90.00000299999769
  0
ARC
  5
188E6
  8
AM_0
 10
261.9158502582211
 20
533.51282323176383
 30
0.0
 40
1.3350147999999999
 50
269.7304299999999
 51
90.269556000001415
  0
ARC
  5
188E7
  8
AM_0
 10
258.09084385822132
 20
543.49781323176376
 30
0.0
 40
1.0000255999999981
 50
269.5894700000033
 51
90.410530999997775
  0
ARC
  5
188E8
  8
AM_0
 10
261.79085385822123
 20
543.52784323176365
 30
0.0
 40
1.460011199999999
 50
269.77524999999667
 51
90.224750000003354
  0
ARC
  5
188E9
  8
AM_0
 10
258.09090385822122
 20
553.49781323176387
 30
0.0
 40
1.0
 50
269.999989999999
 51
90.00000299999769
  0
ARC
  5
188EA
  8
AM_0
 10
261.5708636904555
 20
553.54282923176311
 30
0.0
 40
1.675026000120903
 50
270.0006898566686
 51
89.999313143289925
  0
LINE
  5
188EB
  8
AM_0
 10
258.09423620176091
 20
502.4978148750763
 30
0.0
 11
159.11085990833141
 21
502.49783931093589
 31
0.0
  0
LINE
  5
188EC
  8
AM_0
 10
258.0942366954726
 20
504.4978148750763
 30
0.0
 11
159.110860402068
 21
504.49783931093577
 31
0.0
  0
LINE
  5
188ED
  8
AM_0
 10
258.09423867042278
 20
512.49781487507585
 30
0.0
 11
159.1108623770146
 21
512.49783931093566
 31
0.0
  0
LINE
  5
188EE
  8
AM_0
 10
258.09423916415949
 20
514.49781487507585
 30
0.0
 11
159.11086287075119
 21
514.49783931093555
 31
0.0
  0
LINE
  5
188EF
  8
AM_0
 10
158.02089293493941
 20
514.75784958001452
 30
0.0
 11
261.97370491094568
 21
514.75782391735856
 31
0.0
  0
LINE
  5
188F0
  8
AM_0
 10
158.02089231035521
 20
512.22781958001474
 30
0.0
 11
262.13699156385889
 21
512.22779387704827
 31
0.0
  0
LINE
  5
188F1
  8
AM_0
 10
158.08089048105359
 20
504.81778956520282
 30
0.0
 11
261.92794293904382
 21
504.81776392865561
 31
0.0
  0
LINE
  5
188F2
  8
AM_0
 10
158.08088982440611
 20
502.15787956520279
 30
0.0
 11
262.07946778080333
 21
502.15785389124881
 31
0.0
  0
LINE
  5
188F3
  8
AM_0
 10
158.43085562023111
 20
485.12784947880681
 30
0.0
 11
261.57087562022798
 21
485.1278240168038
 31
0.0
  0
LINE
  5
188F4
  8
AM_0
 10
258.09803743964522
 20
492.49781487413759
 30
0.0
 11
159.1108574396483
 21
492.49783931093617
 31
0.0
  0
LINE
  5
188F5
  8
AM_0
 10
158.2108873186852
 20
492.00784953311029
 30
0.0
 11
261.79652731868202
 21
492.00782396109742
 31
0.0
  0
LINE
  5
188F6
  8
AM_0
 10
158.21088804199209
 20
494.93777953311007
 30
0.0
 11
261.78510804198902
 21
494.9377539639168
 31
0.0
  0
LINE
  5
188F7
  8
AM_0
 10
158.43085479322721
 20
481.77786947880679
 30
0.0
 11
261.57087479322411
 21
481.7778440168035
 31
0.0
  0
LINE
  5
188F8
  8
AM_0
 10
258.08369793338181
 20
494.49781487767763
 30
0.0
 11
159.11085793338489
 21
494.497839310936
 31
0.0
  0
LINE
  5
188F9
  8
AM_0
 10
258.09089546469858
 20
484.4978148759003
 30
0.0
 11
159.1108554647017
 21
484.49783931093629
 31
0.0
  0
LINE
  5
188FA
  8
AM_0
 10
258.09089497096198
 20
482.49781487590042
 30
0.0
 11
159.11085497096511
 21
482.49783931093668
 31
0.0
  0
ARC
  5
188FB
  8
AM_0
 10
258.09086252387988
 20
513.49781487590951
 30
0.0
 40
1.000005699999998
 50
269.99998285548759
 51
89.999995855486276
  0
ARC
  5
188FC
  8
AM_0
 10
258.09086005519669
 20
503.4978148759098
 30
0.0
 40
1.000005699999998
 50
269.99998285548759
 51
89.999995855486276
  0
ARC
  5
188FD
  8
AM_0
 10
261.9777990214086
 20
513.48780391634796
 30
0.0
 40
1.2700266
 50
269.62931585548409
 51
90.370665855488923
  0
ARC
  5
188FE
  8
AM_0
 10
261.91584655149109
 20
503.4828039316418
 30
0.0
 40
1.3350147999999999
 50
269.73042985548369
 51
90.269555855485152
  0
ARC
  5
188FF
  8
AM_0
 10
258.09089521783028
 20
483.49781487590042
 30
0.0
 40
1.0
 50
269.99998285548759
 51
89.999995855486276
  0
ARC
  5
18900
  8
AM_0
 10
258.09083768651351
 20
493.49781487591491
 30
0.0
 40
1.0000255999999981
 50
269.58945485548259
 51
90.410515855483709
  0
ARC
  5
18901
  8
AM_0
 10
261.7908476790999
 20
493.46778396249982
 30
0.0
 40
1.460011199999999
 50
269.7752358554838
 51
90.224735855484013
  0
ARC
  5
18902
  8
AM_0
 10
261.57085503895138
 20
483.4527980168092
 30
0.0
 40
1.675026000120903
 50
270.0006727121953
 51
89.999295998823087
  0
POLYLINE
  5
18903
  8
AM_0
 66
     1
 10
0.0
 20
0.0
 30
0.0
  0
VERTEX
  5
18904
  8
AM_0
 10
159.62910982425541
 20
502.15726918299629
 30
0.0
 42
0.0007337051
  0
VERTEX
  5
18905
  8
AM_0
 10
159.67324967553699
 20
501.55484917209958
 30
0.0
 42
0.00075211323
  0
VERTEX
  5
18906
  8
AM_0
 10
159.71918952682589
 20
500.95245916075851
 30
0.0
 42
0.0007297491
  0
VERTEX
  5
18907
  8
AM_0
 10
159.76691937816179
 20
500.35025914897551
 30
0.0
 42
0.00073593041
  0
VERTEX
  5
18908
  8
AM_0
 10
159.8163992295496
 20
499.7482691367606
 30
0.0
 42
0.00074742739
  0
VERTEX
  5
18909
  8
AM_0
 10
159.867669080967
 20
499.14639912410371
 30
0.0
 42
0.00073217363
  0
VERTEX
  5
1890A
  8
AM_0
 10
159.9207289324016
 20
498.54459911100469
 30
0.0
 42
0.00073754168
  0
VERTEX
  5
1890B
  8
AM_0
 10
159.97554878390039
 20
497.94305909747158
 30
0.0
 42
0.00073075073
  0
VERTEX
  5
1890C
  8
AM_0
 10
160.0321286354438
 20
497.34169908350378
 30
0.0
 42
0.00074550816
  0
VERTEX
  5
1890D
  8
AM_0
 10
160.090468487061
 20
496.74063906910141
 30
0.0
 42
0.00074288416
  0
VERTEX
  5
1890E
  8
AM_0
 10
160.15061833868819
 20
496.13961905425208
 30
0.0
 42
0.00072504001
  0
VERTEX
  5
1890F
  8
AM_0
 10
160.2125281903821
 20
495.53886903896858
 30
0.0
 42
0.00074640667
  0
VERTEX
  5
18910
  8
AM_0
 10
160.27619804211301
 20
494.9382690232506
 30
0.0
  0
SEQEND
  5
18911
  8
AM_0
  0
POLYLINE
  5
18912
  8
AM_0
 66
     1
 10
0.0
 20
0.0
 30
0.0
  0
VERTEX
  5
18913
  8
AM_0
 10
159.1549223102663
 20
512.22745930005863
 30
0.0
 42
0.00076691992
  0
VERTEX
  5
18914
  8
AM_0
 10
159.16972215775829
 20
511.60968929640501
 30
0.0
 42
0.00073262792
  0
VERTEX
  5
18915
  8
AM_0
 10
159.186362005295
 20
510.99209929229698
 30
0.0
 42
0.00076529537
  0
VERTEX
  5
18916
  8
AM_0
 10
159.20485185281169
 20
510.37442928773243
 30
0.0
 42
0.00075141097
  0
VERTEX
  5
18917
  8
AM_0
 10
159.22522170034591
 20
509.75682928270379
 30
0.0
 42
0.00075841687
  0
VERTEX
  5
18918
  8
AM_0
 10
159.24745154792211
 20
509.139399277216
 30
0.0
 42
0.00075711788
  0
VERTEX
  5
18919
  8
AM_0
 10
159.27156139547839
 20
508.52188927126389
 30
0.0
 42
0.00075976003
  0
VERTEX
  5
1891A
  8
AM_0
 10
159.29755124306439
 20
507.9044992648478
 30
0.0
 42
0.00075797311
  0
VERTEX
  5
1891B
  8
AM_0
 10
159.32539109067761
 20
507.28721925797493
 30
0.0
 42
0.0007482613
  0
VERTEX
  5
1891C
  8
AM_0
 10
159.355120938266
 20
506.66983925063562
 30
0.0
 42
0.00074893561
  0
VERTEX
  5
1891D
  8
AM_0
 10
159.38668078591601
 20
506.0527092428444
 30
0.0
 42
0.00076039839
  0
VERTEX
  5
1891E
  8
AM_0
 10
159.42010063359101
 20
505.4356792345942
 30
0.0
 42
0.00075618786
  0
VERTEX
  5
1891F
  8
AM_0
 10
159.45540048126341
 20
504.81863922587979
 30
0.0
  0
SEQEND
  5
18920
  8
AM_0
  0
POLYLINE
  5
18921
  8
AM_0
 66
     1
 10
0.0
 20
0.0
 30
0.0
  0
VERTEX
  5
18922
  8
AM_0
 10
159.11086385822449
 20
518.49783931093532
 30
0.0
 42
0.00039106649
  0
VERTEX
  5
18923
  8
AM_0
 10
159.10850378141629
 20
518.18670931151803
 30
0.0
 42
0.00035488198
  0
VERTEX
  5
18924
  8
AM_0
 10
159.1066137046131
 20
517.87559931198473
 30
0.0
 42
0.00039706113
  0
VERTEX
  5
18925
  8
AM_0
 10
159.10518362780979
 20
517.56448931233774
 30
0.0
 42
0.00038765718
  0
VERTEX
  5
18926
  8
AM_0
 10
159.10425355099909
 20
517.25334931256725
 30
0.0
 42
0.00040613432
  0
VERTEX
  5
18927
  8
AM_0
 10
159.10380347419849
 20
516.94224931267843
 30
0.0
 42
0.00035573434
  0
VERTEX
  5
18928
  8
AM_0
 10
159.10384339739539
 20
516.63113931266855
 30
0.0
 42
0.00038545884
  0
VERTEX
  5
18929
  8
AM_0
 10
159.10433332058719
 20
516.32000931254754
 30
0.0
 42
0.00035501205
  0
VERTEX
  5
1892A
  8
AM_0
 10
159.10529324378399
 20
516.00889931231052
 30
0.0
 42
0.00040120779
  0
VERTEX
  5
1892B
  8
AM_0
 10
159.1067131669511
 20
515.69766931196011
 30
0.0
 42
0.00038317817
  0
VERTEX
  5
1892C
  8
AM_0
 10
159.10862309014311
 20
515.38653931148849
 30
0.0
 42
0.00035656084
  0
VERTEX
  5
1892D
  8
AM_0
 10
159.11100301330771
 20
515.07529931090085
 30
0.0
 42
0.00040143615
  0
VERTEX
  5
1892E
  8
AM_0
 10
159.11385293650699
 20
514.76419931019745
 30
0.0
  0
SEQEND
  5
1892F
  8
AM_0
  0
ARC
  5
18930
  8
AM_0
 10
159.29549262388281
 20
513.49783926535633
 30
0.0
 40
1.0000138999999999
 50
89.691645855488133
 51
270.30832585548961
  0
ARC
  5
18931
  8
AM_0
 10
158.0150326226485
 20
513.49283958146134
 30
0.0
 40
1.2650129999999991
 50
89.735575855488491
 51
270.26440685548931
  0
ARC
  5
18932
  8
AM_0
 10
159.2954901551997
 20
503.49783926535662
 30
0.0
 40
1.0000138999999999
 50
89.691645855488133
 51
270.30832585548961
  0
ARC
  5
18933
  8
AM_0
 10
158.0808901527285
 20
503.48782956520279
 30
0.0
 40
1.3300049999999981
 50
89.999985855485264
 51
269.99998285548759
  0
POLYLINE
  5
18934
  8
AM_0
 66
     1
 10
0.0
 20
0.0
 30
0.0
  0
VERTEX
  5
18935
  8
AM_0
 10
160.6117673204034
 20
492.01480894040901
 30
0.0
 42
0.00068898288
  0
VERTEX
  5
18936
  8
AM_0
 10
160.68264717851571
 20
491.44005892291108
 30
0.0
 42
0.00070644354
  0
VERTEX
  5
18937
  8
AM_0
 10
160.755147036643
 20
490.86536890501299
 30
0.0
 42
0.00069248071
  0
VERTEX
  5
18938
  8
AM_0
 10
160.82923689486401
 20
490.29105888672268
 30
0.0
 42
0.00069585665
  0
VERTEX
  5
18939
  8
AM_0
 10
160.90491675312711
 20
489.71691886803973
 30
0.0
 42
0.00068980191
  0
VERTEX
  5
1893A
  8
AM_0
 10
160.9822166114246
 20
489.14291884895681
 30
0.0
 42
0.00072080104
  0
VERTEX
  5
1893B
  8
AM_0
 10
161.0611064697741
 20
488.56912882948149
 30
0.0
 42
0.00071002307
  0
VERTEX
  5
1893C
  8
AM_0
 10
161.14164632820251
 20
487.99565880959858
 30
0.0
 42
0.00072659056
  0
VERTEX
  5
1893D
  8
AM_0
 10
161.2238061867223
 20
487.42255878931587
 30
0.0
 42
0.00069570481
  0
VERTEX
  5
1893E
  8
AM_0
 10
161.3076260452593
 20
486.84952876862337
 30
0.0
 42
0.00071266935
  0
VERTEX
  5
1893F
  8
AM_0
 10
161.39305590386061
 20
486.27675874753328
 30
0.0
 42
0.00071614426
  0
VERTEX
  5
18940
  8
AM_0
 10
161.48008576256791
 20
485.70441872604869
 30
0.0
 42
0.00072288975
  0
VERTEX
  5
18941
  8
AM_0
 10
161.5687956212852
 20
485.13211870414881
 30
0.0
  0
SEQEND
  5
18942
  8
AM_0
  0
ARC
  5
18943
  8
AM_0
 10
158.21088768033991
 20
493.47281953311028
 30
0.0
 40
1.465004
 50
89.999985855485264
 51
269.99998285548759
  0
ARC
  5
18944
  8
AM_0
 10
159.29548768651651
 20
493.4978392653569
 30
0.0
 40
1.0000138999999999
 50
89.691645855488133
 51
270.30832585548961
  0
ARC
  5
18945
  8
AM_0
 10
159.29548521783329
 20
483.49783926535719
 30
0.0
 40
1.0000138999999999
 50
89.691645855488133
 51
270.30832585548961
  0
ARC
  5
18946
  8
AM_0
 10
158.42347520671439
 20
483.45279948062881
 30
0.0
 40
1.6750160000000001
 50
89.746115855482216
 51
270.25384085548518
  0
LINE
  5
18947
  8
ｶｸﾚｾﾝ2
 10
166.25090385822111
 20
554.49779591248046
 30
0.0
 11
249.75090385822119
 21
554.49779591248046
 31
0.0
  0
LINE
  5
18948
  8
ｶｸﾚｾﾝ2
 10
249.75090385822119
 20
482.4977959124808
 30
0.0
 11
166.25090385822111
 21
482.4977959124808
 31
0.0
  0
LINE
  5
18949
  8
ｶｸﾚｾﾝ2
 10
162.75090385822111
 20
485.9977959124808
 30
0.0
 11
162.75090385822111
 21
550.9977959124808
 31
0.0
  0
ARC
  5
1894A
  8
ｶｸﾚｾﾝ2
 10
166.25090385822111
 20
485.9977959124808
 30
0.0
 40
3.5
 50
180.0
 51
270.0
  0
ARC
  5
1894B
  8
ｶｸﾚｾﾝ2
 10
166.25090385822111
 20
550.9977959124808
 30
0.0
 40
3.5
 50
90.0
 51
180.0
  0
LINE
  5
1894C
  8
ｶｸﾚｾﾝ2
 10
251.75090385822111
 20
484.4977959124808
 30
0.0
 11
251.75090385822111
 21
491.99779591248063
 31
0.0
  0
ARC
  5
1894D
  8
ｶｸﾚｾﾝ2
 10
249.75090385822119
 20
484.4977959124808
 30
0.0
 40
2.0
 50
270.0
 51
0.0
  0
LINE
  5
1894E
  8
ｶｸﾚｾﾝ2
 10
249.75090385822119
 20
493.99779591248063
 30
0.0
 11
249.25090385822111
 21
493.99779591248063
 31
0.0
  0
ARC
  5
1894F
  8
ｶｸﾚｾﾝ2
 10
249.25090385822111
 20
495.9977959124808
 30
0.0
 40
2.0
 50
180.0
 51
270.0
  0
ARC
  5
18950
  8
ｶｸﾚｾﾝ2
 10
249.75090385822119
 20
491.9977959124808
 30
0.0
 40
2.0
 50
0.0
 51
90.0
  0
ARC
  5
18951
  8
ｶｸﾚｾﾝ2
 10
249.25090385822111
 20
540.9977959124808
 30
0.0
 40
2.0
 50
90.0
 51
180.0
  0
LINE
  5
18952
  8
ｶｸﾚｾﾝ2
 10
247.25090385822111
 20
540.9977959124808
 30
0.0
 11
247.25090385822111
 21
495.99779591248063
 31
0.0
  0
ARC
  5
18953
  8
ｶｸﾚｾﾝ2
 10
249.75090385822119
 20
552.49779591248068
 30
0.0
 40
2.0
 50
0.0
 51
90.0
  0
LINE
  5
18954
  8
ｶｸﾚｾﾝ2
 10
249.25090385822111
 20
542.9977959124808
 30
0.0
 11
249.75090385822119
 21
542.9977959124808
 31
0.0
  0
ARC
  5
18955
  8
ｶｸﾚｾﾝ2
 10
249.75090385822119
 20
544.99779591248068
 30
0.0
 40
2.0
 50
270.0
 51
0.0
  0
LINE
  5
18956
  8
ｶｸﾚｾﾝ2
 10
251.75090385822111
 20
544.99779591248068
 30
0.0
 11
251.75090385822111
 21
552.49779591248068
 31
0.0
  0
LINE
  5
18957
  8
ｶｸﾚｾﾝ2
 10
251.75090385822111
 20
544.99779591248068
 30
0.0
 11
251.75090385822111
 21
552.49779591248068
 31
0.0
  0
LINE
  5
18958
  8
AM_0
 10
158.43086385822119
 20
281.60369126071021
 30
0.0
 11
225.77089385822109
 21
281.60369126071021
 31
0.0
  0
LINE
  5
18959
  8
AM_0
 10
158.2108938582212
 20
274.72369126071032
 30
0.0
 11
225.7508738582211
 21
274.72369126071032
 31
0.0
  0
LINE
  5
1895A
  8
AM_0
 10
159.9608938582212
 20
304.51373126071019
 30
0.0
 11
256.88088385822118
 21
304.51373126071019
 31
0.0
  0
LINE
  5
1895B
  8
AM_0
 10
160.0008738582213
 20
307.36370126071017
 30
0.0
 11
256.88088385822118
 21
307.36370126071017
 31
0.0
  0
LINE
  5
1895C
  8
AM_0
 10
160.0208938582212
 20
309.21368126071042
 30
0.0
 11
256.88088385822118
 21
309.21368126071042
 31
0.0
  0
LINE
  5
1895D
  8
AM_0
 10
160.04085385822111
 20
310.12371126071019
 30
0.0
 11
256.88094385822131
 21
310.12371126071019
 31
0.0
  0
LINE
  5
1895E
  8
AM_0
 10
258.09090385822122
 20
284.23370126071029
 30
0.0
 11
159.11086385822131
 21
284.23370126071029
 31
0.0
  0
LINE
  5
1895F
  8
AM_0
 10
258.09090385822122
 20
282.23370126071029
 30
0.0
 11
159.11086385822131
 21
282.23370126071029
 31
0.0
  0
LINE
  5
18960
  8
AM_0
 10
158.08089385822109
 20
231.8937312607103
 30
0.0
 11
194.4221438582212
 21
231.8937312607103
 31
0.0
  0
LINE
  5
18961
  8
AM_0
 10
158.0208938582212
 20
244.50372126071019
 30
0.0
 11
194.46956385822131
 21
244.50372126071019
 31
0.0
  0
LINE
  5
18962
  8
AM_0
 10
193.1895938582212
 20
244.23370126071029
 30
0.0
 11
159.11086385822131
 21
244.23370126071029
 31
0.0
  0
LINE
  5
18963
  8
AM_0
 10
193.1895938582212
 20
242.23370126071029
 30
0.0
 11
159.11086385822131
 21
242.23370126071029
 31
0.0
  0
LINE
  5
18964
  8
AM_0
 10
158.0208938582212
 20
241.9636812607103
 30
0.0
 11
194.46956385822131
 21
241.9636812607103
 31
0.0
  0
LINE
  5
18965
  8
AM_0
 10
158.08089385822109
 20
234.55364126071041
 30
0.0
 11
194.40956385822111
 21
234.55364126071041
 31
0.0
  0
LINE
  5
18966
  8
AM_0
 10
193.1895938582212
 20
234.23370126071029
 30
0.0
 11
159.11086385822131
 21
234.23370126071029
 31
0.0
  0
LINE
  5
18967
  8
AM_0
 10
193.1895938582212
 20
232.23370126071029
 30
0.0
 11
159.11086385822131
 21
232.23370126071029
 31
0.0
  0
LINE
  5
18968
  8
AM_0
 10
193.1895938582212
 20
254.23370126071029
 30
0.0
 11
159.11086385822131
 21
254.23370126071029
 31
0.0
  0
LINE
  5
18969
  8
AM_0
 10
193.1895938582212
 20
252.23370126071029
 30
0.0
 11
159.11086385822131
 21
252.23370126071029
 31
0.0
  0
LINE
  5
1896A
  8
AM_0
 10
158.0208938582212
 20
254.50372126071019
 30
0.0
 11
194.46956385822131
 21
254.50372126071019
 31
0.0
  0
LINE
  5
1896B
  8
AM_0
 10
158.0208938582212
 20
251.9736912607103
 30
0.0
 11
194.46956385822131
 21
251.9736912607103
 31
0.0
  0
LINE
  5
1896C
  8
AM_0
 10
193.1895938582212
 20
264.23370126071029
 30
0.0
 11
159.11086385822131
 21
264.23370126071029
 31
0.0
  0
LINE
  5
1896D
  8
AM_0
 10
158.08089385822109
 20
264.57366126071031
 30
0.0
 11
194.40956385822111
 21
264.57366126071031
 31
0.0
  0
LINE
  5
1896E
  8
AM_0
 10
193.1895938582212
 20
262.23370126071029
 30
0.0
 11
159.11086385822131
 21
262.23370126071029
 31
0.0
  0
LINE
  5
1896F
  8
AM_0
 10
158.08089385822109
 20
261.91375126071023
 30
0.0
 11
194.40956385822111
 21
261.91375126071023
 31
0.0
  0
LINE
  5
18970
  8
AM_0
 10
159.65712385822121
 20
189.10369126071021
 30
0.0
 11
182.083524056888
 21
189.10369126071021
 31
0.0
  0
LINE
  5
18971
  8
AM_0
 10
159.9608938582212
 20
191.95367126071011
 30
0.0
 11
256.88088385822118
 21
191.95367126071011
 31
0.0
  0
LINE
  5
18972
  8
AM_0
 10
225.7508738582211
 20
222.23370126071029
 30
0.0
 11
159.11086385822131
 21
222.23370126071029
 31
0.0
  0
LINE
  5
18973
  8
AM_0
 10
158.2108938582212
 20
221.74371126071031
 30
0.0
 11
225.7508738582211
 21
221.74371126071031
 31
0.0
  0
LINE
  5
18974
  8
AM_0
 10
158.43086385822119
 20
211.51373126071019
 30
0.0
 11
213.75087385822121
 21
211.51373126071019
 31
0.0
  0
LINE
  5
18975
  8
AM_0
 10
158.43086385822119
 20
214.8637012607102
 30
0.0
 11
225.77089385822109
 21
214.8637012607102
 31
0.0
  0
LINE
  5
18976
  8
AM_0
 10
213.75087385822121
 20
214.23370126071029
 30
0.0
 11
159.11086385822131
 21
214.23370126071029
 31
0.0
  0
LINE
  5
18977
  8
AM_0
 10
213.75087385822121
 20
212.23370126071029
 30
0.0
 11
159.11086385822131
 21
212.23370126071029
 31
0.0
  0
LINE
  5
18978
  8
AM_0
 10
258.0837038582211
 20
224.23370126071029
 30
0.0
 11
159.11086385822131
 21
224.23370126071029
 31
0.0
  0
LINE
  5
18979
  8
AM_0
 10
225.7508738582211
 20
274.23370126071029
 30
0.0
 11
159.11086385822131
 21
274.23370126071029
 31
0.0
  0
LINE
  5
1897A
  8
AM_0
 10
258.0837038582211
 20
272.23370126071029
 30
0.0
 11
159.11086385822131
 21
272.23370126071029
 31
0.0
  0
LINE
  5
1897B
  8
AM_0
 10
170.0530362898001
 20
178.73370126071029
 30
0.0
 11
187.65303628980021
 21
178.73370126071029
 31
0.0
  0
LINE
  5
1897C
  8
ﾁｭｳｼﾝｾﾝ1
 10
167.35303628980949
 20
161.73370126071029
 30
0.0
 11
191.35303628979079
 21
161.73370126071029
 31
0.0
  0
ARC
  5
1897D
  8
AM_0
 10
179.35303628980009
 20
161.73370126071029
 30
0.0
 40
9.3000000000000007
 50
180.0
 51
0.0
  0
LINE
  5
1897E
  8
AM_0
 10
166.77161250558899
 20
149.73370126071029
 30
0.0
 11
198.74968224432121
 21
155.18212729745409
 31
0.0
  0
LINE
  5
1897F
  8
AM_0
 10
166.85303628980009
 20
148.73370126071029
 30
0.0
 11
243.15303628980021
 21
161.73370126071029
 31
0.0
  0
LINE
  5
18980
  8
AM_0
 10
166.85303628980009
 20
148.73370126071029
 30
0.0
 11
243.15303628980021
 21
161.73370126071029
 31
0.0
  0
LINE
  5
18981
  8
AM_0
 10
242.65303628980121
 20
144.73370126071029
 30
0.0
 11
167.17873142664121
 21
144.73370126071029
 31
0.0
  0
LINE
  5
18982
  8
AM_0
 10
243.47873142664119
 20
157.73370126071029
 30
0.0
 11
167.17873142664121
 21
144.73370126071029
 31
0.0
  0
LINE
  5
18983
  8
AM_0
 10
158.2108938582212
 20
224.67364126071021
 30
0.0
 11
261.78511385822139
 21
224.67364126071021
 31
0.0
  0
LINE
  5
18984
  8
AM_0
 10
158.43086385822119
 20
284.95367126071039
 30
0.0
 11
261.57088385822118
 21
284.95367126071039
 31
0.0
  0
LINE
  5
18985
  8
AM_0
 10
158.2108938582212
 20
271.79376126071031
 30
0.0
 11
261.78511385822139
 21
271.79376126071031
 31
0.0
  0
POLYLINE
  5
18986
  8
AM_0
 66
     1
 10
0.0
 20
0.0
 30
0.0
  0
VERTEX
  5
18987
  8
AM_0
 10
159.1549238582212
 20
241.96331126071021
 30
0.0
 42
0.00076695235
  0
VERTEX
  5
18988
  8
AM_0
 10
159.16972385822109
 20
241.34555126071029
 30
0.0
 42
0.00073263043
  0
VERTEX
  5
18989
  8
AM_0
 10
159.1863638582212
 20
240.7279512607102
 30
0.0
 42
0.00076525988
  0
VERTEX
  5
1898A
  8
AM_0
 10
159.2048538582211
 20
240.1102812607102
 30
0.0
 42
0.00075144488
  0
VERTEX
  5
1898B
  8
AM_0
 10
159.2252238582212
 20
239.49268126071041
 30
0.0
 42
0.00076035096
  0
VERTEX
  5
1898C
  8
AM_0
 10
159.24746385822121
 20
238.8752512607104
 30
0.0
 42
0.00075543154
  0
VERTEX
  5
1898D
  8
AM_0
 10
159.27156385822121
 20
238.2578712607102
 30
0.0
 42
0.0007577325
  0
VERTEX
  5
1898E
  8
AM_0
 10
159.29754385822119
 20
237.64047126071031
 30
0.0
 42
0.00076034585
  0
VERTEX
  5
1898F
  8
AM_0
 10
159.3253938582213
 20
237.0230812607102
 30
0.0
 42
0.00074823143
  0
VERTEX
  5
18990
  8
AM_0
 10
159.35512385822119
 20
236.40569126071031
 30
0.0
 42
0.00074896605
  0
VERTEX
  5
18991
  8
AM_0
 10
159.38668385822109
 20
235.7885612607102
 30
0.0
 42
0.00076039763
  0
VERTEX
  5
18992
  8
AM_0
 10
159.42010385822121
 20
235.1715312607104
 30
0.0
 42
0.00075616127
  0
VERTEX
  5
18993
  8
AM_0
 10
159.45540385822119
 20
234.5545012607102
 30
0.0
  0
SEQEND
  5
18994
  8
AM_0
  0
LINE
  5
18995
  8
AM_0
 10
148.7508738582213
 20
306.98370126071029
 30
0.0
 11
148.7508738582213
 21
189.48370126071029
 31
0.0
  0
LINE
  5
18996
  8
AM_0
 10
156.75087385822121
 20
301.23370126071029
 30
0.0
 11
156.75087385822121
 21
195.23370126071029
 31
0.0
  0
LINE
  5
18997
  8
AM_0
 10
143.75087385822121
 20
211.0486412607103
 30
0.0
 11
143.75087385822121
 21
285.41973126071019
 31
0.0
  0
LINE
  5
18998
  8
AM_0
 10
93.249443758221233
 20
304.23370126071029
 30
0.0
 11
93.249443758221233
 21
192.23370126071029
 31
0.0
  0
LINE
  5
18999
  8
AM_0
 10
98.750873858221325
 20
213.70464126071019
 30
0.0
 11
98.750873858221325
 21
282.76275126071039
 31
0.0
  0
LINE
  5
1899A
  8
AM_0
 10
98.249443758221233
 20
282.97216235641753
 30
0.0
 11
98.249443758221233
 21
213.49524016500291
 31
0.0
  0
LINE
  5
1899B
  8
AM_0
 10
101.2508738582213
 20
195.45171126071031
 30
0.0
 11
101.2508738582213
 21
300.98370126071012
 31
0.0
  0
LINE
  5
1899C
  8
AM_0
 10
164.25303628980021
 20
177.73370126071029
 30
0.0
 11
164.25303628980021
 21
154.73370126071029
 31
0.0
  0
LINE
  5
1899D
  8
AM_0
 10
170.0530362898001
 20
178.73370126071029
 30
0.0
 11
170.0530362898001
 21
161.73370126071029
 31
0.0
  0
LINE
  5
1899E
  8
AM_0
 10
163.95303628980011
 20
149.73370126071029
 30
0.0
 11
163.95303628980011
 21
150.72934394142621
 31
0.0
  0
LINE
  5
1899F
  8
AM_0
 10
164.25303628980021
 20
154.73370126071029
 30
0.0
 11
164.25303628979921
 21
149.73370126071029
 31
0.0
  0
LINE
  5
189A0
  8
AM_0
 10
163.75303628980021
 20
149.73370126071029
 30
0.0
 11
163.75303628980021
 21
153.43370126071119
 31
0.0
  0
LINE
  5
189A1
  8
AM_0
 10
162.25303628980109
 20
153.43370126071119
 30
0.0
 11
162.25303628980109
 21
146.23370126071029
 31
0.0
  0
LINE
  5
189A2
  8
AM_0
 10
164.25303628980021
 20
144.73370126071029
 30
0.0
 11
167.17873142664121
 21
144.73370126071029
 31
0.0
  0
LINE
  5
189A3
  8
AM_0
 10
162.75303628980021
 20
148.73370126071029
 30
0.0
 11
166.85303628980009
 21
148.73370126071029
 31
0.0
  0
LINE
  5
189A4
  8
AM_0
 10
163.0530362898001
 20
148.73370126071029
 30
0.0
 11
166.85303628980009
 21
148.73370126071029
 31
0.0
  0
LINE
  5
189A5
  8
AM_0
 10
163.7530362898012
 20
144.73370126071029
 30
0.0
 11
164.05152218595819
 21
144.7337012607114
 31
0.0
  0
LINE
  5
189A6
  8
AM_0
 10
162.75303628980021
 20
149.43370126071119
 30
0.0
 11
162.75303628980021
 21
148.73370126071029
 31
0.0
  0
ARC
  5
189A7
  8
AM_0
 10
163.0530362898001
 20
148.4337012607111
 30
0.0
 40
0.3
 50
90.0
 51
180.0
  0
ARC
  5
189A8
  8
AM_0
 10
163.0530362898001
 20
149.43370126071119
 30
0.0
 40
0.3
 50
90.0
 51
180.0
  0
LINE
  5
189A9
  8
AM_0
 10
162.75303628980021
 20
148.4337012607111
 30
0.0
 11
162.75303628980021
 21
146.23370126071029
 31
0.0
  0
LINE
  5
189AA
  8
AM_0
 10
166.77161250558899
 20
149.73370126071029
 30
0.0
 11
163.0530362898001
 21
149.73370126071029
 31
0.0
  0
ARC
  5
189AB
  8
AM_0
 10
163.7530362898012
 20
146.2337012607114
 30
0.0
 40
1.5
 50
180.00000000000651
 51
269.99999999999352
  0
ARC
  5
189AC
  8
AM_0
 10
164.25303628980021
 20
146.23370126071029
 30
0.0
 40
1.5
 50
180.0
 51
270.0
  0
ARC
  5
189AD
  8
AM_0
 10
163.45303628980011
 20
153.43370126071119
 30
0.0
 40
0.3
 50
0.0
 51
90.0
  0
LINE
  5
189AE
  8
AM_0
 10
164.1530362898001
 20
154.73370126071029
 30
0.0
 11
164.25303628980021
 21
154.73370126071029
 31
0.0
  0
LINE
  5
189AF
  8
AM_0
 10
163.95303628980011
 20
154.5337012607111
 30
0.0
 11
164.1530362898001
 21
154.73370126071029
 31
0.0
  0
LINE
  5
189B0
  8
AM_0
 10
163.95303628980011
 20
150.72934394142621
 30
0.0
 11
163.95303628980011
 21
151.92934394142611
 31
0.0
  0
LINE
  5
189B1
  8
AM_0
 10
163.95303628980011
 20
150.72934394142621
 30
0.0
 11
163.75303628980021
 21
150.72934394142621
 31
0.0
  0
LINE
  5
189B2
  8
AM_0
 10
163.75303628980021
 20
151.92934394142611
 30
0.0
 11
163.95303628980011
 21
151.92934394142611
 31
0.0
  0
LINE
  5
189B3
  8
AM_0
 10
163.95303628980011
 20
151.92934394142611
 30
0.0
 11
163.95303628980011
 21
154.5337012607111
 31
0.0
  0
ARC
  5
189B4
  8
AM_0
 10
162.55303628980121
 20
153.43370126071119
 30
0.0
 40
0.3
 50
90.0
 51
180.0
  0
LINE
  5
189B5
  8
AM_0
 10
163.0530362898001
 20
153.73370126071029
 30
0.0
 11
162.55303628980121
 21
153.73370126071029
 31
0.0
  0
LINE
  5
189B6
  8
AM_0
 10
163.45303628980011
 20
153.73370126071029
 30
0.0
 11
163.0530362898001
 21
153.73370126071029
 31
0.0
  0
LINE
  5
189B7
  8
AM_0
 10
100.7508738582213
 20
195.48370126071029
 30
0.0
 11
148.7508738582213
 21
195.48370126071029
 31
0.0
  0
LINE
  5
189B8
  8
AM_0
 10
101.2508738582213
 20
214.59271126071019
 30
0.0
 11
143.75087385822121
 21
214.59271126071019
 31
0.0
  0
LINE
  5
189B9
  8
AM_0
 10
101.2508738582213
 20
204.34271126071019
 30
0.0
 11
143.75087385822121
 21
204.34271126071019
 31
0.0
  0
LINE
  5
189BA
  8
AM_0
 10
123.7508738582213
 20
189.48370126071029
 30
0.0
 11
148.7508738582213
 21
189.48370126071029
 31
0.0
  0
LINE
  5
189BB
  8
AM_0
 10
102.2494437582212
 20
183.23370126071029
 30
0.0
 11
139.75087385822121
 21
183.23370126071029
 31
0.0
  0
LINE
  5
189BC
  8
AM_0
 10
98.750873858221325
 20
204.98077126071021
 30
0.0
 11
98.750873858221325
 21
197.48370126071029
 31
0.0
  0
LINE
  5
189BD
  8
AM_0
 10
98.249443758221233
 20
205.19018235641749
 30
0.0
 11
98.249443758221233
 21
193.23370126071029
 31
0.0
  0
LINE
  5
189BE
  8
AM_0
 10
103.2494437582212
 20
188.23370126071009
 30
0.0
 11
126.7508738582213
 21
188.23370126071009
 31
0.0
  0
ARC
  5
189BF
  8
AM_0
 10
102.2494437582212
 20
192.23370126071029
 30
0.0
 40
9.0
 50
179.99997999999789
 51
269.99995000000149
  0
ARC
  5
189C0
  8
AM_0
 10
103.2494437582212
 20
193.23370126071029
 30
0.0
 40
5.0
 50
179.99997999999789
 51
269.99995000000149
  0
ARC
  5
189C1
  8
AM_0
 10
100.7508738582213
 20
197.48370126071029
 30
0.0
 40
2.0
 50
179.99997999999789
 51
269.99995000000149
  0
LINE
  5
189C2
  8
AM_0
 10
126.7508738582213
 20
189.48370126071029
 30
0.0
 11
126.7508738582213
 21
183.23370126071029
 31
0.0
  0
LINE
  5
189C3
  8
AM_0
 10
123.7508738582213
 20
189.48370126071029
 30
0.0
 11
123.7508738582213
 21
195.48370126071029
 31
0.0
  0
LINE
  5
189C4
  8
AM_0
 10
99.950883858221147
 20
213.9426812607102
 30
0.0
 11
99.950883858221147
 21
204.7427312607102
 31
0.0
  0
LINE
  5
189C5
  8
AM_0
 10
96.650903858221128
 20
210.84271126071019
 30
0.0
 11
96.650903858221128
 21
207.84271126071019
 31
0.0
  0
ARC
  5
189C6
  8
AM_0
 10
99.650903858221128
 20
207.84271126071019
 30
0.0
 40
3.0
 50
179.99997999999789
 51
269.99995000000149
  0
LINE
  5
189C7
  8
AM_0
 10
99.950883858221147
 20
204.7427312607102
 30
0.0
 11
101.2508738582213
 21
204.7427312607102
 31
0.0
  0
LINE
  5
189C8
  8
AM_0
 10
99.650903858221128
 20
204.84271126071019
 30
0.0
 11
99.950883858221147
 21
204.84271126071019
 31
0.0
  0
ARC
  5
189C9
  8
AM_0
 10
99.650903858221128
 20
210.84271126071019
 30
0.0
 40
3.0
 50
89.999988999997555
 51
179.99997999999789
  0
LINE
  5
189CA
  8
AM_0
 10
99.950883858221147
 20
213.9426812607102
 30
0.0
 11
101.2508738582213
 21
213.9426812607102
 31
0.0
  0
LINE
  5
189CB
  8
AM_0
 10
99.650903858221128
 20
213.84271126071019
 30
0.0
 11
99.950883858221147
 21
213.84271126071019
 31
0.0
  0
LINE
  5
189CC
  8
AM_0
 10
143.75087385822121
 20
204.34271126071019
 30
0.0
 11
143.75087385822121
 21
195.48370126071029
 31
0.0
  0
LINE
  5
189CD
  8
AM_0
 10
162.11086385822131
 20
211.58370126071009
 30
0.0
 11
156.75087385822121
 21
200.1437012607104
 31
0.0
  0
LINE
  5
189CE
  8
AM_0
 10
148.7508738582213
 20
195.23370126071029
 30
0.0
 11
156.75087385822121
 21
195.23370126071029
 31
0.0
  0
LINE
  5
189CF
  8
AM_0
 10
136.75087385822121
 20
189.48370126071029
 30
0.0
 11
136.75087385822121
 21
183.23370126071029
 31
0.0
  0
LINE
  5
189D0
  8
AM_0
 10
139.75087385822121
 20
188.23370126071009
 30
0.0
 11
139.75087385822121
 21
183.23370126071029
 31
0.0
  0
LINE
  5
189D1
  8
AM_0
 10
136.75087385822121
 20
188.23370126071009
 30
0.0
 11
139.75087385822121
 21
188.23370126071009
 31
0.0
  0
LINE
  5
189D2
  8
AM_0
 10
165.25303628980021
 20
178.73370126071029
 30
0.0
 11
170.0530362898001
 21
178.73370126071029
 31
0.0
  0
ARC
  5
189D3
  8
AM_0
 10
165.25303628980021
 20
177.73370126071029
 30
0.0
 40
1.0
 50
90.0
 51
180.0
  0
ARC
  5
189D4
  8
AM_0
 10
159.9557138582212
 20
193.95294126071019
 30
0.0
 40
1.9992490000000001
 50
190.643100000001
 51
270.14743000000129
  0
LINE
  5
189D5
  8
AM_0
 10
156.75087385822121
 20
198.79363126071021
 30
0.0
 11
158.03084385822109
 21
190.7936912607102
 31
0.0
  0
LINE
  5
189D6
  8
AM_0
 10
156.75087385822121
 20
197.45364126071021
 30
0.0
 11
157.7600938582213
 21
190.80361126071011
 31
0.0
  0
LINE
  5
189D7
  8
AM_0
 10
156.75087385822121
 20
197.45370126071029
 30
0.0
 11
157.67635385822129
 21
190.82708126071029
 31
0.0
  0
ARC
  5
189D8
  8
AM_0
 10
160.0070438582211
 20
191.1040612607101
 30
0.0
 40
2.000420099999999
 50
188.92682000000181
 51
269.82270999999599
  0
ARC
  5
189D9
  8
AM_0
 10
159.7375038582212
 20
191.10369126071021
 30
0.0
 40
2.0
 50
188.62962000000439
 51
269.999989999999
  0
ARC
  5
189DA
  8
AM_0
 10
159.65712385822121
 20
191.10369126071021
 30
0.0
 40
2.0
 50
187.95044000000351
 51
269.999989999999
  0
LINE
  5
189DB
  8
AM_0
 10
156.75087385822121
 20
200.1436412607103
 30
0.0
 11
157.9908638582213
 21
193.58364126071029
 31
0.0
  0
LINE
  5
189DC
  8
AM_0
 10
149.4508838582212
 20
205.04376126071031
 30
0.0
 11
155.68086385822119
 21
205.04376126071031
 31
0.0
  0
POLYLINE
  5
189DD
  8
AM_0
 66
     1
 10
0.0
 20
0.0
 30
0.0
  0
VERTEX
  5
189DE
  8
AM_0
 10
160.61177385822131
 20
221.75066126071019
 30
0.0
 42
0.00068900015
  0
VERTEX
  5
189DF
  8
AM_0
 10
160.6826538582211
 20
221.17591126071019
 30
0.0
 42
0.00070644648
  0
VERTEX
  5
189E0
  8
AM_0
 10
160.75515385822121
 20
220.60123126071031
 30
0.0
 42
0.00069245587
  0
VERTEX
  5
189E1
  8
AM_0
 10
160.82924385822119
 20
220.02691126071031
 30
0.0
 42
0.00069587802
  0
VERTEX
  5
189E2
  8
AM_0
 10
160.9049238582212
 20
219.45277126071019
 30
0.0
 42
0.00068980012
  0
VERTEX
  5
189E3
  8
AM_0
 10
160.9822238582212
 20
218.87877126071029
 30
0.0
 42
0.00072079193
  0
VERTEX
  5
189E4
  8
AM_0
 10
161.06111385822129
 20
218.30499126071041
 30
0.0
 42
0.00071003147
  0
VERTEX
  5
189E5
  8
AM_0
 10
161.14165385822119
 20
217.73151126071011
 30
0.0
 42
0.00072658712
  0
VERTEX
  5
189E6
  8
AM_0
 10
161.22381385822109
 20
217.1584212607103
 30
0.0
 42
0.00069571059
  0
VERTEX
  5
189E7
  8
AM_0
 10
161.3076338582211
 20
216.58538126071031
 30
0.0
 42
0.0007126617
  0
VERTEX
  5
189E8
  8
AM_0
 10
161.3930638582213
 20
216.01262126071029
 30
0.0
 42
0.00071614574
  0
VERTEX
  5
189E9
  8
AM_0
 10
161.4800938582211
 20
215.4402712607104
 30
0.0
 42
0.00072290803
  0
VERTEX
  5
189EA
  8
AM_0
 10
161.5688038582212
 20
214.86797126071031
 30
0.0
  0
SEQEND
  5
189EB
  8
AM_0
  0
ARC
  5
189EC
  8
AM_0
 10
158.42403385822121
 20
213.1886512607104
 30
0.0
 40
1.675014
 50
89.766498999996756
 51
270.2335099999994
  0
ARC
  5
189ED
  8
AM_0
 10
159.29549385822131
 20
213.23370126071029
 30
0.0
 40
1.0000138999999999
 50
89.691659999999231
 51
270.30834000000073
  0
POLYLINE
  5
189EE
  8
AM_0
 66
     1
 10
0.0
 20
0.0
 30
0.0
  0
VERTEX
  5
189EF
  8
AM_0
 10
159.62911385822119
 20
231.8931212607103
 30
0.0
 42
0.00073721992
  0
VERTEX
  5
189F0
  8
AM_0
 10
159.67326385822119
 20
231.29071126071031
 30
0.0
 42
0.00074398496
  0
VERTEX
  5
189F1
  8
AM_0
 10
159.71919385822119
 20
230.68844126071019
 30
0.0
 42
0.00073322625
  0
VERTEX
  5
189F2
  8
AM_0
 10
159.76692385822119
 20
230.08611126071031
 30
0.0
 42
0.00073594289
  0
VERTEX
  5
189F3
  8
AM_0
 10
159.81640385822109
 20
229.4841212607102
 30
0.0
 42
0.00074742568
  0
VERTEX
  5
189F4
  8
AM_0
 10
159.86767385822131
 20
228.88226126071021
 30
0.0
 42
0.00073216749
  0
VERTEX
  5
189F5
  8
AM_0
 10
159.92073385822121
 20
228.28045126071029
 30
0.0
 42
0.00074184065
  0
VERTEX
  5
189F6
  8
AM_0
 10
159.97555385822119
 20
227.6789212607103
 30
0.0
 42
0.00072077528
  0
VERTEX
  5
189F7
  8
AM_0
 10
160.03213385822119
 20
227.0776912607104
 30
0.0
 42
0.00074978179
  0
VERTEX
  5
189F8
  8
AM_0
 10
160.09047385822109
 20
226.4764912607103
 30
0.0
 42
0.00074288888
  0
VERTEX
  5
189F9
  8
AM_0
 10
160.15062385822119
 20
225.87547126071021
 30
0.0
 42
0.00072503679
  0
VERTEX
  5
189FA
  8
AM_0
 10
160.21253385822121
 20
225.27473126071021
 30
0.0
 42
0.00074640584
  0
VERTEX
  5
189FB
  8
AM_0
 10
160.27620385822121
 20
224.6741312607102
 30
0.0
  0
SEQEND
  5
189FC
  8
AM_0
  0
ARC
  5
189FD
  8
AM_0
 10
159.29549385822131
 20
223.23370126071029
 30
0.0
 40
1.0000138999999999
 50
89.691659999999231
 51
270.30834000000073
  0
ARC
  5
189FE
  8
AM_0
 10
158.2108938582212
 20
223.2086712607103
 30
0.0
 40
1.465004
 50
90.00000299999769
 51
270.0
  0
ARC
  5
189FF
  8
AM_0
 10
158.08089385822109
 20
233.2236912607103
 30
0.0
 40
1.3300049999999981
 50
90.00000299999769
 51
270.0
  0
ARC
  5
18A00
  8
AM_0
 10
159.29549385822131
 20
233.23370126071029
 30
0.0
 40
1.0000138999999999
 50
89.691659999999231
 51
270.30834000000073
  0
LINE
  5
18A01
  8
AM_0
 10
156.75087385822121
 20
299.02371126071017
 30
0.0
 11
158.04085385822111
 21
307.5136712607104
 31
0.0
  0
LINE
  5
18A02
  8
AM_0
 10
156.75087385822121
 20
297.67373126071033
 30
0.0
 11
158.03084385822109
 21
305.68368126071022
 31
0.0
  0
LINE
  5
18A03
  8
AM_0
 10
156.75087385822121
 20
299.02371126071017
 30
0.0
 11
158.06087385822121
 21
308.40374126071032
 31
0.0
  0
LINE
  5
18A04
  8
AM_0
 10
123.7508738582213
 20
306.98370126071012
 30
0.0
 11
123.7508738582213
 21
300.98370126071012
 31
0.0
  0
ARC
  5
18A05
  8
AM_0
 10
103.2494437582212
 20
303.23370126071029
 30
0.0
 40
5.0
 50
89.999988999997555
 51
180.0
  0
ARC
  5
18A06
  8
AM_0
 10
102.2494437582212
 20
304.23370126071029
 30
0.0
 40
9.0
 50
89.999988999997555
 51
179.99997999999789
  0
LINE
  5
18A07
  8
AM_0
 10
101.2508738582213
 20
292.12469126071022
 30
0.0
 11
143.75087385822121
 21
292.12469126071022
 31
0.0
  0
LINE
  5
18A08
  8
AM_0
 10
101.2508738582213
 20
281.87469126071022
 30
0.0
 11
143.75087385822121
 21
281.87469126071022
 31
0.0
  0
LINE
  5
18A09
  8
AM_0
 10
100.7508738582213
 20
300.98370126071012
 30
0.0
 11
148.7508738582213
 21
300.98370126071012
 31
0.0
  0
LINE
  5
18A0A
  8
AM_0
 10
93.249443758221233
 20
253.23370126071029
 30
0.0
 11
92.250903858221264
 21
253.23370126071029
 31
0.0
  0
LINE
  5
18A0B
  8
AM_0
 10
93.249443758221233
 20
243.23370126071029
 30
0.0
 11
92.250903858221264
 21
243.23370126071029
 31
0.0
  0
LINE
  5
18A0C
  8
AM_0
 10
92.250903858221264
 20
243.23370126071029
 30
0.0
 11
92.250903858221264
 21
253.23370126071029
 31
0.0
  0
LINE
  5
18A0D
  8
AM_0
 10
98.750873858221325
 20
243.23370126071029
 30
0.0
 11
98.249443758221233
 21
243.23370126071029
 31
0.0
  0
LINE
  5
18A0E
  8
AM_0
 10
98.750873858221325
 20
253.23370126071029
 30
0.0
 11
98.249443758221233
 21
253.23370126071029
 31
0.0
  0
LINE
  5
18A0F
  8
AM_0
 10
99.950883858221147
 20
282.52472126071018
 30
0.0
 11
99.950883858221147
 21
291.72467126071012
 31
0.0
  0
LINE
  5
18A10
  8
AM_0
 10
96.650903858221128
 20
285.62469126071011
 30
0.0
 11
96.650903858221128
 21
288.62469126071022
 31
0.0
  0
ARC
  5
18A11
  8
AM_0
 10
99.650903858221128
 20
285.62469126071011
 30
0.0
 40
3.0
 50
180.000020000002
 51
270.00001100000242
  0
LINE
  5
18A12
  8
AM_0
 10
99.950883858221147
 20
282.52472126071018
 30
0.0
 11
101.2508738582213
 21
282.52472126071018
 31
0.0
  0
LINE
  5
18A13
  8
AM_0
 10
99.650903858221128
 20
282.62469126071022
 30
0.0
 11
99.950883858221147
 21
282.62469126071022
 31
0.0
  0
LINE
  5
18A14
  8
AM_0
 10
98.750873858221325
 20
291.48663126071023
 30
0.0
 11
98.750873858221325
 21
298.98370126071012
 31
0.0
  0
LINE
  5
18A15
  8
AM_0
 10
98.249443758221233
 20
291.2772201650028
 30
0.0
 11
98.249443758221233
 21
303.23370126071012
 31
0.0
  0
ARC
  5
18A16
  8
AM_0
 10
99.650903858221128
 20
288.62469126071022
 30
0.0
 40
3.0
 50
90.000049999998495
 51
180.000020000002
  0
LINE
  5
18A17
  8
AM_0
 10
99.950883858221147
 20
291.72467126071012
 30
0.0
 11
101.2508738582213
 21
291.72467126071012
 31
0.0
  0
LINE
  5
18A18
  8
AM_0
 10
99.650903858221128
 20
291.62469126071022
 30
0.0
 11
99.950883858221147
 21
291.62469126071022
 31
0.0
  0
ARC
  5
18A19
  8
AM_0
 10
100.7508738582213
 20
298.98370126071012
 30
0.0
 40
2.0
 50
90.000049999998495
 51
180.000020000002
  0
POLYLINE
  5
18A1A
  8
AM_0
 66
     1
 10
0.0
 20
0.0
 30
0.0
  0
VERTEX
  5
18A1B
  8
AM_0
 10
159.62911385822119
 20
264.57427126071042
 30
0.0
 42
-0.0007337051
  0
VERTEX
  5
18A1C
  8
AM_0
 10
159.67325385822119
 20
265.1766912607103
 30
0.0
 42
-0.00075211323
  0
VERTEX
  5
18A1D
  8
AM_0
 10
159.71919385822119
 20
265.77908126071031
 30
0.0
 42
-0.0007297491
  0
VERTEX
  5
18A1E
  8
AM_0
 10
159.76692385822119
 20
266.3812812607103
 30
0.0
 42
-0.00073593041
  0
VERTEX
  5
18A1F
  8
AM_0
 10
159.81640385822109
 20
266.9832712607103
 30
0.0
 42
-0.00074742739
  0
VERTEX
  5
18A20
  8
AM_0
 10
159.86767385822131
 20
267.5851412607102
 30
0.0
 42
-0.00073217363
  0
VERTEX
  5
18A21
  8
AM_0
 10
159.92073385822121
 20
268.18694126071011
 30
0.0
 42
-0.00073754168
  0
VERTEX
  5
18A22
  8
AM_0
 10
159.97555385822119
 20
268.78848126071011
 30
0.0
 42
-0.00073075073
  0
VERTEX
  5
18A23
  8
AM_0
 10
160.03213385822119
 20
269.38984126071011
 30
0.0
 42
-0.00074550816
  0
VERTEX
  5
18A24
  8
AM_0
 10
160.09047385822109
 20
269.9909012607103
 30
0.0
 42
-0.00074288416
  0
VERTEX
  5
18A25
  8
AM_0
 10
160.15062385822119
 20
270.59192126071042
 30
0.0
 42
-0.00072504001
  0
VERTEX
  5
18A26
  8
AM_0
 10
160.21253385822121
 20
271.1926712607102
 30
0.0
 42
-0.00074640667
  0
VERTEX
  5
18A27
  8
AM_0
 10
160.27620385822121
 20
271.79327126071018
 30
0.0
  0
SEQEND
  5
18A28
  8
AM_0
  0
ARC
  5
18A29
  8
AM_0
 10
159.29549385822131
 20
253.23370126071029
 30
0.0
 40
1.0000138999999999
 50
89.691659999999231
 51
270.30834000000073
  0
ARC
  5
18A2A
  8
AM_0
 10
158.01503385822119
 20
253.2387012607102
 30
0.0
 40
1.2650129999999991
 50
89.735579000001735
 51
270.2644100000025
  0
POLYLINE
  5
18A2B
  8
AM_0
 66
     1
 10
0.0
 20
0.0
 30
0.0
  0
VERTEX
  5
18A2C
  8
AM_0
 10
159.11086385822131
 20
248.23370126071029
 30
0.0
 42
0.00039106589
  0
VERTEX
  5
18A2D
  8
AM_0
 10
159.10850385822121
 20
247.9225612607103
 30
0.0
 42
0.00035488584
  0
VERTEX
  5
18A2E
  8
AM_0
 10
159.10661385822121
 20
247.6114512607102
 30
0.0
 42
0.00039705232
  0
VERTEX
  5
18A2F
  8
AM_0
 10
159.10518385822121
 20
247.3003512607103
 30
0.0
 42
0.0003876649
  0
VERTEX
  5
18A30
  8
AM_0
 10
159.1042538582212
 20
246.98921126071019
 30
0.0
 42
0.00040613779
  0
VERTEX
  5
18A31
  8
AM_0
 10
159.1038038582212
 20
246.67810126071041
 30
0.0
 42
0.00035571855
  0
VERTEX
  5
18A32
  8
AM_0
 10
159.1038438582213
 20
246.3670012607102
 30
0.0
 42
0.00038547358
  0
VERTEX
  5
18A33
  8
AM_0
 10
159.1043338582212
 20
246.0558612607102
 30
0.0
 42
0.000355015
  0
VERTEX
  5
18A34
  8
AM_0
 10
159.1052938582213
 20
245.74476126071031
 30
0.0
 42
0.00040118616
  0
VERTEX
  5
18A35
  8
AM_0
 10
159.10671385822121
 20
245.43353126071031
 30
0.0
 42
0.00038319867
  0
VERTEX
  5
18A36
  8
AM_0
 10
159.10862385822131
 20
245.12239126071029
 30
0.0
 42
0.00035656356
  0
VERTEX
  5
18A37
  8
AM_0
 10
159.11100385822121
 20
244.81116126071029
 30
0.0
 42
0.00040140992
  0
VERTEX
  5
18A38
  8
AM_0
 10
159.1138538582212
 20
244.50005126071011
 30
0.0
  0
SEQEND
  5
18A39
  8
AM_0
  0
ARC
  5
18A3A
  8
AM_0
 10
158.01503385822119
 20
243.23370126071029
 30
0.0
 40
1.2700129999999981
 50
89.736617000001601
 51
270.26336999999921
  0
ARC
  5
18A3B
  8
AM_0
 10
159.29549385822131
 20
243.23370126071029
 30
0.0
 40
1.0000138999999999
 50
89.691659999999231
 51
270.30834000000073
  0
POLYLINE
  5
18A3C
  8
AM_0
 66
     1
 10
0.0
 20
0.0
 30
0.0
  0
VERTEX
  5
18A3D
  8
AM_0
 10
159.11086385822131
 20
248.23370126071029
 30
0.0
 42
-0.00039106649
  0
VERTEX
  5
18A3E
  8
AM_0
 10
159.10850385822121
 20
248.5448312607104
 30
0.0
 42
-0.00035488198
  0
VERTEX
  5
18A3F
  8
AM_0
 10
159.10661385822121
 20
248.85594126071021
 30
0.0
 42
-0.00039706113
  0
VERTEX
  5
18A40
  8
AM_0
 10
159.10518385822121
 20
249.16705126071031
 30
0.0
 42
-0.00038765718
  0
VERTEX
  5
18A41
  8
AM_0
 10
159.1042538582212
 20
249.4781912607103
 30
0.0
 42
-0.00040613432
  0
VERTEX
  5
18A42
  8
AM_0
 10
159.1038038582212
 20
249.7892912607102
 30
0.0
 42
-0.00035573434
  0
VERTEX
  5
18A43
  8
AM_0
 10
159.1038438582213
 20
250.1004012607103
 30
0.0
 42
-0.00038545884
  0
VERTEX
  5
18A44
  8
AM_0
 10
159.1043338582212
 20
250.41153126071021
 30
0.0
 42
-0.00035501205
  0
VERTEX
  5
18A45
  8
AM_0
 10
159.1052938582213
 20
250.72264126071019
 30
0.0
 42
-0.00040120779
  0
VERTEX
  5
18A46
  8
AM_0
 10
159.10671385822121
 20
251.0338712607103
 30
0.0
 42
-0.00038317817
  0
VERTEX
  5
18A47
  8
AM_0
 10
159.10862385822131
 20
251.34500126071029
 30
0.0
 42
-0.00035656084
  0
VERTEX
  5
18A48
  8
AM_0
 10
159.11100385822121
 20
251.65624126071029
 30
0.0
 42
-0.00040143615
  0
VERTEX
  5
18A49
  8
AM_0
 10
159.1138538582212
 20
251.96734126071021
 30
0.0
  0
SEQEND
  5
18A4A
  8
AM_0
  0
ARC
  5
18A4B
  8
AM_0
 10
158.08089385822109
 20
263.24371126071031
 30
0.0
 40
1.3300049999999981
 50
90.00000299999769
 51
270.0
  0
POLYLINE
  5
18A4C
  8
AM_0
 66
     1
 10
0.0
 20
0.0
 30
0.0
  0
VERTEX
  5
18A4D
  8
AM_0
 10
159.1549238582212
 20
254.50408126071019
 30
0.0
 42
-0.00076691992
  0
VERTEX
  5
18A4E
  8
AM_0
 10
159.16972385822109
 20
255.12185126071029
 30
0.0
 42
-0.00073262792
  0
VERTEX
  5
18A4F
  8
AM_0
 10
159.1863638582212
 20
255.73944126071029
 30
0.0
 42
-0.00076529537
  0
VERTEX
  5
18A50
  8
AM_0
 10
159.2048538582211
 20
256.3571112607101
 30
0.0
 42
-0.00075141097
  0
VERTEX
  5
18A51
  8
AM_0
 10
159.2252238582212
 20
256.97471126071031
 30
0.0
 42
-0.00075841687
  0
VERTEX
  5
18A52
  8
AM_0
 10
159.24745385822121
 20
257.59214126071032
 30
0.0
 42
-0.00075711788
  0
VERTEX
  5
18A53
  8
AM_0
 10
159.27156385822121
 20
258.2096512607103
 30
0.0
 42
-0.00075976003
  0
VERTEX
  5
18A54
  8
AM_0
 10
159.29755385822119
 20
258.82704126071019
 30
0.0
 42
-0.00075797311
  0
VERTEX
  5
18A55
  8
AM_0
 10
159.3253938582213
 20
259.4443212607103
 30
0.0
 42
-0.0007482613
  0
VERTEX
  5
18A56
  8
AM_0
 10
159.35512385822119
 20
260.06170126071032
 30
0.0
 42
-0.00074893561
  0
VERTEX
  5
18A57
  8
AM_0
 10
159.38668385822109
 20
260.67883126071041
 30
0.0
 42
-0.00076039839
  0
VERTEX
  5
18A58
  8
AM_0
 10
159.42010385822121
 20
261.29586126071018
 30
0.0
 42
-0.00075618786
  0
VERTEX
  5
18A59
  8
AM_0
 10
159.45540385822119
 20
261.91290126071033
 30
0.0
  0
SEQEND
  5
18A5A
  8
AM_0
  0
ARC
  5
18A5B
  8
AM_0
 10
159.29549385822131
 20
263.23370126071029
 30
0.0
 40
1.0000138999999999
 50
89.691659999999231
 51
270.30834000000073
  0
LINE
  5
18A5C
  8
AM_0
 10
148.7508738582213
 20
301.23370126071029
 30
0.0
 11
156.75087385822121
 21
301.23370126071029
 31
0.0
  0
LINE
  5
18A5D
  8
AM_0
 10
149.4508838582212
 20
291.42364126071021
 30
0.0
 11
155.68086385822119
 21
291.42364126071021
 31
0.0
  0
LINE
  5
18A5E
  8
AM_0
 10
143.75087385822121
 20
292.12469126071022
 30
0.0
 11
143.75087385822121
 21
300.98370126071012
 31
0.0
  0
LINE
  5
18A5F
  8
AM_0
 10
162.11086385822131
 20
284.88369126071018
 30
0.0
 11
156.75087385822121
 21
296.33367126071028
 31
0.0
  0
POLYLINE
  5
18A60
  8
AM_0
 66
     1
 10
0.0
 20
0.0
 30
0.0
  0
VERTEX
  5
18A61
  8
AM_0
 10
160.61177385822131
 20
274.71673126071022
 30
0.0
 42
-0.00068898288
  0
VERTEX
  5
18A62
  8
AM_0
 10
160.6826538582211
 20
275.29148126071021
 30
0.0
 42
-0.00070644354
  0
VERTEX
  5
18A63
  8
AM_0
 10
160.75515385822121
 20
275.8661712607103
 30
0.0
 42
-0.00069248071
  0
VERTEX
  5
18A64
  8
AM_0
 10
160.82924385822119
 20
276.44048126071033
 30
0.0
 42
-0.00069585665
  0
VERTEX
  5
18A65
  8
AM_0
 10
160.9049238582212
 20
277.01462126071021
 30
0.0
 42
-0.00068980191
  0
VERTEX
  5
18A66
  8
AM_0
 10
160.9822238582212
 20
277.58862126071028
 30
0.0
 42
-0.00072080104
  0
VERTEX
  5
18A67
  8
AM_0
 10
161.06111385822129
 20
278.1624112607102
 30
0.0
 42
-0.00071002307
  0
VERTEX
  5
18A68
  8
AM_0
 10
161.14165385822119
 20
278.73588126071019
 30
0.0
 42
-0.00072659056
  0
VERTEX
  5
18A69
  8
AM_0
 10
161.22381385822109
 20
279.30898126071031
 30
0.0
 42
-0.00069570481
  0
VERTEX
  5
18A6A
  8
AM_0
 10
161.3076338582211
 20
279.88201126071033
 30
0.0
 42
-0.00071266935
  0
VERTEX
  5
18A6B
  8
AM_0
 10
161.3930638582213
 20
280.45478126071032
 30
0.0
 42
-0.00071614426
  0
VERTEX
  5
18A6C
  8
AM_0
 10
161.4800938582211
 20
281.02712126071032
 30
0.0
 42
-0.00072288975
  0
VERTEX
  5
18A6D
  8
AM_0
 10
161.5688038582212
 20
281.5994212607103
 30
0.0
  0
SEQEND
  5
18A6E
  8
AM_0
  0
ARC
  5
18A6F
  8
AM_0
 10
159.29549385822131
 20
273.23370126071029
 30
0.0
 40
1.0000138999999999
 50
89.691659999999231
 51
270.30834000000073
  0
ARC
  5
18A70
  8
AM_0
 10
158.2108938582212
 20
273.25872126071039
 30
0.0
 40
1.465004
 50
90.00000299999769
 51
270.0
  0
ARC
  5
18A71
  8
AM_0
 10
158.4234838582212
 20
283.27874126071032
 30
0.0
 40
1.6750160000000001
 50
89.746145000004475
 51
270.25387000000092
  0
ARC
  5
18A72
  8
AM_0
 10
159.29549385822131
 20
283.23370126071029
 30
0.0
 40
1.0000138999999999
 50
89.691659999999231
 51
270.30834000000073
  0
LINE
  5
18A73
  8
AM_0
 10
156.75087385822121
 20
296.33373126071029
 30
0.0
 11
157.9908638582213
 21
302.89370126071037
 31
0.0
  0
ARC
  5
18A74
  8
AM_0
 10
159.9496038582212
 20
302.51959126071017
 30
0.0
 40
1.994108999999999
 50
89.675548000002763
 51
169.18776999999841
  0
LINE
  5
18A75
  8
AM_0
 10
102.2494437582212
 20
313.23370126071029
 30
0.0
 11
139.75087385822121
 21
313.23370126071029
 31
0.0
  0
LINE
  5
18A76
  8
AM_0
 10
123.7508738582213
 20
306.98370126071012
 30
0.0
 11
148.7508738582213
 21
306.98370126071012
 31
0.0
  0
LINE
  5
18A77
  8
AM_0
 10
103.2494437582212
 20
308.23370126071029
 30
0.0
 11
126.7508738582213
 21
308.23370126071029
 31
0.0
  0
LINE
  5
18A78
  8
AM_0
 10
126.7508738582213
 20
306.98370126071029
 30
0.0
 11
126.7508738582213
 21
313.23370126071029
 31
0.0
  0
LINE
  5
18A79
  8
AM_0
 10
136.75087385822121
 20
308.23370126071029
 30
0.0
 11
139.75087385822121
 21
308.23370126071029
 31
0.0
  0
LINE
  5
18A7A
  8
AM_0
 10
136.75087385822121
 20
306.98370126071029
 30
0.0
 11
136.75087385822121
 21
313.23370126071029
 31
0.0
  0
LINE
  5
18A7B
  8
AM_0
 10
139.75087385822121
 20
308.23370126071029
 30
0.0
 11
139.75087385822121
 21
313.23370126071029
 31
0.0
  0
ARC
  5
18A7C
  8
AM_0
 10
160.0373738582212
 20
308.12811126071023
 30
0.0
 40
1.995633
 50
89.899708000002292
 51
172.06112999999991
  0
ARC
  5
18A7D
  8
AM_0
 10
160.00112385822121
 20
305.36846126071021
 30
0.0
 40
1.9952829999999999
 50
90.006203999996856
 51
170.90835000000069
  0
ARC
  5
18A7E
  8
AM_0
 10
160.01546385822121
 20
307.21697126071018
 30
0.0
 40
1.9967330000000001
 50
89.843966999998912
 51
171.45387999999701
  0
LINE
  5
18A7F
  8
AM_0
 10
264.75087385822121
 20
304.23370126071029
 30
0.0
 11
264.75087385822121
 21
192.23370126071029
 31
0.0
  0
ARC
  5
18A80
  8
AM_0
 10
264.40407385822118
 20
208.51092126071021
 30
0.0
 40
1.5027759999999999
 50
90.122413000001615
 51
165.24357000000111
  0
LINE
  5
18A81
  8
AM_0
 10
259.29292385822117
 20
195.23370126071029
 30
0.0
 11
264.75087385822121
 21
195.23370126071029
 31
0.0
  0
LINE
  5
18A82
  8
AM_0
 10
263.75087385822121
 20
195.23367126071011
 30
0.0
 11
258.02507385822122
 21
186.4167112607102
 31
0.0
  0
LINE
  5
18A83
  8
AM_0
 10
236.52816255564721
 20
161.61882774368209
 30
0.0
 11
236.52816255564721
 21
178.73370126071029
 31
0.0
  0
LINE
  5
18A84
  8
AM_0
 10
251.52816255564721
 20
161.73370126071029
 30
0.0
 11
251.52816255564721
 21
177.73370126071029
 31
0.0
  0
LINE
  5
18A85
  8
AM_0
 10
225.16645247170811
 20
173.73370126071029
 30
0.0
 11
225.16645247170811
 21
159.68301868613011
 31
0.0
  0
LINE
  5
18A86
  8
AM_0
 10
214.05639033527621
 20
173.73370126071029
 30
0.0
 11
214.05639033527621
 21
157.79008542566439
 31
0.0
  0
LINE
  5
18A87
  8
AM_0
 10
215.55639033527621
 20
158.04565554361929
 30
0.0
 11
215.55639033527621
 21
173.73370126071029
 31
0.0
  0
LINE
  5
18A88
  8
AM_0
 10
217.7597443807542
 20
173.73370126071029
 30
0.0
 11
217.7597443807542
 21
158.42106317915329
 31
0.0
  0
LINE
  5
18A89
  8
AM_0
 10
219.2597443807542
 20
158.6766332971082
 30
0.0
 11
219.2597443807542
 21
173.73370126071029
 31
0.0
  0
LINE
  5
18A8A
  8
AM_0
 10
221.4630984262312
 20
173.73370126071029
 30
0.0
 11
221.4630984262312
 21
159.05204093264121
 31
0.0
  0
LINE
  5
18A8B
  8
AM_0
 10
222.9630984262312
 20
159.3076110505973
 30
0.0
 11
222.9630984262312
 21
173.73370126071029
 31
0.0
  0
LINE
  5
18A8C
  8
AM_0
 10
208.14968224432121
 20
156.78370003664131
 30
0.0
 11
208.14968224432121
 21
173.73370126071029
 31
0.0
  0
LINE
  5
18A8D
  8
AM_0
 10
210.35303628979921
 20
173.73370126071029
 30
0.0
 11
210.35303628979921
 21
157.15910767217531
 31
0.0
  0
LINE
  5
18A8E
  8
AM_0
 10
200.74968224432121
 20
155.52288745472819
 30
0.0
 11
200.74968224432121
 21
173.7337012607114
 31
0.0
  0
LINE
  5
18A8F
  8
AM_0
 10
202.94968224432111
 20
173.73370126071029
 30
0.0
 11
202.9496822443221
 21
155.89772362772931
 31
0.0
  0
LINE
  5
18A90
  8
AM_0
 10
204.44968224432111
 20
156.15329374568529
 30
0.0
 11
204.44968224432111
 21
173.73370126071029
 31
0.0
  0
LINE
  5
18A91
  8
AM_0
 10
206.64968224432121
 20
173.73370126071029
 30
0.0
 11
206.64968224432121
 21
156.5281299186862
 31
0.0
  0
LINE
  5
18A92
  8
AM_0
 10
226.66645247170811
 20
159.93858880408621
 30
0.0
 11
226.66645247170811
 21
173.73370126071029
 31
0.0
  0
LINE
  5
18A93
  8
AM_0
 10
198.74968224432121
 20
171.02232508151229
 30
0.0
 11
198.74968224432121
 21
155.18212729745409
 31
0.0
  0
LINE
  5
18A94
  8
AM_0
 10
212.35303628980211
 20
157.49986782944919
 30
0.0
 11
212.35303628980211
 21
171.02232508151229
 31
0.0
  0
LINE
  5
18A95
  8
ﾁｭｳｼﾝｾﾝ1
 10
179.35303628980009
 20
173.7337162607102
 30
0.0
 11
179.35303628980009
 21
149.7337162607102
 31
0.0
  0
LINE
  5
18A96
  8
AM_0
 10
188.65303628980021
 20
178.73370126071029
 30
0.0
 11
188.65303628980021
 21
161.73370126071029
 31
0.0
  0
CIRCLE
  5
18A97
  8
AM_0
 10
179.35303628980009
 20
161.73370126071029
 30
0.0
 40
6.299999999999998
  0
CIRCLE
  5
18A98
  8
AM_0
 10
193.85303628980009
 20
161.73370126071029
 30
0.0
 40
0.75
  0
LINE
  5
18A99
  8
AM_0
 10
204.44968224432111
 20
156.15329374568529
 30
0.0
 11
206.64968224432121
 21
156.5281299186862
 31
0.0
  0
LINE
  5
18A9A
  8
AM_0
 10
200.74968224432121
 20
155.52288745472819
 30
0.0
 11
202.9496822443221
 21
155.89772362772931
 31
0.0
  0
LINE
  5
18A9B
  8
AM_0
 10
208.14968224432121
 20
156.78370003664131
 30
0.0
 11
210.35303628979921
 21
157.15910767217531
 31
0.0
  0
LINE
  5
18A9C
  8
AM_0
 10
215.55639033527621
 20
158.04565554361929
 30
0.0
 11
217.7597443807542
 21
158.42106317915329
 31
0.0
  0
LINE
  5
18A9D
  8
AM_0
 10
212.35303628980211
 20
157.49986782944919
 30
0.0
 11
214.05639033527621
 21
157.79008542566439
 31
0.0
  0
LINE
  5
18A9E
  8
AM_0
 10
234.88318780881821
 20
144.73370126071029
 30
0.0
 11
234.88318780881821
 21
156.26919186317841
 31
0.0
  0
LINE
  5
18A9F
  8
AM_0
 10
226.66645247170811
 20
159.93858880408621
 30
0.0
 11
236.52816255564721
 21
161.61882774368209
 31
0.0
  0
LINE
  5
18AA0
  8
AM_0
 10
219.2597443807542
 20
158.6766332971082
 30
0.0
 11
221.4630984262312
 21
159.05204093264121
 31
0.0
  0
LINE
  5
18AA1
  8
AM_0
 10
222.9630984262312
 20
159.3076110505973
 30
0.0
 11
225.16645247170811
 21
159.68301868613011
 31
0.0
  0
CIRCLE
  5
18AA2
  8
AM_0
 10
228.3530362898002
 20
161.73370126071029
 30
0.0
 40
0.75
  0
LINE
  5
18AA3
  8
AM_0
 10
235.7530362898012
 20
156.41949603341331
 30
0.0
 11
235.7530362898012
 21
160.4728886787972
 31
0.0
  0
LINE
  5
18AA4
  8
AM_0
 10
245.15303628980121
 20
157.23370126071029
 30
0.0
 11
245.15303628980121
 21
147.23370126071029
 31
0.0
  0
ARC
  5
18AA5
  8
AM_0
 10
242.65303628980121
 20
147.23370126071029
 30
0.0
 40
2.5
 50
270.0
 51
0.0
  0
LINE
  5
18AA6
  8
AM_0
 10
251.52816255564721
 20
161.73370126071029
 30
0.0
 11
251.52816255564721
 21
158.23370126071029
 31
0.0
  0
LINE
  5
18AA7
  8
AM_0
 10
245.65303628980121
 20
157.73370126071029
 30
0.0
 11
251.02816255564721
 21
157.73370126071029
 31
0.0
  0
ARC
  5
18AA8
  8
AM_0
 10
245.65303628980121
 20
157.23370126071029
 30
0.0
 40
0.5
 50
90.0
 51
180.0
  0
LINE
  5
18AA9
  8
AM_0
 10
245.65303628980121
 20
157.73370126071029
 30
0.0
 11
243.47873142664119
 21
157.73370126071029
 31
0.0
  0
ARC
  5
18AAA
  8
AM_0
 10
251.02816255564721
 20
158.23370126071029
 30
0.0
 40
0.5
 50
270.0
 51
0.0
  0
LINE
  5
18AAB
  8
AM_0
 10
251.52816255564721
 20
161.73370126071029
 30
0.0
 11
243.15303628980021
 21
161.73370126071029
 31
0.0
  0
LINE
  5
18AAC
  8
AM_0
 10
258.09090385822122
 20
214.23370126071029
 30
0.0
 11
213.75087385822121
 21
214.23370126071029
 31
0.0
  0
LINE
  5
18AAD
  8
AM_0
 10
258.09090385822122
 20
212.23370126071029
 30
0.0
 11
213.75087385822121
 21
212.23370126071029
 31
0.0
  0
LINE
  5
18AAE
  8
AM_0
 10
219.2597443807542
 20
169.73370126071029
 30
0.0
 11
217.7597443807542
 21
169.73370126071029
 31
0.0
  0
LINE
  5
18AAF
  8
AM_0
 10
219.2597443807542
 20
173.73370126071029
 30
0.0
 11
217.7597443807542
 21
173.73370126071029
 31
0.0
  0
LINE
  5
18AB0
  8
AM_0
 10
247.25087385822121
 20
181.23370126071029
 30
0.0
 11
180.2508738582211
 21
181.23370126071029
 31
0.0
  0
LINE
  5
18AB1
  8
AM_0
 10
232.65303628980021
 20
178.73370126071029
 30
0.0
 11
194.8530362898002
 21
178.73370126071029
 31
0.0
  0
LINE
  5
18AB2
  8
AM_0
 10
213.75087385822121
 20
211.51373126071019
 30
0.0
 11
261.57088385822118
 21
211.51373126071019
 31
0.0
  0
LINE
  5
18AB3
  8
AM_0
 10
183.75081385822131
 20
181.23367126071011
 30
0.0
 11
183.47014967088231
 21
191.95367126071011
 31
0.0
  0
LINE
  5
18AB4
  8
AM_0
 10
180.2508738582211
 20
178.73370126071029
 30
0.0
 11
180.2508738582211
 21
181.23370126071029
 31
0.0
  0
LINE
  5
18AB5
  8
AM_0
 10
194.8530362898002
 20
178.73370126071029
 30
0.0
 11
188.65303628980021
 21
178.73370126071029
 31
0.0
  0
LINE
  5
18AB6
  8
AM_0
 10
187.65303628980021
 20
178.73370126071029
 30
0.0
 11
188.65303628980021
 21
178.73370126071029
 31
0.0
  0
ARC
  5
18AB7
  8
AM_0
 10
182.083524056888
 20
187.60369126071021
 30
0.0
 40
1.5
 50
1.499738863867178
 51
90.0
1001
GENIUS_GENODEF_13
1002
{
1000
HIER
1070
     0
1002
}
1002
{
1000
MANEDIT
1070
     0
1002
}
1002
{
1000
NOSEL
1070
     0
1002
}
1002
{
1000
BEHIND
1070
     0
1002
}
1002
{
1000
REACTOR
1002
}
1001
GENIUS_GENOBJ-N-FIL_13
1002
{
1000
OWNER
1000
GEN
1002
}
  0
LINE
  5
18AB8
  8
AM_0
 10
199.44968224432111
 20
173.73370126071029
 30
0.0
 11
199.44968224432111
 21
171.68967713811631
 31
0.0
  0
LINE
  5
18AB9
  8
AM_0
 10
200.74968224432121
 20
173.7337012607114
 30
0.0
 11
199.44968224432111
 21
173.73370126071029
 31
0.0
  0
LINE
  5
18ABA
  8
AM_0
 10
200.74968224432121
 20
169.73370126071029
 30
0.0
 11
198.74968224432121
 21
169.73370126071029
 31
0.0
  0
LINE
  5
18ABB
  8
AM_0
 10
199.44968224432111
 20
171.68967713811631
 30
0.0
 11
198.74968224432121
 21
171.02232508151229
 31
0.0
  0
LINE
  5
18ABC
  8
AM_0
 10
204.44968224432111
 20
169.73370126071029
 30
0.0
 11
202.94968224432111
 21
169.73370126071029
 31
0.0
  0
LINE
  5
18ABD
  8
AM_0
 10
204.44968224432111
 20
173.73370126071029
 30
0.0
 11
202.94968224432111
 21
173.73370126071029
 31
0.0
  0
LINE
  5
18ABE
  8
AM_0
 10
212.35303628980211
 20
171.02232508151229
 30
0.0
 11
211.65303628979919
 21
171.68967713811631
 31
0.0
  0
LINE
  5
18ABF
  8
AM_0
 10
212.35303628980211
 20
169.73370126071029
 30
0.0
 11
210.35303628979921
 21
169.73370126071029
 31
0.0
  0
LINE
  5
18AC0
  8
AM_0
 10
211.65303628979919
 20
171.68967713811631
 30
0.0
 11
211.65303628979919
 21
173.73370126071029
 31
0.0
  0
LINE
  5
18AC1
  8
AM_0
 10
208.14968224432121
 20
169.73370126071029
 30
0.0
 11
206.64968224432121
 21
169.73370126071029
 31
0.0
  0
LINE
  5
18AC2
  8
AM_0
 10
208.14968224432121
 20
173.73370126071029
 30
0.0
 11
206.64968224432121
 21
173.73370126071029
 31
0.0
  0
LINE
  5
18AC3
  8
AM_0
 10
211.65303628979919
 20
173.73370126071029
 30
0.0
 11
210.35303628979921
 21
173.73370126071029
 31
0.0
  0
LINE
  5
18AC4
  8
AM_0
 10
215.55639033527621
 20
169.73370126071029
 30
0.0
 11
214.05639033527621
 21
169.73370126071029
 31
0.0
  0
LINE
  5
18AC5
  8
AM_0
 10
215.55639033527621
 20
173.73370126071029
 30
0.0
 11
214.05639033527621
 21
173.73370126071029
 31
0.0
  0
ARC
  5
18AC6
  8
AM_0
 10
194.41585385822111
 20
233.2236912607103
 30
0.0
 40
1.3300148000000001
 50
269.7294199999987
 51
90.270567000000995
  0
ARC
  5
18AC7
  8
AM_0
 10
193.1895938582212
 20
233.23370126071029
 30
0.0
 40
1.000005699999998
 50
269.999989999999
 51
90.00000299999769
  0
LINE
  5
18AC8
  8
AM_0
 10
262.95656385822127
 20
208.91476126071021
 30
0.0
 11
258.8108138582212
 21
193.43365126071021
 31
0.0
  0
LINE
  5
18AC9
  8
AM_0
 10
250.52816255564721
 20
178.73370126071029
 30
0.0
 11
239.8530362898002
 21
178.73370126071029
 31
0.0
  0
LINE
  5
18ACA
  8
AM_0
 10
222.9630984262312
 20
169.73370126071029
 30
0.0
 11
221.4630984262312
 21
169.73370126071029
 31
0.0
  0
LINE
  5
18ACB
  8
AM_0
 10
222.9630984262312
 20
173.73370126071029
 30
0.0
 11
221.4630984262312
 21
173.73370126071029
 31
0.0
  0
LINE
  5
18ACC
  8
AM_0
 10
226.66645247170811
 20
169.73370126071029
 30
0.0
 11
225.16645247170811
 21
169.73370126071029
 31
0.0
  0
LINE
  5
18ACD
  8
AM_0
 10
226.66645247170811
 20
173.73370126071029
 30
0.0
 11
225.16645247170811
 21
173.73370126071029
 31
0.0
  0
LINE
  5
18ACE
  8
AM_0
 10
239.8530362898002
 20
178.73370126071029
 30
0.0
 11
232.65303628980021
 21
178.73370126071029
 31
0.0
  0
LINE
  5
18ACF
  8
AM_0
 10
243.75087385822121
 20
181.23364126071019
 30
0.0
 11
244.03161298128441
 21
191.95367126071011
 31
0.0
  0
ARC
  5
18AD0
  8
AM_0
 10
245.32995454400631
 20
184.23370126071029
 30
0.0
 40
1.5
 50
90.0
 51
178.4998650936468
1001
GENIUS_GENODEF_13
1002
{
1000
HIER
1070
     0
1002
}
1002
{
1000
MANEDIT
1070
     0
1002
}
1002
{
1000
NOSEL
1070
     0
1002
}
1002
{
1000
BEHIND
1070
     0
1002
}
1002
{
1000
REACTOR
1002
}
1001
GENIUS_GENOBJ-N-FIL_13
1002
{
1000
OWNER
1000
GEN
1002
}
  0
LINE
  5
18AD1
  8
AM_0
 10
247.25087385822121
 20
178.73370126071029
 30
0.0
 11
247.25087385822121
 21
181.23370126071029
 31
0.0
  0
ARC
  5
18AD2
  8
AM_0
 10
250.52816255564721
 20
177.73370126071029
 30
0.0
 40
1.0
 50
0.0
 51
90.0
  0
LINE
  5
18AD3
  8
AM_0
 10
245.32995454400631
 20
185.73370126071029
 30
0.0
 11
256.76705385822117
 21
185.73370126071029
 31
0.0
  0
ARC
  5
18AD4
  8
AM_0
 10
256.8760538582211
 20
193.95843126071011
 30
0.0
 40
2.0047290000000002
 50
270.13832000000423
 51
344.82650000000189
  0
ARC
  5
18AD5
  8
AM_0
 10
256.76705385822117
 20
187.23370126071029
 30
0.0
 40
1.5
 50
269.999989999999
 51
326.99999999999892
  0
LINE
  5
18AD6
  8
AM_0
 10
227.25087385822121
 20
220.73370126071029
 30
0.0
 11
227.25087385822121
 21
215.73370126071029
 31
0.0
  0
CIRCLE
  5
18AD7
  8
AM_0
 10
232.2508738582211
 20
219.73370126071029
 30
0.0
 40
1.149999999999999
  0
CIRCLE
  5
18AD8
  8
AM_0
 10
232.2508738582211
 20
219.73370126071029
 30
0.0
 40
1.1000000000000001
  0
CIRCLE
  5
18AD9
  8
AM_0
 10
237.25087385822121
 20
219.73370126071029
 30
0.0
 40
1.0
  0
LINE
  5
18ADA
  8
AM_0
 10
226.77089385822131
 20
220.73370126071029
 30
0.0
 11
226.77089385822131
 21
215.87371126071011
 31
0.0
  0
ARC
  5
18ADB
  8
AM_0
 10
225.77089385822109
 20
215.87371126071011
 30
0.0
 40
1.0
 50
269.999989999999
 51
0.0000006832495047
  0
ARC
  5
18ADC
  8
AM_0
 10
225.7508738582211
 20
215.73370126071029
 30
0.0
 40
1.5
 50
269.999989999999
 51
0.0000006832495047
  0
ARC
  5
18ADD
  8
AM_0
 10
225.7508738582211
 20
220.73370126071029
 30
0.0
 40
1.02
 50
0.0
 51
90.00000299999769
  0
ARC
  5
18ADE
  8
AM_0
 10
225.7508738582211
 20
220.73370126071029
 30
0.0
 40
1.5
 50
0.0
 51
90.00000299999769
  0
LINE
  5
18ADF
  8
AM_0
 10
242.7308538582212
 20
220.73370126071029
 30
0.0
 11
242.7308538582212
 21
215.87371126071011
 31
0.0
  0
LINE
  5
18AE0
  8
AM_0
 10
242.2508738582211
 20
220.73370126071029
 30
0.0
 11
242.2508738582211
 21
215.73370126071029
 31
0.0
  0
LINE
  5
18AE1
  8
AM_0
 10
261.57088385822118
 20
214.8637012607102
 30
0.0
 11
243.73085385822111
 21
214.8637012607102
 31
0.0
  0
ARC
  5
18AE2
  8
AM_0
 10
243.73085385822111
 20
215.87371126071011
 30
0.0
 40
1.0
 50
179.999989999999
 51
270.0
  0
ARC
  5
18AE3
  8
AM_0
 10
243.75087385822121
 20
215.73370126071029
 30
0.0
 40
1.5
 50
179.999989999999
 51
270.0
  0
ARC
  5
18AE4
  8
AM_0
 10
258.09090385822122
 20
213.23370126071029
 30
0.0
 40
1.0
 50
269.999989999999
 51
90.00000299999769
  0
ARC
  5
18AE5
  8
AM_0
 10
261.57088385822118
 20
213.1886512607104
 30
0.0
 40
1.6750020000000001
 50
269.999989999999
 51
90.00000299999769
  0
LINE
  5
18AE6
  8
AM_0
 10
258.0837038582211
 20
222.23370126071029
 30
0.0
 11
243.75087385822121
 21
222.23370126071029
 31
0.0
  0
LINE
  5
18AE7
  8
AM_0
 10
243.75087385822121
 20
221.75372126071019
 30
0.0
 11
261.78511385822139
 21
221.75372126071019
 31
0.0
  0
ARC
  5
18AE8
  8
AM_0
 10
243.75087385822121
 20
220.73370126071029
 30
0.0
 40
1.5
 50
90.00000299999769
 51
180.00001000000091
  0
ARC
  5
18AE9
  8
AM_0
 10
243.75087385822121
 20
220.73370126071029
 30
0.0
 40
1.02
 50
90.00000299999769
 51
180.00001000000091
  0
ARC
  5
18AEA
  8
AM_0
 10
258.09084385822132
 20
223.23370126071029
 30
0.0
 40
1.0000255999999981
 50
269.5894700000033
 51
90.410530999997775
  0
ARC
  5
18AEB
  8
AM_0
 10
261.79085385822123
 20
223.20367126071019
 30
0.0
 40
1.460011199999999
 50
269.77524999999667
 51
90.224749999996845
  0
LINE
  5
18AEC
  8
AM_0
 10
264.75087385822121
 20
192.23370126071029
 30
0.0
 11
272.75087385822121
 21
192.23370126071029
 31
0.0
  0
LINE
  5
18AED
  8
AM_0
 10
264.75087385822121
 20
202.23370126071029
 30
0.0
 11
272.75087385822121
 21
202.23370126071029
 31
0.0
  0
LINE
  5
18AEE
  8
AM_0
 10
264.75087385822121
 20
216.29376126071031
 30
0.0
 11
272.75087385822121
 21
216.29376126071031
 31
0.0
  0
LINE
  5
18AEF
  8
AM_0
 10
259.29085385822123
 20
301.23370126071029
 30
0.0
 11
264.75087385822121
 21
301.23370126071029
 31
0.0
  0
ARC
  5
18AF0
  8
AM_0
 10
264.40407385822118
 20
293.5664612607103
 30
0.0
 40
1.5027759999999999
 50
194.75642999999889
 51
269.87757999999872
  0
ARC
  5
18AF1
  8
AM_0
 10
264.40407385822118
 20
290.80645126071028
 30
0.0
 40
1.5027759999999999
 50
194.75642999999889
 51
269.87757999999872
  0
ARC
  5
18AF2
  8
AM_0
 10
264.40407385822118
 20
287.95648126071029
 30
0.0
 40
1.5027759999999999
 50
194.75642999999889
 51
269.87757999999872
  0
ARC
  5
18AF3
  8
AM_0
 10
264.40407385822118
 20
292.65643126071029
 30
0.0
 40
1.5027759999999999
 50
194.75642999999889
 51
269.87757999999872
  0
LINE
  5
18AF4
  8
AM_0
 10
262.95659385822131
 20
290.40255126071031
 30
0.0
 11
258.8108738582211
 21
305.88369126071018
 31
0.0
  0
LINE
  5
18AF5
  8
AM_0
 10
262.95662385822118
 20
293.16253126071041
 30
0.0
 11
258.8109038582212
 21
308.6436412607103
 31
0.0
  0
LINE
  5
18AF6
  8
AM_0
 10
262.95659385822131
 20
292.25253126071033
 30
0.0
 11
258.8108738582211
 21
307.73364126071021
 31
0.0
  0
ARC
  5
18AF7
  8
AM_0
 10
194.47780385822119
 20
253.24371126071031
 30
0.0
 40
1.2700266
 50
269.62932000000001
 51
90.370670000004694
  0
ARC
  5
18AF8
  8
AM_0
 10
194.47780385822119
 20
243.23370126071029
 30
0.0
 40
1.2700266
 50
269.62932000000001
 51
90.370670000004694
  0
ARC
  5
18AF9
  8
AM_0
 10
194.41585385822111
 20
263.24871126071008
 30
0.0
 40
1.3350147999999999
 50
269.7304299999999
 51
90.269556000001415
  0
ARC
  5
18AFA
  8
AM_0
 10
193.1895938582212
 20
253.23370126071029
 30
0.0
 40
1.000005699999998
 50
269.999989999999
 51
90.00000299999769
  0
ARC
  5
18AFB
  8
AM_0
 10
193.1895938582212
 20
243.23370126071029
 30
0.0
 40
1.000005699999998
 50
269.999989999999
 51
90.00000299999769
  0
ARC
  5
18AFC
  8
AM_0
 10
193.1895938582212
 20
263.23370126071029
 30
0.0
 40
1.000005699999998
 50
269.999989999999
 51
90.00000299999769
  0
LINE
  5
18AFD
  8
AM_0
 10
227.25087385822121
 20
275.73370126071029
 30
0.0
 11
227.25087385822121
 21
280.73370126071029
 31
0.0
  0
LINE
  5
18AFE
  8
AM_0
 10
226.77089385822131
 20
275.73370126071029
 30
0.0
 11
226.77089385822131
 21
280.59368126071018
 31
0.0
  0
ARC
  5
18AFF
  8
AM_0
 10
225.7508738582211
 20
275.73370126071029
 30
0.0
 40
1.5
 50
269.999989999999
 51
0.0000006832495047
  0
ARC
  5
18B00
  8
AM_0
 10
225.7508738582211
 20
275.73370126071029
 30
0.0
 40
1.02
 50
269.999989999999
 51
0.0000006832429909
  0
ARC
  5
18B01
  8
AM_0
 10
225.77089385822109
 20
280.59368126071018
 30
0.0
 40
1.0
 50
0.0
 51
90.00000299999769
  0
ARC
  5
18B02
  8
AM_0
 10
225.7508738582211
 20
280.73370126071029
 30
0.0
 40
1.5
 50
0.0
 51
90.00000299999769
  0
CIRCLE
  5
18B03
  8
AM_0
 10
232.2508738582211
 20
276.73370126071029
 30
0.0
 40
1.1000000000000001
  0
CIRCLE
  5
18B04
  8
AM_0
 10
232.2508738582211
 20
276.73370126071029
 30
0.0
 40
1.149999999999999
  0
CIRCLE
  5
18B05
  8
AM_0
 10
237.25087385822121
 20
276.73370126071029
 30
0.0
 40
1.0
  0
LINE
  5
18B06
  8
AM_0
 10
262.95088385822118
 20
287.57363126071021
 30
0.0
 11
258.8108738582211
 21
303.03365126071043
 31
0.0
  0
LINE
  5
18B07
  8
AM_0
 10
258.09804385822127
 20
274.23370126071029
 30
0.0
 11
243.75087385822121
 21
274.23370126071029
 31
0.0
  0
LINE
  5
18B08
  8
AM_0
 10
243.73085385822111
 20
281.59368126071018
 30
0.0
 11
261.57088385822118
 21
281.59368126071018
 31
0.0
  0
LINE
  5
18B09
  8
AM_0
 10
243.75087385822121
 20
274.72369126071032
 30
0.0
 11
261.7965338582211
 21
274.72369126071032
 31
0.0
  0
LINE
  5
18B0A
  8
AM_0
 10
242.7308538582212
 20
275.73370126071029
 30
0.0
 11
242.7308538582212
 21
280.59368126071018
 31
0.0
  0
LINE
  5
18B0B
  8
AM_0
 10
242.2508738582211
 20
275.73370126071029
 30
0.0
 11
242.2508738582211
 21
280.73370126071029
 31
0.0
  0
ARC
  5
18B0C
  8
AM_0
 10
243.75087385822121
 20
275.73370126071029
 30
0.0
 40
1.5
 50
179.999989999999
 51
270.0
  0
ARC
  5
18B0D
  8
AM_0
 10
243.75087385822121
 20
275.73370126071029
 30
0.0
 40
1.02
 50
179.999989999999
 51
270.0
  0
ARC
  5
18B0E
  8
AM_0
 10
243.75087385822121
 20
280.73370126071029
 30
0.0
 40
1.5
 50
90.00000299999769
 51
180.00001000000091
  0
ARC
  5
18B0F
  8
AM_0
 10
243.73085385822111
 20
280.59368126071018
 30
0.0
 40
1.0
 50
90.00000299999769
 51
180.00001000000091
  0
ARC
  5
18B10
  8
AM_0
 10
258.09084385822132
 20
273.23370126071029
 30
0.0
 40
1.0000255999999981
 50
269.5894700000033
 51
90.410530999997775
  0
ARC
  5
18B11
  8
AM_0
 10
261.79085385822123
 20
273.26373126071019
 30
0.0
 40
1.460011199999999
 50
269.77524999999667
 51
90.224749999996845
  0
ARC
  5
18B12
  8
AM_0
 10
258.09090385822122
 20
283.23370126071029
 30
0.0
 40
1.0
 50
269.999989999999
 51
90.00000299999769
  0
ARC
  5
18B13
  8
AM_0
 10
261.57088385822118
 20
283.27874126071032
 30
0.0
 40
1.6750020000000001
 50
269.999989999999
 51
90.00000299999769
  0
ARC
  5
18B14
  8
AM_0
 10
256.88094385822131
 20
302.51544126071019
 30
0.0
 40
1.9982919999999991
 50
15.032547999996
 51
90.002632000001341
  0
ARC
  5
18B15
  8
AM_0
 10
256.8760538582211
 20
308.11895126071039
 30
0.0
 40
2.0047290000000002
 50
15.173495999996319
 51
89.861678000000197
  0
ARC
  5
18B16
  8
AM_0
 10
256.8760538582211
 20
305.35894126071008
 30
0.0
 40
2.0047290000000002
 50
15.173495999996319
 51
89.861678000000197
  0
ARC
  5
18B17
  8
AM_0
 10
256.8760538582211
 20
307.20892126071033
 30
0.0
 40
2.0047290000000002
 50
15.173495999996319
 51
89.861678000000197
  0
LINE
  5
18B18
  8
AM_0
 10
264.75087385822121
 20
280.17364126071033
 30
0.0
 11
272.75087385822121
 21
280.17364126071033
 31
0.0
  0
LINE
  5
18B19
  8
AM_0
 10
264.75087385822121
 20
294.23370126071029
 30
0.0
 11
272.75087385822121
 21
294.23370126071029
 31
0.0
  0
LINE
  5
18B1A
  8
AM_0
 10
264.75087385822121
 20
304.23370126071029
 30
0.0
 11
272.75087385822121
 21
304.23370126071029
 31
0.0
  0
LINE
  5
18B1B
  8
AM_0
 10
98.750873858221212
 20
475.23783064132363
 30
0.0
 11
98.750873858221212
 21
463.49784064132371
 31
0.0
  0
LINE
  5
18B1C
  8
AM_0
 10
143.7508738582213
 20
510.49781464132371
 30
0.0
 11
143.7508738582213
 21
461.49780064132358
 31
0.0
  0
LINE
  5
18B1D
  8
AM_0
 10
101.25086385822119
 20
542.47782664132342
 30
0.0
 11
101.25086385822139
 21
461.49780064132358
 31
0.0
  0
LINE
  5
18B1E
  8
AM_0
 10
101.25086385822119
 20
558.65783464132357
 30
0.0
 11
101.25086385822119
 21
575.49781864132342
 31
0.0
  0
LINE
  5
18B1F
  8
AM_0
 10
107.8308838582211
 20
522.21781864132367
 30
0.0
 11
93.370883858221077
 21
566.72782864132341
 31
0.0
  0
LINE
  5
18B20
  8
AM_0
 10
112.5908338582211
 20
523.75782664132373
 30
0.0
 11
98.130893858221285
 21
568.26782164132351
 31
0.0
  0
LINE
  5
18B21
  8
AM_0
 10
100.7508838582213
 20
575.49781864132342
 30
0.0
 11
148.7508838582213
 21
575.49781864132342
 31
0.0
  0
LINE
  5
18B22
  8
AM_0
 10
101.25086385822119
 20
562.3878306413236
 30
0.0
 11
148.7508838582213
 21
562.3878306413236
 31
0.0
  0
ARC
  5
18B23
  8
AM_0
 10
100.7486038582212
 20
573.50013664132359
 30
0.0
 40
1.9976960999999991
 50
89.933830000003056
 51
180.0661700000033
  0
ARC
  5
18B24
  8
AM_0
 10
95.750873858221198
 20
567.49781764132365
 30
0.0
 40
2.5014601500000002
 50
17.92793000000216
 51
197.92792000000091
  0
ARC
  5
18B25
  8
AM_0
 10
95.749823858221234
 20
567.49935964132362
 30
0.0
 40
3.001016099999998
 50
359.9708539990001
 51
174.86740000000231
  0
ARC
  5
18B26
  8
AM_0
 10
92.461253858221298
 20
567.79887364132367
 30
0.0
 40
0.30119199
 50
271.82401299999981
 51
354.08517019999817
  0
LINE
  5
18B27
  8
AM_0
 10
92.25086385822145
 20
566.99783164132361
 30
0.0
 11
92.25086385822145
 21
567.49781764132365
 31
0.0
  0
LINE
  5
18B28
  8
AM_0
 10
92.25086385822145
 20
566.99783164132361
 30
0.0
 11
92.470913858221138
 21
566.99783164132361
 31
0.0
  0
ARC
  5
18B29
  8
AM_0
 10
92.462723858221224
 20
567.80016964132335
 30
0.0
 40
0.8023920299999998
 50
270.5824419999999
 51
354.10916500000002
  0
LINE
  5
18B2A
  8
AM_0
 10
98.750873858221212
 20
566.34782464132365
 30
0.0
 11
98.750873858221212
 21
573.49781764132365
 31
0.0
  0
LINE
  5
18B2B
  8
AM_0
 10
143.7508738582213
 20
562.3878306413236
 30
0.0
 11
143.7508738582213
 21
575.49781864132342
 31
0.0
  0
LINE
  5
18B2C
  8
AM_0
 10
101.25086385822119
 20
484.85783164132363
 30
0.0
 11
143.7508738582213
 21
484.85783164132363
 31
0.0
  0
LINE
  5
18B2D
  8
AM_0
 10
101.25086385822119
 20
474.60783064132357
 30
0.0
 11
148.7508838582213
 21
474.60783064132357
 31
0.0
  0
LINE
  5
18B2E
  8
AM_0
 10
98.750873858221212
 20
550.16783164132369
 30
0.0
 11
98.750873858221212
 21
483.96784564132372
 31
0.0
  0
ARC
  5
18B2F
  8
AM_0
 10
98.799593858221229
 20
555.99790864132342
 30
0.0
 40
4.0507442999999981
 50
135.087659999995
 51
260.92820900000157
  0
LINE
  5
18B30
  8
AM_0
 10
99.950873858221257
 20
484.20780664132371
 30
0.0
 11
99.950873858221257
 21
475.00782064132358
 31
0.0
  0
ARC
  5
18B31
  8
AM_0
 10
99.646553858221296
 20
481.10766064132349
 30
0.0
 40
2.9956880400000001
 50
84.169629999996843
 51
179.99636000000251
  0
LINE
  5
18B32
  8
AM_0
 10
99.950873858221257
 20
484.20780664132371
 30
0.0
 11
101.25086385822119
 21
484.20780664132371
 31
0.0
  0
ARC
  5
18B33
  8
AM_0
 10
99.652553858221282
 20
478.10463064132358
 30
0.0
 40
3.0016479
 50
179.93865000000221
 51
275.70438699999693
  0
LINE
  5
18B34
  8
AM_0
 10
99.950873858221257
 20
475.00782064132358
 30
0.0
 11
101.25086385822119
 21
475.00782064132358
 31
0.0
  0
LINE
  5
18B35
  8
AM_0
 10
96.650903858221227
 20
481.10784064132372
 30
0.0
 11
96.650903858221227
 21
478.10784064132372
 31
0.0
  0
LINE
  5
18B36
  8
AM_0
 10
137.25086385822121
 20
520.99781464132354
 30
0.0
 11
137.25086385822121
 21
515.99784664132346
 31
0.0
  0
LINE
  5
18B37
  8
AM_0
 10
139.7508838582213
 20
520.99781464132354
 30
0.0
 11
139.7508838582213
 21
515.99784664132346
 31
0.0
  0
LINE
  5
18B38
  8
AM_0
 10
126.2508838582213
 20
520.99781464132354
 30
0.0
 11
126.2508838582213
 21
515.99784664132346
 31
0.0
  0
LINE
  5
18B39
  8
ﾁｭｳｼﾝｾﾝ1
 10
131.75087385822121
 20
530.70982664132373
 30
0.0
 11
131.75087385822121
 21
506.2898306413237
 31
0.0
  0
ARC
  5
18B3A
  8
AM_0
 10
116.39864385822101
 20
524.9949156413237
 30
0.0
 40
8.9970875999999969
 50
197.97879999999711
 51
270.01422500000149
  0
ARC
  5
18B3B
  8
AM_0
 10
131.74844385822141
 20
518.50025764132374
 30
0.0
 40
7.9975721999999996
 50
89.982690000000787
 51
161.80265000000171
  0
LINE
  5
18B3C
  8
AM_0
 10
116.4008338582213
 20
520.99781464132354
 30
0.0
 11
126.2508838582213
 21
520.99781464132354
 31
0.0
  0
ARC
  5
18B3D
  8
AM_0
 10
116.3941138582212
 20
524.99821264132379
 30
0.0
 40
4.0003919999999971
 50
198.0632099999998
 51
270.09694500000211
  0
LINE
  5
18B3E
  8
AM_0
 10
137.25086385822121
 20
520.99781464132354
 30
0.0
 11
139.7508838582213
 21
520.99781464132354
 31
0.0
  0
LINE
  5
18B3F
  8
AM_0
 10
131.75087385822121
 20
526.49784664132369
 30
0.0
 11
148.7508838582213
 21
526.49784664132369
 31
0.0
  0
LINE
  5
18B40
  8
AM_0
 10
126.2508838582213
 20
520.49784664132346
 30
0.0
 11
137.25086385822121
 21
520.49784664132346
 31
0.0
  0
ARC
  5
18B41
  8
AM_0
 10
131.75087385822121
 20
518.4998286413238
 30
0.0
 40
4.9968401999999976
 50
23.5689799999992
 51
156.43102000000081
  0
LINE
  5
18B42
  8
AM_0
 10
116.4008338582213
 20
515.99784664132346
 30
0.0
 11
126.2508838582213
 21
515.99784664132346
 31
0.0
  0
ARC
  5
18B43
  8
AM_0
 10
131.7503938582212
 20
518.49802864132346
 30
0.0
 40
8.000195699999999
 50
198.21097000000401
 51
270.00369900000231
  0
LINE
  5
18B44
  8
AM_0
 10
137.25086385822121
 20
515.99784664132346
 30
0.0
 11
139.7508838582213
 21
515.99784664132346
 31
0.0
  0
LINE
  5
18B45
  8
AM_0
 10
131.75087385822121
 20
510.49781464132371
 30
0.0
 11
148.7508838582213
 21
510.49781464132371
 31
0.0
  0
LINE
  5
18B46
  8
AM_0
 10
126.2508838582213
 20
516.49781464132354
 30
0.0
 11
137.25086385822121
 21
516.49781464132354
 31
0.0
  0
ARC
  5
18B47
  8
AM_0
 10
131.75087385822121
 20
518.4998286413238
 30
0.0
 40
4.998440399999998
 50
203.6109999999945
 51
336.38900099999762
  0
LINE
  5
18B48
  8
AM_0
 10
100.7508838582213
 20
461.49780064132358
 30
0.0
 11
148.7508838582213
 21
461.49780064132358
 31
0.0
  0
ARC
  5
18B49
  8
AM_0
 10
100.7503738582211
 20
463.49733064132357
 30
0.0
 40
1.9994960399999999
 50
179.98553999999999
 51
270.0144570000021
  0
LINE
  5
18B4A
  8
AM_0
 10
148.7508838582213
 20
461.49780064132358
 30
0.0
 11
148.7508838582213
 21
575.49781864132342
 31
0.0
  0
TEXT
  5
18C70
  8
AM_0
 10
560.24251175885775
 20
490.11372431549358
 30
0.0
 40
10.0
  1
VC01-007FBL~VC01-060FBL
1001
ACAD
1000
MTEXTBEGIN
1070
    73
1070
     1
1070
    44
1040
1.0
1070
    74
1070
     0
1000
MTEXTEND
  0
VIEWPORT
  5
89
 67
     1
  8
0
 10
210.0
 20
148.5
 30
0.0
 40
420.0
 41
297.0
 68
     1
 69
     1
1001
ACAD
1000
MVIEW
1002
{
1070
    16
1010
0.0
1020
0.0
1030
0.0
1010
0.0
1020
0.0
1030
1.0
1040
0.0
1040
297.0
1040
221.70154043645701
1040
148.5
1040
50.0
1040
0.0
1040
0.0
1070
     0
1070
   100
1070
     1
1070
     1
1070
     0
1070
     0
1070
     0
1070
     0
1040
0.0
1040
0.0
1040
0.0
1040
10.0
1040
10.0
1040
10.0
1040
10.0
1070
     0
1002
{
1002
}
1002
}
1001
GENIUS_GENOREF_13
1005
1B94
1001
GENIUS_GENSCREG_15
1000
PF
1040
1.0
1000
DF
1040
1.0
1000
MIN
1011
0.0
1021
0.0
1031
0.0
1021
0.0
1031
0.0
1000
MAX
1011
420.0
1021
0.0
1031
0.0
1021
297.0
1031
0.0
1000
FLAGS
1070
     4
  0
ENDSEC
  0
EOF
