  0
SECTION
  2
HEADER
  9
$ACADVER
  1
AC1009
  9
$INSBASE
 10
0.0
 20
0.0
 30
0.0
  9
$EXTMIN
 10
59.265047884621708
 20
207.07391826880959
 30
-0.0000000000112498
  9
$EXTMAX
 10
1057.4634424972619
 20
824.78423241088569
 30
0.0000000000002956
  9
$LIMMIN
 10
0.0
 20
0.0
  9
$LIMMAX
 10
1138.0
 20
740.00000000000011
  9
$ORTHOMODE
 70
     0
  9
$REGENMODE
 70
     1
  9
$FILLMODE
 70
     1
  9
$QTEXTMODE
 70
     0
  9
$MIRRTEXT
 70
     1
  9
$DRAGMODE
 70
     2
  9
$LTSCALE
 40
4.0
  9
$OSMODE
 70
   551
  9
$ATTMODE
 70
     1
  9
$TEXTSIZE
 40
2.5
  9
$TRACEWID
 40
1.0
  9
$TEXTSTYLE
  7
STANDARD
  9
$CLAYER
  8
AM_0
  9
$CELTYPE
  6
BYLAYER
  9
$CECOLOR
 62
   256
  9
$DIMSCALE
 40
4.0
  9
$DIMASZ
 40
2.5
  9
$DIMEXO
 40
1.0
  9
$DIMDLI
 40
7.0
  9
$DIMRND
 40
0.0
  9
$DIMDLE
 40
0.0
  9
$DIMEXE
 40
1.0
  9
$DIMTP
 40
0.1
  9
$DIMTM
 40
0.1000000001
  9
$DIMTXT
 40
2.5
  9
$DIMCEN
 40
0.0
  9
$DIMTSZ
 40
0.0
  9
$DIMTOL
 70
     0
  9
$DIMLIM
 70
     0
  9
$DIMTIH
 70
     0
  9
$DIMTOH
 70
     0
  9
$DIMSE1
 70
     0
  9
$DIMSE2
 70
     0
  9
$DIMTAD
 70
     3
  9
$DIMZIN
 70
     8
  9
$DIMBLK
  1

  9
$DIMASO
 70
     1
  9
$DIMSHO
 70
     1
  9
$DIMPOST
  1

  9
$DIMAPOST
  1
"
  9
$DIMALT
 70
     0
  9
$DIMALTD
 70
     2
  9
$DIMALTF
 40
0.0393701
  9
$DIMLFAC
 40
1.0
  9
$DIMTOFL
 70
     1
  9
$DIMTVP
 40
0.0
  9
$DIMTIX
 70
     0
  9
$DIMSOXD
 70
     0
  9
$DIMSAH
 70
     0
  9
$DIMBLK1
  1

  9
$DIMBLK2
  1

  9
$DIMSTYLE
  2
AM_JIS
  9
$DIMCLRD
 70
   256
  9
$DIMCLRE
 70
   256
  9
$DIMCLRT
 70
     4
  9
$DIMTFAC
 40
0.71
  9
$DIMGAP
 40
1.0
  9
$LUNITS
 70
     2
  9
$LUPREC
 70
     2
  9
$SKETCHINC
 40
1.0
  9
$FILLETRAD
 40
0.0
  9
$AUNITS
 70
     0
  9
$AUPREC
 70
     3
  9
$MENU
  1
.
  9
$ELEVATION
 40
0.0
  9
$PELEVATION
 40
0.0
  9
$THICKNESS
 40
0.0
  9
$LIMCHECK
 70
     0
  9
$BLIPMODE
 70
     0
  9
$CHAMFERA
 40
10.0
  9
$CHAMFERB
 40
10.0
  9
$SKPOLY
 70
     0
  9
$TDCREATE
 40
2452753.643349607
  9
$TDUPDATE
 40
2458543.5368636232
  9
$TDINDWG
 40
0.7149107523
  9
$TDUSRTIMER
 40
0.7149103704000001
  9
$USRTIMER
 70
     1
  9
$ANGBASE
 50
0.0
  9
$ANGDIR
 70
     0
  9
$PDMODE
 70
     0
  9
$PDSIZE
 40
0.0
  9
$PLINEWID
 40
0.0
  9
$COORDS
 70
     1
  9
$SPLFRAME
 70
     0
  9
$SPLINETYPE
 70
     6
  9
$SPLINESEGS
 70
     8
  9
$ATTDIA
 70
     1
  9
$ATTREQ
 70
     1
  9
$HANDLING
 70
     1
  9
$HANDSEED
  5
1ECE1
  9
$SURFTAB1
 70
     6
  9
$SURFTAB2
 70
     6
  9
$SURFTYPE
 70
     6
  9
$SURFU
 70
     6
  9
$SURFV
 70
     6
  9
$UCSNAME
  2

  9
$UCSORG
 10
0.0
 20
0.0
 30
0.0
  9
$UCSXDIR
 10
1.0
 20
0.0
 30
0.0
  9
$UCSYDIR
 10
0.0
 20
1.0
 30
0.0
  9
$PUCSNAME
  2

  9
$PUCSORG
 10
0.0
 20
0.0
 30
0.0
  9
$PUCSXDIR
 10
1.0
 20
0.0
 30
0.0
  9
$PUCSYDIR
 10
0.0
 20
1.0
 30
0.0
  9
$USERI1
 70
     0
  9
$USERI2
 70
     0
  9
$USERI3
 70
     0
  9
$USERI4
 70
     0
  9
$USERI5
 70
     0
  9
$USERR1
 40
0.0
  9
$USERR2
 40
0.0
  9
$USERR3
 40
0.0
  9
$USERR4
 40
0.0
  9
$USERR5
 40
0.0
  9
$WORLDVIEW
 70
     1
  9
$SHADEDGE
 70
     3
  9
$SHADEDIF
 70
    70
  9
$TILEMODE
 70
     1
  9
$MAXACTVP
 70
    48
  9
$PLIMCHECK
 70
     0
  9
$PEXTMIN
 10
1.0000000000000000E+020
 20
1.0000000000000000E+020
 30
1.0000000000000000E+020
  9
$PEXTMAX
 10
-1.0000000000000000E+020
 20
-1.0000000000000000E+020
 30
-1.0000000000000000E+020
  9
$PLIMMIN
 10
0.0
 20
0.0
  9
$PLIMMAX
 10
420.0
 20
297.0
  9
$UNITMODE
 70
     0
  9
$VISRETAIN
 70
     1
  9
$PLINEGEN
 70
     0
  9
$PSLTSCALE
 70
     1
  0
ENDSEC
  0
SECTION
  2
TABLES
  0
TABLE
  2
VPORT
 70
     1
  0
VPORT
  2
*ACTIVE
 70
     0
 10
0.0
 20
0.0
 11
1.0
 21
1.0
 12
558.36424519094157
 22
515.92907533984771
 13
0.0
 23
0.0
 14
10.0
 24
10.0
 15
40.0
 25
40.0
 16
0.0
 26
0.0
 36
1.0
 17
0.0
 27
0.0
 37
0.0
 40
621.95088838103777
 41
1.7571592210767459
 42
50.0
 43
0.0
 44
0.0
 50
0.0
 51
0.0
 71
     0
 72
   100
 73
     1
 74
     1
 75
     0
 76
     0
 77
     0
 78
     0
  0
ENDTAB
  0
TABLE
  2
LTYPE
 70
    21
  0
LTYPE
  2
CONTINUOUS
 70
     0
  3
Solid line
 72
    65
 73
     0
 40
0.0
  0
LTYPE
  2
PHANTOM2
 70
     0
  3
Phantom (.5x) ___ _ _ ___ _ _ ___ _ _ ___ _ _
 72
    65
 73
     6
 40
31.75
 49
15.875
 49
-3.174999999999998
 49
3.174999999999998
 49
-3.174999999999998
 49
3.174999999999998
 49
-3.174999999999998
  0
LTYPE
  2
CENTER
 70
     0
  3
Center ____ _ ____ _ ____ _ ____ _ ____ _ ____
 72
    65
 73
     4
 40
50.799999999999997
 49
31.75
 49
-6.3499999999999979
 49
6.3499999999999979
 49
-6.3499999999999979
  0
LTYPE
  2
GEN3B
 70
     0
  3
 - - - - -
 72
    65
 73
     2
 40
1.0
 49
0.5
 49
-0.5
  0
LTYPE
  2
GEN7A
 70
     0
  3
__ . __ . __
 72
    65
 73
     4
 40
7.375
 49
4.75
 49
-0.875
 49
0.875
 49
-0.875
  0
LTYPE
  2
AM_ISO02W050
 70
     0
  3
__ __ __ __ __ __ __ __ __ __ __ __ __ __ __
 72
    65
 73
     2
 40
7.5
 49
6.0
 49
-1.5
  0
LTYPE
  2
AM_ISO08W050
 70
     0
  3
____ . ____ . ____ . ____ . ____ . ____ . ____
 72
    65
 73
     4
 40
18.0
 49
12.0
 49
-1.5
 49
3.0
 49
-1.5
  0
LTYPE
  2
AM_ISO09W050
 70
     0
  3
_____ . . _____ . . _____ . . ____ .. ____
 72
    65
 73
     6
 40
22.5
 49
12.0
 49
-1.5
 49
3.0
 49
-1.5
 49
3.0
 49
-1.5
  0
LTYPE
  2
AMCONSTR
 70
     0
  3
_______________________
 72
    65
 73
     2
 40
9999.0
 49
9999.0
 49
0.0
  0
LTYPE
  2
AM_ISO02W050X2
 70
     0
  3
 _ _ _ _ _ _ _ _ _ _ _ _
 72
    65
 73
     2
 40
3.75
 49
3.0
 49
-0.75
  0
LTYPE
  2
AM_ISO08W050X2
 70
     0
  3
__ . __ . __ . __ . __ . __
 72
    65
 73
     4
 40
9.0
 49
6.0
 49
-0.75
 49
1.5
 49
-0.75
  0
LTYPE
  2
AMZIGZAG
 70
     0
  3
/\/-/\/-/\/-/\/-/\/-/\/
 72
    65
 73
     2
 40
11.0001
 49
0.0001
 49
-11.0
  0
LTYPE
  2
ACISOWELD
 70
     0
  3
_ _ _ _ _
 72
    65
 73
     2
 40
2.0
 49
2.0
 49
-1.0
  0
LTYPE
  2
ACISOTGB
 70
     0
  3
__ . . __ . .
 72
    65
 73
     6
 40
9.0
 49
4.0
 49
-1.0
 49
1.0
 49
-1.0
 49
1.0
 49
-1.0
  0
LTYPE
  2
ACISOTGL
 70
     0
  3
_ _ _ _ _
 72
    65
 73
     2
 40
3.0
 49
2.0
 49
-1.0
  0
LTYPE
  2
HIDDEN
 70
     0
  3
Hidden __ __ __ __ __ __ __ __ __ __ __ __ __ _
 72
    65
 73
     2
 40
9.5249999999999968
 49
6.349999999999997
 49
-3.174999999999998
  0
LTYPE
  2
ACANSTGBM
 70
     0
  3
__ . . __ . .
 72
    65
 73
     6
 40
9.0
 49
4.0
 49
-1.0
 49
1.0
 49
-1.0
 49
1.0
 49
-1.0
  0
LTYPE
  2
ACANSTGLM
 70
     0
  3
_ _ _ _ _
 72
    65
 73
     2
 40
3.0
 49
2.0
 49
-1.0
  0
LTYPE
  2
ACJISTGB
 70
     0
  3
__ . . __ . .
 72
    65
 73
     6
 40
9.0
 49
4.0
 49
-1.0
 49
1.0
 49
-1.0
 49
1.0
 49
-1.0
  0
LTYPE
  2
ACJISTGL
 70
     0
  3
_ _ _ _ _
 72
    65
 73
     2
 40
3.0
 49
2.0
 49
-1.0
  0
ENDTAB
  0
TABLE
  2
LAYER
 70
     9
  0
LAYER
  2
0
 70
     0
 62
     7
  6
CONTINUOUS
  0
LAYER
  2
ｽﾝﾎﾟｳｾﾝ
 70
     0
 62
     2
  6
CONTINUOUS
  0
LAYER
  2
DEFPOINTS
 70
     0
 62
     7
  6
CONTINUOUS
  0
LAYER
  2
ｶｸﾚｾﾝ2
 70
     0
 62
     3
  6
GEN3B
  0
LAYER
  2
ﾁｭｳｼﾝｾﾝ1
 70
     0
 62
     1
  6
GEN7A
  0
LAYER
  2
AM_0
 70
     0
 62
     7
  6
CONTINUOUS
  0
LAYER
  2
AM_0N
 70
     0
 62
     7
  6
CONTINUOUS
  0
LAYER
  2
AM_5
 70
     0
 62
     2
  6
CONTINUOUS
  0
LAYER
  2
1
 70
     0
 62
     7
  6
CONTINUOUS
  0
ENDTAB
  0
TABLE
  2
STYLE
 70
     8
  0
STYLE
  2
STANDARD
 70
     0
 40
0.0
 41
0.8299999999999999
 50
0.0
 71
     0
 42
2.5
  3
txt.shx
  4
bigfont.shx
  0
STYLE
  2

 70
     1
 40
0.0
 41
1.0
 50
0.0
 71
     0
 42
2.5
  3
ltypeshp.shx
  4

  0
STYLE
  2
ACISOTS
 70
     0
 40
1.0
 41
1.0
 50
0.0
 71
     0
 42
2.5
  3
isocp.shx
  4
extfont.shx
  0
STYLE
  2
ACISOGDT
 70
     0
 40
0.0
 41
1.0
 50
0.0
 71
     0
 42
2.5
  3
amgdt.shx
  4

  0
STYLE
  2
ACANSTS
 70
     0
 40
1.0
 41
1.0
 50
0.0
 71
     0
 42
2.5
  3
romans.shx
  4
bigfont.shx
  0
STYLE
  2
ACANSGDT
 70
     0
 40
0.0
 41
1.0
 50
0.0
 71
     0
 42
2.5
  3
amgdtans.shx
  4

  0
STYLE
  2
ACJISGDT
 70
     0
 40
0.0
 41
1.0
 50
0.0
 71
     0
 42
2.5
  3
amgdt.shx
  4

  0
STYLE
  2
ACJISTS
 70
     0
 40
1.0
 41
1.0
 50
0.0
 71
     0
 42
2.5
  3
isocp.shx
  4
extfont.shx
  0
ENDTAB
  0
TABLE
  2
VIEW
 70
    12
  0
VIEW
  2
GEN1
 70
     0
 40
95.824742268041234
 10
71.5
 20
137.08762886597941
 41
143.0
 11
0.0
 21
0.0
 31
1.0
 12
0.0
 22
0.0
 32
0.0
 42
50.0
 43
0.0
 44
0.0
 50
0.0
 71
     0
  0
VIEW
  2
GEN2
 70
     0
 40
95.824742268041234
 10
214.5
 20
137.08762886597941
 41
143.0
 11
0.0
 21
0.0
 31
1.0
 12
0.0
 22
0.0
 32
0.0
 42
50.0
 43
0.0
 44
0.0
 50
0.0
 71
     0
  0
VIEW
  2
GEN3
 70
     0
 40
95.824742268041234
 10
71.5
 20
47.912371134020603
 41
143.0
 11
0.0
 21
0.0
 31
1.0
 12
0.0
 22
0.0
 32
0.0
 42
50.0
 43
0.0
 44
0.0
 50
0.0
 71
     0
  0
VIEW
  2
GEN4
 70
     0
 40
95.824742268041234
 10
214.5
 20
47.912371134020603
 41
143.0
 11
0.0
 21
0.0
 31
1.0
 12
0.0
 22
0.0
 32
0.0
 42
50.0
 43
0.0
 44
0.0
 50
0.0
 71
     0
  0
VIEW
  2
GEN5
 70
     0
 40
95.824742268041234
 10
143.0
 20
92.500000000000057
 41
143.0
 11
0.0
 21
0.0
 31
1.0
 12
0.0
 22
0.0
 32
0.0
 42
50.0
 43
0.0
 44
0.0
 50
0.0
 71
     0
  0
VIEW
  2
GEN6
 70
     0
 40
191.64756804123709
 10
143.0
 20
92.5
 41
285.99714
 11
0.0
 21
0.0
 31
1.0
 12
0.0
 22
0.0
 32
0.0
 42
50.0
 43
0.0
 44
0.0
 50
0.0
 71
     0
  0
VIEW
  2
AM_VIEW1
 70
     0
 40
370.00000000000023
 10
332.86372007366492
 20
555.00000000000011
 41
665.72744014732973
 11
0.0
 21
0.0
 31
1.0
 12
0.0
 22
0.0
 32
0.0
 42
50.0
 43
0.0
 44
0.0
 50
0.0
 71
     0
  0
VIEW
  2
AM_VIEW2
 70
     0
 40
370.00000000000023
 10
805.13627992633508
 20
555.00000000000011
 41
665.72744014732973
 11
0.0
 21
0.0
 31
1.0
 12
0.0
 22
0.0
 32
0.0
 42
50.0
 43
0.0
 44
0.0
 50
0.0
 71
     0
  0
VIEW
  2
AM_VIEW3
 70
     0
 40
370.00000000000023
 10
332.86372007366492
 20
185.0
 41
665.72744014732973
 11
0.0
 21
0.0
 31
1.0
 12
0.0
 22
0.0
 32
0.0
 42
50.0
 43
0.0
 44
0.0
 50
0.0
 71
     0
  0
VIEW
  2
AM_VIEW4
 70
     0
 40
370.00000000000023
 10
805.13627992633508
 20
185.0
 41
665.72744014732973
 11
0.0
 21
0.0
 31
1.0
 12
0.0
 22
0.0
 32
0.0
 42
50.0
 43
0.0
 44
0.0
 50
0.0
 71
     0
  0
VIEW
  2
AM_VIEW5
 70
     0
 40
370.00000000000023
 10
569.0
 20
370.00000000000023
 41
665.72744014732962
 11
0.0
 21
0.0
 31
1.0
 12
0.0
 22
0.0
 32
0.0
 42
50.0
 43
0.0
 44
0.0
 50
0.0
 71
     0
  0
VIEW
  2
AM_VIEW6
 70
     0
 40
739.99260000000015
 10
569.0
 20
370.00000000000023
 41
1331.4415657458569
 11
0.0
 21
0.0
 31
1.0
 12
0.0
 22
0.0
 32
0.0
 42
50.0
 43
0.0
 44
0.0
 50
0.0
 71
     0
  0
ENDTAB
  0
TABLE
  2
UCS
 70
     0
  0
ENDTAB
  0
TABLE
  2
APPID
 70
   101
  0
APPID
  2
ACAD
 70
     0
  0
APPID
  2
MCAD_NO_VIS
 70
     0
  0
APPID
  2
ACAD_TEMP_GRAPHIC
 70
     0
  0
APPID
  2
AD_DRAW
 70
     0
  0
APPID
  2
DESIGNERASSEMBLIES
 70
     0
  0
APPID
  2
ASURF_PCURVE_APPNAME
 70
     0
  0
APPID
  2
GENIUS_GE3SECT_13
 70
     0
  0
APPID
  2
GENIUS_GENCFG_13
 70
     0
  0
APPID
  2
GENIUS_GE3CFG0_13
 70
     0
  0
APPID
  2
GENIUS_GENCFG0_13
 70
     0
  0
APPID
  2
GENIUS_GENCFG1_13
 70
     0
  0
APPID
  2
GENIUS_GENCFG2_13
 70
     0
  0
APPID
  2
GENIUS_GENCFG3_13
 70
     0
  0
APPID
  2
GENIUS_GENCFG4_13
 70
     0
  0
APPID
  2
GENIUS_GEVCFG0_13
 70
     0
  0
APPID
  2
GENIUS_GENOENT_13
 70
     0
  0
APPID
  2
GENIUS_GENREC_14
 70
     0
  0
APPID
  2
GENIUS_GENODEF_13
 70
     0
  0
APPID
  2
GENIUS_GENOBJ-N-REC_13
 70
     0
  0
APPID
  2
GENIUS_GENHINW_13
 70
     0
  0
APPID
  2
GENIUS_FIRSTVISTXT_14
 70
     0
  0
APPID
  2
GENIUS_GENOBJ-N-LEADER_13
 70
     0
  0
APPID
  2
GENIUS_GENOREF_13
 70
     0
  0
APPID
  2
GENIUS_GENOLIS_13
 70
     0
  0
APPID
  2
GEV_VCCNULL_SWITCH_OFF
 70
     0
  0
APPID
  2
GENIUS_GENDTOL_13
 70
     0
  0
APPID
  2
GENIUS_GEFCFG0_13
 70
     0
  0
APPID
  2
GENIUS_GENOBJ-N-TIT_13
 70
     0
  0
APPID
  2
GENIUS_GENTITLE_13
 70
     0
  0
APPID
  2
GENIUS_GENZVEED_13
 70
     0
  0
APPID
  2
GENIUS_GENOBJ-N-SDF_13
 70
     0
  0
APPID
  2
GENIUS_GENSCREG_13
 70
     0
  0
APPID
  2
GENIUS_DUMCFG0_13
 70
     0
  0
APPID
  2
GEVID936201362
 70
     0
  0
APPID
  2
GEVDC
 70
     0
  0
APPID
  2
GEVCON
 70
     0
  0
APPID
  2
VCC
 70
     0
  0
APPID
  2
GEVPT
 70
     0
  0
APPID
  2
GEVIT
 70
     0
  0
APPID
  2
GENBH
 70
     0
  0
APPID
  2
GEVMK
 70
     0
  0
APPID
  2
GENIUS_GENBH_13
 70
     0
  0
APPID
  2
GENIUS_GENOBJ-NBEHI-BHF_13
 70
     0
  0
APPID
  2
GENIUS_GENOBJ-NBEHI-BHB_13
 70
     0
  0
APPID
  2
GENIUS_GENOBJ-F-DESC_13
 70
     0
  0
APPID
  2
GENIUS_GEFDESC_14
 70
     0
  0
APPID
  2
GENIUS_GENOBJ-F-PART_13
 70
     0
  0
APPID
  2
GENIUS_GEFSTDP_13
 70
     0
  0
APPID
  2
GENIUS_GEFPARTINS_13
 70
     0
  0
APPID
  2
GENIUS_GENTRA_14
 70
     0
  0
APPID
  2
GENIUS_GENINF13_13
 70
     0
  0
APPID
  2
GENIUS_GENOBJ-N-INFOPT_13
 70
     0
  0
APPID
  2
GENIUS_GENOBJ-N-RSSYM_13
 70
     0
  0
APPID
  2
GENIUS_GENSYMENT_13
 70
     0
  0
APPID
  2
GENIUS_GENSCSYM_13
 70
     0
  0
APPID
  2
GENIUS_GEFINFNAM_13
 70
     0
  0
APPID
  2
GENIUS_GENSCREG_15
 70
     0
  0
APPID
  2
GENIUS_GENOBJ-N-CEN_13
 70
     0
  0
APPID
  2
GENIUS_GENOBJ-N-CRS_13
 70
     0
  0
APPID
  2
GENIUS_GENOBJ-N-CRC_13
 70
     0
  0
APPID
  2
GENIUS_GENCRC_14
 70
     0
  0
APPID
  2
GEVID942827039
 70
     0
  0
APPID
  2
GEVID942827040
 70
     0
  0
APPID
  2
GEVID942827041
 70
     0
  0
APPID
  2
GENIUS_GENOBJ-F-SCPASSM_13
 70
     0
  0
APPID
  2
GENIUS_GENDIMSH_14
 70
     0
  0
APPID
  2
GENIUS_GENFIL_13
 70
     0
  0
APPID
  2
GENIUS_GENOBJ-N-CHA_13
 70
     0
  0
APPID
  2
GENIUS_GENOBJ-N-FIL_13
 70
     0
  0
APPID
  2
GEVID942827042
 70
     0
  0
APPID
  2
GEVID946020473
 70
     0
  0
APPID
  2
GEVID946020474
 70
     0
  0
APPID
  2
GEVID946020475
 70
     0
  0
APPID
  2
GENIUS_GENOBJ-N-HTC_13
 70
     0
  0
APPID
  2
GENIUS_GENHATCH_13
 70
     0
  0
APPID
  2
GEVID948854295
 70
     0
  0
APPID
  2
GEVID939402019
 70
     0
  0
APPID
  2
GEVID952919491
 70
     0
  0
APPID
  2
GEVID952919492
 70
     0
  0
APPID
  2
GENIUS_GEFWELD_13
 70
     0
  0
APPID
  2
GENIUS_GENOBJ-F-WELS_13
 70
     0
  0
APPID
  2
GEVID952919493
 70
     0
  0
APPID
  2
GENIUS_GENOBJ-N-RSBK_13
 70
     0
  0
APPID
  2
GENIUS_GENOBJ-N-LIB_13
 70
     0
  0
APPID
  2
GENIUS_GENSCALE_13
 70
     0
  0
APPID
  2
GEVID986376691
 70
     0
  0
APPID
  2
ACATTRIBSERVICES
 70
     0
  0
APPID
  2
DCO15
 70
     0
  0
APPID
  2
ACADM_DIM_EDIT
 70
     0
  0
APPID
  2
AMDT_DM_ADJ
 70
     0
  0
APPID
  2
ACAD_MLEADERVER
 70
     0
  0
APPID
  2
CONTENTBLOCKDESCRIPTION
 70
     0
  0
APPID
  2
ACADANNOTATIVE
 70
     0
  0
APPID
  2
GEVID1057795304
 70
     0
  0
APPID
  2
GENIUS_GEFSH_13
 70
     0
  0
APPID
  2
GENIUS_GENOBJ-F-SHS_13
 70
     0
  0
APPID
  2
ACAD_DSTYLE_DIMBREAK
 70
     0
  0
APPID
  2
ACAD_DSTYLE_DIMJAG
 70
     0
  0
APPID
  2
ACAD_NAV_VCDISPLAY
 70
     0
  0
APPID
  2
ACADANNOPO
 70
     0
  0
APPID
  2
ACAD_EXEMPT_FROM_CAD_STANDARDS
 70
     0
  0
ENDTAB
  0
TABLE
  2
DIMSTYLE
 70
    22
  0
DIMSTYLE
  2
STANDARD
 70
     0
  3

  4

  5

  6

  7

 40
1.0
 41
0.18
 42
0.0625
 43
0.38
 44
0.18
 45
0.0
 46
0.0
 47
0.0
 48
0.0
140
0.18
141
0.09
142
0.0
143
25.399999999999999
144
1.0
145
0.0
146
1.0
147
0.09
 71
     0
 72
     0
 73
     1
 74
     1
 75
     0
 76
     0
 77
     0
 78
     0
170
     0
171
     2
172
     0
173
     0
174
     0
175
     0
176
     0
177
     0
178
     0
  0
DIMSTYLE
  2
AM_JIS
 70
     0
  3

  4
"
  5

  6

  7

 40
1.0
 41
2.0
 42
1.0
 43
8.0
 44
1.0
 45
0.0
 46
0.0
 47
0.1
 48
0.1
140
2.5
141
0.0
142
0.0
143
0.0393701
144
1.0
145
0.0
146
0.71
147
1.5
 71
     0
 72
     0
 73
     0
 74
     0
 75
     0
 76
     0
 77
     3
 78
     8
170
     0
171
     2
172
     1
173
     0
174
     0
175
     0
176
     2
177
     2
178
     4
  0
DIMSTYLE
  2
AM_ISO
 70
     0
  3

  4
"
  5

  6

  7

 40
1.0
 41
2.5
 42
1.0
 43
10.0
 44
1.0
 45
0.0
 46
0.0
 47
0.1
 48
0.1
140
3.5
141
0.0
142
0.0
143
0.0393701
144
1.0
145
0.0
146
0.71
147
1.5
 71
     0
 72
     0
 73
     0
 74
     0
 75
     0
 76
     0
 77
     1
 78
     8
170
     0
171
     2
172
     1
173
     0
174
     0
175
     0
176
   256
177
   256
178
     2
  0
DIMSTYLE
  2
AM_ISO$3
 70
     0
  3

  4
"
  5

  6

  7

 40
1.0
 41
2.5
 42
1.0
 43
10.0
 44
1.0
 45
0.0
 46
0.0
 47
0.1
 48
0.1
140
3.5
141
0.0
142
0.0
143
0.0393701
144
1.0
145
0.0
146
0.71
147
1.5
 71
     0
 72
     0
 73
     0
 74
     1
 75
     0
 76
     0
 77
     1
 78
     8
170
     0
171
     2
172
     0
173
     0
174
     0
175
     0
176
   256
177
   256
178
     2
  0
DIMSTYLE
  2
AM_ISO$4
 70
     0
  3

  4
"
  5

  6

  7

 40
1.0
 41
2.5
 42
1.0
 43
10.0
 44
1.0
 45
0.0
 46
0.0
 47
0.1
 48
0.1
140
3.5
141
0.0
142
0.0
143
0.0393701
144
1.0
145
0.0
146
0.71
147
1.5
 71
     0
 72
     0
 73
     0
 74
     1
 75
     0
 76
     0
 77
     1
 78
     8
170
     0
171
     2
172
     0
173
     0
174
     0
175
     0
176
   256
177
   256
178
     2
  0
DIMSTYLE
  2
AM_ISO$6
 70
     0
  3

  4
"
  5

  6

  7

 40
1.0
 41
2.5
 42
1.0
 43
10.0
 44
1.0
 45
0.0
 46
0.0
 47
0.1
 48
0.1
140
3.5
141
0.0
142
0.0
143
0.0393701
144
1.0
145
0.0
146
0.71
147
1.5
 71
     0
 72
     0
 73
     0
 74
     0
 75
     0
 76
     0
 77
     0
 78
     8
170
     0
171
     2
172
     1
173
     0
174
     0
175
     0
176
   256
177
   256
178
     2
  0
DIMSTYLE
  2
AM_ISO$7
 70
     0
  3

  4
"
  5

  6

  7

 40
1.0
 41
2.5
 42
1.0
 43
10.0
 44
1.0
 45
0.0
 46
0.0
 47
0.1
 48
0.1
140
5.0
141
0.0
142
0.0
143
0.0393701
144
1.0
145
0.0
146
0.71
147
1.5
 71
     0
 72
     0
 73
     0
 74
     0
 75
     0
 76
     0
 77
     1
 78
     8
170
     0
171
     2
172
     1
173
     0
174
     0
175
     0
176
   256
177
   256
178
     2
  0
DIMSTYLE
  2
AM_ISO$SF
 70
     0
  3

  4
"
  5

  6

  7

 40
1.0
 41
2.5
 42
1.0
 43
10.0
 44
1.0
 45
0.0
 46
0.0
 47
0.1
 48
0.1
140
3.5
141
0.0
142
0.0
143
0.0393701
144
1.0
145
0.0
146
0.71
147
1.5
 71
     0
 72
     0
 73
     0
 74
     0
 75
     1
 76
     1
 77
     1
 78
     8
170
     0
171
     2
172
     1
173
     0
174
     0
175
     0
176
   256
177
   256
178
     2
  0
DIMSTYLE
  2
AM_ISO$SH
 70
     0
  3

  4
"
  5

  6
GENAXEH
  7

 40
1.0
 41
2.5
 42
1.0
 43
10.0
 44
1.0
 45
0.0
 46
0.0
 47
0.1
 48
0.1
140
3.5
141
0.0
142
0.0
143
0.0393701
144
2.0
145
0.0
146
0.71
147
1.5
 71
     0
 72
     0
 73
     0
 74
     0
 75
     1
 76
     1
 77
     1
 78
     8
170
     0
171
     2
172
     1
173
     1
174
     0
175
     0
176
   256
177
   256
178
     2
  0
DIMSTYLE
  2
AM_JIS$0
 70
     0
  3

  4
"
  5

  6

  7

 40
1.0
 41
2.5
 42
1.0
 43
7.0
 44
1.0
 45
0.0
 46
0.0
 47
0.1
 48
0.1000000001
140
2.5
141
0.0
142
0.0
143
0.0393701
144
1.0
145
0.0
146
0.71
147
1.0
 71
     0
 72
     0
 73
     0
 74
     0
 75
     0
 76
     0
 77
     3
 78
     8
170
     0
171
     2
172
     1
173
     0
174
     0
175
     0
176
   256
177
   256
178
     4
  0
DIMSTYLE
  2
AM_ANSI
 70
     0
  3

  4
"
  5

  6

  7

 40
1.0
 41
2.5
 42
1.0
 43
10.0
 44
1.0
 45
0.0
 46
0.0
 47
0.1
 48
0.1
140
3.5
141
0.0
142
0.0
143
0.0393701
144
1.0
145
0.0
146
0.71
147
1.5
 71
     0
 72
     0
 73
     1
 74
     1
 75
     0
 76
     0
 77
     0
 78
     8
170
     0
171
     2
172
     0
173
     0
174
     0
175
     0
176
     2
177
     2
178
     4
  0
DIMSTYLE
  2
AM_ANSI$3
 70
     0
  3

  4
"
  5

  6

  7

 40
1.0
 41
2.5
 42
1.0
 43
10.0
 44
1.0
 45
0.0
 46
0.0
 47
0.1
 48
0.1
140
3.5
141
0.0
142
0.0
143
0.0393701
144
1.0
145
0.0
146
0.71
147
1.5
 71
     0
 72
     0
 73
     1
 74
     1
 75
     0
 76
     0
 77
     0
 78
     8
170
     0
171
     2
172
     0
173
     0
174
     0
175
     0
176
     2
177
     2
178
     4
  0
DIMSTYLE
  2
AM_ANSI$4
 70
     0
  3

  4
"
  5

  6

  7

 40
1.0
 41
2.5
 42
1.0
 43
10.0
 44
1.0
 45
0.0
 46
0.0
 47
0.1
 48
0.1
140
3.5
141
0.0
142
0.0
143
0.0393701
144
1.0
145
0.0
146
0.71
147
1.5
 71
     0
 72
     0
 73
     1
 74
     1
 75
     0
 76
     0
 77
     0
 78
     8
170
     0
171
     2
172
     0
173
     0
174
     0
175
     0
176
     2
177
     2
178
     4
  0
DIMSTYLE
  2
AM_ANSI$7
 70
     0
  3

  4
"
  5

  6

  7

 40
1.0
 41
2.5
 42
1.0
 43
10.0
 44
1.0
 45
0.0
 46
0.0
 47
0.1
 48
0.1
140
5.0
141
0.0
142
0.0
143
0.0393701
144
1.0
145
0.0
146
0.71
147
1.5
 71
     0
 72
     0
 73
     1
 74
     1
 75
     0
 76
     0
 77
     0
 78
     8
170
     0
171
     2
172
     0
173
     0
174
     0
175
     0
176
     2
177
     2
178
     4
  0
DIMSTYLE
  2
AM_ANSI$SF
 70
     0
  3

  4
"
  5

  6

  7

 40
1.0
 41
2.5
 42
1.0
 43
10.0
 44
1.0
 45
0.0
 46
0.0
 47
0.1
 48
0.1
140
3.5
141
0.0
142
0.0
143
0.0393701
144
1.0
145
0.0
146
0.71
147
1.5
 71
     0
 72
     0
 73
     1
 74
     1
 75
     1
 76
     1
 77
     0
 78
     8
170
     0
171
     2
172
     0
173
     0
174
     0
175
     0
176
     2
177
     2
178
     4
  0
DIMSTYLE
  2
AM_ANSI$SH
 70
     0
  3

  4
"
  5

  6
GENAXEH
  7

 40
1.0
 41
2.5
 42
1.0
 43
10.0
 44
1.0
 45
0.0
 46
0.0
 47
0.1
 48
0.1
140
3.5
141
0.0
142
0.0
143
0.0393701
144
1.0
145
0.0
146
0.71
147
1.5
 71
     0
 72
     0
 73
     1
 74
     1
 75
     1
 76
     1
 77
     0
 78
     8
170
     0
171
     2
172
     0
173
     1
174
     0
175
     0
176
     2
177
     2
178
     4
  0
DIMSTYLE
  2
AM_JIS$3
 70
     0
  3

  4
"
  5

  6

  7

 40
1.0
 41
2.0
 42
1.0
 43
10.0
 44
1.0
 45
0.0
 46
0.0
 47
0.1
 48
0.1
140
2.5
141
0.0
142
0.0
143
0.0393701
144
1.0
145
0.0
146
0.71
147
1.5
 71
     0
 72
     0
 73
     0
 74
     1
 75
     0
 76
     0
 77
     3
 78
     8
170
     0
171
     2
172
     0
173
     0
174
     0
175
     0
176
     2
177
     2
178
     4
  0
DIMSTYLE
  2
AM_JIS$4
 70
     0
  3

  4
"
  5

  6

  7

 40
1.0
 41
2.0
 42
1.0
 43
10.0
 44
1.0
 45
0.0
 46
0.0
 47
0.1
 48
0.1
140
2.5
141
0.0
142
0.0
143
0.0393701
144
1.0
145
0.0
146
0.71
147
1.5
 71
     0
 72
     0
 73
     0
 74
     0
 75
     0
 76
     0
 77
     3
 78
     8
170
     0
171
     2
172
     0
173
     0
174
     0
175
     0
176
     2
177
     2
178
     4
  0
DIMSTYLE
  2
AM_JIS$6
 70
     0
  3

  4
"
  5

  6

  7

 40
1.0
 41
2.0
 42
1.0
 43
10.0
 44
1.0
 45
0.0
 46
0.0
 47
0.1
 48
0.1
140
2.5
141
0.0
142
0.0
143
0.0393701
144
1.0
145
0.0
146
0.71
147
1.5
 71
     0
 72
     0
 73
     0
 74
     0
 75
     0
 76
     0
 77
     0
 78
     8
170
     0
171
     2
172
     1
173
     0
174
     0
175
     0
176
     2
177
     2
178
     4
  0
DIMSTYLE
  2
AM_JIS$7
 70
     0
  3

  4
"
  5

  6
OPEN30
  7
OPEN30
 40
1.0
 41
2.0
 42
1.0
 43
10.0
 44
1.0
 45
0.0
 46
0.0
 47
0.1
 48
0.1
140
2.5
141
0.0
142
0.0
143
0.0393701
144
1.0
145
0.0
146
0.71
147
1.5
 71
     0
 72
     0
 73
     0
 74
     0
 75
     0
 76
     0
 77
     3
 78
     8
170
     0
171
     2
172
     1
173
     0
174
     0
175
     0
176
     2
177
     2
178
     4
  0
DIMSTYLE
  2
AM_JIS$SF
 70
     0
  3

  4
"
  5

  6

  7

 40
1.0
 41
2.0
 42
1.0
 43
10.0
 44
1.0
 45
0.0
 46
0.0
 47
0.1
 48
0.1
140
2.5
141
0.0
142
0.0
143
0.0393701
144
1.0
145
0.0
146
0.71
147
1.5
 71
     0
 72
     0
 73
     0
 74
     0
 75
     1
 76
     1
 77
     3
 78
     8
170
     0
171
     2
172
     1
173
     0
174
     0
175
     0
176
     2
177
     2
178
     4
  0
DIMSTYLE
  2
AM_JIS$SH
 70
     0
  3

  4
"
  5

  6
GENAXEH
  7

 40
1.0
 41
2.0
 42
1.0
 43
10.0
 44
1.0
 45
0.0
 46
0.0
 47
0.1
 48
0.1
140
2.5
141
0.0
142
0.0
143
0.0393701
144
2.0
145
0.0
146
0.71
147
1.5
 71
     0
 72
     0
 73
     0
 74
     0
 75
     1
 76
     1
 77
     3
 78
     8
170
     0
171
     2
172
     1
173
     1
174
     0
175
     0
176
     2
177
     2
178
     4
  0
ENDTAB
  0
ENDSEC
  0
SECTION
  2
BLOCKS
  0
BLOCK
  8
0
  2
$MODEL_SPACE
 70
     0
 10
0.0
 20
0.0
 30
0.0
  3
$MODEL_SPACE
  1

  0
ENDBLK
  5
1A
  8
0
  0
BLOCK
 67
     1
  8
0
  2
$PAPER_SPACE
 70
     0
 10
0.0
 20
0.0
 30
0.0
  3
$PAPER_SPACE
  1

  0
ENDBLK
  5
17
 67
     1
  8
0
  0
BLOCK
  8
0
  2
GENAXEH
 70
     0
 10
0.0
 20
0.0
 30
0.0
  3
GENAXEH
  1

  0
LINE
  5
1E59C
  8
0
 10
-1.0
 20
0.0
 30
0.0
 11
1.0
 21
0.0
 31
0.0
  0
ENDBLK
  5
1E59D
  8
0
  0
BLOCK
  8
0
  6
BYBLOCK
 62
     0
  2
$6-44
 70
     0
 10
0.0
 20
0.0
 30
0.0
  3
$6-44
  1

  0
ARC
  5
1C7E0
  8
AM_0
 10
-2.3000029999999438
 20
2.3999909999999991
 30
0.0
 40
2.2000009999999981
 50
90.00000299999769
 51
179.99997799999841
  0
ARC
  5
1C7E1
  8
AM_0
 10
2.3000029999999438
 20
2.3999909999999991
 30
0.0
 40
2.1999970000000002
 50
0.0
 51
89.999982000000799
  0
LINE
  5
1C7E2
  8
AM_0
 10
-0.0494449999999915
 20
0.0
 30
0.0
 11
-0.7999999999999548
 21
1.30000000000001
 31
0.0
  0
LINE
  5
1C7E3
  8
AM_0
 10
0.9505550000000083
 20
0.0
 30
0.0
 11
0.2000000000000455
 21
1.30000000000001
 31
0.0
  0
LINE
  5
1C7E4
  8
AM_0
 10
4.600000000000021
 20
1.30000000000001
 30
0.0
 11
4.600000000000021
 21
0.0
 31
0.0
  0
LINE
  5
1C7E5
  8
AM_0
 10
-4.600000000000021
 20
1.30000000000001
 30
0.0
 11
-4.600000000000021
 21
0.0
 31
0.0
  0
LINE
  5
1C7E6
  8
AM_0
 10
4.600000000000021
 20
0.0
 30
0.0
 11
-4.600000000000021
 21
0.0
 31
0.0
  0
LINE
  5
1C7E7
  8
AM_0
 10
2.3000029999999438
 20
4.6000030000000152
 30
0.0
 11
-2.3000029999999438
 21
4.6000030000000152
 31
0.0
  0
LINE
  5
1C7E8
  8
AM_0
 10
4.600000000000021
 20
1.30000000000001
 30
0.0
 11
-4.600000000000021
 21
1.30000000000001
 31
0.0
  0
LINE
  5
1C7E9
  8
AM_0
 10
-4.5
 20
1.30000000000001
 30
0.0
 11
-4.5
 21
2.3999909999999991
 31
0.0
  0
LINE
  5
1C7EA
  8
AM_0
 10
4.5
 20
1.30000000000001
 30
0.0
 11
4.5
 21
2.3999909999999991
 31
0.0
  0
ENDBLK
  5
1C7EB
  8
0
  6
BYBLOCK
 62
     0
  0
BLOCK
  8
0
  2
*D2
 70
     1
 10
0.0
 20
0.0
 30
0.0
  3
*D2
  1

  0
LINE
  5
1E4C4
  8
AM_5
 10
606.55230137112449
 20
398.70090131365509
 30
0.0
 11
606.55230137112449
 21
500.88840071676111
 31
0.0
  0
LINE
  5
1E4C5
  8
AM_5
 10
70.74754970677742
 20
396.50089935700458
 30
0.0
 11
70.74754970677742
 21
500.88840071676111
 31
0.0
  0
LINE
  5
1E4C6
  8
AM_5
 10
604.05230137112437
 20
499.888400716761
 30
0.0
 11
73.24754970677742
 21
499.888400716761
 31
0.0
  0
SOLID
  5
1E4C7
  8
AM_5
 10
604.05230137112437
 20
500.30506738342791
 30
0.0
 11
604.05230137112437
 21
499.47173405009448
 31
0.0
 12
606.55230137112449
 22
499.888400716761
 32
0.0
 13
606.55230137112449
 23
499.888400716761
 33
0.0
  0
SOLID
  5
1E4C8
  8
AM_5
 10
73.24754970677742
 20
500.30506738342791
 30
0.0
 11
73.24754970677742
 21
499.47173405009448
 31
0.0
 12
70.74754970677742
 22
499.888400716761
 32
0.0
 13
70.74754970677742
 23
499.888400716761
 33
0.0
  0
INSERT
  5
1E4C9
  8
AM_0
  2
*U8
 10
0.0
 20
0.0
 30
0.0
  0
POINT
  5
1E4CA
  8
DEFPOINTS
 62
     0
 10
606.55230137112449
 20
397.70090131365509
 30
0.0
  0
POINT
  5
1E4CB
  8
DEFPOINTS
 62
     0
 10
70.74754970677742
 20
395.50089935700458
 30
0.0
  0
POINT
  5
1E4CC
  8
DEFPOINTS
 62
     0
 10
70.74754970677742
 20
499.888400716761
 30
0.0
  0
ENDBLK
  5
1E4AD
  8
0
  0
BLOCK
  8
0
  2
*D3
 70
     1
 10
0.0
 20
0.0
 30
0.0
  3
*D3
  1

  0
LINE
  5
1E503
  8
AM_5
 10
70.752267786450801
 20
778.56522022532124
 30
0.0
 11
70.752267786450801
 21
868.95143591121791
 31
0.0
  0
LINE
  5
1E504
  8
AM_5
 10
606.55230137112414
 20
815.76080086654588
 30
0.0
 11
606.55230137112414
 21
868.95143591121791
 31
0.0
  0
LINE
  5
1E505
  8
AM_5
 10
73.252267786450801
 20
867.95143591121814
 30
0.0
 11
604.05230137112426
 21
867.95143591121814
 31
0.0
  0
SOLID
  5
1E506
  8
AM_5
 10
73.252267786450801
 20
868.36810257788466
 30
0.0
 11
73.252267786450801
 21
867.5347692445514
 31
0.0
 12
70.752267786450801
 22
867.95143591121814
 32
0.0
 13
70.752267786450801
 23
867.95143591121814
 33
0.0
  0
SOLID
  5
1E507
  8
AM_5
 10
604.05230137112426
 20
868.36810257788466
 30
0.0
 11
604.05230137112426
 21
867.5347692445514
 31
0.0
 12
606.55230137112414
 22
867.95143591121814
 32
0.0
 13
606.55230137112414
 23
867.95143591121814
 33
0.0
  0
INSERT
  5
1E508
  8
AM_0
  2
*U9
 10
0.0
 20
0.0
 30
0.0
  0
POINT
  5
1E509
  8
DEFPOINTS
 62
     0
 10
70.752267786450801
 20
777.56522022532124
 30
0.0
  0
POINT
  5
1E50A
  8
DEFPOINTS
 62
     0
 10
606.55230137112414
 20
814.76080086654588
 30
0.0
  0
POINT
  5
1E50B
  8
DEFPOINTS
 62
     0
 10
606.55230137112414
 20
867.95143591121814
 30
0.0
  0
ENDBLK
  5
1E4F4
  8
0
  0
BLOCK
  8
0
  2
_OPEN30
 70
     0
 10
0.0
 20
0.0
 30
0.0
  3
_OPEN30
  1

  0
LINE
  5
1E5E3
  8
0
  6
BYBLOCK
 62
     0
 10
-1.0
 20
0.26794919
 30
0.0
 11
0.0
 21
0.0
 31
0.0
  0
LINE
  5
1E5E4
  8
0
  6
BYBLOCK
 62
     0
 10
0.0
 20
0.0
 30
0.0
 11
-1.0
 21
-0.26794919
 31
0.0
  0
LINE
  5
1E5E5
  8
0
  6
BYBLOCK
 62
     0
 10
0.0
 20
0.0
 30
0.0
 11
-1.0
 21
0.0
 31
0.0
  0
ENDBLK
  5
1E5E6
  8
0
  0
BLOCK
  8
0
  2
_NONE
 70
     0
 10
0.0
 20
0.0
 30
0.0
  3
_NONE
  1

  0
ENDBLK
  5
1E6BB
  8
0
  0
BLOCK
  8
0
  2
*U8
 70
     1
 10
0.0
 20
0.0
 30
0.0
  3
*U8
  1

  0
TEXT
  5
1E72A
  8
AM_5
 62
     4
 10
334.49992553895089
 20
500.88840071676111
 30
0.0
 40
2.5
  1
535.8
 41
0.8299999999999999
  0
ENDBLK
  5
1E72C
  8
0
  0
BLOCK
  8
0
  2
*U9
 70
     1
 10
0.0
 20
0.0
 30
0.0
  3
*U9
  1

  0
TEXT
  5
1E72E
  8
AM_5
 62
     4
 10
334.50228457878751
 20
868.95143591121803
 30
0.0
 40
2.5
  1
535.8
 41
0.8299999999999999
  0
ENDBLK
  5
1E730
  8
0
  0
ENDSEC
  0
SECTION
  2
ENTITIES
  0
POINT
  5
1B94
  8
0
 10
0.0
 20
0.0
 30
0.0
1001
GENIUS_GENODEF_13
1002
{
1000
HIER
1070
     1
1002
}
1002
{
1000
MANEDIT
1070
     0
1002
}
1002
{
1000
NOSEL
1070
     0
1002
}
1002
{
1000
BEHIND
1070
     0
1002
}
1002
{
1000
REACTOR
1002
}
1001
GENIUS_GENOBJ-N-SDF_13
1002
{
1000
OWNER
1000
GEN
1002
}
1001
GENIUS_GENOENT_13
1002
{
1000
MYREF
1005
1B94
1002
}
1002
{
1000
GRP
1005
0
1002
}
1001
GENIUS_GENOLIS_13
1002
{
1000
ENT
1005
89
1002
}
  0
CIRCLE
  5
1A1AA
  8
AM_0
 10
529.55229911344975
 20
332.70089935700469
 30
0.0
 40
50.0
  0
LINE
  5
1A1AB
  8
0
 10
574.55232797540168
 20
449.70089935700372
 30
0.0
 11
429.55229911344981
 21
449.70089935700372
 31
0.0
  0
LINE
  5
1A1AC
  8
0
 10
574.55232797540168
 20
215.70089935700469
 30
0.0
 11
429.55229911344981
 21
215.70089935700469
 31
0.0
  0
LINE
  5
1A1AD
  8
AM_0
 10
529.55229911344975
 20
404.70090152437132
 30
0.0
 11
566.69560448721677
 21
404.70090152437132
 31
0.0
  0
LINE
  5
1A1AE
  8
AM_0
 10
529.55229911344975
 20
260.70089718963698
 30
0.0
 11
566.69560448721677
 21
260.70089718963737
 31
0.0
  0
LINE
  5
1A1AF
  8
AM_0
 10
414.55232616926219
 20
252.70089694881869
 30
0.0
 11
589.55230091958924
 21
252.70089694881869
 31
0.0
  0
LINE
  5
1A1B0
  8
AM_0
 10
414.55232616926219
 20
412.70090176519011
 30
0.0
 11
589.55230091958924
 21
412.70090176519011
 31
0.0
  0
LINE
  5
1A1B1
  8
ﾁｭｳｼﾝｾﾝ1
 10
59.340000000000011
 20
332.70089935700457
 30
0.0
 11
617.70279513034257
 21
332.70089935700457
 31
0.0
  0
LINE
  5
1A1B4
  8
ｶｸﾚｾﾝ2
 10
397.5523257177274
 20
397.70090131365549
 30
0.0
 11
397.5523257177274
 21
267.70089740035331
 31
0.0
  0
LINE
  5
1A1B5
  8
AM_0
 10
407.55232595854562
 20
290.55759383272601
 30
0.0
 11
407.55232595854562
 21
374.84420488128308
 31
0.0
  0
LINE
  5
1A1B6
  8
AM_0
 10
399.55232571772729
 20
397.70090131365549
 30
0.0
 11
399.55232571772729
 21
267.70089740035331
 31
0.0
  0
LINE
  5
1A1B7
  8
ﾁｭｳｼﾝｾﾝ1
 10
529.55229911344975
 20
458.29800083675599
 30
0.0
 11
529.55229911344975
 21
207.10379787725341
 31
0.0
  0
LINE
  5
1A1B8
  8
AM_0
 10
390.79224911967498
 20
394.11613546587142
 30
0.0
 11
390.79224911967532
 21
271.28566324813789
 31
0.0
  0
POLYLINE
  5
1A1B9
  8
AM_0
 10
390.07951224810131
 20
393.84028450978076
 30
0.0
 66
     1
 70
     8
  0
VERTEX
  8
AM_0
  5
1E74B
 10
390.080
 20
393.840
 30
0.000000
  70
    32
  0
VERTEX
  8
AM_0
  5
1E74C
 10
390.009
 20
392.887
 30
0.000000
  70
    32
  0
VERTEX
  8
AM_0
  5
1E74D
 10
389.939
 20
391.933
 30
0.000000
  70
    32
  0
VERTEX
  8
AM_0
  5
1E74E
 10
389.870
 20
390.979
 30
0.000000
  70
    32
  0
VERTEX
  8
AM_0
  5
1E74F
 10
389.803
 20
390.026
 30
0.000000
  70
    32
  0
VERTEX
  8
AM_0
  5
1E750
 10
389.736
 20
389.072
 30
0.000000
  70
    32
  0
VERTEX
  8
AM_0
  5
1E751
 10
389.671
 20
388.118
 30
0.000000
  70
    32
  0
VERTEX
  8
AM_0
  5
1E752
 10
389.607
 20
387.164
 30
0.000000
  70
    32
  0
VERTEX
  8
AM_0
  5
1E753
 10
389.544
 20
386.210
 30
0.000000
  70
    32
  0
VERTEX
  8
AM_0
  5
1E754
 10
389.482
 20
385.255
 30
0.000000
  70
    32
  0
VERTEX
  8
AM_0
  5
1E755
 10
389.421
 20
384.301
 30
0.000000
  70
    32
  0
VERTEX
  8
AM_0
  5
1E756
 10
389.361
 20
383.347
 30
0.000000
  70
    32
  0
VERTEX
  8
AM_0
  5
1E757
 10
389.302
 20
382.392
 30
0.000000
  70
    32
  0
VERTEX
  8
AM_0
  5
1E758
 10
389.245
 20
381.438
 30
0.000000
  70
    32
  0
VERTEX
  8
AM_0
  5
1E759
 10
389.189
 20
380.483
 30
0.000000
  70
    32
  0
VERTEX
  8
AM_0
  5
1E75A
 10
389.133
 20
379.529
 30
0.000000
  70
    32
  0
VERTEX
  8
AM_0
  5
1E75B
 10
389.079
 20
378.574
 30
0.000000
  70
    32
  0
VERTEX
  8
AM_0
  5
1E75C
 10
389.026
 20
377.619
 30
0.000000
  70
    32
  0
VERTEX
  8
AM_0
  5
1E75D
 10
388.974
 20
376.665
 30
0.000000
  70
    32
  0
VERTEX
  8
AM_0
  5
1E75E
 10
388.923
 20
375.710
 30
0.000000
  70
    32
  0
VERTEX
  8
AM_0
  5
1E75F
 10
388.874
 20
374.755
 30
0.000000
  70
    32
  0
VERTEX
  8
AM_0
  5
1E760
 10
388.825
 20
373.800
 30
0.000000
  70
    32
  0
VERTEX
  8
AM_0
  5
1E761
 10
388.778
 20
372.845
 30
0.000000
  70
    32
  0
VERTEX
  8
AM_0
  5
1E762
 10
388.731
 20
371.890
 30
0.000000
  70
    32
  0
VERTEX
  8
AM_0
  5
1E763
 10
388.686
 20
370.935
 30
0.000000
  70
    32
  0
VERTEX
  8
AM_0
  5
1E764
 10
388.642
 20
369.980
 30
0.000000
  70
    32
  0
VERTEX
  8
AM_0
  5
1E765
 10
388.599
 20
369.024
 30
0.000000
  70
    32
  0
VERTEX
  8
AM_0
  5
1E766
 10
388.557
 20
368.069
 30
0.000000
  70
    32
  0
VERTEX
  8
AM_0
  5
1E767
 10
388.516
 20
367.114
 30
0.000000
  70
    32
  0
VERTEX
  8
AM_0
  5
1E768
 10
388.477
 20
366.158
 30
0.000000
  70
    32
  0
VERTEX
  8
AM_0
  5
1E769
 10
388.438
 20
365.203
 30
0.000000
  70
    32
  0
VERTEX
  8
AM_0
  5
1E76A
 10
388.401
 20
364.247
 30
0.000000
  70
    32
  0
VERTEX
  8
AM_0
  5
1E76B
 10
388.364
 20
363.292
 30
0.000000
  70
    32
  0
VERTEX
  8
AM_0
  5
1E76C
 10
388.329
 20
362.336
 30
0.000000
  70
    32
  0
VERTEX
  8
AM_0
  5
1E76D
 10
388.295
 20
361.381
 30
0.000000
  70
    32
  0
VERTEX
  8
AM_0
  5
1E76E
 10
388.262
 20
360.425
 30
0.000000
  70
    32
  0
VERTEX
  8
AM_0
  5
1E76F
 10
388.230
 20
359.470
 30
0.000000
  70
    32
  0
VERTEX
  8
AM_0
  5
1E770
 10
388.199
 20
358.514
 30
0.000000
  70
    32
  0
VERTEX
  8
AM_0
  5
1E771
 10
388.170
 20
357.558
 30
0.000000
  70
    32
  0
VERTEX
  8
AM_0
  5
1E772
 10
388.141
 20
356.602
 30
0.000000
  70
    32
  0
VERTEX
  8
AM_0
  5
1E773
 10
388.114
 20
355.647
 30
0.000000
  70
    32
  0
VERTEX
  8
AM_0
  5
1E774
 10
388.088
 20
354.691
 30
0.000000
  70
    32
  0
VERTEX
  8
AM_0
  5
1E775
 10
388.063
 20
353.735
 30
0.000000
  70
    32
  0
VERTEX
  8
AM_0
  5
1E776
 10
388.039
 20
352.779
 30
0.000000
  70
    32
  0
VERTEX
  8
AM_0
  5
1E777
 10
388.016
 20
351.823
 30
0.000000
  70
    32
  0
VERTEX
  8
AM_0
  5
1E778
 10
387.994
 20
350.867
 30
0.000000
  70
    32
  0
VERTEX
  8
AM_0
  5
1E779
 10
387.973
 20
349.911
 30
0.000000
  70
    32
  0
VERTEX
  8
AM_0
  5
1E77A
 10
387.954
 20
348.955
 30
0.000000
  70
    32
  0
VERTEX
  8
AM_0
  5
1E77B
 10
387.935
 20
347.999
 30
0.000000
  70
    32
  0
VERTEX
  8
AM_0
  5
1E77C
 10
387.918
 20
347.043
 30
0.000000
  70
    32
  0
VERTEX
  8
AM_0
  5
1E77D
 10
387.902
 20
346.087
 30
0.000000
  70
    32
  0
VERTEX
  8
AM_0
  5
1E77E
 10
387.887
 20
345.131
 30
0.000000
  70
    32
  0
VERTEX
  8
AM_0
  5
1E77F
 10
387.873
 20
344.175
 30
0.000000
  70
    32
  0
VERTEX
  8
AM_0
  5
1E780
 10
387.860
 20
343.219
 30
0.000000
  70
    32
  0
VERTEX
  8
AM_0
  5
1E781
 10
387.848
 20
342.263
 30
0.000000
  70
    32
  0
VERTEX
  8
AM_0
  5
1E782
 10
387.838
 20
341.306
 30
0.000000
  70
    32
  0
VERTEX
  8
AM_0
  5
1E783
 10
387.828
 20
340.350
 30
0.000000
  70
    32
  0
VERTEX
  8
AM_0
  5
1E784
 10
387.820
 20
339.394
 30
0.000000
  70
    32
  0
VERTEX
  8
AM_0
  5
1E785
 10
387.812
 20
338.438
 30
0.000000
  70
    32
  0
VERTEX
  8
AM_0
  5
1E786
 10
387.806
 20
337.482
 30
0.000000
  70
    32
  0
VERTEX
  8
AM_0
  5
1E787
 10
387.801
 20
336.526
 30
0.000000
  70
    32
  0
VERTEX
  8
AM_0
  5
1E788
 10
387.797
 20
335.569
 30
0.000000
  70
    32
  0
VERTEX
  8
AM_0
  5
1E789
 10
387.794
 20
334.613
 30
0.000000
  70
    32
  0
VERTEX
  8
AM_0
  5
1E78A
 10
387.793
 20
333.657
 30
0.000000
  70
    32
  0
VERTEX
  8
AM_0
  5
1E78B
 10
387.792
 20
332.701
 30
0.000000
  70
    32
  0
VERTEX
  8
AM_0
  5
1E78C
 10
387.793
 20
331.745
 30
0.000000
  70
    32
  0
VERTEX
  8
AM_0
  5
1E78D
 10
387.794
 20
330.789
 30
0.000000
  70
    32
  0
VERTEX
  8
AM_0
  5
1E78E
 10
387.797
 20
329.832
 30
0.000000
  70
    32
  0
VERTEX
  8
AM_0
  5
1E78F
 10
387.801
 20
328.876
 30
0.000000
  70
    32
  0
VERTEX
  8
AM_0
  5
1E790
 10
387.806
 20
327.920
 30
0.000000
  70
    32
  0
VERTEX
  8
AM_0
  5
1E791
 10
387.812
 20
326.964
 30
0.000000
  70
    32
  0
VERTEX
  8
AM_0
  5
1E792
 10
387.820
 20
326.008
 30
0.000000
  70
    32
  0
VERTEX
  8
AM_0
  5
1E793
 10
387.828
 20
325.051
 30
0.000000
  70
    32
  0
VERTEX
  8
AM_0
  5
1E794
 10
387.838
 20
324.095
 30
0.000000
  70
    32
  0
VERTEX
  8
AM_0
  5
1E795
 10
387.848
 20
323.139
 30
0.000000
  70
    32
  0
VERTEX
  8
AM_0
  5
1E796
 10
387.860
 20
322.183
 30
0.000000
  70
    32
  0
VERTEX
  8
AM_0
  5
1E797
 10
387.873
 20
321.227
 30
0.000000
  70
    32
  0
VERTEX
  8
AM_0
  5
1E798
 10
387.887
 20
320.271
 30
0.000000
  70
    32
  0
VERTEX
  8
AM_0
  5
1E799
 10
387.902
 20
319.315
 30
0.000000
  70
    32
  0
VERTEX
  8
AM_0
  5
1E79A
 10
387.918
 20
318.359
 30
0.000000
  70
    32
  0
VERTEX
  8
AM_0
  5
1E79B
 10
387.935
 20
317.403
 30
0.000000
  70
    32
  0
VERTEX
  8
AM_0
  5
1E79C
 10
387.954
 20
316.447
 30
0.000000
  70
    32
  0
VERTEX
  8
AM_0
  5
1E79D
 10
387.973
 20
315.491
 30
0.000000
  70
    32
  0
VERTEX
  8
AM_0
  5
1E79E
 10
387.994
 20
314.535
 30
0.000000
  70
    32
  0
VERTEX
  8
AM_0
  5
1E79F
 10
388.016
 20
313.579
 30
0.000000
  70
    32
  0
VERTEX
  8
AM_0
  5
1E7A0
 10
388.039
 20
312.623
 30
0.000000
  70
    32
  0
VERTEX
  8
AM_0
  5
1E7A1
 10
388.063
 20
311.667
 30
0.000000
  70
    32
  0
VERTEX
  8
AM_0
  5
1E7A2
 10
388.088
 20
310.711
 30
0.000000
  70
    32
  0
VERTEX
  8
AM_0
  5
1E7A3
 10
388.114
 20
309.755
 30
0.000000
  70
    32
  0
VERTEX
  8
AM_0
  5
1E7A4
 10
388.141
 20
308.799
 30
0.000000
  70
    32
  0
VERTEX
  8
AM_0
  5
1E7A5
 10
388.170
 20
307.844
 30
0.000000
  70
    32
  0
VERTEX
  8
AM_0
  5
1E7A6
 10
388.199
 20
306.888
 30
0.000000
  70
    32
  0
VERTEX
  8
AM_0
  5
1E7A7
 10
388.230
 20
305.932
 30
0.000000
  70
    32
  0
VERTEX
  8
AM_0
  5
1E7A8
 10
388.262
 20
304.977
 30
0.000000
  70
    32
  0
VERTEX
  8
AM_0
  5
1E7A9
 10
388.295
 20
304.021
 30
0.000000
  70
    32
  0
VERTEX
  8
AM_0
  5
1E7AA
 10
388.329
 20
303.065
 30
0.000000
  70
    32
  0
VERTEX
  8
AM_0
  5
1E7AB
 10
388.364
 20
302.110
 30
0.000000
  70
    32
  0
VERTEX
  8
AM_0
  5
1E7AC
 10
388.401
 20
301.154
 30
0.000000
  70
    32
  0
VERTEX
  8
AM_0
  5
1E7AD
 10
388.438
 20
300.199
 30
0.000000
  70
    32
  0
VERTEX
  8
AM_0
  5
1E7AE
 10
388.477
 20
299.243
 30
0.000000
  70
    32
  0
VERTEX
  8
AM_0
  5
1E7AF
 10
388.516
 20
298.288
 30
0.000000
  70
    32
  0
VERTEX
  8
AM_0
  5
1E7B0
 10
388.557
 20
297.333
 30
0.000000
  70
    32
  0
VERTEX
  8
AM_0
  5
1E7B1
 10
388.599
 20
296.377
 30
0.000000
  70
    32
  0
VERTEX
  8
AM_0
  5
1E7B2
 10
388.642
 20
295.422
 30
0.000000
  70
    32
  0
VERTEX
  8
AM_0
  5
1E7B3
 10
388.686
 20
294.467
 30
0.000000
  70
    32
  0
VERTEX
  8
AM_0
  5
1E7B4
 10
388.731
 20
293.512
 30
0.000000
  70
    32
  0
VERTEX
  8
AM_0
  5
1E7B5
 10
388.778
 20
292.557
 30
0.000000
  70
    32
  0
VERTEX
  8
AM_0
  5
1E7B6
 10
388.825
 20
291.602
 30
0.000000
  70
    32
  0
VERTEX
  8
AM_0
  5
1E7B7
 10
388.874
 20
290.647
 30
0.000000
  70
    32
  0
VERTEX
  8
AM_0
  5
1E7B8
 10
388.923
 20
289.692
 30
0.000000
  70
    32
  0
VERTEX
  8
AM_0
  5
1E7B9
 10
388.974
 20
288.737
 30
0.000000
  70
    32
  0
VERTEX
  8
AM_0
  5
1E7BA
 10
389.026
 20
287.782
 30
0.000000
  70
    32
  0
VERTEX
  8
AM_0
  5
1E7BB
 10
389.079
 20
286.828
 30
0.000000
  70
    32
  0
VERTEX
  8
AM_0
  5
1E7BC
 10
389.133
 20
285.873
 30
0.000000
  70
    32
  0
VERTEX
  8
AM_0
  5
1E7BD
 10
389.189
 20
284.918
 30
0.000000
  70
    32
  0
VERTEX
  8
AM_0
  5
1E7BE
 10
389.245
 20
283.964
 30
0.000000
  70
    32
  0
VERTEX
  8
AM_0
  5
1E7BF
 10
389.302
 20
283.009
 30
0.000000
  70
    32
  0
VERTEX
  8
AM_0
  5
1E7C0
 10
389.361
 20
282.055
 30
0.000000
  70
    32
  0
VERTEX
  8
AM_0
  5
1E7C1
 10
389.421
 20
281.101
 30
0.000000
  70
    32
  0
VERTEX
  8
AM_0
  5
1E7C2
 10
389.482
 20
280.146
 30
0.000000
  70
    32
  0
VERTEX
  8
AM_0
  5
1E7C3
 10
389.544
 20
279.192
 30
0.000000
  70
    32
  0
VERTEX
  8
AM_0
  5
1E7C4
 10
389.607
 20
278.238
 30
0.000000
  70
    32
  0
VERTEX
  8
AM_0
  5
1E7C5
 10
389.671
 20
277.284
 30
0.000000
  70
    32
  0
VERTEX
  8
AM_0
  5
1E7C6
 10
389.736
 20
276.330
 30
0.000000
  70
    32
  0
VERTEX
  8
AM_0
  5
1E7C7
 10
389.803
 20
275.376
 30
0.000000
  70
    32
  0
VERTEX
  8
AM_0
  5
1E7C8
 10
389.870
 20
274.422
 30
0.000000
  70
    32
  0
VERTEX
  8
AM_0
  5
1E7C9
 10
389.939
 20
273.469
 30
0.000000
  70
    32
  0
VERTEX
  8
AM_0
  5
1E7CA
 10
390.009
 20
272.515
 30
0.000000
  70
    32
  0
VERTEX
  8
AM_0
  5
1E7CB
 10
390.080
 20
271.562
 30
0.000000
  70
    32
  0
SEQEND
  8
AM_0
  5
1E7CC
  0
LINE
  5
1A1BA
  8
AM_0
 10
363.0523257067772
 20
406.20236935700473
 30
0.0
 11
363.05232570677742
 21
332.70089935700469
 31
0.0
  0
LINE
  5
1A1BB
  8
AM_0
 10
377.05232571097707
 20
403.20229481260071
 30
0.0
 11
377.05232571097741
 21
332.70089935700469
 31
0.0
  0
LINE
  5
1A1E1
  8
AM_0
 10
378.02094762808377
 20
260.69947265559711
 30
0.0
 11
399.58566617932769
 21
260.69949880113921
 31
0.0
  0
LINE
  5
1A262
  8
AM_0
 10
363.0523257067772
 20
259.19942935700448
 30
0.0
 11
363.05232570677742
 21
332.70089935700469
 31
0.0
  0
LINE
  5
1A263
  8
AM_0
 10
377.05232571097707
 20
262.199503901409
 30
0.0
 11
377.05232571097741
 21
332.70089935700469
 31
0.0
  0
LINE
  5
1A27C
  8
AM_0
 10
363.05233178645091
 20
259.19942450731639
 30
0.0
 11
374.05233099927108
 21
259.1994439014137
 31
0.0
  0
POLYLINE
  5
1A27D
  8
AM_0
 10
374.05233099927085
 20
259.19944390141359
 30
0.0
 66
     1
 70
     8
  0
VERTEX
  8
AM_0
  5
1E7CD
 10
374.052
 20
259.199
 30
0.000000
  70
    32
  0
VERTEX
  8
AM_0
  5
1E7CE
 10
374.069
 20
259.199
 30
0.000000
  70
    32
  0
VERTEX
  8
AM_0
  5
1E7CF
 10
374.086
 20
259.200
 30
0.000000
  70
    32
  0
VERTEX
  8
AM_0
  5
1E7D0
 10
374.103
 20
259.200
 30
0.000000
  70
    32
  0
VERTEX
  8
AM_0
  5
1E7D1
 10
374.120
 20
259.200
 30
0.000000
  70
    32
  0
VERTEX
  8
AM_0
  5
1E7D2
 10
374.137
 20
259.201
 30
0.000000
  70
    32
  0
VERTEX
  8
AM_0
  5
1E7D3
 10
374.154
 20
259.201
 30
0.000000
  70
    32
  0
VERTEX
  8
AM_0
  5
1E7D4
 10
374.171
 20
259.202
 30
0.000000
  70
    32
  0
VERTEX
  8
AM_0
  5
1E7D5
 10
374.188
 20
259.203
 30
0.000000
  70
    32
  0
VERTEX
  8
AM_0
  5
1E7D6
 10
374.205
 20
259.203
 30
0.000000
  70
    32
  0
VERTEX
  8
AM_0
  5
1E7D7
 10
374.222
 20
259.204
 30
0.000000
  70
    32
  0
VERTEX
  8
AM_0
  5
1E7D8
 10
374.239
 20
259.205
 30
0.000000
  70
    32
  0
VERTEX
  8
AM_0
  5
1E7D9
 10
374.255
 20
259.206
 30
0.000000
  70
    32
  0
VERTEX
  8
AM_0
  5
1E7DA
 10
374.272
 20
259.208
 30
0.000000
  70
    32
  0
VERTEX
  8
AM_0
  5
1E7DB
 10
374.289
 20
259.209
 30
0.000000
  70
    32
  0
VERTEX
  8
AM_0
  5
1E7DC
 10
374.306
 20
259.210
 30
0.000000
  70
    32
  0
VERTEX
  8
AM_0
  5
1E7DD
 10
374.323
 20
259.212
 30
0.000000
  70
    32
  0
VERTEX
  8
AM_0
  5
1E7DE
 10
374.340
 20
259.213
 30
0.000000
  70
    32
  0
VERTEX
  8
AM_0
  5
1E7DF
 10
374.357
 20
259.215
 30
0.000000
  70
    32
  0
VERTEX
  8
AM_0
  5
1E7E0
 10
374.374
 20
259.217
 30
0.000000
  70
    32
  0
VERTEX
  8
AM_0
  5
1E7E1
 10
374.390
 20
259.219
 30
0.000000
  70
    32
  0
VERTEX
  8
AM_0
  5
1E7E2
 10
374.407
 20
259.221
 30
0.000000
  70
    32
  0
VERTEX
  8
AM_0
  5
1E7E3
 10
374.424
 20
259.223
 30
0.000000
  70
    32
  0
VERTEX
  8
AM_0
  5
1E7E4
 10
374.441
 20
259.225
 30
0.000000
  70
    32
  0
VERTEX
  8
AM_0
  5
1E7E5
 10
374.458
 20
259.227
 30
0.000000
  70
    32
  0
VERTEX
  8
AM_0
  5
1E7E6
 10
374.474
 20
259.229
 30
0.000000
  70
    32
  0
VERTEX
  8
AM_0
  5
1E7E7
 10
374.491
 20
259.232
 30
0.000000
  70
    32
  0
VERTEX
  8
AM_0
  5
1E7E8
 10
374.508
 20
259.234
 30
0.000000
  70
    32
  0
VERTEX
  8
AM_0
  5
1E7E9
 10
374.525
 20
259.237
 30
0.000000
  70
    32
  0
VERTEX
  8
AM_0
  5
1E7EA
 10
374.541
 20
259.240
 30
0.000000
  70
    32
  0
VERTEX
  8
AM_0
  5
1E7EB
 10
374.558
 20
259.242
 30
0.000000
  70
    32
  0
VERTEX
  8
AM_0
  5
1E7EC
 10
374.575
 20
259.245
 30
0.000000
  70
    32
  0
VERTEX
  8
AM_0
  5
1E7ED
 10
374.591
 20
259.248
 30
0.000000
  70
    32
  0
VERTEX
  8
AM_0
  5
1E7EE
 10
374.608
 20
259.251
 30
0.000000
  70
    32
  0
VERTEX
  8
AM_0
  5
1E7EF
 10
374.625
 20
259.255
 30
0.000000
  70
    32
  0
VERTEX
  8
AM_0
  5
1E7F0
 10
374.641
 20
259.258
 30
0.000000
  70
    32
  0
VERTEX
  8
AM_0
  5
1E7F1
 10
374.658
 20
259.261
 30
0.000000
  70
    32
  0
VERTEX
  8
AM_0
  5
1E7F2
 10
374.675
 20
259.265
 30
0.000000
  70
    32
  0
VERTEX
  8
AM_0
  5
1E7F3
 10
374.691
 20
259.268
 30
0.000000
  70
    32
  0
VERTEX
  8
AM_0
  5
1E7F4
 10
374.708
 20
259.272
 30
0.000000
  70
    32
  0
VERTEX
  8
AM_0
  5
1E7F5
 10
374.724
 20
259.276
 30
0.000000
  70
    32
  0
VERTEX
  8
AM_0
  5
1E7F6
 10
374.741
 20
259.279
 30
0.000000
  70
    32
  0
VERTEX
  8
AM_0
  5
1E7F7
 10
374.757
 20
259.283
 30
0.000000
  70
    32
  0
VERTEX
  8
AM_0
  5
1E7F8
 10
374.774
 20
259.287
 30
0.000000
  70
    32
  0
VERTEX
  8
AM_0
  5
1E7F9
 10
374.790
 20
259.292
 30
0.000000
  70
    32
  0
VERTEX
  8
AM_0
  5
1E7FA
 10
374.806
 20
259.296
 30
0.000000
  70
    32
  0
VERTEX
  8
AM_0
  5
1E7FB
 10
374.823
 20
259.300
 30
0.000000
  70
    32
  0
VERTEX
  8
AM_0
  5
1E7FC
 10
374.839
 20
259.304
 30
0.000000
  70
    32
  0
VERTEX
  8
AM_0
  5
1E7FD
 10
374.855
 20
259.309
 30
0.000000
  70
    32
  0
VERTEX
  8
AM_0
  5
1E7FE
 10
374.872
 20
259.314
 30
0.000000
  70
    32
  0
VERTEX
  8
AM_0
  5
1E7FF
 10
374.888
 20
259.318
 30
0.000000
  70
    32
  0
VERTEX
  8
AM_0
  5
1E800
 10
374.904
 20
259.323
 30
0.000000
  70
    32
  0
VERTEX
  8
AM_0
  5
1E801
 10
374.921
 20
259.328
 30
0.000000
  70
    32
  0
VERTEX
  8
AM_0
  5
1E802
 10
374.937
 20
259.333
 30
0.000000
  70
    32
  0
VERTEX
  8
AM_0
  5
1E803
 10
374.953
 20
259.338
 30
0.000000
  70
    32
  0
VERTEX
  8
AM_0
  5
1E804
 10
374.969
 20
259.343
 30
0.000000
  70
    32
  0
VERTEX
  8
AM_0
  5
1E805
 10
374.985
 20
259.348
 30
0.000000
  70
    32
  0
VERTEX
  8
AM_0
  5
1E806
 10
375.001
 20
259.353
 30
0.000000
  70
    32
  0
VERTEX
  8
AM_0
  5
1E807
 10
375.017
 20
259.359
 30
0.000000
  70
    32
  0
VERTEX
  8
AM_0
  5
1E808
 10
375.033
 20
259.364
 30
0.000000
  70
    32
  0
VERTEX
  8
AM_0
  5
1E809
 10
375.049
 20
259.370
 30
0.000000
  70
    32
  0
VERTEX
  8
AM_0
  5
1E80A
 10
375.065
 20
259.376
 30
0.000000
  70
    32
  0
VERTEX
  8
AM_0
  5
1E80B
 10
375.081
 20
259.381
 30
0.000000
  70
    32
  0
VERTEX
  8
AM_0
  5
1E80C
 10
375.097
 20
259.387
 30
0.000000
  70
    32
  0
VERTEX
  8
AM_0
  5
1E80D
 10
375.113
 20
259.393
 30
0.000000
  70
    32
  0
VERTEX
  8
AM_0
  5
1E80E
 10
375.129
 20
259.399
 30
0.000000
  70
    32
  0
VERTEX
  8
AM_0
  5
1E80F
 10
375.145
 20
259.405
 30
0.000000
  70
    32
  0
VERTEX
  8
AM_0
  5
1E810
 10
375.160
 20
259.412
 30
0.000000
  70
    32
  0
VERTEX
  8
AM_0
  5
1E811
 10
375.176
 20
259.418
 30
0.000000
  70
    32
  0
VERTEX
  8
AM_0
  5
1E812
 10
375.192
 20
259.424
 30
0.000000
  70
    32
  0
VERTEX
  8
AM_0
  5
1E813
 10
375.207
 20
259.431
 30
0.000000
  70
    32
  0
VERTEX
  8
AM_0
  5
1E814
 10
375.223
 20
259.437
 30
0.000000
  70
    32
  0
VERTEX
  8
AM_0
  5
1E815
 10
375.239
 20
259.444
 30
0.000000
  70
    32
  0
VERTEX
  8
AM_0
  5
1E816
 10
375.254
 20
259.451
 30
0.000000
  70
    32
  0
VERTEX
  8
AM_0
  5
1E817
 10
375.270
 20
259.458
 30
0.000000
  70
    32
  0
VERTEX
  8
AM_0
  5
1E818
 10
375.285
 20
259.464
 30
0.000000
  70
    32
  0
VERTEX
  8
AM_0
  5
1E819
 10
375.301
 20
259.471
 30
0.000000
  70
    32
  0
VERTEX
  8
AM_0
  5
1E81A
 10
375.316
 20
259.479
 30
0.000000
  70
    32
  0
VERTEX
  8
AM_0
  5
1E81B
 10
375.331
 20
259.486
 30
0.000000
  70
    32
  0
VERTEX
  8
AM_0
  5
1E81C
 10
375.347
 20
259.493
 30
0.000000
  70
    32
  0
VERTEX
  8
AM_0
  5
1E81D
 10
375.362
 20
259.500
 30
0.000000
  70
    32
  0
VERTEX
  8
AM_0
  5
1E81E
 10
375.377
 20
259.508
 30
0.000000
  70
    32
  0
VERTEX
  8
AM_0
  5
1E81F
 10
375.392
 20
259.515
 30
0.000000
  70
    32
  0
VERTEX
  8
AM_0
  5
1E820
 10
375.407
 20
259.523
 30
0.000000
  70
    32
  0
VERTEX
  8
AM_0
  5
1E821
 10
375.422
 20
259.531
 30
0.000000
  70
    32
  0
VERTEX
  8
AM_0
  5
1E822
 10
375.438
 20
259.538
 30
0.000000
  70
    32
  0
VERTEX
  8
AM_0
  5
1E823
 10
375.453
 20
259.546
 30
0.000000
  70
    32
  0
VERTEX
  8
AM_0
  5
1E824
 10
375.467
 20
259.554
 30
0.000000
  70
    32
  0
VERTEX
  8
AM_0
  5
1E825
 10
375.482
 20
259.562
 30
0.000000
  70
    32
  0
VERTEX
  8
AM_0
  5
1E826
 10
375.497
 20
259.570
 30
0.000000
  70
    32
  0
VERTEX
  8
AM_0
  5
1E827
 10
375.512
 20
259.579
 30
0.000000
  70
    32
  0
VERTEX
  8
AM_0
  5
1E828
 10
375.527
 20
259.587
 30
0.000000
  70
    32
  0
VERTEX
  8
AM_0
  5
1E829
 10
375.542
 20
259.595
 30
0.000000
  70
    32
  0
VERTEX
  8
AM_0
  5
1E82A
 10
375.556
 20
259.604
 30
0.000000
  70
    32
  0
VERTEX
  8
AM_0
  5
1E82B
 10
375.571
 20
259.612
 30
0.000000
  70
    32
  0
VERTEX
  8
AM_0
  5
1E82C
 10
375.585
 20
259.621
 30
0.000000
  70
    32
  0
VERTEX
  8
AM_0
  5
1E82D
 10
375.600
 20
259.629
 30
0.000000
  70
    32
  0
VERTEX
  8
AM_0
  5
1E82E
 10
375.614
 20
259.638
 30
0.000000
  70
    32
  0
VERTEX
  8
AM_0
  5
1E82F
 10
375.629
 20
259.647
 30
0.000000
  70
    32
  0
VERTEX
  8
AM_0
  5
1E830
 10
375.643
 20
259.656
 30
0.000000
  70
    32
  0
VERTEX
  8
AM_0
  5
1E831
 10
375.658
 20
259.665
 30
0.000000
  70
    32
  0
VERTEX
  8
AM_0
  5
1E832
 10
375.672
 20
259.674
 30
0.000000
  70
    32
  0
VERTEX
  8
AM_0
  5
1E833
 10
375.686
 20
259.683
 30
0.000000
  70
    32
  0
VERTEX
  8
AM_0
  5
1E834
 10
375.700
 20
259.693
 30
0.000000
  70
    32
  0
VERTEX
  8
AM_0
  5
1E835
 10
375.714
 20
259.702
 30
0.000000
  70
    32
  0
VERTEX
  8
AM_0
  5
1E836
 10
375.729
 20
259.711
 30
0.000000
  70
    32
  0
VERTEX
  8
AM_0
  5
1E837
 10
375.743
 20
259.721
 30
0.000000
  70
    32
  0
VERTEX
  8
AM_0
  5
1E838
 10
375.757
 20
259.731
 30
0.000000
  70
    32
  0
VERTEX
  8
AM_0
  5
1E839
 10
375.770
 20
259.740
 30
0.000000
  70
    32
  0
VERTEX
  8
AM_0
  5
1E83A
 10
375.784
 20
259.750
 30
0.000000
  70
    32
  0
VERTEX
  8
AM_0
  5
1E83B
 10
375.798
 20
259.760
 30
0.000000
  70
    32
  0
VERTEX
  8
AM_0
  5
1E83C
 10
375.812
 20
259.770
 30
0.000000
  70
    32
  0
VERTEX
  8
AM_0
  5
1E83D
 10
375.826
 20
259.780
 30
0.000000
  70
    32
  0
VERTEX
  8
AM_0
  5
1E83E
 10
375.839
 20
259.790
 30
0.000000
  70
    32
  0
VERTEX
  8
AM_0
  5
1E83F
 10
375.853
 20
259.800
 30
0.000000
  70
    32
  0
VERTEX
  8
AM_0
  5
1E840
 10
375.866
 20
259.810
 30
0.000000
  70
    32
  0
VERTEX
  8
AM_0
  5
1E841
 10
375.880
 20
259.820
 30
0.000000
  70
    32
  0
VERTEX
  8
AM_0
  5
1E842
 10
375.893
 20
259.831
 30
0.000000
  70
    32
  0
VERTEX
  8
AM_0
  5
1E843
 10
375.907
 20
259.841
 30
0.000000
  70
    32
  0
VERTEX
  8
AM_0
  5
1E844
 10
375.920
 20
259.852
 30
0.000000
  70
    32
  0
VERTEX
  8
AM_0
  5
1E845
 10
375.933
 20
259.862
 30
0.000000
  70
    32
  0
VERTEX
  8
AM_0
  5
1E846
 10
375.946
 20
259.873
 30
0.000000
  70
    32
  0
VERTEX
  8
AM_0
  5
1E847
 10
375.959
 20
259.884
 30
0.000000
  70
    32
  0
VERTEX
  8
AM_0
  5
1E848
 10
375.972
 20
259.894
 30
0.000000
  70
    32
  0
VERTEX
  8
AM_0
  5
1E849
 10
375.985
 20
259.905
 30
0.000000
  70
    32
  0
VERTEX
  8
AM_0
  5
1E84A
 10
375.998
 20
259.916
 30
0.000000
  70
    32
  0
VERTEX
  8
AM_0
  5
1E84B
 10
376.011
 20
259.927
 30
0.000000
  70
    32
  0
VERTEX
  8
AM_0
  5
1E84C
 10
376.024
 20
259.938
 30
0.000000
  70
    32
  0
VERTEX
  8
AM_0
  5
1E84D
 10
376.037
 20
259.949
 30
0.000000
  70
    32
  0
SEQEND
  8
AM_0
  5
1E84E
  0
POLYLINE
  5
1A27E
  8
AM_0
 10
378.02094762808372
 20
260.69947265559722
 30
0.0
 66
     1
 70
     8
  0
VERTEX
  8
AM_0
  5
1E84F
 10
378.021
 20
260.699
 30
0.000000
  70
    32
  0
VERTEX
  8
AM_0
  5
1E850
 10
378.004
 20
260.699
 30
0.000000
  70
    32
  0
VERTEX
  8
AM_0
  5
1E851
 10
377.987
 20
260.699
 30
0.000000
  70
    32
  0
VERTEX
  8
AM_0
  5
1E852
 10
377.970
 20
260.699
 30
0.000000
  70
    32
  0
VERTEX
  8
AM_0
  5
1E853
 10
377.953
 20
260.699
 30
0.000000
  70
    32
  0
VERTEX
  8
AM_0
  5
1E854
 10
377.936
 20
260.698
 30
0.000000
  70
    32
  0
VERTEX
  8
AM_0
  5
1E855
 10
377.919
 20
260.698
 30
0.000000
  70
    32
  0
VERTEX
  8
AM_0
  5
1E856
 10
377.902
 20
260.697
 30
0.000000
  70
    32
  0
VERTEX
  8
AM_0
  5
1E857
 10
377.885
 20
260.696
 30
0.000000
  70
    32
  0
VERTEX
  8
AM_0
  5
1E858
 10
377.869
 20
260.696
 30
0.000000
  70
    32
  0
VERTEX
  8
AM_0
  5
1E859
 10
377.852
 20
260.695
 30
0.000000
  70
    32
  0
VERTEX
  8
AM_0
  5
1E85A
 10
377.835
 20
260.694
 30
0.000000
  70
    32
  0
VERTEX
  8
AM_0
  5
1E85B
 10
377.818
 20
260.693
 30
0.000000
  70
    32
  0
VERTEX
  8
AM_0
  5
1E85C
 10
377.801
 20
260.691
 30
0.000000
  70
    32
  0
VERTEX
  8
AM_0
  5
1E85D
 10
377.784
 20
260.690
 30
0.000000
  70
    32
  0
VERTEX
  8
AM_0
  5
1E85E
 10
377.767
 20
260.689
 30
0.000000
  70
    32
  0
VERTEX
  8
AM_0
  5
1E85F
 10
377.750
 20
260.687
 30
0.000000
  70
    32
  0
VERTEX
  8
AM_0
  5
1E860
 10
377.733
 20
260.686
 30
0.000000
  70
    32
  0
VERTEX
  8
AM_0
  5
1E861
 10
377.717
 20
260.684
 30
0.000000
  70
    32
  0
VERTEX
  8
AM_0
  5
1E862
 10
377.700
 20
260.682
 30
0.000000
  70
    32
  0
VERTEX
  8
AM_0
  5
1E863
 10
377.683
 20
260.680
 30
0.000000
  70
    32
  0
VERTEX
  8
AM_0
  5
1E864
 10
377.666
 20
260.678
 30
0.000000
  70
    32
  0
VERTEX
  8
AM_0
  5
1E865
 10
377.649
 20
260.676
 30
0.000000
  70
    32
  0
VERTEX
  8
AM_0
  5
1E866
 10
377.632
 20
260.674
 30
0.000000
  70
    32
  0
VERTEX
  8
AM_0
  5
1E867
 10
377.616
 20
260.672
 30
0.000000
  70
    32
  0
VERTEX
  8
AM_0
  5
1E868
 10
377.599
 20
260.670
 30
0.000000
  70
    32
  0
VERTEX
  8
AM_0
  5
1E869
 10
377.582
 20
260.667
 30
0.000000
  70
    32
  0
VERTEX
  8
AM_0
  5
1E86A
 10
377.565
 20
260.665
 30
0.000000
  70
    32
  0
VERTEX
  8
AM_0
  5
1E86B
 10
377.549
 20
260.662
 30
0.000000
  70
    32
  0
VERTEX
  8
AM_0
  5
1E86C
 10
377.532
 20
260.659
 30
0.000000
  70
    32
  0
VERTEX
  8
AM_0
  5
1E86D
 10
377.515
 20
260.657
 30
0.000000
  70
    32
  0
VERTEX
  8
AM_0
  5
1E86E
 10
377.499
 20
260.654
 30
0.000000
  70
    32
  0
VERTEX
  8
AM_0
  5
1E86F
 10
377.482
 20
260.651
 30
0.000000
  70
    32
  0
VERTEX
  8
AM_0
  5
1E870
 10
377.465
 20
260.648
 30
0.000000
  70
    32
  0
VERTEX
  8
AM_0
  5
1E871
 10
377.449
 20
260.644
 30
0.000000
  70
    32
  0
VERTEX
  8
AM_0
  5
1E872
 10
377.432
 20
260.641
 30
0.000000
  70
    32
  0
VERTEX
  8
AM_0
  5
1E873
 10
377.415
 20
260.638
 30
0.000000
  70
    32
  0
VERTEX
  8
AM_0
  5
1E874
 10
377.399
 20
260.634
 30
0.000000
  70
    32
  0
VERTEX
  8
AM_0
  5
1E875
 10
377.382
 20
260.631
 30
0.000000
  70
    32
  0
VERTEX
  8
AM_0
  5
1E876
 10
377.366
 20
260.627
 30
0.000000
  70
    32
  0
VERTEX
  8
AM_0
  5
1E877
 10
377.349
 20
260.623
 30
0.000000
  70
    32
  0
VERTEX
  8
AM_0
  5
1E878
 10
377.333
 20
260.619
 30
0.000000
  70
    32
  0
VERTEX
  8
AM_0
  5
1E879
 10
377.316
 20
260.616
 30
0.000000
  70
    32
  0
VERTEX
  8
AM_0
  5
1E87A
 10
377.300
 20
260.611
 30
0.000000
  70
    32
  0
VERTEX
  8
AM_0
  5
1E87B
 10
377.283
 20
260.607
 30
0.000000
  70
    32
  0
VERTEX
  8
AM_0
  5
1E87C
 10
377.267
 20
260.603
 30
0.000000
  70
    32
  0
VERTEX
  8
AM_0
  5
1E87D
 10
377.250
 20
260.599
 30
0.000000
  70
    32
  0
VERTEX
  8
AM_0
  5
1E87E
 10
377.234
 20
260.594
 30
0.000000
  70
    32
  0
VERTEX
  8
AM_0
  5
1E87F
 10
377.218
 20
260.590
 30
0.000000
  70
    32
  0
VERTEX
  8
AM_0
  5
1E880
 10
377.201
 20
260.585
 30
0.000000
  70
    32
  0
VERTEX
  8
AM_0
  5
1E881
 10
377.185
 20
260.581
 30
0.000000
  70
    32
  0
VERTEX
  8
AM_0
  5
1E882
 10
377.169
 20
260.576
 30
0.000000
  70
    32
  0
VERTEX
  8
AM_0
  5
1E883
 10
377.153
 20
260.571
 30
0.000000
  70
    32
  0
VERTEX
  8
AM_0
  5
1E884
 10
377.137
 20
260.566
 30
0.000000
  70
    32
  0
VERTEX
  8
AM_0
  5
1E885
 10
377.120
 20
260.561
 30
0.000000
  70
    32
  0
VERTEX
  8
AM_0
  5
1E886
 10
377.104
 20
260.556
 30
0.000000
  70
    32
  0
VERTEX
  8
AM_0
  5
1E887
 10
377.088
 20
260.551
 30
0.000000
  70
    32
  0
VERTEX
  8
AM_0
  5
1E888
 10
377.072
 20
260.545
 30
0.000000
  70
    32
  0
VERTEX
  8
AM_0
  5
1E889
 10
377.056
 20
260.540
 30
0.000000
  70
    32
  0
VERTEX
  8
AM_0
  5
1E88A
 10
377.040
 20
260.535
 30
0.000000
  70
    32
  0
VERTEX
  8
AM_0
  5
1E88B
 10
377.024
 20
260.529
 30
0.000000
  70
    32
  0
VERTEX
  8
AM_0
  5
1E88C
 10
377.008
 20
260.523
 30
0.000000
  70
    32
  0
VERTEX
  8
AM_0
  5
1E88D
 10
376.992
 20
260.518
 30
0.000000
  70
    32
  0
VERTEX
  8
AM_0
  5
1E88E
 10
376.976
 20
260.512
 30
0.000000
  70
    32
  0
VERTEX
  8
AM_0
  5
1E88F
 10
376.960
 20
260.506
 30
0.000000
  70
    32
  0
VERTEX
  8
AM_0
  5
1E890
 10
376.944
 20
260.500
 30
0.000000
  70
    32
  0
VERTEX
  8
AM_0
  5
1E891
 10
376.929
 20
260.494
 30
0.000000
  70
    32
  0
VERTEX
  8
AM_0
  5
1E892
 10
376.913
 20
260.487
 30
0.000000
  70
    32
  0
VERTEX
  8
AM_0
  5
1E893
 10
376.897
 20
260.481
 30
0.000000
  70
    32
  0
VERTEX
  8
AM_0
  5
1E894
 10
376.881
 20
260.475
 30
0.000000
  70
    32
  0
VERTEX
  8
AM_0
  5
1E895
 10
376.866
 20
260.468
 30
0.000000
  70
    32
  0
VERTEX
  8
AM_0
  5
1E896
 10
376.850
 20
260.462
 30
0.000000
  70
    32
  0
VERTEX
  8
AM_0
  5
1E897
 10
376.835
 20
260.455
 30
0.000000
  70
    32
  0
VERTEX
  8
AM_0
  5
1E898
 10
376.819
 20
260.448
 30
0.000000
  70
    32
  0
VERTEX
  8
AM_0
  5
1E899
 10
376.804
 20
260.441
 30
0.000000
  70
    32
  0
VERTEX
  8
AM_0
  5
1E89A
 10
376.788
 20
260.434
 30
0.000000
  70
    32
  0
VERTEX
  8
AM_0
  5
1E89B
 10
376.773
 20
260.427
 30
0.000000
  70
    32
  0
VERTEX
  8
AM_0
  5
1E89C
 10
376.757
 20
260.420
 30
0.000000
  70
    32
  0
VERTEX
  8
AM_0
  5
1E89D
 10
376.742
 20
260.413
 30
0.000000
  70
    32
  0
VERTEX
  8
AM_0
  5
1E89E
 10
376.727
 20
260.406
 30
0.000000
  70
    32
  0
VERTEX
  8
AM_0
  5
1E89F
 10
376.711
 20
260.399
 30
0.000000
  70
    32
  0
VERTEX
  8
AM_0
  5
1E8A0
 10
376.696
 20
260.391
 30
0.000000
  70
    32
  0
VERTEX
  8
AM_0
  5
1E8A1
 10
376.681
 20
260.384
 30
0.000000
  70
    32
  0
VERTEX
  8
AM_0
  5
1E8A2
 10
376.666
 20
260.376
 30
0.000000
  70
    32
  0
VERTEX
  8
AM_0
  5
1E8A3
 10
376.651
 20
260.368
 30
0.000000
  70
    32
  0
VERTEX
  8
AM_0
  5
1E8A4
 10
376.636
 20
260.361
 30
0.000000
  70
    32
  0
VERTEX
  8
AM_0
  5
1E8A5
 10
376.621
 20
260.353
 30
0.000000
  70
    32
  0
VERTEX
  8
AM_0
  5
1E8A6
 10
376.606
 20
260.345
 30
0.000000
  70
    32
  0
VERTEX
  8
AM_0
  5
1E8A7
 10
376.591
 20
260.337
 30
0.000000
  70
    32
  0
VERTEX
  8
AM_0
  5
1E8A8
 10
376.576
 20
260.329
 30
0.000000
  70
    32
  0
VERTEX
  8
AM_0
  5
1E8A9
 10
376.561
 20
260.320
 30
0.000000
  70
    32
  0
VERTEX
  8
AM_0
  5
1E8AA
 10
376.546
 20
260.312
 30
0.000000
  70
    32
  0
VERTEX
  8
AM_0
  5
1E8AB
 10
376.532
 20
260.304
 30
0.000000
  70
    32
  0
VERTEX
  8
AM_0
  5
1E8AC
 10
376.517
 20
260.295
 30
0.000000
  70
    32
  0
VERTEX
  8
AM_0
  5
1E8AD
 10
376.502
 20
260.287
 30
0.000000
  70
    32
  0
VERTEX
  8
AM_0
  5
1E8AE
 10
376.488
 20
260.278
 30
0.000000
  70
    32
  0
VERTEX
  8
AM_0
  5
1E8AF
 10
376.473
 20
260.269
 30
0.000000
  70
    32
  0
VERTEX
  8
AM_0
  5
1E8B0
 10
376.459
 20
260.261
 30
0.000000
  70
    32
  0
VERTEX
  8
AM_0
  5
1E8B1
 10
376.444
 20
260.252
 30
0.000000
  70
    32
  0
VERTEX
  8
AM_0
  5
1E8B2
 10
376.430
 20
260.243
 30
0.000000
  70
    32
  0
VERTEX
  8
AM_0
  5
1E8B3
 10
376.416
 20
260.234
 30
0.000000
  70
    32
  0
VERTEX
  8
AM_0
  5
1E8B4
 10
376.401
 20
260.225
 30
0.000000
  70
    32
  0
VERTEX
  8
AM_0
  5
1E8B5
 10
376.387
 20
260.216
 30
0.000000
  70
    32
  0
VERTEX
  8
AM_0
  5
1E8B6
 10
376.373
 20
260.206
 30
0.000000
  70
    32
  0
VERTEX
  8
AM_0
  5
1E8B7
 10
376.359
 20
260.197
 30
0.000000
  70
    32
  0
VERTEX
  8
AM_0
  5
1E8B8
 10
376.345
 20
260.187
 30
0.000000
  70
    32
  0
VERTEX
  8
AM_0
  5
1E8B9
 10
376.331
 20
260.178
 30
0.000000
  70
    32
  0
VERTEX
  8
AM_0
  5
1E8BA
 10
376.317
 20
260.168
 30
0.000000
  70
    32
  0
VERTEX
  8
AM_0
  5
1E8BB
 10
376.303
 20
260.159
 30
0.000000
  70
    32
  0
VERTEX
  8
AM_0
  5
1E8BC
 10
376.289
 20
260.149
 30
0.000000
  70
    32
  0
VERTEX
  8
AM_0
  5
1E8BD
 10
376.275
 20
260.139
 30
0.000000
  70
    32
  0
VERTEX
  8
AM_0
  5
1E8BE
 10
376.261
 20
260.129
 30
0.000000
  70
    32
  0
VERTEX
  8
AM_0
  5
1E8BF
 10
376.248
 20
260.119
 30
0.000000
  70
    32
  0
VERTEX
  8
AM_0
  5
1E8C0
 10
376.234
 20
260.109
 30
0.000000
  70
    32
  0
VERTEX
  8
AM_0
  5
1E8C1
 10
376.221
 20
260.099
 30
0.000000
  70
    32
  0
VERTEX
  8
AM_0
  5
1E8C2
 10
376.207
 20
260.089
 30
0.000000
  70
    32
  0
VERTEX
  8
AM_0
  5
1E8C3
 10
376.194
 20
260.079
 30
0.000000
  70
    32
  0
VERTEX
  8
AM_0
  5
1E8C4
 10
376.180
 20
260.068
 30
0.000000
  70
    32
  0
VERTEX
  8
AM_0
  5
1E8C5
 10
376.167
 20
260.058
 30
0.000000
  70
    32
  0
VERTEX
  8
AM_0
  5
1E8C6
 10
376.153
 20
260.047
 30
0.000000
  70
    32
  0
VERTEX
  8
AM_0
  5
1E8C7
 10
376.140
 20
260.037
 30
0.000000
  70
    32
  0
VERTEX
  8
AM_0
  5
1E8C8
 10
376.127
 20
260.026
 30
0.000000
  70
    32
  0
VERTEX
  8
AM_0
  5
1E8C9
 10
376.114
 20
260.015
 30
0.000000
  70
    32
  0
VERTEX
  8
AM_0
  5
1E8CA
 10
376.101
 20
260.005
 30
0.000000
  70
    32
  0
VERTEX
  8
AM_0
  5
1E8CB
 10
376.088
 20
259.994
 30
0.000000
  70
    32
  0
VERTEX
  8
AM_0
  5
1E8CC
 10
376.075
 20
259.983
 30
0.000000
  70
    32
  0
VERTEX
  8
AM_0
  5
1E8CD
 10
376.062
 20
259.972
 30
0.000000
  70
    32
  0
VERTEX
  8
AM_0
  5
1E8CE
 10
376.049
 20
259.961
 30
0.000000
  70
    32
  0
VERTEX
  8
AM_0
  5
1E8CF
 10
376.037
 20
259.949
 30
0.000000
  70
    32
  0
SEQEND
  8
AM_0
  5
1E8D0
  0
LINE
  5
1A27F
  8
AM_0
 10
375.05232571037908
 20
269.6996393570052
 30
0.0
 11
363.0523257067793
 21
269.69963935700468
 31
0.0
  0
LINE
  5
1A293
  8
AM_0
 10
375.05232571037851
 20
293.63916573571203
 30
0.0
 11
363.0523257067785
 21
293.63916573571203
 31
0.0
  0
LINE
  5
1A2AE
  8
0
 10
413.9268294447246
 20
226.00428098414281
 30
0.0
 11
399.05685902483168
 21
260.70093813762549
 31
0.0
  0
ARC
  5
1A2AF
  8
AM_0
 10
414.55232616926219
 20
267.70089740035331
 30
0.0
 40
15.000000451534881
 50
180.00000500895689
 51
270.000000683243
  0
CIRCLE
  5
1A2B3
  8
0
 10
429.55229911344981
 20
232.7008993570042
 30
0.0
 40
7.0
  0
ARC
  5
1A2B4
  8
0
 10
429.55229911344981
 20
232.7008993570042
 30
0.0
 40
16.999999999999709
 50
203.19855493455009
 51
270.0
  0
LINE
  5
1A2B9
  8
AM_0
 10
437.40902260163449
 20
260.70089718963698
 30
0.0
 11
529.55229911344975
 21
260.70089718963737
 31
0.0
  0
CIRCLE
  5
1A2BA
  8
0
 10
414.55232616926219
 20
267.70089740035331
 30
0.0
 40
12.0
  0
ARC
  5
1A2BC
  8
AM_0
 10
414.55232616926219
 20
267.70089740035331
 30
0.0
 40
15.714285718999999
 50
0.3581004304211079
 51
89.641899569578882
  0
ARC
  5
1A2BD
  8
AM_0
 10
414.69518310354562
 20
290.55759383272601
 30
0.0
 40
7.142857144999998
 50
180.0
 51
269.64189956957892
1001
GENIUS_GENODEF_13
1002
{
1000
HIER
1070
     0
1002
}
1002
{
1000
MANEDIT
1070
     0
1002
}
1002
{
1000
NOSEL
1070
     0
1002
}
1002
{
1000
BEHIND
1070
     0
1002
}
1002
{
1000
OTHER
1070
     0
1002
}
1002
{
1000
REACTOR
1002
}
1001
GENIUS_GENOBJ-N-FIL_13
1002
{
1000
OWNER
1000
GEN
1002
}
  0
ARC
  5
1A2BE
  8
0
 10
399.58566981652172
 20
257.700938777852
 30
0.0
 40
3.000000000899997
 50
33.748837597605352
 51
90.000069465278145
1001
GENIUS_GENODEF_13
1002
{
1000
HIER
1070
     0
1002
}
1002
{
1000
MANEDIT
1070
     0
1002
}
1002
{
1000
NOSEL
1070
     0
1002
}
1002
{
1000
BEHIND
1070
     0
1002
}
1002
{
1000
OTHER
1070
     0
1002
}
1002
{
1000
REACTOR
1002
}
1001
GENIUS_GENOBJ-N-FIL_13
1002
{
1000
OWNER
1000
GEN
1002
}
  0
POLYLINE
  5
1A2BF
  8
AM_0
 10
390.07951224810057
 20
271.56151420423703
 30
0.0
 66
     1
 70
     8
  0
VERTEX
  8
AM_0
  5
1E8D1
 10
390.080
 20
271.562
 30
0.000000
  70
    32
  0
VERTEX
  8
AM_0
  5
1E8D2
 10
390.082
 20
271.527
 30
0.000000
  70
    32
  0
VERTEX
  8
AM_0
  5
1E8D3
 10
390.086
 20
271.492
 30
0.000000
  70
    32
  0
VERTEX
  8
AM_0
  5
1E8D4
 10
390.089
 20
271.457
 30
0.000000
  70
    32
  0
VERTEX
  8
AM_0
  5
1E8D5
 10
390.093
 20
271.422
 30
0.000000
  70
    32
  0
VERTEX
  8
AM_0
  5
1E8D6
 10
390.098
 20
271.387
 30
0.000000
  70
    32
  0
VERTEX
  8
AM_0
  5
1E8D7
 10
390.103
 20
271.352
 30
0.000000
  70
    32
  0
VERTEX
  8
AM_0
  5
1E8D8
 10
390.108
 20
271.318
 30
0.000000
  70
    32
  0
VERTEX
  8
AM_0
  5
1E8D9
 10
390.114
 20
271.283
 30
0.000000
  70
    32
  0
VERTEX
  8
AM_0
  5
1E8DA
 10
390.120
 20
271.249
 30
0.000000
  70
    32
  0
VERTEX
  8
AM_0
  5
1E8DB
 10
390.126
 20
271.214
 30
0.000000
  70
    32
  0
VERTEX
  8
AM_0
  5
1E8DC
 10
390.133
 20
271.180
 30
0.000000
  70
    32
  0
VERTEX
  8
AM_0
  5
1E8DD
 10
390.140
 20
271.146
 30
0.000000
  70
    32
  0
VERTEX
  8
AM_0
  5
1E8DE
 10
390.148
 20
271.111
 30
0.000000
  70
    32
  0
VERTEX
  8
AM_0
  5
1E8DF
 10
390.156
 20
271.077
 30
0.000000
  70
    32
  0
VERTEX
  8
AM_0
  5
1E8E0
 10
390.164
 20
271.043
 30
0.000000
  70
    32
  0
VERTEX
  8
AM_0
  5
1E8E1
 10
390.173
 20
271.009
 30
0.000000
  70
    32
  0
VERTEX
  8
AM_0
  5
1E8E2
 10
390.183
 20
270.975
 30
0.000000
  70
    32
  0
VERTEX
  8
AM_0
  5
1E8E3
 10
390.192
 20
270.942
 30
0.000000
  70
    32
  0
VERTEX
  8
AM_0
  5
1E8E4
 10
390.202
 20
270.908
 30
0.000000
  70
    32
  0
VERTEX
  8
AM_0
  5
1E8E5
 10
390.213
 20
270.875
 30
0.000000
  70
    32
  0
VERTEX
  8
AM_0
  5
1E8E6
 10
390.224
 20
270.841
 30
0.000000
  70
    32
  0
VERTEX
  8
AM_0
  5
1E8E7
 10
390.235
 20
270.808
 30
0.000000
  70
    32
  0
VERTEX
  8
AM_0
  5
1E8E8
 10
390.246
 20
270.775
 30
0.000000
  70
    32
  0
VERTEX
  8
AM_0
  5
1E8E9
 10
390.258
 20
270.742
 30
0.000000
  70
    32
  0
VERTEX
  8
AM_0
  5
1E8EA
 10
390.271
 20
270.709
 30
0.000000
  70
    32
  0
VERTEX
  8
AM_0
  5
1E8EB
 10
390.284
 20
270.677
 30
0.000000
  70
    32
  0
VERTEX
  8
AM_0
  5
1E8EC
 10
390.297
 20
270.644
 30
0.000000
  70
    32
  0
VERTEX
  8
AM_0
  5
1E8ED
 10
390.310
 20
270.612
 30
0.000000
  70
    32
  0
VERTEX
  8
AM_0
  5
1E8EE
 10
390.324
 20
270.580
 30
0.000000
  70
    32
  0
VERTEX
  8
AM_0
  5
1E8EF
 10
390.339
 20
270.548
 30
0.000000
  70
    32
  0
VERTEX
  8
AM_0
  5
1E8F0
 10
390.353
 20
270.516
 30
0.000000
  70
    32
  0
VERTEX
  8
AM_0
  5
1E8F1
 10
390.368
 20
270.484
 30
0.000000
  70
    32
  0
VERTEX
  8
AM_0
  5
1E8F2
 10
390.384
 20
270.453
 30
0.000000
  70
    32
  0
VERTEX
  8
AM_0
  5
1E8F3
 10
390.399
 20
270.421
 30
0.000000
  70
    32
  0
VERTEX
  8
AM_0
  5
1E8F4
 10
390.415
 20
270.390
 30
0.000000
  70
    32
  0
VERTEX
  8
AM_0
  5
1E8F5
 10
390.432
 20
270.359
 30
0.000000
  70
    32
  0
VERTEX
  8
AM_0
  5
1E8F6
 10
390.449
 20
270.328
 30
0.000000
  70
    32
  0
VERTEX
  8
AM_0
  5
1E8F7
 10
390.466
 20
270.298
 30
0.000000
  70
    32
  0
VERTEX
  8
AM_0
  5
1E8F8
 10
390.484
 20
270.267
 30
0.000000
  70
    32
  0
VERTEX
  8
AM_0
  5
1E8F9
 10
390.502
 20
270.237
 30
0.000000
  70
    32
  0
VERTEX
  8
AM_0
  5
1E8FA
 10
390.520
 20
270.207
 30
0.000000
  70
    32
  0
VERTEX
  8
AM_0
  5
1E8FB
 10
390.538
 20
270.178
 30
0.000000
  70
    32
  0
VERTEX
  8
AM_0
  5
1E8FC
 10
390.557
 20
270.148
 30
0.000000
  70
    32
  0
VERTEX
  8
AM_0
  5
1E8FD
 10
390.577
 20
270.119
 30
0.000000
  70
    32
  0
VERTEX
  8
AM_0
  5
1E8FE
 10
390.596
 20
270.090
 30
0.000000
  70
    32
  0
VERTEX
  8
AM_0
  5
1E8FF
 10
390.616
 20
270.061
 30
0.000000
  70
    32
  0
VERTEX
  8
AM_0
  5
1E900
 10
390.637
 20
270.033
 30
0.000000
  70
    32
  0
VERTEX
  8
AM_0
  5
1E901
 10
390.657
 20
270.004
 30
0.000000
  70
    32
  0
VERTEX
  8
AM_0
  5
1E902
 10
390.678
 20
269.976
 30
0.000000
  70
    32
  0
VERTEX
  8
AM_0
  5
1E903
 10
390.700
 20
269.948
 30
0.000000
  70
    32
  0
VERTEX
  8
AM_0
  5
1E904
 10
390.721
 20
269.921
 30
0.000000
  70
    32
  0
VERTEX
  8
AM_0
  5
1E905
 10
390.743
 20
269.893
 30
0.000000
  70
    32
  0
VERTEX
  8
AM_0
  5
1E906
 10
390.765
 20
269.866
 30
0.000000
  70
    32
  0
VERTEX
  8
AM_0
  5
1E907
 10
390.788
 20
269.839
 30
0.000000
  70
    32
  0
VERTEX
  8
AM_0
  5
1E908
 10
390.811
 20
269.813
 30
0.000000
  70
    32
  0
VERTEX
  8
AM_0
  5
1E909
 10
390.834
 20
269.787
 30
0.000000
  70
    32
  0
VERTEX
  8
AM_0
  5
1E90A
 10
390.858
 20
269.761
 30
0.000000
  70
    32
  0
VERTEX
  8
AM_0
  5
1E90B
 10
390.882
 20
269.735
 30
0.000000
  70
    32
  0
VERTEX
  8
AM_0
  5
1E90C
 10
390.906
 20
269.709
 30
0.000000
  70
    32
  0
VERTEX
  8
AM_0
  5
1E90D
 10
390.930
 20
269.684
 30
0.000000
  70
    32
  0
VERTEX
  8
AM_0
  5
1E90E
 10
390.955
 20
269.659
 30
0.000000
  70
    32
  0
VERTEX
  8
AM_0
  5
1E90F
 10
390.980
 20
269.635
 30
0.000000
  70
    32
  0
VERTEX
  8
AM_0
  5
1E910
 10
391.005
 20
269.610
 30
0.000000
  70
    32
  0
VERTEX
  8
AM_0
  5
1E911
 10
391.031
 20
269.586
 30
0.000000
  70
    32
  0
VERTEX
  8
AM_0
  5
1E912
 10
391.056
 20
269.563
 30
0.000000
  70
    32
  0
VERTEX
  8
AM_0
  5
1E913
 10
391.083
 20
269.539
 30
0.000000
  70
    32
  0
VERTEX
  8
AM_0
  5
1E914
 10
391.109
 20
269.516
 30
0.000000
  70
    32
  0
VERTEX
  8
AM_0
  5
1E915
 10
391.136
 20
269.494
 30
0.000000
  70
    32
  0
VERTEX
  8
AM_0
  5
1E916
 10
391.163
 20
269.471
 30
0.000000
  70
    32
  0
VERTEX
  8
AM_0
  5
1E917
 10
391.190
 20
269.449
 30
0.000000
  70
    32
  0
VERTEX
  8
AM_0
  5
1E918
 10
391.217
 20
269.427
 30
0.000000
  70
    32
  0
VERTEX
  8
AM_0
  5
1E919
 10
391.245
 20
269.406
 30
0.000000
  70
    32
  0
VERTEX
  8
AM_0
  5
1E91A
 10
391.273
 20
269.384
 30
0.000000
  70
    32
  0
VERTEX
  8
AM_0
  5
1E91B
 10
391.301
 20
269.364
 30
0.000000
  70
    32
  0
VERTEX
  8
AM_0
  5
1E91C
 10
391.329
 20
269.343
 30
0.000000
  70
    32
  0
VERTEX
  8
AM_0
  5
1E91D
 10
391.358
 20
269.323
 30
0.000000
  70
    32
  0
VERTEX
  8
AM_0
  5
1E91E
 10
391.387
 20
269.303
 30
0.000000
  70
    32
  0
VERTEX
  8
AM_0
  5
1E91F
 10
391.416
 20
269.283
 30
0.000000
  70
    32
  0
VERTEX
  8
AM_0
  5
1E920
 10
391.445
 20
269.264
 30
0.000000
  70
    32
  0
VERTEX
  8
AM_0
  5
1E921
 10
391.475
 20
269.245
 30
0.000000
  70
    32
  0
VERTEX
  8
AM_0
  5
1E922
 10
391.505
 20
269.227
 30
0.000000
  70
    32
  0
VERTEX
  8
AM_0
  5
1E923
 10
391.535
 20
269.209
 30
0.000000
  70
    32
  0
VERTEX
  8
AM_0
  5
1E924
 10
391.565
 20
269.191
 30
0.000000
  70
    32
  0
VERTEX
  8
AM_0
  5
1E925
 10
391.595
 20
269.174
 30
0.000000
  70
    32
  0
VERTEX
  8
AM_0
  5
1E926
 10
391.626
 20
269.157
 30
0.000000
  70
    32
  0
VERTEX
  8
AM_0
  5
1E927
 10
391.657
 20
269.140
 30
0.000000
  70
    32
  0
VERTEX
  8
AM_0
  5
1E928
 10
391.688
 20
269.124
 30
0.000000
  70
    32
  0
VERTEX
  8
AM_0
  5
1E929
 10
391.719
 20
269.108
 30
0.000000
  70
    32
  0
VERTEX
  8
AM_0
  5
1E92A
 10
391.751
 20
269.092
 30
0.000000
  70
    32
  0
VERTEX
  8
AM_0
  5
1E92B
 10
391.782
 20
269.077
 30
0.000000
  70
    32
  0
VERTEX
  8
AM_0
  5
1E92C
 10
391.814
 20
269.062
 30
0.000000
  70
    32
  0
VERTEX
  8
AM_0
  5
1E92D
 10
391.846
 20
269.047
 30
0.000000
  70
    32
  0
VERTEX
  8
AM_0
  5
1E92E
 10
391.878
 20
269.033
 30
0.000000
  70
    32
  0
VERTEX
  8
AM_0
  5
1E92F
 10
391.910
 20
269.019
 30
0.000000
  70
    32
  0
VERTEX
  8
AM_0
  5
1E930
 10
391.943
 20
269.006
 30
0.000000
  70
    32
  0
VERTEX
  8
AM_0
  5
1E931
 10
391.975
 20
268.993
 30
0.000000
  70
    32
  0
VERTEX
  8
AM_0
  5
1E932
 10
392.008
 20
268.980
 30
0.000000
  70
    32
  0
VERTEX
  8
AM_0
  5
1E933
 10
392.041
 20
268.968
 30
0.000000
  70
    32
  0
VERTEX
  8
AM_0
  5
1E934
 10
392.074
 20
268.956
 30
0.000000
  70
    32
  0
VERTEX
  8
AM_0
  5
1E935
 10
392.107
 20
268.945
 30
0.000000
  70
    32
  0
VERTEX
  8
AM_0
  5
1E936
 10
392.140
 20
268.934
 30
0.000000
  70
    32
  0
VERTEX
  8
AM_0
  5
1E937
 10
392.173
 20
268.923
 30
0.000000
  70
    32
  0
VERTEX
  8
AM_0
  5
1E938
 10
392.207
 20
268.913
 30
0.000000
  70
    32
  0
VERTEX
  8
AM_0
  5
1E939
 10
392.241
 20
268.903
 30
0.000000
  70
    32
  0
VERTEX
  8
AM_0
  5
1E93A
 10
392.274
 20
268.893
 30
0.000000
  70
    32
  0
VERTEX
  8
AM_0
  5
1E93B
 10
392.308
 20
268.884
 30
0.000000
  70
    32
  0
VERTEX
  8
AM_0
  5
1E93C
 10
392.342
 20
268.876
 30
0.000000
  70
    32
  0
VERTEX
  8
AM_0
  5
1E93D
 10
392.376
 20
268.867
 30
0.000000
  70
    32
  0
VERTEX
  8
AM_0
  5
1E93E
 10
392.410
 20
268.859
 30
0.000000
  70
    32
  0
VERTEX
  8
AM_0
  5
1E93F
 10
392.445
 20
268.852
 30
0.000000
  70
    32
  0
VERTEX
  8
AM_0
  5
1E940
 10
392.479
 20
268.845
 30
0.000000
  70
    32
  0
VERTEX
  8
AM_0
  5
1E941
 10
392.513
 20
268.838
 30
0.000000
  70
    32
  0
VERTEX
  8
AM_0
  5
1E942
 10
392.548
 20
268.832
 30
0.000000
  70
    32
  0
VERTEX
  8
AM_0
  5
1E943
 10
392.582
 20
268.826
 30
0.000000
  70
    32
  0
VERTEX
  8
AM_0
  5
1E944
 10
392.617
 20
268.820
 30
0.000000
  70
    32
  0
VERTEX
  8
AM_0
  5
1E945
 10
392.652
 20
268.815
 30
0.000000
  70
    32
  0
VERTEX
  8
AM_0
  5
1E946
 10
392.686
 20
268.810
 30
0.000000
  70
    32
  0
VERTEX
  8
AM_0
  5
1E947
 10
392.721
 20
268.806
 30
0.000000
  70
    32
  0
VERTEX
  8
AM_0
  5
1E948
 10
392.756
 20
268.802
 30
0.000000
  70
    32
  0
VERTEX
  8
AM_0
  5
1E949
 10
392.791
 20
268.799
 30
0.000000
  70
    32
  0
VERTEX
  8
AM_0
  5
1E94A
 10
392.826
 20
268.796
 30
0.000000
  70
    32
  0
VERTEX
  8
AM_0
  5
1E94B
 10
392.861
 20
268.793
 30
0.000000
  70
    32
  0
VERTEX
  8
AM_0
  5
1E94C
 10
392.896
 20
268.791
 30
0.000000
  70
    32
  0
VERTEX
  8
AM_0
  5
1E94D
 10
392.931
 20
268.789
 30
0.000000
  70
    32
  0
VERTEX
  8
AM_0
  5
1E94E
 10
392.966
 20
268.787
 30
0.000000
  70
    32
  0
VERTEX
  8
AM_0
  5
1E94F
 10
393.001
 20
268.786
 30
0.000000
  70
    32
  0
VERTEX
  8
AM_0
  5
1E950
 10
393.036
 20
268.786
 30
0.000000
  70
    32
  0
VERTEX
  8
AM_0
  5
1E951
 10
393.071
 20
268.786
 30
0.000000
  70
    32
  0
SEQEND
  8
AM_0
  5
1E952
  0
LINE
  5
1A2C0
  8
AM_0
 10
393.07112631716751
 20
268.78561324813779
 30
0.0
 11
397.05232571697729
 21
268.78561324813779
 31
0.0
  0
POLYLINE
  5
1A2C1
  8
0
 66
     1
 10
0.0
 20
0.0
 30
0.0
 70
     1
  0
VERTEX
  5
1E6EC
  8
0
 10
409.55232616926202
 20
270.58764874630128
 30
0.0
  0
VERTEX
  5
1E6ED
  8
0
 10
409.55232616926202
 20
264.814146054405
 30
0.0
  0
VERTEX
  5
1E6EE
  8
0
 10
414.55232616926219
 20
261.92739470845692
 30
0.0
  0
VERTEX
  5
1E6EF
  8
0
 10
419.55232616926207
 20
264.814146054405
 30
0.0
  0
VERTEX
  5
1E6F0
  8
0
 10
419.55232616926207
 20
270.58764874630128
 30
0.0
  0
VERTEX
  5
1E6F1
  8
0
 10
414.55232616926219
 20
273.47440009224943
 30
0.0
  0
SEQEND
  5
1E6F2
  8
0
  0
CIRCLE
  5
1A2C2
  8
0
 10
414.55232616926219
 20
267.70089740035331
 30
0.0
 40
9.0
  0
ARC
  5
1A2C4
  8
AM_0
 10
437.40902260163449
 20
267.84375433463708
 30
0.0
 40
7.142857144999998
 50
180.3581004304211
 51
270.0
1001
GENIUS_GENOBJ-N-FIL_13
1002
{
1000
OWNER
1000
GEN
1002
}
1001
GENIUS_GENODEF_13
1002
{
1000
HIER
1070
     0
1002
}
1002
{
1000
MANEDIT
1070
     0
1002
}
1002
{
1000
NOSEL
1070
     0
1002
}
1002
{
1000
BEHIND
1070
     0
1002
}
1002
{
1000
OTHER
1070
     0
1002
}
1002
{
1000
REACTOR
1002
}
  0
CIRCLE
  5
1A2C5
  8
AM_0
 10
529.55229911344975
 20
332.70089935700469
 30
0.0
 40
25.000000752558059
  0
ARC
  5
1A2C6
  8
0
 10
529.55229911344975
 20
332.70089935700469
 30
0.0
 40
16.000000000000512
 50
108.2099568642822
 51
71.790043135717795
  0
LINE
  5
1A2C7
  8
0
 10
524.55229911344986
 20
351.70089935700378
 30
0.0
 11
534.55229911344975
 21
351.70089935700378
 31
0.0
  0
LINE
  5
1A2C8
  8
AM_0
 10
534.55229911344975
 20
343.70089935700378
 30
0.0
 11
534.55229911344975
 21
351.70089935700378
 31
0.0
  0
LINE
  5
1A2C9
  8
0
 10
524.55229911344986
 20
343.70089935700378
 30
0.0
 11
534.55229911344975
 21
343.70089935700378
 31
0.0
  0
LINE
  5
1A2CA
  8
AM_0
 10
524.55229911344986
 20
343.70089935700378
 30
0.0
 11
524.55229911344986
 21
351.70089935700378
 31
0.0
  0
LINE
  5
1A2E3
  8
AM_0
 10
378.02094762808377
 20
404.70232605841198
 30
0.0
 11
399.58566617932769
 21
404.70229991286999
 31
0.0
  0
LINE
  5
1A300
  8
AM_0
 10
375.05232571037709
 20
371.76263297829792
 30
0.0
 11
363.05232570677742
 21
371.76263297829752
 31
0.0
  0
LINE
  5
1A301
  8
AM_0
 10
375.05232571037709
 20
395.70215935700469
 30
0.0
 11
363.0523257067772
 21
395.70215935700469
 31
0.0
  0
LINE
  5
1A308
  8
AM_0
 10
363.05233178645091
 20
406.20237420669258
 30
0.0
 11
374.05233099927108
 21
406.2023548125955
 31
0.0
  0
POLYLINE
  5
1A309
  8
AM_0
 10
376.03663848767729
 20
405.45234043550533
 30
0.0
 66
     1
 70
     8
  0
VERTEX
  8
AM_0
  5
1E953
 10
376.037
 20
405.452
 30
0.000000
  70
    32
  0
VERTEX
  8
AM_0
  5
1E954
 10
376.024
 20
405.464
 30
0.000000
  70
    32
  0
VERTEX
  8
AM_0
  5
1E955
 10
376.011
 20
405.475
 30
0.000000
  70
    32
  0
VERTEX
  8
AM_0
  5
1E956
 10
375.998
 20
405.486
 30
0.000000
  70
    32
  0
VERTEX
  8
AM_0
  5
1E957
 10
375.985
 20
405.497
 30
0.000000
  70
    32
  0
VERTEX
  8
AM_0
  5
1E958
 10
375.972
 20
405.507
 30
0.000000
  70
    32
  0
VERTEX
  8
AM_0
  5
1E959
 10
375.959
 20
405.518
 30
0.000000
  70
    32
  0
VERTEX
  8
AM_0
  5
1E95A
 10
375.946
 20
405.529
 30
0.000000
  70
    32
  0
VERTEX
  8
AM_0
  5
1E95B
 10
375.933
 20
405.540
 30
0.000000
  70
    32
  0
VERTEX
  8
AM_0
  5
1E95C
 10
375.920
 20
405.550
 30
0.000000
  70
    32
  0
VERTEX
  8
AM_0
  5
1E95D
 10
375.907
 20
405.561
 30
0.000000
  70
    32
  0
VERTEX
  8
AM_0
  5
1E95E
 10
375.893
 20
405.571
 30
0.000000
  70
    32
  0
VERTEX
  8
AM_0
  5
1E95F
 10
375.880
 20
405.582
 30
0.000000
  70
    32
  0
VERTEX
  8
AM_0
  5
1E960
 10
375.866
 20
405.592
 30
0.000000
  70
    32
  0
VERTEX
  8
AM_0
  5
1E961
 10
375.853
 20
405.602
 30
0.000000
  70
    32
  0
VERTEX
  8
AM_0
  5
1E962
 10
375.839
 20
405.612
 30
0.000000
  70
    32
  0
VERTEX
  8
AM_0
  5
1E963
 10
375.826
 20
405.622
 30
0.000000
  70
    32
  0
VERTEX
  8
AM_0
  5
1E964
 10
375.812
 20
405.632
 30
0.000000
  70
    32
  0
VERTEX
  8
AM_0
  5
1E965
 10
375.798
 20
405.642
 30
0.000000
  70
    32
  0
VERTEX
  8
AM_0
  5
1E966
 10
375.784
 20
405.652
 30
0.000000
  70
    32
  0
VERTEX
  8
AM_0
  5
1E967
 10
375.770
 20
405.662
 30
0.000000
  70
    32
  0
VERTEX
  8
AM_0
  5
1E968
 10
375.757
 20
405.671
 30
0.000000
  70
    32
  0
VERTEX
  8
AM_0
  5
1E969
 10
375.743
 20
405.681
 30
0.000000
  70
    32
  0
VERTEX
  8
AM_0
  5
1E96A
 10
375.729
 20
405.690
 30
0.000000
  70
    32
  0
VERTEX
  8
AM_0
  5
1E96B
 10
375.714
 20
405.700
 30
0.000000
  70
    32
  0
VERTEX
  8
AM_0
  5
1E96C
 10
375.700
 20
405.709
 30
0.000000
  70
    32
  0
VERTEX
  8
AM_0
  5
1E96D
 10
375.686
 20
405.718
 30
0.000000
  70
    32
  0
VERTEX
  8
AM_0
  5
1E96E
 10
375.672
 20
405.728
 30
0.000000
  70
    32
  0
VERTEX
  8
AM_0
  5
1E96F
 10
375.658
 20
405.737
 30
0.000000
  70
    32
  0
VERTEX
  8
AM_0
  5
1E970
 10
375.643
 20
405.746
 30
0.000000
  70
    32
  0
VERTEX
  8
AM_0
  5
1E971
 10
375.629
 20
405.755
 30
0.000000
  70
    32
  0
VERTEX
  8
AM_0
  5
1E972
 10
375.614
 20
405.764
 30
0.000000
  70
    32
  0
VERTEX
  8
AM_0
  5
1E973
 10
375.600
 20
405.772
 30
0.000000
  70
    32
  0
VERTEX
  8
AM_0
  5
1E974
 10
375.585
 20
405.781
 30
0.000000
  70
    32
  0
VERTEX
  8
AM_0
  5
1E975
 10
375.571
 20
405.790
 30
0.000000
  70
    32
  0
VERTEX
  8
AM_0
  5
1E976
 10
375.556
 20
405.798
 30
0.000000
  70
    32
  0
VERTEX
  8
AM_0
  5
1E977
 10
375.542
 20
405.807
 30
0.000000
  70
    32
  0
VERTEX
  8
AM_0
  5
1E978
 10
375.527
 20
405.815
 30
0.000000
  70
    32
  0
VERTEX
  8
AM_0
  5
1E979
 10
375.512
 20
405.823
 30
0.000000
  70
    32
  0
VERTEX
  8
AM_0
  5
1E97A
 10
375.497
 20
405.831
 30
0.000000
  70
    32
  0
VERTEX
  8
AM_0
  5
1E97B
 10
375.482
 20
405.840
 30
0.000000
  70
    32
  0
VERTEX
  8
AM_0
  5
1E97C
 10
375.467
 20
405.848
 30
0.000000
  70
    32
  0
VERTEX
  8
AM_0
  5
1E97D
 10
375.453
 20
405.856
 30
0.000000
  70
    32
  0
VERTEX
  8
AM_0
  5
1E97E
 10
375.438
 20
405.863
 30
0.000000
  70
    32
  0
VERTEX
  8
AM_0
  5
1E97F
 10
375.422
 20
405.871
 30
0.000000
  70
    32
  0
VERTEX
  8
AM_0
  5
1E980
 10
375.407
 20
405.879
 30
0.000000
  70
    32
  0
VERTEX
  8
AM_0
  5
1E981
 10
375.392
 20
405.886
 30
0.000000
  70
    32
  0
VERTEX
  8
AM_0
  5
1E982
 10
375.377
 20
405.894
 30
0.000000
  70
    32
  0
VERTEX
  8
AM_0
  5
1E983
 10
375.362
 20
405.901
 30
0.000000
  70
    32
  0
VERTEX
  8
AM_0
  5
1E984
 10
375.347
 20
405.909
 30
0.000000
  70
    32
  0
VERTEX
  8
AM_0
  5
1E985
 10
375.331
 20
405.916
 30
0.000000
  70
    32
  0
VERTEX
  8
AM_0
  5
1E986
 10
375.316
 20
405.923
 30
0.000000
  70
    32
  0
VERTEX
  8
AM_0
  5
1E987
 10
375.301
 20
405.930
 30
0.000000
  70
    32
  0
VERTEX
  8
AM_0
  5
1E988
 10
375.285
 20
405.937
 30
0.000000
  70
    32
  0
VERTEX
  8
AM_0
  5
1E989
 10
375.270
 20
405.944
 30
0.000000
  70
    32
  0
VERTEX
  8
AM_0
  5
1E98A
 10
375.254
 20
405.951
 30
0.000000
  70
    32
  0
VERTEX
  8
AM_0
  5
1E98B
 10
375.239
 20
405.958
 30
0.000000
  70
    32
  0
VERTEX
  8
AM_0
  5
1E98C
 10
375.223
 20
405.964
 30
0.000000
  70
    32
  0
VERTEX
  8
AM_0
  5
1E98D
 10
375.207
 20
405.971
 30
0.000000
  70
    32
  0
VERTEX
  8
AM_0
  5
1E98E
 10
375.192
 20
405.978
 30
0.000000
  70
    32
  0
VERTEX
  8
AM_0
  5
1E98F
 10
375.176
 20
405.984
 30
0.000000
  70
    32
  0
VERTEX
  8
AM_0
  5
1E990
 10
375.160
 20
405.990
 30
0.000000
  70
    32
  0
VERTEX
  8
AM_0
  5
1E991
 10
375.145
 20
405.996
 30
0.000000
  70
    32
  0
VERTEX
  8
AM_0
  5
1E992
 10
375.129
 20
406.003
 30
0.000000
  70
    32
  0
VERTEX
  8
AM_0
  5
1E993
 10
375.113
 20
406.009
 30
0.000000
  70
    32
  0
VERTEX
  8
AM_0
  5
1E994
 10
375.097
 20
406.015
 30
0.000000
  70
    32
  0
VERTEX
  8
AM_0
  5
1E995
 10
375.081
 20
406.020
 30
0.000000
  70
    32
  0
VERTEX
  8
AM_0
  5
1E996
 10
375.065
 20
406.026
 30
0.000000
  70
    32
  0
VERTEX
  8
AM_0
  5
1E997
 10
375.049
 20
406.032
 30
0.000000
  70
    32
  0
VERTEX
  8
AM_0
  5
1E998
 10
375.033
 20
406.037
 30
0.000000
  70
    32
  0
VERTEX
  8
AM_0
  5
1E999
 10
375.017
 20
406.043
 30
0.000000
  70
    32
  0
VERTEX
  8
AM_0
  5
1E99A
 10
375.001
 20
406.048
 30
0.000000
  70
    32
  0
VERTEX
  8
AM_0
  5
1E99B
 10
374.985
 20
406.054
 30
0.000000
  70
    32
  0
VERTEX
  8
AM_0
  5
1E99C
 10
374.969
 20
406.059
 30
0.000000
  70
    32
  0
VERTEX
  8
AM_0
  5
1E99D
 10
374.953
 20
406.064
 30
0.000000
  70
    32
  0
VERTEX
  8
AM_0
  5
1E99E
 10
374.937
 20
406.069
 30
0.000000
  70
    32
  0
VERTEX
  8
AM_0
  5
1E99F
 10
374.921
 20
406.074
 30
0.000000
  70
    32
  0
VERTEX
  8
AM_0
  5
1E9A0
 10
374.904
 20
406.079
 30
0.000000
  70
    32
  0
VERTEX
  8
AM_0
  5
1E9A1
 10
374.888
 20
406.084
 30
0.000000
  70
    32
  0
VERTEX
  8
AM_0
  5
1E9A2
 10
374.872
 20
406.088
 30
0.000000
  70
    32
  0
VERTEX
  8
AM_0
  5
1E9A3
 10
374.855
 20
406.093
 30
0.000000
  70
    32
  0
VERTEX
  8
AM_0
  5
1E9A4
 10
374.839
 20
406.097
 30
0.000000
  70
    32
  0
VERTEX
  8
AM_0
  5
1E9A5
 10
374.823
 20
406.102
 30
0.000000
  70
    32
  0
VERTEX
  8
AM_0
  5
1E9A6
 10
374.806
 20
406.106
 30
0.000000
  70
    32
  0
VERTEX
  8
AM_0
  5
1E9A7
 10
374.790
 20
406.110
 30
0.000000
  70
    32
  0
VERTEX
  8
AM_0
  5
1E9A8
 10
374.774
 20
406.114
 30
0.000000
  70
    32
  0
VERTEX
  8
AM_0
  5
1E9A9
 10
374.757
 20
406.118
 30
0.000000
  70
    32
  0
VERTEX
  8
AM_0
  5
1E9AA
 10
374.741
 20
406.122
 30
0.000000
  70
    32
  0
VERTEX
  8
AM_0
  5
1E9AB
 10
374.724
 20
406.126
 30
0.000000
  70
    32
  0
VERTEX
  8
AM_0
  5
1E9AC
 10
374.708
 20
406.130
 30
0.000000
  70
    32
  0
VERTEX
  8
AM_0
  5
1E9AD
 10
374.691
 20
406.134
 30
0.000000
  70
    32
  0
VERTEX
  8
AM_0
  5
1E9AE
 10
374.675
 20
406.137
 30
0.000000
  70
    32
  0
VERTEX
  8
AM_0
  5
1E9AF
 10
374.658
 20
406.141
 30
0.000000
  70
    32
  0
VERTEX
  8
AM_0
  5
1E9B0
 10
374.641
 20
406.144
 30
0.000000
  70
    32
  0
VERTEX
  8
AM_0
  5
1E9B1
 10
374.625
 20
406.147
 30
0.000000
  70
    32
  0
VERTEX
  8
AM_0
  5
1E9B2
 10
374.608
 20
406.150
 30
0.000000
  70
    32
  0
VERTEX
  8
AM_0
  5
1E9B3
 10
374.591
 20
406.154
 30
0.000000
  70
    32
  0
VERTEX
  8
AM_0
  5
1E9B4
 10
374.575
 20
406.157
 30
0.000000
  70
    32
  0
VERTEX
  8
AM_0
  5
1E9B5
 10
374.558
 20
406.159
 30
0.000000
  70
    32
  0
VERTEX
  8
AM_0
  5
1E9B6
 10
374.541
 20
406.162
 30
0.000000
  70
    32
  0
VERTEX
  8
AM_0
  5
1E9B7
 10
374.525
 20
406.165
 30
0.000000
  70
    32
  0
VERTEX
  8
AM_0
  5
1E9B8
 10
374.508
 20
406.168
 30
0.000000
  70
    32
  0
VERTEX
  8
AM_0
  5
1E9B9
 10
374.491
 20
406.170
 30
0.000000
  70
    32
  0
VERTEX
  8
AM_0
  5
1E9BA
 10
374.474
 20
406.173
 30
0.000000
  70
    32
  0
VERTEX
  8
AM_0
  5
1E9BB
 10
374.458
 20
406.175
 30
0.000000
  70
    32
  0
VERTEX
  8
AM_0
  5
1E9BC
 10
374.441
 20
406.177
 30
0.000000
  70
    32
  0
VERTEX
  8
AM_0
  5
1E9BD
 10
374.424
 20
406.179
 30
0.000000
  70
    32
  0
VERTEX
  8
AM_0
  5
1E9BE
 10
374.407
 20
406.181
 30
0.000000
  70
    32
  0
VERTEX
  8
AM_0
  5
1E9BF
 10
374.390
 20
406.183
 30
0.000000
  70
    32
  0
VERTEX
  8
AM_0
  5
1E9C0
 10
374.374
 20
406.185
 30
0.000000
  70
    32
  0
VERTEX
  8
AM_0
  5
1E9C1
 10
374.357
 20
406.187
 30
0.000000
  70
    32
  0
VERTEX
  8
AM_0
  5
1E9C2
 10
374.340
 20
406.189
 30
0.000000
  70
    32
  0
VERTEX
  8
AM_0
  5
1E9C3
 10
374.323
 20
406.190
 30
0.000000
  70
    32
  0
VERTEX
  8
AM_0
  5
1E9C4
 10
374.306
 20
406.192
 30
0.000000
  70
    32
  0
VERTEX
  8
AM_0
  5
1E9C5
 10
374.289
 20
406.193
 30
0.000000
  70
    32
  0
VERTEX
  8
AM_0
  5
1E9C6
 10
374.272
 20
406.194
 30
0.000000
  70
    32
  0
VERTEX
  8
AM_0
  5
1E9C7
 10
374.255
 20
406.195
 30
0.000000
  70
    32
  0
VERTEX
  8
AM_0
  5
1E9C8
 10
374.239
 20
406.197
 30
0.000000
  70
    32
  0
VERTEX
  8
AM_0
  5
1E9C9
 10
374.222
 20
406.198
 30
0.000000
  70
    32
  0
VERTEX
  8
AM_0
  5
1E9CA
 10
374.205
 20
406.198
 30
0.000000
  70
    32
  0
VERTEX
  8
AM_0
  5
1E9CB
 10
374.188
 20
406.199
 30
0.000000
  70
    32
  0
VERTEX
  8
AM_0
  5
1E9CC
 10
374.171
 20
406.200
 30
0.000000
  70
    32
  0
VERTEX
  8
AM_0
  5
1E9CD
 10
374.154
 20
406.201
 30
0.000000
  70
    32
  0
VERTEX
  8
AM_0
  5
1E9CE
 10
374.137
 20
406.201
 30
0.000000
  70
    32
  0
VERTEX
  8
AM_0
  5
1E9CF
 10
374.120
 20
406.202
 30
0.000000
  70
    32
  0
VERTEX
  8
AM_0
  5
1E9D0
 10
374.103
 20
406.202
 30
0.000000
  70
    32
  0
VERTEX
  8
AM_0
  5
1E9D1
 10
374.086
 20
406.202
 30
0.000000
  70
    32
  0
VERTEX
  8
AM_0
  5
1E9D2
 10
374.069
 20
406.202
 30
0.000000
  70
    32
  0
VERTEX
  8
AM_0
  5
1E9D3
 10
374.052
 20
406.202
 30
0.000000
  70
    32
  0
SEQEND
  8
AM_0
  5
1E9D4
  0
POLYLINE
  5
1A30A
  8
AM_0
 10
376.03663848767701
 20
405.45234043550488
 30
0.0
 66
     1
 70
     8
  0
VERTEX
  8
AM_0
  5
1E9D5
 10
376.037
 20
405.452
 30
0.000000
  70
    32
  0
VERTEX
  8
AM_0
  5
1E9D6
 10
376.049
 20
405.441
 30
0.000000
  70
    32
  0
VERTEX
  8
AM_0
  5
1E9D7
 10
376.062
 20
405.430
 30
0.000000
  70
    32
  0
VERTEX
  8
AM_0
  5
1E9D8
 10
376.075
 20
405.419
 30
0.000000
  70
    32
  0
VERTEX
  8
AM_0
  5
1E9D9
 10
376.088
 20
405.408
 30
0.000000
  70
    32
  0
VERTEX
  8
AM_0
  5
1E9DA
 10
376.101
 20
405.397
 30
0.000000
  70
    32
  0
VERTEX
  8
AM_0
  5
1E9DB
 10
376.114
 20
405.386
 30
0.000000
  70
    32
  0
VERTEX
  8
AM_0
  5
1E9DC
 10
376.127
 20
405.376
 30
0.000000
  70
    32
  0
VERTEX
  8
AM_0
  5
1E9DD
 10
376.140
 20
405.365
 30
0.000000
  70
    32
  0
VERTEX
  8
AM_0
  5
1E9DE
 10
376.153
 20
405.354
 30
0.000000
  70
    32
  0
VERTEX
  8
AM_0
  5
1E9DF
 10
376.167
 20
405.344
 30
0.000000
  70
    32
  0
VERTEX
  8
AM_0
  5
1E9E0
 10
376.180
 20
405.334
 30
0.000000
  70
    32
  0
VERTEX
  8
AM_0
  5
1E9E1
 10
376.194
 20
405.323
 30
0.000000
  70
    32
  0
VERTEX
  8
AM_0
  5
1E9E2
 10
376.207
 20
405.313
 30
0.000000
  70
    32
  0
VERTEX
  8
AM_0
  5
1E9E3
 10
376.221
 20
405.303
 30
0.000000
  70
    32
  0
VERTEX
  8
AM_0
  5
1E9E4
 10
376.234
 20
405.293
 30
0.000000
  70
    32
  0
VERTEX
  8
AM_0
  5
1E9E5
 10
376.248
 20
405.282
 30
0.000000
  70
    32
  0
VERTEX
  8
AM_0
  5
1E9E6
 10
376.261
 20
405.273
 30
0.000000
  70
    32
  0
VERTEX
  8
AM_0
  5
1E9E7
 10
376.275
 20
405.263
 30
0.000000
  70
    32
  0
VERTEX
  8
AM_0
  5
1E9E8
 10
376.289
 20
405.253
 30
0.000000
  70
    32
  0
VERTEX
  8
AM_0
  5
1E9E9
 10
376.303
 20
405.243
 30
0.000000
  70
    32
  0
VERTEX
  8
AM_0
  5
1E9EA
 10
376.317
 20
405.233
 30
0.000000
  70
    32
  0
VERTEX
  8
AM_0
  5
1E9EB
 10
376.331
 20
405.224
 30
0.000000
  70
    32
  0
VERTEX
  8
AM_0
  5
1E9EC
 10
376.345
 20
405.214
 30
0.000000
  70
    32
  0
VERTEX
  8
AM_0
  5
1E9ED
 10
376.359
 20
405.205
 30
0.000000
  70
    32
  0
VERTEX
  8
AM_0
  5
1E9EE
 10
376.373
 20
405.196
 30
0.000000
  70
    32
  0
VERTEX
  8
AM_0
  5
1E9EF
 10
376.387
 20
405.186
 30
0.000000
  70
    32
  0
VERTEX
  8
AM_0
  5
1E9F0
 10
376.401
 20
405.177
 30
0.000000
  70
    32
  0
VERTEX
  8
AM_0
  5
1E9F1
 10
376.416
 20
405.168
 30
0.000000
  70
    32
  0
VERTEX
  8
AM_0
  5
1E9F2
 10
376.430
 20
405.159
 30
0.000000
  70
    32
  0
VERTEX
  8
AM_0
  5
1E9F3
 10
376.444
 20
405.150
 30
0.000000
  70
    32
  0
VERTEX
  8
AM_0
  5
1E9F4
 10
376.459
 20
405.141
 30
0.000000
  70
    32
  0
VERTEX
  8
AM_0
  5
1E9F5
 10
376.473
 20
405.132
 30
0.000000
  70
    32
  0
VERTEX
  8
AM_0
  5
1E9F6
 10
376.488
 20
405.124
 30
0.000000
  70
    32
  0
VERTEX
  8
AM_0
  5
1E9F7
 10
376.502
 20
405.115
 30
0.000000
  70
    32
  0
VERTEX
  8
AM_0
  5
1E9F8
 10
376.517
 20
405.107
 30
0.000000
  70
    32
  0
VERTEX
  8
AM_0
  5
1E9F9
 10
376.532
 20
405.098
 30
0.000000
  70
    32
  0
VERTEX
  8
AM_0
  5
1E9FA
 10
376.546
 20
405.090
 30
0.000000
  70
    32
  0
VERTEX
  8
AM_0
  5
1E9FB
 10
376.561
 20
405.081
 30
0.000000
  70
    32
  0
VERTEX
  8
AM_0
  5
1E9FC
 10
376.576
 20
405.073
 30
0.000000
  70
    32
  0
VERTEX
  8
AM_0
  5
1E9FD
 10
376.591
 20
405.065
 30
0.000000
  70
    32
  0
VERTEX
  8
AM_0
  5
1E9FE
 10
376.606
 20
405.057
 30
0.000000
  70
    32
  0
VERTEX
  8
AM_0
  5
1E9FF
 10
376.621
 20
405.049
 30
0.000000
  70
    32
  0
VERTEX
  8
AM_0
  5
1EA00
 10
376.636
 20
405.041
 30
0.000000
  70
    32
  0
VERTEX
  8
AM_0
  5
1EA01
 10
376.651
 20
405.033
 30
0.000000
  70
    32
  0
VERTEX
  8
AM_0
  5
1EA02
 10
376.666
 20
405.026
 30
0.000000
  70
    32
  0
VERTEX
  8
AM_0
  5
1EA03
 10
376.681
 20
405.018
 30
0.000000
  70
    32
  0
VERTEX
  8
AM_0
  5
1EA04
 10
376.696
 20
405.011
 30
0.000000
  70
    32
  0
VERTEX
  8
AM_0
  5
1EA05
 10
376.711
 20
405.003
 30
0.000000
  70
    32
  0
VERTEX
  8
AM_0
  5
1EA06
 10
376.727
 20
404.996
 30
0.000000
  70
    32
  0
VERTEX
  8
AM_0
  5
1EA07
 10
376.742
 20
404.989
 30
0.000000
  70
    32
  0
VERTEX
  8
AM_0
  5
1EA08
 10
376.757
 20
404.981
 30
0.000000
  70
    32
  0
VERTEX
  8
AM_0
  5
1EA09
 10
376.773
 20
404.974
 30
0.000000
  70
    32
  0
VERTEX
  8
AM_0
  5
1EA0A
 10
376.788
 20
404.967
 30
0.000000
  70
    32
  0
VERTEX
  8
AM_0
  5
1EA0B
 10
376.804
 20
404.960
 30
0.000000
  70
    32
  0
VERTEX
  8
AM_0
  5
1EA0C
 10
376.819
 20
404.954
 30
0.000000
  70
    32
  0
VERTEX
  8
AM_0
  5
1EA0D
 10
376.835
 20
404.947
 30
0.000000
  70
    32
  0
VERTEX
  8
AM_0
  5
1EA0E
 10
376.850
 20
404.940
 30
0.000000
  70
    32
  0
VERTEX
  8
AM_0
  5
1EA0F
 10
376.866
 20
404.934
 30
0.000000
  70
    32
  0
VERTEX
  8
AM_0
  5
1EA10
 10
376.881
 20
404.927
 30
0.000000
  70
    32
  0
VERTEX
  8
AM_0
  5
1EA11
 10
376.897
 20
404.921
 30
0.000000
  70
    32
  0
VERTEX
  8
AM_0
  5
1EA12
 10
376.913
 20
404.914
 30
0.000000
  70
    32
  0
VERTEX
  8
AM_0
  5
1EA13
 10
376.929
 20
404.908
 30
0.000000
  70
    32
  0
VERTEX
  8
AM_0
  5
1EA14
 10
376.944
 20
404.902
 30
0.000000
  70
    32
  0
VERTEX
  8
AM_0
  5
1EA15
 10
376.960
 20
404.896
 30
0.000000
  70
    32
  0
VERTEX
  8
AM_0
  5
1EA16
 10
376.976
 20
404.890
 30
0.000000
  70
    32
  0
VERTEX
  8
AM_0
  5
1EA17
 10
376.992
 20
404.884
 30
0.000000
  70
    32
  0
VERTEX
  8
AM_0
  5
1EA18
 10
377.008
 20
404.879
 30
0.000000
  70
    32
  0
VERTEX
  8
AM_0
  5
1EA19
 10
377.024
 20
404.873
 30
0.000000
  70
    32
  0
VERTEX
  8
AM_0
  5
1EA1A
 10
377.040
 20
404.867
 30
0.000000
  70
    32
  0
VERTEX
  8
AM_0
  5
1EA1B
 10
377.056
 20
404.862
 30
0.000000
  70
    32
  0
VERTEX
  8
AM_0
  5
1EA1C
 10
377.072
 20
404.856
 30
0.000000
  70
    32
  0
VERTEX
  8
AM_0
  5
1EA1D
 10
377.088
 20
404.851
 30
0.000000
  70
    32
  0
VERTEX
  8
AM_0
  5
1EA1E
 10
377.104
 20
404.846
 30
0.000000
  70
    32
  0
VERTEX
  8
AM_0
  5
1EA1F
 10
377.120
 20
404.841
 30
0.000000
  70
    32
  0
VERTEX
  8
AM_0
  5
1EA20
 10
377.137
 20
404.836
 30
0.000000
  70
    32
  0
VERTEX
  8
AM_0
  5
1EA21
 10
377.153
 20
404.831
 30
0.000000
  70
    32
  0
VERTEX
  8
AM_0
  5
1EA22
 10
377.169
 20
404.826
 30
0.000000
  70
    32
  0
VERTEX
  8
AM_0
  5
1EA23
 10
377.185
 20
404.821
 30
0.000000
  70
    32
  0
VERTEX
  8
AM_0
  5
1EA24
 10
377.201
 20
404.816
 30
0.000000
  70
    32
  0
VERTEX
  8
AM_0
  5
1EA25
 10
377.218
 20
404.812
 30
0.000000
  70
    32
  0
VERTEX
  8
AM_0
  5
1EA26
 10
377.234
 20
404.807
 30
0.000000
  70
    32
  0
VERTEX
  8
AM_0
  5
1EA27
 10
377.250
 20
404.803
 30
0.000000
  70
    32
  0
VERTEX
  8
AM_0
  5
1EA28
 10
377.267
 20
404.799
 30
0.000000
  70
    32
  0
VERTEX
  8
AM_0
  5
1EA29
 10
377.283
 20
404.794
 30
0.000000
  70
    32
  0
VERTEX
  8
AM_0
  5
1EA2A
 10
377.300
 20
404.790
 30
0.000000
  70
    32
  0
VERTEX
  8
AM_0
  5
1EA2B
 10
377.316
 20
404.786
 30
0.000000
  70
    32
  0
VERTEX
  8
AM_0
  5
1EA2C
 10
377.333
 20
404.782
 30
0.000000
  70
    32
  0
VERTEX
  8
AM_0
  5
1EA2D
 10
377.349
 20
404.779
 30
0.000000
  70
    32
  0
VERTEX
  8
AM_0
  5
1EA2E
 10
377.366
 20
404.775
 30
0.000000
  70
    32
  0
VERTEX
  8
AM_0
  5
1EA2F
 10
377.382
 20
404.771
 30
0.000000
  70
    32
  0
VERTEX
  8
AM_0
  5
1EA30
 10
377.399
 20
404.768
 30
0.000000
  70
    32
  0
VERTEX
  8
AM_0
  5
1EA31
 10
377.415
 20
404.764
 30
0.000000
  70
    32
  0
VERTEX
  8
AM_0
  5
1EA32
 10
377.432
 20
404.761
 30
0.000000
  70
    32
  0
VERTEX
  8
AM_0
  5
1EA33
 10
377.449
 20
404.757
 30
0.000000
  70
    32
  0
VERTEX
  8
AM_0
  5
1EA34
 10
377.465
 20
404.754
 30
0.000000
  70
    32
  0
VERTEX
  8
AM_0
  5
1EA35
 10
377.482
 20
404.751
 30
0.000000
  70
    32
  0
VERTEX
  8
AM_0
  5
1EA36
 10
377.499
 20
404.748
 30
0.000000
  70
    32
  0
VERTEX
  8
AM_0
  5
1EA37
 10
377.515
 20
404.745
 30
0.000000
  70
    32
  0
VERTEX
  8
AM_0
  5
1EA38
 10
377.532
 20
404.742
 30
0.000000
  70
    32
  0
VERTEX
  8
AM_0
  5
1EA39
 10
377.549
 20
404.740
 30
0.000000
  70
    32
  0
VERTEX
  8
AM_0
  5
1EA3A
 10
377.565
 20
404.737
 30
0.000000
  70
    32
  0
VERTEX
  8
AM_0
  5
1EA3B
 10
377.582
 20
404.735
 30
0.000000
  70
    32
  0
VERTEX
  8
AM_0
  5
1EA3C
 10
377.599
 20
404.732
 30
0.000000
  70
    32
  0
VERTEX
  8
AM_0
  5
1EA3D
 10
377.616
 20
404.730
 30
0.000000
  70
    32
  0
VERTEX
  8
AM_0
  5
1EA3E
 10
377.632
 20
404.728
 30
0.000000
  70
    32
  0
VERTEX
  8
AM_0
  5
1EA3F
 10
377.649
 20
404.725
 30
0.000000
  70
    32
  0
VERTEX
  8
AM_0
  5
1EA40
 10
377.666
 20
404.723
 30
0.000000
  70
    32
  0
VERTEX
  8
AM_0
  5
1EA41
 10
377.683
 20
404.721
 30
0.000000
  70
    32
  0
VERTEX
  8
AM_0
  5
1EA42
 10
377.700
 20
404.720
 30
0.000000
  70
    32
  0
VERTEX
  8
AM_0
  5
1EA43
 10
377.717
 20
404.718
 30
0.000000
  70
    32
  0
VERTEX
  8
AM_0
  5
1EA44
 10
377.733
 20
404.716
 30
0.000000
  70
    32
  0
VERTEX
  8
AM_0
  5
1EA45
 10
377.750
 20
404.715
 30
0.000000
  70
    32
  0
VERTEX
  8
AM_0
  5
1EA46
 10
377.767
 20
404.713
 30
0.000000
  70
    32
  0
VERTEX
  8
AM_0
  5
1EA47
 10
377.784
 20
404.712
 30
0.000000
  70
    32
  0
VERTEX
  8
AM_0
  5
1EA48
 10
377.801
 20
404.710
 30
0.000000
  70
    32
  0
VERTEX
  8
AM_0
  5
1EA49
 10
377.818
 20
404.709
 30
0.000000
  70
    32
  0
VERTEX
  8
AM_0
  5
1EA4A
 10
377.835
 20
404.708
 30
0.000000
  70
    32
  0
VERTEX
  8
AM_0
  5
1EA4B
 10
377.852
 20
404.707
 30
0.000000
  70
    32
  0
VERTEX
  8
AM_0
  5
1EA4C
 10
377.869
 20
404.706
 30
0.000000
  70
    32
  0
VERTEX
  8
AM_0
  5
1EA4D
 10
377.885
 20
404.705
 30
0.000000
  70
    32
  0
VERTEX
  8
AM_0
  5
1EA4E
 10
377.902
 20
404.705
 30
0.000000
  70
    32
  0
VERTEX
  8
AM_0
  5
1EA4F
 10
377.919
 20
404.704
 30
0.000000
  70
    32
  0
VERTEX
  8
AM_0
  5
1EA50
 10
377.936
 20
404.704
 30
0.000000
  70
    32
  0
VERTEX
  8
AM_0
  5
1EA51
 10
377.953
 20
404.703
 30
0.000000
  70
    32
  0
VERTEX
  8
AM_0
  5
1EA52
 10
377.970
 20
404.703
 30
0.000000
  70
    32
  0
VERTEX
  8
AM_0
  5
1EA53
 10
377.987
 20
404.703
 30
0.000000
  70
    32
  0
VERTEX
  8
AM_0
  5
1EA54
 10
378.004
 20
404.702
 30
0.000000
  70
    32
  0
VERTEX
  8
AM_0
  5
1EA55
 10
378.021
 20
404.702
 30
0.000000
  70
    32
  0
SEQEND
  8
AM_0
  5
1EA56
  0
LINE
  5
1A30E
  8
AM_0
 10
437.40902260163449
 20
404.70090152437132
 30
0.0
 11
529.55229911344975
 21
404.70090152437132
 31
0.0
  0
CIRCLE
  5
1A30F
  8
0
 10
429.55229911344981
 20
432.70089935700378
 30
0.0
 40
7.0
  0
LINE
  5
1A310
  8
0
 10
413.9268294447246
 20
439.39751772986551
 30
0.0
 11
399.05747615672072
 21
404.70230055325919
 31
0.0
  0
CIRCLE
  5
1A312
  8
0
 10
414.55232616926219
 20
397.70090131365549
 30
0.0
 40
12.0
  0
ARC
  5
1A314
  8
AM_0
 10
414.55232616926219
 20
397.70090131365549
 30
0.0
 40
15.714285718999999
 50
270.35810043042108
 51
359.64189956957239
  0
POLYLINE
  5
1A315
  8
0
 66
     1
 10
0.0
 20
0.0
 30
0.0
 70
     1
  0
VERTEX
  5
1E6F3
  8
0
 10
409.55232616926202
 20
400.58765265960358
 30
0.0
  0
VERTEX
  5
1E6F4
  8
0
 10
409.55232616926202
 20
394.81414996770741
 30
0.0
  0
VERTEX
  5
1E6F5
  8
0
 10
414.55232616926219
 20
391.92739862175932
 30
0.0
  0
VERTEX
  5
1E6F6
  8
0
 10
419.55232616926207
 20
394.81414996770741
 30
0.0
  0
VERTEX
  5
1E6F7
  8
0
 10
419.55232616926207
 20
400.58765265960358
 30
0.0
  0
VERTEX
  5
1E6F8
  8
0
 10
414.55232616926219
 20
403.47440400555178
 30
0.0
  0
SEQEND
  5
1E6F9
  8
0
  0
CIRCLE
  5
1A316
  8
0
 10
414.55232616926219
 20
397.70090131365549
 30
0.0
 40
9.0
  0
ARC
  5
1A318
  8
AM_0
 10
414.55232616926219
 20
397.70090131365549
 30
0.0
 40
15.00000045153484
 50
90.000002504475205
 51
180.00000500895689
  0
POLYLINE
  5
1A319
  8
AM_0
 10
393.07112631716728
 20
396.61618546587164
 30
0.0
 66
     1
 70
     8
  0
VERTEX
  8
AM_0
  5
1EA57
 10
393.071
 20
396.616
 30
0.000000
  70
    32
  0
VERTEX
  8
AM_0
  5
1EA58
 10
393.036
 20
396.616
 30
0.000000
  70
    32
  0
VERTEX
  8
AM_0
  5
1EA59
 10
393.001
 20
396.615
 30
0.000000
  70
    32
  0
VERTEX
  8
AM_0
  5
1EA5A
 10
392.966
 20
396.614
 30
0.000000
  70
    32
  0
VERTEX
  8
AM_0
  5
1EA5B
 10
392.931
 20
396.613
 30
0.000000
  70
    32
  0
VERTEX
  8
AM_0
  5
1EA5C
 10
392.896
 20
396.611
 30
0.000000
  70
    32
  0
VERTEX
  8
AM_0
  5
1EA5D
 10
392.861
 20
396.609
 30
0.000000
  70
    32
  0
VERTEX
  8
AM_0
  5
1EA5E
 10
392.826
 20
396.606
 30
0.000000
  70
    32
  0
VERTEX
  8
AM_0
  5
1EA5F
 10
392.791
 20
396.603
 30
0.000000
  70
    32
  0
VERTEX
  8
AM_0
  5
1EA60
 10
392.756
 20
396.600
 30
0.000000
  70
    32
  0
VERTEX
  8
AM_0
  5
1EA61
 10
392.721
 20
396.596
 30
0.000000
  70
    32
  0
VERTEX
  8
AM_0
  5
1EA62
 10
392.686
 20
396.591
 30
0.000000
  70
    32
  0
VERTEX
  8
AM_0
  5
1EA63
 10
392.652
 20
396.587
 30
0.000000
  70
    32
  0
VERTEX
  8
AM_0
  5
1EA64
 10
392.617
 20
396.582
 30
0.000000
  70
    32
  0
VERTEX
  8
AM_0
  5
1EA65
 10
392.582
 20
396.576
 30
0.000000
  70
    32
  0
VERTEX
  8
AM_0
  5
1EA66
 10
392.548
 20
396.570
 30
0.000000
  70
    32
  0
VERTEX
  8
AM_0
  5
1EA67
 10
392.513
 20
396.564
 30
0.000000
  70
    32
  0
VERTEX
  8
AM_0
  5
1EA68
 10
392.479
 20
396.557
 30
0.000000
  70
    32
  0
VERTEX
  8
AM_0
  5
1EA69
 10
392.445
 20
396.550
 30
0.000000
  70
    32
  0
VERTEX
  8
AM_0
  5
1EA6A
 10
392.410
 20
396.543
 30
0.000000
  70
    32
  0
VERTEX
  8
AM_0
  5
1EA6B
 10
392.376
 20
396.535
 30
0.000000
  70
    32
  0
VERTEX
  8
AM_0
  5
1EA6C
 10
392.342
 20
396.526
 30
0.000000
  70
    32
  0
VERTEX
  8
AM_0
  5
1EA6D
 10
392.308
 20
396.518
 30
0.000000
  70
    32
  0
VERTEX
  8
AM_0
  5
1EA6E
 10
392.274
 20
396.508
 30
0.000000
  70
    32
  0
VERTEX
  8
AM_0
  5
1EA6F
 10
392.241
 20
396.499
 30
0.000000
  70
    32
  0
VERTEX
  8
AM_0
  5
1EA70
 10
392.207
 20
396.489
 30
0.000000
  70
    32
  0
VERTEX
  8
AM_0
  5
1EA71
 10
392.173
 20
396.479
 30
0.000000
  70
    32
  0
VERTEX
  8
AM_0
  5
1EA72
 10
392.140
 20
396.468
 30
0.000000
  70
    32
  0
VERTEX
  8
AM_0
  5
1EA73
 10
392.107
 20
396.457
 30
0.000000
  70
    32
  0
VERTEX
  8
AM_0
  5
1EA74
 10
392.074
 20
396.446
 30
0.000000
  70
    32
  0
VERTEX
  8
AM_0
  5
1EA75
 10
392.041
 20
396.434
 30
0.000000
  70
    32
  0
VERTEX
  8
AM_0
  5
1EA76
 10
392.008
 20
396.421
 30
0.000000
  70
    32
  0
VERTEX
  8
AM_0
  5
1EA77
 10
391.975
 20
396.409
 30
0.000000
  70
    32
  0
VERTEX
  8
AM_0
  5
1EA78
 10
391.943
 20
396.396
 30
0.000000
  70
    32
  0
VERTEX
  8
AM_0
  5
1EA79
 10
391.910
 20
396.382
 30
0.000000
  70
    32
  0
VERTEX
  8
AM_0
  5
1EA7A
 10
391.878
 20
396.369
 30
0.000000
  70
    32
  0
VERTEX
  8
AM_0
  5
1EA7B
 10
391.846
 20
396.355
 30
0.000000
  70
    32
  0
VERTEX
  8
AM_0
  5
1EA7C
 10
391.814
 20
396.340
 30
0.000000
  70
    32
  0
VERTEX
  8
AM_0
  5
1EA7D
 10
391.782
 20
396.325
 30
0.000000
  70
    32
  0
VERTEX
  8
AM_0
  5
1EA7E
 10
391.751
 20
396.310
 30
0.000000
  70
    32
  0
VERTEX
  8
AM_0
  5
1EA7F
 10
391.719
 20
396.294
 30
0.000000
  70
    32
  0
VERTEX
  8
AM_0
  5
1EA80
 10
391.688
 20
396.278
 30
0.000000
  70
    32
  0
VERTEX
  8
AM_0
  5
1EA81
 10
391.657
 20
396.262
 30
0.000000
  70
    32
  0
VERTEX
  8
AM_0
  5
1EA82
 10
391.626
 20
396.245
 30
0.000000
  70
    32
  0
VERTEX
  8
AM_0
  5
1EA83
 10
391.595
 20
396.228
 30
0.000000
  70
    32
  0
VERTEX
  8
AM_0
  5
1EA84
 10
391.565
 20
396.211
 30
0.000000
  70
    32
  0
VERTEX
  8
AM_0
  5
1EA85
 10
391.535
 20
396.193
 30
0.000000
  70
    32
  0
VERTEX
  8
AM_0
  5
1EA86
 10
391.505
 20
396.175
 30
0.000000
  70
    32
  0
VERTEX
  8
AM_0
  5
1EA87
 10
391.475
 20
396.156
 30
0.000000
  70
    32
  0
VERTEX
  8
AM_0
  5
1EA88
 10
391.445
 20
396.138
 30
0.000000
  70
    32
  0
VERTEX
  8
AM_0
  5
1EA89
 10
391.416
 20
396.118
 30
0.000000
  70
    32
  0
VERTEX
  8
AM_0
  5
1EA8A
 10
391.387
 20
396.099
 30
0.000000
  70
    32
  0
VERTEX
  8
AM_0
  5
1EA8B
 10
391.358
 20
396.079
 30
0.000000
  70
    32
  0
VERTEX
  8
AM_0
  5
1EA8C
 10
391.329
 20
396.059
 30
0.000000
  70
    32
  0
VERTEX
  8
AM_0
  5
1EA8D
 10
391.301
 20
396.038
 30
0.000000
  70
    32
  0
VERTEX
  8
AM_0
  5
1EA8E
 10
391.273
 20
396.017
 30
0.000000
  70
    32
  0
VERTEX
  8
AM_0
  5
1EA8F
 10
391.245
 20
395.996
 30
0.000000
  70
    32
  0
VERTEX
  8
AM_0
  5
1EA90
 10
391.217
 20
395.975
 30
0.000000
  70
    32
  0
VERTEX
  8
AM_0
  5
1EA91
 10
391.190
 20
395.953
 30
0.000000
  70
    32
  0
VERTEX
  8
AM_0
  5
1EA92
 10
391.163
 20
395.931
 30
0.000000
  70
    32
  0
VERTEX
  8
AM_0
  5
1EA93
 10
391.136
 20
395.908
 30
0.000000
  70
    32
  0
VERTEX
  8
AM_0
  5
1EA94
 10
391.109
 20
395.885
 30
0.000000
  70
    32
  0
VERTEX
  8
AM_0
  5
1EA95
 10
391.083
 20
395.862
 30
0.000000
  70
    32
  0
VERTEX
  8
AM_0
  5
1EA96
 10
391.056
 20
395.839
 30
0.000000
  70
    32
  0
VERTEX
  8
AM_0
  5
1EA97
 10
391.031
 20
395.815
 30
0.000000
  70
    32
  0
VERTEX
  8
AM_0
  5
1EA98
 10
391.005
 20
395.791
 30
0.000000
  70
    32
  0
VERTEX
  8
AM_0
  5
1EA99
 10
390.980
 20
395.767
 30
0.000000
  70
    32
  0
VERTEX
  8
AM_0
  5
1EA9A
 10
390.955
 20
395.742
 30
0.000000
  70
    32
  0
VERTEX
  8
AM_0
  5
1EA9B
 10
390.930
 20
395.718
 30
0.000000
  70
    32
  0
VERTEX
  8
AM_0
  5
1EA9C
 10
390.906
 20
395.692
 30
0.000000
  70
    32
  0
VERTEX
  8
AM_0
  5
1EA9D
 10
390.882
 20
395.667
 30
0.000000
  70
    32
  0
VERTEX
  8
AM_0
  5
1EA9E
 10
390.858
 20
395.641
 30
0.000000
  70
    32
  0
VERTEX
  8
AM_0
  5
1EA9F
 10
390.834
 20
395.615
 30
0.000000
  70
    32
  0
VERTEX
  8
AM_0
  5
1EAA0
 10
390.811
 20
395.589
 30
0.000000
  70
    32
  0
VERTEX
  8
AM_0
  5
1EAA1
 10
390.788
 20
395.562
 30
0.000000
  70
    32
  0
VERTEX
  8
AM_0
  5
1EAA2
 10
390.765
 20
395.536
 30
0.000000
  70
    32
  0
VERTEX
  8
AM_0
  5
1EAA3
 10
390.743
 20
395.508
 30
0.000000
  70
    32
  0
VERTEX
  8
AM_0
  5
1EAA4
 10
390.721
 20
395.481
 30
0.000000
  70
    32
  0
VERTEX
  8
AM_0
  5
1EAA5
 10
390.700
 20
395.454
 30
0.000000
  70
    32
  0
VERTEX
  8
AM_0
  5
1EAA6
 10
390.678
 20
395.426
 30
0.000000
  70
    32
  0
VERTEX
  8
AM_0
  5
1EAA7
 10
390.657
 20
395.398
 30
0.000000
  70
    32
  0
VERTEX
  8
AM_0
  5
1EAA8
 10
390.637
 20
395.369
 30
0.000000
  70
    32
  0
VERTEX
  8
AM_0
  5
1EAA9
 10
390.616
 20
395.341
 30
0.000000
  70
    32
  0
VERTEX
  8
AM_0
  5
1EAAA
 10
390.596
 20
395.312
 30
0.000000
  70
    32
  0
VERTEX
  8
AM_0
  5
1EAAB
 10
390.577
 20
395.283
 30
0.000000
  70
    32
  0
VERTEX
  8
AM_0
  5
1EAAC
 10
390.557
 20
395.254
 30
0.000000
  70
    32
  0
VERTEX
  8
AM_0
  5
1EAAD
 10
390.538
 20
395.224
 30
0.000000
  70
    32
  0
VERTEX
  8
AM_0
  5
1EAAE
 10
390.520
 20
395.194
 30
0.000000
  70
    32
  0
VERTEX
  8
AM_0
  5
1EAAF
 10
390.502
 20
395.164
 30
0.000000
  70
    32
  0
VERTEX
  8
AM_0
  5
1EAB0
 10
390.484
 20
395.134
 30
0.000000
  70
    32
  0
VERTEX
  8
AM_0
  5
1EAB1
 10
390.466
 20
395.104
 30
0.000000
  70
    32
  0
VERTEX
  8
AM_0
  5
1EAB2
 10
390.449
 20
395.073
 30
0.000000
  70
    32
  0
VERTEX
  8
AM_0
  5
1EAB3
 10
390.432
 20
395.043
 30
0.000000
  70
    32
  0
VERTEX
  8
AM_0
  5
1EAB4
 10
390.415
 20
395.012
 30
0.000000
  70
    32
  0
VERTEX
  8
AM_0
  5
1EAB5
 10
390.399
 20
394.981
 30
0.000000
  70
    32
  0
VERTEX
  8
AM_0
  5
1EAB6
 10
390.384
 20
394.949
 30
0.000000
  70
    32
  0
VERTEX
  8
AM_0
  5
1EAB7
 10
390.368
 20
394.918
 30
0.000000
  70
    32
  0
VERTEX
  8
AM_0
  5
1EAB8
 10
390.353
 20
394.886
 30
0.000000
  70
    32
  0
VERTEX
  8
AM_0
  5
1EAB9
 10
390.339
 20
394.854
 30
0.000000
  70
    32
  0
VERTEX
  8
AM_0
  5
1EABA
 10
390.324
 20
394.822
 30
0.000000
  70
    32
  0
VERTEX
  8
AM_0
  5
1EABB
 10
390.310
 20
394.790
 30
0.000000
  70
    32
  0
VERTEX
  8
AM_0
  5
1EABC
 10
390.297
 20
394.758
 30
0.000000
  70
    32
  0
VERTEX
  8
AM_0
  5
1EABD
 10
390.284
 20
394.725
 30
0.000000
  70
    32
  0
VERTEX
  8
AM_0
  5
1EABE
 10
390.271
 20
394.693
 30
0.000000
  70
    32
  0
VERTEX
  8
AM_0
  5
1EABF
 10
390.258
 20
394.660
 30
0.000000
  70
    32
  0
VERTEX
  8
AM_0
  5
1EAC0
 10
390.246
 20
394.627
 30
0.000000
  70
    32
  0
VERTEX
  8
AM_0
  5
1EAC1
 10
390.235
 20
394.594
 30
0.000000
  70
    32
  0
VERTEX
  8
AM_0
  5
1EAC2
 10
390.224
 20
394.560
 30
0.000000
  70
    32
  0
VERTEX
  8
AM_0
  5
1EAC3
 10
390.213
 20
394.527
 30
0.000000
  70
    32
  0
VERTEX
  8
AM_0
  5
1EAC4
 10
390.202
 20
394.494
 30
0.000000
  70
    32
  0
VERTEX
  8
AM_0
  5
1EAC5
 10
390.192
 20
394.460
 30
0.000000
  70
    32
  0
VERTEX
  8
AM_0
  5
1EAC6
 10
390.183
 20
394.426
 30
0.000000
  70
    32
  0
VERTEX
  8
AM_0
  5
1EAC7
 10
390.173
 20
394.393
 30
0.000000
  70
    32
  0
VERTEX
  8
AM_0
  5
1EAC8
 10
390.164
 20
394.359
 30
0.000000
  70
    32
  0
VERTEX
  8
AM_0
  5
1EAC9
 10
390.156
 20
394.325
 30
0.000000
  70
    32
  0
VERTEX
  8
AM_0
  5
1EACA
 10
390.148
 20
394.291
 30
0.000000
  70
    32
  0
VERTEX
  8
AM_0
  5
1EACB
 10
390.140
 20
394.256
 30
0.000000
  70
    32
  0
VERTEX
  8
AM_0
  5
1EACC
 10
390.133
 20
394.222
 30
0.000000
  70
    32
  0
VERTEX
  8
AM_0
  5
1EACD
 10
390.126
 20
394.188
 30
0.000000
  70
    32
  0
VERTEX
  8
AM_0
  5
1EACE
 10
390.120
 20
394.153
 30
0.000000
  70
    32
  0
VERTEX
  8
AM_0
  5
1EACF
 10
390.114
 20
394.119
 30
0.000000
  70
    32
  0
VERTEX
  8
AM_0
  5
1EAD0
 10
390.108
 20
394.084
 30
0.000000
  70
    32
  0
VERTEX
  8
AM_0
  5
1EAD1
 10
390.103
 20
394.049
 30
0.000000
  70
    32
  0
VERTEX
  8
AM_0
  5
1EAD2
 10
390.098
 20
394.015
 30
0.000000
  70
    32
  0
VERTEX
  8
AM_0
  5
1EAD3
 10
390.093
 20
393.980
 30
0.000000
  70
    32
  0
VERTEX
  8
AM_0
  5
1EAD4
 10
390.089
 20
393.945
 30
0.000000
  70
    32
  0
VERTEX
  8
AM_0
  5
1EAD5
 10
390.086
 20
393.910
 30
0.000000
  70
    32
  0
VERTEX
  8
AM_0
  5
1EAD6
 10
390.082
 20
393.875
 30
0.000000
  70
    32
  0
VERTEX
  8
AM_0
  5
1EAD7
 10
390.080
 20
393.840
 30
0.000000
  70
    32
  0
SEQEND
  8
AM_0
  5
1EAD8
  0
LINE
  5
1A31A
  8
AM_0
 10
393.07112631716751
 20
396.61618546587152
 30
0.0
 11
397.05232571697729
 21
396.61618546587152
 31
0.0
  0
ARC
  5
1A31B
  8
AM_0
 10
414.69518310354562
 20
374.84420488128308
 30
0.0
 40
7.142857144999998
 50
90.358100430421089
 51
180.0
1001
GENIUS_GENODEF_13
1002
{
1000
HIER
1070
     0
1002
}
1002
{
1000
MANEDIT
1070
     0
1002
}
1002
{
1000
NOSEL
1070
     0
1002
}
1002
{
1000
BEHIND
1070
     0
1002
}
1002
{
1000
OTHER
1070
     0
1002
}
1002
{
1000
REACTOR
1002
}
1001
GENIUS_GENOBJ-N-FIL_13
1002
{
1000
OWNER
1000
GEN
1002
}
  0
ARC
  5
1A31C
  8
0
 10
399.58566981652172
 20
407.70085993615629
 30
0.0
 40
3.000000000899997
 50
269.99993053471542
 51
326.2511624023947
1001
GENIUS_GENOBJ-N-FIL_13
1002
{
1000
OWNER
1000
GEN
1002
}
1001
GENIUS_GENODEF_13
1002
{
1000
HIER
1070
     0
1002
}
1002
{
1000
MANEDIT
1070
     0
1002
}
1002
{
1000
NOSEL
1070
     0
1002
}
1002
{
1000
BEHIND
1070
     0
1002
}
1002
{
1000
OTHER
1070
     0
1002
}
1002
{
1000
REACTOR
1002
}
  0
ARC
  5
1A31D
  8
AM_0
 10
437.40902260163449
 20
397.55804437937172
 30
0.0
 40
7.142857144999998
 50
90.0
 51
179.6418995695789
1001
GENIUS_GENODEF_13
1002
{
1000
HIER
1070
     0
1002
}
1002
{
1000
MANEDIT
1070
     0
1002
}
1002
{
1000
NOSEL
1070
     0
1002
}
1002
{
1000
BEHIND
1070
     0
1002
}
1002
{
1000
OTHER
1070
     0
1002
}
1002
{
1000
REACTOR
1002
}
1001
GENIUS_GENOBJ-N-FIL_13
1002
{
1000
OWNER
1000
GEN
1002
}
  0
ARC
  5
1A31E
  8
0
 10
429.55229911344981
 20
432.70089935700378
 30
0.0
 40
16.999999999999709
 50
90.0
 51
156.80144506545
  0
LINE
  5
1A323
  8
AM_0
 10
606.55230137112449
 20
397.70090131365549
 30
0.0
 11
606.55230137112449
 21
267.70089740035331
 31
0.0
  0
LINE
  5
1A324
  8
AM_0
 10
596.55230113030518
 20
290.55759383272601
 30
0.0
 11
596.55230113030518
 21
374.84420488128308
 31
0.0
  0
LINE
  5
1A325
  8
AM_0
 10
604.55230137112426
 20
397.70090131365549
 30
0.0
 11
604.55230137112426
 21
267.70089740035331
 31
0.0
  0
LINE
  5
1A327
  8
0
 10
590.17779764412694
 20
226.00428098414281
 30
0.0
 11
605.17777100334092
 21
261.0042788496242
 31
0.0
  0
ARC
  5
1A328
  8
AM_0
 10
589.55230091958924
 20
267.70089740035331
 30
0.0
 40
15.00000045153484
 50
269.99999749551819
 51
0.0
  0
ARC
  5
1A32C
  8
0
 10
574.55232797540168
 20
232.7008993570042
 30
0.0
 40
16.999999999999709
 50
270.0
 51
336.80144506545003
  0
CIRCLE
  5
1A32D
  8
0
 10
574.55232797540168
 20
232.7008993570042
 30
0.0
 40
7.0
  0
ARC
  5
1A330
  8
AM_0
 10
589.40944398530542
 20
290.55759383272601
 30
0.0
 40
7.142857144999998
 50
270.35810043042108
 51
0.0
1001
GENIUS_GENODEF_13
1002
{
1000
HIER
1070
     0
1002
}
1002
{
1000
MANEDIT
1070
     0
1002
}
1002
{
1000
NOSEL
1070
     0
1002
}
1002
{
1000
BEHIND
1070
     0
1002
}
1002
{
1000
OTHER
1070
     0
1002
}
1002
{
1000
REACTOR
1002
}
1001
GENIUS_GENOBJ-N-FIL_13
1002
{
1000
OWNER
1000
GEN
1002
}
  0
ARC
  5
1A331
  8
AM_0
 10
589.55230091958924
 20
267.70089740035331
 30
0.0
 40
15.714285718999999
 50
90.358100430421089
 51
179.6418995695789
  0
CIRCLE
  5
1A332
  8
0
 10
589.55230091958924
 20
267.70089740035331
 30
0.0
 40
12.0
  0
ARC
  5
1A334
  8
AM_0
 10
566.69560448721677
 20
267.84375433463708
 30
0.0
 40
7.142857144999998
 50
270.0
 51
359.64189956957892
1001
GENIUS_GENOBJ-N-FIL_13
1002
{
1000
OWNER
1000
GEN
1002
}
1001
GENIUS_GENODEF_13
1002
{
1000
HIER
1070
     0
1002
}
1002
{
1000
MANEDIT
1070
     0
1002
}
1002
{
1000
NOSEL
1070
     0
1002
}
1002
{
1000
BEHIND
1070
     0
1002
}
1002
{
1000
OTHER
1070
     0
1002
}
1002
{
1000
REACTOR
1002
}
  0
POLYLINE
  5
1A335
  8
0
 66
     1
 10
0.0
 20
0.0
 30
0.0
 70
     1
  0
VERTEX
  5
1E6FA
  8
0
 10
584.55230091958924
 20
270.58764874630128
 30
0.0
  0
VERTEX
  5
1E6FB
  8
0
 10
584.55230091958924
 20
264.814146054405
 30
0.0
  0
VERTEX
  5
1E6FC
  8
0
 10
589.55230091958924
 20
261.92739470845692
 30
0.0
  0
VERTEX
  5
1E6FD
  8
0
 10
594.55230091958924
 20
264.814146054405
 30
0.0
  0
VERTEX
  5
1E6FE
  8
0
 10
594.55230091958924
 20
270.58764874630128
 30
0.0
  0
VERTEX
  5
1E6FF
  8
0
 10
589.55230091958924
 20
273.47440009224943
 30
0.0
  0
SEQEND
  5
1E700
  8
0
  0
CIRCLE
  5
1A336
  8
0
 10
589.55230091958924
 20
267.70089740035331
 30
0.0
 40
9.0
  0
ARC
  5
1A338
  8
AM_0
 10
589.55230091958924
 20
267.70089740035331
 30
0.0
 40
17.000000451534831
 50
336.80144506545003
 51
0.0
  0
LINE
  5
1A33A
  8
0
 10
590.17779764412694
 20
439.39751772986551
 30
0.0
 11
605.17777100334092
 21
404.39751986438381
 31
0.0
  0
CIRCLE
  5
1A33B
  8
0
 10
574.55232797540168
 20
432.70089935700378
 30
0.0
 40
7.0
  0
LINE
  5
1A33C
  8
ﾁｭｳｼﾝｾﾝ1
 10
574.55232797540202
 20
417.700899357004
 30
0.0
 11
574.55232797540202
 21
447.70089935700412
 31
0.0
  0
ARC
  5
1A33D
  8
AM_0
 10
589.55230091958924
 20
397.70090131365549
 30
0.0
 40
15.000000451534831
 50
0.0
 51
90.000002504475205
  0
POLYLINE
  5
1A33E
  8
0
 66
     1
 10
0.0
 20
0.0
 30
0.0
 70
     1
  0
VERTEX
  5
1E701
  8
0
 10
584.55230091958924
 20
400.58765265960358
 30
0.0
  0
VERTEX
  5
1E702
  8
0
 10
584.55230091958924
 20
394.81414996770741
 30
0.0
  0
VERTEX
  5
1E703
  8
0
 10
589.55230091958924
 20
391.92739862175932
 30
0.0
  0
VERTEX
  5
1E704
  8
0
 10
594.55230091958924
 20
394.81414996770741
 30
0.0
  0
VERTEX
  5
1E705
  8
0
 10
594.55230091958924
 20
400.58765265960358
 30
0.0
  0
VERTEX
  5
1E706
  8
0
 10
589.55230091958924
 20
403.47440400555178
 30
0.0
  0
SEQEND
  5
1E707
  8
0
  0
CIRCLE
  5
1A33F
  8
0
 10
589.55230091958924
 20
397.70090131365549
 30
0.0
 40
9.0
  0
CIRCLE
  5
1A340
  8
0
 10
589.55230091958924
 20
397.70090131365549
 30
0.0
 40
12.0
  0
ARC
  5
1A342
  8
AM_0
 10
566.69560448721677
 20
397.55804437937172
 30
0.0
 40
7.142857144999998
 50
0.3581004304211079
 51
90.0
1001
GENIUS_GENOBJ-N-FIL_13
1002
{
1000
OWNER
1000
GEN
1002
}
1001
GENIUS_GENODEF_13
1002
{
1000
HIER
1070
     0
1002
}
1002
{
1000
MANEDIT
1070
     0
1002
}
1002
{
1000
NOSEL
1070
     0
1002
}
1002
{
1000
BEHIND
1070
     0
1002
}
1002
{
1000
OTHER
1070
     0
1002
}
1002
{
1000
REACTOR
1002
}
  0
ARC
  5
1A343
  8
AM_0
 10
589.55230091958924
 20
397.70090131365549
 30
0.0
 40
15.714285718999999
 50
180.3581004304211
 51
269.64189956957239
  0
ARC
  5
1A345
  8
AM_0
 10
589.40944398530542
 20
374.84420488128308
 30
0.0
 40
7.142857144999998
 50
0.0
 51
89.641899569578882
1001
GENIUS_GENODEF_13
1002
{
1000
HIER
1070
     0
1002
}
1002
{
1000
MANEDIT
1070
     0
1002
}
1002
{
1000
NOSEL
1070
     0
1002
}
1002
{
1000
BEHIND
1070
     0
1002
}
1002
{
1000
OTHER
1070
     0
1002
}
1002
{
1000
REACTOR
1002
}
1001
GENIUS_GENOBJ-N-FIL_13
1002
{
1000
OWNER
1000
GEN
1002
}
  0
ARC
  5
1A347
  8
AM_0
 10
589.55230091958924
 20
397.70090131365509
 30
0.0
 40
17.000000451534831
 50
0.0
 51
23.198554934550032
  0
ARC
  5
1A348
  8
0
 10
574.55232797540168
 20
432.70089935700378
 30
0.0
 40
16.999999999999709
 50
23.198554934550032
 51
90.0
  0
LINE
  5
1A349
  8
ﾁｭｳｼﾝｾﾝ1
 10
589.55232797540179
 20
432.70089935700378
 30
0.0
 11
559.55232797540179
 21
432.70089935700378
 31
0.0
  0
LINE
  5
1A34D
  8
AM_0
 10
832.59188551043781
 20
382.70090056409731
 30
0.0
 11
832.59188551043781
 21
282.7008981499115
 31
0.0
  0
LINE
  5
1A34E
  8
AM_0
 10
996.59188743698667
 20
215.70089935700469
 30
0.0
 11
996.59188743698667
 21
449.70089935700452
 31
0.0
  0
LINE
  5
1A354
  8
AM_0
 10
930.59188867118178
 20
252.82308292294019
 30
0.0
 11
930.59188867118178
 21
412.5787157910691
 31
0.0
  0
LINE
  5
1A356
  8
AM_0
 10
837.59188566094997
 20
254.44641091737861
 30
0.0
 11
837.59188566094997
 21
410.95538779663059
 31
0.0
  0
LINE
  5
1A357
  8
ﾁｭｳｼﾝｾﾝ1
 10
896.5918874933285
 20
210.6306360013063
 30
0.0
 11
896.59188743793072
 21
429.55307251168119
 31
0.0
  0
LINE
  5
1A35A
  8
ﾁｭｳｼﾝｾﾝ1
 10
1005.872158014054
 20
332.70089935700418
 30
0.0
 11
733.66222536651685
 21
332.70089935700469
 31
0.0
  0
LINE
  5
1A35D
  8
AM_0
 10
837.59188566094997
 20
254.44641091737861
 30
0.0
 11
930.59188867118178
 21
252.82308292294039
 31
0.0
  0
LINE
  5
1A365
  8
0
 10
741.59188743698621
 20
351.7008993570044
 30
0.0
 11
786.59188743698621
 21
351.7008993570044
 31
0.0
  0
LINE
  5
1A366
  8
0
 10
741.59188743698621
 20
348.70089935700429
 30
0.0
 11
799.59188743698621
 21
348.70089935700429
 31
0.0
  0
LINE
  5
1A367
  8
0
 10
741.59188743698621
 20
316.70089935700418
 30
0.0
 11
799.59188743698621
 21
316.70089935700418
 31
0.0
  0
LINE
  5
1A368
  8
AM_0
 10
741.59188743698621
 20
316.70089935700418
 30
0.0
 11
741.59188743698621
 21
351.7008993570044
 31
0.0
  0
LINE
  5
1A369
  8
0
 10
799.59188743698621
 20
312.70089935700418
 30
0.0
 11
827.59188535992678
 21
307.70089860444688
 31
0.0
  0
LINE
  5
1A36A
  8
AM_0
 10
827.59188535992678
 20
357.70090010956301
 30
0.0
 11
827.59188535992678
 21
307.70089860444688
 31
0.0
  0
LINE
  5
1A36D
  8
0
 10
823.09188566094997
 20
258.70089740035371
 30
0.0
 11
835.09188566095008
 21
258.70089740035371
 31
0.0
  0
LINE
  5
1A36E
  8
AM_0
 10
835.09188566095008
 20
276.70089740035371
 30
0.0
 11
823.09188566094997
 21
276.70089740035371
 31
0.0
  0
LINE
  5
1A36F
  8
0
 10
823.09188566094997
 20
276.70089740035371
 30
0.0
 11
823.09188566094997
 21
258.70089740035371
 31
0.0
  0
LINE
  5
1A370
  8
0
 10
835.09188566095008
 20
279.70089740035371
 30
0.0
 11
835.09188566095008
 21
255.70089740035371
 31
0.0
  0
LINE
  5
1A371
  8
0
 10
835.09188566095008
 20
255.70089740035371
 30
0.0
 11
837.59188566094997
 21
255.70089740035371
 31
0.0
  0
LINE
  5
1A372
  8
AM_0
 10
837.59188566094997
 20
279.70089740035371
 30
0.0
 11
835.09188566095008
 21
279.70089740035371
 31
0.0
  0
LINE
  5
1A37B
  8
AM_0
 10
832.59188551043781
 20
282.7008981499115
 30
0.0
 11
837.59188566094997
 21
282.7008981499115
 31
0.0
  0
LINE
  5
1A37F
  8
AM_0
 10
832.59188551043826
 20
307.70089860444688
 30
0.0
 11
827.59188535992678
 21
307.70089860444688
 31
0.0
  0
LINE
  5
1A380
  8
0
 10
799.59188743698621
 20
352.70089935700429
 30
0.0
 11
827.59188535992678
 21
357.70090010956301
 31
0.0
  0
LINE
  5
1A381
  8
0
 10
799.59188743698621
 20
352.70089935700429
 30
0.0
 11
799.59188743698621
 21
312.70089935700418
 31
0.0
  0
LINE
  5
1A382
  8
0
 10
786.59188743698621
 20
351.7008993570044
 30
0.0
 11
786.59188743698621
 21
348.70089935700429
 31
0.0
  0
LINE
  5
1A397
  8
AM_0
 10
832.59188551043826
 20
357.70090010956301
 30
0.0
 11
827.59188535992678
 21
357.70090010956301
 31
0.0
  0
LINE
  5
1A39C
  8
AM_0
 10
930.59188867118178
 20
252.82308292294039
 30
0.0
 11
968.64424677231636
 21
252.15885410952831
 31
0.0
  0
LINE
  5
1A94C
  8
ﾁｭｳｼﾝｾﾝ1
 10
968.58509808726103
 20
232.70089935700381
 30
0.0
 11
1000.226091342029
 21
232.70089935700381
 31
0.0
  0
LINE
  5
1A94F
  8
AM_0
 10
996.59188743698667
 20
215.70089935700469
 30
0.0
 11
973.52208844358165
 21
216.50651448987429
 31
0.0
  0
LINE
  5
1A951
  8
AM_0
 10
971.59188743698667
 20
218.50529614391269
 30
0.0
 11
971.59188743698667
 21
249.15931106099501
 31
0.0
  0
ARC
  5
1A952
  8
0
 10
973.59188743698667
 20
218.50529614391269
 30
0.0
 40
2.0
 50
180.0
 51
267.99999999999631
1001
GENIUS_GENOBJ-N-FIL_13
1002
{
1000
OWNER
1000
GEN
1002
}
1001
GENIUS_GENODEF_13
1002
{
1000
HIER
1070
     0
1002
}
1002
{
1000
MANEDIT
1070
     0
1002
}
1002
{
1000
NOSEL
1070
     0
1002
}
1002
{
1000
BEHIND
1070
     0
1002
}
1002
{
1000
OTHER
1070
     0
1002
}
1002
{
1000
REACTOR
1002
}
  0
ARC
  5
1A953
  8
AM_0
 10
968.59188743698655
 20
249.15931106099501
 30
0.0
 40
3.0
 50
0.0
 51
88.999959580877501
1001
GENIUS_GENOBJ-N-FIL_13
1002
{
1000
OWNER
1000
GEN
1002
}
1001
GENIUS_GENODEF_13
1002
{
1000
HIER
1070
     0
1002
}
1002
{
1000
MANEDIT
1070
     0
1002
}
1002
{
1000
NOSEL
1070
     0
1002
}
1002
{
1000
BEHIND
1070
     0
1002
}
1002
{
1000
OTHER
1070
     0
1002
}
1002
{
1000
REACTOR
1002
}
  0
LINE
  5
1A96F
  8
AM_0
 10
837.59188566094997
 20
410.95538779663059
 30
0.0
 11
930.59188867118178
 21
412.5787157910691
 31
0.0
  0
LINE
  5
1A970
  8
AM_0
 10
823.09188566094997
 20
388.70090131365561
 30
0.0
 11
823.09188566094997
 21
406.70090131365532
 31
0.0
  0
LINE
  5
1A971
  8
0
 10
835.09188566095008
 20
385.70090131365561
 30
0.0
 11
835.09188566095008
 21
409.70090131365532
 31
0.0
  0
LINE
  5
1A974
  8
AM_0
 10
835.09188566095008
 20
388.70090131365561
 30
0.0
 11
823.09188566094997
 21
388.70090131365561
 31
0.0
  0
LINE
  5
1A976
  8
AM_0
 10
832.59188551043781
 20
382.70090056409731
 30
0.0
 11
837.59188566094997
 21
382.70090056409731
 31
0.0
  0
LINE
  5
1A97A
  8
AM_0
 10
837.59188566094997
 20
385.70090131365561
 30
0.0
 11
835.09188566095008
 21
385.70090131365561
 31
0.0
  0
LINE
  5
1A97B
  8
AM_0
 10
823.09188566094997
 20
406.70090131365532
 30
0.0
 11
835.09188566095008
 21
406.70090131365532
 31
0.0
  0
LINE
  5
1A97D
  8
0
 10
835.09188566095008
 20
409.70090131365532
 30
0.0
 11
837.59188566094997
 21
409.70090131365532
 31
0.0
  0
LINE
  5
1A980
  8
AM_0
 10
930.59188867118178
 20
412.5787157910691
 30
0.0
 11
968.64424168837672
 21
413.24289186892628
 31
0.0
  0
LINE
  5
1A993
  8
AM_0
 10
971.59188743698633
 20
416.24243500619951
 30
0.0
 11
971.59188743698667
 21
446.89650257009652
 31
0.0
  0
ARC
  5
1A9A3
  8
AM_0
 10
968.59188743698621
 20
416.24243500619951
 30
0.0
 40
3.0
 50
270.99994330824171
 51
0.0
1001
GENIUS_GENOBJ-N-FIL_13
1002
{
1000
OWNER
1000
GEN
1002
}
1001
GENIUS_GENODEF_13
1002
{
1000
HIER
1070
     0
1002
}
1002
{
1000
MANEDIT
1070
     0
1002
}
1002
{
1000
NOSEL
1070
     0
1002
}
1002
{
1000
BEHIND
1070
     0
1002
}
1002
{
1000
OTHER
1070
     0
1002
}
1002
{
1000
REACTOR
1002
}
  0
LINE
  5
1A9A7
  8
ﾁｭｳｼﾝｾﾝ1
 10
968.58509808726103
 20
432.70089935700452
 30
0.0
 11
1000.226091342029
 21
432.70089935700452
 31
0.0
  0
LINE
  5
1A9A9
  8
AM_0
 10
996.59188743698667
 20
449.70089935700452
 30
0.0
 11
973.52208844358165
 21
448.8952842241348
 31
0.0
  0
ARC
  5
1A9AB
  8
0
 10
973.59188743698667
 20
446.89650257009652
 30
0.0
 40
2.0
 50
92.000000000003695
 51
180.0
1001
GENIUS_GENODEF_13
1002
{
1000
HIER
1070
     0
1002
}
1002
{
1000
MANEDIT
1070
     0
1002
}
1002
{
1000
NOSEL
1070
     0
1002
}
1002
{
1000
BEHIND
1070
     0
1002
}
1002
{
1000
OTHER
1070
     0
1002
}
1002
{
1000
REACTOR
1002
}
1001
GENIUS_GENOBJ-N-FIL_13
1002
{
1000
OWNER
1000
GEN
1002
}
  0
CIRCLE
  5
1AD56
  8
ｽﾝﾎﾟｳｾﾝ
 10
529.55229911344975
 20
332.70089935700469
 30
0.0
 40
4.0
  0
CIRCLE
  5
1B05D
  8
AM_0
 10
529.55229911344975
 20
332.70089935700469
 30
0.0
 40
3.399999999999999
  0
LINE
  5
1B061
  8
ﾁｭｳｼﾝｾﾝ1
 10
429.55229911344981
 20
417.700899357004
 30
0.0
 11
429.55229911344981
 21
447.70089935700412
 31
0.0
  0
LINE
  5
1B062
  8
ﾁｭｳｼﾝｾﾝ1
 10
444.55229911344958
 20
432.70089935700378
 30
0.0
 11
414.55229911344958
 21
432.70089935700378
 31
0.0
  0
LINE
  5
1B063
  8
ﾁｭｳｼﾝｾﾝ1
 10
429.55229911344981
 20
217.7008993570042
 30
0.0
 11
429.55229911344981
 21
247.7008993570042
 31
0.0
  0
LINE
  5
1B064
  8
ﾁｭｳｼﾝｾﾝ1
 10
444.55229911344958
 20
232.7008993570042
 30
0.0
 11
414.55229911344958
 21
232.7008993570042
 31
0.0
  0
LINE
  5
1B065
  8
ﾁｭｳｼﾝｾﾝ1
 10
574.55232797540168
 20
217.7008993570042
 30
0.0
 11
574.55232797540168
 21
247.7008993570042
 31
0.0
  0
LINE
  5
1B066
  8
ﾁｭｳｼﾝｾﾝ1
 10
589.55232797540145
 20
232.7008993570042
 30
0.0
 11
559.55232797540145
 21
232.7008993570042
 31
0.0
  0
ARC
  5
1B067
  8
ｶｸﾚｾﾝ2
 10
414.55232616926219
 20
267.70089740035331
 30
0.0
 40
17.000000451534831
 50
180.0
 51
203.19855493455
  0
ARC
  5
1B068
  8
ｶｸﾚｾﾝ2
 10
414.55232616926219
 20
397.70090131365509
 30
0.0
 40
17.000000451534831
 50
156.80144506545
 51
180.0
  0
LINE
  5
1B069
  8
ｶｸﾚｾﾝ2
 10
399.05747615672072
 20
404.70230055325919
 30
0.0
 11
398.92685608551091
 21
404.39751986438409
 31
0.0
  0
LINE
  5
1B06A
  8
ｶｸﾚｾﾝ2
 10
398.92685608551091
 20
261.00427884962357
 30
0.0
 11
399.05685902483168
 21
260.70093813762549
 31
0.0
  0
LINE
  5
1B110
  8
AM_0
 10
579.55330030556627
 20
650.76079770580168
 30
0.0
 11
479.55129792133317
 21
650.76079770580168
 31
0.0
  0
LINE
  5
1B111
  8
AM_0
 10
401.17568617823378
 20
655.76079785631316
 30
0.0
 11
602.92894091061248
 21
655.76079785631316
 31
0.0
  0
LINE
  5
1B112
  8
AM_0
 10
399.55232571772717
 20
748.76080086654554
 30
0.0
 11
604.55230137112426
 21
748.76080086654565
 31
0.0
  0
LINE
  5
1B113
  8
ﾁｭｳｼﾝｾﾝ1
 10
61.740000000000002
 20
714.76080372532101
 30
0.0
 11
609.55230137112414
 21
714.76079872532102
 31
0.0
  0
LINE
  5
1B153
  8
AM_0
 10
377.05227179065059
 20
644.2594060645099
 30
0.0
 11
377.05227179065082
 21
714.7608015201057
 31
0.0
  0
LINE
  5
1B154
  8
AM_0
 10
401.17568617823378
 20
655.76079785631316
 30
0.0
 11
399.55232571766192
 21
748.76080086654554
 31
0.0
  0
LINE
  5
1B156
  8
AM_0
 10
363.05227178645077
 20
788.26078772532105
 30
0.0
 11
363.05227178645077
 21
641.26079872532114
 31
0.0
  0
ARC
  5
1B158
  8
AM_0
 10
384.33235933415921
 20
784.76222056935114
 30
0.0
 40
2.0
 50
4.9999999999994991
 51
89.999930533327898
1001
GENIUS_GENODEF_13
1002
{
1000
HIER
1070
     0
1002
}
1002
{
1000
MANEDIT
1070
     0
1002
}
1002
{
1000
NOSEL
1070
     0
1002
}
1002
{
1000
BEHIND
1070
     0
1002
}
1002
{
1000
OTHER
1070
     0
1002
}
1002
{
1000
REACTOR
1002
}
1001
GENIUS_GENOBJ-N-FIL_13
1002
{
1000
OWNER
1000
GEN
1002
}
  0
LINE
  5
1B159
  8
AM_0
 10
377.05227179065082
 20
785.2621969757015
 30
0.0
 11
377.05227179065082
 21
714.7608015201057
 31
0.0
  0
LINE
  5
1B162
  8
AM_0
 10
363.05227786612443
 20
788.26227636979388
 30
0.0
 11
374.0522770789446
 21
788.26225697569669
 31
0.0
  0
LINE
  5
1B163
  8
AM_0
 10
378.02089370775741
 20
786.76222822151317
 30
0.0
 11
384.33236175900362
 21
786.76222056934955
 31
0.0
  0
POLYLINE
  5
1B164
  8
AM_0
 10
378.02089370775752
 20
786.76222822151306
 30
0.0
 66
     1
 70
     8
  0
VERTEX
  8
AM_0
  5
1EAD9
 10
378.021
 20
786.762
 30
0.000000
  70
    32
  0
VERTEX
  8
AM_0
  5
1EADA
 10
378.004
 20
786.762
 30
0.000000
  70
    32
  0
VERTEX
  8
AM_0
  5
1EADB
 10
377.987
 20
786.762
 30
0.000000
  70
    32
  0
VERTEX
  8
AM_0
  5
1EADC
 10
377.970
 20
786.763
 30
0.000000
  70
    32
  0
VERTEX
  8
AM_0
  5
1EADD
 10
377.953
 20
786.763
 30
0.000000
  70
    32
  0
VERTEX
  8
AM_0
  5
1EADE
 10
377.936
 20
786.763
 30
0.000000
  70
    32
  0
VERTEX
  8
AM_0
  5
1EADF
 10
377.919
 20
786.764
 30
0.000000
  70
    32
  0
VERTEX
  8
AM_0
  5
1EAE0
 10
377.902
 20
786.765
 30
0.000000
  70
    32
  0
VERTEX
  8
AM_0
  5
1EAE1
 10
377.885
 20
786.765
 30
0.000000
  70
    32
  0
VERTEX
  8
AM_0
  5
1EAE2
 10
377.869
 20
786.766
 30
0.000000
  70
    32
  0
VERTEX
  8
AM_0
  5
1EAE3
 10
377.852
 20
786.767
 30
0.000000
  70
    32
  0
VERTEX
  8
AM_0
  5
1EAE4
 10
377.835
 20
786.768
 30
0.000000
  70
    32
  0
VERTEX
  8
AM_0
  5
1EAE5
 10
377.818
 20
786.769
 30
0.000000
  70
    32
  0
VERTEX
  8
AM_0
  5
1EAE6
 10
377.801
 20
786.770
 30
0.000000
  70
    32
  0
VERTEX
  8
AM_0
  5
1EAE7
 10
377.784
 20
786.772
 30
0.000000
  70
    32
  0
VERTEX
  8
AM_0
  5
1EAE8
 10
377.767
 20
786.773
 30
0.000000
  70
    32
  0
VERTEX
  8
AM_0
  5
1EAE9
 10
377.750
 20
786.774
 30
0.000000
  70
    32
  0
VERTEX
  8
AM_0
  5
1EAEA
 10
377.733
 20
786.776
 30
0.000000
  70
    32
  0
VERTEX
  8
AM_0
  5
1EAEB
 10
377.717
 20
786.778
 30
0.000000
  70
    32
  0
VERTEX
  8
AM_0
  5
1EAEC
 10
377.700
 20
786.779
 30
0.000000
  70
    32
  0
VERTEX
  8
AM_0
  5
1EAED
 10
377.683
 20
786.781
 30
0.000000
  70
    32
  0
VERTEX
  8
AM_0
  5
1EAEE
 10
377.666
 20
786.783
 30
0.000000
  70
    32
  0
VERTEX
  8
AM_0
  5
1EAEF
 10
377.649
 20
786.785
 30
0.000000
  70
    32
  0
VERTEX
  8
AM_0
  5
1EAF0
 10
377.632
 20
786.787
 30
0.000000
  70
    32
  0
VERTEX
  8
AM_0
  5
1EAF1
 10
377.616
 20
786.790
 30
0.000000
  70
    32
  0
VERTEX
  8
AM_0
  5
1EAF2
 10
377.599
 20
786.792
 30
0.000000
  70
    32
  0
VERTEX
  8
AM_0
  5
1EAF3
 10
377.582
 20
786.794
 30
0.000000
  70
    32
  0
VERTEX
  8
AM_0
  5
1EAF4
 10
377.565
 20
786.797
 30
0.000000
  70
    32
  0
VERTEX
  8
AM_0
  5
1EAF5
 10
377.549
 20
786.800
 30
0.000000
  70
    32
  0
VERTEX
  8
AM_0
  5
1EAF6
 10
377.532
 20
786.802
 30
0.000000
  70
    32
  0
VERTEX
  8
AM_0
  5
1EAF7
 10
377.515
 20
786.805
 30
0.000000
  70
    32
  0
VERTEX
  8
AM_0
  5
1EAF8
 10
377.498
 20
786.808
 30
0.000000
  70
    32
  0
VERTEX
  8
AM_0
  5
1EAF9
 10
377.482
 20
786.811
 30
0.000000
  70
    32
  0
VERTEX
  8
AM_0
  5
1EAFA
 10
377.465
 20
786.814
 30
0.000000
  70
    32
  0
VERTEX
  8
AM_0
  5
1EAFB
 10
377.448
 20
786.817
 30
0.000000
  70
    32
  0
VERTEX
  8
AM_0
  5
1EAFC
 10
377.432
 20
786.821
 30
0.000000
  70
    32
  0
VERTEX
  8
AM_0
  5
1EAFD
 10
377.415
 20
786.824
 30
0.000000
  70
    32
  0
VERTEX
  8
AM_0
  5
1EAFE
 10
377.399
 20
786.827
 30
0.000000
  70
    32
  0
VERTEX
  8
AM_0
  5
1EAFF
 10
377.382
 20
786.831
 30
0.000000
  70
    32
  0
VERTEX
  8
AM_0
  5
1EB00
 10
377.366
 20
786.835
 30
0.000000
  70
    32
  0
VERTEX
  8
AM_0
  5
1EB01
 10
377.349
 20
786.838
 30
0.000000
  70
    32
  0
VERTEX
  8
AM_0
  5
1EB02
 10
377.333
 20
786.842
 30
0.000000
  70
    32
  0
VERTEX
  8
AM_0
  5
1EB03
 10
377.316
 20
786.846
 30
0.000000
  70
    32
  0
VERTEX
  8
AM_0
  5
1EB04
 10
377.300
 20
786.850
 30
0.000000
  70
    32
  0
VERTEX
  8
AM_0
  5
1EB05
 10
377.283
 20
786.854
 30
0.000000
  70
    32
  0
VERTEX
  8
AM_0
  5
1EB06
 10
377.267
 20
786.859
 30
0.000000
  70
    32
  0
VERTEX
  8
AM_0
  5
1EB07
 10
377.250
 20
786.863
 30
0.000000
  70
    32
  0
VERTEX
  8
AM_0
  5
1EB08
 10
377.234
 20
786.867
 30
0.000000
  70
    32
  0
VERTEX
  8
AM_0
  5
1EB09
 10
377.218
 20
786.872
 30
0.000000
  70
    32
  0
VERTEX
  8
AM_0
  5
1EB0A
 10
377.201
 20
786.876
 30
0.000000
  70
    32
  0
VERTEX
  8
AM_0
  5
1EB0B
 10
377.185
 20
786.881
 30
0.000000
  70
    32
  0
VERTEX
  8
AM_0
  5
1EB0C
 10
377.169
 20
786.886
 30
0.000000
  70
    32
  0
VERTEX
  8
AM_0
  5
1EB0D
 10
377.153
 20
786.891
 30
0.000000
  70
    32
  0
VERTEX
  8
AM_0
  5
1EB0E
 10
377.136
 20
786.896
 30
0.000000
  70
    32
  0
VERTEX
  8
AM_0
  5
1EB0F
 10
377.120
 20
786.901
 30
0.000000
  70
    32
  0
VERTEX
  8
AM_0
  5
1EB10
 10
377.104
 20
786.906
 30
0.000000
  70
    32
  0
VERTEX
  8
AM_0
  5
1EB11
 10
377.088
 20
786.911
 30
0.000000
  70
    32
  0
VERTEX
  8
AM_0
  5
1EB12
 10
377.072
 20
786.916
 30
0.000000
  70
    32
  0
VERTEX
  8
AM_0
  5
1EB13
 10
377.056
 20
786.922
 30
0.000000
  70
    32
  0
VERTEX
  8
AM_0
  5
1EB14
 10
377.040
 20
786.927
 30
0.000000
  70
    32
  0
VERTEX
  8
AM_0
  5
1EB15
 10
377.024
 20
786.933
 30
0.000000
  70
    32
  0
VERTEX
  8
AM_0
  5
1EB16
 10
377.008
 20
786.938
 30
0.000000
  70
    32
  0
VERTEX
  8
AM_0
  5
1EB17
 10
376.992
 20
786.944
 30
0.000000
  70
    32
  0
VERTEX
  8
AM_0
  5
1EB18
 10
376.976
 20
786.950
 30
0.000000
  70
    32
  0
VERTEX
  8
AM_0
  5
1EB19
 10
376.960
 20
786.956
 30
0.000000
  70
    32
  0
VERTEX
  8
AM_0
  5
1EB1A
 10
376.944
 20
786.962
 30
0.000000
  70
    32
  0
VERTEX
  8
AM_0
  5
1EB1B
 10
376.929
 20
786.968
 30
0.000000
  70
    32
  0
VERTEX
  8
AM_0
  5
1EB1C
 10
376.913
 20
786.974
 30
0.000000
  70
    32
  0
VERTEX
  8
AM_0
  5
1EB1D
 10
376.897
 20
786.981
 30
0.000000
  70
    32
  0
VERTEX
  8
AM_0
  5
1EB1E
 10
376.881
 20
786.987
 30
0.000000
  70
    32
  0
VERTEX
  8
AM_0
  5
1EB1F
 10
376.866
 20
786.994
 30
0.000000
  70
    32
  0
VERTEX
  8
AM_0
  5
1EB20
 10
376.850
 20
787.000
 30
0.000000
  70
    32
  0
VERTEX
  8
AM_0
  5
1EB21
 10
376.835
 20
787.007
 30
0.000000
  70
    32
  0
VERTEX
  8
AM_0
  5
1EB22
 10
376.819
 20
787.013
 30
0.000000
  70
    32
  0
VERTEX
  8
AM_0
  5
1EB23
 10
376.804
 20
787.020
 30
0.000000
  70
    32
  0
VERTEX
  8
AM_0
  5
1EB24
 10
376.788
 20
787.027
 30
0.000000
  70
    32
  0
VERTEX
  8
AM_0
  5
1EB25
 10
376.773
 20
787.034
 30
0.000000
  70
    32
  0
VERTEX
  8
AM_0
  5
1EB26
 10
376.757
 20
787.041
 30
0.000000
  70
    32
  0
VERTEX
  8
AM_0
  5
1EB27
 10
376.742
 20
787.049
 30
0.000000
  70
    32
  0
VERTEX
  8
AM_0
  5
1EB28
 10
376.727
 20
787.056
 30
0.000000
  70
    32
  0
VERTEX
  8
AM_0
  5
1EB29
 10
376.711
 20
787.063
 30
0.000000
  70
    32
  0
VERTEX
  8
AM_0
  5
1EB2A
 10
376.696
 20
787.071
 30
0.000000
  70
    32
  0
VERTEX
  8
AM_0
  5
1EB2B
 10
376.681
 20
787.078
 30
0.000000
  70
    32
  0
VERTEX
  8
AM_0
  5
1EB2C
 10
376.666
 20
787.086
 30
0.000000
  70
    32
  0
VERTEX
  8
AM_0
  5
1EB2D
 10
376.651
 20
787.093
 30
0.000000
  70
    32
  0
VERTEX
  8
AM_0
  5
1EB2E
 10
376.636
 20
787.101
 30
0.000000
  70
    32
  0
VERTEX
  8
AM_0
  5
1EB2F
 10
376.621
 20
787.109
 30
0.000000
  70
    32
  0
VERTEX
  8
AM_0
  5
1EB30
 10
376.606
 20
787.117
 30
0.000000
  70
    32
  0
VERTEX
  8
AM_0
  5
1EB31
 10
376.591
 20
787.125
 30
0.000000
  70
    32
  0
VERTEX
  8
AM_0
  5
1EB32
 10
376.576
 20
787.133
 30
0.000000
  70
    32
  0
VERTEX
  8
AM_0
  5
1EB33
 10
376.561
 20
787.141
 30
0.000000
  70
    32
  0
VERTEX
  8
AM_0
  5
1EB34
 10
376.546
 20
787.150
 30
0.000000
  70
    32
  0
VERTEX
  8
AM_0
  5
1EB35
 10
376.532
 20
787.158
 30
0.000000
  70
    32
  0
VERTEX
  8
AM_0
  5
1EB36
 10
376.517
 20
787.166
 30
0.000000
  70
    32
  0
VERTEX
  8
AM_0
  5
1EB37
 10
376.502
 20
787.175
 30
0.000000
  70
    32
  0
VERTEX
  8
AM_0
  5
1EB38
 10
376.488
 20
787.184
 30
0.000000
  70
    32
  0
VERTEX
  8
AM_0
  5
1EB39
 10
376.473
 20
787.192
 30
0.000000
  70
    32
  0
VERTEX
  8
AM_0
  5
1EB3A
 10
376.459
 20
787.201
 30
0.000000
  70
    32
  0
VERTEX
  8
AM_0
  5
1EB3B
 10
376.444
 20
787.210
 30
0.000000
  70
    32
  0
VERTEX
  8
AM_0
  5
1EB3C
 10
376.430
 20
787.219
 30
0.000000
  70
    32
  0
VERTEX
  8
AM_0
  5
1EB3D
 10
376.416
 20
787.228
 30
0.000000
  70
    32
  0
VERTEX
  8
AM_0
  5
1EB3E
 10
376.401
 20
787.237
 30
0.000000
  70
    32
  0
VERTEX
  8
AM_0
  5
1EB3F
 10
376.387
 20
787.246
 30
0.000000
  70
    32
  0
VERTEX
  8
AM_0
  5
1EB40
 10
376.373
 20
787.255
 30
0.000000
  70
    32
  0
VERTEX
  8
AM_0
  5
1EB41
 10
376.359
 20
787.265
 30
0.000000
  70
    32
  0
VERTEX
  8
AM_0
  5
1EB42
 10
376.345
 20
787.274
 30
0.000000
  70
    32
  0
VERTEX
  8
AM_0
  5
1EB43
 10
376.331
 20
787.284
 30
0.000000
  70
    32
  0
VERTEX
  8
AM_0
  5
1EB44
 10
376.317
 20
787.293
 30
0.000000
  70
    32
  0
VERTEX
  8
AM_0
  5
1EB45
 10
376.303
 20
787.303
 30
0.000000
  70
    32
  0
VERTEX
  8
AM_0
  5
1EB46
 10
376.289
 20
787.313
 30
0.000000
  70
    32
  0
VERTEX
  8
AM_0
  5
1EB47
 10
376.275
 20
787.323
 30
0.000000
  70
    32
  0
VERTEX
  8
AM_0
  5
1EB48
 10
376.261
 20
787.332
 30
0.000000
  70
    32
  0
VERTEX
  8
AM_0
  5
1EB49
 10
376.248
 20
787.342
 30
0.000000
  70
    32
  0
VERTEX
  8
AM_0
  5
1EB4A
 10
376.234
 20
787.352
 30
0.000000
  70
    32
  0
VERTEX
  8
AM_0
  5
1EB4B
 10
376.220
 20
787.363
 30
0.000000
  70
    32
  0
VERTEX
  8
AM_0
  5
1EB4C
 10
376.207
 20
787.373
 30
0.000000
  70
    32
  0
VERTEX
  8
AM_0
  5
1EB4D
 10
376.193
 20
787.383
 30
0.000000
  70
    32
  0
VERTEX
  8
AM_0
  5
1EB4E
 10
376.180
 20
787.393
 30
0.000000
  70
    32
  0
VERTEX
  8
AM_0
  5
1EB4F
 10
376.167
 20
787.404
 30
0.000000
  70
    32
  0
VERTEX
  8
AM_0
  5
1EB50
 10
376.153
 20
787.414
 30
0.000000
  70
    32
  0
VERTEX
  8
AM_0
  5
1EB51
 10
376.140
 20
787.425
 30
0.000000
  70
    32
  0
VERTEX
  8
AM_0
  5
1EB52
 10
376.127
 20
787.436
 30
0.000000
  70
    32
  0
VERTEX
  8
AM_0
  5
1EB53
 10
376.114
 20
787.446
 30
0.000000
  70
    32
  0
VERTEX
  8
AM_0
  5
1EB54
 10
376.101
 20
787.457
 30
0.000000
  70
    32
  0
VERTEX
  8
AM_0
  5
1EB55
 10
376.088
 20
787.468
 30
0.000000
  70
    32
  0
VERTEX
  8
AM_0
  5
1EB56
 10
376.075
 20
787.479
 30
0.000000
  70
    32
  0
VERTEX
  8
AM_0
  5
1EB57
 10
376.062
 20
787.490
 30
0.000000
  70
    32
  0
VERTEX
  8
AM_0
  5
1EB58
 10
376.049
 20
787.501
 30
0.000000
  70
    32
  0
VERTEX
  8
AM_0
  5
1EB59
 10
376.037
 20
787.512
 30
0.000000
  70
    32
  0
SEQEND
  8
AM_0
  5
1EB5A
  0
POLYLINE
  5
1B165
  8
AM_0
 10
374.05227707894443
 20
788.2622569756968
 30
0.0
 66
     1
 70
     8
  0
VERTEX
  8
AM_0
  5
1EB5B
 10
374.052
 20
788.262
 30
0.000000
  70
    32
  0
VERTEX
  8
AM_0
  5
1EB5C
 10
374.069
 20
788.262
 30
0.000000
  70
    32
  0
VERTEX
  8
AM_0
  5
1EB5D
 10
374.086
 20
788.262
 30
0.000000
  70
    32
  0
VERTEX
  8
AM_0
  5
1EB5E
 10
374.103
 20
788.262
 30
0.000000
  70
    32
  0
VERTEX
  8
AM_0
  5
1EB5F
 10
374.120
 20
788.261
 30
0.000000
  70
    32
  0
VERTEX
  8
AM_0
  5
1EB60
 10
374.137
 20
788.261
 30
0.000000
  70
    32
  0
VERTEX
  8
AM_0
  5
1EB61
 10
374.154
 20
788.261
 30
0.000000
  70
    32
  0
VERTEX
  8
AM_0
  5
1EB62
 10
374.171
 20
788.260
 30
0.000000
  70
    32
  0
VERTEX
  8
AM_0
  5
1EB63
 10
374.188
 20
788.259
 30
0.000000
  70
    32
  0
VERTEX
  8
AM_0
  5
1EB64
 10
374.205
 20
788.258
 30
0.000000
  70
    32
  0
VERTEX
  8
AM_0
  5
1EB65
 10
374.222
 20
788.257
 30
0.000000
  70
    32
  0
VERTEX
  8
AM_0
  5
1EB66
 10
374.238
 20
788.256
 30
0.000000
  70
    32
  0
VERTEX
  8
AM_0
  5
1EB67
 10
374.255
 20
788.255
 30
0.000000
  70
    32
  0
VERTEX
  8
AM_0
  5
1EB68
 10
374.272
 20
788.254
 30
0.000000
  70
    32
  0
VERTEX
  8
AM_0
  5
1EB69
 10
374.289
 20
788.253
 30
0.000000
  70
    32
  0
VERTEX
  8
AM_0
  5
1EB6A
 10
374.306
 20
788.252
 30
0.000000
  70
    32
  0
VERTEX
  8
AM_0
  5
1EB6B
 10
374.323
 20
788.250
 30
0.000000
  70
    32
  0
VERTEX
  8
AM_0
  5
1EB6C
 10
374.340
 20
788.248
 30
0.000000
  70
    32
  0
VERTEX
  8
AM_0
  5
1EB6D
 10
374.357
 20
788.247
 30
0.000000
  70
    32
  0
VERTEX
  8
AM_0
  5
1EB6E
 10
374.374
 20
788.245
 30
0.000000
  70
    32
  0
VERTEX
  8
AM_0
  5
1EB6F
 10
374.390
 20
788.243
 30
0.000000
  70
    32
  0
VERTEX
  8
AM_0
  5
1EB70
 10
374.407
 20
788.241
 30
0.000000
  70
    32
  0
VERTEX
  8
AM_0
  5
1EB71
 10
374.424
 20
788.239
 30
0.000000
  70
    32
  0
VERTEX
  8
AM_0
  5
1EB72
 10
374.441
 20
788.237
 30
0.000000
  70
    32
  0
VERTEX
  8
AM_0
  5
1EB73
 10
374.458
 20
788.235
 30
0.000000
  70
    32
  0
VERTEX
  8
AM_0
  5
1EB74
 10
374.474
 20
788.232
 30
0.000000
  70
    32
  0
VERTEX
  8
AM_0
  5
1EB75
 10
374.491
 20
788.230
 30
0.000000
  70
    32
  0
VERTEX
  8
AM_0
  5
1EB76
 10
374.508
 20
788.227
 30
0.000000
  70
    32
  0
VERTEX
  8
AM_0
  5
1EB77
 10
374.525
 20
788.225
 30
0.000000
  70
    32
  0
VERTEX
  8
AM_0
  5
1EB78
 10
374.541
 20
788.222
 30
0.000000
  70
    32
  0
VERTEX
  8
AM_0
  5
1EB79
 10
374.558
 20
788.219
 30
0.000000
  70
    32
  0
VERTEX
  8
AM_0
  5
1EB7A
 10
374.575
 20
788.216
 30
0.000000
  70
    32
  0
VERTEX
  8
AM_0
  5
1EB7B
 10
374.591
 20
788.213
 30
0.000000
  70
    32
  0
VERTEX
  8
AM_0
  5
1EB7C
 10
374.608
 20
788.210
 30
0.000000
  70
    32
  0
VERTEX
  8
AM_0
  5
1EB7D
 10
374.625
 20
788.207
 30
0.000000
  70
    32
  0
VERTEX
  8
AM_0
  5
1EB7E
 10
374.641
 20
788.204
 30
0.000000
  70
    32
  0
VERTEX
  8
AM_0
  5
1EB7F
 10
374.658
 20
788.200
 30
0.000000
  70
    32
  0
VERTEX
  8
AM_0
  5
1EB80
 10
374.674
 20
788.197
 30
0.000000
  70
    32
  0
VERTEX
  8
AM_0
  5
1EB81
 10
374.691
 20
788.193
 30
0.000000
  70
    32
  0
VERTEX
  8
AM_0
  5
1EB82
 10
374.708
 20
788.190
 30
0.000000
  70
    32
  0
VERTEX
  8
AM_0
  5
1EB83
 10
374.724
 20
788.186
 30
0.000000
  70
    32
  0
VERTEX
  8
AM_0
  5
1EB84
 10
374.741
 20
788.182
 30
0.000000
  70
    32
  0
VERTEX
  8
AM_0
  5
1EB85
 10
374.757
 20
788.178
 30
0.000000
  70
    32
  0
VERTEX
  8
AM_0
  5
1EB86
 10
374.774
 20
788.174
 30
0.000000
  70
    32
  0
VERTEX
  8
AM_0
  5
1EB87
 10
374.790
 20
788.170
 30
0.000000
  70
    32
  0
VERTEX
  8
AM_0
  5
1EB88
 10
374.806
 20
788.166
 30
0.000000
  70
    32
  0
VERTEX
  8
AM_0
  5
1EB89
 10
374.823
 20
788.162
 30
0.000000
  70
    32
  0
VERTEX
  8
AM_0
  5
1EB8A
 10
374.839
 20
788.157
 30
0.000000
  70
    32
  0
VERTEX
  8
AM_0
  5
1EB8B
 10
374.855
 20
788.153
 30
0.000000
  70
    32
  0
VERTEX
  8
AM_0
  5
1EB8C
 10
374.872
 20
788.148
 30
0.000000
  70
    32
  0
VERTEX
  8
AM_0
  5
1EB8D
 10
374.888
 20
788.143
 30
0.000000
  70
    32
  0
VERTEX
  8
AM_0
  5
1EB8E
 10
374.904
 20
788.139
 30
0.000000
  70
    32
  0
VERTEX
  8
AM_0
  5
1EB8F
 10
374.921
 20
788.134
 30
0.000000
  70
    32
  0
VERTEX
  8
AM_0
  5
1EB90
 10
374.937
 20
788.129
 30
0.000000
  70
    32
  0
VERTEX
  8
AM_0
  5
1EB91
 10
374.953
 20
788.124
 30
0.000000
  70
    32
  0
VERTEX
  8
AM_0
  5
1EB92
 10
374.969
 20
788.119
 30
0.000000
  70
    32
  0
VERTEX
  8
AM_0
  5
1EB93
 10
374.985
 20
788.114
 30
0.000000
  70
    32
  0
VERTEX
  8
AM_0
  5
1EB94
 10
375.001
 20
788.108
 30
0.000000
  70
    32
  0
VERTEX
  8
AM_0
  5
1EB95
 10
375.017
 20
788.103
 30
0.000000
  70
    32
  0
VERTEX
  8
AM_0
  5
1EB96
 10
375.033
 20
788.097
 30
0.000000
  70
    32
  0
VERTEX
  8
AM_0
  5
1EB97
 10
375.049
 20
788.092
 30
0.000000
  70
    32
  0
VERTEX
  8
AM_0
  5
1EB98
 10
375.065
 20
788.086
 30
0.000000
  70
    32
  0
VERTEX
  8
AM_0
  5
1EB99
 10
375.081
 20
788.080
 30
0.000000
  70
    32
  0
VERTEX
  8
AM_0
  5
1EB9A
 10
375.097
 20
788.074
 30
0.000000
  70
    32
  0
VERTEX
  8
AM_0
  5
1EB9B
 10
375.113
 20
788.068
 30
0.000000
  70
    32
  0
VERTEX
  8
AM_0
  5
1EB9C
 10
375.129
 20
788.062
 30
0.000000
  70
    32
  0
VERTEX
  8
AM_0
  5
1EB9D
 10
375.145
 20
788.056
 30
0.000000
  70
    32
  0
VERTEX
  8
AM_0
  5
1EB9E
 10
375.160
 20
788.050
 30
0.000000
  70
    32
  0
VERTEX
  8
AM_0
  5
1EB9F
 10
375.176
 20
788.044
 30
0.000000
  70
    32
  0
VERTEX
  8
AM_0
  5
1EBA0
 10
375.192
 20
788.037
 30
0.000000
  70
    32
  0
VERTEX
  8
AM_0
  5
1EBA1
 10
375.207
 20
788.031
 30
0.000000
  70
    32
  0
VERTEX
  8
AM_0
  5
1EBA2
 10
375.223
 20
788.024
 30
0.000000
  70
    32
  0
VERTEX
  8
AM_0
  5
1EBA3
 10
375.239
 20
788.018
 30
0.000000
  70
    32
  0
VERTEX
  8
AM_0
  5
1EBA4
 10
375.254
 20
788.011
 30
0.000000
  70
    32
  0
VERTEX
  8
AM_0
  5
1EBA5
 10
375.270
 20
788.004
 30
0.000000
  70
    32
  0
VERTEX
  8
AM_0
  5
1EBA6
 10
375.285
 20
787.997
 30
0.000000
  70
    32
  0
VERTEX
  8
AM_0
  5
1EBA7
 10
375.300
 20
787.990
 30
0.000000
  70
    32
  0
VERTEX
  8
AM_0
  5
1EBA8
 10
375.316
 20
787.983
 30
0.000000
  70
    32
  0
VERTEX
  8
AM_0
  5
1EBA9
 10
375.331
 20
787.976
 30
0.000000
  70
    32
  0
VERTEX
  8
AM_0
  5
1EBAA
 10
375.347
 20
787.969
 30
0.000000
  70
    32
  0
VERTEX
  8
AM_0
  5
1EBAB
 10
375.362
 20
787.961
 30
0.000000
  70
    32
  0
VERTEX
  8
AM_0
  5
1EBAC
 10
375.377
 20
787.954
 30
0.000000
  70
    32
  0
VERTEX
  8
AM_0
  5
1EBAD
 10
375.392
 20
787.946
 30
0.000000
  70
    32
  0
VERTEX
  8
AM_0
  5
1EBAE
 10
375.407
 20
787.939
 30
0.000000
  70
    32
  0
VERTEX
  8
AM_0
  5
1EBAF
 10
375.422
 20
787.931
 30
0.000000
  70
    32
  0
VERTEX
  8
AM_0
  5
1EBB0
 10
375.437
 20
787.923
 30
0.000000
  70
    32
  0
VERTEX
  8
AM_0
  5
1EBB1
 10
375.452
 20
787.915
 30
0.000000
  70
    32
  0
VERTEX
  8
AM_0
  5
1EBB2
 10
375.467
 20
787.908
 30
0.000000
  70
    32
  0
VERTEX
  8
AM_0
  5
1EBB3
 10
375.482
 20
787.899
 30
0.000000
  70
    32
  0
VERTEX
  8
AM_0
  5
1EBB4
 10
375.497
 20
787.891
 30
0.000000
  70
    32
  0
VERTEX
  8
AM_0
  5
1EBB5
 10
375.512
 20
787.883
 30
0.000000
  70
    32
  0
VERTEX
  8
AM_0
  5
1EBB6
 10
375.527
 20
787.875
 30
0.000000
  70
    32
  0
VERTEX
  8
AM_0
  5
1EBB7
 10
375.542
 20
787.867
 30
0.000000
  70
    32
  0
VERTEX
  8
AM_0
  5
1EBB8
 10
375.556
 20
787.858
 30
0.000000
  70
    32
  0
VERTEX
  8
AM_0
  5
1EBB9
 10
375.571
 20
787.850
 30
0.000000
  70
    32
  0
VERTEX
  8
AM_0
  5
1EBBA
 10
375.585
 20
787.841
 30
0.000000
  70
    32
  0
VERTEX
  8
AM_0
  5
1EBBB
 10
375.600
 20
787.832
 30
0.000000
  70
    32
  0
VERTEX
  8
AM_0
  5
1EBBC
 10
375.614
 20
787.823
 30
0.000000
  70
    32
  0
VERTEX
  8
AM_0
  5
1EBBD
 10
375.629
 20
787.815
 30
0.000000
  70
    32
  0
VERTEX
  8
AM_0
  5
1EBBE
 10
375.643
 20
787.806
 30
0.000000
  70
    32
  0
VERTEX
  8
AM_0
  5
1EBBF
 10
375.658
 20
787.797
 30
0.000000
  70
    32
  0
VERTEX
  8
AM_0
  5
1EBC0
 10
375.672
 20
787.787
 30
0.000000
  70
    32
  0
VERTEX
  8
AM_0
  5
1EBC1
 10
375.686
 20
787.778
 30
0.000000
  70
    32
  0
VERTEX
  8
AM_0
  5
1EBC2
 10
375.700
 20
787.769
 30
0.000000
  70
    32
  0
VERTEX
  8
AM_0
  5
1EBC3
 10
375.714
 20
787.760
 30
0.000000
  70
    32
  0
VERTEX
  8
AM_0
  5
1EBC4
 10
375.728
 20
787.750
 30
0.000000
  70
    32
  0
VERTEX
  8
AM_0
  5
1EBC5
 10
375.743
 20
787.741
 30
0.000000
  70
    32
  0
VERTEX
  8
AM_0
  5
1EBC6
 10
375.756
 20
787.731
 30
0.000000
  70
    32
  0
VERTEX
  8
AM_0
  5
1EBC7
 10
375.770
 20
787.722
 30
0.000000
  70
    32
  0
VERTEX
  8
AM_0
  5
1EBC8
 10
375.784
 20
787.712
 30
0.000000
  70
    32
  0
VERTEX
  8
AM_0
  5
1EBC9
 10
375.798
 20
787.702
 30
0.000000
  70
    32
  0
VERTEX
  8
AM_0
  5
1EBCA
 10
375.812
 20
787.692
 30
0.000000
  70
    32
  0
VERTEX
  8
AM_0
  5
1EBCB
 10
375.826
 20
787.682
 30
0.000000
  70
    32
  0
VERTEX
  8
AM_0
  5
1EBCC
 10
375.839
 20
787.672
 30
0.000000
  70
    32
  0
VERTEX
  8
AM_0
  5
1EBCD
 10
375.853
 20
787.662
 30
0.000000
  70
    32
  0
VERTEX
  8
AM_0
  5
1EBCE
 10
375.866
 20
787.652
 30
0.000000
  70
    32
  0
VERTEX
  8
AM_0
  5
1EBCF
 10
375.880
 20
787.641
 30
0.000000
  70
    32
  0
VERTEX
  8
AM_0
  5
1EBD0
 10
375.893
 20
787.631
 30
0.000000
  70
    32
  0
VERTEX
  8
AM_0
  5
1EBD1
 10
375.906
 20
787.621
 30
0.000000
  70
    32
  0
VERTEX
  8
AM_0
  5
1EBD2
 10
375.920
 20
787.610
 30
0.000000
  70
    32
  0
VERTEX
  8
AM_0
  5
1EBD3
 10
375.933
 20
787.600
 30
0.000000
  70
    32
  0
VERTEX
  8
AM_0
  5
1EBD4
 10
375.946
 20
787.589
 30
0.000000
  70
    32
  0
VERTEX
  8
AM_0
  5
1EBD5
 10
375.959
 20
787.578
 30
0.000000
  70
    32
  0
VERTEX
  8
AM_0
  5
1EBD6
 10
375.972
 20
787.567
 30
0.000000
  70
    32
  0
VERTEX
  8
AM_0
  5
1EBD7
 10
375.985
 20
787.556
 30
0.000000
  70
    32
  0
VERTEX
  8
AM_0
  5
1EBD8
 10
375.998
 20
787.546
 30
0.000000
  70
    32
  0
VERTEX
  8
AM_0
  5
1EBD9
 10
376.011
 20
787.535
 30
0.000000
  70
    32
  0
VERTEX
  8
AM_0
  5
1EBDA
 10
376.024
 20
787.523
 30
0.000000
  70
    32
  0
VERTEX
  8
AM_0
  5
1EBDB
 10
376.037
 20
787.512
 30
0.000000
  70
    32
  0
SEQEND
  8
AM_0
  5
1EBDC
  0
LINE
  5
1B16D
  8
AM_0
 10
375.05227179005283
 20
777.76206152010525
 30
0.0
 11
363.05227178645282
 21
777.76206152010559
 31
0.0
  0
LINE
  5
1B16E
  8
AM_0
 10
375.05227179005192
 20
753.82253514139825
 30
0.0
 11
363.0522717864518
 21
753.82253514139882
 31
0.0
  0
LINE
  5
1B16F
  8
AM_0
 10
386.32474873034289
 20
784.93653205484623
 30
0.0
 11
389.5049653829833
 21
748.58648938105023
 31
0.0
  0
ARC
  5
1B170
  8
AM_0
 10
391.49735477916653
 20
748.76080086654554
 30
0.0
 40
2.0
 50
184.9999999999994
 51
270.0
1001
GENIUS_GENOBJ-N-FIL_13
1002
{
1000
OWNER
1000
GEN
1002
}
1001
GENIUS_GENODEF_13
1002
{
1000
HIER
1070
     0
1002
}
1002
{
1000
MANEDIT
1070
     0
1002
}
1002
{
1000
NOSEL
1070
     0
1002
}
1002
{
1000
BEHIND
1070
     0
1002
}
1002
{
1000
OTHER
1070
     0
1002
}
1002
{
1000
REACTOR
1002
}
  0
LINE
  5
1B171
  8
AM_0
 10
391.4973547791667
 20
746.76080086654565
 30
0.0
 11
398.56962887055278
 21
746.76080086654565
 31
0.0
  0
ARC
  5
1B172
  8
AM_0
 10
398.56962887055261
 20
747.76080086654554
 30
0.0
 40
1.0
 50
270.0
 51
1.0000242476043999
1001
GENIUS_GENODEF_13
1002
{
1000
HIER
1070
     0
1002
}
1002
{
1000
MANEDIT
1070
     0
1002
}
1002
{
1000
NOSEL
1070
     0
1002
}
1002
{
1000
BEHIND
1070
     0
1002
}
1002
{
1000
OTHER
1070
     0
1002
}
1002
{
1000
REACTOR
1002
}
1001
GENIUS_GENOBJ-N-FIL_13
1002
{
1000
OWNER
1000
GEN
1002
}
  0
LINE
  5
1B173
  8
AM_0
 10
383.38496146148481
 20
657.76079785631327
 30
0.0
 11
399.17538150736959
 21
657.76079785631339
 31
0.0
  0
ARC
  5
1B174
  8
AM_0
 10
399.17538150736931
 20
655.76079785631316
 30
0.0
 40
2.0
 50
1.0000242476434871
 51
90.0
1001
GENIUS_GENOBJ-N-FIL_13
1002
{
1000
OWNER
1000
GEN
1002
}
1001
GENIUS_GENODEF_13
1002
{
1000
HIER
1070
     0
1002
}
1002
{
1000
MANEDIT
1070
     0
1002
}
1002
{
1000
NOSEL
1070
     0
1002
}
1002
{
1000
BEHIND
1070
     0
1002
}
1002
{
1000
OTHER
1070
     0
1002
}
1002
{
1000
REACTOR
1002
}
  0
LINE
  5
1B17A
  8
AM_0
 10
375.0522717900505
 20
675.6990678988127
 30
0.0
 11
363.05227178645077
 21
675.6990678988127
 31
0.0
  0
ARC
  5
1B184
  8
AM_0
 10
383.38496146148452
 20
655.76079785631316
 30
0.0
 40
2.0
 50
90.0
 51
175.00000000000051
1001
GENIUS_GENOBJ-N-FIL_13
1002
{
1000
OWNER
1000
GEN
1002
}
1001
GENIUS_GENODEF_13
1002
{
1000
HIER
1070
     0
1002
}
1002
{
1000
MANEDIT
1070
     0
1002
}
1002
{
1000
NOSEL
1070
     0
1002
}
1002
{
1000
BEHIND
1070
     0
1002
}
1002
{
1000
OTHER
1070
     0
1002
}
1002
{
1000
REACTOR
1002
}
  0
LINE
  5
1B185
  8
AM_0
 10
363.05227786612443
 20
641.25932667041764
 30
0.0
 11
374.0522770789446
 21
641.2593460645146
 31
0.0
  0
LINE
  5
1B186
  8
AM_0
 10
375.0522717900505
 20
651.7595415201057
 30
0.0
 11
363.0522717864506
 21
651.7595415201057
 31
0.0
  0
LINE
  5
1B187
  8
AM_0
 10
381.39257206530129
 20
655.93510934180858
 30
0.0
 11
380.3995717500257
 21
644.58506380154915
 31
0.0
  0
ARC
  5
1B188
  8
AM_0
 10
378.40718235384219
 20
644.7593752870448
 30
0.0
 40
2.0
 50
270.00006946667207
 51
355.00000000000051
1001
GENIUS_GENOBJ-N-FIL_13
1002
{
1000
OWNER
1000
GEN
1002
}
1001
GENIUS_GENODEF_13
1002
{
1000
HIER
1070
     0
1002
}
1002
{
1000
MANEDIT
1070
     0
1002
}
1002
{
1000
NOSEL
1070
     0
1002
}
1002
{
1000
BEHIND
1070
     0
1002
}
1002
{
1000
OTHER
1070
     0
1002
}
1002
{
1000
REACTOR
1002
}
  0
POLYLINE
  5
1B189
  8
AM_0
 10
376.03658456735064
 20
642.00936044160517
 30
0.0
 66
     1
 70
     8
  0
VERTEX
  8
AM_0
  5
1EBDD
 10
376.037
 20
642.009
 30
0.000000
  70
    32
  0
VERTEX
  8
AM_0
  5
1EBDE
 10
376.049
 20
642.021
 30
0.000000
  70
    32
  0
VERTEX
  8
AM_0
  5
1EBDF
 10
376.062
 20
642.032
 30
0.000000
  70
    32
  0
VERTEX
  8
AM_0
  5
1EBE0
 10
376.075
 20
642.043
 30
0.000000
  70
    32
  0
VERTEX
  8
AM_0
  5
1EBE1
 10
376.088
 20
642.054
 30
0.000000
  70
    32
  0
VERTEX
  8
AM_0
  5
1EBE2
 10
376.101
 20
642.064
 30
0.000000
  70
    32
  0
VERTEX
  8
AM_0
  5
1EBE3
 10
376.114
 20
642.075
 30
0.000000
  70
    32
  0
VERTEX
  8
AM_0
  5
1EBE4
 10
376.127
 20
642.086
 30
0.000000
  70
    32
  0
VERTEX
  8
AM_0
  5
1EBE5
 10
376.140
 20
642.097
 30
0.000000
  70
    32
  0
VERTEX
  8
AM_0
  5
1EBE6
 10
376.153
 20
642.107
 30
0.000000
  70
    32
  0
VERTEX
  8
AM_0
  5
1EBE7
 10
376.167
 20
642.118
 30
0.000000
  70
    32
  0
VERTEX
  8
AM_0
  5
1EBE8
 10
376.180
 20
642.128
 30
0.000000
  70
    32
  0
VERTEX
  8
AM_0
  5
1EBE9
 10
376.193
 20
642.139
 30
0.000000
  70
    32
  0
VERTEX
  8
AM_0
  5
1EBEA
 10
376.207
 20
642.149
 30
0.000000
  70
    32
  0
VERTEX
  8
AM_0
  5
1EBEB
 10
376.220
 20
642.159
 30
0.000000
  70
    32
  0
VERTEX
  8
AM_0
  5
1EBEC
 10
376.234
 20
642.169
 30
0.000000
  70
    32
  0
VERTEX
  8
AM_0
  5
1EBED
 10
376.248
 20
642.179
 30
0.000000
  70
    32
  0
VERTEX
  8
AM_0
  5
1EBEE
 10
376.261
 20
642.189
 30
0.000000
  70
    32
  0
VERTEX
  8
AM_0
  5
1EBEF
 10
376.275
 20
642.199
 30
0.000000
  70
    32
  0
VERTEX
  8
AM_0
  5
1EBF0
 10
376.289
 20
642.209
 30
0.000000
  70
    32
  0
VERTEX
  8
AM_0
  5
1EBF1
 10
376.303
 20
642.219
 30
0.000000
  70
    32
  0
VERTEX
  8
AM_0
  5
1EBF2
 10
376.317
 20
642.228
 30
0.000000
  70
    32
  0
VERTEX
  8
AM_0
  5
1EBF3
 10
376.331
 20
642.238
 30
0.000000
  70
    32
  0
VERTEX
  8
AM_0
  5
1EBF4
 10
376.345
 20
642.247
 30
0.000000
  70
    32
  0
VERTEX
  8
AM_0
  5
1EBF5
 10
376.359
 20
642.257
 30
0.000000
  70
    32
  0
VERTEX
  8
AM_0
  5
1EBF6
 10
376.373
 20
642.266
 30
0.000000
  70
    32
  0
VERTEX
  8
AM_0
  5
1EBF7
 10
376.387
 20
642.275
 30
0.000000
  70
    32
  0
VERTEX
  8
AM_0
  5
1EBF8
 10
376.401
 20
642.285
 30
0.000000
  70
    32
  0
VERTEX
  8
AM_0
  5
1EBF9
 10
376.416
 20
642.294
 30
0.000000
  70
    32
  0
VERTEX
  8
AM_0
  5
1EBFA
 10
376.430
 20
642.303
 30
0.000000
  70
    32
  0
VERTEX
  8
AM_0
  5
1EBFB
 10
376.444
 20
642.312
 30
0.000000
  70
    32
  0
VERTEX
  8
AM_0
  5
1EBFC
 10
376.459
 20
642.321
 30
0.000000
  70
    32
  0
VERTEX
  8
AM_0
  5
1EBFD
 10
376.473
 20
642.329
 30
0.000000
  70
    32
  0
VERTEX
  8
AM_0
  5
1EBFE
 10
376.488
 20
642.338
 30
0.000000
  70
    32
  0
VERTEX
  8
AM_0
  5
1EBFF
 10
376.502
 20
642.347
 30
0.000000
  70
    32
  0
VERTEX
  8
AM_0
  5
1EC00
 10
376.517
 20
642.355
 30
0.000000
  70
    32
  0
VERTEX
  8
AM_0
  5
1EC01
 10
376.532
 20
642.364
 30
0.000000
  70
    32
  0
VERTEX
  8
AM_0
  5
1EC02
 10
376.546
 20
642.372
 30
0.000000
  70
    32
  0
VERTEX
  8
AM_0
  5
1EC03
 10
376.561
 20
642.380
 30
0.000000
  70
    32
  0
VERTEX
  8
AM_0
  5
1EC04
 10
376.576
 20
642.388
 30
0.000000
  70
    32
  0
VERTEX
  8
AM_0
  5
1EC05
 10
376.591
 20
642.397
 30
0.000000
  70
    32
  0
VERTEX
  8
AM_0
  5
1EC06
 10
376.606
 20
642.405
 30
0.000000
  70
    32
  0
VERTEX
  8
AM_0
  5
1EC07
 10
376.621
 20
642.413
 30
0.000000
  70
    32
  0
VERTEX
  8
AM_0
  5
1EC08
 10
376.636
 20
642.420
 30
0.000000
  70
    32
  0
VERTEX
  8
AM_0
  5
1EC09
 10
376.651
 20
642.428
 30
0.000000
  70
    32
  0
VERTEX
  8
AM_0
  5
1EC0A
 10
376.666
 20
642.436
 30
0.000000
  70
    32
  0
VERTEX
  8
AM_0
  5
1EC0B
 10
376.681
 20
642.444
 30
0.000000
  70
    32
  0
VERTEX
  8
AM_0
  5
1EC0C
 10
376.696
 20
642.451
 30
0.000000
  70
    32
  0
VERTEX
  8
AM_0
  5
1EC0D
 10
376.711
 20
642.458
 30
0.000000
  70
    32
  0
VERTEX
  8
AM_0
  5
1EC0E
 10
376.727
 20
642.466
 30
0.000000
  70
    32
  0
VERTEX
  8
AM_0
  5
1EC0F
 10
376.742
 20
642.473
 30
0.000000
  70
    32
  0
VERTEX
  8
AM_0
  5
1EC10
 10
376.757
 20
642.480
 30
0.000000
  70
    32
  0
VERTEX
  8
AM_0
  5
1EC11
 10
376.773
 20
642.487
 30
0.000000
  70
    32
  0
VERTEX
  8
AM_0
  5
1EC12
 10
376.788
 20
642.494
 30
0.000000
  70
    32
  0
VERTEX
  8
AM_0
  5
1EC13
 10
376.804
 20
642.501
 30
0.000000
  70
    32
  0
VERTEX
  8
AM_0
  5
1EC14
 10
376.819
 20
642.508
 30
0.000000
  70
    32
  0
VERTEX
  8
AM_0
  5
1EC15
 10
376.835
 20
642.515
 30
0.000000
  70
    32
  0
VERTEX
  8
AM_0
  5
1EC16
 10
376.850
 20
642.522
 30
0.000000
  70
    32
  0
VERTEX
  8
AM_0
  5
1EC17
 10
376.866
 20
642.528
 30
0.000000
  70
    32
  0
VERTEX
  8
AM_0
  5
1EC18
 10
376.881
 20
642.535
 30
0.000000
  70
    32
  0
VERTEX
  8
AM_0
  5
1EC19
 10
376.897
 20
642.541
 30
0.000000
  70
    32
  0
VERTEX
  8
AM_0
  5
1EC1A
 10
376.913
 20
642.547
 30
0.000000
  70
    32
  0
VERTEX
  8
AM_0
  5
1EC1B
 10
376.929
 20
642.553
 30
0.000000
  70
    32
  0
VERTEX
  8
AM_0
  5
1EC1C
 10
376.944
 20
642.560
 30
0.000000
  70
    32
  0
VERTEX
  8
AM_0
  5
1EC1D
 10
376.960
 20
642.566
 30
0.000000
  70
    32
  0
VERTEX
  8
AM_0
  5
1EC1E
 10
376.976
 20
642.572
 30
0.000000
  70
    32
  0
VERTEX
  8
AM_0
  5
1EC1F
 10
376.992
 20
642.577
 30
0.000000
  70
    32
  0
VERTEX
  8
AM_0
  5
1EC20
 10
377.008
 20
642.583
 30
0.000000
  70
    32
  0
VERTEX
  8
AM_0
  5
1EC21
 10
377.024
 20
642.589
 30
0.000000
  70
    32
  0
VERTEX
  8
AM_0
  5
1EC22
 10
377.040
 20
642.594
 30
0.000000
  70
    32
  0
VERTEX
  8
AM_0
  5
1EC23
 10
377.056
 20
642.600
 30
0.000000
  70
    32
  0
VERTEX
  8
AM_0
  5
1EC24
 10
377.072
 20
642.605
 30
0.000000
  70
    32
  0
VERTEX
  8
AM_0
  5
1EC25
 10
377.088
 20
642.611
 30
0.000000
  70
    32
  0
VERTEX
  8
AM_0
  5
1EC26
 10
377.104
 20
642.616
 30
0.000000
  70
    32
  0
VERTEX
  8
AM_0
  5
1EC27
 10
377.120
 20
642.621
 30
0.000000
  70
    32
  0
VERTEX
  8
AM_0
  5
1EC28
 10
377.136
 20
642.626
 30
0.000000
  70
    32
  0
VERTEX
  8
AM_0
  5
1EC29
 10
377.153
 20
642.631
 30
0.000000
  70
    32
  0
VERTEX
  8
AM_0
  5
1EC2A
 10
377.169
 20
642.636
 30
0.000000
  70
    32
  0
VERTEX
  8
AM_0
  5
1EC2B
 10
377.185
 20
642.641
 30
0.000000
  70
    32
  0
VERTEX
  8
AM_0
  5
1EC2C
 10
377.201
 20
642.645
 30
0.000000
  70
    32
  0
VERTEX
  8
AM_0
  5
1EC2D
 10
377.218
 20
642.650
 30
0.000000
  70
    32
  0
VERTEX
  8
AM_0
  5
1EC2E
 10
377.234
 20
642.654
 30
0.000000
  70
    32
  0
VERTEX
  8
AM_0
  5
1EC2F
 10
377.250
 20
642.659
 30
0.000000
  70
    32
  0
VERTEX
  8
AM_0
  5
1EC30
 10
377.267
 20
642.663
 30
0.000000
  70
    32
  0
VERTEX
  8
AM_0
  5
1EC31
 10
377.283
 20
642.667
 30
0.000000
  70
    32
  0
VERTEX
  8
AM_0
  5
1EC32
 10
377.300
 20
642.671
 30
0.000000
  70
    32
  0
VERTEX
  8
AM_0
  5
1EC33
 10
377.316
 20
642.675
 30
0.000000
  70
    32
  0
VERTEX
  8
AM_0
  5
1EC34
 10
377.333
 20
642.679
 30
0.000000
  70
    32
  0
VERTEX
  8
AM_0
  5
1EC35
 10
377.349
 20
642.683
 30
0.000000
  70
    32
  0
VERTEX
  8
AM_0
  5
1EC36
 10
377.366
 20
642.687
 30
0.000000
  70
    32
  0
VERTEX
  8
AM_0
  5
1EC37
 10
377.382
 20
642.691
 30
0.000000
  70
    32
  0
VERTEX
  8
AM_0
  5
1EC38
 10
377.399
 20
642.694
 30
0.000000
  70
    32
  0
VERTEX
  8
AM_0
  5
1EC39
 10
377.415
 20
642.698
 30
0.000000
  70
    32
  0
VERTEX
  8
AM_0
  5
1EC3A
 10
377.432
 20
642.701
 30
0.000000
  70
    32
  0
VERTEX
  8
AM_0
  5
1EC3B
 10
377.448
 20
642.704
 30
0.000000
  70
    32
  0
VERTEX
  8
AM_0
  5
1EC3C
 10
377.465
 20
642.707
 30
0.000000
  70
    32
  0
VERTEX
  8
AM_0
  5
1EC3D
 10
377.482
 20
642.711
 30
0.000000
  70
    32
  0
VERTEX
  8
AM_0
  5
1EC3E
 10
377.498
 20
642.714
 30
0.000000
  70
    32
  0
VERTEX
  8
AM_0
  5
1EC3F
 10
377.515
 20
642.716
 30
0.000000
  70
    32
  0
VERTEX
  8
AM_0
  5
1EC40
 10
377.532
 20
642.719
 30
0.000000
  70
    32
  0
VERTEX
  8
AM_0
  5
1EC41
 10
377.549
 20
642.722
 30
0.000000
  70
    32
  0
VERTEX
  8
AM_0
  5
1EC42
 10
377.565
 20
642.725
 30
0.000000
  70
    32
  0
VERTEX
  8
AM_0
  5
1EC43
 10
377.582
 20
642.727
 30
0.000000
  70
    32
  0
VERTEX
  8
AM_0
  5
1EC44
 10
377.599
 20
642.730
 30
0.000000
  70
    32
  0
VERTEX
  8
AM_0
  5
1EC45
 10
377.616
 20
642.732
 30
0.000000
  70
    32
  0
VERTEX
  8
AM_0
  5
1EC46
 10
377.632
 20
642.734
 30
0.000000
  70
    32
  0
VERTEX
  8
AM_0
  5
1EC47
 10
377.649
 20
642.736
 30
0.000000
  70
    32
  0
VERTEX
  8
AM_0
  5
1EC48
 10
377.666
 20
642.738
 30
0.000000
  70
    32
  0
VERTEX
  8
AM_0
  5
1EC49
 10
377.683
 20
642.740
 30
0.000000
  70
    32
  0
VERTEX
  8
AM_0
  5
1EC4A
 10
377.700
 20
642.742
 30
0.000000
  70
    32
  0
VERTEX
  8
AM_0
  5
1EC4B
 10
377.717
 20
642.744
 30
0.000000
  70
    32
  0
VERTEX
  8
AM_0
  5
1EC4C
 10
377.733
 20
642.746
 30
0.000000
  70
    32
  0
VERTEX
  8
AM_0
  5
1EC4D
 10
377.750
 20
642.747
 30
0.000000
  70
    32
  0
VERTEX
  8
AM_0
  5
1EC4E
 10
377.767
 20
642.749
 30
0.000000
  70
    32
  0
VERTEX
  8
AM_0
  5
1EC4F
 10
377.784
 20
642.750
 30
0.000000
  70
    32
  0
VERTEX
  8
AM_0
  5
1EC50
 10
377.801
 20
642.751
 30
0.000000
  70
    32
  0
VERTEX
  8
AM_0
  5
1EC51
 10
377.818
 20
642.752
 30
0.000000
  70
    32
  0
VERTEX
  8
AM_0
  5
1EC52
 10
377.835
 20
642.754
 30
0.000000
  70
    32
  0
VERTEX
  8
AM_0
  5
1EC53
 10
377.852
 20
642.755
 30
0.000000
  70
    32
  0
VERTEX
  8
AM_0
  5
1EC54
 10
377.869
 20
642.756
 30
0.000000
  70
    32
  0
VERTEX
  8
AM_0
  5
1EC55
 10
377.885
 20
642.756
 30
0.000000
  70
    32
  0
VERTEX
  8
AM_0
  5
1EC56
 10
377.902
 20
642.757
 30
0.000000
  70
    32
  0
VERTEX
  8
AM_0
  5
1EC57
 10
377.919
 20
642.758
 30
0.000000
  70
    32
  0
VERTEX
  8
AM_0
  5
1EC58
 10
377.936
 20
642.758
 30
0.000000
  70
    32
  0
VERTEX
  8
AM_0
  5
1EC59
 10
377.953
 20
642.759
 30
0.000000
  70
    32
  0
VERTEX
  8
AM_0
  5
1EC5A
 10
377.970
 20
642.759
 30
0.000000
  70
    32
  0
VERTEX
  8
AM_0
  5
1EC5B
 10
377.987
 20
642.759
 30
0.000000
  70
    32
  0
VERTEX
  8
AM_0
  5
1EC5C
 10
378.004
 20
642.759
 30
0.000000
  70
    32
  0
VERTEX
  8
AM_0
  5
1EC5D
 10
378.021
 20
642.759
 30
0.000000
  70
    32
  0
SEQEND
  8
AM_0
  5
1EC5E
  0
POLYLINE
  5
1B18A
  8
AM_0
 10
376.03658456735087
 20
642.00936044160528
 30
0.0
 66
     1
 70
     8
  0
VERTEX
  8
AM_0
  5
1EC5F
 10
376.037
 20
642.009
 30
0.000000
  70
    32
  0
VERTEX
  8
AM_0
  5
1EC60
 10
376.024
 20
641.998
 30
0.000000
  70
    32
  0
VERTEX
  8
AM_0
  5
1EC61
 10
376.011
 20
641.987
 30
0.000000
  70
    32
  0
VERTEX
  8
AM_0
  5
1EC62
 10
375.998
 20
641.976
 30
0.000000
  70
    32
  0
VERTEX
  8
AM_0
  5
1EC63
 10
375.985
 20
641.965
 30
0.000000
  70
    32
  0
VERTEX
  8
AM_0
  5
1EC64
 10
375.972
 20
641.954
 30
0.000000
  70
    32
  0
VERTEX
  8
AM_0
  5
1EC65
 10
375.959
 20
641.943
 30
0.000000
  70
    32
  0
VERTEX
  8
AM_0
  5
1EC66
 10
375.946
 20
641.933
 30
0.000000
  70
    32
  0
VERTEX
  8
AM_0
  5
1EC67
 10
375.933
 20
641.922
 30
0.000000
  70
    32
  0
VERTEX
  8
AM_0
  5
1EC68
 10
375.920
 20
641.911
 30
0.000000
  70
    32
  0
VERTEX
  8
AM_0
  5
1EC69
 10
375.906
 20
641.901
 30
0.000000
  70
    32
  0
VERTEX
  8
AM_0
  5
1EC6A
 10
375.893
 20
641.891
 30
0.000000
  70
    32
  0
VERTEX
  8
AM_0
  5
1EC6B
 10
375.880
 20
641.880
 30
0.000000
  70
    32
  0
VERTEX
  8
AM_0
  5
1EC6C
 10
375.866
 20
641.870
 30
0.000000
  70
    32
  0
VERTEX
  8
AM_0
  5
1EC6D
 10
375.853
 20
641.860
 30
0.000000
  70
    32
  0
VERTEX
  8
AM_0
  5
1EC6E
 10
375.839
 20
641.850
 30
0.000000
  70
    32
  0
VERTEX
  8
AM_0
  5
1EC6F
 10
375.826
 20
641.840
 30
0.000000
  70
    32
  0
VERTEX
  8
AM_0
  5
1EC70
 10
375.812
 20
641.830
 30
0.000000
  70
    32
  0
VERTEX
  8
AM_0
  5
1EC71
 10
375.798
 20
641.820
 30
0.000000
  70
    32
  0
VERTEX
  8
AM_0
  5
1EC72
 10
375.784
 20
641.810
 30
0.000000
  70
    32
  0
VERTEX
  8
AM_0
  5
1EC73
 10
375.770
 20
641.800
 30
0.000000
  70
    32
  0
VERTEX
  8
AM_0
  5
1EC74
 10
375.756
 20
641.790
 30
0.000000
  70
    32
  0
VERTEX
  8
AM_0
  5
1EC75
 10
375.743
 20
641.781
 30
0.000000
  70
    32
  0
VERTEX
  8
AM_0
  5
1EC76
 10
375.728
 20
641.771
 30
0.000000
  70
    32
  0
VERTEX
  8
AM_0
  5
1EC77
 10
375.714
 20
641.762
 30
0.000000
  70
    32
  0
VERTEX
  8
AM_0
  5
1EC78
 10
375.700
 20
641.753
 30
0.000000
  70
    32
  0
VERTEX
  8
AM_0
  5
1EC79
 10
375.686
 20
641.743
 30
0.000000
  70
    32
  0
VERTEX
  8
AM_0
  5
1EC7A
 10
375.672
 20
641.734
 30
0.000000
  70
    32
  0
VERTEX
  8
AM_0
  5
1EC7B
 10
375.658
 20
641.725
 30
0.000000
  70
    32
  0
VERTEX
  8
AM_0
  5
1EC7C
 10
375.643
 20
641.716
 30
0.000000
  70
    32
  0
VERTEX
  8
AM_0
  5
1EC7D
 10
375.629
 20
641.707
 30
0.000000
  70
    32
  0
VERTEX
  8
AM_0
  5
1EC7E
 10
375.614
 20
641.698
 30
0.000000
  70
    32
  0
VERTEX
  8
AM_0
  5
1EC7F
 10
375.600
 20
641.689
 30
0.000000
  70
    32
  0
VERTEX
  8
AM_0
  5
1EC80
 10
375.585
 20
641.681
 30
0.000000
  70
    32
  0
VERTEX
  8
AM_0
  5
1EC81
 10
375.571
 20
641.672
 30
0.000000
  70
    32
  0
VERTEX
  8
AM_0
  5
1EC82
 10
375.556
 20
641.664
 30
0.000000
  70
    32
  0
VERTEX
  8
AM_0
  5
1EC83
 10
375.542
 20
641.655
 30
0.000000
  70
    32
  0
VERTEX
  8
AM_0
  5
1EC84
 10
375.527
 20
641.647
 30
0.000000
  70
    32
  0
VERTEX
  8
AM_0
  5
1EC85
 10
375.512
 20
641.638
 30
0.000000
  70
    32
  0
VERTEX
  8
AM_0
  5
1EC86
 10
375.497
 20
641.630
 30
0.000000
  70
    32
  0
VERTEX
  8
AM_0
  5
1EC87
 10
375.482
 20
641.622
 30
0.000000
  70
    32
  0
VERTEX
  8
AM_0
  5
1EC88
 10
375.467
 20
641.614
 30
0.000000
  70
    32
  0
VERTEX
  8
AM_0
  5
1EC89
 10
375.452
 20
641.606
 30
0.000000
  70
    32
  0
VERTEX
  8
AM_0
  5
1EC8A
 10
375.437
 20
641.598
 30
0.000000
  70
    32
  0
VERTEX
  8
AM_0
  5
1EC8B
 10
375.422
 20
641.591
 30
0.000000
  70
    32
  0
VERTEX
  8
AM_0
  5
1EC8C
 10
375.407
 20
641.583
 30
0.000000
  70
    32
  0
VERTEX
  8
AM_0
  5
1EC8D
 10
375.392
 20
641.575
 30
0.000000
  70
    32
  0
VERTEX
  8
AM_0
  5
1EC8E
 10
375.377
 20
641.568
 30
0.000000
  70
    32
  0
VERTEX
  8
AM_0
  5
1EC8F
 10
375.362
 20
641.560
 30
0.000000
  70
    32
  0
VERTEX
  8
AM_0
  5
1EC90
 10
375.347
 20
641.553
 30
0.000000
  70
    32
  0
VERTEX
  8
AM_0
  5
1EC91
 10
375.331
 20
641.546
 30
0.000000
  70
    32
  0
VERTEX
  8
AM_0
  5
1EC92
 10
375.316
 20
641.538
 30
0.000000
  70
    32
  0
VERTEX
  8
AM_0
  5
1EC93
 10
375.300
 20
641.531
 30
0.000000
  70
    32
  0
VERTEX
  8
AM_0
  5
1EC94
 10
375.285
 20
641.524
 30
0.000000
  70
    32
  0
VERTEX
  8
AM_0
  5
1EC95
 10
375.270
 20
641.517
 30
0.000000
  70
    32
  0
VERTEX
  8
AM_0
  5
1EC96
 10
375.254
 20
641.511
 30
0.000000
  70
    32
  0
VERTEX
  8
AM_0
  5
1EC97
 10
375.239
 20
641.504
 30
0.000000
  70
    32
  0
VERTEX
  8
AM_0
  5
1EC98
 10
375.223
 20
641.497
 30
0.000000
  70
    32
  0
VERTEX
  8
AM_0
  5
1EC99
 10
375.207
 20
641.491
 30
0.000000
  70
    32
  0
VERTEX
  8
AM_0
  5
1EC9A
 10
375.192
 20
641.484
 30
0.000000
  70
    32
  0
VERTEX
  8
AM_0
  5
1EC9B
 10
375.176
 20
641.478
 30
0.000000
  70
    32
  0
VERTEX
  8
AM_0
  5
1EC9C
 10
375.160
 20
641.471
 30
0.000000
  70
    32
  0
VERTEX
  8
AM_0
  5
1EC9D
 10
375.145
 20
641.465
 30
0.000000
  70
    32
  0
VERTEX
  8
AM_0
  5
1EC9E
 10
375.129
 20
641.459
 30
0.000000
  70
    32
  0
VERTEX
  8
AM_0
  5
1EC9F
 10
375.113
 20
641.453
 30
0.000000
  70
    32
  0
VERTEX
  8
AM_0
  5
1ECA0
 10
375.097
 20
641.447
 30
0.000000
  70
    32
  0
VERTEX
  8
AM_0
  5
1ECA1
 10
375.081
 20
641.441
 30
0.000000
  70
    32
  0
VERTEX
  8
AM_0
  5
1ECA2
 10
375.065
 20
641.436
 30
0.000000
  70
    32
  0
VERTEX
  8
AM_0
  5
1ECA3
 10
375.049
 20
641.430
 30
0.000000
  70
    32
  0
VERTEX
  8
AM_0
  5
1ECA4
 10
375.033
 20
641.424
 30
0.000000
  70
    32
  0
VERTEX
  8
AM_0
  5
1ECA5
 10
375.017
 20
641.419
 30
0.000000
  70
    32
  0
VERTEX
  8
AM_0
  5
1ECA6
 10
375.001
 20
641.413
 30
0.000000
  70
    32
  0
VERTEX
  8
AM_0
  5
1ECA7
 10
374.985
 20
641.408
 30
0.000000
  70
    32
  0
VERTEX
  8
AM_0
  5
1ECA8
 10
374.969
 20
641.403
 30
0.000000
  70
    32
  0
VERTEX
  8
AM_0
  5
1ECA9
 10
374.953
 20
641.398
 30
0.000000
  70
    32
  0
VERTEX
  8
AM_0
  5
1ECAA
 10
374.937
 20
641.393
 30
0.000000
  70
    32
  0
VERTEX
  8
AM_0
  5
1ECAB
 10
374.921
 20
641.388
 30
0.000000
  70
    32
  0
VERTEX
  8
AM_0
  5
1ECAC
 10
374.904
 20
641.383
 30
0.000000
  70
    32
  0
VERTEX
  8
AM_0
  5
1ECAD
 10
374.888
 20
641.378
 30
0.000000
  70
    32
  0
VERTEX
  8
AM_0
  5
1ECAE
 10
374.872
 20
641.373
 30
0.000000
  70
    32
  0
VERTEX
  8
AM_0
  5
1ECAF
 10
374.855
 20
641.369
 30
0.000000
  70
    32
  0
VERTEX
  8
AM_0
  5
1ECB0
 10
374.839
 20
641.364
 30
0.000000
  70
    32
  0
VERTEX
  8
AM_0
  5
1ECB1
 10
374.823
 20
641.360
 30
0.000000
  70
    32
  0
VERTEX
  8
AM_0
  5
1ECB2
 10
374.806
 20
641.356
 30
0.000000
  70
    32
  0
VERTEX
  8
AM_0
  5
1ECB3
 10
374.790
 20
641.351
 30
0.000000
  70
    32
  0
VERTEX
  8
AM_0
  5
1ECB4
 10
374.774
 20
641.347
 30
0.000000
  70
    32
  0
VERTEX
  8
AM_0
  5
1ECB5
 10
374.757
 20
641.343
 30
0.000000
  70
    32
  0
VERTEX
  8
AM_0
  5
1ECB6
 10
374.741
 20
641.339
 30
0.000000
  70
    32
  0
VERTEX
  8
AM_0
  5
1ECB7
 10
374.724
 20
641.336
 30
0.000000
  70
    32
  0
VERTEX
  8
AM_0
  5
1ECB8
 10
374.708
 20
641.332
 30
0.000000
  70
    32
  0
VERTEX
  8
AM_0
  5
1ECB9
 10
374.691
 20
641.328
 30
0.000000
  70
    32
  0
VERTEX
  8
AM_0
  5
1ECBA
 10
374.674
 20
641.325
 30
0.000000
  70
    32
  0
VERTEX
  8
AM_0
  5
1ECBB
 10
374.658
 20
641.321
 30
0.000000
  70
    32
  0
VERTEX
  8
AM_0
  5
1ECBC
 10
374.641
 20
641.318
 30
0.000000
  70
    32
  0
VERTEX
  8
AM_0
  5
1ECBD
 10
374.625
 20
641.314
 30
0.000000
  70
    32
  0
VERTEX
  8
AM_0
  5
1ECBE
 10
374.608
 20
641.311
 30
0.000000
  70
    32
  0
VERTEX
  8
AM_0
  5
1ECBF
 10
374.591
 20
641.308
 30
0.000000
  70
    32
  0
VERTEX
  8
AM_0
  5
1ECC0
 10
374.575
 20
641.305
 30
0.000000
  70
    32
  0
VERTEX
  8
AM_0
  5
1ECC1
 10
374.558
 20
641.302
 30
0.000000
  70
    32
  0
VERTEX
  8
AM_0
  5
1ECC2
 10
374.541
 20
641.299
 30
0.000000
  70
    32
  0
VERTEX
  8
AM_0
  5
1ECC3
 10
374.525
 20
641.297
 30
0.000000
  70
    32
  0
VERTEX
  8
AM_0
  5
1ECC4
 10
374.508
 20
641.294
 30
0.000000
  70
    32
  0
VERTEX
  8
AM_0
  5
1ECC5
 10
374.491
 20
641.292
 30
0.000000
  70
    32
  0
VERTEX
  8
AM_0
  5
1ECC6
 10
374.474
 20
641.289
 30
0.000000
  70
    32
  0
VERTEX
  8
AM_0
  5
1ECC7
 10
374.458
 20
641.287
 30
0.000000
  70
    32
  0
VERTEX
  8
AM_0
  5
1ECC8
 10
374.441
 20
641.285
 30
0.000000
  70
    32
  0
VERTEX
  8
AM_0
  5
1ECC9
 10
374.424
 20
641.282
 30
0.000000
  70
    32
  0
VERTEX
  8
AM_0
  5
1ECCA
 10
374.407
 20
641.280
 30
0.000000
  70
    32
  0
VERTEX
  8
AM_0
  5
1ECCB
 10
374.390
 20
641.278
 30
0.000000
  70
    32
  0
VERTEX
  8
AM_0
  5
1ECCC
 10
374.374
 20
641.277
 30
0.000000
  70
    32
  0
VERTEX
  8
AM_0
  5
1ECCD
 10
374.357
 20
641.275
 30
0.000000
  70
    32
  0
VERTEX
  8
AM_0
  5
1ECCE
 10
374.340
 20
641.273
 30
0.000000
  70
    32
  0
VERTEX
  8
AM_0
  5
1ECCF
 10
374.323
 20
641.272
 30
0.000000
  70
    32
  0
VERTEX
  8
AM_0
  5
1ECD0
 10
374.306
 20
641.270
 30
0.000000
  70
    32
  0
VERTEX
  8
AM_0
  5
1ECD1
 10
374.289
 20
641.269
 30
0.000000
  70
    32
  0
VERTEX
  8
AM_0
  5
1ECD2
 10
374.272
 20
641.267
 30
0.000000
  70
    32
  0
VERTEX
  8
AM_0
  5
1ECD3
 10
374.255
 20
641.266
 30
0.000000
  70
    32
  0
VERTEX
  8
AM_0
  5
1ECD4
 10
374.238
 20
641.265
 30
0.000000
  70
    32
  0
VERTEX
  8
AM_0
  5
1ECD5
 10
374.222
 20
641.264
 30
0.000000
  70
    32
  0
VERTEX
  8
AM_0
  5
1ECD6
 10
374.205
 20
641.263
 30
0.000000
  70
    32
  0
VERTEX
  8
AM_0
  5
1ECD7
 10
374.188
 20
641.262
 30
0.000000
  70
    32
  0
VERTEX
  8
AM_0
  5
1ECD8
 10
374.171
 20
641.262
 30
0.000000
  70
    32
  0
VERTEX
  8
AM_0
  5
1ECD9
 10
374.154
 20
641.261
 30
0.000000
  70
    32
  0
VERTEX
  8
AM_0
  5
1ECDA
 10
374.137
 20
641.261
 30
0.000000
  70
    32
  0
VERTEX
  8
AM_0
  5
1ECDB
 10
374.120
 20
641.260
 30
0.000000
  70
    32
  0
VERTEX
  8
AM_0
  5
1ECDC
 10
374.103
 20
641.260
 30
0.000000
  70
    32
  0
VERTEX
  8
AM_0
  5
1ECDD
 10
374.086
 20
641.260
 30
0.000000
  70
    32
  0
VERTEX
  8
AM_0
  5
1ECDE
 10
374.069
 20
641.259
 30
0.000000
  70
    32
  0
VERTEX
  8
AM_0
  5
1ECDF
 10
374.052
 20
641.259
 30
0.000000
  70
    32
  0
SEQEND
  8
AM_0
  5
1ECE0
  0
LINE
  5
1B18B
  8
AM_0
 10
378.02089370775741
 20
642.75937481869823
 30
0.0
 11
378.40718477868631
 21
642.75937528704605
 31
0.0
  0
LINE
  5
1B18E
  8
AM_0
 10
479.55129792133317
 20
650.76079770580168
 30
0.0
 11
479.55129792133317
 21
655.76079785631316
 31
0.0
  0
LINE
  5
1B190
  8
ﾁｭｳｼﾝｾﾝ1
 10
529.55229911344975
 20
824.76080086654565
 30
0.0
 11
529.55229911344975
 21
552.40000429675683
 31
0.0
  0
LINE
  5
1B191
  8
AM_0
 10
602.92894091061248
 20
655.7607978563135
 30
0.0
 11
604.55230137112426
 21
748.76080086654565
 31
0.0
  0
LINE
  5
1B193
  8
AM_0
 10
579.55330030556627
 20
650.76079770580168
 30
0.0
 11
579.55330030556627
 21
653.26079785631339
 31
0.0
  0
LINE
  5
1B194
  8
0
 10
601.55200092408029
 20
653.26079785631339
 30
0.0
 11
577.55200092408018
 21
653.26079785631339
 31
0.0
  0
LINE
  5
1B195
  8
0
 10
598.55200092408018
 20
641.26079785631339
 30
0.0
 11
580.55200092408006
 21
641.26079785631339
 31
0.0
  0
LINE
  5
1B196
  8
0
 10
598.55200092408018
 20
653.26079785631339
 30
0.0
 11
598.55200092408018
 21
641.26079785631339
 31
0.0
  0
LINE
  5
1B197
  8
0
 10
601.55200092408029
 20
655.76079785631316
 30
0.0
 11
601.55200092408029
 21
653.26079785631339
 31
0.0
  0
LINE
  5
1B198
  8
0
 10
580.55200092408006
 20
641.26079785631339
 30
0.0
 11
580.55200092408006
 21
653.26079785631339
 31
0.0
  0
LINE
  5
1B199
  8
0
 10
577.55200092408018
 20
653.26079785631339
 30
0.0
 11
577.55200092408018
 21
655.76079785631316
 31
0.0
  0
LINE
  5
1B19A
  8
0
 10
426.55232616926139
 20
653.26079785631339
 30
0.0
 11
402.55232616926162
 21
653.2607978563135
 31
0.0
  0
LINE
  5
1B19B
  8
0
 10
423.55232616926162
 20
641.26079785631339
 30
0.0
 11
405.55232616926162
 21
641.26079785631339
 31
0.0
  0
LINE
  5
1B19C
  8
0
 10
423.55232616926162
 20
653.26079785631339
 30
0.0
 11
423.55232616926162
 21
641.26079785631339
 31
0.0
  0
LINE
  5
1B19D
  8
0
 10
426.55232616926139
 20
655.76079785631316
 30
0.0
 11
426.55232616926139
 21
653.26079785631339
 31
0.0
  0
LINE
  5
1B19E
  8
0
 10
405.55232616926162
 20
641.26079785631339
 30
0.0
 11
405.55232616926162
 21
653.2607978563135
 31
0.0
  0
LINE
  5
1B19F
  8
0
 10
402.55232616926162
 20
653.2607978563135
 30
0.0
 11
402.55232616926162
 21
655.7607978563135
 31
0.0
  0
LINE
  5
1B1A0
  8
AM_0
 10
971.59188743698633
 20
413.29434087633268
 30
0.0
 11
996.59188743698667
 21
413.29434087633268
 31
0.0
  0
LINE
  5
1B1A1
  8
AM_0
 10
971.59188743698633
 20
252.1074578376751
 30
0.0
 11
996.59188743698667
 21
252.1074578376751
 31
0.0
  0
LINE
  5
1B1A2
  8
AM_0
 10
397.5523257177266
 20
814.76080086654554
 30
0.0
 11
606.55230137112414
 21
814.76080086654588
 31
0.0
  0
LINE
  5
1B1A3
  8
AM_0
 10
398.30853265197561
 20
789.76080086654554
 30
0.0
 11
605.79335676847882
 21
789.76080086654565
 31
0.0
  0
LINE
  5
1B1A4
  8
AM_0
 10
604.54868762014053
 20
748.76080086654565
 30
0.0
 11
606.55230137112414
 21
814.76080086654588
 31
0.0
  0
LINE
  5
1B1A5
  8
AM_0
 10
399.54871202414392
 20
748.76080086654554
 30
0.0
 11
397.5523257177266
 21
814.76080086654554
 31
0.0
  0
LINE
  5
1B1A6
  8
AM_0
 10
583.91067953059951
 20
814.76080086654588
 30
0.0
 11
583.91067953059951
 21
789.76080086654565
 31
0.0
  0
LINE
  5
1B1A7
  8
ﾁｭｳｼﾝｾﾝ1
 10
574.55232797540168
 20
819.76080086654599
 30
0.0
 11
574.55232797540168
 21
784.76080086654565
 31
0.0
  0
LINE
  5
1B1A8
  8
AM_0
 10
420.19394755825152
 20
814.76080086654588
 30
0.0
 11
420.19394755825152
 21
789.76080086654565
 31
0.0
  0
LINE
  5
1B1A9
  8
ﾁｭｳｼﾝｾﾝ1
 10
429.55229911344901
 20
819.76080086654599
 30
0.0
 11
429.55229911344901
 21
784.76080086654565
 31
0.0
  0
LINE
  5
1B1AC
  8
0
 10
513.55229911344975
 20
559.76079963235043
 30
0.0
 11
513.55229911344975
 21
617.76079963235043
 31
0.0
  0
LINE
  5
1B1AD
  8
0
 10
545.55229911344986
 20
559.76079963235043
 30
0.0
 11
545.55229911344986
 21
617.76079963235043
 31
0.0
  0
LINE
  5
1B1AE
  8
AM_0
 10
545.55229911344986
 20
559.76079963235043
 30
0.0
 11
513.55229911344975
 21
559.76079963235043
 31
0.0
  0
LINE
  5
1B1AF
  8
0
 10
549.55229911344986
 20
617.76079963235043
 30
0.0
 11
554.55229986600716
 21
645.76079755529076
 31
0.0
  0
LINE
  5
1B1B0
  8
AM_0
 10
504.55229836089097
 20
645.76079755529076
 30
0.0
 11
554.55229986600716
 21
645.76079755529076
 31
0.0
  0
LINE
  5
1B1B1
  8
AM_0
 10
554.55229986600716
 20
650.76079770580225
 30
0.0
 11
554.55229986600716
 21
645.76079755529076
 31
0.0
  0
LINE
  5
1B1B2
  8
0
 10
509.55229911344969
 20
617.76079963235043
 30
0.0
 11
504.55229836089097
 21
645.76079755529076
 31
0.0
  0
LINE
  5
1B1B3
  8
0
 10
509.55229911344969
 20
617.76079963235043
 30
0.0
 11
549.55229911344986
 21
617.76079963235043
 31
0.0
  0
LINE
  5
1B1B5
  8
AM_0
 10
504.55229836089097
 20
650.76079770580225
 30
0.0
 11
504.55229836089097
 21
645.76079755529076
 31
0.0
  0
LINE
  5
1B22A
  8
AM_0
 10
534.55229911344975
 20
559.76079963235043
 30
0.0
 11
534.55229911344975
 21
604.76079963235043
 31
0.0
  0
LINE
  5
1B230
  8
AM_0
 10
524.55229911344986
 20
559.76079963235043
 30
0.0
 11
524.55229911344986
 21
604.76079963235043
 31
0.0
  0
LINE
  5
1B231
  8
AM_0
 10
524.55229911344986
 20
604.76079963235043
 30
0.0
 11
534.55229911344975
 21
604.76079963235043
 31
0.0
  0
ARC
  5
1B232
  8
AM_0
 10
529.55229911344975
 20
604.76079963235043
 30
0.0
 40
5.0
 50
0.0
 51
180.0
  0
LINE
  5
1BF24
  8
AM_0
 10
901.59396243943036
 20
424.7008993846041
 30
0.0
 11
917.35735890026365
 21
424.70089938460421
 31
0.0
  0
LINE
  5
1BF25
  8
AM_0
 10
901.59396243943036
 20
419.70089938310429
 30
0.0
 11
917.35735890026365
 21
419.70089938310468
 31
0.0
  0
LINE
  5
1BF26
  8
AM_0
 10
896.59188743792959
 20
419.70089938310429
 30
0.0
 11
898.659754655131
 21
419.70089938310429
 31
0.0
  0
LINE
  5
1BF27
  8
AM_0
 10
896.59188743793072
 20
424.7008993846041
 30
0.0
 11
901.59396243943036
 21
424.7008993846041
 31
0.0
  0
LINE
  5
1BF28
  8
AM_0
 10
894.5240202207292
 20
418.98661366860438
 30
0.0
 11
898.659754655131
 21
418.98661366860438
 31
0.0
  0
CIRCLE
  5
1BF29
  8
AM_0
 10
896.59188743792959
 20
422.20089938385411
 30
0.0
 40
2.5000000007500001
  0
LINE
  5
1BF2A
  8
0
 10
894.5240202207292
 20
423.60586385877031
 30
0.0
 11
894.5240202207292
 21
424.7008993846041
 31
0.0
  0
LINE
  5
1BF2B
  8
0
 10
894.5240202207292
 20
418.98661366860438
 30
0.0
 11
894.5240202207292
 21
420.79593490893762
 31
0.0
  0
LINE
  5
1BF2C
  8
AM_0
 10
891.58981243642961
 20
424.7008993846041
 30
0.0
 11
894.5240202207292
 21
424.7008993846041
 31
0.0
  0
LINE
  5
1BF2D
  8
0
 10
898.65975465513066
 20
423.6058638587707
 30
0.0
 11
898.65975465513066
 21
424.7008993846041
 31
0.0
  0
LINE
  5
1BF2E
  8
0
 10
898.659754655131
 20
418.98661366860438
 30
0.0
 11
898.65975465513066
 21
420.79593490893762
 31
0.0
  0
LINE
  5
1BF2F
  8
0
 10
901.59396243943036
 20
413.54791963282281
 30
0.0
 11
901.59396243943036
 21
424.7008993846041
 31
0.0
  0
LINE
  5
1BF30
  8
0
 10
891.58981243642961
 20
413.54791963282281
 30
0.0
 11
891.58981243642961
 21
424.7008993846041
 31
0.0
  0
ARC
  5
1C4DE
  8
AM_0
 10
917.35735890026365
 20
295.70089934590521
 30
0.0
 40
50.000000014999998
 50
287.73954888371873
 51
300.48176923809979
1001
GENIUS_GENOBJ-N-FIL_13
1002
{
1000
OWNER
1000
GEN
1002
}
1001
GENIUS_GENODEF_13
1002
{
1000
HIER
1070
     0
1002
}
1002
{
1000
MANEDIT
1070
     0
1002
}
1002
{
1000
NOSEL
1070
     0
1002
}
1002
{
1000
BEHIND
1070
     0
1002
}
1002
{
1000
OTHER
1070
     0
1002
}
1002
{
1000
REACTOR
1002
}
  0
ARC
  5
1C4DF
  8
AM_0
 10
917.35735890026365
 20
295.70089934590521
 30
0.0
 40
55.00000001650001
 50
286.08072549471092
 51
308.16970051909459
1001
GENIUS_GENOBJ-N-FIL_13
1002
{
1000
OWNER
1000
GEN
1002
}
1001
GENIUS_GENODEF_13
1002
{
1000
HIER
1070
     0
1002
}
1002
{
1000
MANEDIT
1070
     0
1002
}
1002
{
1000
NOSEL
1070
     0
1002
}
1002
{
1000
BEHIND
1070
     0
1002
}
1002
{
1000
OTHER
1070
     0
1002
}
1002
{
1000
REACTOR
1002
}
  0
ARC
  5
1C4E3
  8
AM_0
 10
917.35735890026365
 20
369.70089936810422
 30
0.0
 40
55.00000001650001
 50
51.830252127272871
 51
90.0
1001
GENIUS_GENOBJ-N-FIL_13
1002
{
1000
OWNER
1000
GEN
1002
}
1001
GENIUS_GENODEF_13
1002
{
1000
HIER
1070
     0
1002
}
1002
{
1000
MANEDIT
1070
     0
1002
}
1002
{
1000
NOSEL
1070
     0
1002
}
1002
{
1000
BEHIND
1070
     0
1002
}
1002
{
1000
OTHER
1070
     0
1002
}
1002
{
1000
REACTOR
1002
}
  0
ARC
  5
1C4E4
  8
AM_0
 10
917.35735890026365
 20
369.70089936810422
 30
0.0
 40
50.000000014999998
 50
59.518193946344468
 51
90.0
1001
GENIUS_GENOBJ-N-FIL_13
1002
{
1000
OWNER
1000
GEN
1002
}
1001
GENIUS_GENODEF_13
1002
{
1000
HIER
1070
     0
1002
}
1002
{
1000
MANEDIT
1070
     0
1002
}
1002
{
1000
NOSEL
1070
     0
1002
}
1002
{
1000
BEHIND
1070
     0
1002
}
1002
{
1000
OTHER
1070
     0
1002
}
1002
{
1000
REACTOR
1002
}
  0
ARC
  5
1CD2D
  8
AM_0
 10
354.05232570677742
 20
270.66209135700473
 30
0.0
 40
1.0
 50
180.0
 51
270.0
  0
ARC
  5
1CD2E
  8
AM_0
 10
354.05232570677742
 20
394.7397073570047
 30
0.0
 40
1.0
 50
90.0
 51
180.0
  0
ARC
  5
1CD2F
  8
AM_0
 10
352.04389678645077
 20
648.26076422532094
 30
0.0
 40
2.0
 50
270.0
 51
344.99999999999892
  0
LINE
  5
1CD30
  8
AM_0
 10
355.05227178645077
 20
651.76076422532094
 30
0.0
 11
353.97574878645082
 21
647.74312622532102
 31
0.0
  0
LINE
  5
1CD31
  8
AM_0
 10
355.05227178645077
 20
650.13918322532095
 30
0.0
 11
352.16050478645082
 21
639.34696122532091
 31
0.0
  0
ARC
  5
1CD32
  8
AM_0
 10
350.22865278645082
 20
639.86459922532129
 30
0.0
 40
2.0
 50
270.0
 51
345.0000029999984
  0
LINE
  5
1CD33
  8
AM_0
 10
286.05227178645077
 20
636.89856622532091
 30
0.0
 11
286.05227178645077
 21
637.86459922532106
 31
0.0
  0
ARC
  5
1CD34
  8
AM_0
 10
284.05227178645077
 20
638.33119522532093
 30
0.0
 40
2.0
 50
270.0
 51
346.50868899999813
  0
ARC
  5
1CD35
  8
AM_0
 10
284.05227178645077
 20
637.32584422532113
 30
0.0
 40
2.0
 50
270.0
 51
0.0
  0
ARC
  5
1CD36
  8
AM_0
 10
284.05227178645077
 20
636.89856622532091
 30
0.0
 40
2.0
 50
270.0
 51
0.0
  0
ARC
  5
1CD37
  8
AM_0
 10
199.0522717864508
 20
636.23876922532099
 30
0.0
 40
2.0
 50
15.7695469999999
 51
90.0
  0
ARC
  5
1CD38
  8
AM_0
 10
199.0522717864508
 20
638.87640822532126
 30
0.0
 40
2.0
 50
0.0
 51
90.0
  0
LINE
  5
1CD39
  8
AM_0
 10
201.0522717864508
 20
643.23239722532094
 30
0.0
 11
201.0522717864508
 21
639.86459922532129
 31
0.0
  0
ARC
  5
1CD3A
  8
AM_0
 10
203.0522717864508
 20
639.86459922532129
 30
0.0
 40
2.0
 50
180.0
 51
270.0
  0
ARC
  5
1CD3B
  8
AM_0
 10
203.0522717864508
 20
638.33119522532093
 30
0.0
 40
2.0
 50
180.0
 51
270.0
  0
ARC
  5
1CD3C
  8
AM_0
 10
202.90172178645091
 20
637.32584422532113
 30
0.0
 40
2.0
 50
195.7695469999999
 51
270.0
  0
LINE
  5
1CD3D
  8
AM_0
 10
201.0522717864508
 20
638.87640822532126
 30
0.0
 11
201.0522717864508
 21
638.33119522532093
 31
0.0
  0
ARC
  5
1CD3E
  8
AM_0
 10
203.0522717864508
 20
636.89856622532091
 30
0.0
 40
2.0
 50
180.0
 51
270.0
  0
ARC
  5
1CD3F
  8
AM_0
 10
199.0522717864508
 20
643.23239722532094
 30
0.0
 40
2.0
 50
0.0
 51
90.0
  0
LINE
  5
1CD40
  8
AM_0
 10
203.0522717864508
 20
637.86459922532106
 30
0.0
 11
350.22865278645082
 21
637.86459922532106
 31
0.0
  0
LINE
  5
1CD41
  8
AM_0
 10
203.0522717864508
 20
636.33119522532093
 30
0.0
 11
284.05227178645077
 21
636.33119522532093
 31
0.0
  0
LINE
  5
1CD42
  8
AM_0
 10
202.90172178645091
 20
635.32584422532113
 30
0.0
 11
284.05227178645077
 21
635.32584422532113
 31
0.0
  0
LINE
  5
1CD43
  8
AM_0
 10
203.0522717864508
 20
634.89856622532102
 30
0.0
 11
284.05227178645077
 21
634.89856622532102
 31
0.0
  0
LINE
  5
1CD44
  8
AM_0
 10
199.0522717864508
 20
645.23239722532094
 30
0.0
 11
191.0522717864508
 21
645.23239722532094
 31
0.0
  0
LINE
  5
1CD45
  8
AM_0
 10
199.0522717864508
 20
640.87640822532126
 30
0.0
 11
191.0522717864508
 21
640.87640822532126
 31
0.0
  0
LINE
  5
1CD46
  8
AM_0
 10
199.0522717864508
 20
638.23876922532088
 30
0.0
 11
191.0522717864508
 21
638.23876922532088
 31
0.0
  0
ARC
  5
1CD47
  8
AM_0
 10
352.04389678645077
 20
781.26076422532105
 30
0.0
 40
2.0
 50
15.00000000000116
 51
90.0
  0
LINE
  5
1CD48
  8
AM_0
 10
355.05227178645077
 20
777.76076422532105
 30
0.0
 11
353.97574878645082
 21
781.7784022253212
 31
0.0
  0
ARC
  5
1CD49
  8
AM_0
 10
350.22865278645082
 20
789.65692922532094
 30
0.0
 40
2.0
 50
14.999997000001709
 51
90.0
  0
LINE
  5
1CD4A
  8
AM_0
 10
355.05227178645077
 20
779.38234522532105
 30
0.0
 11
352.16050478645082
 21
790.1745672253212
 31
0.0
  0
ARC
  5
1CD4B
  8
AM_0
 10
284.05227178645077
 20
792.62296222532098
 30
0.0
 40
2.0
 50
0.0
 51
90.0
  0
ARC
  5
1CD4C
  8
AM_0
 10
284.05227178645077
 20
792.19568422532097
 30
0.0
 40
2.0
 50
0.0
 51
90.0
  0
ARC
  5
1CD4D
  8
AM_0
 10
284.05227178645077
 20
791.19033322532118
 30
0.0
 40
2.0
 50
13.49131100000195
 51
90.0
  0
LINE
  5
1CD4E
  8
AM_0
 10
286.05227178645077
 20
792.62296222532098
 30
0.0
 11
286.05227178645077
 21
791.65692922532094
 31
0.0
  0
ARC
  5
1CD4F
  8
AM_0
 10
199.0522717864508
 20
786.28913122532117
 30
0.0
 40
2.0
 50
270.0
 51
0.0
  0
LINE
  5
1CD50
  8
AM_0
 10
199.0522717864508
 20
784.28913122532106
 30
0.0
 11
191.0522717864508
 21
784.28913122532106
 31
0.0
  0
LINE
  5
1CD51
  8
AM_0
 10
199.0522717864508
 20
788.64512022532074
 30
0.0
 11
191.0522717864508
 21
788.64512022532074
 31
0.0
  0
ARC
  5
1CD52
  8
AM_0
 10
203.0522717864508
 20
792.62296222532098
 30
0.0
 40
2.0
 50
90.0
 51
180.0
  0
LINE
  5
1CD53
  8
AM_0
 10
201.0522717864508
 20
790.64512022532074
 30
0.0
 11
201.0522717864508
 21
791.19033322532118
 31
0.0
  0
ARC
  5
1CD54
  8
AM_0
 10
202.90172178645091
 20
792.19568422532097
 30
0.0
 40
2.0
 50
90.0
 51
164.2304530000001
  0
ARC
  5
1CD55
  8
AM_0
 10
199.0522717864508
 20
793.28275922532123
 30
0.0
 40
2.0
 50
270.0
 51
344.23045300000013
  0
ARC
  5
1CD56
  8
AM_0
 10
203.0522717864508
 20
791.19033322532118
 30
0.0
 40
2.0
 50
90.0
 51
180.0
  0
ARC
  5
1CD57
  8
AM_0
 10
203.0522717864508
 20
789.65692922532094
 30
0.0
 40
2.0
 50
90.0
 51
180.0
  0
LINE
  5
1CD58
  8
AM_0
 10
201.0522717864508
 20
786.28913122532117
 30
0.0
 11
201.0522717864508
 21
789.65692922532094
 31
0.0
  0
ARC
  5
1CD59
  8
AM_0
 10
199.0522717864508
 20
790.64512022532074
 30
0.0
 40
2.0
 50
270.0
 51
0.0
  0
LINE
  5
1CD5A
  8
AM_0
 10
203.0522717864508
 20
791.65692922532094
 30
0.0
 11
350.22865278645082
 21
791.65692922532094
 31
0.0
  0
LINE
  5
1CD5B
  8
AM_0
 10
203.0522717864508
 20
793.19033322532107
 30
0.0
 11
284.05227178645077
 21
793.19033322532107
 31
0.0
  0
LINE
  5
1CD5C
  8
AM_0
 10
202.90172178645091
 20
794.19568422532075
 30
0.0
 11
284.05227178645077
 21
794.19568422532075
 31
0.0
  0
LINE
  5
1CD5D
  8
AM_0
 10
203.0522717864508
 20
794.6229622253212
 30
0.0
 11
284.05227178645077
 21
794.6229622253212
 31
0.0
  0
LINE
  5
1CD5E
  8
AM_0
 10
199.0522717864508
 20
791.282759225321
 30
0.0
 11
191.0522717864508
 21
791.282759225321
 31
0.0
  0
ARC
  5
1CD61
  8
AM_0
 10
354.05227178645077
 20
776.76076422532105
 30
0.0
 40
1.0
 50
90.0
 51
180.0
  0
ARC
  5
1CD62
  8
AM_0
 10
354.05227178645077
 20
652.76076422532094
 30
0.0
 40
1.0
 50
180.0
 51
270.0
  0
LINE
  5
1CD8F
  8
AM_0
 10
353.05227178645077
 20
670.93076422532067
 30
0.0
 11
353.05227178645077
 21
678.570764225321
 31
0.0
  0
ARC
  5
1CD90
  8
AM_0
 10
354.04729678645077
 20
671.79638422532094
 30
0.0
 40
1.0069859999999999
 50
278.39216300000231
 51
359.64700200000118
  0
ARC
  5
1CD91
  8
AM_0
 10
354.05163278645091
 20
667.71923322532075
 30
0.0
 40
1.0026319999999971
 50
0.0540849999984573
 51
81.243759000001006
  0
LINE
  5
1CD92
  8
AM_0
 10
355.0542647864508
 20
671.79018022532114
 30
0.0
 11
355.0542647864508
 21
667.72018022532075
 31
0.0
  0
ARC
  5
1CD93
  8
AM_0
 10
352.51090878645078
 20
669.76682422532065
 30
0.0
 40
0.8033630000000001
 50
0.2393299999979177
 51
89.760670000002108
  0
LINE
  5
1CD94
  8
AM_0
 10
354.19426478645079
 20
670.8001802253209
 30
0.0
 11
352.59157678645079
 21
670.58076422532076
 31
0.0
  0
ARC
  5
1CD95
  8
AM_0
 10
352.50920278645083
 20
669.77524222532111
 30
0.0
 40
0.8050779999999997
 50
270.3602510000016
 51
359.6397489999984
  0
LINE
  5
1CD96
  8
AM_0
 10
354.20426478645078
 20
668.71018022532132
 30
0.0
 11
352.44546578645082
 21
668.98076422532085
 31
0.0
  0
LINE
  5
1CD97
  8
AM_0
 10
353.05227178645077
 20
760.9307642253209
 30
0.0
 11
353.05227178645077
 21
776.76076422532105
 31
0.0
  0
ARC
  5
1CD98
  8
AM_0
 10
354.04729678645077
 20
757.72514422532117
 30
0.0
 40
1.0069859999999999
 50
0.3529979999987995
 51
81.607836999997744
  0
ARC
  5
1CD99
  8
AM_0
 10
352.50920278645083
 20
759.746286225321
 30
0.0
 40
0.8050779999999997
 50
0.3602510000016315
 51
89.639748999998375
  0
ARC
  5
1CD9A
  8
AM_0
 10
352.51090878645078
 20
759.75470422532123
 30
0.0
 40
0.8033630000000001
 50
270.23932999999789
 51
359.76067000000211
  0
ARC
  5
1CD9B
  8
AM_0
 10
354.05163278645091
 20
761.80229522532125
 30
0.0
 40
1.0026319999999971
 50
278.75624099999902
 51
359.94591500000149
  0
LINE
  5
1CD9C
  8
AM_0
 10
355.0542647864508
 20
757.73134822532086
 30
0.0
 11
355.0542647864508
 21
761.80134822532125
 31
0.0
  0
LINE
  5
1CD9D
  8
AM_0
 10
354.20426478645078
 20
760.8113482253209
 30
0.0
 11
352.44546578645082
 21
760.54076422532103
 31
0.0
  0
LINE
  5
1CD9E
  8
AM_0
 10
354.19426478645079
 20
758.72134822532109
 30
0.0
 11
352.59157678645079
 21
758.94076422532123
 31
0.0
  0
LINE
  5
1CD9F
  8
AM_0
 10
353.05227178645077
 20
752.624709225321
 30
0.0
 11
363.05227178645077
 21
752.624709225321
 31
0.0
  0
LINE
  5
1CDA0
  8
AM_0
 10
353.05227178645077
 20
676.90681922532065
 30
0.0
 11
363.05227178645077
 21
676.90681922532065
 31
0.0
  0
LINE
  5
1CDAC
  8
AM_0
 10
863.09188746243876
 20
253.7008993570044
 30
0.0
 11
880.3020327147226
 21
253.7008993570044
 31
0.0
  0
LINE
  5
1CDAE
  8
AM_0
 10
863.09188746243876
 20
253.7008993570044
 30
0.0
 11
863.08208610845202
 21
254.00147592134721
 31
0.0
  0
LINE
  5
1CDB0
  8
AM_0
 10
833.59188746243876
 20
276.70089740035371
 30
0.0
 11
833.59188746243876
 21
282.7008981499115
 31
0.0
  0
LINE
  5
1CDB4
  8
AM_0
 10
822.59188746243865
 20
299.79581135700442
 30
0.0
 11
822.59188746243865
 21
307.70089935700429
 31
0.0
  0
ARC
  5
1CDB5
  8
AM_0
 10
828.59188746243865
 20
286.9856353570043
 30
0.0
 40
0.5
 50
180.0
 51
270.0
  0
LINE
  5
1CDB6
  8
AM_0
 10
828.09188746243865
 20
288.4856353570043
 30
0.0
 11
828.09188746243865
 21
286.9856353570043
 31
0.0
  0
ARC
  5
1CDB7
  8
AM_0
 10
828.59188746243865
 20
288.4856353570043
 30
0.0
 40
0.5
 50
90.0
 51
180.0
  0
LINE
  5
1CDC1
  8
AM_0
 10
832.59188551043792
 20
289.34032593607202
 30
0.0
 11
828.54796446243881
 21
288.98370235700429
 31
0.0
  0
LINE
  5
1CDC2
  8
AM_0
 10
832.59188551043781
 20
285.59080279370397
 30
0.0
 11
828.48413046243877
 21
286.49738435700442
 31
0.0
  0
LINE
  5
1CDD8
  8
AM_0
 10
819.14536446243881
 20
308.70029035700441
 30
0.0
 11
821.52913187974559
 21
308.78353339773872
 31
0.0
  0
ARC
  5
1CDD9
  8
AM_0
 10
819.18026346243869
 20
307.70089935700429
 30
0.0
 40
1.0
 50
91.999999999997158
 51
268.0000000000029
  0
LINE
  5
1CDDA
  8
AM_0
 10
819.14536446243881
 20
306.70150835700429
 30
0.0
 11
822.59188746243865
 21
306.58115335700438
 31
0.0
  0
ARC
  5
1CDDB
  8
AM_0
 10
826.59125046243878
 20
304.4402733570044
 30
0.0
 40
2.0
 50
21.964500999998059
 51
88.000000000002785
  0
ARC
  5
1CDDC
  8
AM_0
 10
827.89146046243877
 20
301.4089973570043
 30
0.0
 40
2.0
 50
275.5175840000021
 51
24.4675450000009
  0
ARC
  5
1CDDD
  8
AM_0
 10
820.70572246243864
 20
297.7008993570044
 30
0.0
 40
1.0
 50
95.517584000002117
 51
265.38626999999849
  0
ARC
  5
1CDDE
  8
AM_0
 10
831.60188746243898
 20
293.81183435700427
 30
0.0
 40
2.0
 50
60.330314021152638
 51
85.386269999998405
  0
ARC
  5
1CDFA
  8
AM_0
 10
823.75141846243866
 20
307.70089935700429
 30
0.0
 40
1.1595309999999981
 50
134.26755286692219
 51
268.0000000000029
  0
LINE
  5
1CDFB
  8
AM_0
 10
823.71095146243886
 20
306.54207435700442
 30
0.0
 11
826.66104946243865
 21
306.43905535700429
 31
0.0
  0
ARC
  5
1CDFC
  8
AM_0
 10
821.59188746243865
 20
299.79581135700442
 30
0.0
 40
1.0
 50
275.5175840000021
 51
0.0
  0
LINE
  5
1CDFD
  8
AM_0
 10
831.76276346243878
 20
295.80535335700438
 30
0.0
 11
820.62528546243902
 21
296.70413935700441
 31
0.0
  0
LINE
  5
1CDFE
  8
AM_0
 10
828.08376346243881
 20
299.41826435700432
 30
0.0
 11
820.60957146243868
 21
298.69626635700428
 31
0.0
  0
LINE
  5
1CE2B
  8
AM_0
 10
828.08376346243881
 20
365.98353435700437
 30
0.0
 11
820.60957146243868
 21
366.70553235700442
 31
0.0
  0
LINE
  5
1CE2C
  8
AM_0
 10
831.76276346243878
 20
369.59644535700431
 30
0.0
 11
820.62528546243902
 21
368.69765935700428
 31
0.0
  0
ARC
  5
1CE2D
  8
AM_0
 10
821.59188746243865
 20
365.60598735700432
 30
0.0
 40
1.0
 50
0.0
 51
84.482415999997869
  0
LINE
  5
1CE2E
  8
AM_0
 10
823.71095146243886
 20
358.85972435700432
 30
0.0
 11
826.66104946243865
 21
358.96274335700417
 31
0.0
  0
ARC
  5
1CE2F
  8
AM_0
 10
823.75141846243866
 20
357.70089935700429
 30
0.0
 40
1.1595309999999981
 50
91.999999999997158
 51
225.73244713302219
  0
ARC
  5
1CE3E
  8
AM_0
 10
831.60188746243898
 20
371.58996435700442
 30
0.0
 40
2.0
 50
274.61373000000151
 51
299.66968597884733
  0
ARC
  5
1CE3F
  8
AM_0
 10
820.70572246243864
 20
367.70089935700429
 30
0.0
 40
1.0
 50
94.61373000000151
 51
264.4824159999979
  0
ARC
  5
1CE40
  8
AM_0
 10
827.89146046243877
 20
363.9928013570044
 30
0.0
 40
2.0
 50
335.53245499999912
 51
84.482415999997869
  0
ARC
  5
1CE41
  8
AM_0
 10
826.59125046243878
 20
360.96152535700429
 30
0.0
 40
2.0
 50
271.9999999999971
 51
338.03549900000189
  0
LINE
  5
1CE42
  8
AM_0
 10
819.14536446243881
 20
358.70029035700441
 30
0.0
 11
822.59188746243865
 21
358.82064535700442
 31
0.0
  0
ARC
  5
1CE43
  8
AM_0
 10
819.18026346243869
 20
357.70089935700429
 30
0.0
 40
1.0
 50
91.999999999997158
 51
268.0000000000029
  0
LINE
  5
1CE44
  8
AM_0
 10
819.14536446243881
 20
356.70150835700429
 30
0.0
 11
821.5291318797415
 21
356.6182653162702
 31
0.0
  0
LINE
  5
1CE5A
  8
AM_0
 10
832.59188551043781
 20
379.81099592030461
 30
0.0
 11
828.48413046243877
 21
378.90441435700433
 31
0.0
  0
LINE
  5
1CE5B
  8
AM_0
 10
832.59188551043792
 20
376.06147277793679
 30
0.0
 11
828.54796446243881
 21
376.41809635700429
 31
0.0
  0
ARC
  5
1CE65
  8
AM_0
 10
828.59188746243865
 20
376.91616335700428
 30
0.0
 40
0.5
 50
180.0
 51
270.0
  0
LINE
  5
1CE66
  8
AM_0
 10
828.09188746243865
 20
376.91616335700428
 30
0.0
 11
828.09188746243865
 21
378.41616335700439
 31
0.0
  0
ARC
  5
1CE67
  8
AM_0
 10
828.59188746243865
 20
378.41616335700439
 30
0.0
 40
0.5
 50
90.0
 51
180.0
  0
LINE
  5
1CE68
  8
AM_0
 10
822.59188746243865
 20
365.60598735700432
 30
0.0
 11
822.59188746243865
 21
357.70089935700429
 31
0.0
  0
LINE
  5
1CE6C
  8
AM_0
 10
833.59188746243876
 20
388.70090131365561
 30
0.0
 11
833.59188746243876
 21
382.70090056409742
 31
0.0
  0
ARC
  5
1CE6F
  8
AM_0
 10
896.59188746243899
 20
332.70089935700429
 30
0.0
 40
73.5
 50
150.54571656747041
 51
160.13345242985289
  0
ARC
  5
1CE74
  8
AM_0
 10
896.59188746243899
 20
332.70089935700429
 30
0.0
 40
70.0
 50
156.10449575818191
 51
159.0751669128918
  0
ARC
  5
1CE77
  8
AM_0
 10
891.57391046243913
 20
411.65931335700418
 30
0.0
 40
1.0
 50
14.78634269168767
 51
167.21366581207349
  0
ARC
  5
1CE7A
  8
AM_0
 10
901.57391046243902
 20
411.65931335700418
 30
0.0
 40
1.0
 50
25.382532094396531
 51
156.61747640936639
  0
ARC
  5
1CE82
  8
AM_0
 10
881.57391046243879
 20
411.15600935700439
 30
0.0
 40
1.0
 50
35.541602967106002
 51
146.45840553665931
  0
ARC
  5
1CEA1
  8
ｶｸﾚｾﾝ2
 10
343.05227178645089
 20
748.76076422532105
 30
0.0
 40
2.0
 50
0.0
 51
90.0
  0
LINE
  5
1CEA2
  8
ｶｸﾚｾﾝ2
 10
343.05227178645089
 20
739.26076422532105
 30
0.0
 11
342.55227178645077
 21
739.26076422532105
 31
0.0
  0
ARC
  5
1CEA3
  8
ｶｸﾚｾﾝ2
 10
343.05227178645089
 20
741.26076422532105
 30
0.0
 40
2.0
 50
270.0
 51
0.0
  0
LINE
  5
1CEA4
  8
ｶｸﾚｾﾝ2
 10
345.05227178645089
 20
748.76076422532105
 30
0.0
 11
345.05227178645089
 21
741.26076422532105
 31
0.0
  0
ARC
  5
1CEA5
  8
ｶｸﾚｾﾝ2
 10
342.55227178645077
 20
737.26076422532105
 30
0.0
 40
2.0
 50
90.0
 51
180.0
  0
ARC
  5
1CEA6
  8
ｶｸﾚｾﾝ2
 10
343.05227178645089
 20
680.76076422532094
 30
0.0
 40
2.0
 50
270.0
 51
0.0
  0
LINE
  5
1CEA7
  8
ｶｸﾚｾﾝ2
 10
345.05227178645089
 20
680.76076422532094
 30
0.0
 11
345.05227178645089
 21
688.26076422532105
 31
0.0
  0
LINE
  5
1CEA8
  8
ｶｸﾚｾﾝ2
 10
343.05227178645089
 20
690.26076422532105
 30
0.0
 11
342.55227178645077
 21
690.26076422532105
 31
0.0
  0
ARC
  5
1CEA9
  8
ｶｸﾚｾﾝ2
 10
343.05227178645089
 20
688.26076422532105
 30
0.0
 40
2.0
 50
0.0
 51
90.0
  0
ARC
  5
1CEAA
  8
ｶｸﾚｾﾝ2
 10
342.55227178645077
 20
692.26076422532105
 30
0.0
 40
2.0
 50
180.0
 51
270.0
  0
LINE
  5
1CEAB
  8
AM_0
 10
107.7522717864509
 20
712.26076422532105
 30
0.0
 11
107.7522717864509
 21
634.78076422532092
 31
0.0
  0
ARC
  5
1CEAC
  8
AM_0
 10
81.930221786450872
 20
787.40267522532065
 30
0.0
 40
5.745309999999999
 50
92.872822000003325
 51
169.99567800000131
  0
ARC
  5
1CEAD
  8
AM_0
 10
106.9709947864508
 20
795.72877022532089
 30
0.0
 40
1.260022999999999
 50
273.2428270000006
 51
324.14698200000078
  0
ARC
  5
1CEAE
  8
AM_0
 10
109.0026357864507
 20
794.26919122532104
 30
0.0
 40
1.241573
 50
90.016816000000517
 51
144.46666699999901
  0
ARC
  5
1CEAF
  8
AM_0
 10
81.936409786450824
 20
642.12586322532093
 30
0.0
 40
5.7526239999999991
 50
190.0623740000004
 51
267.06912499999697
  0
ARC
  5
1CEB0
  8
AM_0
 10
106.9760657864508
 20
633.80202222532102
 30
0.0
 40
1.2504959999999981
 50
35.645077999995841
 51
86.965113000003015
  0
ARC
  5
1CEB1
  8
AM_0
 10
109.0076087864508
 20
635.26199522532102
 30
0.0
 40
1.2512430000000001
 50
215.76089699999761
 51
269.75562000000002
  0
ARC
  5
1CEB2
  8
AM_0
 10
73.0021217864508
 20
651.95630822532098
 30
0.0
 40
2.249854
 50
179.88651000000229
 51
261.5695069999997
  0
ARC
  5
1CEB3
  8
AM_0
 10
72.236551786450775
 20
646.76159522532112
 30
0.0
 40
3.0009689999999982
 50
9.9623179999990032
 51
81.651541000003064
  0
LINE
  5
1CEB4
  8
AM_0
 10
78.822271786450813
 20
788.26076422532105
 30
0.0
 11
78.822271786450813
 21
717.41154622532099
 31
0.0
  0
LINE
  5
1CEB5
  8
AM_0
 10
74.752271786450876
 20
651.1107642253213
 30
0.0
 11
74.752271786450876
 21
713.42747122532114
 31
0.0
  0
LINE
  5
1CEB6
  8
AM_0
 10
107.0422717864508
 20
794.47076422532098
 30
0.0
 11
81.642271786450863
 21
793.14076422532094
 31
0.0
  0
LINE
  5
1CEB7
  8
AM_0
 10
75.192272786450815
 20
782.24076422532096
 30
0.0
 11
76.272271786450844
 21
788.40076422532115
 31
0.0
  0
LINE
  5
1CEB8
  8
AM_0
 10
107.0422717864508
 20
635.05076422532102
 30
0.0
 11
81.642271786450863
 21
636.38076422532106
 31
0.0
  0
LINE
  5
1CEB9
  8
AM_0
 10
107.7522717864509
 20
794.74020322532101
 30
0.0
 11
107.7522717864509
 21
717.26076422532105
 31
0.0
  0
LINE
  5
1CEBA
  8
AM_0
 10
75.192271786450803
 20
647.28076422532092
 30
0.0
 11
76.272271786450844
 21
641.12076422532073
 31
0.0
  0
LINE
  5
1CEBB
  8
AM_0
 10
70.752271786450876
 20
651.9607642253211
 30
0.0
 11
70.752271786450876
 21
715.9047082253212
 31
0.0
  0
LINE
  5
1CEBC
  8
ﾁｭｳｼﾝｾﾝ1
 10
161.0522717864508
 20
727.48064622532115
 30
0.0
 11
161.0522717864508
 21
701.15300422532073
 31
0.0
  0
LINE
  5
1CEBD
  8
AM_0
 10
109.00227178645081
 20
634.01076422532094
 30
0.0
 11
116.0522717864508
 21
634.01076422532094
 31
0.0
  0
LINE
  5
1CEBE
  8
AM_0
 10
109.00227178645081
 20
795.51076422532105
 30
0.0
 11
116.0522717864508
 21
795.51076422532105
 31
0.0
  0
LINE
  5
1CEBF
  8
ｶｸﾚｾﾝ2
 10
259.55227178645077
 20
678.76076422532105
 30
0.0
 11
343.05227178645089
 21
678.76076422532105
 31
0.0
  0
ARC
  5
1CEC0
  8
ｶｸﾚｾﾝ2
 10
259.54491578645087
 20
747.2681202253209
 30
0.0
 40
3.4926519999999979
 50
89.879328000001564
 51
180.12067199999839
  0
LINE
  5
1CEC1
  8
ｶｸﾚｾﾝ2
 10
259.55227178645077
 20
750.76076422532105
 30
0.0
 11
343.05227178645089
 21
750.76076422532105
 31
0.0
  0
LINE
  5
1CEC2
  8
ｶｸﾚｾﾝ2
 10
340.55227178645077
 20
692.26076422532105
 30
0.0
 11
340.55227178645077
 21
737.26076422532105
 31
0.0
  0
LINE
  5
1CEC3
  8
ｶｸﾚｾﾝ2
 10
256.05227178645077
 20
747.26076422532105
 30
0.0
 11
256.05227178645077
 21
682.26076422532094
 31
0.0
  0
ARC
  5
1CEC4
  8
ｶｸﾚｾﾝ2
 10
259.55277078645082
 20
682.26126322532104
 30
0.0
 40
3.5004989999999978
 50
180.00816400000119
 51
269.99183599999878
  0
LINE
  5
1CEC5
  8
AM_0
 10
191.0522717864508
 20
632.76076422532105
 30
0.0
 11
191.0522717864508
 21
796.76076422532105
 31
0.0
  0
LINE
  5
1CEC6
  8
AM_0
 10
116.0522717864508
 20
796.76076422532105
 30
0.0
 11
116.0522717864508
 21
717.26076422532105
 31
0.0
  0
LINE
  5
1CEC7
  8
AM_0
 10
116.0522717864508
 20
632.76076422532105
 30
0.0
 11
191.0522717864508
 21
632.76076422532105
 31
0.0
  0
LINE
  5
1CEC8
  8
AM_0
 10
116.0522717864508
 20
796.76076422532105
 30
0.0
 11
191.0522717864508
 21
796.76076422532105
 31
0.0
  0
LINE
  5
1CEC9
  8
AM_0
 10
116.0522717864508
 20
712.26076422532105
 30
0.0
 11
116.0522717864508
 21
632.76076422532105
 31
0.0
  0
LINE
  5
1CECA
  8
AM_0
 10
199.0522717864508
 20
778.11668322532125
 30
0.0
 11
191.0522717864508
 21
778.11668322532125
 31
0.0
  0
LINE
  5
1CECB
  8
AM_0
 10
191.0522717864508
 20
760.69209622532094
 30
0.0
 11
201.0522717864508
 21
760.69209622532094
 31
0.0
  0
LINE
  5
1CECC
  8
AM_0
 10
191.0522717864508
 20
760.28076422532104
 30
0.0
 11
201.0522717864508
 21
760.28076422532104
 31
0.0
  0
LINE
  5
1CECD
  8
AM_0
 10
191.0522717864508
 20
749.76076422532105
 30
0.0
 11
201.0522717864508
 21
749.76076422532105
 31
0.0
  0
LINE
  5
1CECE
  8
AM_0
 10
191.0522717864508
 20
744.04232122532096
 30
0.0
 11
201.0522717864508
 21
744.04232122532096
 31
0.0
  0
LINE
  5
1CECF
  8
AM_0
 10
191.0522717864508
 20
760.9307642253209
 30
0.0
 11
354.54731978645083
 21
760.9307642253209
 31
0.0
  0
LINE
  5
1CED0
  8
AM_0
 10
201.0522717864508
 20
758.59076422532121
 30
0.0
 11
271.20227178645081
 21
758.59076422532121
 31
0.0
  0
LINE
  5
1CED1
  8
AM_0
 10
201.0522717864508
 20
758.94076422532123
 30
0.0
 11
352.59157678645079
 21
758.94076422532123
 31
0.0
  0
LINE
  5
1CED2
  8
AM_0
 10
229.70227178645081
 20
718.96076422532121
 30
0.0
 11
191.0522717864508
 21
718.96076422532121
 31
0.0
  0
LINE
  5
1CED3
  8
AM_0
 10
229.59227178645079
 20
720.56076422532101
 30
0.0
 11
191.0522717864508
 21
720.56076422532101
 31
0.0
  0
LINE
  5
1CED4
  8
AM_0
 10
230.1822717864508
 20
728.96076422532099
 30
0.0
 11
191.0522717864508
 21
728.96076422532099
 31
0.0
  0
LINE
  5
1CED5
  8
AM_0
 10
230.54227178645081
 20
730.5607642253209
 30
0.0
 11
191.0522717864508
 21
730.5607642253209
 31
0.0
  0
LINE
  5
1CED6
  8
AM_0
 10
233.14227178645089
 20
738.96076422532121
 30
0.0
 11
191.0522717864508
 21
738.96076422532121
 31
0.0
  0
LINE
  5
1CED7
  8
AM_0
 10
233.7122717864508
 20
740.56076422532101
 30
0.0
 11
191.0522717864508
 21
740.56076422532101
 31
0.0
  0
LINE
  5
1CED8
  8
AM_0
 10
229.72227178645079
 20
718.75076422532095
 30
0.0
 11
191.0522717864508
 21
718.75076422532095
 31
0.0
  0
LINE
  5
1CED9
  8
AM_0
 10
191.0522717864508
 20
720.78076422532104
 30
0.0
 11
353.94227178645082
 21
720.78076422532104
 31
0.0
  0
LINE
  5
1CEDA
  8
AM_0
 10
191.0522717864508
 20
728.73076422532097
 30
0.0
 11
354.19227178645082
 21
728.73076422532097
 31
0.0
  0
LINE
  5
1CEDB
  8
AM_0
 10
230.60227178645081
 20
730.81076422532101
 30
0.0
 11
191.0522717864508
 21
730.81076422532101
 31
0.0
  0
LINE
  5
1CEDC
  8
AM_0
 10
233.04227178645081
 20
738.68076422532079
 30
0.0
 11
191.0522717864508
 21
738.68076422532079
 31
0.0
  0
LINE
  5
1CEDD
  8
AM_0
 10
233.82227178645081
 20
740.86076422532119
 30
0.0
 11
191.0522717864508
 21
740.86076422532119
 31
0.0
  0
LINE
  5
1CEDE
  8
AM_0
 10
201.0522717864508
 20
750.95076422532122
 30
0.0
 11
322.99590078645082
 21
750.95076422532122
 31
0.0
  0
LINE
  5
1CEDF
  8
AM_0
 10
201.0522717864508
 20
748.96076422532099
 30
0.0
 11
352.75227178645088
 21
748.96076422532099
 31
0.0
  0
LINE
  5
1CEE0
  8
AM_0
 10
201.0522717864508
 20
780.11668322532125
 30
0.0
 11
201.0522717864508
 21
781.26076422532105
 31
0.0
  0
ARC
  5
1CEE1
  8
AM_0
 10
199.0522717864508
 20
780.11668322532125
 30
0.0
 40
2.0
 50
270.0
 51
0.0
  0
ARC
  5
1CEE2
  8
AM_0
 10
203.0522717864508
 20
781.26076422532105
 30
0.0
 40
2.0
 50
90.0
 51
180.0
  0
LINE
  5
1CEE3
  8
AM_0
 10
201.0522717864508
 20
780.11668322532125
 30
0.0
 11
201.0522717864508
 21
767.66181422532122
 31
0.0
  0
ARC
  5
1CEE4
  8
AM_0
 10
199.0522717864508
 20
767.66181422532122
 30
0.0
 40
2.0
 50
270.0
 51
0.0
  0
LINE
  5
1CEE5
  8
AM_0
 10
201.0522717864508
 20
760.69209622532094
 30
0.0
 11
201.0522717864508
 21
744.04232122532096
 31
0.0
  0
LINE
  5
1CEE6
  8
AM_0
 10
203.0522717864508
 20
783.26076422532105
 30
0.0
 11
352.04389678645077
 21
783.26076422532105
 31
0.0
  0
LINE
  5
1CEE7
  8
AM_0
 10
191.0522717864508
 20
765.66181422532122
 30
0.0
 11
351.55227178645077
 21
765.66181422532122
 31
0.0
  0
LINE
  5
1CEE8
  8
AM_0
 10
201.0522717864508
 20
760.54076422532103
 30
0.0
 11
352.44546578645082
 21
760.54076422532103
 31
0.0
  0
LINE
  5
1CEE9
  8
AM_0
 10
351.55227178645077
 20
718.75076422532095
 30
0.0
 11
351.55227178645077
 21
714.76076422532105
 31
0.0
  0
LINE
  5
1CEEA
  8
AM_0
 10
354.54731978645083
 20
750.95076422532122
 30
0.0
 11
322.99590078645082
 21
750.95076422532122
 31
0.0
  0
LINE
  5
1CEEB
  8
AM_0
 10
233.7122717864508
 20
740.56076422532101
 30
0.0
 11
352.75227178645088
 21
740.56076422532101
 31
0.0
  0
LINE
  5
1CEEC
  8
AM_0
 10
201.0522717864508
 20
750.56076422532101
 30
0.0
 11
352.75227178645088
 21
750.56076422532101
 31
0.0
  0
LINE
  5
1CEED
  8
AM_0
 10
230.54227178645081
 20
730.5607642253209
 30
0.0
 11
352.75227178645088
 21
730.5607642253209
 31
0.0
  0
LINE
  5
1CEEE
  8
AM_0
 10
229.70227178645081
 20
718.96076422532121
 30
0.0
 11
352.75227178645088
 21
718.96076422532121
 31
0.0
  0
LINE
  5
1CEEF
  8
AM_0
 10
353.05227178645077
 20
718.75076422532095
 30
0.0
 11
353.05227178645077
 21
714.76076422532105
 31
0.0
  0
LINE
  5
1CEF0
  8
AM_0
 10
352.96471578645088
 20
787.1732082253211
 30
0.0
 11
353.05227178645077
 21
787.26076422532105
 31
0.0
  0
LINE
  5
1CEF1
  8
AM_0
 10
353.05227178645077
 20
787.26575822532118
 30
0.0
 11
353.05227178645077
 21
787.26076422532105
 31
0.0
  0
LINE
  5
1CEF2
  8
AM_0
 10
354.19227178645082
 20
718.7307642253212
 30
0.0
 11
352.75227178645088
 21
718.92790722532061
 31
0.0
  0
LINE
  5
1CEF3
  8
AM_0
 10
354.20227178645081
 20
720.820764225321
 30
0.0
 11
352.75227178645088
 21
720.59768722532124
 31
0.0
  0
LINE
  5
1CEF4
  8
AM_0
 10
355.05227178645077
 20
717.74076422532119
 30
0.0
 11
355.05227178645077
 21
721.81076422532101
 31
0.0
  0
LINE
  5
1CEF5
  8
AM_0
 10
354.19227178645082
 20
728.73076422532097
 30
0.0
 11
352.75227178645088
 21
728.92790722532072
 31
0.0
  0
LINE
  5
1CEF6
  8
AM_0
 10
354.20227178645081
 20
730.820764225321
 30
0.0
 11
352.75227178645088
 21
730.59768722532124
 31
0.0
  0
LINE
  5
1CEF7
  8
AM_0
 10
355.05227178645077
 20
727.74076422532096
 30
0.0
 11
355.05227178645077
 21
731.81076422532101
 31
0.0
  0
LINE
  5
1CEF8
  8
AM_0
 10
354.20227178645081
 20
740.82076422532066
 30
0.0
 11
352.75227178645088
 21
740.59768722532124
 31
0.0
  0
LINE
  5
1CEF9
  8
AM_0
 10
354.19227178645082
 20
738.7307642253212
 30
0.0
 11
352.75227178645088
 21
738.92790722532072
 31
0.0
  0
LINE
  5
1CEFA
  8
AM_0
 10
355.05227178645077
 20
737.74076422532096
 30
0.0
 11
355.05227178645077
 21
741.81076422532101
 31
0.0
  0
ARC
  5
1CEFB
  8
AM_0
 10
352.5038767864508
 20
719.76076422532105
 30
0.0
 40
0.8000439999999999
 50
288.08794099999648
 51
71.912059000003524
  0
ARC
  5
1CEFC
  8
AM_0
 10
354.04963978645088
 20
721.81171022532124
 30
0.0
 40
1.0026319999999971
 50
278.75624099999902
 51
359.94591500000149
  0
ARC
  5
1CEFD
  8
AM_0
 10
354.0453047864508
 20
717.73456022532105
 30
0.0
 40
1.0069859999999999
 50
0.3529979999987995
 51
81.607836999997744
  0
ARC
  5
1CEFE
  8
AM_0
 10
352.5072097864508
 20
729.75570222532122
 30
0.0
 40
0.8050779999999997
 50
0.3602510000016315
 51
72.278209999997259
  0
ARC
  5
1CEFF
  8
AM_0
 10
354.04963978645088
 20
731.81171022532124
 30
0.0
 40
1.0026319999999971
 50
278.75624099999902
 51
359.94591500000149
  0
ARC
  5
1CF00
  8
AM_0
 10
354.0453047864508
 20
727.73456022532105
 30
0.0
 40
1.0069859999999999
 50
0.3529979999987995
 51
81.607836999997744
  0
ARC
  5
1CF01
  8
AM_0
 10
352.50891578645093
 20
739.76412022532077
 30
0.0
 40
0.8033630000000001
 50
287.63315000000318
 51
359.76067000000211
  0
ARC
  5
1CF02
  8
AM_0
 10
352.5072097864508
 20
739.75570222532099
 30
0.0
 40
0.8050779999999997
 50
0.3602510000016315
 51
72.278209999997259
  0
ARC
  5
1CF03
  8
AM_0
 10
354.0453047864508
 20
737.73456022532105
 30
0.0
 40
1.0069859999999999
 50
0.3529979999987995
 51
81.607836999997744
  0
ARC
  5
1CF04
  8
AM_0
 10
354.04963978645088
 20
741.81171022532124
 30
0.0
 40
1.0026319999999971
 50
278.75624099999902
 51
359.94591500000149
  0
ARC
  5
1CF05
  8
AM_0
 10
352.50891578645093
 20
729.76412022532099
 30
0.0
 40
0.8033630000000001
 50
287.63315000000318
 51
359.76067000000211
  0
ARC
  5
1CF06
  8
AM_0
 10
354.04977478645088
 20
787.263261225321
 30
0.0
 40
0.9975059999999999
 50
89.856578000002884
 51
180.14342199999709
  0
LINE
  5
1CF07
  8
AM_0
 10
353.05227178645077
 20
787.26076422532105
 30
0.0
 11
353.05227178645077
 21
786.84644722532107
 31
0.0
  0
LINE
  5
1CF08
  8
AM_0
 10
353.05227178645077
 20
728.73076422532097
 30
0.0
 11
353.05227178645077
 21
720.78076422532104
 31
0.0
  0
LINE
  5
1CF09
  8
AM_0
 10
353.05227178645077
 20
738.68076422532079
 30
0.0
 11
353.05227178645077
 21
730.81076422532101
 31
0.0
  0
LINE
  5
1CF0A
  8
AM_0
 10
351.55227178645077
 20
758.59076422532121
 30
0.0
 11
351.55227178645077
 21
750.95076422532122
 31
0.0
  0
LINE
  5
1CF0B
  8
AM_0
 10
351.55227178645077
 20
765.66181422532122
 30
0.0
 11
351.55227178645077
 21
760.9307642253209
 31
0.0
  0
LINE
  5
1CF0C
  8
AM_0
 10
353.05227178645077
 20
750.95076422532122
 30
0.0
 11
353.05227178645077
 21
758.59076422532121
 31
0.0
  0
LINE
  5
1CF0D
  8
AM_0
 10
351.55227178645077
 20
765.66181422532122
 30
0.0
 11
351.66842678645082
 21
766.86974022532104
 31
0.0
  0
LINE
  5
1CF0E
  8
AM_0
 10
351.55227178645077
 20
728.73076422532097
 30
0.0
 11
351.55227178645077
 21
720.78076422532104
 31
0.0
  0
LINE
  5
1CF0F
  8
AM_0
 10
351.55227178645077
 20
738.68076422532079
 30
0.0
 11
351.55227178645077
 21
730.81076422532101
 31
0.0
  0
LINE
  5
1CF10
  8
AM_0
 10
351.55227178645077
 20
748.61076422532119
 30
0.0
 11
351.55227178645077
 21
740.86076422532119
 31
0.0
  0
ARC
  5
1CF11
  8
AM_0
 10
354.04729678645077
 20
747.74514422532116
 30
0.0
 40
1.0069859999999999
 50
0.3529979999987995
 51
81.607836999997744
  0
ARC
  5
1CF12
  8
AM_0
 10
354.05163278645091
 20
751.82229522532123
 30
0.0
 40
1.0026319999999971
 50
278.75624099999902
 51
359.94591500000149
  0
LINE
  5
1CF13
  8
AM_0
 10
355.0542647864508
 20
747.75134822532073
 30
0.0
 11
355.0542647864508
 21
751.821348225321
 31
0.0
  0
ARC
  5
1CF14
  8
AM_0
 10
352.50920278645083
 20
749.7662862253211
 30
0.0
 40
0.8050779999999997
 50
0.3602510000016315
 51
72.278209999997259
  0
LINE
  5
1CF15
  8
AM_0
 10
354.20426478645078
 20
750.83134822532088
 30
0.0
 11
352.75426478645068
 21
750.60827122532123
 31
0.0
  0
ARC
  5
1CF16
  8
AM_0
 10
352.51090878645078
 20
749.7747042253211
 30
0.0
 40
0.8033630000000001
 50
287.63315000000318
 51
359.76067000000211
  0
LINE
  5
1CF17
  8
AM_0
 10
354.19426478645079
 20
748.74134822532108
 30
0.0
 11
352.75426478645068
 21
748.93849122532106
 31
0.0
  0
LINE
  5
1CF18
  8
AM_0
 10
353.05227178645077
 20
748.61076422532119
 30
0.0
 11
353.05227178645077
 21
740.86076422532119
 31
0.0
  0
LINE
  5
1CF19
  8
AM_0
 10
271.20227178645081
 20
758.59076422532121
 30
0.0
 11
354.56181078645068
 21
758.59076422532121
 31
0.0
  0
LINE
  5
1CF1A
  8
AM_0
 10
233.82227178645081
 20
740.86076422532119
 30
0.0
 11
354.3674007864509
 21
740.86076422532119
 31
0.0
  0
LINE
  5
1CF1B
  8
AM_0
 10
230.60227178645081
 20
730.81076422532101
 30
0.0
 11
354.10775678645081
 21
730.81076422532101
 31
0.0
  0
LINE
  5
1CF1C
  8
AM_0
 10
229.72227178645079
 20
718.75076422532095
 30
0.0
 11
354.04618478645079
 21
718.75076422532095
 31
0.0
  0
LINE
  5
1CF1D
  8
AM_0
 10
229.59227178645079
 20
720.56076422532101
 30
0.0
 11
352.75227178645088
 21
720.56076422532101
 31
0.0
  0
LINE
  5
1CF1E
  8
AM_0
 10
230.1822717864508
 20
728.96076422532099
 30
0.0
 11
352.75227178645088
 21
728.96076422532099
 31
0.0
  0
LINE
  5
1CF1F
  8
AM_0
 10
233.14227178645089
 20
738.96076422532121
 30
0.0
 11
352.75227178645088
 21
738.96076422532121
 31
0.0
  0
LINE
  5
1CF20
  8
AM_0
 10
199.0522717864508
 20
651.40484522532074
 30
0.0
 11
191.0522717864508
 21
651.40484522532074
 31
0.0
  0
LINE
  5
1CF21
  8
AM_0
 10
191.0522717864508
 20
668.82943222532106
 30
0.0
 11
201.0522717864508
 21
668.82943222532106
 31
0.0
  0
LINE
  5
1CF22
  8
AM_0
 10
191.0522717864508
 20
669.24076422532085
 30
0.0
 11
201.0522717864508
 21
669.24076422532085
 31
0.0
  0
LINE
  5
1CF23
  8
AM_0
 10
191.0522717864508
 20
679.76076422532094
 30
0.0
 11
201.0522717864508
 21
679.76076422532094
 31
0.0
  0
LINE
  5
1CF24
  8
AM_0
 10
191.0522717864508
 20
685.47920722532092
 30
0.0
 11
201.0522717864508
 21
685.47920722532092
 31
0.0
  0
LINE
  5
1CF25
  8
AM_0
 10
203.0522717864508
 20
646.26076422532094
 30
0.0
 11
352.04389678645077
 21
646.26076422532094
 31
0.0
  0
LINE
  5
1CF26
  8
AM_0
 10
191.0522717864508
 20
663.85971422532089
 30
0.0
 11
351.55227178645077
 21
663.85971422532089
 31
0.0
  0
LINE
  5
1CF27
  8
AM_0
 10
191.0522717864508
 20
668.59076422532132
 30
0.0
 11
354.54731978645083
 21
668.59076422532132
 31
0.0
  0
LINE
  5
1CF28
  8
AM_0
 10
201.0522717864508
 20
670.93076422532067
 30
0.0
 11
271.20227178645081
 21
670.93076422532067
 31
0.0
  0
LINE
  5
1CF29
  8
AM_0
 10
201.0522717864508
 20
670.58076422532076
 30
0.0
 11
352.59157678645079
 21
670.58076422532076
 31
0.0
  0
LINE
  5
1CF2A
  8
AM_0
 10
201.0522717864508
 20
668.98076422532085
 30
0.0
 11
352.44546578645082
 21
668.98076422532085
 31
0.0
  0
LINE
  5
1CF2B
  8
AM_0
 10
229.70227178645081
 20
710.56076422532101
 30
0.0
 11
191.0522717864508
 21
710.56076422532101
 31
0.0
  0
LINE
  5
1CF2C
  8
AM_0
 10
229.59227178645079
 20
708.96076422532121
 30
0.0
 11
191.0522717864508
 21
708.96076422532121
 31
0.0
  0
LINE
  5
1CF2D
  8
AM_0
 10
230.1822717864508
 20
700.56076422532101
 30
0.0
 11
191.0522717864508
 21
700.56076422532101
 31
0.0
  0
LINE
  5
1CF2E
  8
AM_0
 10
230.54227178645081
 20
698.96076422532099
 30
0.0
 11
191.0522717864508
 21
698.96076422532099
 31
0.0
  0
LINE
  5
1CF2F
  8
AM_0
 10
233.14227178645089
 20
690.56076422532101
 30
0.0
 11
191.0522717864508
 21
690.56076422532101
 31
0.0
  0
LINE
  5
1CF30
  8
AM_0
 10
233.7122717864508
 20
688.96076422532121
 30
0.0
 11
191.0522717864508
 21
688.96076422532121
 31
0.0
  0
LINE
  5
1CF31
  8
AM_0
 10
229.72227178645079
 20
710.77076422532105
 30
0.0
 11
191.0522717864508
 21
710.77076422532105
 31
0.0
  0
LINE
  5
1CF32
  8
AM_0
 10
229.5822717864508
 20
708.74076422532119
 30
0.0
 11
191.0522717864508
 21
708.74076422532119
 31
0.0
  0
LINE
  5
1CF33
  8
AM_0
 10
230.1322717864509
 20
700.79076422532103
 30
0.0
 11
191.0522717864508
 21
700.79076422532103
 31
0.0
  0
LINE
  5
1CF34
  8
AM_0
 10
230.60227178645081
 20
698.71076422532121
 30
0.0
 11
191.0522717864508
 21
698.71076422532121
 31
0.0
  0
LINE
  5
1CF35
  8
AM_0
 10
233.04227178645081
 20
690.8407642253211
 30
0.0
 11
191.0522717864508
 21
690.8407642253211
 31
0.0
  0
LINE
  5
1CF36
  8
AM_0
 10
233.82227178645081
 20
688.66076422532092
 30
0.0
 11
191.0522717864508
 21
688.66076422532092
 31
0.0
  0
LINE
  5
1CF37
  8
AM_0
 10
201.0522717864508
 20
680.5607642253209
 30
0.0
 11
352.75227178645088
 21
680.5607642253209
 31
0.0
  0
LINE
  5
1CF38
  8
AM_0
 10
201.0522717864508
 20
668.82943222532106
 30
0.0
 11
201.0522717864508
 21
685.47920722532092
 31
0.0
  0
ARC
  5
1CF39
  8
AM_0
 10
199.0522717864508
 20
661.85971422532066
 30
0.0
 40
2.0
 50
0.0
 51
90.0
  0
LINE
  5
1CF3A
  8
AM_0
 10
201.0522717864508
 20
649.40484522532097
 30
0.0
 11
201.0522717864508
 21
661.85971422532066
 31
0.0
  0
ARC
  5
1CF3B
  8
AM_0
 10
203.0522717864508
 20
648.26076422532094
 30
0.0
 40
2.0
 50
180.0
 51
270.0
  0
ARC
  5
1CF3C
  8
AM_0
 10
199.0522717864508
 20
649.40484522532097
 30
0.0
 40
2.0
 50
0.0
 51
90.0
  0
LINE
  5
1CF3D
  8
AM_0
 10
201.0522717864508
 20
649.40484522532097
 30
0.0
 11
201.0522717864508
 21
648.26076422532094
 31
0.0
  0
LINE
  5
1CF3E
  8
AM_0
 10
233.82227178645081
 20
688.66076422532092
 30
0.0
 11
354.3674007864509
 21
688.66076422532092
 31
0.0
  0
LINE
  5
1CF3F
  8
AM_0
 10
230.60227178645081
 20
698.71076422532121
 30
0.0
 11
354.10775678645081
 21
698.71076422532121
 31
0.0
  0
LINE
  5
1CF40
  8
AM_0
 10
229.5822717864508
 20
708.74076422532119
 30
0.0
 11
353.94227178645082
 21
708.74076422532119
 31
0.0
  0
LINE
  5
1CF41
  8
AM_0
 10
229.70227178645081
 20
710.56076422532101
 30
0.0
 11
352.75227178645088
 21
710.56076422532101
 31
0.0
  0
LINE
  5
1CF42
  8
AM_0
 10
230.1822717864508
 20
700.56076422532101
 30
0.0
 11
352.75227178645088
 21
700.56076422532101
 31
0.0
  0
LINE
  5
1CF43
  8
AM_0
 10
233.14227178645089
 20
690.56076422532101
 30
0.0
 11
352.75227178645088
 21
690.56076422532101
 31
0.0
  0
LINE
  5
1CF44
  8
AM_0
 10
271.20227178645081
 20
670.93076422532067
 30
0.0
 11
354.56181078645068
 21
670.93076422532067
 31
0.0
  0
LINE
  5
1CF45
  8
AM_0
 10
351.55227178645077
 20
670.93076422532067
 30
0.0
 11
351.55227178645077
 21
678.570764225321
 31
0.0
  0
LINE
  5
1CF46
  8
AM_0
 10
353.05227178645077
 20
652.76076422532094
 30
0.0
 11
353.05227178645077
 21
668.59076422532132
 31
0.0
  0
LINE
  5
1CF47
  8
AM_0
 10
351.55227178645077
 20
663.85971422532089
 30
0.0
 11
351.66842678645082
 21
662.65178722532073
 31
0.0
  0
LINE
  5
1CF48
  8
AM_0
 10
351.55227178645077
 20
663.85971422532089
 30
0.0
 11
351.55227178645077
 21
668.59076422532132
 31
0.0
  0
LINE
  5
1CF49
  8
AM_0
 10
353.05227178645077
 20
642.26076422532094
 30
0.0
 11
353.05227178645077
 21
642.67508122532092
 31
0.0
  0
ARC
  5
1CF4A
  8
AM_0
 10
354.04977478645088
 20
642.25826722532111
 30
0.0
 40
0.9975059999999999
 50
179.85657800000291
 51
270.14342199999709
  0
LINE
  5
1CF4B
  8
AM_0
 10
353.05227178645077
 20
642.25577022532093
 30
0.0
 11
353.05227178645077
 21
642.26076422532094
 31
0.0
  0
LINE
  5
1CF4C
  8
AM_0
 10
352.96471578645088
 20
642.34832022532078
 30
0.0
 11
353.05227178645077
 21
642.26076422532094
 31
0.0
  0
LINE
  5
1CF4D
  8
AM_0
 10
351.55227178645077
 20
710.77076422532105
 30
0.0
 11
351.55227178645077
 21
714.76076422532105
 31
0.0
  0
LINE
  5
1CF4E
  8
AM_0
 10
201.0522717864508
 20
678.570764225321
 30
0.0
 11
354.54731978645083
 21
678.570764225321
 31
0.0
  0
LINE
  5
1CF4F
  8
AM_0
 10
233.7122717864508
 20
688.96076422532121
 30
0.0
 11
352.75227178645088
 21
688.96076422532121
 31
0.0
  0
LINE
  5
1CF50
  8
AM_0
 10
201.0522717864508
 20
678.96076422532087
 30
0.0
 11
352.75227178645088
 21
678.96076422532087
 31
0.0
  0
LINE
  5
1CF51
  8
AM_0
 10
230.1322717864509
 20
700.79076422532103
 30
0.0
 11
354.19227178645082
 21
700.79076422532103
 31
0.0
  0
LINE
  5
1CF52
  8
AM_0
 10
230.54227178645081
 20
698.96076422532099
 30
0.0
 11
352.75227178645088
 21
698.96076422532099
 31
0.0
  0
LINE
  5
1CF53
  8
AM_0
 10
229.59227178645079
 20
708.96076422532121
 30
0.0
 11
352.75227178645088
 21
708.96076422532121
 31
0.0
  0
LINE
  5
1CF54
  8
AM_0
 10
353.05227178645077
 20
710.77076422532105
 30
0.0
 11
353.05227178645077
 21
714.76076422532105
 31
0.0
  0
LINE
  5
1CF55
  8
AM_0
 10
353.05227178645077
 20
680.91076422532092
 30
0.0
 11
353.05227178645077
 21
688.66076422532092
 31
0.0
  0
LINE
  5
1CF56
  8
AM_0
 10
354.19426478645079
 20
680.78018022532092
 30
0.0
 11
352.75426478645068
 21
680.58303722532094
 31
0.0
  0
ARC
  5
1CF57
  8
AM_0
 10
352.51090878645078
 20
679.74682422532078
 30
0.0
 40
0.8033630000000001
 50
0.2393299999979177
 51
72.366849999996845
  0
LINE
  5
1CF58
  8
AM_0
 10
354.20426478645078
 20
678.69018022532123
 30
0.0
 11
352.75426478645068
 21
678.91325722532065
 31
0.0
  0
ARC
  5
1CF59
  8
AM_0
 10
352.50920278645083
 20
679.75524222532113
 30
0.0
 40
0.8050779999999997
 50
287.7217900000029
 51
359.6397489999984
  0
LINE
  5
1CF5A
  8
AM_0
 10
355.0542647864508
 20
681.77018022532116
 30
0.0
 11
355.0542647864508
 21
677.70018022532088
 31
0.0
  0
ARC
  5
1CF5B
  8
AM_0
 10
354.05163278645091
 20
677.69923322532065
 30
0.0
 40
1.0026319999999971
 50
0.0540849999984573
 51
81.243759000001006
  0
ARC
  5
1CF5C
  8
AM_0
 10
354.04729678645077
 20
681.77638422532061
 30
0.0
 40
1.0069859999999999
 50
278.39216300000231
 51
359.64700200000118
  0
LINE
  5
1CF5D
  8
AM_0
 10
351.55227178645077
 20
680.91076422532092
 30
0.0
 11
351.55227178645077
 21
688.66076422532092
 31
0.0
  0
LINE
  5
1CF5E
  8
AM_0
 10
351.55227178645077
 20
690.8407642253211
 30
0.0
 11
351.55227178645077
 21
698.71076422532121
 31
0.0
  0
LINE
  5
1CF5F
  8
AM_0
 10
351.55227178645077
 20
700.79076422532103
 30
0.0
 11
351.55227178645077
 21
708.74076422532119
 31
0.0
  0
LINE
  5
1CF60
  8
AM_0
 10
353.05227178645077
 20
690.8407642253211
 30
0.0
 11
353.05227178645077
 21
698.71076422532121
 31
0.0
  0
LINE
  5
1CF61
  8
AM_0
 10
353.05227178645077
 20
700.79076422532103
 30
0.0
 11
353.05227178645077
 21
708.74076422532119
 31
0.0
  0
ARC
  5
1CF62
  8
AM_0
 10
352.50891578645093
 20
699.75740822532123
 30
0.0
 40
0.8033630000000001
 50
0.2393299999979177
 51
72.366849999996845
  0
ARC
  5
1CF63
  8
AM_0
 10
354.04963978645088
 20
687.70981822532099
 30
0.0
 40
1.0026319999999971
 50
0.0540849999984573
 51
81.243759000001006
  0
ARC
  5
1CF64
  8
AM_0
 10
354.0453047864508
 20
691.78696822532095
 30
0.0
 40
1.0069859999999999
 50
278.39216300000231
 51
359.64700200000118
  0
ARC
  5
1CF65
  8
AM_0
 10
352.5072097864508
 20
689.76582622532101
 30
0.0
 40
0.8050779999999997
 50
287.7217900000029
 51
359.6397489999984
  0
ARC
  5
1CF66
  8
AM_0
 10
352.50891578645093
 20
689.75740822532123
 30
0.0
 40
0.8033630000000001
 50
0.2393299999979177
 51
72.366849999996845
  0
ARC
  5
1CF67
  8
AM_0
 10
354.0453047864508
 20
701.78696822532095
 30
0.0
 40
1.0069859999999999
 50
278.39216300000231
 51
359.64700200000118
  0
ARC
  5
1CF68
  8
AM_0
 10
354.04963978645088
 20
697.70981822532065
 30
0.0
 40
1.0026319999999971
 50
0.0540849999984573
 51
81.243759000001006
  0
ARC
  5
1CF69
  8
AM_0
 10
352.5072097864508
 20
699.76582622532101
 30
0.0
 40
0.8050779999999997
 50
287.7217900000029
 51
359.6397489999984
  0
ARC
  5
1CF6A
  8
AM_0
 10
354.0453047864508
 20
711.78696822532106
 30
0.0
 40
1.0069859999999999
 50
278.39216300000231
 51
359.64700200000118
  0
ARC
  5
1CF6B
  8
AM_0
 10
354.04963978645088
 20
707.7098182253211
 30
0.0
 40
1.0026319999999971
 50
0.0540849999984573
 51
81.243759000001006
  0
ARC
  5
1CF6C
  8
AM_0
 10
352.5038767864508
 20
709.76076422532105
 30
0.0
 40
0.8000439999999999
 50
288.08794099999648
 51
71.912059000003524
  0
LINE
  5
1CF6D
  8
AM_0
 10
355.05227178645077
 20
691.78076422532104
 30
0.0
 11
355.05227178645077
 21
687.71076422532121
 31
0.0
  0
LINE
  5
1CF6E
  8
AM_0
 10
354.19227178645082
 20
690.79076422532103
 30
0.0
 11
352.75227178645088
 21
690.59362122532104
 31
0.0
  0
LINE
  5
1CF6F
  8
AM_0
 10
354.20227178645081
 20
688.70076422532122
 30
0.0
 11
352.75227178645088
 21
688.92384122532087
 31
0.0
  0
LINE
  5
1CF70
  8
AM_0
 10
355.05227178645077
 20
701.78076422532104
 30
0.0
 11
355.05227178645077
 21
697.71076422532099
 31
0.0
  0
LINE
  5
1CF71
  8
AM_0
 10
354.20227178645081
 20
698.70076422532088
 30
0.0
 11
352.75227178645088
 21
698.92384122532064
 31
0.0
  0
LINE
  5
1CF72
  8
AM_0
 10
354.19227178645082
 20
700.79076422532103
 30
0.0
 11
352.75227178645088
 21
700.59362122532104
 31
0.0
  0
LINE
  5
1CF73
  8
AM_0
 10
355.05227178645077
 20
711.78076422532104
 30
0.0
 11
355.05227178645077
 21
707.71076422532121
 31
0.0
  0
LINE
  5
1CF74
  8
AM_0
 10
354.20227178645081
 20
708.70076422532122
 30
0.0
 11
352.75227178645088
 21
708.9238412253211
 31
0.0
  0
LINE
  5
1CF75
  8
AM_0
 10
354.19227178645082
 20
710.79076422532103
 30
0.0
 11
352.75227178645088
 21
710.59362122532116
 31
0.0
  0
LINE
  5
1CF76
  8
AM_0
 10
70.552271786450831
 20
791.76131222532115
 30
0.0
 11
70.552271786450831
 21
727.26076422532105
 31
0.0
  0
LINE
  5
1CF77
  8
AM_0
 10
65.552271786450831
 20
791.76131222532115
 30
0.0
 11
65.552271786450831
 21
727.26076422532105
 31
0.0
  0
ARC
  5
1CF78
  8
AM_0
 10
68.052271786450831
 20
791.76131222532115
 30
0.0
 40
2.5
 50
0.0
 51
180.0
  0
ARC
  5
1CF79
  8
AM_0
 10
80.552271786450831
 20
727.26076422532105
 30
0.0
 40
15.0
 50
180.0
 51
270.0
  0
ARC
  5
1CF7A
  8
AM_0
 10
80.552271786450831
 20
727.26076422532105
 30
0.0
 40
10.0
 50
180.0
 51
270.0
  0
LINE
  5
1CF7B
  8
AM_0
 10
154.0522717864508
 20
717.26076422532105
 30
0.0
 11
80.552271786450831
 21
717.26076422532105
 31
0.0
  0
LINE
  5
1CF7C
  8
AM_0
 10
154.0522717864508
 20
712.26076422532105
 30
0.0
 11
80.552271786450831
 21
712.26076422532105
 31
0.0
  0
ARC
  5
1CF7D
  8
AM_0
 10
161.0522717864508
 20
714.76076422532105
 30
0.0
 40
6.0
 50
19.47122000000012
 51
160.52877899999871
  0
LINE
  5
1CF7E
  8
AM_0
 10
154.0522717864508
 20
716.76076422532105
 30
0.0
 11
154.0522717864508
 21
717.26076422532105
 31
0.0
  0
ARC
  5
1CF7F
  8
AM_0
 10
161.0522717864508
 20
714.76076422532105
 30
0.0
 40
7.0
 50
16.601549999998781
 51
163.39845000000119
  0
LINE
  5
1CF80
  8
AM_0
 10
170.0522717864508
 20
716.76076422532105
 30
0.0
 11
170.0522717864508
 21
717.26076422532105
 31
0.0
  0
LINE
  5
1CF81
  8
AM_0
 10
170.0522717864508
 20
717.26076422532105
 30
0.0
 11
175.0522717864508
 21
717.26076422532105
 31
0.0
  0
LINE
  5
1CF82
  8
AM_0
 10
170.0522717864508
 20
716.76076422532105
 30
0.0
 11
154.0522717864508
 21
716.76076422532105
 31
0.0
  0
ARC
  5
1CF83
  8
AM_0
 10
72.236551786450775
 20
782.75993322532099
 30
0.0
 40
3.0009689999999982
 50
278.38360800000061
 51
350.03768200000098
  0
LINE
  5
1CF84
  8
AM_0
 10
74.752271786450876
 20
719.11459922532106
 30
0.0
 11
74.752271786450876
 21
778.13140422532115
 31
0.0
  0
LINE
  5
1CF85
  8
AM_0
 10
78.822271786450813
 20
712.36086122532095
 30
0.0
 11
78.822271786450813
 21
640.74076422532085
 31
0.0
  0
LINE
  5
1CF86
  8
AM_0
 10
175.0522717864508
 20
717.26076422532105
 30
0.0
 11
175.0522717864508
 21
712.26076422532105
 31
0.0
  0
LINE
  5
1CF87
  8
AM_0
 10
170.0522717864508
 20
712.76076422532105
 30
0.0
 11
154.0522717864508
 21
712.76076422532105
 31
0.0
  0
LINE
  5
1CF88
  8
AM_0
 10
170.0522717864508
 20
712.26076422532105
 30
0.0
 11
175.0522717864508
 21
712.26076422532105
 31
0.0
  0
LINE
  5
1CF89
  8
AM_0
 10
170.0522717864508
 20
712.76076422532105
 30
0.0
 11
170.0522717864508
 21
712.26076422532105
 31
0.0
  0
LINE
  5
1CF8A
  8
AM_0
 10
154.0522717864508
 20
712.76076422532105
 30
0.0
 11
154.0522717864508
 21
712.26076422532105
 31
0.0
  0
ARC
  5
1CF8B
  8
AM_0
 10
161.0522717864508
 20
714.76076422532105
 30
0.0
 40
6.0
 50
199.47122100000121
 51
340.52877999999993
  0
ARC
  5
1CF8C
  8
AM_0
 10
161.0522717864508
 20
714.76076422532105
 30
0.0
 40
7.0
 50
196.60154999999881
 51
343.39845000000122
  0
ARC
  5
1CF8D
  8
AM_0
 10
73.0021217864508
 20
777.56522022532124
 30
0.0
 40
2.249854
 50
98.383608000000606
 51
180.11348999999771
  0
ARC
  5
1CF8E
  8
AM_0
 10
68.052271786450831
 20
791.76131222532115
 30
0.0
 40
3.0
 50
326.44268999999861
 51
139.99999999999741
  0
LINE
  5
1CF8F
  8
AM_0
 10
66.284504786450782
 20
793.52907922532097
 30
0.0
 11
63.705824786450833
 21
790.95039922532101
 31
0.0
  0
LINE
  5
1CF90
  8
AM_0
 10
65.930951786450862
 20
793.882632225321
 30
0.0
 11
63.352271786450778
 21
791.30395222532093
 31
0.0
  0
LINE
  5
1CF91
  8
AM_0
 10
63.352271786450778
 20
791.30395222532093
 30
0.0
 11
63.705824786450833
 21
790.95039922532101
 31
0.0
  0
LINE
  5
1CF92
  8
AM_0
 10
354.05227178645077
 20
641.26076422532105
 30
0.0
 11
363.05227178645077
 21
641.26076422532105
 31
0.0
  0
LINE
  5
1CF93
  8
AM_0
 10
354.05227178645077
 20
651.76076422532094
 30
0.0
 11
363.05227178645077
 21
651.76076422532094
 31
0.0
  0
LINE
  5
1CF94
  8
AM_0
 10
354.05227178645077
 20
788.26076422532105
 30
0.0
 11
363.05227178645077
 21
788.26076422532105
 31
0.0
  0
LINE
  5
1CF95
  8
AM_0
 10
354.05227178645077
 20
777.76076422532105
 30
0.0
 11
363.05227178645077
 21
777.76076422532105
 31
0.0
  0
INSERT
  5
1CF97
  8
AM_0
  2
$6-44
 10
353.05227178645077
 20
658.15178722532073
 30
0.0
 41
-1.0
 42
-1.0
 50
270.0
  0
INSERT
  5
1CF98
  8
AM_0
  2
$6-44
 10
353.05226978645078
 20
771.36974022532104
 30
0.0
 50
90.0
  0
LINE
  5
1CF99
  8
AM_0
 10
233.04227178645081
 20
690.8407642253211
 30
0.0
 11
354.38986178645092
 21
690.8407642253211
 31
0.0
  0
LINE
  5
1CF9A
  8
AM_0
 10
229.72227178645079
 20
710.77076422532105
 30
0.0
 11
354.04618478645079
 21
710.77076422532105
 31
0.0
  0
LINE
  5
1CF9B
  8
AM_0
 10
201.0522717864508
 20
680.91076422532092
 30
0.0
 11
354.55748878645079
 21
680.91076422532092
 31
0.0
  0
LINE
  5
1CF9C
  8
AM_0
 10
201.0522717864508
 20
748.61076422532119
 30
0.0
 11
354.55748878645079
 21
748.61076422532119
 31
0.0
  0
LINE
  5
1CF9D
  8
AM_0
 10
233.04227178645081
 20
738.68076422532079
 30
0.0
 11
354.38986178645092
 21
738.68076422532079
 31
0.0
  0
LINE
  5
1CFA8
  8
AM_0
 10
930.0918674624387
 20
251.20089935700429
 30
0.0
 11
930.0918674624387
 21
252.83181086272191
 31
0.0
  0
LINE
  5
1CFA9
  8
AM_0
 10
863.09190746243883
 20
251.20089935700429
 30
0.0
 11
863.09190746243883
 21
253.7008993570044
 31
0.0
  0
LINE
  5
1CFAA
  8
AM_0
 10
930.09188346243877
 20
251.20089935700429
 30
0.0
 11
863.09190746243883
 21
251.20089935700429
 31
0.0
  0
INSERT
  5
1CFAE
  8
AM_0
  2
$6-44
 10
353.05232370677737
 20
276.0919233570047
 30
0.0
 41
-1.0
 42
-1.0
 50
270.0
  0
INSERT
  5
1CFAF
  8
AM_0
  2
$6-44
 10
353.05232570677742
 20
389.30987635700478
 30
0.0
 50
90.0
  0
LINE
  5
1CFB1
  8
AM_0
 10
932.59189146243875
 20
217.20089935700429
 30
0.0
 11
860.59188746243865
 21
217.20089935700429
 31
0.0
  0
LINE
  5
1CFB2
  8
AM_0
 10
902.09188746243865
 20
239.20090935700429
 30
0.0
 11
891.09188746243865
 21
239.20090935700429
 31
0.0
  0
LINE
  5
1CFB3
  8
AM_0
 10
863.09190746243883
 20
230.20090935700429
 30
0.0
 11
930.09188346243877
 21
230.20090935700429
 31
0.0
  0
LINE
  5
1CFB4
  8
AM_0
 10
860.59188746243865
 20
242.20090935700429
 30
0.0
 11
863.09188746243876
 21
246.20089935700429
 31
0.0
  0
LINE
  5
1CFB5
  8
AM_0
 10
872.96189746243897
 20
251.20089935700429
 30
0.0
 11
872.96189746243897
 21
217.20089935700429
 31
0.0
  0
LINE
  5
1CFB6
  8
AM_0
 10
863.09190746243883
 20
234.20089935700429
 30
0.0
 11
863.09190746243883
 21
251.20089935700429
 31
0.0
  0
LINE
  5
1CFB7
  8
AM_0
 10
860.59188746243865
 20
217.20089935700429
 30
0.0
 11
860.59188746243865
 21
242.20090935700429
 31
0.0
  0
LINE
  5
1CFB8
  8
AM_0
 10
891.09188746243865
 20
234.20089935700429
 30
0.0
 11
860.59188746243865
 21
234.20089935700429
 31
0.0
  0
LINE
  5
1CFB9
  8
AM_0
 10
863.09190746243883
 20
217.20089935700429
 30
0.0
 11
863.09190746243883
 21
230.20090935700429
 31
0.0
  0
LINE
  5
1CFBA
  8
AM_0
 10
891.09188746243865
 20
230.20090935700429
 30
0.0
 11
891.09188746243865
 21
239.20090935700429
 31
0.0
  0
LINE
  5
1CFBB
  8
AM_0
 10
930.4240904624387
 20
245.66939935700429
 30
0.0
 11
932.59189846243885
 21
242.20089935700429
 31
0.0
  0
LINE
  5
1CFBC
  8
AM_0
 10
930.09188346243877
 20
234.20089935700429
 30
0.0
 11
930.09188346243877
 21
251.20089935700429
 31
0.0
  0
LINE
  5
1CFBD
  8
AM_0
 10
920.22190746243871
 20
217.20089935700429
 30
0.0
 11
920.22190746243871
 21
251.20089935700429
 31
0.0
  0
LINE
  5
1CFBE
  8
AM_0
 10
932.59189146243875
 20
242.20090935700429
 30
0.0
 11
932.59189146243875
 21
217.20089935700429
 31
0.0
  0
LINE
  5
1CFBF
  8
AM_0
 10
902.09188746243865
 20
230.20090935700429
 30
0.0
 11
902.09188746243865
 21
239.20090935700429
 31
0.0
  0
LINE
  5
1CFC0
  8
AM_0
 10
932.59189146243875
 20
234.20089935700429
 30
0.0
 11
902.09188746243865
 21
234.20089935700429
 31
0.0
  0
LINE
  5
1CFC1
  8
AM_0
 10
930.09188346243877
 20
217.20089935700429
 30
0.0
 11
930.09188346243877
 21
230.20090935700429
 31
0.0
  0
ARC
  5
1D138
  8
AM_0
 10
201.07120070677729
 20
254.2259693570046
 30
0.0
 40
2.0
 50
60.311697000000869
 51
90.0
  0
LINE
  5
1D139
  8
AM_0
 10
191.05232570677731
 20
256.2259693570046
 30
0.0
 11
201.07120070677729
 21
256.2259693570046
 31
0.0
  0
ARC
  5
1D13A
  8
AM_0
 10
199.1269527067773
 20
256.9318413570046
 30
0.0
 40
2.0
 50
11.08496999999822
 51
90.0
  0
LINE
  5
1D13B
  8
AM_0
 10
191.05232570677731
 20
258.9318413570046
 30
0.0
 11
199.1269527067773
 21
258.9318413570046
 31
0.0
  0
ARC
  5
1D13C
  8
AM_0
 10
203.0523257067774
 20
257.70089935700469
 30
0.0
 40
2.0
 50
180.0
 51
270.0
  0
ARC
  5
1D13D
  8
AM_0
 10
203.0523257067774
 20
266.20090335700468
 30
0.0
 40
2.0
 50
180.0
 51
270.0
  0
LINE
  5
1D13E
  8
AM_0
 10
201.0523257067774
 20
279.9013863570047
 30
0.0
 11
201.0523257067774
 21
257.70089935700469
 31
0.0
  0
LINE
  5
1D13F
  8
AM_0
 10
191.05232570677731
 20
278.51360235700469
 30
0.0
 11
201.0523257067774
 21
278.51360235700469
 31
0.0
  0
LINE
  5
1D140
  8
AM_0
 10
191.05232570677731
 20
266.93690735700483
 30
0.0
 11
201.0523257067774
 21
266.93690735700483
 31
0.0
  0
LINE
  5
1D141
  8
AM_0
 10
191.05232570677731
 20
260.87674435700472
 30
0.0
 11
201.0523257067774
 21
260.87674435700472
 31
0.0
  0
ARC
  5
1D142
  8
AM_0
 10
351.05232370677737
 20
266.2008953570047
 30
0.0
 40
2.0
 50
269.99999799999722
 51
359.99999799999722
  0
LINE
  5
1D143
  8
AM_0
 10
203.0523257067774
 20
281.9013863570047
 30
0.0
 11
351.05232270677732
 21
281.9013863570047
 31
0.0
  0
LINE
  5
1D144
  8
AM_0
 10
203.0523257067774
 20
264.20090335700468
 30
0.0
 11
351.05802670677741
 21
264.20090335700468
 31
0.0
  0
LINE
  5
1D145
  8
AM_0
 10
353.05232570677742
 20
259.20089935700469
 30
0.0
 11
363.05232270677732
 21
259.20089935700469
 31
0.0
  0
LINE
  5
1D146
  8
AM_0
 10
354.05232570677742
 20
269.66209135700473
 30
0.0
 11
363.05232370677737
 21
269.66209135700473
 31
0.0
  0
LINE
  5
1D147
  8
AM_0
 10
201.0523257067774
 20
407.65368735700429
 30
0.0
 11
201.0523257067774
 21
404.61488335700471
 31
0.0
  0
ARC
  5
1D148
  8
AM_0
 10
203.0523257067774
 20
399.20090335700468
 30
0.0
 40
2.0
 50
90.0
 51
180.0
  0
LINE
  5
1D149
  8
AM_0
 10
191.05232570677731
 20
386.97550035700459
 30
0.0
 11
201.0523257067774
 21
386.97550035700459
 31
0.0
  0
LINE
  5
1D14A
  8
AM_0
 10
191.05232570677731
 20
398.5415193570048
 30
0.0
 11
201.0523257067774
 21
398.5415193570048
 31
0.0
  0
LINE
  5
1D14B
  8
AM_0
 10
191.05232570677731
 20
404.61488335700471
 30
0.0
 11
201.0523257067774
 21
404.61488335700471
 31
0.0
  0
LINE
  5
1D14C
  8
AM_0
 10
201.0523257067774
 20
409.17914535700459
 30
0.0
 11
201.0523257067774
 21
408.57586935700459
 31
0.0
  0
ARC
  5
1D14D
  8
AM_0
 10
203.0523257067774
 20
407.65368735700429
 30
0.0
 40
2.0
 50
90.0
 51
180.0
  0
LINE
  5
1D14E
  8
AM_0
 10
191.05232570677731
 20
410.59404435700458
 30
0.0
 11
199.5329967067774
 21
410.59404435700458
 31
0.0
  0
LINE
  5
1D14F
  8
AM_0
 10
191.05232570677731
 20
409.27953235700448
 30
0.0
 11
199.20363670677739
 21
409.27953235700448
 31
0.0
  0
ARC
  5
1D150
  8
AM_0
 10
199.20363670677739
 20
411.27953235700431
 30
0.0
 40
2.0
 50
270.0
 51
344.1903739999986
  0
ARC
  5
1D151
  8
AM_0
 10
203.0523257067774
 20
410.1897653570046
 30
0.0
 40
2.0
 50
90.0
 51
164.1903739999986
  0
ARC
  5
1D152
  8
AM_0
 10
199.5329967067774
 20
412.59404435700469
 30
0.0
 40
2.0
 50
270.0
 51
331.62214299999602
  0
ARC
  5
1D153
  8
AM_0
 10
203.0523257067774
 20
410.69290735700457
 30
0.0
 40
2.0
 50
90.0
 51
151.6221439999986
  0
ARC
  5
1D154
  8
AM_0
 10
351.05232570677742
 20
399.20090335700468
 30
0.0
 40
2.0
 50
0.0
 51
90.0
  0
ARC
  5
1D155
  8
AM_0
 10
349.92483370677729
 20
407.65368735700429
 30
0.0
 40
2.0
 50
15.00000000000116
 51
90.0
  0
LINE
  5
1D156
  8
AM_0
 10
355.05232570677742
 20
396.24503335700467
 30
0.0
 11
351.85668570677728
 21
408.17132535700478
 31
0.0
  0
ARC
  5
1D157
  8
AM_0
 10
350.88934970677741
 20
409.17914535700459
 30
0.0
 40
2.0
 50
15.00000000000116
 51
90.0
  0
LINE
  5
1D158
  8
AM_0
 10
355.05232570677742
 20
401.37011635700429
 30
0.0
 11
352.82120170677729
 21
409.69678435700462
 31
0.0
  0
ARC
  5
1D159
  8
AM_0
 10
351.43704370677727
 20
410.1897653570046
 30
0.0
 40
2.0
 50
15.00000000000116
 51
90.0
  0
LINE
  5
1D15A
  8
AM_0
 10
355.05232570677742
 20
404.42475335700482
 30
0.0
 11
353.3688947067775
 21
410.70740335700458
 31
0.0
  0
ARC
  5
1D15B
  8
AM_0
 10
351.71807770677719
 20
410.69290735700457
 30
0.0
 40
2.0
 50
15.00000000000116
 51
90.0
  0
LINE
  5
1D15C
  8
AM_0
 10
355.05232570677742
 20
405.97673135700472
 30
0.0
 11
353.6499297067773
 21
411.2105463570046
 31
0.0
  0
ARC
  5
1D15D
  8
AM_0
 10
199.05232570677731
 20
408.57586935700459
 30
0.0
 40
2.0
 50
270.0
 51
0.0
  0
ARC
  5
1D15E
  8
AM_0
 10
203.0523257067774
 20
409.17914535700459
 30
0.0
 40
2.0
 50
90.0
 51
180.0
  0
LINE
  5
1D15F
  8
AM_0
 10
191.05232570677731
 20
406.57586935700471
 30
0.0
 11
199.05232570677731
 21
406.57586935700471
 31
0.0
  0
LINE
  5
1D160
  8
AM_0
 10
201.0523257067774
 20
404.61488335700471
 30
0.0
 11
201.0523257067774
 21
385.57223935700461
 31
0.0
  0
LINE
  5
1D161
  8
AM_0
 10
354.05232570677742
 20
395.7397073570047
 30
0.0
 11
363.05232570677742
 21
395.7397073570047
 31
0.0
  0
LINE
  5
1D162
  8
AM_0
 10
203.0523257067774
 20
383.57223935700461
 30
0.0
 11
351.05232570677742
 21
383.57223935700461
 31
0.0
  0
LINE
  5
1D163
  8
AM_0
 10
203.0523257067774
 20
412.69290735700457
 30
0.0
 11
351.71807770677719
 21
412.69290735700457
 31
0.0
  0
LINE
  5
1D164
  8
AM_0
 10
203.0523257067774
 20
401.20090335700468
 30
0.0
 11
351.05232570677742
 21
401.20090335700468
 31
0.0
  0
LINE
  5
1D165
  8
AM_0
 10
203.0523257067774
 20
409.6536873570044
 30
0.0
 11
349.92483370677729
 21
409.6536873570044
 31
0.0
  0
LINE
  5
1D166
  8
AM_0
 10
203.0523257067774
 20
411.1791453570043
 30
0.0
 11
350.88934970677741
 21
411.1791453570043
 31
0.0
  0
LINE
  5
1D167
  8
AM_0
 10
203.0523257067774
 20
412.18976535700438
 30
0.0
 11
351.43704370677727
 21
412.18976535700438
 31
0.0
  0
LINE
  5
1D168
  8
AM_0
 10
340.05232570677742
 20
255.70089935700469
 30
0.0
 11
340.05232570677742
 21
253.70089935700469
 31
0.0
  0
LINE
  5
1D169
  8
AM_0
 10
273.05232570677731
 20
255.70089935700469
 30
0.0
 11
273.05232570677731
 21
253.70089935700469
 31
0.0
  0
LINE
  5
1D16A
  8
AM_0
 10
273.05232570677731
 20
253.70089935700469
 30
0.0
 11
340.05232570677742
 21
253.70089935700469
 31
0.0
  0
LINE
  5
1D16B
  8
AM_0
 10
203.0523257067774
 20
255.70089935700469
 30
0.0
 11
349.83284570677728
 21
255.70089935700469
 31
0.0
  0
LINE
  5
1D16C
  8
AM_0
 10
316.55232570677742
 20
358.70089935700469
 30
0.0
 11
191.05232570677731
 21
358.70089935700469
 31
0.0
  0
LINE
  5
1D16D
  8
AM_0
 10
316.55232570677742
 20
306.70089935700469
 30
0.0
 11
191.05232570677731
 21
306.70089935700469
 31
0.0
  0
LINE
  5
1D16E
  8
AM_0
 10
332.55232570677742
 20
359.70089935700469
 30
0.0
 11
332.55232570677742
 21
365.70089935700469
 31
0.0
  0
LINE
  5
1D16F
  8
AM_0
 10
317.55232570677742
 20
359.70089935700469
 30
0.0
 11
317.55232570677742
 21
365.70089935700469
 31
0.0
  0
LINE
  5
1D170
  8
AM_0
 10
332.55232570677742
 20
305.70089935700469
 30
0.0
 11
332.55232570677742
 21
299.70089935700469
 31
0.0
  0
LINE
  5
1D171
  8
AM_0
 10
317.55232570677742
 20
305.70089935700469
 30
0.0
 11
317.55232570677742
 21
299.70089935700469
 31
0.0
  0
LINE
  5
1D172
  8
AM_0
 10
289.05232570677742
 20
353.20089935700469
 30
0.0
 11
289.05232570677742
 21
312.20089935700469
 31
0.0
  0
LINE
  5
1D173
  8
AM_0
 10
352.05232570677742
 20
353.20089935700469
 30
0.0
 11
352.05232570677742
 21
312.20089935700469
 31
0.0
  0
LINE
  5
1D174
  8
AM_0
 10
289.05232570677742
 20
353.20089935700469
 30
0.0
 11
352.05232570677742
 21
353.20089935700469
 31
0.0
  0
LINE
  5
1D175
  8
AM_0
 10
289.05232570677742
 20
312.20089935700469
 30
0.0
 11
352.05232570677742
 21
312.20089935700469
 31
0.0
  0
LINE
  5
1D176
  8
AM_0
 10
289.05232570677742
 20
345.70089935700469
 30
0.0
 11
352.05232570677742
 21
345.70089935700469
 31
0.0
  0
LINE
  5
1D177
  8
AM_0
 10
201.0523257067774
 20
335.70089935700469
 30
0.0
 11
201.0523257067774
 21
329.70089935700469
 31
0.0
  0
LINE
  5
1D178
  8
AM_0
 10
351.76442570677727
 20
257.18218935700457
 30
0.0
 11
352.75233570677727
 21
260.86086935700462
 31
0.0
  0
LINE
  5
1D179
  8
AM_0
 10
351.1763457067774
 20
257.18218935700457
 30
0.0
 11
352.75233570677727
 21
263.05090935700463
 31
0.0
  0
LINE
  5
1D17A
  8
AM_0
 10
353.05232570677742
 20
295.7426793570047
 30
0.0
 11
353.05232570677742
 21
259.20089935700469
 31
0.0
  0
LINE
  5
1D17B
  8
AM_0
 10
352.05232570677742
 20
308.70089935700469
 30
0.0
 11
191.05232570677731
 21
308.70089935700469
 31
0.0
  0
LINE
  5
1D17C
  8
AM_0
 10
352.05232570677742
 20
306.70089935700469
 30
0.0
 11
333.55232570677731
 21
306.70089935700469
 31
0.0
  0
LINE
  5
1D17D
  8
AM_0
 10
285.05232570677742
 20
316.70089935700469
 30
0.0
 11
191.05232570677731
 21
316.70089935700469
 31
0.0
  0
LINE
  5
1D17E
  8
AM_0
 10
285.05232570677742
 20
318.70089935700469
 30
0.0
 11
191.05232570677731
 21
318.70089935700469
 31
0.0
  0
LINE
  5
1D17F
  8
AM_0
 10
285.05232570677742
 20
326.70089935700469
 30
0.0
 11
191.05232570677731
 21
326.70089935700469
 31
0.0
  0
LINE
  5
1D180
  8
AM_0
 10
285.05232570677742
 20
328.70089935700469
 30
0.0
 11
202.0523257067774
 21
328.70089935700469
 31
0.0
  0
LINE
  5
1D181
  8
AM_0
 10
352.05232570677742
 20
286.70089935700469
 30
0.0
 11
191.05232570677731
 21
286.70089935700469
 31
0.0
  0
LINE
  5
1D182
  8
AM_0
 10
352.05232570677742
 20
298.70089935700469
 30
0.0
 11
191.05232570677731
 21
298.70089935700469
 31
0.0
  0
LINE
  5
1D183
  8
AM_0
 10
352.05232570677742
 20
296.70089935700469
 30
0.0
 11
191.05232570677731
 21
296.70089935700469
 31
0.0
  0
LINE
  5
1D184
  8
AM_0
 10
352.05232570677742
 20
288.70089935700469
 30
0.0
 11
191.05232570677731
 21
288.70089935700469
 31
0.0
  0
LINE
  5
1D185
  8
AM_0
 10
352.05232570677742
 20
376.70089935700469
 30
0.0
 11
191.05232570677731
 21
376.70089935700469
 31
0.0
  0
LINE
  5
1D186
  8
AM_0
 10
352.05232570677742
 20
368.70089935700469
 30
0.0
 11
191.05232570677731
 21
368.70089935700469
 31
0.0
  0
LINE
  5
1D187
  8
AM_0
 10
352.05232570677742
 20
366.70089935700469
 30
0.0
 11
191.05232570677731
 21
366.70089935700469
 31
0.0
  0
LINE
  5
1D188
  8
AM_0
 10
352.05232570677742
 20
378.70089935700469
 30
0.0
 11
191.05232570677731
 21
378.70089935700469
 31
0.0
  0
LINE
  5
1D189
  8
AM_0
 10
285.05232570677742
 20
336.70089935700469
 30
0.0
 11
202.0523257067774
 21
336.70089935700469
 31
0.0
  0
LINE
  5
1D18A
  8
AM_0
 10
285.05232570677742
 20
338.70089935700469
 30
0.0
 11
191.05232570677731
 21
338.70089935700469
 31
0.0
  0
LINE
  5
1D18B
  8
AM_0
 10
285.05232570677742
 20
346.70089935700469
 30
0.0
 11
191.05232570677731
 21
346.70089935700469
 31
0.0
  0
LINE
  5
1D18C
  8
AM_0
 10
285.05232570677742
 20
348.70089935700469
 30
0.0
 11
191.05232570677731
 21
348.70089935700469
 31
0.0
  0
LINE
  5
1D18D
  8
AM_0
 10
352.05232570677742
 20
358.70089935700469
 30
0.0
 11
333.55232570677731
 21
358.70089935700469
 31
0.0
  0
LINE
  5
1D18E
  8
AM_0
 10
352.05232570677742
 20
356.70089935700469
 30
0.0
 11
191.05232570677731
 21
356.70089935700469
 31
0.0
  0
LINE
  5
1D18F
  8
AM_0
 10
353.05232570677742
 20
369.65911935700473
 30
0.0
 11
353.05232570677742
 21
399.20090335700468
 31
0.0
  0
ARC
  5
1D190
  8
AM_0
 10
349.83284570677728
 20
257.70089935700469
 30
0.0
 40
2.0
 50
269.999989999999
 51
344.96831000000168
  0
ARC
  5
1D191
  8
AM_0
 10
349.24476570677729
 20
257.70089935700469
 30
0.0
 40
2.0
 50
269.999989999999
 51
344.96831000000168
  0
ARC
  5
1D192
  8
AM_0
 10
333.55232570677731
 20
299.70089935700469
 30
0.0
 40
1.0
 50
179.999989999999
 51
270.0
  0
ARC
  5
1D193
  8
AM_0
 10
316.55232570677742
 20
299.70089935700469
 30
0.0
 40
1.0
 50
269.999989999999
 51
0.0000010000014034
  0
ARC
  5
1D194
  8
AM_0
 10
316.55232570677742
 20
365.70089935700469
 30
0.0
 40
1.0
 50
0.0
 51
90.00000299999769
  0
ARC
  5
1D195
  8
AM_0
 10
333.55232570677731
 20
365.70089935700469
 30
0.0
 40
1.0
 50
90.00000299999769
 51
180.00001000000091
  0
ARC
  5
1D196
  8
AM_0
 10
333.55232570677731
 20
305.70089935700469
 30
0.0
 40
1.0
 50
90.00000299999769
 51
180.00001000000091
  0
ARC
  5
1D197
  8
AM_0
 10
316.55232570677742
 20
305.70089935700469
 30
0.0
 40
1.0
 50
0.0
 51
90.00000299999769
  0
ARC
  5
1D198
  8
AM_0
 10
333.55232570677731
 20
359.70089935700469
 30
0.0
 40
1.0
 50
179.999989999999
 51
270.0
  0
ARC
  5
1D199
  8
AM_0
 10
316.55232570677742
 20
359.70089935700469
 30
0.0
 40
1.0
 50
269.999989999999
 51
0.0000010000014034
  0
CIRCLE
  5
1D19A
  8
AM_0
 10
327.55232570677742
 20
361.20089935700469
 30
0.0
 40
1.0
  0
CIRCLE
  5
1D19B
  8
AM_0
 10
322.55232570677742
 20
361.20089935700469
 30
0.0
 40
1.149999999999999
  0
CIRCLE
  5
1D19C
  8
AM_0
 10
322.55232570677742
 20
361.20089935700469
 30
0.0
 40
1.1000000000000001
  0
CIRCLE
  5
1D19D
  8
AM_0
 10
322.55232570677742
 20
304.20089935700469
 30
0.0
 40
1.1000000000000001
  0
CIRCLE
  5
1D19E
  8
AM_0
 10
322.55232570677742
 20
304.20089935700469
 30
0.0
 40
1.149999999999999
  0
CIRCLE
  5
1D19F
  8
AM_0
 10
327.55232570677742
 20
304.20089935700469
 30
0.0
 40
1.0
  0
ARC
  5
1D1A0
  8
AM_0
 10
285.05232570677742
 20
347.70089935700469
 30
0.0
 40
1.0
 50
269.999989999999
 51
90.00000299999769
  0
ARC
  5
1D1A1
  8
AM_0
 10
285.05232570677742
 20
337.70089935700469
 30
0.0
 40
1.0
 50
269.999989999999
 51
90.00000299999769
  0
ARC
  5
1D1A2
  8
AM_0
 10
285.05232570677742
 20
327.70089935700469
 30
0.0
 40
1.0
 50
269.999989999999
 51
90.00000299999769
  0
ARC
  5
1D1A3
  8
AM_0
 10
285.05232570677742
 20
317.70089935700469
 30
0.0
 40
1.0
 50
269.999989999999
 51
90.00000299999769
  0
ARC
  5
1D1A4
  8
AM_0
 10
350.10231570677752
 20
297.70089935700469
 30
0.0
 40
1.0
 50
269.999989999999
 51
90.00000299999769
  0
ARC
  5
1D1A5
  8
AM_0
 10
352.05232570677742
 20
297.70089935700469
 30
0.0
 40
1.0
 50
269.999989999999
 51
90.00000299999769
  0
ARC
  5
1D1A6
  8
AM_0
 10
350.10231570677752
 20
307.70089935700469
 30
0.0
 40
1.0
 50
269.999989999999
 51
90.00000299999769
  0
ARC
  5
1D1A7
  8
AM_0
 10
352.05232570677742
 20
307.70089935700469
 30
0.0
 40
1.0
 50
269.999989999999
 51
90.00000299999769
  0
ARC
  5
1D1A8
  8
AM_0
 10
350.10231570677752
 20
357.70089935700469
 30
0.0
 40
1.0
 50
269.999989999999
 51
90.00000299999769
  0
ARC
  5
1D1A9
  8
AM_0
 10
352.05232570677742
 20
357.70089935700469
 30
0.0
 40
1.0
 50
269.999989999999
 51
90.00000299999769
  0
ARC
  5
1D1AA
  8
AM_0
 10
350.10231570677752
 20
367.70089935700469
 30
0.0
 40
1.0
 50
269.999989999999
 51
90.00000299999769
  0
ARC
  5
1D1AB
  8
AM_0
 10
352.05232570677742
 20
367.70089935700469
 30
0.0
 40
1.0
 50
269.999989999999
 51
90.00000299999769
  0
ARC
  5
1D1AC
  8
AM_0
 10
202.0523257067774
 20
335.70089935700469
 30
0.0
 40
1.0
 50
90.00000299999769
 51
180.00001000000091
  0
ARC
  5
1D1AD
  8
AM_0
 10
202.0523257067774
 20
329.70089935700469
 30
0.0
 40
1.0
 50
179.999989999999
 51
270.0
  0
ARC
  5
1D1AE
  8
AM_0
 10
202.0522957067773
 20
317.70089935700469
 30
0.0
 40
1.0
 50
90.00000299999769
 51
270.0
  0
ARC
  5
1D1AF
  8
AM_0
 10
202.0522957067773
 20
307.70089935700469
 30
0.0
 40
1.0
 50
90.00000299999769
 51
270.0
  0
ARC
  5
1D1B0
  8
AM_0
 10
350.10231570677752
 20
287.70089935700469
 30
0.0
 40
1.0
 50
269.999989999999
 51
90.00000299999769
  0
ARC
  5
1D1B1
  8
AM_0
 10
352.05232570677742
 20
287.70089935700469
 30
0.0
 40
1.0
 50
269.999989999999
 51
90.00000299999769
  0
ARC
  5
1D1B2
  8
AM_0
 10
202.0522957067773
 20
287.70089935700469
 30
0.0
 40
1.0
 50
90.00000299999769
 51
270.0
  0
ARC
  5
1D1B3
  8
AM_0
 10
202.0522957067773
 20
297.70089935700469
 30
0.0
 40
1.0
 50
90.00000299999769
 51
270.0
  0
ARC
  5
1D1B4
  8
AM_0
 10
354.19838570677729
 20
260.48049935700482
 30
0.0
 40
1.4952499999999991
 50
140.0376500000026
 51
165.2626000000021
  0
ARC
  5
1D1B5
  8
AM_0
 10
354.19331570677753
 20
262.65639935700472
 30
0.0
 40
1.4940209999999989
 50
139.79258000000021
 51
164.69034000000059
  0
ARC
  5
1D1B6
  8
AM_0
 10
354.19648570677742
 20
406.46795935700459
 30
0.0
 40
1.495147999999999
 50
195.00188999999679
 51
195.0062129999981
  0
ARC
  5
1D1B7
  8
AM_0
 10
202.0522957067773
 20
367.70089935700469
 30
0.0
 40
1.0
 50
90.00000299999769
 51
270.0
  0
ARC
  5
1D1B8
  8
AM_0
 10
202.0522957067773
 20
377.70089935700469
 30
0.0
 40
1.0
 50
90.00000299999769
 51
270.0
  0
ARC
  5
1D1B9
  8
AM_0
 10
352.05232570677742
 20
377.70089935700469
 30
0.0
 40
1.0
 50
269.999989999999
 51
90.00000299999769
  0
ARC
  5
1D1BA
  8
AM_0
 10
350.10231570677752
 20
377.70089935700469
 30
0.0
 40
1.0
 50
269.999989999999
 51
90.00000299999769
  0
ARC
  5
1D1BB
  8
AM_0
 10
202.0522957067773
 20
357.70089935700469
 30
0.0
 40
1.0
 50
90.00000299999769
 51
270.0
  0
ARC
  5
1D1BC
  8
AM_0
 10
202.0522957067773
 20
347.70089935700469
 30
0.0
 40
1.0
 50
90.00000299999769
 51
270.0
  0
LINE
  5
1D1BD
  8
AM_0
 10
363.0523317067773
 20
406.2009043570045
 30
0.0
 11
354.99225870677731
 21
406.2009043570045
 31
0.0
  0
LINE
  5
1D1BE
  8
ﾁｭｳｼﾝｾﾝ1
 10
306.55232570677742
 20
260.78561535700481
 30
0.0
 11
306.55232570677742
 21
246.79879335700471
 31
0.0
  0
POINT
  5
1D1BF
  8
AM_0
 10
306.55232570677742
 20
250.70089935700469
 30
0.0
  0
LINE
  5
1D1C0
  8
AM_0
 10
349.30232570677742
 20
251.20089935700469
 30
0.0
 11
265.30232570677742
 21
251.20089935700469
 31
0.0
  0
LINE
  5
1D1C1
  8
AM_0
 10
266.90232570677739
 20
221.20089935700469
 30
0.0
 11
343.20232570677729
 21
234.20089935700469
 31
0.0
  0
LINE
  5
1D1C2
  8
AM_0
 10
266.82232570677729
 20
222.20089935700469
 30
0.0
 11
298.80232570677742
 21
227.6508993570047
 31
0.0
  0
LINE
  5
1D1C3
  8
AM_0
 10
342.70232570677729
 20
217.20089935700469
 30
0.0
 11
267.23232570677732
 21
217.20089935700469
 31
0.0
  0
LINE
  5
1D1C4
  8
AM_0
 10
343.53232570677739
 20
230.20089935700469
 30
0.0
 11
267.23232570677732
 21
217.20089935700469
 31
0.0
  0
LINE
  5
1D1C5
  8
ﾁｭｳｼﾝｾﾝ1
 10
268.6535107067773
 20
235.20089935700469
 30
0.0
 11
258.5026467067774
 21
235.20089935700469
 31
0.0
  0
ARC
  5
1D1C6
  8
AM_0
 10
262.60969270677742
 20
225.8935323570046
 30
0.0
 40
0.307456
 50
91.373079999999376
 51
178.62692000000061
  0
ARC
  5
1D1C7
  8
AM_0
 10
263.80237070677742
 20
218.70094435700469
 30
0.0
 40
1.5000450000000001
 50
180.00171900000251
 51
269.99828099999741
  0
ARC
  5
1D1C8
  8
AM_0
 10
263.50224370677739
 20
225.90081735700471
 30
0.0
 40
0.300082
 50
0.0157330000002624
 51
89.984266999999718
  0
ARC
  5
1D1C9
  8
AM_0
 10
263.10969270677731
 20
220.8935323570046
 30
0.0
 40
0.307456
 50
91.373079999999376
 51
178.62692000000061
  0
ARC
  5
1D1CA
  8
AM_0
 10
264.30237070677742
 20
218.70094435700469
 30
0.0
 40
1.5000450000000001
 50
180.00171900000251
 51
269.99828099999741
  0
ARC
  5
1D1CB
  8
AM_0
 10
263.10969270677731
 20
221.8935323570046
 30
0.0
 40
0.307456
 50
91.373079999999376
 51
178.62692000000061
  0
ARC
  5
1D1CC
  8
AM_0
 10
265.3097357067773
 20
250.19348935700481
 30
0.0
 40
1.0074369999999999
 50
90.421437999998133
 51
179.57856200000191
  0
LINE
  5
1D1CD
  8
AM_0
 10
263.80232570677742
 20
217.20089935700469
 30
0.0
 11
264.10232570677732
 21
217.20089935700469
 31
0.0
  0
LINE
  5
1D1CE
  8
AM_0
 10
262.30232570677742
 20
225.9008993570047
 30
0.0
 11
262.30232570677742
 21
218.70089935700469
 31
0.0
  0
LINE
  5
1D1CF
  8
AM_0
 10
263.10232570677732
 20
226.20089935700469
 30
0.0
 11
262.60232570677732
 21
226.20089935700469
 31
0.0
  0
LINE
  5
1D1D0
  8
AM_0
 10
263.50232570677741
 20
226.20089935700469
 30
0.0
 11
263.10232570677732
 21
226.20089935700469
 31
0.0
  0
LINE
  5
1D1D1
  8
AM_0
 10
262.80232570677731
 20
220.9008993570047
 30
0.0
 11
262.80232570677731
 21
218.70089935700469
 31
0.0
  0
LINE
  5
1D1D2
  8
AM_0
 10
264.30232570677742
 20
217.20089935700469
 30
0.0
 11
267.23232570677732
 21
217.20089935700469
 31
0.0
  0
LINE
  5
1D1D3
  8
AM_0
 10
264.00232570677741
 20
227.00089935700461
 30
0.0
 11
264.20232570677729
 21
227.20089935700469
 31
0.0
  0
LINE
  5
1D1D4
  8
AM_0
 10
262.80232570677731
 20
221.9008993570047
 30
0.0
 11
262.80232570677731
 21
221.20089935700469
 31
0.0
  0
LINE
  5
1D1D5
  8
AM_0
 10
266.82232570677729
 20
222.20089935700469
 30
0.0
 11
263.10232570677732
 21
222.20089935700469
 31
0.0
  0
LINE
  5
1D1D6
  8
AM_0
 10
264.30232570677742
 20
250.20089935700469
 30
0.0
 11
264.30232570677742
 21
227.20089935700469
 31
0.0
  0
LINE
  5
1D1D7
  8
AM_0
 10
264.00232570677741
 20
222.20089935700469
 30
0.0
 11
264.00232570677741
 21
223.1908993570047
 31
0.0
  0
LINE
  5
1D1D8
  8
AM_0
 10
264.30232570677742
 20
227.20089935700469
 30
0.0
 11
264.30232570677742
 21
222.20089935700469
 31
0.0
  0
LINE
  5
1D1D9
  8
AM_0
 10
264.00232570677741
 20
223.1908993570047
 30
0.0
 11
263.80232570677742
 21
223.1908993570047
 31
0.0
  0
LINE
  5
1D1DA
  8
AM_0
 10
264.00232570677741
 20
223.1908993570047
 30
0.0
 11
264.00232570677741
 21
224.39089935700471
 31
0.0
  0
LINE
  5
1D1DB
  8
AM_0
 10
263.80232570677742
 20
224.39089935700471
 30
0.0
 11
264.00232570677741
 21
224.39089935700471
 31
0.0
  0
LINE
  5
1D1DC
  8
AM_0
 10
264.00232570677741
 20
224.39089935700471
 30
0.0
 11
264.00232570677741
 21
227.00089935700461
 31
0.0
  0
LINE
  5
1D1DD
  8
AM_0
 10
264.20232570677729
 20
227.20089935700469
 30
0.0
 11
264.30232570677742
 21
227.20089935700469
 31
0.0
  0
LINE
  5
1D1DE
  8
AM_0
 10
262.80232570677731
 20
221.20089935700469
 30
0.0
 11
266.90232570677739
 21
221.20089935700469
 31
0.0
  0
LINE
  5
1D1DF
  8
AM_0
 10
263.80232570677742
 20
222.20089935700469
 30
0.0
 11
263.80232570677742
 21
225.9008993570047
 31
0.0
  0
LINE
  5
1D1E0
  8
AM_0
 10
350.30232570677742
 20
230.70089935700469
 30
0.0
 11
350.30232570677742
 21
250.20089935700469
 31
0.0
  0
LINE
  5
1D1E1
  8
AM_0
 10
270.10232570677732
 20
251.20089935700469
 30
0.0
 11
270.10232570677732
 21
234.20089935700469
 31
0.0
  0
LINE
  5
1D1E2
  8
AM_0
 10
336.58232570677728
 20
234.0808993570046
 30
0.0
 11
336.58232570677728
 21
251.20089935700469
 31
0.0
  0
LINE
  5
1D1E3
  8
AM_0
 10
288.70232570677729
 20
251.20089935700469
 30
0.0
 11
288.70232570677729
 21
234.20089935700469
 31
0.0
  0
ARC
  5
1D1E4
  8
AM_0
 10
342.70974470677743
 20
219.6934813570048
 30
0.0
 40
2.4925929999999981
 50
269.82947499999727
 51
0.1705250000027446
  0
ARC
  5
1D1E5
  8
AM_0
 10
345.70974470677743
 20
229.6934813570048
 30
0.0
 40
0.507473
 50
90.837610999997921
 51
179.16238900000201
  0
CIRCLE
  5
1D1E6
  8
AM_0
 10
328.40973070677728
 20
234.1935163570048
 30
0.0
 40
0.75
  0
CIRCLE
  5
1D1E7
  8
AM_0
 10
279.40973770677749
 20
234.1935163570048
 30
0.0
 40
6.299999999999998
  0
ARC
  5
1D1E8
  8
AM_0
 10
279.40232570677739
 20
234.20089935700469
 30
0.0
 40
9.3000030000000002
 50
180.0
 51
0.0
  0
LINE
  5
1D1E9
  8
ﾁｭｳｼﾝｾﾝ1
 10
279.40232570677739
 20
226.53089935700461
 30
0.0
 11
279.40232570677739
 21
242.23089935700469
 31
0.0
  0
LINE
  5
1D1EA
  8
ﾁｭｳｼﾝｾﾝ1
 10
287.16232570677738
 20
234.20089935700469
 30
0.0
 11
271.95232570677729
 21
234.20089935700469
 31
0.0
  0
LINE
  5
1D1EB
  8
AM_0
 10
334.93232570677742
 20
217.20089935700469
 30
0.0
 11
334.93232570677742
 21
228.73089935700469
 31
0.0
  0
LINE
  5
1D1EC
  8
AM_0
 10
335.80232570677742
 20
228.88089935700469
 30
0.0
 11
335.80232570677742
 21
232.9408993570047
 31
0.0
  0
LINE
  5
1D1ED
  8
AM_0
 10
349.80232570677742
 20
230.20089935700469
 30
0.0
 11
343.53232570677739
 21
230.20089935700469
 31
0.0
  0
LINE
  5
1D1EE
  8
AM_0
 10
345.20232570677729
 20
229.70089935700469
 30
0.0
 11
345.20232570677729
 21
219.70089935700469
 31
0.0
  0
LINE
  5
1D1EF
  8
AM_0
 10
300.80232570677742
 20
227.99089935700459
 30
0.0
 11
303.00232570677741
 21
228.3608993570048
 31
0.0
  0
LINE
  5
1D1F0
  8
AM_0
 10
304.50232570677741
 20
228.62089935700479
 30
0.0
 11
306.7023257067774
 21
228.99089935700471
 31
0.0
  0
LINE
  5
1D1F1
  8
AM_0
 10
308.2023257067774
 20
229.25089935700461
 30
0.0
 11
310.40232570677739
 21
229.62089935700479
 31
0.0
  0
LINE
  5
1D1F2
  8
AM_0
 10
312.40232570677739
 20
229.96089935700471
 30
0.0
 11
314.10232570677732
 21
230.2508993570047
 31
0.0
  0
LINE
  5
1D1F3
  8
AM_0
 10
315.60232570677732
 20
230.5108993570046
 30
0.0
 11
317.8123257067773
 21
230.88089935700469
 31
0.0
  0
LINE
  5
1D1F4
  8
AM_0
 10
319.31232570677741
 20
231.14089935700471
 30
0.0
 11
321.5123257067774
 21
231.52089935700459
 31
0.0
  0
LINE
  5
1D1F5
  8
AM_0
 10
323.0123257067774
 20
231.77089935700459
 30
0.0
 11
325.21232570677728
 21
232.1508993570047
 31
0.0
  0
LINE
  5
1D1F6
  8
AM_0
 10
326.71232570677728
 20
232.4008993570047
 30
0.0
 11
343.12232570677742
 21
235.20089935700469
 31
0.0
  0
LINE
  5
1D1F7
  8
AM_0
 10
350.30232570677742
 20
235.20089935700469
 30
0.0
 11
343.12232570677742
 21
235.20089935700469
 31
0.0
  0
LINE
  5
1D1F8
  8
AM_0
 10
326.71232570677728
 20
232.4008993570047
 30
0.0
 11
326.71232570677728
 21
246.20089935700469
 31
0.0
  0
LINE
  5
1D1F9
  8
AM_0
 10
326.71232570677728
 20
246.20089935700469
 30
0.0
 11
325.21232570677728
 21
246.20089935700469
 31
0.0
  0
LINE
  5
1D1FA
  8
AM_0
 10
325.21232570677728
 20
246.20089935700469
 30
0.0
 11
325.21232570677728
 21
232.1508993570047
 31
0.0
  0
LINE
  5
1D1FB
  8
AM_0
 10
323.0123257067774
 20
231.77089935700459
 30
0.0
 11
323.0123257067774
 21
246.20089935700469
 31
0.0
  0
LINE
  5
1D1FC
  8
AM_0
 10
323.0123257067774
 20
246.20089935700469
 30
0.0
 11
321.5123257067774
 21
246.20089935700469
 31
0.0
  0
LINE
  5
1D1FD
  8
AM_0
 10
321.5123257067774
 20
246.20089935700469
 30
0.0
 11
321.5123257067774
 21
231.52089935700459
 31
0.0
  0
LINE
  5
1D1FE
  8
AM_0
 10
319.31232570677741
 20
231.14089935700471
 30
0.0
 11
319.31232570677741
 21
246.20089935700469
 31
0.0
  0
LINE
  5
1D1FF
  8
AM_0
 10
319.31232570677741
 20
246.20089935700469
 30
0.0
 11
317.8123257067773
 21
246.20089935700469
 31
0.0
  0
LINE
  5
1D200
  8
AM_0
 10
317.8123257067773
 20
246.20089935700469
 30
0.0
 11
317.8123257067773
 21
230.88089935700469
 31
0.0
  0
LINE
  5
1D201
  8
AM_0
 10
315.60232570677732
 20
230.5108993570046
 30
0.0
 11
315.60232570677732
 21
246.20089935700469
 31
0.0
  0
LINE
  5
1D202
  8
AM_0
 10
315.60232570677732
 20
246.20089935700469
 30
0.0
 11
314.10232570677732
 21
246.20089935700469
 31
0.0
  0
LINE
  5
1D203
  8
AM_0
 10
314.10232570677732
 20
246.20089935700469
 30
0.0
 11
314.10232570677732
 21
230.2508993570047
 31
0.0
  0
LINE
  5
1D204
  8
AM_0
 10
312.40232570677739
 20
229.96089935700471
 30
0.0
 11
312.40232570677739
 21
243.49089935700471
 31
0.0
  0
LINE
  5
1D205
  8
AM_0
 10
311.70232570677729
 20
246.20089935700469
 30
0.0
 11
310.40232570677739
 21
246.20089935700469
 31
0.0
  0
LINE
  5
1D206
  8
AM_0
 10
310.40232570677739
 20
246.20089935700469
 30
0.0
 11
310.40232570677739
 21
229.62089935700479
 31
0.0
  0
LINE
  5
1D207
  8
AM_0
 10
308.2023257067774
 20
229.25089935700461
 30
0.0
 11
308.2023257067774
 21
246.20089935700469
 31
0.0
  0
LINE
  5
1D208
  8
AM_0
 10
308.2023257067774
 20
246.20089935700469
 30
0.0
 11
306.7023257067774
 21
246.20089935700469
 31
0.0
  0
LINE
  5
1D209
  8
AM_0
 10
306.7023257067774
 20
246.20089935700469
 30
0.0
 11
306.7023257067774
 21
228.99089935700471
 31
0.0
  0
LINE
  5
1D20A
  8
AM_0
 10
304.50232570677741
 20
228.62089935700479
 30
0.0
 11
304.50232570677741
 21
246.20089935700469
 31
0.0
  0
LINE
  5
1D20B
  8
AM_0
 10
304.50232570677741
 20
246.20089935700469
 30
0.0
 11
303.00232570677741
 21
246.20089935700469
 31
0.0
  0
LINE
  5
1D20C
  8
AM_0
 10
303.00232570677741
 20
246.20089935700469
 30
0.0
 11
303.00232570677741
 21
228.3608993570048
 31
0.0
  0
LINE
  5
1D20D
  8
AM_0
 10
300.80232570677742
 20
227.99089935700459
 30
0.0
 11
300.80232570677742
 21
246.20089935700469
 31
0.0
  0
LINE
  5
1D20E
  8
AM_0
 10
300.80232570677742
 20
246.20089935700469
 30
0.0
 11
299.5023257067773
 21
246.20089935700469
 31
0.0
  0
LINE
  5
1D20F
  8
AM_0
 10
299.5023257067773
 20
246.20089935700469
 30
0.0
 11
299.5023257067773
 21
244.1508993570047
 31
0.0
  0
LINE
  5
1D210
  8
AM_0
 10
326.71232570677728
 20
242.20089935700469
 30
0.0
 11
325.21232570677728
 21
242.20089935700469
 31
0.0
  0
LINE
  5
1D211
  8
AM_0
 10
323.0123257067774
 20
242.20089935700469
 30
0.0
 11
321.5123257067774
 21
242.20089935700469
 31
0.0
  0
LINE
  5
1D212
  8
AM_0
 10
319.31232570677741
 20
242.20089935700469
 30
0.0
 11
317.8123257067773
 21
242.20089935700469
 31
0.0
  0
LINE
  5
1D213
  8
AM_0
 10
315.60232570677732
 20
242.20089935700469
 30
0.0
 11
314.10232570677732
 21
242.20089935700469
 31
0.0
  0
LINE
  5
1D214
  8
AM_0
 10
312.40232570677739
 20
242.20089935700469
 30
0.0
 11
310.40232570677739
 21
242.20089935700469
 31
0.0
  0
LINE
  5
1D215
  8
AM_0
 10
308.2023257067774
 20
242.20089935700469
 30
0.0
 11
306.7023257067774
 21
242.20089935700469
 31
0.0
  0
LINE
  5
1D216
  8
AM_0
 10
304.50232570677741
 20
242.20089935700469
 30
0.0
 11
303.00232570677741
 21
242.20089935700469
 31
0.0
  0
LINE
  5
1D217
  8
AM_0
 10
300.80232570677742
 20
242.20089935700469
 30
0.0
 11
298.80232570677742
 21
242.20089935700469
 31
0.0
  0
LINE
  5
1D218
  8
AM_0
 10
298.80232570677742
 20
243.49089935700471
 30
0.0
 11
298.80232570677742
 21
227.6508993570047
 31
0.0
  0
LINE
  5
1D219
  8
AM_0
 10
299.5023257067773
 20
244.1508993570047
 30
0.0
 11
298.80232570677742
 21
243.49089935700471
 31
0.0
  0
LINE
  5
1D21A
  8
AM_0
 10
312.40232570677739
 20
243.49089935700471
 30
0.0
 11
311.70232570677729
 21
244.1508993570047
 31
0.0
  0
LINE
  5
1D21B
  8
AM_0
 10
311.70232570677729
 20
244.1508993570047
 30
0.0
 11
311.70232570677729
 21
246.20089935700469
 31
0.0
  0
LINE
  5
1D21C
  8
AM_0
 10
343.20232570677729
 20
234.20089935700469
 30
0.0
 11
350.30232570677742
 21
234.20089935700469
 31
0.0
  0
ARC
  5
1D21D
  8
AM_0
 10
349.80232570677742
 20
230.70089935700469
 30
0.0
 40
0.5
 50
270.0
 51
0.0
  0
ARC
  5
1D21E
  8
AM_0
 10
349.30232570677742
 20
250.20089935700469
 30
0.0
 40
1.0
 50
0.0
 51
90.0
  0
LINE
  5
1D21F
  8
AM_0
 10
273.05232570677731
 20
251.20089935700469
 30
0.0
 11
273.05232570677731
 21
253.70089935700469
 31
0.0
  0
LINE
  5
1D220
  8
AM_0
 10
340.05232570677742
 20
251.20089935700469
 30
0.0
 11
340.05232570677742
 21
253.70089935700469
 31
0.0
  0
LINE
  5
1D221
  8
AM_0
 10
107.7523257067774
 20
252.72146035700479
 30
0.0
 11
107.7523257067774
 21
412.68089935700471
 31
0.0
  0
ARC
  5
1D222
  8
AM_0
 10
81.936463706777374
 20
405.33580035700459
 30
0.0
 40
5.7526239999999991
 50
92.930875000002956
 51
169.9376259999996
  0
LINE
  5
1D223
  8
AM_0
 10
116.0523257067773
 20
414.70089935700469
 30
0.0
 11
191.05232570677731
 21
414.70089935700469
 31
0.0
  0
LINE
  5
1D224
  8
AM_0
 10
116.0523257067773
 20
250.70089935700469
 30
0.0
 11
116.0523257067773
 21
414.70089935700469
 31
0.0
  0
LINE
  5
1D225
  8
AM_0
 10
78.822325706777349
 20
259.20089935700469
 30
0.0
 11
78.822325706777349
 21
406.72089935700461
 31
0.0
  0
LINE
  5
1D226
  8
AM_0
 10
109.0023257067774
 20
413.45089935700457
 30
0.0
 11
116.0523257067773
 21
413.45089935700457
 31
0.0
  0
LINE
  5
1D227
  8
AM_0
 10
107.0423257067774
 20
412.41089935700472
 30
0.0
 11
81.642325706777385
 21
411.0808993570044
 31
0.0
  0
ARC
  5
1D228
  8
AM_0
 10
109.0076627067773
 20
412.19966835700473
 30
0.0
 40
1.2512430000000001
 50
90.244380000000078
 51
144.2391030000023
  0
ARC
  5
1D229
  8
AM_0
 10
106.9761197067774
 20
413.65964135700472
 30
0.0
 40
1.2504959999999981
 50
273.03488699999701
 51
324.35492200000419
  0
LINE
  5
1D22A
  8
AM_0
 10
74.752325706777413
 20
269.33025935700482
 30
0.0
 11
74.752325706777413
 21
396.35089935700449
 31
0.0
  0
LINE
  5
1D22B
  8
AM_0
 10
107.0423257067774
 20
252.99089935700459
 30
0.0
 11
81.642325706777385
 21
254.32089935700481
 31
0.0
  0
ARC
  5
1D22C
  8
AM_0
 10
73.002175706777351
 20
269.89644335700461
 30
0.0
 40
2.249854
 50
179.88651000000229
 51
261.61639199999939
  0
ARC
  5
1D22D
  8
AM_0
 10
72.236605706777311
 20
264.70173035700481
 30
0.0
 40
3.0009689999999982
 50
9.9623179999990032
 51
81.616391999999408
  0
LINE
  5
1D22E
  8
AM_0
 10
75.192326706777337
 20
265.22089935700473
 30
0.0
 11
76.272325706777394
 21
259.06089935700459
 31
0.0
  0
ARC
  5
1D22F
  8
AM_0
 10
81.930275706777422
 20
260.05898835700481
 30
0.0
 40
5.745309999999999
 50
190.00432199999869
 51
267.12717799999672
  0
LINE
  5
1D230
  8
AM_0
 10
116.0523257067773
 20
250.70089935700469
 30
0.0
 11
191.05232570677731
 21
250.70089935700469
 31
0.0
  0
LINE
  5
1D231
  8
AM_0
 10
109.0023257067774
 20
251.95089935700469
 30
0.0
 11
116.0523257067773
 21
251.95089935700469
 31
0.0
  0
ARC
  5
1D232
  8
AM_0
 10
109.0026897067773
 20
253.1924723570047
 30
0.0
 40
1.241573
 50
215.53333300000091
 51
269.98318399999948
  0
ARC
  5
1D233
  8
AM_0
 10
106.9710487067773
 20
251.7328933570046
 30
0.0
 40
1.260022999999999
 50
35.853017999999167
 51
86.757172999999256
  0
ARC
  5
1D234
  8
AM_0
 10
72.236605706777311
 20
400.70006835700462
 30
0.0
 40
3.0009689999999982
 50
278.34845899999692
 51
350.03768200000098
  0
LINE
  5
1D235
  8
AM_0
 10
75.192325706777339
 20
400.18089935700471
 30
0.0
 11
76.272325706777394
 21
406.34089935700479
 31
0.0
  0
ARC
  5
1D236
  8
AM_0
 10
73.002175706777351
 20
395.5053553570047
 30
0.0
 40
2.249854
 50
98.430493000000325
 51
180.11348999999771
  0
LINE
  5
1D237
  8
AM_0
 10
191.05232570677731
 20
414.70089935700469
 30
0.0
 11
191.05232570677731
 21
250.70089935700469
 31
0.0
  0
LINE
  5
1D238
  8
AM_0
 10
155.05023670677741
 20
424.70089935700457
 30
0.0
 11
155.05023670677741
 21
414.70089935700469
 31
0.0
  0
LINE
  5
1D239
  8
AM_0
 10
167.05441470677729
 20
424.70089935700457
 30
0.0
 11
167.05441470677729
 21
414.70089935700469
 31
0.0
  0
LINE
  5
1D23A
  8
AM_0
 10
93.247549706777434
 20
419.70089935700457
 30
0.0
 11
155.05023670677741
 21
419.70089935700457
 31
0.0
  0
LINE
  5
1D23B
  8
AM_0
 10
93.251497706777343
 20
424.70089935700457
 30
0.0
 11
171.25232570677741
 21
424.70089935700457
 31
0.0
  0
LINE
  5
1D23C
  8
AM_0
 10
167.05441470677729
 20
419.70089935700457
 30
0.0
 11
171.25232570677741
 21
419.70089935700457
 31
0.0
  0
ARC
  5
1D23D
  8
AM_0
 10
93.251497706777343
 20
399.70089935700469
 30
0.0
 40
25.0
 50
90.0
 51
180.0
  0
LINE
  5
1D23E
  8
AM_0
 10
167.05441470677729
 20
250.70089935700469
 30
0.0
 11
167.05441470677729
 21
240.70089935700469
 31
0.0
  0
LINE
  5
1D23F
  8
AM_0
 10
155.05023670677741
 20
250.70089935700469
 30
0.0
 11
155.05023670677741
 21
240.70089935700469
 31
0.0
  0
LINE
  5
1D240
  8
AM_0
 10
93.247549706777434
 20
245.70089935700469
 30
0.0
 11
155.05023670677741
 21
245.70089935700469
 31
0.0
  0
LINE
  5
1D241
  8
AM_0
 10
93.251497706777343
 20
240.70089935700469
 30
0.0
 11
171.25232570677741
 21
240.70089935700469
 31
0.0
  0
LINE
  5
1D242
  8
AM_0
 10
167.05441470677729
 20
245.70089935700469
 30
0.0
 11
171.25232570677741
 21
245.70089935700469
 31
0.0
  0
ARC
  5
1D243
  8
AM_0
 10
93.247549706777434
 20
399.70089935700469
 30
0.0
 40
20.0
 50
90.0
 51
180.0
  0
LINE
  5
1D244
  8
AM_0
 10
70.74754970677742
 20
269.90089935700468
 30
0.0
 11
70.74754970677742
 21
395.50089935700458
 31
0.0
  0
LINE
  5
1D245
  8
AM_0
 10
65.777549706777393
 20
335.20089935700469
 30
0.0
 11
68.251497706777343
 21
335.20089935700469
 31
0.0
  0
LINE
  5
1D246
  8
AM_0
 10
68.251497706777343
 20
265.70089935700469
 30
0.0
 11
68.251497706777343
 21
399.70089935700469
 31
0.0
  0
LINE
  5
1D247
  8
AM_0
 10
65.777549706777393
 20
330.20089935700469
 30
0.0
 11
68.251497706777343
 21
330.20089935700469
 31
0.0
  0
ARC
  5
1D248
  8
AM_0
 10
93.251497706777343
 20
265.70089935700469
 30
0.0
 40
25.0
 50
180.0
 51
270.0
  0
ARC
  5
1D249
  8
AM_0
 10
93.247549706777434
 20
265.70089935700469
 30
0.0
 40
20.0
 50
180.0
 51
270.0
  0
LINE
  5
1D24A
  8
AM_0
 10
171.25232570677741
 20
419.70089935700457
 30
0.0
 11
171.25232570677741
 21
424.70089935700457
 31
0.0
  0
LINE
  5
1D24B
  8
AM_0
 10
171.25232570677741
 20
245.70089935700469
 30
0.0
 11
171.25232570677741
 21
240.70089935700469
 31
0.0
  0
LINE
  5
1D24C
  8
AM_0
 10
70.24754970677742
 20
335.20089935700469
 30
0.0
 11
70.74754970677742
 21
335.20089935700469
 31
0.0
  0
LINE
  5
1D24D
  8
AM_0
 10
70.24754970677742
 20
330.20089935700469
 30
0.0
 11
70.74754970677742
 21
330.20089935700469
 31
0.0
  0
LINE
  5
1D24E
  8
AM_0
 10
70.24754970677742
 20
335.20089935700469
 30
0.0
 11
70.24754970677742
 21
330.20089935700469
 31
0.0
  0
LINE
  5
1D24F
  8
AM_0
 10
65.777549706777393
 20
335.20089935700469
 30
0.0
 11
65.777549706777393
 21
330.20089935700469
 31
0.0
  0
LINE
  5
1D250
  8
AM_0
 10
73.24754970677742
 20
399.70089935700469
 30
0.0
 11
73.24754970677742
 21
397.87450535700469
 31
0.0
  0
LINE
  5
1D251
  8
AM_0
 10
73.24754970677742
 20
267.67063135700471
 30
0.0
 11
73.24754970677742
 21
265.70089935700469
 31
0.0
  0
LINE
  5
1D252
  8
AM_0
 10
354.05232570677742
 20
295.7426793570047
 30
0.0
 11
363.05232570677742
 21
295.7426793570047
 31
0.0
  0
LINE
  5
1D253
  8
AM_0
 10
354.05232570677742
 20
369.65911935700473
 30
0.0
 11
363.05232570677742
 21
369.65911935700473
 31
0.0
  0
TEXT
  5
1E6CA
  8
AM_0
 10
692.41709351182953
 20
690.70208959987804
 30
0.0
 40
15.0
  1
VC08-007EFBL~VC08-060EFBL
1001
ACAD
1000
MTEXTBEGIN
1070
    73
1070
     1
1070
    44
1040
1.0
1070
    74
1070
     0
1000
MTEXTEND
  0
VIEWPORT
  5
89
 67
     1
  8
0
 10
210.0
 20
148.5
 30
0.0
 40
420.0
 41
297.0
 68
     1
 69
     1
1001
ACAD
1000
MVIEW
1002
{
1070
    16
1010
0.0
1020
0.0
1030
0.0
1010
0.0
1020
0.0
1030
1.0
1040
0.0
1040
297.0
1040
221.70154043645701
1040
148.5
1040
50.0
1040
0.0
1040
0.0
1070
     0
1070
   100
1070
     1
1070
     1
1070
     0
1070
     0
1070
     0
1070
     0
1040
0.0
1040
0.0
1040
0.0
1040
10.0
1040
10.0
1040
10.0
1040
10.0
1070
     0
1002
{
1002
}
1002
}
1001
GENIUS_GENOREF_13
1005
1B94
1001
GENIUS_GENSCREG_15
1000
PF
1040
1.0
1000
DF
1040
1.0
1000
MIN
1011
0.0
1021
0.0
1031
0.0
1021
0.0
1031
0.0
1000
MAX
1011
420.0
1021
0.0
1031
0.0
1021
297.0
1031
0.0
1000
FLAGS
1070
     4
  0
ENDSEC
  0
EOF
