  0
SECTION
  2
HEADER
  9
$ACADVER
  1
AC1009
  9
$INSBASE
 10
0.0
 20
0.0
 30
0.0
  9
$EXTMIN
 10
68.476915519075646
 20
129.85276498659391
 30
-0.0015258207003583
  9
$EXTMAX
 10
700.43625821771138
 20
557.75923689153683
 30
0.0000000349246037
  9
$LIMMIN
 10
0.0
 20
0.0
  9
$LIMMAX
 10
853.5
 20
555.00000000000011
  9
$ORTHOMODE
 70
     0
  9
$REGENMODE
 70
     1
  9
$FILLMODE
 70
     1
  9
$QTEXTMODE
 70
     0
  9
$MIRRTEXT
 70
     1
  9
$DRAGMODE
 70
     2
  9
$LTSCALE
 40
3.0
  9
$OSMODE
 70
   551
  9
$ATTMODE
 70
     1
  9
$TEXTSIZE
 40
2.5
  9
$TRACEWID
 40
1.0
  9
$TEXTSTYLE
  7
STANDARD
  9
$CLAYER
  8
AM_0
  9
$CELTYPE
  6
BYLAYER
  9
$CECOLOR
 62
   256
  9
$DIMSCALE
 40
3.0
  9
$DIMASZ
 40
2.5
  9
$DIMEXO
 40
1.0
  9
$DIMDLI
 40
7.0
  9
$DIMRND
 40
0.0
  9
$DIMDLE
 40
0.0
  9
$DIMEXE
 40
1.0
  9
$DIMTP
 40
0.1
  9
$DIMTM
 40
0.1000000001
  9
$DIMTXT
 40
2.5
  9
$DIMCEN
 40
0.0
  9
$DIMTSZ
 40
0.0
  9
$DIMTOL
 70
     0
  9
$DIMLIM
 70
     0
  9
$DIMTIH
 70
     0
  9
$DIMTOH
 70
     0
  9
$DIMSE1
 70
     0
  9
$DIMSE2
 70
     0
  9
$DIMTAD
 70
     3
  9
$DIMZIN
 70
     8
  9
$DIMBLK
  1

  9
$DIMASO
 70
     1
  9
$DIMSHO
 70
     1
  9
$DIMPOST
  1

  9
$DIMAPOST
  1
"
  9
$DIMALT
 70
     0
  9
$DIMALTD
 70
     2
  9
$DIMALTF
 40
0.0393701
  9
$DIMLFAC
 40
1.0
  9
$DIMTOFL
 70
     1
  9
$DIMTVP
 40
0.0
  9
$DIMTIX
 70
     0
  9
$DIMSOXD
 70
     0
  9
$DIMSAH
 70
     0
  9
$DIMBLK1
  1

  9
$DIMBLK2
  1

  9
$DIMSTYLE
  2
AM_JIS
  9
$DIMCLRD
 70
   256
  9
$DIMCLRE
 70
   256
  9
$DIMCLRT
 70
     4
  9
$DIMTFAC
 40
0.71
  9
$DIMGAP
 40
1.0
  9
$LUNITS
 70
     2
  9
$LUPREC
 70
     2
  9
$SKETCHINC
 40
1.0
  9
$FILLETRAD
 40
5.0
  9
$AUNITS
 70
     0
  9
$AUPREC
 70
     3
  9
$MENU
  1
.
  9
$ELEVATION
 40
0.0
  9
$PELEVATION
 40
0.0
  9
$THICKNESS
 40
0.0
  9
$LIMCHECK
 70
     0
  9
$BLIPMODE
 70
     0
  9
$CHAMFERA
 40
7.5
  9
$CHAMFERB
 40
7.5
  9
$SKPOLY
 70
     0
  9
$TDCREATE
 40
2452753.643349607
  9
$TDUPDATE
 40
2458543.5384411579
  9
$TDINDWG
 40
0.4129393519
  9
$TDUSRTIMER
 40
0.4129391551
  9
$USRTIMER
 70
     1
  9
$ANGBASE
 50
0.0
  9
$ANGDIR
 70
     0
  9
$PDMODE
 70
     0
  9
$PDSIZE
 40
0.0
  9
$PLINEWID
 40
0.0
  9
$COORDS
 70
     1
  9
$SPLFRAME
 70
     0
  9
$SPLINETYPE
 70
     6
  9
$SPLINESEGS
 70
     8
  9
$ATTDIA
 70
     1
  9
$ATTREQ
 70
     1
  9
$HANDLING
 70
     1
  9
$HANDSEED
  5
16DB3
  9
$SURFTAB1
 70
     6
  9
$SURFTAB2
 70
     6
  9
$SURFTYPE
 70
     6
  9
$SURFU
 70
     6
  9
$SURFV
 70
     6
  9
$UCSNAME
  2

  9
$UCSORG
 10
0.0
 20
0.0
 30
0.0
  9
$UCSXDIR
 10
1.0
 20
0.0
 30
0.0
  9
$UCSYDIR
 10
0.0
 20
1.0
 30
0.0
  9
$PUCSNAME
  2

  9
$PUCSORG
 10
0.0
 20
0.0
 30
0.0
  9
$PUCSXDIR
 10
1.0
 20
0.0
 30
0.0
  9
$PUCSYDIR
 10
0.0
 20
1.0
 30
0.0
  9
$USERI1
 70
     0
  9
$USERI2
 70
     0
  9
$USERI3
 70
     0
  9
$USERI4
 70
     0
  9
$USERI5
 70
     0
  9
$USERR1
 40
0.0
  9
$USERR2
 40
0.0
  9
$USERR3
 40
0.0
  9
$USERR4
 40
0.0
  9
$USERR5
 40
0.0
  9
$WORLDVIEW
 70
     1
  9
$SHADEDGE
 70
     3
  9
$SHADEDIF
 70
    70
  9
$TILEMODE
 70
     1
  9
$MAXACTVP
 70
    48
  9
$PLIMCHECK
 70
     0
  9
$PEXTMIN
 10
1.0000000000000000E+020
 20
1.0000000000000000E+020
 30
1.0000000000000000E+020
  9
$PEXTMAX
 10
-1.0000000000000000E+020
 20
-1.0000000000000000E+020
 30
-1.0000000000000000E+020
  9
$PLIMMIN
 10
0.0
 20
0.0
  9
$PLIMMAX
 10
420.0
 20
297.0
  9
$UNITMODE
 70
     0
  9
$VISRETAIN
 70
     1
  9
$PLINEGEN
 70
     0
  9
$PSLTSCALE
 70
     1
  0
ENDSEC
  0
SECTION
  2
TABLES
  0
TABLE
  2
VPORT
 70
     1
  0
VPORT
  2
*ACTIVE
 70
     0
 10
0.0
 20
0.0
 11
1.0
 21
1.0
 12
384.45658686839352
 22
343.80600093906543
 13
0.0
 23
0.0
 14
7.5
 24
7.5
 15
30.0
 25
30.0
 16
0.0
 26
0.0
 36
1.0
 17
0.0
 27
0.0
 37
0.0
 40
430.8440449386153
 41
1.7571592210767459
 42
50.0
 43
0.0
 44
0.0
 50
0.0
 51
0.0
 71
    16
 72
   100
 73
     1
 74
     1
 75
     0
 76
     0
 77
     0
 78
     0
  0
ENDTAB
  0
TABLE
  2
LTYPE
 70
    21
  0
LTYPE
  2
CONTINUOUS
 70
     0
  3
Solid line
 72
    65
 73
     0
 40
0.0
  0
LTYPE
  2
PHANTOM2
 70
     0
  3
Phantom (.5x) ___ _ _ ___ _ _ ___ _ _ ___ _ _
 72
    65
 73
     6
 40
31.75
 49
15.875
 49
-3.174999999999998
 49
3.174999999999998
 49
-3.174999999999998
 49
3.174999999999998
 49
-3.174999999999998
  0
LTYPE
  2
CENTER
 70
     0
  3
Center ____ _ ____ _ ____ _ ____ _ ____ _ ____
 72
    65
 73
     4
 40
50.799999999999997
 49
31.75
 49
-6.3499999999999979
 49
6.3499999999999979
 49
-6.3499999999999979
  0
LTYPE
  2
ACANSTGBM
 70
     0
  3
__ . . __ . .
 72
    65
 73
     6
 40
9.0
 49
4.0
 49
-1.0
 49
1.0
 49
-1.0
 49
1.0
 49
-1.0
  0
LTYPE
  2
ACANSTGLM
 70
     0
  3
_ _ _ _ _
 72
    65
 73
     2
 40
3.0
 49
2.0
 49
-1.0
  0
LTYPE
  2
GEN3B
 70
     0
  3
 - - - - -
 72
    65
 73
     2
 40
1.0
 49
0.5
 49
-0.5
  0
LTYPE
  2
GEN7A
 70
     0
  3
__ . __ . __
 72
    65
 73
     4
 40
7.375
 49
4.75
 49
-0.875
 49
0.875
 49
-0.875
  0
LTYPE
  2
AM_ISO02W050
 70
     0
  3
__ __ __ __ __ __ __ __ __ __ __ __ __ __ __
 72
    65
 73
     2
 40
7.5
 49
6.0
 49
-1.5
  0
LTYPE
  2
AM_ISO08W050
 70
     0
  3
____ . ____ . ____ . ____ . ____ . ____ . ____
 72
    65
 73
     4
 40
18.0
 49
12.0
 49
-1.5
 49
3.0
 49
-1.5
  0
LTYPE
  2
AM_ISO09W050
 70
     0
  3
_____ . . _____ . . _____ . . ____ .. ____
 72
    65
 73
     6
 40
22.5
 49
12.0
 49
-1.5
 49
3.0
 49
-1.5
 49
3.0
 49
-1.5
  0
LTYPE
  2
AMCONSTR
 70
     0
  3
_______________________
 72
    65
 73
     2
 40
9999.0
 49
9999.0
 49
0.0
  0
LTYPE
  2
AM_ISO02W050X2
 70
     0
  3
 _ _ _ _ _ _ _ _ _ _ _ _
 72
    65
 73
     2
 40
3.75
 49
3.0
 49
-0.75
  0
LTYPE
  2
AM_ISO08W050X2
 70
     0
  3
__ . __ . __ . __ . __ . __
 72
    65
 73
     4
 40
9.0
 49
6.0
 49
-0.75
 49
1.5
 49
-0.75
  0
LTYPE
  2
AMZIGZAG
 70
     0
  3
/\/-/\/-/\/-/\/-/\/-/\/
 72
    65
 73
     2
 40
11.0001
 49
0.0001
 49
-11.0
  0
LTYPE
  2
ACJISTGB
 70
     0
  3
__ . . __ . .
 72
    65
 73
     6
 40
9.0
 49
4.0
 49
-1.0
 49
1.0
 49
-1.0
 49
1.0
 49
-1.0
  0
LTYPE
  2
ACJISTGL
 70
     0
  3
_ _ _ _ _
 72
    65
 73
     2
 40
3.0
 49
2.0
 49
-1.0
  0
LTYPE
  2
ACISOWELD
 70
     0
  3
_ _ _ _ _
 72
    65
 73
     2
 40
2.0
 49
2.0
 49
-1.0
  0
LTYPE
  2
ACISOTGB
 70
     0
  3
__ . . __ . .
 72
    65
 73
     6
 40
9.0
 49
4.0
 49
-1.0
 49
1.0
 49
-1.0
 49
1.0
 49
-1.0
  0
LTYPE
  2
ACISOTGL
 70
     0
  3
_ _ _ _ _
 72
    65
 73
     2
 40
3.0
 49
2.0
 49
-1.0
  0
LTYPE
  2
HIDDEN
 70
     0
  3
Hidden __ __ __ __ __ __ __ __ __ __ __ __ __ _
 72
    65
 73
     2
 40
9.5249999999999968
 49
6.3499999999999979
 49
-3.174999999999998
  0
ENDTAB
  0
TABLE
  2
LAYER
 70
     9
  0
LAYER
  2
0
 70
     0
 62
     7
  6
CONTINUOUS
  0
LAYER
  2
ｽﾝﾎﾟｳｾﾝ
 70
     0
 62
     2
  6
CONTINUOUS
  0
LAYER
  2
DEFPOINTS
 70
     0
 62
     7
  6
CONTINUOUS
  0
LAYER
  2
ｷｲﾛ
 70
     0
 62
     2
  6
CONTINUOUS
  0
LAYER
  2
ｶｸﾚｾﾝ2
 70
     0
 62
     3
  6
GEN3B
  0
LAYER
  2
ﾁｭｳｼﾝｾﾝ1
 70
     0
 62
     1
  6
GEN7A
  0
LAYER
  2
AM_0
 70
     0
 62
     7
  6
CONTINUOUS
  0
LAYER
  2
AM_0N
 70
     0
 62
     7
  6
CONTINUOUS
  0
LAYER
  2
AM_5
 70
     0
 62
     2
  6
CONTINUOUS
  0
ENDTAB
  0
TABLE
  2
STYLE
 70
     8
  0
STYLE
  2
STANDARD
 70
     0
 40
0.0
 41
0.8299999999999999
 50
0.0
 71
     0
 42
2.5
  3
txt.shx
  4
bigfont.shx
  0
STYLE
  2
ACANSTS
 70
     0
 40
1.0
 41
1.0
 50
0.0
 71
     0
 42
2.5
  3
romans.shx
  4
bigfont.shx
  0
STYLE
  2
ACANSGDT
 70
     0
 40
0.0
 41
1.0
 50
0.0
 71
     0
 42
2.5
  3
amgdtans.shx
  4

  0
STYLE
  2

 70
     1
 40
0.0
 41
1.0
 50
0.0
 71
     0
 42
2.5
  3
ltypeshp.shx
  4

  0
STYLE
  2
ACJISTS
 70
     0
 40
1.0
 41
1.0
 50
0.0
 71
     0
 42
2.5
  3
isocp.shx
  4
bigfont.shx
  0
STYLE
  2
ACJISGDT
 70
     0
 40
0.0
 41
1.0
 50
0.0
 71
     0
 42
2.5
  3
amgdt.shx
  4

  0
STYLE
  2
ACISOTS
 70
     0
 40
3.0
 41
1.0
 50
0.0
 71
     0
 42
2.5
  3
isocp.shx
  4
extfont.shx
  0
STYLE
  2
ACISOGDT
 70
     0
 40
0.0
 41
1.0
 50
0.0
 71
     0
 42
2.5
  3
amgdt.shx
  4

  0
ENDTAB
  0
TABLE
  2
VIEW
 70
    12
  0
VIEW
  2
GEN1
 70
     0
 40
95.824742268041234
 10
71.5
 20
137.08762886597941
 41
143.0
 11
0.0
 21
0.0
 31
1.0
 12
0.0
 22
0.0
 32
0.0
 42
50.0
 43
0.0
 44
0.0
 50
0.0
 71
     0
  0
VIEW
  2
GEN2
 70
     0
 40
95.824742268041234
 10
214.5
 20
137.08762886597941
 41
143.0
 11
0.0
 21
0.0
 31
1.0
 12
0.0
 22
0.0
 32
0.0
 42
50.0
 43
0.0
 44
0.0
 50
0.0
 71
     0
  0
VIEW
  2
GEN3
 70
     0
 40
95.824742268041234
 10
71.5
 20
47.912371134020603
 41
143.0
 11
0.0
 21
0.0
 31
1.0
 12
0.0
 22
0.0
 32
0.0
 42
50.0
 43
0.0
 44
0.0
 50
0.0
 71
     0
  0
VIEW
  2
GEN4
 70
     0
 40
95.824742268041234
 10
214.5
 20
47.912371134020603
 41
143.0
 11
0.0
 21
0.0
 31
1.0
 12
0.0
 22
0.0
 32
0.0
 42
50.0
 43
0.0
 44
0.0
 50
0.0
 71
     0
  0
VIEW
  2
GEN5
 70
     0
 40
95.824742268041234
 10
143.0
 20
92.500000000000057
 41
143.0
 11
0.0
 21
0.0
 31
1.0
 12
0.0
 22
0.0
 32
0.0
 42
50.0
 43
0.0
 44
0.0
 50
0.0
 71
     0
  0
VIEW
  2
GEN6
 70
     0
 40
191.64756804123709
 10
143.0
 20
92.5
 41
285.99714
 11
0.0
 21
0.0
 31
1.0
 12
0.0
 22
0.0
 32
0.0
 42
50.0
 43
0.0
 44
0.0
 50
0.0
 71
     0
  0
VIEW
  2
AM_VIEW1
 70
     0
 40
277.50000000000011
 10
249.64779005524869
 20
416.25000000000011
 41
499.29558011049721
 11
0.0
 21
0.0
 31
1.0
 12
0.0
 22
0.0
 32
0.0
 42
50.0
 43
0.0
 44
0.0
 50
0.0
 71
    16
  0
VIEW
  2
AM_VIEW2
 70
     0
 40
277.50000000000011
 10
603.85220994475117
 20
416.25000000000011
 41
499.29558011049721
 11
0.0
 21
0.0
 31
1.0
 12
0.0
 22
0.0
 32
0.0
 42
50.0
 43
0.0
 44
0.0
 50
0.0
 71
    16
  0
VIEW
  2
AM_VIEW3
 70
     0
 40
277.50000000000011
 10
249.64779005524869
 20
138.75
 41
499.29558011049721
 11
0.0
 21
0.0
 31
1.0
 12
0.0
 22
0.0
 32
0.0
 42
50.0
 43
0.0
 44
0.0
 50
0.0
 71
    16
  0
VIEW
  2
AM_VIEW4
 70
     0
 40
277.50000000000011
 10
603.85220994475117
 20
138.75
 41
499.29558011049721
 11
0.0
 21
0.0
 31
1.0
 12
0.0
 22
0.0
 32
0.0
 42
50.0
 43
0.0
 44
0.0
 50
0.0
 71
    16
  0
VIEW
  2
AM_VIEW5
 70
     0
 40
277.50000000000011
 10
426.75
 20
277.50000000000011
 41
499.2955801104971
 11
0.0
 21
0.0
 31
1.0
 12
0.0
 22
0.0
 32
0.0
 42
50.0
 43
0.0
 44
0.0
 50
0.0
 71
    16
  0
VIEW
  2
AM_VIEW6
 70
     0
 40
554.99445000000014
 10
426.75
 20
277.5
 41
998.5811743093924
 11
0.0
 21
0.0
 31
1.0
 12
0.0
 22
0.0
 32
0.0
 42
50.0
 43
0.0
 44
0.0
 50
0.0
 71
    16
  0
ENDTAB
  0
TABLE
  2
UCS
 70
     0
  0
ENDTAB
  0
TABLE
  2
APPID
 70
    97
  0
APPID
  2
ACAD
 70
     0
  0
APPID
  2
MCAD_NO_VIS
 70
     0
  0
APPID
  2
ACAD_TEMP_GRAPHIC
 70
     0
  0
APPID
  2
AD_DRAW
 70
     0
  0
APPID
  2
DESIGNERASSEMBLIES
 70
     0
  0
APPID
  2
ASURF_PCURVE_APPNAME
 70
     0
  0
APPID
  2
GENIUS_GE3SECT_13
 70
     0
  0
APPID
  2
GENIUS_GENCFG_13
 70
     0
  0
APPID
  2
GENIUS_GE3CFG0_13
 70
     0
  0
APPID
  2
GENIUS_GENCFG0_13
 70
     0
  0
APPID
  2
GENIUS_GENCFG1_13
 70
     0
  0
APPID
  2
GENIUS_GENCFG2_13
 70
     0
  0
APPID
  2
GENIUS_GENCFG3_13
 70
     0
  0
APPID
  2
GENIUS_GENCFG4_13
 70
     0
  0
APPID
  2
GENIUS_GEVCFG0_13
 70
     0
  0
APPID
  2
GENIUS_GENOENT_13
 70
     0
  0
APPID
  2
GENIUS_GENREC_14
 70
     0
  0
APPID
  2
GENIUS_GENODEF_13
 70
     0
  0
APPID
  2
GENIUS_GENOBJ-N-REC_13
 70
     0
  0
APPID
  2
GENIUS_GENHINW_13
 70
     0
  0
APPID
  2
GENIUS_FIRSTVISTXT_14
 70
     0
  0
APPID
  2
GENIUS_GENOBJ-N-LEADER_13
 70
     0
  0
APPID
  2
GENIUS_GENOREF_13
 70
     0
  0
APPID
  2
GENIUS_GENOLIS_13
 70
     0
  0
APPID
  2
GEV_VCCNULL_SWITCH_OFF
 70
     0
  0
APPID
  2
GENIUS_GENDTOL_13
 70
     0
  0
APPID
  2
GENIUS_GEFCFG0_13
 70
     0
  0
APPID
  2
GENIUS_GENOBJ-N-TIT_13
 70
     0
  0
APPID
  2
GENIUS_GENTITLE_13
 70
     0
  0
APPID
  2
GENIUS_GENZVEED_13
 70
     0
  0
APPID
  2
GENIUS_GENOBJ-N-SDF_13
 70
     0
  0
APPID
  2
GENIUS_GENSCREG_13
 70
     0
  0
APPID
  2
GENIUS_DUMCFG0_13
 70
     0
  0
APPID
  2
GEVID936201362
 70
     0
  0
APPID
  2
GEVDC
 70
     0
  0
APPID
  2
GEVCON
 70
     0
  0
APPID
  2
VCC
 70
     0
  0
APPID
  2
GEVPT
 70
     0
  0
APPID
  2
GEVIT
 70
     0
  0
APPID
  2
GENBH
 70
     0
  0
APPID
  2
GEVMK
 70
     0
  0
APPID
  2
GENIUS_GENBH_13
 70
     0
  0
APPID
  2
GENIUS_GENOBJ-NBEHI-BHF_13
 70
     0
  0
APPID
  2
GENIUS_GENOBJ-NBEHI-BHB_13
 70
     0
  0
APPID
  2
GENIUS_GENOBJ-F-DESC_13
 70
     0
  0
APPID
  2
GENIUS_GEFDESC_14
 70
     0
  0
APPID
  2
GENIUS_GENOBJ-F-PART_13
 70
     0
  0
APPID
  2
GENIUS_GEFSTDP_13
 70
     0
  0
APPID
  2
GENIUS_GEFPARTINS_13
 70
     0
  0
APPID
  2
GENIUS_GENTRA_14
 70
     0
  0
APPID
  2
GENIUS_GENINF13_13
 70
     0
  0
APPID
  2
GENIUS_GENOBJ-N-INFOPT_13
 70
     0
  0
APPID
  2
GENIUS_GENOBJ-N-RSSYM_13
 70
     0
  0
APPID
  2
GENIUS_GENSYMENT_13
 70
     0
  0
APPID
  2
GENIUS_GENSCSYM_13
 70
     0
  0
APPID
  2
GENIUS_GEFINFNAM_13
 70
     0
  0
APPID
  2
GENIUS_GENSCREG_15
 70
     0
  0
APPID
  2
GENIUS_GENOBJ-N-CEN_13
 70
     0
  0
APPID
  2
GENIUS_GENOBJ-N-CRS_13
 70
     0
  0
APPID
  2
GENIUS_GENOBJ-N-CRC_13
 70
     0
  0
APPID
  2
GENIUS_GENCRC_14
 70
     0
  0
APPID
  2
GEVID942827039
 70
     0
  0
APPID
  2
GEVID942827040
 70
     0
  0
APPID
  2
GEVID942827041
 70
     0
  0
APPID
  2
GENIUS_GENOBJ-F-SCPASSM_13
 70
     0
  0
APPID
  2
GENIUS_GENDIMSH_14
 70
     0
  0
APPID
  2
GENIUS_GENFIL_13
 70
     0
  0
APPID
  2
GENIUS_GENOBJ-N-CHA_13
 70
     0
  0
APPID
  2
GENIUS_GENOBJ-N-FIL_13
 70
     0
  0
APPID
  2
GEVID942827042
 70
     0
  0
APPID
  2
GEVID946020473
 70
     0
  0
APPID
  2
GEVID946020474
 70
     0
  0
APPID
  2
GEVID946020475
 70
     0
  0
APPID
  2
GENIUS_GENOBJ-N-HTC_13
 70
     0
  0
APPID
  2
GENIUS_GENHATCH_13
 70
     0
  0
APPID
  2
GEVID948854295
 70
     0
  0
APPID
  2
GEVID939402019
 70
     0
  0
APPID
  2
GEVID952919491
 70
     0
  0
APPID
  2
GEVID952919492
 70
     0
  0
APPID
  2
GENIUS_GEFWELD_13
 70
     0
  0
APPID
  2
GENIUS_GENOBJ-F-WELS_13
 70
     0
  0
APPID
  2
GEVID952919493
 70
     0
  0
APPID
  2
GENIUS_GENOBJ-N-RSBK_13
 70
     0
  0
APPID
  2
GENIUS_GENOBJ-N-LIB_13
 70
     0
  0
APPID
  2
GENIUS_GENSCALE_13
 70
     0
  0
APPID
  2
GEVID986376691
 70
     0
  0
APPID
  2
ACATTRIBSERVICES
 70
     0
  0
APPID
  2
DCO15
 70
     0
  0
APPID
  2
GEVID1088155249
 70
     0
  0
APPID
  2
ACADM_DIM_EDIT
 70
     0
  0
APPID
  2
AMDT_DM_ADJ
 70
     0
  0
APPID
  2
ACAD_MLEADERVER
 70
     0
  0
APPID
  2
ACAD_DSTYLE_DIMBREAK
 70
     0
  0
APPID
  2
ACAD_DSTYLE_DIMJAG
 70
     0
  0
APPID
  2
ACAD_NAV_VCDISPLAY
 70
     0
  0
APPID
  2
ACADANNOPO
 70
     0
  0
APPID
  2
ACAD_EXEMPT_FROM_CAD_STANDARDS
 70
     0
  0
ENDTAB
  0
TABLE
  2
DIMSTYLE
 70
    16
  0
DIMSTYLE
  2
STANDARD
 70
     0
  3

  4

  5

  6

  7

 40
1.0
 41
0.18
 42
0.0625
 43
0.38
 44
0.18
 45
0.0
 46
0.0
 47
0.0
 48
0.0
140
0.18
141
0.09
142
0.0
143
25.399999999999999
144
1.0
145
0.0
146
1.0
147
0.09
 71
     0
 72
     0
 73
     1
 74
     1
 75
     0
 76
     0
 77
     0
 78
     0
170
     0
171
     2
172
     0
173
     0
174
     0
175
     0
176
     0
177
     0
178
     0
  0
DIMSTYLE
  2
AM_JIS
 70
     0
  3

  4
"
  5

  6

  7

 40
1.0
 41
2.5
 42
1.0
 43
7.0
 44
1.0
 45
0.0
 46
0.0
 47
0.1
 48
0.1000000001
140
2.5
141
0.0
142
0.0
143
0.0393701
144
1.0
145
0.0
146
0.71
147
1.0
 71
     0
 72
     0
 73
     0
 74
     0
 75
     0
 76
     0
 77
     3
 78
     8
170
     0
171
     2
172
     1
173
     0
174
     0
175
     0
176
   256
177
   256
178
     4
  0
DIMSTYLE
  2
AM_JIS$3
 70
     0
  3

  4
"
  5

  6

  7

 40
1.0
 41
2.5
 42
1.0
 43
7.0
 44
1.0
 45
0.0
 46
0.0
 47
0.1
 48
0.1000000001
140
2.5
141
0.0
142
0.0
143
0.0393701
144
1.0
145
0.0
146
0.71
147
1.0
 71
     0
 72
     0
 73
     0
 74
     1
 75
     0
 76
     0
 77
     3
 78
     8
170
     0
171
     2
172
     0
173
     0
174
     0
175
     0
176
   256
177
   256
178
     4
  0
DIMSTYLE
  2
AM_JIS$4
 70
     0
  3

  4
"
  5

  6

  7

 40
1.0
 41
2.5
 42
1.0
 43
7.0
 44
1.0
 45
0.0
 46
0.0
 47
0.1
 48
0.1000000001
140
2.5
141
0.0
142
0.0
143
0.0393701
144
1.0
145
0.0
146
0.71
147
1.0
 71
     0
 72
     0
 73
     0
 74
     0
 75
     0
 76
     0
 77
     3
 78
     8
170
     0
171
     2
172
     0
173
     0
174
     0
175
     0
176
   256
177
   256
178
     4
  0
DIMSTYLE
  2
AM_JIS$6
 70
     0
  3

  4
"
  5

  6

  7

 40
1.0
 41
2.5
 42
1.0
 43
7.0
 44
1.0
 45
0.0
 46
0.0
 47
0.1
 48
0.1000000001
140
2.5
141
0.0
142
0.0
143
0.0393701
144
1.0
145
0.0
146
0.71
147
1.0
 71
     0
 72
     0
 73
     0
 74
     0
 75
     0
 76
     0
 77
     0
 78
     8
170
     0
171
     2
172
     1
173
     0
174
     0
175
     0
176
   256
177
   256
178
     4
  0
DIMSTYLE
  2
AM_JIS$7
 70
     0
  3

  4
"
  5

  6

  7

 40
1.0
 41
2.5
 42
1.0
 43
7.0
 44
1.0
 45
0.0
 46
0.0
 47
0.1
 48
0.1000000001
140
2.5
141
0.0
142
0.0
143
0.0393701
144
1.0
145
0.0
146
0.71
147
1.0
 71
     0
 72
     0
 73
     0
 74
     0
 75
     0
 76
     0
 77
     3
 78
     8
170
     0
171
     2
172
     1
173
     0
174
     0
175
     0
176
   256
177
   256
178
     4
  0
DIMSTYLE
  2
AM_JIS$SF
 70
     0
  3

  4
"
  5
OPEN30
  6
OPEN30
  7
OPEN30
 40
1.0
 41
2.5
 42
1.0
 43
10.0
 44
1.0
 45
0.0
 46
0.0
 47
0.1
 48
0.1
140
3.5
141
0.0
142
0.0
143
0.0393701
144
1.0
145
0.0
146
0.71
147
1.5
 71
     0
 72
     0
 73
     0
 74
     0
 75
     1
 76
     1
 77
     3
 78
     8
170
     0
171
     2
172
     1
173
     0
174
     0
175
     0
176
   256
177
   256
178
     4
  0
DIMSTYLE
  2
AM_JIS$SH
 70
     0
  3

  4
"
  5

  6
NONE
  7

 40
1.0
 41
2.5
 42
1.0
 43
10.0
 44
1.0
 45
0.0
 46
0.0
 47
0.1
 48
0.1
140
3.5
141
0.0
142
0.0
143
0.0393701
144
1.0
145
0.0
146
0.71
147
1.5
 71
     0
 72
     0
 73
     0
 74
     0
 75
     1
 76
     0
 77
     3
 78
     8
170
     0
171
     2
172
     1
173
     1
174
     0
175
     0
176
   256
177
   256
178
     4
  0
DIMSTYLE
  2
AM_ISO
 70
     0
  3

  4
"
  5

  6

  7

 40
1.0
 41
2.5
 42
1.0
 43
10.0
 44
1.0
 45
0.0
 46
0.0
 47
0.0
 48
0.000000001
140
3.0
141
0.0
142
0.0
143
0.0393701
144
1.0
145
0.0
146
0.71
147
1.299999999999998
 71
     1
 72
     0
 73
     0
 74
     0
 75
     0
 76
     0
 77
     1
 78
     8
170
     0
171
     2
172
     1
173
     0
174
     0
175
     0
176
   256
177
   256
178
     4
  0
DIMSTYLE
  2
AM_ISO$3
 70
     0
  3

  4
"
  5

  6

  7

 40
1.0
 41
2.5
 42
1.0
 43
10.0
 44
1.0
 45
0.0
 46
0.0
 47
0.0
 48
0.000000001
140
2.5
141
0.0
142
0.0
143
0.0393701
144
1.0
145
0.0
146
0.71
147
1.299999999999998
 71
     1
 72
     0
 73
     0
 74
     1
 75
     0
 76
     0
 77
     1
 78
     8
170
     0
171
     2
172
     0
173
     0
174
     0
175
     0
176
   256
177
   256
178
     4
  0
DIMSTYLE
  2
AM_ISO$4
 70
     0
  3

  4
"
  5

  6

  7

 40
1.0
 41
2.5
 42
1.0
 43
10.0
 44
1.0
 45
0.0
 46
0.0
 47
0.0
 48
0.000000001
140
2.5
141
0.0
142
0.0
143
0.0393701
144
1.0
145
0.0
146
0.71
147
1.299999999999998
 71
     1
 72
     0
 73
     0
 74
     1
 75
     0
 76
     0
 77
     1
 78
     8
170
     0
171
     2
172
     0
173
     0
174
     0
175
     0
176
   256
177
   256
178
     4
  0
DIMSTYLE
  2
AM_ISO$6
 70
     0
  3

  4
"
  5

  6

  7

 40
1.0
 41
2.5
 42
1.0
 43
10.0
 44
1.0
 45
0.0
 46
0.0
 47
0.0
 48
0.000000001
140
2.5
141
0.0
142
0.0
143
0.0393701
144
1.0
145
0.0
146
0.71
147
1.299999999999998
 71
     1
 72
     0
 73
     0
 74
     0
 75
     0
 76
     0
 77
     0
 78
     8
170
     0
171
     2
172
     1
173
     0
174
     0
175
     0
176
   256
177
   256
178
     4
  0
DIMSTYLE
  2
AM_ISO$7
 70
     0
  3

  4
"
  5

  6

  7

 40
1.0
 41
2.5
 42
1.0
 43
10.0
 44
1.0
 45
0.0
 46
0.0
 47
0.0
 48
0.000000001
140
2.5
141
0.0
142
0.0
143
0.0393701
144
1.0
145
0.0
146
0.71
147
1.299999999999998
 71
     1
 72
     0
 73
     0
 74
     0
 75
     0
 76
     0
 77
     1
 78
     8
170
     0
171
     2
172
     1
173
     0
174
     0
175
     0
176
   256
177
   256
178
     4
  0
DIMSTYLE
  2
AM_ISO$SF
 70
     0
  3

  4
"
  5

  6

  7

 40
1.0
 41
2.5
 42
1.0
 43
10.0
 44
1.0
 45
0.0
 46
0.0
 47
0.1
 48
0.1
140
3.5
141
0.0
142
0.0
143
0.0393701
144
1.0
145
0.0
146
0.71
147
1.5
 71
     0
 72
     0
 73
     0
 74
     0
 75
     1
 76
     1
 77
     1
 78
     8
170
     0
171
     2
172
     1
173
     0
174
     0
175
     0
176
   256
177
   256
178
     4
  0
DIMSTYLE
  2
AM_ISO$SH
 70
     0
  3

  4
"
  5

  6
GENAXEH
  7

 40
1.0
 41
2.5
 42
1.0
 43
10.0
 44
1.0
 45
0.0
 46
0.0
 47
0.1
 48
0.1
140
3.5
141
0.0
142
0.0
143
0.0393701
144
2.0
145
0.0
146
0.71
147
1.5
 71
     0
 72
     0
 73
     0
 74
     0
 75
     1
 76
     1
 77
     1
 78
     8
170
     0
171
     2
172
     1
173
     1
174
     0
175
     0
176
   256
177
   256
178
     4
  0
DIMSTYLE
  2
AM_JIS$0
 70
     0
  3

  4
"
  5

  6

  7

 40
1.0
 41
2.5
 42
1.0
 43
7.0
 44
1.0
 45
0.0
 46
0.0
 47
0.1
 48
0.1000000001
140
2.5
141
0.0
142
0.0
143
0.0393701
144
1.0
145
0.0
146
0.71
147
1.0
 71
     0
 72
     0
 73
     0
 74
     0
 75
     0
 76
     0
 77
     3
 78
     8
170
     0
171
     2
172
     1
173
     0
174
     0
175
     0
176
   256
177
   256
178
     4
  0
ENDTAB
  0
ENDSEC
  0
SECTION
  2
BLOCKS
  0
BLOCK
  8
0
  2
$MODEL_SPACE
 70
     0
 10
0.0
 20
0.0
 30
0.0
  3
$MODEL_SPACE
  1

  0
ENDBLK
  5
1A
  8
0
  0
BLOCK
 67
     1
  8
0
  2
$PAPER_SPACE
 70
     0
 10
0.0
 20
0.0
 30
0.0
  3
$PAPER_SPACE
  1

  0
ENDBLK
  5
17
 67
     1
  8
0
  0
BLOCK
  8
0
  2
_OPEN30
 70
     0
 10
0.0
 20
0.0
 30
0.0
  3
_OPEN30
  1

  0
LINE
  5
21C5
  8
0
 62
     0
 10
-1.0
 20
0.26794919
 30
0.0
 11
0.0
 21
0.0
 31
0.0
  0
LINE
  5
21C6
  8
0
 62
     0
 10
0.0
 20
0.0
 30
0.0
 11
-1.0
 21
-0.26794919
 31
0.0
  0
LINE
  5
21C7
  8
0
 62
     0
 10
0.0
 20
0.0
 30
0.0
 11
-1.0
 21
0.0
 31
0.0
  0
ENDBLK
  5
21C9
  8
0
  0
BLOCK
  8
0
  2
GENAXEH
 70
     0
 10
0.0
 20
0.0
 30
0.0
  3
GENAXEH
  1

  0
LINE
  5
21D0
  8
0
 10
-1.0
 20
0.0
 30
0.0
 11
1.0
 21
0.0
 31
0.0
  0
ENDBLK
  5
21D2
  8
0
  0
BLOCK
  8
0
  2
_NONE
 70
     0
 10
0.0
 20
0.0
 30
0.0
  3
_NONE
  1

  0
ENDBLK
  5
8193
  8
0
  0
ENDSEC
  0
SECTION
  2
ENTITIES
  0
POINT
  5
1B94
  8
0
 10
0.0
 20
0.0
 30
0.0
1001
GENIUS_GENODEF_13
1002
{
1000
HIER
1070
     1
1002
}
1002
{
1000
MANEDIT
1070
     0
1002
}
1002
{
1000
NOSEL
1070
     0
1002
}
1002
{
1000
BEHIND
1070
     0
1002
}
1002
{
1000
REACTOR
1002
}
1001
GENIUS_GENOBJ-N-SDF_13
1002
{
1000
OWNER
1000
GEN
1002
}
1001
GENIUS_GENOENT_13
1002
{
1000
MYREF
1005
1B94
1002
}
1002
{
1000
GRP
1005
0
1002
}
1001
GENIUS_GENOLIS_13
1002
{
1000
ENT
1005
89
1002
}
  0
ARC
  5
13707
  8
0
 10
373.64102997361368
 20
303.07254707683779
 30
0.0
 40
12.0
 50
90.0
 51
156.070183125966
  0
ARC
  5
13708
  8
0
 10
374.95473742951731
 20
282.07254707683802
 30
0.0
 40
3.0
 50
90.0
 51
199.47122063448779
1001
GENIUS_GENODEF_13
1002
{
1000
HIER
1070
     0
1002
}
1002
{
1000
MANEDIT
1070
     0
1002
}
1002
{
1000
NOSEL
1070
     0
1002
}
1002
{
1000
BEHIND
1070
     0
1002
}
1002
{
1000
OTHER
1070
     0
1002
}
1002
{
1000
REACTOR
1002
}
1001
GENIUS_GENOBJ-N-FIL_13
1002
{
1000
OWNER
1000
GEN
1002
}
  0
ARC
  5
13709
  8
0
 10
363.64102893053251
 20
278.07254707683768
 30
0.0
 40
9.0
 50
239.99999162024909
 51
19.4712206344878
  0
LINE
  5
1370A
  8
AM_0
 10
418.9231807294309
 20
285.07254707683808
 30
0.0
 11
359.64102741061402
 21
285.07254707683791
 31
0.0
  0
ARC
  5
1370B
  8
0
 10
373.64103116570669
 20
303.0725458847449
 30
0.0
 40
9.0
 50
221.44585651111089
 51
343.30075622292458
  0
ARC
  5
1370C
  8
0
 10
374.95473742951731
 20
194.07254707683759
 30
0.0
 40
3.0
 50
160.52877936551209
 51
270.0
1001
GENIUS_GENODEF_13
1002
{
1000
HIER
1070
     0
1002
}
1002
{
1000
MANEDIT
1070
     0
1002
}
1002
{
1000
NOSEL
1070
     0
1002
}
1002
{
1000
BEHIND
1070
     0
1002
}
1002
{
1000
OTHER
1070
     0
1002
}
1002
{
1000
REACTOR
1002
}
1001
GENIUS_GENOBJ-N-FIL_13
1002
{
1000
OWNER
1000
GEN
1002
}
  0
LINE
  5
1370D
  8
AM_0
 10
418.9231807294309
 20
191.07254707683779
 30
0.0
 11
359.64102741061402
 21
191.07254707683779
 31
0.0
  0
ARC
  5
1370E
  8
0
 10
373.64102997361368
 20
173.07254707683759
 30
0.0
 40
12.0
 50
203.92981687403369
 51
270.0
  0
ARC
  5
1370F
  8
0
 10
373.64103116570669
 20
173.07254826893049
 30
0.0
 40
9.0
 50
33.94543635354821
 51
138.554143488889
  0
ARC
  5
13710
  8
0
 10
363.64102893053251
 20
198.07254707683759
 30
0.0
 40
9.0
 50
340.52877936551221
 51
120.0000083797508
  0
LINE
  5
13711
  8
ﾁｭｳｼﾝｾﾝ1
 10
360.64102997361402
 20
303.07254707683779
 30
0.0
 11
386.64102997361368
 21
303.07254707683779
 31
0.0
1001
GENIUS_GENODEF_13
1002
{
1000
HIER
1070
     0
1002
}
1002
{
1000
MANEDIT
1070
     0
1002
}
1002
{
1000
NOSEL
1070
     0
1002
}
1002
{
1000
BEHIND
1070
     0
1002
}
1002
{
1000
OTHER
1070
     0
1002
}
1002
{
1000
REACTOR
1002
}
1001
GENIUS_GENOBJ-N-CEN_13
1002
{
1000
OWNER
1000
GEN
1002
}
  0
CIRCLE
  5
13712
  8
0
 10
373.64102997361368
 20
303.07254707683779
 30
0.0
 40
4.4999999999999982
  0
LINE
  5
13714
  8
ﾁｭｳｼﾝｾﾝ1
 10
360.64102997361402
 20
173.07254707683791
 30
0.0
 11
386.64102997361368
 21
173.07254707683791
 31
0.0
1001
GENIUS_GENODEF_13
1002
{
1000
HIER
1070
     0
1002
}
1002
{
1000
MANEDIT
1070
     0
1002
}
1002
{
1000
NOSEL
1070
     0
1002
}
1002
{
1000
BEHIND
1070
     0
1002
}
1002
{
1000
OTHER
1070
     0
1002
}
1002
{
1000
REACTOR
1002
}
1001
GENIUS_GENOBJ-N-CEN_13
1002
{
1000
OWNER
1000
GEN
1002
}
  0
CIRCLE
  5
13715
  8
0
 10
373.64102997361368
 20
173.07254707683791
 30
0.0
 40
4.4999999999999982
  0
LINE
  5
13718
  8
ﾁｭｳｼﾝｾﾝ1
 10
343.64739597646422
 20
238.07254707683779
 30
0.0
 11
700.41871991939013
 21
238.07254707683779
 31
0.0
  0
ARC
  5
1371C
  8
0
 10
357.64102741061402
 20
267.68024310894998
 30
0.0
 40
3.0
 50
59.999991620249162
 51
180.0
1001
GENIUS_GENOBJ-N-FIL_13
1002
{
1000
OWNER
1000
GEN
1002
}
1001
GENIUS_GENODEF_13
1002
{
1000
HIER
1070
     0
1002
}
1002
{
1000
MANEDIT
1070
     0
1002
}
1002
{
1000
NOSEL
1070
     0
1002
}
1002
{
1000
BEHIND
1070
     0
1002
}
1002
{
1000
OTHER
1070
     0
1002
}
1002
{
1000
REACTOR
1002
}
  0
LINE
  5
1371D
  8
AM_0
 10
354.64102741061402
 20
278.07254826893069
 30
0.0
 11
354.64102741061402
 21
238.07254707683779
 31
0.0
  0
LINE
  5
1371E
  8
AM_0
 10
350.64102741061402
 20
278.07254826893069
 30
0.0
 11
350.64102741061402
 21
198.07254588474521
 31
0.0
  0
LINE
  5
13721
  8
AM_0
 10
129.09099836556661
 20
269.57254827489089
 30
0.0
 11
129.09099836556661
 21
286.57254827489101
 31
0.0
  0
LINE
  5
13722
  8
0
 10
238.68099908956199
 20
161.07254626064201
 30
0.0
 11
238.68099952940361
 21
315.07254790839329
 31
0.0
  0
LINE
  5
13723
  8
AM_0
 10
130.6809983655665
 20
287.9728794735056
 30
0.0
 11
130.6809983655665
 21
188.1722146801699
 31
0.0
  0
LINE
  5
13724
  8
AM_0
 10
193.68100024311269
 20
289.07254859675641
 30
0.0
 11
193.68100024311269
 21
187.07254555691949
 31
0.0
  0
LINE
  5
13729
  8
ﾁｭｳｼﾝｾﾝ1
 10
168.6809993080546
 20
129.8665410902538
 30
0.0
 11
168.6809993080546
 21
308.6536400633392
 31
0.0
  0
ARC
  5
13731
  8
AM_0
 10
168.68099949805469
 20
238.07254707683779
 30
0.0
 40
56.499999999999972
 50
242.48212463479919
 51
295.51787536520169
  0
LINE
  5
13732
  8
AM_0
 10
193.68100024311411
 20
187.07254555691941
 30
0.0
 11
130.68099836556621
 21
188.1722146801699
 31
0.0
  0
LINE
  5
13735
  8
ﾁｭｳｼﾝｾﾝ1
 10
271.17527621197428
 20
238.07254707683791
 30
0.0
 11
102.1809993080546
 21
238.07254707683779
 31
0.0
  0
LINE
  5
13737
  8
AM_0
 10
134.7147015502668
 20
181.0376475801356
 30
0.0
 11
134.96123712825479
 21
188.09750283465891
 31
0.0
  0
LINE
  5
13738
  8
AM_0
 10
132.6472974458427
 20
181.03764758013531
 30
0.0
 11
132.39920019284691
 21
188.142223355715
 31
0.0
  0
ARC
  5
13739
  8
AM_0
 10
136.71844855407659
 20
182.1131829548471
 30
0.0
 40
1.965536666759129
 50
3.1584702260748112
 51
179.35044678892791
  0
ARC
  5
13A27
  8
AM_0
 10
133.64668827286161
 20
181.07254707683799
 30
0.0
 40
0.9999999999999996
 50
181.9999999999971
 51
270.0
1001
GENIUS_GENODEF_13
1002
{
1000
HIER
1070
     0
1002
}
1002
{
1000
MANEDIT
1070
     0
1002
}
1002
{
1000
NOSEL
1070
     0
1002
}
1002
{
1000
BEHIND
1070
     0
1002
}
1002
{
1000
REACTOR
1002
}
1001
GENIUS_GENOBJ-N-FIL_13
1002
{
1000
OWNER
1000
GEN
1002
}
  0
LINE
  5
13A28
  8
AM_0
 10
133.71531072324771
 20
180.07254707683779
 30
0.0
 11
133.64668827286161
 21
180.07254707683779
 31
0.0
  0
ARC
  5
13A29
  8
AM_0
 10
133.71531072324771
 20
181.07254707683799
 30
0.0
 40
0.9999999999999996
 50
269.999999999995
 51
357.99999999999642
1001
GENIUS_GENODEF_13
1002
{
1000
HIER
1070
     0
1002
}
1002
{
1000
MANEDIT
1070
     0
1002
}
1002
{
1000
NOSEL
1070
     0
1002
}
1002
{
1000
BEHIND
1070
     0
1002
}
1002
{
1000
REACTOR
1002
}
1001
GENIUS_GENOBJ-N-FIL_13
1002
{
1000
OWNER
1000
GEN
1002
}
  0
LINE
  5
13A2E
  8
AM_0
 10
126.68099824635721
 20
265.57254789640172
 30
0.0
 11
126.68099824635721
 21
210.57254625727421
 31
0.0
  0
LINE
  5
13A2F
  8
AM_0
 10
129.09099836556661
 20
206.57254587878489
 30
0.0
 11
129.09099836556661
 21
189.57254587878469
 31
0.0
  0
LINE
  5
13A30
  8
0
 10
121.0909983655667
 20
204.57254587878489
 30
0.0
 11
129.09099836556661
 21
204.57254587878489
 31
0.0
  0
LINE
  5
13A31
  8
0
 10
129.09099836556661
 20
191.57254587878481
 30
0.0
 11
121.0909983655667
 21
191.57254587878481
 31
0.0
  0
LINE
  5
13A32
  8
0
 10
130.6809983655665
 20
189.57254587878469
 30
0.0
 11
129.09099836556661
 21
189.57254587878469
 31
0.0
  0
LINE
  5
13A33
  8
0
 10
130.6809983655665
 20
206.57254587878481
 30
0.0
 11
129.09099836556661
 21
206.57254587878481
 31
0.0
  0
LINE
  5
13A34
  8
AM_0
 10
126.68099824635721
 20
210.57254625727401
 30
0.0
 11
130.6809983655665
 21
210.57254625727401
 31
0.0
  0
LINE
  5
13A37
  8
0
 10
130.6809983655665
 20
269.57254827489101
 30
0.0
 11
129.09099836556661
 21
269.57254827489101
 31
0.0
  0
LINE
  5
13A38
  8
AM_0
 10
126.68099824635721
 20
265.57254789640172
 30
0.0
 11
130.6809983655665
 21
265.57254789640172
 31
0.0
  0
ARC
  5
13A39
  8
0
 10
219.68099946487089
 20
183.16266573078769
 30
0.0
 40
2.9999999999999978
 50
0.0000001678559361
 51
87.999999999999616
1001
GENIUS_GENOBJ-N-FIL_13
1002
{
1000
OWNER
1000
GEN
1002
}
1001
GENIUS_GENODEF_13
1002
{
1000
HIER
1070
     0
1002
}
1002
{
1000
MANEDIT
1070
     0
1002
}
1002
{
1000
NOSEL
1070
     0
1002
}
1002
{
1000
BEHIND
1070
     0
1002
}
1002
{
1000
OTHER
1070
     0
1002
}
1002
{
1000
REACTOR
1002
}
  0
LINE
  5
13A3C
  8
AM_0
 10
204.71470155026671
 20
181.03764758013531
 30
0.0
 11
204.9117455015483
 21
186.6802480769025
 31
0.0
  0
LINE
  5
13A3D
  8
AM_0
 10
202.6472974458427
 20
181.0376475801356
 30
0.0
 11
202.44724813825661
 21
186.76631022123911
 31
0.0
  0
ARC
  5
13A40
  8
AM_0
 10
200.64355044203259
 20
182.1131829548471
 30
0.0
 40
1.965536666759129
 50
0.6495532110655964
 51
176.84152977392509
  0
LINE
  5
13A42
  8
ﾁｭｳｼﾝｾﾝ1
 10
218.88618476809049
 20
173.07254707683791
 30
0.0
 11
244.88618476809049
 21
173.07254707683791
 31
0.0
1001
GENIUS_GENODEF_13
1002
{
1000
HIER
1070
     0
1002
}
1002
{
1000
MANEDIT
1070
     0
1002
}
1002
{
1000
NOSEL
1070
     0
1002
}
1002
{
1000
BEHIND
1070
     0
1002
}
1002
{
1000
OTHER
1070
     0
1002
}
1002
{
1000
REACTOR
1002
}
1001
GENIUS_GENOBJ-N-CEN_13
1002
{
1000
OWNER
1000
GEN
1002
}
  0
LINE
  5
13CF4
  8
AM_0
 10
203.6466882728615
 20
180.07254707683779
 30
0.0
 11
203.7153107232476
 21
180.07254707683779
 31
0.0
  0
ARC
  5
13CF5
  8
AM_0
 10
203.6466882728615
 20
181.07254707683799
 30
0.0
 40
0.9999999999999996
 50
181.9999999999971
 51
270.0
1001
GENIUS_GENODEF_13
1002
{
1000
HIER
1070
     0
1002
}
1002
{
1000
MANEDIT
1070
     0
1002
}
1002
{
1000
NOSEL
1070
     0
1002
}
1002
{
1000
BEHIND
1070
     0
1002
}
1002
{
1000
REACTOR
1002
}
1001
GENIUS_GENOBJ-N-FIL_13
1002
{
1000
OWNER
1000
GEN
1002
}
  0
ARC
  5
13CF6
  8
AM_0
 10
203.7153107232476
 20
181.07254707683799
 30
0.0
 40
0.9999999999999996
 50
269.999999999995
 51
357.99999999999642
1001
GENIUS_GENODEF_13
1002
{
1000
HIER
1070
     0
1002
}
1002
{
1000
MANEDIT
1070
     0
1002
}
1002
{
1000
NOSEL
1070
     0
1002
}
1002
{
1000
BEHIND
1070
     0
1002
}
1002
{
1000
REACTOR
1002
}
1001
GENIUS_GENOBJ-N-FIL_13
1002
{
1000
OWNER
1000
GEN
1002
}
  0
ARC
  5
13CF8
  8
0
 10
224.68099952229159
 20
163.562656107013
 30
0.0
 40
1.9999999999999989
 50
180.00000016364311
 51
267.9999999999996
1001
GENIUS_GENOBJ-N-FIL_13
1002
{
1000
OWNER
1000
GEN
1002
}
1001
GENIUS_GENODEF_13
1002
{
1000
HIER
1070
     0
1002
}
1002
{
1000
MANEDIT
1070
     0
1002
}
1002
{
1000
NOSEL
1070
     0
1002
}
1002
{
1000
BEHIND
1070
     0
1002
}
1002
{
1000
OTHER
1070
     0
1002
}
1002
{
1000
REACTOR
1002
}
  0
LINE
  5
13CF9
  8
0
 10
224.61120052888651
 20
161.5638744529748
 30
0.0
 11
238.6809995579473
 21
161.0725462442856
 31
0.0
  0
LINE
  5
13CFA
  8
0
 10
222.68099946487081
 20
183.16266573957671
 30
0.0
 11
222.68099952229159
 21
163.56265610130069
 31
0.0
  0
LINE
  5
13D00
  8
ｶｸﾚｾﾝ2
 10
210.68100074975229
 20
263.57254789640172
 30
0.0
 11
210.6810007497522
 21
212.57254625727401
 31
0.0
  0
LINE
  5
13D01
  8
0
 10
193.67463270001261
 20
187.07265670279779
 30
0.0
 11
219.7856979549783
 21
186.16083821184509
 31
0.0
  0
LINE
  5
13D0E
  8
0
 10
361.90392357671141
 20
179.79864036488769
 30
0.0
 11
355.41464048649209
 21
194.42198994326739
 31
0.0
  0
LINE
  5
13D0F
  8
0
 10
362.67251403721281
 20
168.20513933216341
 30
0.0
 11
351.75846850769182
 21
192.79952069504259
 31
0.0
  0
ARC
  5
13D16
  8
0
 10
364.64605256081148
 20
181.0154923010563
 30
0.0
 40
3.0
 50
203.92981687403369
 51
318.554143488889
1001
GENIUS_GENOBJ-N-FIL_13
1002
{
1000
OWNER
1000
GEN
1002
}
1001
GENIUS_GENODEF_13
1002
{
1000
HIER
1070
     0
1002
}
1002
{
1000
MANEDIT
1070
     0
1002
}
1002
{
1000
NOSEL
1070
     0
1002
}
1002
{
1000
BEHIND
1070
     0
1002
}
1002
{
1000
OTHER
1070
     0
1002
}
1002
{
1000
REACTOR
1002
}
  0
LINE
  5
13D18
  8
AM_0
 10
354.64102741061402
 20
238.07254707683779
 30
0.0
 11
354.64102741061402
 21
198.0725458847449
 31
0.0
  0
ARC
  5
13D19
  8
0
 10
357.64102741061402
 20
208.46485104472549
 30
0.0
 40
3.0
 50
180.0
 51
300.0000083797508
1001
GENIUS_GENOBJ-N-FIL_13
1002
{
1000
OWNER
1000
GEN
1002
}
1001
GENIUS_GENODEF_13
1002
{
1000
HIER
1070
     0
1002
}
1002
{
1000
MANEDIT
1070
     0
1002
}
1002
{
1000
NOSEL
1070
     0
1002
}
1002
{
1000
BEHIND
1070
     0
1002
}
1002
{
1000
OTHER
1070
     0
1002
}
1002
{
1000
REACTOR
1002
}
  0
ARC
  5
13D1A
  8
AM_0
 10
363.64102773843962
 20
198.07254588474481
 30
0.0
 40
13.00000032782555
 50
179.99999499103649
 51
203.92981687403369
  0
ARC
  5
13D1B
  8
AM_0
 10
363.64102773843962
 20
198.07254588474481
 30
0.0
 40
9.0000003278255516
 50
179.99999499103649
 51
203.92981687403369
  0
CIRCLE
  5
13D1C
  8
0
 10
363.64102773843962
 20
198.07254707683791
 30
0.0
 40
3.25
  0
CIRCLE
  5
13D1D
  8
ｷｲﾛ
 10
363.64102773843962
 20
198.07254707683791
 30
0.0
 40
4.0
  0
ARC
  5
13D1E
  8
AM_0
 10
359.64102741061402
 20
196.07254707683771
 30
0.0
 40
5.0
 50
228.9011962787331
 51
270.0
1001
GENIUS_GENODEF_13
1002
{
1000
HIER
1070
     0
1002
}
1002
{
1000
MANEDIT
1070
     0
1002
}
1002
{
1000
NOSEL
1070
     0
1002
}
1002
{
1000
BEHIND
1070
     0
1002
}
1002
{
1000
OTHER
1070
     0
1002
}
1002
{
1000
REACTOR
1002
}
1001
GENIUS_GENOBJ-N-FIL_13
1002
{
1000
OWNER
1000
GEN
1002
}
  0
ARC
  5
13D1F
  8
0
 10
356.64102741061402
 20
234.07254707683779
 30
0.0
 40
2.0
 50
90.0
 51
180.0
1001
GENIUS_GENODEF_13
1002
{
1000
HIER
1070
     0
1002
}
1002
{
1000
MANEDIT
1070
     0
1002
}
1002
{
1000
NOSEL
1070
     0
1002
}
1002
{
1000
BEHIND
1070
     0
1002
}
1002
{
1000
OTHER
1070
     0
1002
}
1002
{
1000
REACTOR
1002
}
1001
GENIUS_GENOBJ-N-FIL_13
1002
{
1000
OWNER
1000
GEN
1002
}
  0
ARC
  5
13D20
  8
0
 10
356.64102741061402
 20
242.07254707683779
 30
0.0
 40
2.0
 50
180.0
 51
270.0
1001
GENIUS_GENOBJ-N-FIL_13
1002
{
1000
OWNER
1000
GEN
1002
}
1001
GENIUS_GENODEF_13
1002
{
1000
HIER
1070
     0
1002
}
1002
{
1000
MANEDIT
1070
     0
1002
}
1002
{
1000
NOSEL
1070
     0
1002
}
1002
{
1000
BEHIND
1070
     0
1002
}
1002
{
1000
OTHER
1070
     0
1002
}
1002
{
1000
REACTOR
1002
}
  0
ARC
  5
13D21
  8
0
 10
358.64102741061402
 20
238.07254707683779
 30
0.0
 40
2.0
 50
270.0
 51
90.0
  0
LINE
  5
13D22
  8
0
 10
358.64102741061402
 20
236.07254707683779
 30
0.0
 11
356.64102741061402
 21
236.07254707683779
 31
0.0
  0
LINE
  5
13D23
  8
0
 10
358.64102741061402
 20
240.07254707683779
 30
0.0
 11
356.64102741061402
 21
240.07254707683779
 31
0.0
  0
ARC
  5
13D25
  8
AM_0
 10
168.68099949805469
 20
238.07254707683779
 30
0.0
 40
56.499999999999972
 50
64.482124634799419
 51
117.51787536520069
  0
LINE
  5
13D26
  8
AM_0
 10
193.68100024311411
 20
289.07254859675618
 30
0.0
 11
130.6809983655665
 21
287.9728794735056
 31
0.0
  0
LINE
  5
13D29
  8
AM_0
 10
132.6568996753457
 20
293.3824184496678
 30
0.0
 11
132.46908432930749
 21
288.00409063010011
 31
0.0
  0
LINE
  5
13D2A
  8
AM_0
 10
134.72746536445149
 20
293.40650235400801
 30
0.0
 11
134.91463106988849
 21
288.04677780724188
 31
0.0
  0
LINE
  5
13D2B
  8
0
 10
121.0909983655667
 20
271.57254827489101
 30
0.0
 11
129.09099836556661
 21
271.57254827489101
 31
0.0
  0
LINE
  5
13D2C
  8
0
 10
129.09099836556661
 20
284.57254827489101
 30
0.0
 11
121.0909983655667
 21
284.57254827489101
 31
0.0
  0
LINE
  5
13D2D
  8
0
 10
130.6809983655665
 20
286.57254827489101
 30
0.0
 11
129.09099836556661
 21
286.57254827489101
 31
0.0
  0
ARC
  5
13D2E
  8
AM_0
 10
168.68099949805469
 20
189.07254707683779
 30
0.0
 40
110.9999999999999
 50
108.52714231447339
 51
108.566580801898
  0
ARC
  5
13D2F
  8
AM_0
 10
133.65629050236501
 20
293.34751895296529
 30
0.0
 40
0.9999999999999996
 50
108.5665808019031
 51
177.99999999999631
1001
GENIUS_GENODEF_13
1002
{
1000
HIER
1070
     0
1002
}
1002
{
1000
MANEDIT
1070
     0
1002
}
1002
{
1000
NOSEL
1070
     0
1002
}
1002
{
1000
BEHIND
1070
     0
1002
}
1002
{
1000
REACTOR
1002
}
1001
GENIUS_GENOBJ-N-FIL_13
1002
{
1000
OWNER
1000
GEN
1002
}
  0
ARC
  5
13D30
  8
AM_0
 10
133.72807453743229
 20
293.37160285730511
 30
0.0
 40
0.9999999999999996
 50
1.999999999997129
 51
108.52714231447339
1001
GENIUS_GENODEF_13
1002
{
1000
HIER
1070
     0
1002
}
1002
{
1000
MANEDIT
1070
     0
1002
}
1002
{
1000
NOSEL
1070
     0
1002
}
1002
{
1000
BEHIND
1070
     0
1002
}
1002
{
1000
REACTOR
1002
}
1001
GENIUS_GENOBJ-N-FIL_13
1002
{
1000
OWNER
1000
GEN
1002
}
  0
LINE
  5
13D31
  8
AM_0
 10
152.65175214198851
 20
298.07580625981012
 30
0.0
 11
152.44620973814111
 21
292.18984192286092
 31
0.0
  0
LINE
  5
13D32
  8
AM_0
 10
144.72318542109869
 20
296.2388515086995
 30
0.0
 11
144.96362715437019
 21
289.35350113495798
 31
0.0
  0
LINE
  5
13D33
  8
AM_0
 10
142.65438877209539
 20
296.22251677437669
 30
0.0
 11
142.37343214587099
 21
288.1769716643098
 31
0.0
  0
ARC
  5
13D34
  8
AM_0
 10
143.65377959911439
 20
296.18761727767412
 30
0.0
 40
0.9999999999999996
 50
103.15111826065331
 51
178.00000000000281
1001
GENIUS_GENODEF_13
1002
{
1000
HIER
1070
     0
1002
}
1002
{
1000
MANEDIT
1070
     0
1002
}
1002
{
1000
NOSEL
1070
     0
1002
}
1002
{
1000
BEHIND
1070
     0
1002
}
1002
{
1000
REACTOR
1002
}
1001
GENIUS_GENOBJ-N-FIL_13
1002
{
1000
OWNER
1000
GEN
1002
}
  0
ARC
  5
13D35
  8
AM_0
 10
168.68099949805469
 20
189.07254707683779
 30
0.0
 40
110.9999999999999
 50
103.11367014329871
 51
103.15111826065331
  0
ARC
  5
13D36
  8
AM_0
 10
143.72379459407989
 20
296.20395201199671
 30
0.0
 40
0.9999999999999996
 50
2.0000000000036389
 51
103.11367014329871
1001
GENIUS_GENODEF_13
1002
{
1000
HIER
1070
     0
1002
}
1002
{
1000
MANEDIT
1070
     0
1002
}
1002
{
1000
NOSEL
1070
     0
1002
}
1002
{
1000
BEHIND
1070
     0
1002
}
1002
{
1000
REACTOR
1002
}
1001
GENIUS_GENOBJ-N-FIL_13
1002
{
1000
OWNER
1000
GEN
1002
}
  0
ARC
  5
13D37
  8
AM_0
 10
153.72005072494201
 20
298.05038891548082
 30
0.0
 40
0.9999999999999996
 50
1.999999999997129
 51
97.816947831692914
1001
GENIUS_GENODEF_13
1002
{
1000
HIER
1070
     0
1002
}
1002
{
1000
MANEDIT
1070
     0
1002
}
1002
{
1000
NOSEL
1070
     0
1002
}
1002
{
1000
BEHIND
1070
     0
1002
}
1002
{
1000
REACTOR
1002
}
1001
GENIUS_GENOBJ-N-FIL_13
1002
{
1000
OWNER
1000
GEN
1002
}
  0
ARC
  5
13D38
  8
AM_0
 10
153.6511429690074
 20
298.0409067631075
 30
0.0
 40
0.9999999999999996
 50
97.853178088806132
 51
178.00000000000281
1001
GENIUS_GENODEF_13
1002
{
1000
HIER
1070
     0
1002
}
1002
{
1000
MANEDIT
1070
     0
1002
}
1002
{
1000
NOSEL
1070
     0
1002
}
1002
{
1000
BEHIND
1070
     0
1002
}
1002
{
1000
REACTOR
1002
}
1001
GENIUS_GENOBJ-N-FIL_13
1002
{
1000
OWNER
1000
GEN
1002
}
  0
ARC
  5
13D39
  8
AM_0
 10
168.68099949805469
 20
189.07254707683779
 30
0.0
 40
110.9999999999999
 50
97.816947831692914
 51
97.853178088806132
  0
LINE
  5
13D3A
  8
AM_0
 10
154.7194415519611
 20
298.08528841218362
 30
0.0
 11
154.90168463782729
 21
292.86652924625781
 31
0.0
  0
ARC
  5
13D3B
  8
AM_0
 10
163.7167068802911
 20
298.96047088471221
 30
0.0
 40
0.9999999999999996
 50
2.0000000000036389
 51
92.586633228774929
1001
GENIUS_GENODEF_13
1002
{
1000
HIER
1070
     0
1002
}
1002
{
1000
MANEDIT
1070
     0
1002
}
1002
{
1000
NOSEL
1070
     0
1002
}
1002
{
1000
BEHIND
1070
     0
1002
}
1002
{
1000
REACTOR
1002
}
1001
GENIUS_GENOBJ-N-FIL_13
1002
{
1000
OWNER
1000
GEN
1002
}
  0
ARC
  5
13D3C
  8
AM_0
 10
163.64833284617521
 20
298.95736070625168
 30
0.0
 40
0.9999999999999996
 50
92.622284087954526
 51
178.00000000000281
1001
GENIUS_GENODEF_13
1002
{
1000
HIER
1070
     0
1002
}
1002
{
1000
MANEDIT
1070
     0
1002
}
1002
{
1000
NOSEL
1070
     0
1002
}
1002
{
1000
BEHIND
1070
     0
1002
}
1002
{
1000
REACTOR
1002
}
1001
GENIUS_GENOBJ-N-FIL_13
1002
{
1000
OWNER
1000
GEN
1002
}
  0
ARC
  5
13D3D
  8
AM_0
 10
168.68099949805469
 20
189.07254707683779
 30
0.0
 40
110.9999999999999
 50
92.586633228774929
 51
92.622284087959443
  0
LINE
  5
13D3E
  8
AM_0
 10
162.64894201915621
 20
298.99226020295441
 30
0.0
 11
162.48269354530811
 21
294.23152679794867
 31
0.0
  0
LINE
  5
13D47
  8
AM_0
 10
164.7160977073103
 20
298.99537038141477
 30
0.0
 11
164.87502766867121
 21
294.4442117536409
 31
0.0
  0
LINE
  5
13D4B
  8
ﾁｭｳｼﾝｾﾝ1
 10
218.88618476809049
 20
303.07254707683779
 30
0.0
 11
244.88618476809049
 21
303.07254707683779
 31
0.0
1001
GENIUS_GENODEF_13
1002
{
1000
HIER
1070
     0
1002
}
1002
{
1000
MANEDIT
1070
     0
1002
}
1002
{
1000
NOSEL
1070
     0
1002
}
1002
{
1000
BEHIND
1070
     0
1002
}
1002
{
1000
OTHER
1070
     0
1002
}
1002
{
1000
REACTOR
1002
}
1001
GENIUS_GENOBJ-N-CEN_13
1002
{
1000
OWNER
1000
GEN
1002
}
  0
ARC
  5
13D4C
  8
0
 10
224.68099952229159
 20
312.5824380466629
 30
0.0
 40
1.9999999999999989
 50
92.000000000000398
 51
179.9999998363551
1001
GENIUS_GENOBJ-N-FIL_13
1002
{
1000
OWNER
1000
GEN
1002
}
1001
GENIUS_GENODEF_13
1002
{
1000
HIER
1070
     0
1002
}
1002
{
1000
MANEDIT
1070
     0
1002
}
1002
{
1000
NOSEL
1070
     0
1002
}
1002
{
1000
BEHIND
1070
     0
1002
}
1002
{
1000
OTHER
1070
     0
1002
}
1002
{
1000
REACTOR
1002
}
  0
LINE
  5
13D4E
  8
0
 10
193.67463270001261
 20
289.072437450878
 30
0.0
 11
219.7856979549783
 21
289.98425594183061
 31
0.0
  0
LINE
  5
13D51
  8
AM_0
 10
204.70509932076379
 20
293.3824184496678
 30
0.0
 11
204.841989027804
 21
289.46241012703302
 31
0.0
  0
LINE
  5
13D52
  8
AM_0
 10
202.63453363165769
 20
293.40650235400801
 30
0.0
 11
202.49393954338819
 21
289.3804144322325
 31
0.0
  0
LINE
  5
13D53
  8
AM_0
 10
192.63881357501049
 20
296.2388515086995
 30
0.0
 11
192.39837184173899
 21
289.35350113495798
 31
0.0
  0
LINE
  5
13D54
  8
AM_0
 10
194.70761022401379
 20
296.22251677437669
 30
0.0
 11
194.95807104584509
 21
289.0502572429765
 31
0.0
  0
LINE
  5
13D55
  8
AM_0
 10
184.71024685412081
 20
298.07580625981012
 30
0.0
 11
184.9157892579683
 21
292.18984192286092
 31
0.0
  0
ARC
  5
13D59
  8
AM_0
 10
173.71366614993411
 20
298.95736070625168
 30
0.0
 40
0.9999999999999996
 50
1.999999999997129
 51
87.377715912045474
1001
GENIUS_GENODEF_13
1002
{
1000
HIER
1070
     0
1002
}
1002
{
1000
MANEDIT
1070
     0
1002
}
1002
{
1000
NOSEL
1070
     0
1002
}
1002
{
1000
BEHIND
1070
     0
1002
}
1002
{
1000
REACTOR
1002
}
1001
GENIUS_GENOBJ-N-FIL_13
1002
{
1000
OWNER
1000
GEN
1002
}
  0
ARC
  5
13D5A
  8
AM_0
 10
173.64529211581811
 20
298.96047088471221
 30
0.0
 40
0.9999999999999996
 50
87.413366771225057
 51
177.99999999999631
1001
GENIUS_GENODEF_13
1002
{
1000
HIER
1070
     0
1002
}
1002
{
1000
MANEDIT
1070
     0
1002
}
1002
{
1000
NOSEL
1070
     0
1002
}
1002
{
1000
BEHIND
1070
     0
1002
}
1002
{
1000
REACTOR
1002
}
1001
GENIUS_GENOBJ-N-FIL_13
1002
{
1000
OWNER
1000
GEN
1002
}
  0
ARC
  5
13D5C
  8
AM_0
 10
168.68099949805469
 20
189.07254707683779
 30
0.0
 40
110.9999999999999
 50
87.377715912040557
 51
87.413366771225057
  0
LINE
  5
13D5D
  8
AM_0
 10
174.713056976953
 20
298.99226020295441
 30
0.0
 11
174.8793054508011
 21
294.23152679794867
 31
0.0
  0
LINE
  5
13D5E
  8
AM_0
 10
172.645901288799
 20
298.99537038141477
 30
0.0
 11
172.486971327438
 21
294.4442117536409
 31
0.0
  0
ARC
  5
13D5F
  8
AM_0
 10
183.64194827116731
 20
298.05038891548082
 30
0.0
 40
0.9999999999999996
 50
82.1830521683071
 51
178.00000000000281
1001
GENIUS_GENODEF_13
1002
{
1000
HIER
1070
     0
1002
}
1002
{
1000
MANEDIT
1070
     0
1002
}
1002
{
1000
NOSEL
1070
     0
1002
}
1002
{
1000
BEHIND
1070
     0
1002
}
1002
{
1000
REACTOR
1002
}
1001
GENIUS_GENOBJ-N-FIL_13
1002
{
1000
OWNER
1000
GEN
1002
}
  0
ARC
  5
13D60
  8
AM_0
 10
183.7108560271019
 20
298.0409067631075
 30
0.0
 40
0.9999999999999996
 50
1.999999999997129
 51
82.146821911193925
1001
GENIUS_GENODEF_13
1002
{
1000
HIER
1070
     0
1002
}
1002
{
1000
MANEDIT
1070
     0
1002
}
1002
{
1000
NOSEL
1070
     0
1002
}
1002
{
1000
BEHIND
1070
     0
1002
}
1002
{
1000
REACTOR
1002
}
1001
GENIUS_GENOBJ-N-FIL_13
1002
{
1000
OWNER
1000
GEN
1002
}
  0
ARC
  5
13D61
  8
AM_0
 10
168.68099949805469
 20
189.07254707683779
 30
0.0
 40
110.9999999999999
 50
82.146821911193925
 51
82.1830521683071
  0
LINE
  5
13D62
  8
AM_0
 10
182.64255744414811
 20
298.08528841218362
 30
0.0
 11
182.46031435828189
 21
292.86652924625781
 31
0.0
  0
ARC
  5
13D64
  8
AM_0
 10
193.70821939699491
 20
296.18761727767412
 30
0.0
 40
0.9999999999999996
 50
1.999999999997129
 51
76.848881739346623
1001
GENIUS_GENODEF_13
1002
{
1000
HIER
1070
     0
1002
}
1002
{
1000
MANEDIT
1070
     0
1002
}
1002
{
1000
NOSEL
1070
     0
1002
}
1002
{
1000
BEHIND
1070
     0
1002
}
1002
{
1000
REACTOR
1002
}
1001
GENIUS_GENOBJ-N-FIL_13
1002
{
1000
OWNER
1000
GEN
1002
}
  0
ARC
  5
13D65
  8
AM_0
 10
168.68099949805469
 20
189.07254707683779
 30
0.0
 40
110.9999999999999
 50
76.848881739346623
 51
76.886329856701238
  0
ARC
  5
13D66
  8
AM_0
 10
193.63820440202949
 20
296.20395201199671
 30
0.0
 40
0.9999999999999996
 50
76.886329856701238
 51
177.99999999999631
1001
GENIUS_GENODEF_13
1002
{
1000
HIER
1070
     0
1002
}
1002
{
1000
MANEDIT
1070
     0
1002
}
1002
{
1000
NOSEL
1070
     0
1002
}
1002
{
1000
BEHIND
1070
     0
1002
}
1002
{
1000
REACTOR
1002
}
1001
GENIUS_GENOBJ-N-FIL_13
1002
{
1000
OWNER
1000
GEN
1002
}
  0
ARC
  5
13D67
  8
AM_0
 10
168.68099949805469
 20
189.07254707683779
 30
0.0
 40
110.9999999999999
 50
71.433419198101944
 51
71.472857685526591
  0
ARC
  5
13D68
  8
AM_0
 10
203.70570849374431
 20
293.34751895296529
 30
0.0
 40
0.9999999999999996
 50
2.0000000000036389
 51
71.433419198096814
1001
GENIUS_GENODEF_13
1002
{
1000
HIER
1070
     0
1002
}
1002
{
1000
MANEDIT
1070
     0
1002
}
1002
{
1000
NOSEL
1070
     0
1002
}
1002
{
1000
BEHIND
1070
     0
1002
}
1002
{
1000
REACTOR
1002
}
1001
GENIUS_GENOBJ-N-FIL_13
1002
{
1000
OWNER
1000
GEN
1002
}
  0
ARC
  5
13D69
  8
AM_0
 10
203.63392445867689
 20
293.37160285730511
 30
0.0
 40
0.9999999999999996
 50
71.472857685526591
 51
178.00000000000281
1001
GENIUS_GENODEF_13
1002
{
1000
HIER
1070
     0
1002
}
1002
{
1000
MANEDIT
1070
     0
1002
}
1002
{
1000
NOSEL
1070
     0
1002
}
1002
{
1000
BEHIND
1070
     0
1002
}
1002
{
1000
REACTOR
1002
}
1001
GENIUS_GENOBJ-N-FIL_13
1002
{
1000
OWNER
1000
GEN
1002
}
  0
ARC
  5
13D6A
  8
0
 10
219.68099946487069
 20
292.98242842288789
 30
0.0
 40
2.9999999999999978
 50
272.0000000000004
 51
359.99999983214411
1001
GENIUS_GENOBJ-N-FIL_13
1002
{
1000
OWNER
1000
GEN
1002
}
1001
GENIUS_GENODEF_13
1002
{
1000
HIER
1070
     0
1002
}
1002
{
1000
MANEDIT
1070
     0
1002
}
1002
{
1000
NOSEL
1070
     0
1002
}
1002
{
1000
BEHIND
1070
     0
1002
}
1002
{
1000
OTHER
1070
     0
1002
}
1002
{
1000
REACTOR
1002
}
  0
LINE
  5
13D6F
  8
0
 10
222.68099946487081
 20
292.98242841409899
 30
0.0
 11
222.68099952229159
 21
312.58243805237498
 31
0.0
  0
LINE
  5
13D73
  8
0
 10
224.61120052888651
 20
314.5812197007009
 30
0.0
 11
238.6809995579473
 21
315.0725479093901
 31
0.0
  0
LINE
  5
13D76
  8
0
 10
362.67251403721281
 20
307.93995482151252
 30
0.0
 11
351.75846850769182
 21
283.34557345863328
 31
0.0
  0
LINE
  5
13D77
  8
0
 10
361.90392357671141
 20
296.34645378878793
 30
0.0
 11
355.41464048649209
 21
281.72310421040851
 31
0.0
  0
ARC
  5
13D78
  8
AM_0
 10
363.64102773843962
 20
278.07254826893057
 30
0.0
 40
9.0000003278255516
 50
156.070183125966
 51
180.00000500895041
  0
ARC
  5
13D79
  8
AM_0
 10
363.64102773843962
 20
278.07254826893057
 30
0.0
 40
13.00000032782555
 50
156.070183125966
 51
180.00000500895041
  0
CIRCLE
  5
13D7A
  8
ｷｲﾛ
 10
363.64102773843962
 20
278.07254707683768
 30
0.0
 40
4.0
  0
CIRCLE
  5
13D7B
  8
0
 10
363.64102773843962
 20
278.07254707683768
 30
0.0
 40
3.25
  0
ARC
  5
13D7C
  8
AM_0
 10
359.64102741061402
 20
280.07254707683768
 30
0.0
 40
5.0
 50
90.0
 51
131.09880372126679
1001
GENIUS_GENODEF_13
1002
{
1000
HIER
1070
     0
1002
}
1002
{
1000
MANEDIT
1070
     0
1002
}
1002
{
1000
NOSEL
1070
     0
1002
}
1002
{
1000
BEHIND
1070
     0
1002
}
1002
{
1000
OTHER
1070
     0
1002
}
1002
{
1000
REACTOR
1002
}
1001
GENIUS_GENOBJ-N-FIL_13
1002
{
1000
OWNER
1000
GEN
1002
}
  0
ARC
  5
13D7D
  8
0
 10
364.64605256081148
 20
295.12960185261937
 30
0.0
 40
3.0
 50
41.445856511110989
 51
156.070183125966
1001
GENIUS_GENOBJ-N-FIL_13
1002
{
1000
OWNER
1000
GEN
1002
}
1001
GENIUS_GENODEF_13
1002
{
1000
HIER
1070
     0
1002
}
1002
{
1000
MANEDIT
1070
     0
1002
}
1002
{
1000
NOSEL
1070
     0
1002
}
1002
{
1000
BEHIND
1070
     0
1002
}
1002
{
1000
OTHER
1070
     0
1002
}
1002
{
1000
REACTOR
1002
}
  0
ARC
  5
13D7F
  8
0
 10
484.64103149353213
 20
267.68024310895021
 30
0.0
 40
3.0
 50
0.0
 51
120.0000083797508
1001
GENIUS_GENOBJ-N-FIL_13
1002
{
1000
OWNER
1000
GEN
1002
}
1001
GENIUS_GENODEF_13
1002
{
1000
HIER
1070
     0
1002
}
1002
{
1000
MANEDIT
1070
     0
1002
}
1002
{
1000
NOSEL
1070
     0
1002
}
1002
{
1000
BEHIND
1070
     0
1002
}
1002
{
1000
OTHER
1070
     0
1002
}
1002
{
1000
REACTOR
1002
}
  0
ARC
  5
13D80
  8
0
 10
478.64102997361368
 20
278.07254707683802
 30
0.0
 40
9.0
 50
160.52877936551209
 51
300.0000083797508
  0
LINE
  5
13D81
  8
AM_0
 10
487.64103149353218
 20
278.07254826893069
 30
0.0
 11
487.64103149353218
 21
238.07254707683779
 31
0.0
  0
LINE
  5
13D82
  8
AM_0
 10
491.64103149353218
 20
278.07254826893069
 30
0.0
 11
491.64103149353218
 21
198.07254588474521
 31
0.0
  0
LINE
  5
13D83
  8
ﾁｭｳｼﾝｾﾝ1
 10
403.64102893053268
 20
154.10248954574109
 30
0.0
 11
403.64102893053212
 21
322.04260460793449
 31
0.0
  0
ARC
  5
13D86
  8
AM_0
 10
270.6410467523213
 20
238.07254707683779
 30
0.0
 40
235.99999999999989
 50
359.9999949910495
 51
10.56396171235874
  0
LINE
  5
13D87
  8
AM_0
 10
502.64103149353213
 20
187.4322653995917
 30
0.0
 11
502.64103149353213
 21
288.71283638347847
 31
0.0
  0
LINE
  5
13D88
  8
AM_0
 10
514.14713500915695
 20
294.07254707683791
 30
0.0
 11
514.14713500915695
 21
182.07254707683791
 31
0.0
  0
LINE
  5
13DAB
  8
AM_0
 10
514.14713500915695
 20
270.0124970768378
 30
0.0
 11
504.54111887319419
 21
270.0124970768378
 31
0.0
  0
LINE
  5
13DAC
  8
AM_0
 10
514.14713500915695
 20
206.1326070768379
 30
0.0
 11
504.4663846481634
 21
206.1326070768379
 31
0.0
  0
LINE
  5
13DAD
  8
AM_0
 10
514.14713500915695
 20
182.07254707683791
 30
0.0
 11
504.58990643035412
 21
182.07254707683791
 31
0.0
  0
LINE
  5
13DAE
  8
AM_0
 10
514.14713500915695
 20
192.07254707683779
 30
0.0
 11
502.64103149353213
 21
192.07254707683779
 31
0.0
  0
ARC
  5
13DAF
  8
AM_0
 10
270.6410467523213
 20
238.07254707683779
 30
0.0
 40
235.99999999999989
 50
349.43602826972682
 51
359.9999949910495
  0
LINE
  5
13DB0
  8
0
 10
480.37813612484769
 20
179.7986421618269
 30
0.0
 11
486.86741841765411
 21
194.42198994326739
 31
0.0
  0
LINE
  5
13DB1
  8
0
 10
479.60954486693328
 20
168.20513933216341
 30
0.0
 11
490.52359039645438
 21
192.79952069504259
 31
0.0
  0
ARC
  5
13DB2
  8
0
 10
421.14103064416599
 20
105.36421658714291
 30
0.0
 40
84.708331681787811
 50
92.644096325323176
 51
118.1140438068888
  0
ARC
  5
13DB3
  8
0
 10
421.14103064416599
 20
105.36421658714291
 30
0.0
 40
84.708331681787811
 50
61.885956193111198
 51
87.355919741582937
  0
ARC
  5
13DB4
  8
0
 10
421.14103064416599
 20
105.36421658714291
 30
0.0
 40
80.708331681787811
 50
62.230425742763408
 51
117.7695742572366
  0
LINE
  5
13DB5
  8
ﾁｭｳｼﾝｾﾝ1
 10
373.64102997361368
 20
160.07254707683791
 30
0.0
 11
373.64102997361368
 21
186.07254707683791
 31
0.0
1001
GENIUS_GENODEF_13
1002
{
1000
HIER
1070
     0
1002
}
1002
{
1000
MANEDIT
1070
     0
1002
}
1002
{
1000
NOSEL
1070
     0
1002
}
1002
{
1000
BEHIND
1070
     0
1002
}
1002
{
1000
OTHER
1070
     0
1002
}
1002
{
1000
REACTOR
1002
}
1001
GENIUS_GENOBJ-N-CEN_13
1002
{
1000
OWNER
1000
GEN
1002
}
  0
ARC
  5
13DB6
  8
AM_0
 10
504.58990643035412
 20
184.07254707683779
 30
0.0
 40
1.9999999999999989
 50
182.0004653026449
 51
270.0
1001
GENIUS_GENOBJ-N-FIL_13
1002
{
1000
OWNER
1000
GEN
1002
}
1001
GENIUS_GENODEF_13
1002
{
1000
HIER
1070
     0
1002
}
1002
{
1000
MANEDIT
1070
     0
1002
}
1002
{
1000
NOSEL
1070
     0
1002
}
1002
{
1000
BEHIND
1070
     0
1002
}
1002
{
1000
OTHER
1070
     0
1002
}
1002
{
1000
REACTOR
1002
}
  0
LINE
  5
13DB7
  8
ﾁｭｳｼﾝｾﾝ1
 10
468.6410289305324
 20
160.07254707683791
 30
0.0
 11
468.6410289305324
 21
186.07254707683779
 31
0.0
1001
GENIUS_GENODEF_13
1002
{
1000
HIER
1070
     0
1002
}
1002
{
1000
MANEDIT
1070
     0
1002
}
1002
{
1000
NOSEL
1070
     0
1002
}
1002
{
1000
BEHIND
1070
     0
1002
}
1002
{
1000
OTHER
1070
     0
1002
}
1002
{
1000
REACTOR
1002
}
1001
GENIUS_GENOBJ-N-CEN_13
1002
{
1000
OWNER
1000
GEN
1002
}
  0
LINE
  5
13DB8
  8
0
 10
457.73231855438451
 20
165.07254707683779
 30
0.0
 11
384.54974273394743
 21
165.07254707683799
 31
0.0
  0
LINE
  5
13DB9
  8
0
 10
468.6410289305324
 20
161.07254707683779
 30
0.0
 11
373.64102997361368
 21
161.07254707683811
 31
0.0
  0
ARC
  5
13DBD
  8
0
 10
373.64103116570669
 20
173.07254826893049
 30
0.0
 40
9.0
 50
335.37567538661648
 51
33.94543635354821
  0
ARC
  5
13DBE
  8
0
 10
384.54974273394743
 20
168.07254707683759
 30
0.0
 40
3.0
 50
155.37567538661719
 51
270.0
1001
GENIUS_GENOBJ-N-FIL_13
1002
{
1000
OWNER
1000
GEN
1002
}
1001
GENIUS_GENODEF_13
1002
{
1000
HIER
1070
     0
1002
}
1002
{
1000
MANEDIT
1070
     0
1002
}
1002
{
1000
NOSEL
1070
     0
1002
}
1002
{
1000
BEHIND
1070
     0
1002
}
1002
{
1000
OTHER
1070
     0
1002
}
1002
{
1000
REACTOR
1002
}
  0
ARC
  5
13DBF
  8
0
 10
380.28162948500778
 20
181.84195269350201
 30
0.0
 40
2.0
 50
232.86531156728779
 51
298.11404380688879
1001
GENIUS_GENODEF_13
1002
{
1000
HIER
1070
     0
1002
}
1002
{
1000
MANEDIT
1070
     0
1002
}
1002
{
1000
NOSEL
1070
     0
1002
}
1002
{
1000
BEHIND
1070
     0
1002
}
1002
{
1000
OTHER
1070
     0
1002
}
1002
{
1000
REACTOR
1002
}
1001
GENIUS_GENOBJ-N-FIL_13
1002
{
1000
OWNER
1000
GEN
1002
}
  0
ARC
  5
13DC0
  8
0
 10
384.46949377158649
 20
175.0075928661069
 30
0.0
 40
2.0
 50
117.7695742572366
 51
190.13180188606299
1001
GENIUS_GENOBJ-N-FIL_13
1002
{
1000
OWNER
1000
GEN
1002
}
1001
GENIUS_GENODEF_13
1002
{
1000
HIER
1070
     0
1002
}
1002
{
1000
MANEDIT
1070
     0
1002
}
1002
{
1000
NOSEL
1070
     0
1002
}
1002
{
1000
BEHIND
1070
     0
1002
}
1002
{
1000
OTHER
1070
     0
1002
}
1002
{
1000
REACTOR
1002
}
  0
ARC
  5
13DC1
  8
0
 10
468.6410301226253
 20
173.07254826893049
 30
0.0
 40
9.0
 50
41.445867957166122
 51
146.05456364645181
  0
ARC
  5
13DC2
  8
0
 10
468.6410289305324
 20
173.07254707683759
 30
0.0
 40
12.0
 50
270.0
 51
336.07018312596603
  0
CIRCLE
  5
13DC3
  8
0
 10
468.6410289305324
 20
173.07254707683799
 30
0.0
 40
4.4999999999999982
  0
LINE
  5
13DC4
  8
ﾁｭｳｼﾝｾﾝ1
 10
481.64102893053217
 20
173.07254707683791
 30
0.0
 11
455.64102893053212
 21
173.07254707683791
 31
0.0
1001
GENIUS_GENODEF_13
1002
{
1000
HIER
1070
     0
1002
}
1002
{
1000
MANEDIT
1070
     0
1002
}
1002
{
1000
NOSEL
1070
     0
1002
}
1002
{
1000
BEHIND
1070
     0
1002
}
1002
{
1000
OTHER
1070
     0
1002
}
1002
{
1000
REACTOR
1002
}
1001
GENIUS_GENOBJ-N-CEN_13
1002
{
1000
OWNER
1000
GEN
1002
}
  0
ARC
  5
13DC5
  8
0
 10
468.6410301226253
 20
173.07254826893049
 30
0.0
 40
9.0
 50
146.05456364645181
 51
204.6243246133827
  0
ARC
  5
13DC6
  8
0
 10
457.73231855438451
 20
168.07254707683759
 30
0.0
 40
3.0
 50
270.0
 51
24.624324613382718
1001
GENIUS_GENOBJ-N-FIL_13
1002
{
1000
OWNER
1000
GEN
1002
}
1001
GENIUS_GENODEF_13
1002
{
1000
HIER
1070
     0
1002
}
1002
{
1000
MANEDIT
1070
     0
1002
}
1002
{
1000
NOSEL
1070
     0
1002
}
1002
{
1000
BEHIND
1070
     0
1002
}
1002
{
1000
OTHER
1070
     0
1002
}
1002
{
1000
REACTOR
1002
}
  0
ARC
  5
13DC7
  8
0
 10
462.00043180332409
 20
181.84195269350201
 30
0.0
 40
2.0
 50
241.88595619311121
 51
307.1346884327121
1001
GENIUS_GENODEF_13
1002
{
1000
HIER
1070
     0
1002
}
1002
{
1000
MANEDIT
1070
     0
1002
}
1002
{
1000
NOSEL
1070
     0
1002
}
1002
{
1000
BEHIND
1070
     0
1002
}
1002
{
1000
OTHER
1070
     0
1002
}
1002
{
1000
REACTOR
1002
}
1001
GENIUS_GENOBJ-N-FIL_13
1002
{
1000
OWNER
1000
GEN
1002
}
  0
ARC
  5
13DC8
  8
0
 10
457.8125675167455
 20
175.0075928661069
 30
0.0
 40
2.0
 50
349.86819811392451
 51
62.230425742763408
1001
GENIUS_GENOBJ-N-FIL_13
1002
{
1000
OWNER
1000
GEN
1002
}
1001
GENIUS_GENODEF_13
1002
{
1000
HIER
1070
     0
1002
}
1002
{
1000
MANEDIT
1070
     0
1002
}
1002
{
1000
NOSEL
1070
     0
1002
}
1002
{
1000
BEHIND
1070
     0
1002
}
1002
{
1000
OTHER
1070
     0
1002
}
1002
{
1000
REACTOR
1002
}
  0
ARC
  5
13DC9
  8
0
 10
477.63600714074732
 20
181.01549409799529
 30
0.0
 40
3.0
 50
221.44586795716609
 51
336.07018312596603
1001
GENIUS_GENOBJ-N-FIL_13
1002
{
1000
OWNER
1000
GEN
1002
}
1001
GENIUS_GENODEF_13
1002
{
1000
HIER
1070
     0
1002
}
1002
{
1000
MANEDIT
1070
     0
1002
}
1002
{
1000
NOSEL
1070
     0
1002
}
1002
{
1000
BEHIND
1070
     0
1002
}
1002
{
1000
OTHER
1070
     0
1002
}
1002
{
1000
REACTOR
1002
}
  0
ARC
  5
13DCA
  8
0
 10
439.55710871363192
 20
193.07254707683759
 30
0.0
 40
2.0
 50
170.40593177313519
 51
270.0
1001
GENIUS_GENODEF_13
1002
{
1000
HIER
1070
     0
1002
}
1002
{
1000
MANEDIT
1070
     0
1002
}
1002
{
1000
NOSEL
1070
     0
1002
}
1002
{
1000
BEHIND
1070
     0
1002
}
1002
{
1000
OTHER
1070
     0
1002
}
1002
{
1000
REACTOR
1002
}
1001
GENIUS_GENOBJ-N-FIL_13
1002
{
1000
OWNER
1000
GEN
1002
}
  0
LINE
  5
13DCB
  8
0
 10
423.35885684130187
 20
191.07254707683751
 30
0.0
 11
482.641029258358
 21
191.07254707683799
 31
0.0
  0
CIRCLE
  5
13DCC
  8
0
 10
403.64102893053229
 20
238.07254707683779
 30
0.0
 40
29.0
  0
CIRCLE
  5
13DCD
  8
AM_0
 10
403.64102893053229
 20
238.07254707683779
 30
0.0
 40
15.00000044703483
  0
ARC
  5
13DCE
  8
0
 10
421.14101849971962
 20
195.14263692484201
 30
0.0
 40
2.0
 50
0.0
 51
180.0
  0
LINE
  5
13DCF
  8
0
 10
419.14101849971962
 20
195.14263692484229
 30
0.0
 11
419.14101849971962
 21
191.98023523198259
 31
0.0
  0
ARC
  5
13DD0
  8
0
 10
417.14101849971962
 20
191.9802352319825
 30
0.0
 40
2.0
 50
272.64409632532318
 51
0.0
1001
GENIUS_GENODEF_13
1002
{
1000
HIER
1070
     0
1002
}
1002
{
1000
MANEDIT
1070
     0
1002
}
1002
{
1000
NOSEL
1070
     0
1002
}
1002
{
1000
BEHIND
1070
     0
1002
}
1002
{
1000
OTHER
1070
     0
1002
}
1002
{
1000
REACTOR
1002
}
1001
GENIUS_GENOBJ-N-FIL_13
1002
{
1000
OWNER
1000
GEN
1002
}
  0
LINE
  5
13DD1
  8
0
 10
423.14101849971962
 20
195.14263692484229
 30
0.0
 11
423.14101849971962
 21
191.980236353664
 31
0.0
  0
ARC
  5
13DD2
  8
0
 10
433.6410289305324
 20
194.07254707683759
 30
0.0
 40
4.0
 50
350.40593177313531
 51
189.59406822686481
  0
ARC
  5
13DD3
  8
0
 10
427.72494914743288
 20
193.07254707683759
 30
0.0
 40
2.0
 50
270.0
 51
9.5940682268648061
1001
GENIUS_GENODEF_13
1002
{
1000
HIER
1070
     0
1002
}
1002
{
1000
MANEDIT
1070
     0
1002
}
1002
{
1000
NOSEL
1070
     0
1002
}
1002
{
1000
BEHIND
1070
     0
1002
}
1002
{
1000
OTHER
1070
     0
1002
}
1002
{
1000
REACTOR
1002
}
1001
GENIUS_GENOBJ-N-FIL_13
1002
{
1000
OWNER
1000
GEN
1002
}
  0
ARC
  5
13DD4
  8
0
 10
425.14101849971962
 20
191.98023635366391
 30
0.0
 40
2.0
 50
180.0
 51
267.35591974158302
1001
GENIUS_GENOBJ-N-FIL_13
1002
{
1000
OWNER
1000
GEN
1002
}
1001
GENIUS_GENODEF_13
1002
{
1000
HIER
1070
     0
1002
}
1002
{
1000
MANEDIT
1070
     0
1002
}
1002
{
1000
NOSEL
1070
     0
1002
}
1002
{
1000
BEHIND
1070
     0
1002
}
1002
{
1000
OTHER
1070
     0
1002
}
1002
{
1000
REACTOR
1002
}
  0
LINE
  5
13DD9
  8
AM_0
 10
487.64103030143929
 20
238.07254707683779
 30
0.0
 11
487.64103149353218
 21
198.0725458847449
 31
0.0
  0
ARC
  5
13DDA
  8
0
 10
478.64102997361391
 20
198.07254707683791
 30
0.0
 40
9.0
 50
59.999991620249162
 51
199.47122063448779
  0
ARC
  5
13DDB
  8
0
 10
467.32732147462917
 20
194.07254707683759
 30
0.0
 40
3.0
 50
270.0
 51
19.4712206344878
1001
GENIUS_GENODEF_13
1002
{
1000
HIER
1070
     0
1002
}
1002
{
1000
MANEDIT
1070
     0
1002
}
1002
{
1000
NOSEL
1070
     0
1002
}
1002
{
1000
BEHIND
1070
     0
1002
}
1002
{
1000
OTHER
1070
     0
1002
}
1002
{
1000
REACTOR
1002
}
1001
GENIUS_GENOBJ-N-FIL_13
1002
{
1000
OWNER
1000
GEN
1002
}
  0
ARC
  5
13DDC
  8
0
 10
484.64103149353241
 20
208.46485104472569
 30
0.0
 40
3.0
 50
239.99999162024909
 51
0.0
1001
GENIUS_GENOBJ-N-FIL_13
1002
{
1000
OWNER
1000
GEN
1002
}
1001
GENIUS_GENODEF_13
1002
{
1000
HIER
1070
     0
1002
}
1002
{
1000
MANEDIT
1070
     0
1002
}
1002
{
1000
NOSEL
1070
     0
1002
}
1002
{
1000
BEHIND
1070
     0
1002
}
1002
{
1000
OTHER
1070
     0
1002
}
1002
{
1000
REACTOR
1002
}
  0
LINE
  5
13DDD
  8
AM_0
 10
501.44724491614983
 20
189.07254707683779
 30
0.0
 11
488.86970208935458
 21
189.07254707683779
 31
0.0
  0
ARC
  5
13DDE
  8
AM_0
 10
478.64103116570658
 20
198.07254588474481
 30
0.0
 40
9.0000003278255516
 50
336.07018312596603
 51
0.0000050089504314
  0
CIRCLE
  5
13DDF
  8
ｷｲﾛ
 10
478.64102893053229
 20
198.07254707683759
 30
0.0
 40
4.0
  0
CIRCLE
  5
13DE0
  8
0
 10
478.64102893053229
 20
198.07254707683759
 30
0.0
 40
3.25
  0
ARC
  5
13DE1
  8
AM_0
 10
482.641029258358
 20
196.07254707683771
 30
0.0
 40
5.0
 50
270.0
 51
311.09880372126679
1001
GENIUS_GENODEF_13
1002
{
1000
HIER
1070
     0
1002
}
1002
{
1000
MANEDIT
1070
     0
1002
}
1002
{
1000
NOSEL
1070
     0
1002
}
1002
{
1000
BEHIND
1070
     0
1002
}
1002
{
1000
OTHER
1070
     0
1002
}
1002
{
1000
REACTOR
1002
}
1001
GENIUS_GENOBJ-N-FIL_13
1002
{
1000
OWNER
1000
GEN
1002
}
  0
ARC
  5
13DE2
  8
AM_0
 10
478.64103116570658
 20
198.07254588474481
 30
0.0
 40
13.00000032782555
 50
336.07018312596603
 51
0.0000050089504314
  0
LINE
  5
13DE3
  8
AM_0
 10
502.14103149353213
 20
194.8059378849434
 30
0.0
 11
491.22392752143861
 21
194.8059378849434
 31
0.0
  0
LINE
  5
13DE4
  8
AM_0
 10
502.59112534322389
 20
184.00273185120301
 30
0.0
 11
502.44642089782889
 21
188.14556038250191
 31
0.0
  0
ARC
  5
13DE5
  8
AM_0
 10
501.44597761192432
 20
188.0691942212392
 30
0.0
 40
1.003353655944897
 50
4.3650553058041632
 51
89.927631496271445
  0
ARC
  5
13DE6
  8
0
 10
483.64103149353218
 20
238.07254707683779
 30
0.0
 40
2.0
 50
90.0
 51
270.0
  0
ARC
  5
13DE7
  8
0
 10
485.64103149353213
 20
234.07254707683779
 30
0.0
 40
2.0
 50
0.0
 51
90.0
1001
GENIUS_GENODEF_13
1002
{
1000
HIER
1070
     0
1002
}
1002
{
1000
MANEDIT
1070
     0
1002
}
1002
{
1000
NOSEL
1070
     0
1002
}
1002
{
1000
BEHIND
1070
     0
1002
}
1002
{
1000
OTHER
1070
     0
1002
}
1002
{
1000
REACTOR
1002
}
1001
GENIUS_GENOBJ-N-FIL_13
1002
{
1000
OWNER
1000
GEN
1002
}
  0
LINE
  5
13DE8
  8
0
 10
484.6410304504509
 20
236.07254707683811
 30
0.0
 11
484.6410304504509
 21
236.07254707683811
 31
0.0
  0
LINE
  5
13DE9
  8
0
 10
483.64103149353218
 20
236.07254707683779
 30
0.0
 11
485.64103149353213
 21
236.07254707683779
 31
0.0
  0
LINE
  5
13DEA
  8
0
 10
484.6410304504509
 20
240.07254707683811
 30
0.0
 11
484.6410304504509
 21
240.07254707683811
 31
0.0
  0
ARC
  5
13DEB
  8
0
 10
485.64103149353213
 20
242.07254707683779
 30
0.0
 40
2.0
 50
270.0
 51
0.0
1001
GENIUS_GENOBJ-N-FIL_13
1002
{
1000
OWNER
1000
GEN
1002
}
1001
GENIUS_GENODEF_13
1002
{
1000
HIER
1070
     0
1002
}
1002
{
1000
MANEDIT
1070
     0
1002
}
1002
{
1000
NOSEL
1070
     0
1002
}
1002
{
1000
BEHIND
1070
     0
1002
}
1002
{
1000
OTHER
1070
     0
1002
}
1002
{
1000
REACTOR
1002
}
  0
LINE
  5
13DEC
  8
0
 10
483.64103149353218
 20
240.07254707683779
 30
0.0
 11
485.64103149353213
 21
240.07254707683779
 31
0.0
  0
LINE
  5
13F5B
  8
AM_0
 10
514.14713500915695
 20
294.07254707683791
 30
0.0
 11
504.5899058973813
 21
294.07254707683791
 31
0.0
  0
LINE
  5
13F5C
  8
AM_0
 10
514.14713500915695
 20
284.07254707683779
 30
0.0
 11
502.64103149353213
 21
284.07254707683779
 31
0.0
  0
ARC
  5
13F5E
  8
0
 10
439.55710871363192
 20
283.07254707683768
 30
0.0
 40
2.0
 50
90.0
 51
189.59406822686481
1001
GENIUS_GENODEF_13
1002
{
1000
HIER
1070
     0
1002
}
1002
{
1000
MANEDIT
1070
     0
1002
}
1002
{
1000
NOSEL
1070
     0
1002
}
1002
{
1000
BEHIND
1070
     0
1002
}
1002
{
1000
OTHER
1070
     0
1002
}
1002
{
1000
REACTOR
1002
}
1001
GENIUS_GENOBJ-N-FIL_13
1002
{
1000
OWNER
1000
GEN
1002
}
  0
ARC
  5
13F5F
  8
0
 10
421.14103064416599
 20
370.78087756653269
 30
0.0
 40
84.708331681787811
 50
272.64408025841698
 51
298.11404380688879
  0
ARC
  5
13F60
  8
0
 10
421.14103064416599
 20
370.78087756653269
 30
0.0
 40
80.708331681787811
 50
242.2304257427634
 51
297.76957425723663
  0
LINE
  5
13F61
  8
0
 10
423.35885684130187
 20
285.07254707683808
 30
0.0
 11
482.641029258358
 21
285.07254707683791
 31
0.0
  0
LINE
  5
13F62
  8
0
 10
457.73231855438451
 20
311.07254707683779
 30
0.0
 11
384.54974273394743
 21
311.07254707683779
 31
0.0
  0
LINE
  5
13F63
  8
0
 10
468.6410289305324
 20
315.07254707683779
 30
0.0
 11
373.64102997361368
 21
315.07254707683779
 31
0.0
  0
LINE
  5
13F65
  8
ﾁｭｳｼﾝｾﾝ1
 10
373.64102997361368
 20
316.07254707683791
 30
0.0
 11
373.64102997361368
 21
290.07254707683779
 31
0.0
1001
GENIUS_GENODEF_13
1002
{
1000
HIER
1070
     0
1002
}
1002
{
1000
MANEDIT
1070
     0
1002
}
1002
{
1000
NOSEL
1070
     0
1002
}
1002
{
1000
BEHIND
1070
     0
1002
}
1002
{
1000
OTHER
1070
     0
1002
}
1002
{
1000
REACTOR
1002
}
1001
GENIUS_GENOBJ-N-CEN_13
1002
{
1000
OWNER
1000
GEN
1002
}
  0
ARC
  5
13F66
  8
0
 10
421.14103064416599
 20
370.78087756653269
 30
0.0
 40
84.708331681787811
 50
241.88595619311121
 51
267.35590367467682
  0
ARC
  5
13F67
  8
0
 10
373.64103116570669
 20
303.0725458847449
 30
0.0
 40
9.0
 50
343.30075622292458
 51
24.624324613382718
  0
ARC
  5
13F68
  8
0
 10
380.28162948500778
 20
294.30314146017332
 30
0.0
 40
2.0
 50
61.885956193111198
 51
127.1346884327121
1001
GENIUS_GENODEF_13
1002
{
1000
HIER
1070
     0
1002
}
1002
{
1000
MANEDIT
1070
     0
1002
}
1002
{
1000
NOSEL
1070
     0
1002
}
1002
{
1000
BEHIND
1070
     0
1002
}
1002
{
1000
OTHER
1070
     0
1002
}
1002
{
1000
REACTOR
1002
}
1001
GENIUS_GENOBJ-N-FIL_13
1002
{
1000
OWNER
1000
GEN
1002
}
  0
ARC
  5
13F69
  8
0
 10
384.46949377158649
 20
301.13750128756851
 30
0.0
 40
2.0
 50
169.8681981139369
 51
242.2304257427634
1001
GENIUS_GENOBJ-N-FIL_13
1002
{
1000
OWNER
1000
GEN
1002
}
1001
GENIUS_GENODEF_13
1002
{
1000
HIER
1070
     0
1002
}
1002
{
1000
MANEDIT
1070
     0
1002
}
1002
{
1000
NOSEL
1070
     0
1002
}
1002
{
1000
BEHIND
1070
     0
1002
}
1002
{
1000
OTHER
1070
     0
1002
}
1002
{
1000
REACTOR
1002
}
  0
ARC
  5
13F6A
  8
0
 10
384.54974273394743
 20
308.07254707683779
 30
0.0
 40
3.0
 50
90.0
 51
204.6243246133827
1001
GENIUS_GENOBJ-N-FIL_13
1002
{
1000
OWNER
1000
GEN
1002
}
1001
GENIUS_GENODEF_13
1002
{
1000
HIER
1070
     0
1002
}
1002
{
1000
MANEDIT
1070
     0
1002
}
1002
{
1000
NOSEL
1070
     0
1002
}
1002
{
1000
BEHIND
1070
     0
1002
}
1002
{
1000
OTHER
1070
     0
1002
}
1002
{
1000
REACTOR
1002
}
  0
ARC
  5
13F6B
  8
0
 10
421.14101849971962
 20
281.00245722883352
 30
0.0
 40
2.0
 50
180.0
 51
0.0
  0
LINE
  5
13F6C
  8
0
 10
419.14101849971962
 20
281.00245722883329
 30
0.0
 11
419.14101849971962
 21
284.164858921693
 31
0.0
  0
ARC
  5
13F6D
  8
0
 10
417.14101849971962
 20
284.164858921693
 30
0.0
 40
2.0
 50
0.0
 51
87.355903674676838
1001
GENIUS_GENODEF_13
1002
{
1000
HIER
1070
     0
1002
}
1002
{
1000
MANEDIT
1070
     0
1002
}
1002
{
1000
NOSEL
1070
     0
1002
}
1002
{
1000
BEHIND
1070
     0
1002
}
1002
{
1000
OTHER
1070
     0
1002
}
1002
{
1000
REACTOR
1002
}
1001
GENIUS_GENOBJ-N-FIL_13
1002
{
1000
OWNER
1000
GEN
1002
}
  0
LINE
  5
13F6E
  8
0
 10
423.14101849971962
 20
281.00245722883329
 30
0.0
 11
423.14101849971962
 21
284.16485780001159
 31
0.0
  0
ARC
  5
13F6F
  8
0
 10
433.6410289305324
 20
282.07254707683779
 30
0.0
 40
4.0
 50
170.40593177313519
 51
9.5940682268648061
  0
ARC
  5
13F70
  8
0
 10
425.14101849971962
 20
284.16485780001159
 30
0.0
 40
2.0
 50
92.644080258417048
 51
180.0
1001
GENIUS_GENOBJ-N-FIL_13
1002
{
1000
OWNER
1000
GEN
1002
}
1001
GENIUS_GENODEF_13
1002
{
1000
HIER
1070
     0
1002
}
1002
{
1000
MANEDIT
1070
     0
1002
}
1002
{
1000
NOSEL
1070
     0
1002
}
1002
{
1000
BEHIND
1070
     0
1002
}
1002
{
1000
OTHER
1070
     0
1002
}
1002
{
1000
REACTOR
1002
}
  0
ARC
  5
13F71
  8
0
 10
427.72494914743288
 20
283.07254707683768
 30
0.0
 40
2.0
 50
350.40593177313531
 51
90.0
1001
GENIUS_GENODEF_13
1002
{
1000
HIER
1070
     0
1002
}
1002
{
1000
MANEDIT
1070
     0
1002
}
1002
{
1000
NOSEL
1070
     0
1002
}
1002
{
1000
BEHIND
1070
     0
1002
}
1002
{
1000
OTHER
1070
     0
1002
}
1002
{
1000
REACTOR
1002
}
1001
GENIUS_GENOBJ-N-FIL_13
1002
{
1000
OWNER
1000
GEN
1002
}
  0
ARC
  5
13F73
  8
0
 10
468.6410289305324
 20
303.07254707683779
 30
0.0
 40
12.0
 50
23.929816874034021
 51
90.0
  0
LINE
  5
13F74
  8
ﾁｭｳｼﾝｾﾝ1
 10
468.6410289305324
 20
316.07254707683791
 30
0.0
 11
468.6410289305324
 21
290.07254707683779
 31
0.0
1001
GENIUS_GENODEF_13
1002
{
1000
HIER
1070
     0
1002
}
1002
{
1000
MANEDIT
1070
     0
1002
}
1002
{
1000
NOSEL
1070
     0
1002
}
1002
{
1000
BEHIND
1070
     0
1002
}
1002
{
1000
OTHER
1070
     0
1002
}
1002
{
1000
REACTOR
1002
}
1001
GENIUS_GENOBJ-N-CEN_13
1002
{
1000
OWNER
1000
GEN
1002
}
  0
ARC
  5
13F75
  8
0
 10
468.6410301226253
 20
303.0725458847449
 30
0.0
 40
9.0
 50
207.21610922031431
 51
318.55413204283388
  0
CIRCLE
  5
13F76
  8
0
 10
468.6410289305324
 20
303.07254707683779
 30
0.0
 40
4.4999999999999982
  0
LINE
  5
13F77
  8
ﾁｭｳｼﾝｾﾝ1
 10
481.64102893053217
 20
303.07254707683779
 30
0.0
 11
455.64102893053212
 21
303.07254707683779
 31
0.0
1001
GENIUS_GENODEF_13
1002
{
1000
HIER
1070
     0
1002
}
1002
{
1000
MANEDIT
1070
     0
1002
}
1002
{
1000
NOSEL
1070
     0
1002
}
1002
{
1000
BEHIND
1070
     0
1002
}
1002
{
1000
OTHER
1070
     0
1002
}
1002
{
1000
REACTOR
1002
}
1001
GENIUS_GENOBJ-N-CEN_13
1002
{
1000
OWNER
1000
GEN
1002
}
  0
ARC
  5
13F78
  8
0
 10
467.327321474629
 20
282.07254707683802
 30
0.0
 40
3.0
 50
340.52877936551221
 51
90.0
1001
GENIUS_GENODEF_13
1002
{
1000
HIER
1070
     0
1002
}
1002
{
1000
MANEDIT
1070
     0
1002
}
1002
{
1000
NOSEL
1070
     0
1002
}
1002
{
1000
BEHIND
1070
     0
1002
}
1002
{
1000
OTHER
1070
     0
1002
}
1002
{
1000
REACTOR
1002
}
1001
GENIUS_GENOBJ-N-FIL_13
1002
{
1000
OWNER
1000
GEN
1002
}
  0
ARC
  5
13F79
  8
0
 10
468.6410301226253
 20
303.0725458847449
 30
0.0
 40
9.0
 50
155.37567538661719
 51
207.21610922031431
  0
ARC
  5
13F7A
  8
0
 10
457.8125675167455
 20
301.13750128756851
 30
0.0
 40
2.0
 50
297.76957425723663
 51
10.131801886075509
1001
GENIUS_GENOBJ-N-FIL_13
1002
{
1000
OWNER
1000
GEN
1002
}
1001
GENIUS_GENODEF_13
1002
{
1000
HIER
1070
     0
1002
}
1002
{
1000
MANEDIT
1070
     0
1002
}
1002
{
1000
NOSEL
1070
     0
1002
}
1002
{
1000
BEHIND
1070
     0
1002
}
1002
{
1000
OTHER
1070
     0
1002
}
1002
{
1000
REACTOR
1002
}
  0
ARC
  5
13F7B
  8
0
 10
462.00043180332409
 20
294.30314146017349
 30
0.0
 40
2.0
 50
52.865311567287847
 51
118.1140438068888
1001
GENIUS_GENODEF_13
1002
{
1000
HIER
1070
     0
1002
}
1002
{
1000
MANEDIT
1070
     0
1002
}
1002
{
1000
NOSEL
1070
     0
1002
}
1002
{
1000
BEHIND
1070
     0
1002
}
1002
{
1000
OTHER
1070
     0
1002
}
1002
{
1000
REACTOR
1002
}
1001
GENIUS_GENOBJ-N-FIL_13
1002
{
1000
OWNER
1000
GEN
1002
}
  0
ARC
  5
13F7C
  8
0
 10
457.73231855438451
 20
308.07254707683779
 30
0.0
 40
3.0
 50
335.37567538661648
 51
90.0
1001
GENIUS_GENOBJ-N-FIL_13
1002
{
1000
OWNER
1000
GEN
1002
}
1001
GENIUS_GENODEF_13
1002
{
1000
HIER
1070
     0
1002
}
1002
{
1000
MANEDIT
1070
     0
1002
}
1002
{
1000
NOSEL
1070
     0
1002
}
1002
{
1000
BEHIND
1070
     0
1002
}
1002
{
1000
OTHER
1070
     0
1002
}
1002
{
1000
REACTOR
1002
}
  0
LINE
  5
13F7D
  8
0
 10
479.60954486693328
 20
307.93995482151252
 30
0.0
 11
490.52359039645438
 21
283.34557345863328
 31
0.0
  0
LINE
  5
13F7E
  8
0
 10
480.37813612484769
 20
296.34645199184899
 30
0.0
 11
486.86741841765411
 21
281.72310421040851
 31
0.0
  0
ARC
  5
13F7F
  8
AM_0
 10
504.5899058973813
 20
292.07254707683779
 30
0.0
 40
1.9999999999999989
 50
90.0
 51
177.99953469735479
1001
GENIUS_GENODEF_13
1002
{
1000
HIER
1070
     0
1002
}
1002
{
1000
MANEDIT
1070
     0
1002
}
1002
{
1000
NOSEL
1070
     0
1002
}
1002
{
1000
BEHIND
1070
     0
1002
}
1002
{
1000
OTHER
1070
     0
1002
}
1002
{
1000
REACTOR
1002
}
1001
GENIUS_GENOBJ-N-FIL_13
1002
{
1000
OWNER
1000
GEN
1002
}
  0
LINE
  5
13F80
  8
AM_0
 10
501.44724491614983
 20
287.07254707683791
 30
0.0
 11
488.86970208935458
 21
287.07254707683791
 31
0.0
  0
ARC
  5
13F81
  8
AM_0
 10
478.64103116570658
 20
278.07254826893057
 30
0.0
 40
9.0000003278255516
 50
359.99999499103649
 51
23.929816874034021
  0
CIRCLE
  5
13F82
  8
ｷｲﾛ
 10
478.64102893053229
 20
278.07254707683768
 30
0.0
 40
4.0
  0
CIRCLE
  5
13F83
  8
0
 10
478.64102893053229
 20
278.07254707683768
 30
0.0
 40
3.25
  0
ARC
  5
13F84
  8
AM_0
 10
482.641029258358
 20
280.07254707683768
 30
0.0
 40
5.0
 50
48.901196278733167
 51
90.0
1001
GENIUS_GENODEF_13
1002
{
1000
HIER
1070
     0
1002
}
1002
{
1000
MANEDIT
1070
     0
1002
}
1002
{
1000
NOSEL
1070
     0
1002
}
1002
{
1000
BEHIND
1070
     0
1002
}
1002
{
1000
OTHER
1070
     0
1002
}
1002
{
1000
REACTOR
1002
}
1001
GENIUS_GENOBJ-N-FIL_13
1002
{
1000
OWNER
1000
GEN
1002
}
  0
ARC
  5
13F85
  8
AM_0
 10
478.64103116570658
 20
278.07254826893057
 30
0.0
 40
13.00000032782555
 50
359.99999499103649
 51
23.929816874034021
  0
LINE
  5
13F86
  8
AM_0
 10
502.14103149353213
 20
281.33916389812691
 30
0.0
 11
491.22392554079181
 21
281.33916389812691
 31
0.0
  0
ARC
  5
13F87
  8
AM_0
 10
501.44724487243832
 20
288.07254707683779
 30
0.0
 40
1.0000000000000091
 50
270.00000250448011
 51
352.8192495496059
  0
LINE
  5
13F88
  8
AM_0
 10
502.59112481025107
 20
292.14236230247258
 30
0.0
 11
502.44642089782889
 21
287.99954902996291
 31
0.0
  0
ARC
  5
13F89
  8
0
 10
477.63600714074732
 20
295.1296000556805
 30
0.0
 40
3.0
 50
23.929816874034021
 51
138.55413204283391
1001
GENIUS_GENOBJ-N-FIL_13
1002
{
1000
OWNER
1000
GEN
1002
}
1001
GENIUS_GENODEF_13
1002
{
1000
HIER
1070
     0
1002
}
1002
{
1000
MANEDIT
1070
     0
1002
}
1002
{
1000
NOSEL
1070
     0
1002
}
1002
{
1000
BEHIND
1070
     0
1002
}
1002
{
1000
OTHER
1070
     0
1002
}
1002
{
1000
REACTOR
1002
}
  0
LINE
  5
14385
  8
AM_0
 10
121.0909983655667
 20
284.57254827489101
 30
0.0
 11
121.09099836556661
 21
271.57254827489101
 31
0.0
  0
LINE
  5
14387
  8
AM_0
 10
121.0909983655667
 20
204.57254587878489
 30
0.0
 11
121.09099836556661
 21
191.57254587878481
 31
0.0
  0
ARC
  5
1438D
  8
AM_0
 10
110.5495943728954
 20
213.11534217286291
 30
0.0
 40
1.0
 50
92.000000000003723
 51
193.11367014329869
1001
GENIUS_GENODEF_13
1002
{
1000
HIER
1070
     0
1002
}
1002
{
1000
MANEDIT
1070
     0
1002
}
1002
{
1000
NOSEL
1070
     0
1002
}
1002
{
1000
BEHIND
1070
     0
1002
}
1002
{
1000
REACTOR
1002
}
1001
GENIUS_GENOBJ-N-FIL_13
1002
{
1000
OWNER
1000
GEN
1002
}
  0
LINE
  5
1438E
  8
AM_0
 10
113.34704403088401
 20
204.11901294323459
 30
0.0
 11
121.0909983655667
 21
204.38943778751079
 31
0.0
  0
LINE
  5
1438F
  8
AM_0
 10
113.37112793522439
 20
202.0484472541288
 30
0.0
 11
121.0909983655667
 21
201.77886343832461
 31
0.0
  0
LINE
  5
14390
  8
AM_0
 10
110.5310296105155
 20
212.04593635087849
 30
0.0
 11
118.6813047106217
 21
211.76132247281319
 31
0.0
  0
LINE
  5
14392
  8
AM_0
 10
114.6809993080546
 20
204.16559568798061
 30
0.0
 11
114.6809993080544
 21
211.9010162156728
 31
0.0
  0
ARC
  5
14393
  8
AM_0
 10
217.6809993080544
 20
238.07254707683779
 30
0.0
 40
111.0
 50
198.52714231446819
 51
198.56658080189609
  0
ARC
  5
14394
  8
AM_0
 10
113.4060274319268
 20
203.047838081148
 30
0.0
 40
1.0
 50
198.56658080190309
 51
267.99999999999301
1001
GENIUS_GENODEF_13
1002
{
1000
HIER
1070
     0
1002
}
1002
{
1000
MANEDIT
1070
     0
1002
}
1002
{
1000
NOSEL
1070
     0
1002
}
1002
{
1000
BEHIND
1070
     0
1002
}
1002
{
1000
REACTOR
1002
}
1001
GENIUS_GENOBJ-N-FIL_13
1002
{
1000
OWNER
1000
GEN
1002
}
  0
ARC
  5
14395
  8
AM_0
 10
113.3819435275868
 20
203.1196221162156
 30
0.0
 40
1.0
 50
92.000000000003723
 51
198.52714231446819
1001
GENIUS_GENODEF_13
1002
{
1000
HIER
1070
     0
1002
}
1002
{
1000
MANEDIT
1070
     0
1002
}
1002
{
1000
NOSEL
1070
     0
1002
}
1002
{
1000
BEHIND
1070
     0
1002
}
1002
{
1000
REACTOR
1002
}
1001
GENIUS_GENOBJ-N-FIL_13
1002
{
1000
OWNER
1000
GEN
1002
}
  0
ARC
  5
14396
  8
AM_0
 10
110.5659291072182
 20
213.04532717789769
 30
0.0
 40
1.0
 50
193.15111826064839
 51
267.99999999999949
1001
GENIUS_GENODEF_13
1002
{
1000
HIER
1070
     0
1002
}
1002
{
1000
MANEDIT
1070
     0
1002
}
1002
{
1000
NOSEL
1070
     0
1002
}
1002
{
1000
BEHIND
1070
     0
1002
}
1002
{
1000
REACTOR
1002
}
1001
GENIUS_GENOBJ-N-FIL_13
1002
{
1000
OWNER
1000
GEN
1002
}
  0
ARC
  5
14397
  8
AM_0
 10
217.6809993080544
 20
238.07254707683779
 30
0.0
 40
111.0
 50
193.11367014329869
 51
193.15111826064839
  0
ARC
  5
14398
  8
AM_0
 10
168.68099930805471
 20
238.07254707683779
 30
0.0
 40
56.5
 50
144.50431921274279
 51
215.49568078725721
  0
LINE
  5
14399
  8
AM_0
 10
110.51469487619281
 20
214.11473299988211
 30
0.0
 11
117.40004524993419
 21
214.35517473315349
 31
0.0
  0
ARC
  5
1439A
  8
AM_0
 10
108.7126396217848
 20
223.0426905477907
 30
0.0
 40
1.0
 50
187.853178088806
 51
267.99999999999949
1001
GENIUS_GENODEF_13
1002
{
1000
HIER
1070
     0
1002
}
1002
{
1000
MANEDIT
1070
     0
1002
}
1002
{
1000
NOSEL
1070
     0
1002
}
1002
{
1000
BEHIND
1070
     0
1002
}
1002
{
1000
REACTOR
1002
}
1001
GENIUS_GENOBJ-N-FIL_13
1002
{
1000
OWNER
1000
GEN
1002
}
  0
ARC
  5
1439B
  8
AM_0
 10
217.6809993080544
 20
238.07254707683779
 30
0.0
 40
111.0
 50
187.81694783169451
 51
187.85317808881271
  0
ARC
  5
1439C
  8
AM_0
 10
108.70315746941129
 20
223.1115983037252
 30
0.0
 40
1.0
 50
92.000000000000483
 51
187.81694783169451
1001
GENIUS_GENODEF_13
1002
{
1000
HIER
1070
     0
1002
}
1002
{
1000
MANEDIT
1070
     0
1002
}
1002
{
1000
NOSEL
1070
     0
1002
}
1002
{
1000
BEHIND
1070
     0
1002
}
1002
{
1000
REACTOR
1002
}
1001
GENIUS_GENOBJ-N-FIL_13
1002
{
1000
OWNER
1000
GEN
1002
}
  0
LINE
  5
1439D
  8
AM_0
 10
108.6682579727087
 20
224.1109891307444
 30
0.0
 11
113.8870171386345
 21
224.29323221661051
 31
0.0
  0
LINE
  5
1439E
  8
AM_0
 10
108.6777401250822
 20
222.0432997207715
 30
0.0
 11
114.5637044620311
 21
221.8377573169243
 31
0.0
  0
ARC
  5
1439F
  8
AM_0
 10
217.6809993080544
 20
238.07254707683779
 30
0.0
 40
111.0
 50
182.58663322877331
 51
182.62228408795289
  0
ARC
  5
143A0
  8
AM_0
 10
107.7961856786403
 20
233.03988042495831
 30
0.0
 40
1.0
 50
182.62228408795289
 51
267.99999999999949
1001
GENIUS_GENODEF_13
1002
{
1000
HIER
1070
     0
1002
}
1002
{
1000
MANEDIT
1070
     0
1002
}
1002
{
1000
NOSEL
1070
     0
1002
}
1002
{
1000
BEHIND
1070
     0
1002
}
1002
{
1000
REACTOR
1002
}
1001
GENIUS_GENOBJ-N-FIL_13
1002
{
1000
OWNER
1000
GEN
1002
}
  0
ARC
  5
143A1
  8
AM_0
 10
107.79307550018009
 20
233.10825445907449
 30
0.0
 40
1.0
 50
92.000000000003723
 51
182.58663322877331
1001
GENIUS_GENODEF_13
1002
{
1000
HIER
1070
     0
1002
}
1002
{
1000
MANEDIT
1070
     0
1002
}
1002
{
1000
NOSEL
1070
     0
1002
}
1002
{
1000
BEHIND
1070
     0
1002
}
1002
{
1000
REACTOR
1002
}
1001
GENIUS_GENOBJ-N-FIL_13
1002
{
1000
OWNER
1000
GEN
1002
}
  0
LINE
  5
143A2
  8
AM_0
 10
107.7581760034772
 20
234.1076452860936
 30
0.0
 11
112.3093346312511
 21
234.26657524745431
 31
0.0
  0
LINE
  5
143A3
  8
AM_0
 10
107.76128618193771
 20
232.04048959793931
 30
0.0
 11
112.5220195869435
 21
231.87424112409141
 31
0.0
  0
ARC
  5
143A4
  8
AM_0
 10
107.79307550018009
 20
243.0368396946011
 30
0.0
 40
1.0
 50
177.41336677122669
 51
267.99999999999619
1001
GENIUS_GENODEF_13
1002
{
1000
HIER
1070
     0
1002
}
1002
{
1000
MANEDIT
1070
     0
1002
}
1002
{
1000
NOSEL
1070
     0
1002
}
1002
{
1000
BEHIND
1070
     0
1002
}
1002
{
1000
REACTOR
1002
}
1001
GENIUS_GENOBJ-N-FIL_13
1002
{
1000
OWNER
1000
GEN
1002
}
  0
LINE
  5
143A5
  8
AM_0
 10
107.7581760034772
 20
242.0374488675823
 30
0.0
 11
112.3093346312511
 21
241.87851890622119
 31
0.0
  0
ARC
  5
143A6
  8
AM_0
 10
107.7961856786403
 20
243.1052137287171
 30
0.0
 40
1.0
 50
92.000000000000483
 51
177.37771591204699
1001
GENIUS_GENODEF_13
1002
{
1000
HIER
1070
     0
1002
}
1002
{
1000
MANEDIT
1070
     0
1002
}
1002
{
1000
NOSEL
1070
     0
1002
}
1002
{
1000
BEHIND
1070
     0
1002
}
1002
{
1000
REACTOR
1002
}
1001
GENIUS_GENOBJ-N-FIL_13
1002
{
1000
OWNER
1000
GEN
1002
}
  0
ARC
  5
143A7
  8
AM_0
 10
217.6809993080544
 20
238.07254707683779
 30
0.0
 40
111.0
 50
177.37771591204699
 51
177.41336677122669
  0
LINE
  5
143A8
  8
AM_0
 10
107.76128618193771
 20
244.1046045557363
 30
0.0
 11
112.5220195869435
 21
244.2708530295842
 31
0.0
  0
ARC
  5
143A9
  8
AM_0
 10
110.5659291072182
 20
263.09976697577792
 30
0.0
 40
1.0
 50
92.000000000000483
 51
166.84888173935161
1001
GENIUS_GENODEF_13
1002
{
1000
HIER
1070
     0
1002
}
1002
{
1000
MANEDIT
1070
     0
1002
}
1002
{
1000
NOSEL
1070
     0
1002
}
1002
{
1000
BEHIND
1070
     0
1002
}
1002
{
1000
REACTOR
1002
}
1001
GENIUS_GENOBJ-N-FIL_13
1002
{
1000
OWNER
1000
GEN
1002
}
  0
LINE
  5
143AA
  8
AM_0
 10
110.51469487619281
 20
262.03036115379348
 30
0.0
 11
117.40004524993419
 21
261.7899194205221
 31
0.0
  0
ARC
  5
143AB
  8
AM_0
 10
108.70315746941129
 20
253.0334958499503
 30
0.0
 40
1.0
 50
172.18305216830549
 51
267.99999999999949
1001
GENIUS_GENODEF_13
1002
{
1000
HIER
1070
     0
1002
}
1002
{
1000
MANEDIT
1070
     0
1002
}
1002
{
1000
NOSEL
1070
     0
1002
}
1002
{
1000
BEHIND
1070
     0
1002
}
1002
{
1000
REACTOR
1002
}
1001
GENIUS_GENOBJ-N-FIL_13
1002
{
1000
OWNER
1000
GEN
1002
}
  0
ARC
  5
143AC
  8
AM_0
 10
217.6809993080544
 20
238.07254707683779
 30
0.0
 40
111.0
 50
172.14682191118709
 51
172.18305216830549
  0
ARC
  5
143AD
  8
AM_0
 10
108.7126396217848
 20
253.10240360588489
 30
0.0
 40
1.0
 50
92.000000000000483
 51
172.14682191119391
1001
GENIUS_GENODEF_13
1002
{
1000
HIER
1070
     0
1002
}
1002
{
1000
MANEDIT
1070
     0
1002
}
1002
{
1000
NOSEL
1070
     0
1002
}
1002
{
1000
BEHIND
1070
     0
1002
}
1002
{
1000
REACTOR
1002
}
1001
GENIUS_GENOBJ-N-FIL_13
1002
{
1000
OWNER
1000
GEN
1002
}
  0
LINE
  5
143AE
  8
AM_0
 10
108.6682579727087
 20
252.03410502293141
 30
0.0
 11
113.8870171386345
 21
251.85186193706491
 31
0.0
  0
LINE
  5
143AF
  8
AM_0
 10
108.6777401250822
 20
254.1017944329038
 30
0.0
 11
114.5637044620311
 21
254.3073368367512
 31
0.0
  0
ARC
  5
143B0
  8
AM_0
 10
110.5495943728954
 20
263.02975198081259
 30
0.0
 40
1.0
 50
166.8863298567012
 51
267.99999999999619
1001
GENIUS_GENODEF_13
1002
{
1000
HIER
1070
     0
1002
}
1002
{
1000
MANEDIT
1070
     0
1002
}
1002
{
1000
NOSEL
1070
     0
1002
}
1002
{
1000
BEHIND
1070
     0
1002
}
1002
{
1000
REACTOR
1002
}
1001
GENIUS_GENOBJ-N-FIL_13
1002
{
1000
OWNER
1000
GEN
1002
}
  0
ARC
  5
143B1
  8
AM_0
 10
217.6809993080544
 20
238.07254707683779
 30
0.0
 40
111.0
 50
166.84888173935161
 51
166.88632985669449
  0
LINE
  5
143B2
  8
AM_0
 10
113.37112793522439
 20
274.09664689954673
 30
0.0
 11
121.09099836556661
 21
274.36623071535121
 31
0.0
  0
LINE
  5
143B3
  8
AM_0
 10
113.34704403088401
 20
272.02608121044102
 30
0.0
 11
121.09099836556661
 21
271.75565636616528
 31
0.0
  0
LINE
  5
143B4
  8
AM_0
 10
110.5310296105155
 20
264.09915780279709
 30
0.0
 11
118.5765747205825
 21
264.38011442902132
 31
0.0
  0
LINE
  5
143B5
  8
AM_0
 10
114.6809993080546
 20
271.97949846569469
 30
0.0
 11
114.6809993080544
 21
264.24407793800248
 31
0.0
  0
ARC
  5
143B6
  8
AM_0
 10
113.3819435275868
 20
273.02547203746019
 30
0.0
 40
1.0
 50
161.47285768553181
 51
267.99999999999619
1001
GENIUS_GENODEF_13
1002
{
1000
HIER
1070
     0
1002
}
1002
{
1000
MANEDIT
1070
     0
1002
}
1002
{
1000
NOSEL
1070
     0
1002
}
1002
{
1000
BEHIND
1070
     0
1002
}
1002
{
1000
REACTOR
1002
}
1001
GENIUS_GENOBJ-N-FIL_13
1002
{
1000
OWNER
1000
GEN
1002
}
  0
ARC
  5
143B7
  8
AM_0
 10
217.6809993080544
 20
238.07254707683779
 30
0.0
 40
111.0
 50
161.43341919810379
 51
161.47285768553181
  0
ARC
  5
143B8
  8
AM_0
 10
113.4060274319268
 20
273.0972560725275
 30
0.0
 40
1.0
 50
92.000000000007006
 51
161.4334191980968
1001
GENIUS_GENODEF_13
1002
{
1000
HIER
1070
     0
1002
}
1002
{
1000
MANEDIT
1070
     0
1002
}
1002
{
1000
NOSEL
1070
     0
1002
}
1002
{
1000
BEHIND
1070
     0
1002
}
1002
{
1000
REACTOR
1002
}
1001
GENIUS_GENOBJ-N-FIL_13
1002
{
1000
OWNER
1000
GEN
1002
}
  0
LINE
  5
143BA
  8
AM_0
 10
122.6809993080546
 20
204.57254587878489
 30
0.0
 11
122.6809993080546
 21
205.26629767218949
 31
0.0
  0
LINE
  5
143BC
  8
AM_0
 10
122.6809993080546
 20
270.87879648148618
 30
0.0
 11
122.6809993080546
 21
271.57254827489101
 31
0.0
  0
ARC
  5
150A8
  8
AM_0
 10
403.64102893053229
 20
238.07254707683779
 30
0.0
 40
9.5
 50
108.4084801705864
 51
71.591519829413585
  0
CIRCLE
  5
150A9
  8
ｽﾝﾎﾟｳｾﾝ
 10
403.64102893053229
 20
238.07254707683779
 30
0.0
 40
3.0
  0
LINE
  5
150AA
  8
AM_0
 10
406.64102893053229
 20
250.07254707683791
 30
0.0
 11
406.64102893053229
 21
244.07254707683779
 31
0.0
  0
LINE
  5
150AB
  8
AM_0
 10
400.6410289305324
 20
244.07254707683779
 30
0.0
 11
400.6410289305324
 21
250.07254707683791
 31
0.0
  0
LINE
  5
150AC
  8
AM_0
 10
400.6410289305324
 20
250.07254707683791
 30
0.0
 11
406.64102893053229
 21
250.07254707683791
 31
0.0
  0
LINE
  5
150AD
  8
AM_0
 10
406.64102893053229
 20
244.07254707683779
 30
0.0
 11
400.6410289305324
 21
244.07254707683779
 31
0.0
  0
LINE
  5
150AF
  8
0
 10
265.68100083915931
 20
228.57254707683759
 30
0.0
 11
238.6809992823496
 21
228.57254707398161
 31
0.0
  0
LINE
  5
150B0
  8
0
 10
238.68099933661591
 20
247.57254707683771
 30
0.0
 11
265.68100083915931
 21
247.57254707683771
 31
0.0
  0
LINE
  5
150B1
  8
ｶｸﾚｾﾝ2
 10
213.6810008391592
 20
253.07254752387269
 30
0.0
 11
213.6810008391592
 21
223.07254662980301
 31
0.0
  0
LINE
  5
150B2
  8
ｶｸﾚｾﾝ2
 10
237.6810008391592
 20
250.07254707683791
 30
0.0
 11
237.6810008391592
 21
226.07254707683779
 31
0.0
  0
LINE
  5
150B3
  8
ｶｸﾚｾﾝ2
 10
213.6810008391592
 20
223.07254662980301
 30
0.0
 11
237.6810008391592
 21
226.07254707683779
 31
0.0
  0
LINE
  5
150B4
  8
ｶｸﾚｾﾝ2
 10
213.6810008391592
 20
223.07254662980301
 30
0.0
 11
210.6810007497522
 21
223.07254662980301
 31
0.0
  0
LINE
  5
150B5
  8
ｶｸﾚｾﾝ2
 10
213.6810008391592
 20
253.07254752387269
 30
0.0
 11
237.6810008391592
 21
250.07254707683791
 31
0.0
  0
LINE
  5
150B6
  8
ｶｸﾚｾﾝ2
 10
213.6810008391592
 20
253.07254752387269
 30
0.0
 11
210.6810007497522
 21
253.07254752387269
 31
0.0
  0
LINE
  5
150B7
  8
0
 10
265.68100083915931
 20
228.57254707683759
 30
0.0
 11
265.68100083915931
 21
250.07254707683791
 31
0.0
  0
LINE
  5
150B8
  8
0
 10
265.68100083915931
 20
250.07254707683791
 30
0.0
 11
243.6810008391592
 21
250.07254707683791
 31
0.0
  0
LINE
  5
150B9
  8
0
 10
243.6810008391592
 20
250.07254707683791
 30
0.0
 11
243.6810008391592
 21
247.57254707683771
 31
0.0
  0
LINE
  5
1524E
  8
ｶｸﾚｾﾝ2
 10
238.68099933661591
 20
247.57254707683771
 30
0.0
 11
237.6810008391592
 21
247.57254707683779
 31
0.0
  0
LINE
  5
1524F
  8
ｶｸﾚｾﾝ2
 10
238.68099928234969
 20
228.57254707398161
 30
0.0
 11
237.6810008391592
 21
228.57254707398161
 31
0.0
  0
CIRCLE
  5
15250
  8
AM_0
 10
403.64102893053229
 20
238.07254707683779
 30
0.0
 40
2.5
  0
LINE
  5
15427
  8
AM_0
 10
353.74069626610589
 20
533.85724580638328
 30
0.0
 11
488.54136290579748
 21
533.85724580638328
 31
0.0
  0
LINE
  5
15428
  8
ﾁｭｳｼﾝｾﾝ1
 10
697.13282214529727
 20
495.85722472902779
 30
0.0
 11
347.64102741061367
 21
495.85726817860308
 31
0.0
1001
GENIUS_GENODEF_13
1002
{
1000
HIER
1070
     0
1002
}
1002
{
1000
MANEDIT
1070
     0
1002
}
1002
{
1000
NOSEL
1070
     0
1002
}
1002
{
1000
BEHIND
1070
     0
1002
}
1002
{
1000
REACTOR
1002
}
1001
GENIUS_GENOBJ-N-CEN_13
1002
{
1000
OWNER
1000
GEN
1002
}
  0
LINE
  5
154BC
  8
AM_0
 10
489.64103202903709
 20
470.85724392883668
 30
0.0
 11
488.54136263803929
 21
533.85726114623753
 31
0.0
  0
LINE
  5
154BD
  8
AM_0
 10
504.50955783364191
 20
551.38933320743854
 30
0.0
 11
504.50954257552758
 21
440.32515543496248
 31
0.0
  0
LINE
  5
154BE
  8
AM_0
 10
514.14713500915673
 20
551.857254729028
 30
0.0
 11
514.14713500915673
 21
439.85723372902783
 31
0.0
  0
LINE
  5
154BF
  8
AM_0
 10
503.82550190067838
 20
441.50995069824842
 30
0.0
 11
498.58954901586128
 21
471.20454000173783
 31
0.0
1001
GENIUS_GENODEF_13
1002
{
1000
HIER
1070
     0
1002
}
1002
{
1000
MANEDIT
1070
     0
1002
}
1002
{
1000
NOSEL
1070
     0
1002
}
1002
{
1000
BEHIND
1070
     0
1002
}
1002
{
1000
REACTOR
1002
}
1001
GENIUS_GENOBJ-N-CEN_13
1002
{
1000
OWNER
1000
GEN
1002
}
  0
ARC
  5
154C0
  8
AM_0
 10
505.79511790474771
 20
441.85724422902803
 30
0.0
 40
2.0
 50
189.9999917840673
 51
270.0
1001
GENIUS_GENOBJ-N-CEN_13
1002
{
1000
OWNER
1000
GEN
1002
}
1001
GENIUS_GENODEF_13
1002
{
1000
HIER
1070
     0
1002
}
1002
{
1000
MANEDIT
1070
     0
1002
}
1002
{
1000
NOSEL
1070
     0
1002
}
1002
{
1000
BEHIND
1070
     0
1002
}
1002
{
1000
OTHER
1070
     0
1002
}
1002
{
1000
REACTOR
1002
}
1001
GENIUS_GENOBJ-N-FIL_13
1002
{
1000
OWNER
1000
GEN
1002
}
  0
LINE
  5
154C1
  8
AM_0
 10
514.14713500915673
 20
439.85724422902769
 30
0.0
 11
505.79511790474771
 21
439.85724422902769
 31
0.0
  0
LINE
  5
154C2
  8
AM_0
 10
490.62372929215297
 20
472.85724392883691
 30
0.0
 11
496.61993346003629
 21
472.85724392883691
 31
0.0
  0
LINE
  5
154C3
  8
AM_0
 10
514.14713500915673
 20
449.85721872902809
 30
0.0
 11
504.50954388505539
 21
449.85724008800281
 31
0.0
  0
LINE
  5
154C4
  8
AM_0
 10
514.14713500915673
 20
463.91978672902781
 30
0.0
 11
504.50954581664359
 21
463.91731529713712
 31
0.0
  0
ARC
  5
154C5
  8
AM_0
 10
496.61993346003629
 20
470.85724392883691
 30
0.0
 40
2.0
 50
9.9999917840672303
 51
90.0
1001
GENIUS_GENODEF_13
1002
{
1000
HIER
1070
     0
1002
}
1002
{
1000
MANEDIT
1070
     0
1002
}
1002
{
1000
NOSEL
1070
     0
1002
}
1002
{
1000
BEHIND
1070
     0
1002
}
1002
{
1000
OTHER
1070
     0
1002
}
1002
{
1000
REACTOR
1002
}
1001
GENIUS_GENOBJ-N-FIL_13
1002
{
1000
OWNER
1000
GEN
1002
}
  0
ARC
  5
154C6
  8
AM_0
 10
490.62372929215297
 20
471.85724392883702
 30
0.0
 40
1.0
 50
90.0
 51
180.9999999999886
1001
GENIUS_GENODEF_13
1002
{
1000
HIER
1070
     0
1002
}
1002
{
1000
MANEDIT
1070
     0
1002
}
1002
{
1000
NOSEL
1070
     0
1002
}
1002
{
1000
BEHIND
1070
     0
1002
}
1002
{
1000
OTHER
1070
     0
1002
}
1002
{
1000
REACTOR
1002
}
1001
GENIUS_GENOBJ-N-FIL_13
1002
{
1000
OWNER
1000
GEN
1002
}
  0
LINE
  5
154C7
  8
AM_0
 10
490.54166756188528
 20
531.85724580638305
 30
0.0
 11
499.641028930532
 21
531.85724580638305
 31
0.0
  0
LINE
  5
154C8
  8
AM_0
 10
503.82551748694419
 20
550.2045408667949
 30
0.0
 11
501.64102893053177
 21
537.81570101991861
 31
0.0
1001
GENIUS_GENODEF_13
1002
{
1000
HIER
1070
     0
1002
}
1002
{
1000
MANEDIT
1070
     0
1002
}
1002
{
1000
NOSEL
1070
     0
1002
}
1002
{
1000
BEHIND
1070
     0
1002
}
1002
{
1000
REACTOR
1002
}
1001
GENIUS_GENOBJ-N-CEN_13
1002
{
1000
OWNER
1000
GEN
1002
}
  0
LINE
  5
154C9
  8
AM_0
 10
514.14713500915673
 20
527.7971942290277
 30
0.0
 11
504.50955459252879
 21
527.7971942290277
 31
0.0
  0
ARC
  5
154CA
  8
AM_0
 10
499.64102893053212
 20
533.85724580638328
 30
0.0
 40
2.0
 50
270.0
 51
0.0
1001
GENIUS_GENODEF_13
1002
{
1000
HIER
1070
     0
1002
}
1002
{
1000
MANEDIT
1070
     0
1002
}
1002
{
1000
NOSEL
1070
     0
1002
}
1002
{
1000
BEHIND
1070
     0
1002
}
1002
{
1000
OTHER
1070
     0
1002
}
1002
{
1000
REACTOR
1002
}
1001
GENIUS_GENOBJ-N-FIL_13
1002
{
1000
OWNER
1000
GEN
1002
}
  0
LINE
  5
154CB
  8
AM_0
 10
501.64102893053177
 20
533.85724580638328
 30
0.0
 11
501.64102893053177
 21
537.81570101991861
 31
0.0
  0
ARC
  5
154CC
  8
AM_0
 10
505.7951329431682
 20
549.85724422902797
 30
0.0
 40
2.0
 50
90.0
 51
169.99999178407
1001
GENIUS_GENOBJ-N-CEN_13
1002
{
1000
OWNER
1000
GEN
1002
}
1001
GENIUS_GENOBJ-N-FIL_13
1002
{
1000
OWNER
1000
GEN
1002
}
1001
GENIUS_GENODEF_13
1002
{
1000
HIER
1070
     0
1002
}
1002
{
1000
MANEDIT
1070
     0
1002
}
1002
{
1000
NOSEL
1070
     0
1002
}
1002
{
1000
BEHIND
1070
     0
1002
}
1002
{
1000
OTHER
1070
     0
1002
}
1002
{
1000
REACTOR
1002
}
  0
LINE
  5
154CD
  8
AM_0
 10
514.14713500915673
 20
541.85724422902797
 30
0.0
 11
504.50955652411341
 21
541.85724422902797
 31
0.0
  0
LINE
  5
154CE
  8
AM_0
 10
514.14713500915673
 20
551.85724422902786
 30
0.0
 11
505.79513294316803
 21
551.85724422902786
 31
0.0
  0
ARC
  5
154CF
  8
AM_0
 10
490.54166756188528
 20
533.85724580638328
 30
0.0
 40
2.0
 50
181.00000000000159
 51
270.0
1001
GENIUS_GENODEF_13
1002
{
1000
HIER
1070
     0
1002
}
1002
{
1000
MANEDIT
1070
     0
1002
}
1002
{
1000
NOSEL
1070
     0
1002
}
1002
{
1000
BEHIND
1070
     0
1002
}
1002
{
1000
OTHER
1070
     0
1002
}
1002
{
1000
REACTOR
1002
}
1001
GENIUS_GENOBJ-N-FIL_13
1002
{
1000
OWNER
1000
GEN
1002
}
  0
LINE
  5
154D0
  8
AM_0
 10
352.64102741061362
 20
470.85725926868969
 30
0.0
 11
353.74069653386408
 21
533.85726114623753
 31
0.0
  0
LINE
  5
154D1
  8
ﾁｭｳｼﾝｾﾝ1
 10
403.64102893053212
 20
542.15845500308046
 30
0.0
 11
403.64102893053212
 21
393.5378289621292
 31
0.0
  0
LINE
  5
154D2
  8
AM_0
 10
376.14102811096819
 20
537.85724592559245
 30
0.0
 11
431.14102975009558
 21
537.85724592559257
 31
0.0
  0
LINE
  5
154D3
  8
AM_0
 10
431.14102975009581
 20
537.85724592559257
 30
0.0
 11
431.14102975009581
 21
533.85724580638339
 31
0.0
  0
LINE
  5
154D4
  8
AM_0
 10
376.14102811096819
 20
537.85724592559245
 30
0.0
 11
376.14102811096819
 21
533.85724580638328
 31
0.0
  0
LINE
  5
155D1
  8
AM_0
 10
489.64103202903709
 20
470.85724392883668
 30
0.0
 11
352.64102741061362
 21
470.85725926868969
 31
0.0
  0
LINE
  5
155D2
  8
AM_0
 10
352.64102741061362
 20
470.85725926868969
 30
0.0
 11
350.64102741061407
 21
425.85724392883702
 31
0.0
  0
LINE
  5
155D3
  8
AM_0
 10
350.64102741061407
 20
425.85724392883702
 30
0.0
 11
491.64103149353218
 21
425.85724392883679
 31
0.0
  0
LINE
  5
155D4
  8
AM_0
 10
489.64103202903709
 20
470.85724392883668
 30
0.0
 11
491.64103149353218
 21
425.85724392883679
 31
0.0
  0
LINE
  5
155D5
  8
AM_0
 10
490.9299205712307
 20
441.85724396465929
 30
0.0
 11
351.35213828090963
 21
441.85724396465929
 31
0.0
  0
LINE
  5
155D6
  8
AM_0
 10
355.14102773843911
 20
535.44724580638297
 30
0.0
 11
372.14102773843911
 21
535.44724580638297
 31
0.0
  0
LINE
  5
155D7
  8
0
 10
355.14102773843911
 20
533.85724580638328
 30
0.0
 11
355.14102773843911
 21
535.44724580638297
 31
0.0
  0
LINE
  5
155D8
  8
0
 10
357.14102773843911
 20
543.44724580638285
 30
0.0
 11
357.14102773843911
 21
535.44724580638297
 31
0.0
  0
LINE
  5
155D9
  8
0
 10
370.14102773843911
 20
535.44724580638297
 30
0.0
 11
370.14102773843911
 21
543.44724580638285
 31
0.0
  0
LINE
  5
155DA
  8
0
 10
372.14102773843911
 20
533.85724580638328
 30
0.0
 11
372.14102773843911
 21
535.44724580638297
 31
0.0
  0
LINE
  5
155DB
  8
AM_0
 10
370.14102773843911
 20
543.44724580638285
 30
0.0
 11
357.14102773843911
 21
543.44724580638285
 31
0.0
  0
LINE
  5
155DC
  8
AM_0
 10
470.14103116570618
 20
535.44724580638331
 30
0.0
 11
487.14103116570612
 21
535.44724580638297
 31
0.0
  0
LINE
  5
155DD
  8
0
 10
470.14103116570618
 20
533.85724580638339
 30
0.0
 11
470.14103116570618
 21
535.44724580638331
 31
0.0
  0
LINE
  5
155DE
  8
0
 10
472.14103116570612
 20
543.44724580638285
 30
0.0
 11
472.14103116570612
 21
535.44724580638331
 31
0.0
  0
LINE
  5
155DF
  8
0
 10
485.14103116570612
 20
535.44724580638297
 30
0.0
 11
485.14103116570612
 21
543.44724580638285
 31
0.0
  0
LINE
  5
155E0
  8
0
 10
487.14103116570612
 20
533.85724580638328
 30
0.0
 11
487.14103116570612
 21
535.44724580638297
 31
0.0
  0
LINE
  5
155E1
  8
AM_0
 10
485.14103116570612
 20
543.44724580638285
 30
0.0
 11
472.14103116570612
 21
543.44724580638297
 31
0.0
  0
LINE
  5
155E2
  8
AM_0
 10
367.0991989201583
 20
425.85724392883679
 30
0.0
 11
367.09919892015841
 21
441.85724396465929
 31
0.0
  0
LINE
  5
155E3
  8
AM_0
 10
475.18285998398801
 20
425.85724392883679
 30
0.0
 11
475.18285998398801
 21
441.85724396465929
 31
0.0
  0
LINE
  5
155E4
  8
ﾁｭｳｼﾝｾﾝ1
 10
373.64102997361391
 20
420.85724392883691
 30
0.0
 11
373.64102997361391
 21
446.85724396465929
 31
0.0
  0
LINE
  5
155E5
  8
ﾁｭｳｼﾝｾﾝ1
 10
468.64102893035721
 20
420.85724392883691
 30
0.0
 11
468.64102893035721
 21
446.85724396465929
 31
0.0
  0
LINE
  5
155E7
  8
AM_0
 10
222.68099945638349
 20
290.08536209049038
 30
0.0
 11
238.68099945803741
 21
290.08536209049038
 31
0.0
  0
LINE
  5
155E8
  8
AM_0
 10
222.68099945638349
 20
186.05973204782549
 30
0.0
 11
238.68099945803741
 21
186.05973204782549
 31
0.0
  0
LINE
  5
155E9
  8
ｶｸﾚｾﾝ2
 10
388.64102848349728
 20
450.85728996220632
 30
0.0
 11
391.641028930532
 21
426.85728996220638
 31
0.0
  0
LINE
  5
155EA
  8
ｶｸﾚｾﾝ2
 10
418.64102937756678
 20
450.85728996220638
 30
0.0
 11
415.641028930532
 21
426.85728996220638
 31
0.0
  0
LINE
  5
155EB
  8
ｶｸﾚｾﾝ2
 10
415.641028930532
 20
426.85728996220638
 30
0.0
 11
391.641028930532
 21
426.85728996220638
 31
0.0
  0
LINE
  5
155EC
  8
0
 10
394.141028930532
 20
398.85728996220632
 30
0.0
 11
413.14102893053177
 21
398.85728996220632
 31
0.0
  0
LINE
  5
155ED
  8
0
 10
394.141028930532
 20
398.85728996220632
 30
0.0
 11
394.14102892767579
 21
425.85724392883679
 31
0.0
  0
LINE
  5
155EE
  8
ｶｸﾚｾﾝ2
 10
413.14102893053177
 20
426.85728996220638
 30
0.0
 11
413.14102893053177
 21
425.85724392883702
 31
0.0
  0
LINE
  5
155EF
  8
ｶｸﾚｾﾝ2
 10
418.64102937756678
 20
450.85728996220638
 30
0.0
 11
388.64102848349728
 21
450.85728996220632
 31
0.0
  0
LINE
  5
155F0
  8
ｶｸﾚｾﾝ2
 10
388.64102848349728
 20
450.85728996220632
 30
0.0
 11
388.64102848349728
 21
453.85729005161329
 31
0.0
  0
LINE
  5
155F1
  8
ｶｸﾚｾﾝ2
 10
418.64102937756678
 20
450.85728996220638
 30
0.0
 11
418.64102937756678
 21
453.8572900516134
 31
0.0
  0
LINE
  5
155F2
  8
AM_0
 10
400.64102893053177
 20
398.85728996220632
 30
0.0
 11
400.64102893053177
 21
420.85728996220649
 31
0.0
  0
LINE
  5
155F3
  8
AM_0
 10
406.641028930532
 20
398.85728996220632
 30
0.0
 11
406.641028930532
 21
420.85728996220649
 31
0.0
  0
LINE
  5
155F4
  8
AM_0
 10
406.641028930532
 20
420.85728996220649
 30
0.0
 11
400.64102893053177
 21
420.85728996220649
 31
0.0
  0
ARC
  5
155F5
  8
AM_0
 10
403.641028930532
 20
420.85728996220649
 30
0.0
 40
3.0
 50
0.0
 51
180.0
  0
LINE
  5
155F7
  8
ｶｸﾚｾﾝ2
 10
429.14102975009592
 20
453.85729005161329
 30
0.0
 11
378.14102811096831
 21
453.8572900516134
 31
0.0
  0
LINE
  5
155F8
  8
0
 10
413.14102893053177
 20
425.85724392883691
 30
0.0
 11
413.14102893053177
 21
398.85728996220632
 31
0.0
  0
LINE
  5
155FA
  8
ｶｸﾚｾﾝ2
 10
394.14102892767579
 20
425.85724392883702
 30
0.0
 11
394.14102892757012
 21
426.85728996220638
 31
0.0
  0
LINE
  5
1637E
  8
AM_0
 10
138.6809993080544
 20
175.57254707683779
 30
0.0
 11
198.6809993080544
 21
175.57254707683779
 31
0.0
  0
LINE
  5
1637F
  8
AM_0
 10
138.6809993080544
 20
188.03257414097661
 30
0.0
 11
138.68099930805431
 21
171.57254707683819
 31
0.0
  0
LINE
  5
16380
  8
AM_0
 10
198.68099930805451
 20
186.89783052848719
 30
0.0
 11
198.6809993080544
 21
171.57254707683819
 31
0.0
  0
LINE
  5
16381
  8
AM_0
 10
163.74062633339781
 20
299.95983317280093
 30
0.0
 11
163.74062633339781
 21
303.0725475685764
 31
0.0
  0
LINE
  5
16382
  8
AM_0
 10
166.94062633339789
 20
302.30481095071781
 30
0.0
 11
166.9406263333978
 21
303.0725475685764
 31
0.0
  0
LINE
  5
16383
  8
AM_0
 10
163.74062633339781
 20
303.0725475685764
 30
0.0
 11
166.9406263333978
 21
303.0725475685764
 31
0.0
  0
CIRCLE
  5
16384
  8
AM_0
 10
168.7406263333979
 20
300.57858061081782
 30
0.0
 40
2.4939669577585151
  0
LINE
  5
16385
  8
AM_0
 10
166.9406263333978
 20
296.8225475685764
 30
0.0
 11
166.94062633339789
 21
298.85235027091778
 31
0.0
  0
LINE
  5
16386
  8
AM_0
 10
166.9406263333978
 20
296.8225475685764
 30
0.0
 11
170.54062633339771
 21
296.8225475685764
 31
0.0
  0
LINE
  5
16387
  8
AM_0
 10
170.54062633339771
 20
303.0725475685764
 30
0.0
 11
173.74062633339781
 21
303.0725475685764
 31
0.0
  0
LINE
  5
16388
  8
AM_0
 10
170.54062633339771
 20
296.8225475685764
 30
0.0
 11
170.54062633339771
 21
298.85235027091761
 31
0.0
  0
LINE
  5
16389
  8
AM_0
 10
168.74062633339781
 20
298.08461365305931
 30
0.0
 11
170.540626333398
 21
298.08461365305942
 31
0.0
  0
LINE
  5
1638A
  8
AM_0
 10
170.54062633339771
 20
302.30481095071798
 30
0.0
 11
170.54062633339771
 21
303.0725475685764
 31
0.0
  0
LINE
  5
1638B
  8
AM_0
 10
168.74062633339781
 20
303.0725475685764
 30
0.0
 11
170.540626333398
 21
303.0725475685764
 31
0.0
  0
LINE
  5
1638C
  8
AM_0
 10
173.7406263333977
 20
299.9568270087629
 30
0.0
 11
173.74062633339781
 21
303.0725475685764
 31
0.0
  0
LINE
  5
1638D
  8
AM_0
 10
173.74062633339781
 20
303.0725475685764
 30
0.0
 11
190.59140214322349
 21
303.0725475685764
 31
0.0
  0
LINE
  5
1638E
  8
AM_0
 10
174.80437952824531
 20
298.08461365305931
 30
0.0
 11
182.70216071638379
 21
298.08461365305919
 31
0.0
  0
LINE
  5
1638F
  8
AM_0
 10
184.7695661285147
 20
298.08461365305931
 30
0.0
 11
189.74062633339761
 21
298.08461365305931
 31
0.0
  0
ARC
  5
16390
  8
AM_0
 10
189.74062633339761
 20
273.08461365305931
 30
0.0
 40
25.0
 50
57.467847186513779
 51
90.0
1001
GENIUS_GENOBJ-N-FIL_13
1002
{
1000
OWNER
1000
GEN
1002
}
1001
GENIUS_GENODEF_13
1002
{
1000
HIER
1070
     0
1002
}
1002
{
1000
MANEDIT
1070
     0
1002
}
1002
{
1000
NOSEL
1070
     0
1002
}
1002
{
1000
BEHIND
1070
     0
1002
}
1002
{
1000
OTHER
1070
     0
1002
}
1002
{
1000
REACTOR
1002
}
  0
ARC
  5
16391
  8
AM_0
 10
189.74062633339761
 20
273.08461365305931
 30
0.0
 40
30.0
 50
33.872197976287183
 51
88.374920016406037
1001
GENIUS_GENOBJ-N-FIL_13
1002
{
1000
OWNER
1000
GEN
1002
}
1001
GENIUS_GENODEF_13
1002
{
1000
HIER
1070
     0
1002
}
1002
{
1000
MANEDIT
1070
     0
1002
}
1002
{
1000
NOSEL
1070
     0
1002
}
1002
{
1000
BEHIND
1070
     0
1002
}
1002
{
1000
OTHER
1070
     0
1002
}
1002
{
1000
REACTOR
1002
}
  0
ARC
  5
16392
  8
AM_0
 10
189.74062633339761
 20
273.08461365305931
 30
0.0
 40
25.0
 50
41.318565358690002
 51
53.155059700517981
1001
GENIUS_GENOBJ-N-FIL_13
1002
{
1000
OWNER
1000
GEN
1002
}
1001
GENIUS_GENODEF_13
1002
{
1000
HIER
1070
     0
1002
}
1002
{
1000
MANEDIT
1070
     0
1002
}
1002
{
1000
NOSEL
1070
     0
1002
}
1002
{
1000
BEHIND
1070
     0
1002
}
1002
{
1000
OTHER
1070
     0
1002
}
1002
{
1000
REACTOR
1002
}
  0
ARC
  5
16393
  8
AM_0
 10
189.74062633339761
 20
203.06048050061651
 30
0.0
 40
30.0
 50
287.45760312371908
 51
326.12780202371277
1001
GENIUS_GENOBJ-N-FIL_13
1002
{
1000
OWNER
1000
GEN
1002
}
1001
GENIUS_GENODEF_13
1002
{
1000
HIER
1070
     0
1002
}
1002
{
1000
MANEDIT
1070
     0
1002
}
1002
{
1000
NOSEL
1070
     0
1002
}
1002
{
1000
BEHIND
1070
     0
1002
}
1002
{
1000
OTHER
1070
     0
1002
}
1002
{
1000
REACTOR
1002
}
  0
ARC
  5
16394
  8
AM_0
 10
189.74062633339761
 20
203.06048050061651
 30
0.0
 40
25.0
 50
307.00156130594928
 51
318.68143464130998
1001
GENIUS_GENOBJ-N-FIL_13
1002
{
1000
OWNER
1000
GEN
1002
}
1001
GENIUS_GENODEF_13
1002
{
1000
HIER
1070
     0
1002
}
1002
{
1000
MANEDIT
1070
     0
1002
}
1002
{
1000
NOSEL
1070
     0
1002
}
1002
{
1000
BEHIND
1070
     0
1002
}
1002
{
1000
OTHER
1070
     0
1002
}
1002
{
1000
REACTOR
1002
}
  0
ARC
  5
16395
  8
AM_0
 10
189.74062633339761
 20
203.06048050061651
 30
0.0
 40
25.0
 50
291.10019602408693
 51
301.02616100631201
1001
GENIUS_GENOBJ-N-FIL_13
1002
{
1000
OWNER
1000
GEN
1002
}
1001
GENIUS_GENODEF_13
1002
{
1000
HIER
1070
     0
1002
}
1002
{
1000
MANEDIT
1070
     0
1002
}
1002
{
1000
NOSEL
1070
     0
1002
}
1002
{
1000
BEHIND
1070
     0
1002
}
1002
{
1000
OTHER
1070
     0
1002
}
1002
{
1000
REACTOR
1002
}
  0
LINE
  5
16396
  8
AM_0
 10
163.1809930578905
 20
161.85576063661031
 30
0.0
 11
174.1809930578903
 21
161.85576063661031
 31
0.0
  0
LINE
  5
16397
  8
AM_0
 10
137.2809930578901
 20
134.57254707683811
 30
0.0
 11
200.08099305788971
 21
134.57254707683811
 31
0.0
  0
LINE
  5
16398
  8
AM_0
 10
202.1810538433312
 20
171.57254707683819
 30
0.0
 11
135.18100305789059
 21
171.57254707683819
 31
0.0
  0
LINE
  5
16399
  8
AM_0
 10
203.6809930578919
 20
168.5725470768383
 30
0.0
 11
133.68099305789201
 21
168.5725470768383
 31
0.0
  0
LINE
  5
1639A
  8
AM_0
 10
204.6809930578919
 20
147.57254707683811
 30
0.0
 11
132.6809930578919
 21
147.57254707683811
 31
0.0
  0
LINE
  5
1639B
  8
AM_0
 10
163.1809930578905
 20
147.5725470768383
 30
0.0
 11
163.1809930578905
 21
161.85576063661031
 31
0.0
  0
LINE
  5
1639C
  8
AM_0
 10
144.18099305789201
 20
167.57254707683839
 30
0.0
 11
144.18099305789201
 21
151.57254707683799
 31
0.0
  0
LINE
  5
1639D
  8
AM_0
 10
132.6809930578919
 20
167.57254707683839
 30
0.0
 11
132.6809930578919
 21
135.07254707683811
 31
0.0
  0
LINE
  5
1639E
  8
AM_0
 10
145.05084153887319
 20
147.57254707683811
 30
0.0
 11
145.05084153887319
 21
137.07254707683401
 31
0.0
  0
LINE
  5
1639F
  8
AM_0
 10
134.78099305788999
 20
146.1075470768381
 30
0.0
 11
134.78099305788999
 21
137.07254707683799
 31
0.0
  0
ARC
  5
163A0
  8
AM_0
 10
137.2809930578901
 20
137.07254707683799
 30
0.0
 40
2.4999999999999991
 50
180.0
 51
270.0
  0
ARC
  5
163A1
  8
AM_0
 10
133.18099305789039
 20
135.07254707683811
 30
0.0
 40
0.5
 50
180.0
 51
270.0
  0
LINE
  5
163A2
  8
AM_0
 10
133.18099305789039
 20
134.57254707683811
 30
0.0
 11
137.2809930578901
 21
134.57254707683811
 31
0.0
  0
POLYLINE
  5
163A3
  8
AM_0
 66
     1
 10
0.0
 20
0.0
 30
0.0
 70
     8
  0
VERTEX
  5
163A4
  8
AM_0
 10
145.0505782548471
 20
137.07250001176391
 30
0.0
 70
    32
  0
VERTEX
  5
163A5
  8
AM_0
 10
145.0505782548471
 20
137.0685000117642
 30
0.0
 70
    32
  0
VERTEX
  5
163A6
  8
AM_0
 10
145.0505782548471
 20
137.0645000117641
 30
0.0
 70
    32
  0
VERTEX
  5
163A7
  8
AM_0
 10
145.0505782548471
 20
137.05950001176399
 30
0.0
 70
    32
  0
VERTEX
  5
163A8
  8
AM_0
 10
145.0505782548471
 20
137.05550001176391
 30
0.0
 70
    32
  0
VERTEX
  5
163A9
  8
AM_0
 10
145.0505782548471
 20
137.0515000117642
 30
0.0
 70
    32
  0
VERTEX
  5
163AA
  8
AM_0
 10
145.0505782548471
 20
137.0465000117641
 30
0.0
 70
    32
  0
VERTEX
  5
163AB
  8
AM_0
 10
145.05157825484741
 20
137.0425000117643
 30
0.0
 70
    32
  0
VERTEX
  5
163AC
  8
AM_0
 10
145.05157825484741
 20
137.03850001176411
 30
0.0
 70
    32
  0
VERTEX
  5
163AD
  8
AM_0
 10
145.05157825484741
 20
137.03450001176401
 30
0.0
 70
    32
  0
VERTEX
  5
163AE
  8
AM_0
 10
145.05157825484741
 20
137.0295000117641
 30
0.0
 70
    32
  0
VERTEX
  5
163AF
  8
AM_0
 10
145.05157825484741
 20
137.02550001176371
 30
0.0
 70
    32
  0
VERTEX
  5
163B0
  8
AM_0
 10
145.05157825484741
 20
137.02150001176409
 30
0.0
 70
    32
  0
VERTEX
  5
163B1
  8
AM_0
 10
145.05157825484741
 20
137.01750001176401
 30
0.0
 70
    32
  0
VERTEX
  5
163B2
  8
AM_0
 10
145.05157825484741
 20
137.01250001176399
 30
0.0
 70
    32
  0
VERTEX
  5
163B3
  8
AM_0
 10
145.05157825484741
 20
137.00850001176391
 30
0.0
 70
    32
  0
VERTEX
  5
163B4
  8
AM_0
 10
145.05157825484741
 20
137.00450001176421
 30
0.0
 70
    32
  0
VERTEX
  5
163B5
  8
AM_0
 10
145.05157825484741
 20
136.99950001176381
 30
0.0
 70
    32
  0
VERTEX
  5
163B6
  8
AM_0
 10
145.05157825484741
 20
136.99550001176431
 30
0.0
 70
    32
  0
VERTEX
  5
163B7
  8
AM_0
 10
145.05157825484741
 20
136.9915000117638
 30
0.0
 70
    32
  0
VERTEX
  5
163B8
  8
AM_0
 10
145.05157825484741
 20
136.98750001176401
 30
0.0
 70
    32
  0
VERTEX
  5
163B9
  8
AM_0
 10
145.05157825484741
 20
136.98250001176399
 30
0.0
 70
    32
  0
VERTEX
  5
163BA
  8
AM_0
 10
145.05157825484741
 20
136.97850001176391
 30
0.0
 70
    32
  0
VERTEX
  5
163BB
  8
AM_0
 10
145.05157825484741
 20
136.97450001176409
 30
0.0
 70
    32
  0
VERTEX
  5
163BC
  8
AM_0
 10
145.05157825484741
 20
136.97050001176399
 30
0.0
 70
    32
  0
VERTEX
  5
163BD
  8
AM_0
 10
145.05257825484719
 20
136.96550001176399
 30
0.0
 70
    32
  0
VERTEX
  5
163BE
  8
AM_0
 10
145.05257825484719
 20
136.9615000117638
 30
0.0
 70
    32
  0
VERTEX
  5
163BF
  8
AM_0
 10
145.05257825484719
 20
136.95750001176421
 30
0.0
 70
    32
  0
VERTEX
  5
163C0
  8
AM_0
 10
145.05257825484719
 20
136.95350001176359
 30
0.0
 70
    32
  0
VERTEX
  5
163C1
  8
AM_0
 10
145.05257825484719
 20
136.94850001176431
 30
0.0
 70
    32
  0
VERTEX
  5
163C2
  8
AM_0
 10
145.05257825484719
 20
136.94450001176381
 30
0.0
 70
    32
  0
VERTEX
  5
163C3
  8
AM_0
 10
145.05257825484719
 20
136.94050001176399
 30
0.0
 70
    32
  0
VERTEX
  5
163C4
  8
AM_0
 10
145.05257825484719
 20
136.93550001176399
 30
0.0
 70
    32
  0
VERTEX
  5
163C5
  8
AM_0
 10
145.05257825484719
 20
136.93150001176389
 30
0.0
 70
    32
  0
VERTEX
  5
163C6
  8
AM_0
 10
145.05257825484719
 20
136.9275000117641
 30
0.0
 70
    32
  0
VERTEX
  5
163C7
  8
AM_0
 10
145.05357825484751
 20
136.92350001176391
 30
0.0
 70
    32
  0
VERTEX
  5
163C8
  8
AM_0
 10
145.05357825484751
 20
136.91850001176391
 30
0.0
 70
    32
  0
VERTEX
  5
163C9
  8
AM_0
 10
145.05357825484751
 20
136.91450001176381
 30
0.0
 70
    32
  0
VERTEX
  5
163CA
  8
AM_0
 10
145.05357825484751
 20
136.9105000117641
 30
0.0
 70
    32
  0
VERTEX
  5
163CB
  8
AM_0
 10
145.05357825484751
 20
136.906500011764
 30
0.0
 70
    32
  0
VERTEX
  5
163CC
  8
AM_0
 10
145.05357825484751
 20
136.9015000117642
 30
0.0
 70
    32
  0
VERTEX
  5
163CD
  8
AM_0
 10
145.05357825484751
 20
136.89750001176381
 30
0.0
 70
    32
  0
VERTEX
  5
163CE
  8
AM_0
 10
145.05457825484731
 20
136.89350001176399
 30
0.0
 70
    32
  0
VERTEX
  5
163CF
  8
AM_0
 10
145.05457825484731
 20
136.88950001176389
 30
0.0
 70
    32
  0
VERTEX
  5
163D0
  8
AM_0
 10
145.05457825484731
 20
136.8845000117642
 30
0.0
 70
    32
  0
VERTEX
  5
163D1
  8
AM_0
 10
145.05457825484731
 20
136.8805000117641
 30
0.0
 70
    32
  0
VERTEX
  5
163D2
  8
AM_0
 10
145.05457825484731
 20
136.87650001176399
 30
0.0
 70
    32
  0
VERTEX
  5
163D3
  8
AM_0
 10
145.05457825484731
 20
136.87150001176431
 30
0.0
 70
    32
  0
VERTEX
  5
163D4
  8
AM_0
 10
145.05457825484731
 20
136.86750001176381
 30
0.0
 70
    32
  0
VERTEX
  5
163D5
  8
AM_0
 10
145.05557825484721
 20
136.86350001176399
 30
0.0
 70
    32
  0
VERTEX
  5
163D6
  8
AM_0
 10
145.05557825484721
 20
136.8595000117642
 30
0.0
 70
    32
  0
VERTEX
  5
163D7
  8
AM_0
 10
145.05557825484721
 20
136.8545000117642
 30
0.0
 70
    32
  0
VERTEX
  5
163D8
  8
AM_0
 10
145.05557825484721
 20
136.8505000117639
 30
0.0
 70
    32
  0
VERTEX
  5
163D9
  8
AM_0
 10
145.05557825484721
 20
136.84650001176391
 30
0.0
 70
    32
  0
VERTEX
  5
163DA
  8
AM_0
 10
145.05657825484741
 20
136.8425000117638
 30
0.0
 70
    32
  0
VERTEX
  5
163DB
  8
AM_0
 10
145.05657825484741
 20
136.83750001176421
 30
0.0
 70
    32
  0
VERTEX
  5
163DC
  8
AM_0
 10
145.05657825484741
 20
136.83350001176399
 30
0.0
 70
    32
  0
VERTEX
  5
163DD
  8
AM_0
 10
145.05657825484741
 20
136.829500011764
 30
0.0
 70
    32
  0
VERTEX
  5
163DE
  8
AM_0
 10
145.05657825484741
 20
136.82550001176409
 30
0.0
 70
    32
  0
VERTEX
  5
163DF
  8
AM_0
 10
145.05657825484741
 20
136.82050001176381
 30
0.0
 70
    32
  0
VERTEX
  5
163E0
  8
AM_0
 10
145.0575782548469
 20
136.81650001176399
 30
0.0
 70
    32
  0
VERTEX
  5
163E1
  8
AM_0
 10
145.0575782548469
 20
136.8125000117642
 30
0.0
 70
    32
  0
VERTEX
  5
163E2
  8
AM_0
 10
145.0575782548469
 20
136.8085000117641
 30
0.0
 70
    32
  0
VERTEX
  5
163E3
  8
AM_0
 10
145.0575782548469
 20
136.80350001176399
 30
0.0
 70
    32
  0
VERTEX
  5
163E4
  8
AM_0
 10
145.05857825484699
 20
136.799500011764
 30
0.0
 70
    32
  0
VERTEX
  5
163E5
  8
AM_0
 10
145.05857825484699
 20
136.79550001176389
 30
0.0
 70
    32
  0
VERTEX
  5
163E6
  8
AM_0
 10
145.05857825484699
 20
136.79050001176381
 30
0.0
 70
    32
  0
VERTEX
  5
163E7
  8
AM_0
 10
145.05857825484699
 20
136.78650001176399
 30
0.0
 70
    32
  0
VERTEX
  5
163E8
  8
AM_0
 10
145.05857825484699
 20
136.782500011764
 30
0.0
 70
    32
  0
VERTEX
  5
163E9
  8
AM_0
 10
145.05957825484731
 20
136.77850001176381
 30
0.0
 70
    32
  0
VERTEX
  5
163EA
  8
AM_0
 10
145.05957825484731
 20
136.77350001176401
 30
0.0
 70
    32
  0
VERTEX
  5
163EB
  8
AM_0
 10
145.05957825484731
 20
136.76950001176411
 30
0.0
 70
    32
  0
VERTEX
  5
163EC
  8
AM_0
 10
145.05957825484731
 20
136.76550001176409
 30
0.0
 70
    32
  0
VERTEX
  5
163ED
  8
AM_0
 10
145.06057825484709
 20
136.76150001176401
 30
0.0
 70
    32
  0
VERTEX
  5
163EE
  8
AM_0
 10
145.06057825484709
 20
136.75650001176399
 30
0.0
 70
    32
  0
VERTEX
  5
163EF
  8
AM_0
 10
145.06057825484709
 20
136.75250001176391
 30
0.0
 70
    32
  0
VERTEX
  5
163F0
  8
AM_0
 10
145.06157825484701
 20
136.7485000117637
 30
0.0
 70
    32
  0
VERTEX
  5
163F1
  8
AM_0
 10
145.06157825484701
 20
136.74450001176399
 30
0.0
 70
    32
  0
VERTEX
  5
163F2
  8
AM_0
 10
145.06157825484701
 20
136.73950001176399
 30
0.0
 70
    32
  0
VERTEX
  5
163F3
  8
AM_0
 10
145.06157825484701
 20
136.73550001176389
 30
0.0
 70
    32
  0
VERTEX
  5
163F4
  8
AM_0
 10
145.06257825484721
 20
136.73150001176381
 30
0.0
 70
    32
  0
VERTEX
  5
163F5
  8
AM_0
 10
145.06257825484721
 20
136.72750001176431
 30
0.0
 70
    32
  0
VERTEX
  5
163F6
  8
AM_0
 10
145.06257825484721
 20
136.722500011764
 30
0.0
 70
    32
  0
VERTEX
  5
163F7
  8
AM_0
 10
145.06257825484721
 20
136.71850001176409
 30
0.0
 70
    32
  0
VERTEX
  5
163F8
  8
AM_0
 10
145.0635782548475
 20
136.71450001176399
 30
0.0
 70
    32
  0
VERTEX
  5
163F9
  8
AM_0
 10
145.0635782548475
 20
136.71050001176391
 30
0.0
 70
    32
  0
VERTEX
  5
163FA
  8
AM_0
 10
145.0635782548475
 20
136.70550001176389
 30
0.0
 70
    32
  0
VERTEX
  5
163FB
  8
AM_0
 10
145.06457825484731
 20
136.7015000117641
 30
0.0
 70
    32
  0
VERTEX
  5
163FC
  8
AM_0
 10
145.06457825484731
 20
136.69750001176391
 30
0.0
 70
    32
  0
VERTEX
  5
163FD
  8
AM_0
 10
145.06457825484731
 20
136.69250001176391
 30
0.0
 70
    32
  0
VERTEX
  5
163FE
  8
AM_0
 10
145.0655782548472
 20
136.68850001176389
 30
0.0
 70
    32
  0
VERTEX
  5
163FF
  8
AM_0
 10
145.0655782548472
 20
136.68450001176379
 30
0.0
 70
    32
  0
VERTEX
  5
16400
  8
AM_0
 10
145.0655782548472
 20
136.68050001176391
 30
0.0
 70
    32
  0
VERTEX
  5
16401
  8
AM_0
 10
145.066578254847
 20
136.67550001176389
 30
0.0
 70
    32
  0
VERTEX
  5
16402
  8
AM_0
 10
145.066578254847
 20
136.6715000117641
 30
0.0
 70
    32
  0
VERTEX
  5
16403
  8
AM_0
 10
145.066578254847
 20
136.6675000117643
 30
0.0
 70
    32
  0
VERTEX
  5
16404
  8
AM_0
 10
145.06757825484709
 20
136.66350001176411
 30
0.0
 70
    32
  0
VERTEX
  5
16405
  8
AM_0
 10
145.06757825484709
 20
136.65850001176381
 30
0.0
 70
    32
  0
VERTEX
  5
16406
  8
AM_0
 10
145.06757825484709
 20
136.65450001176399
 30
0.0
 70
    32
  0
VERTEX
  5
16407
  8
AM_0
 10
145.0685782548471
 20
136.65050001176391
 30
0.0
 70
    32
  0
VERTEX
  5
16408
  8
AM_0
 10
145.0685782548471
 20
136.64650001176409
 30
0.0
 70
    32
  0
VERTEX
  5
16409
  8
AM_0
 10
145.0685782548471
 20
136.6415000117639
 30
0.0
 70
    32
  0
VERTEX
  5
1640A
  8
AM_0
 10
145.0695782548473
 20
136.63750001176379
 30
0.0
 70
    32
  0
VERTEX
  5
1640B
  8
AM_0
 10
145.0695782548473
 20
136.6335000117642
 30
0.0
 70
    32
  0
VERTEX
  5
1640C
  8
AM_0
 10
145.07057825484719
 20
136.62950001176421
 30
0.0
 70
    32
  0
VERTEX
  5
1640D
  8
AM_0
 10
145.07057825484719
 20
136.6245000117641
 30
0.0
 70
    32
  0
VERTEX
  5
1640E
  8
AM_0
 10
145.07057825484719
 20
136.62050001176431
 30
0.0
 70
    32
  0
VERTEX
  5
1640F
  8
AM_0
 10
145.0715782548474
 20
136.61650001176409
 30
0.0
 70
    32
  0
VERTEX
  5
16410
  8
AM_0
 10
145.0715782548474
 20
136.6125000117641
 30
0.0
 70
    32
  0
VERTEX
  5
16411
  8
AM_0
 10
145.0725782548472
 20
136.60750001176379
 30
0.0
 70
    32
  0
VERTEX
  5
16412
  8
AM_0
 10
145.0725782548472
 20
136.6035000117642
 30
0.0
 70
    32
  0
VERTEX
  5
16413
  8
AM_0
 10
145.0725782548472
 20
136.59950001176409
 30
0.0
 70
    32
  0
VERTEX
  5
16414
  8
AM_0
 10
145.0735782548474
 20
136.59550001176399
 30
0.0
 70
    32
  0
VERTEX
  5
16415
  8
AM_0
 10
145.0735782548474
 20
136.59050001176399
 30
0.0
 70
    32
  0
VERTEX
  5
16416
  8
AM_0
 10
145.0745782548473
 20
136.5865000117642
 30
0.0
 70
    32
  0
VERTEX
  5
16417
  8
AM_0
 10
145.0745782548473
 20
136.5825000117641
 30
0.0
 70
    32
  0
VERTEX
  5
16418
  8
AM_0
 10
145.07557825484719
 20
136.57850001176399
 30
0.0
 70
    32
  0
VERTEX
  5
16419
  8
AM_0
 10
145.07557825484719
 20
136.57350001176431
 30
0.0
 70
    32
  0
VERTEX
  5
1641A
  8
AM_0
 10
145.07557825484719
 20
136.56950001176409
 30
0.0
 70
    32
  0
VERTEX
  5
1641B
  8
AM_0
 10
145.07657825484739
 20
136.56550001176399
 30
0.0
 70
    32
  0
VERTEX
  5
1641C
  8
AM_0
 10
145.07657825484739
 20
136.561500011764
 30
0.0
 70
    32
  0
VERTEX
  5
1641D
  8
AM_0
 10
145.0775782548472
 20
136.5565000117642
 30
0.0
 70
    32
  0
VERTEX
  5
1641E
  8
AM_0
 10
145.0775782548472
 20
136.5525000117639
 30
0.0
 70
    32
  0
VERTEX
  5
1641F
  8
AM_0
 10
145.07857825484709
 20
136.54850001176391
 30
0.0
 70
    32
  0
VERTEX
  5
16420
  8
AM_0
 10
145.07857825484709
 20
136.54450001176409
 30
0.0
 70
    32
  0
VERTEX
  5
16421
  8
AM_0
 10
145.07957825484729
 20
136.54050001176401
 30
0.0
 70
    32
  0
VERTEX
  5
16422
  8
AM_0
 10
145.07957825484729
 20
136.53550001176399
 30
0.0
 70
    32
  0
VERTEX
  5
16423
  8
AM_0
 10
145.0805782548475
 20
136.53150001176391
 30
0.0
 70
    32
  0
VERTEX
  5
16424
  8
AM_0
 10
145.0805782548475
 20
136.52750001176389
 30
0.0
 70
    32
  0
VERTEX
  5
16425
  8
AM_0
 10
145.08157825484739
 20
136.52350001176401
 30
0.0
 70
    32
  0
VERTEX
  5
16426
  8
AM_0
 10
145.08157825484739
 20
136.51850001176399
 30
0.0
 70
    32
  0
VERTEX
  5
16427
  8
AM_0
 10
145.08257825484759
 20
136.51450001176389
 30
0.0
 70
    32
  0
VERTEX
  5
16428
  8
AM_0
 10
145.08257825484759
 20
136.51050001176401
 30
0.0
 70
    32
  0
VERTEX
  5
16429
  8
AM_0
 10
145.0835782548474
 20
136.50650001176419
 30
0.0
 70
    32
  0
VERTEX
  5
1642A
  8
AM_0
 10
145.0835782548474
 20
136.50150001176399
 30
0.0
 70
    32
  0
VERTEX
  5
1642B
  8
AM_0
 10
145.08457825484689
 20
136.49750001176389
 30
0.0
 70
    32
  0
VERTEX
  5
1642C
  8
AM_0
 10
145.08457825484689
 20
136.49350001176401
 30
0.0
 70
    32
  0
VERTEX
  5
1642D
  8
AM_0
 10
145.08557825484721
 20
136.48950001176379
 30
0.0
 70
    32
  0
VERTEX
  5
1642E
  8
AM_0
 10
145.08557825484721
 20
136.4845000117642
 30
0.0
 70
    32
  0
VERTEX
  5
1642F
  8
AM_0
 10
145.08657825484741
 20
136.48050001176409
 30
0.0
 70
    32
  0
VERTEX
  5
16430
  8
AM_0
 10
145.08657825484741
 20
136.4765000117639
 30
0.0
 70
    32
  0
VERTEX
  5
16431
  8
AM_0
 10
145.08757825484719
 20
136.472500011764
 30
0.0
 70
    32
  0
VERTEX
  5
16432
  8
AM_0
 10
145.08757825484719
 20
136.46750001176389
 30
0.0
 70
    32
  0
VERTEX
  5
16433
  8
AM_0
 10
145.08857825484711
 20
136.46350001176401
 30
0.0
 70
    32
  0
VERTEX
  5
16434
  8
AM_0
 10
145.08857825484711
 20
136.45950001176391
 30
0.0
 70
    32
  0
VERTEX
  5
16435
  8
AM_0
 10
145.08957825484731
 20
136.45550001176409
 30
0.0
 70
    32
  0
VERTEX
  5
16436
  8
AM_0
 10
145.08957825484731
 20
136.4515000117641
 30
0.0
 70
    32
  0
VERTEX
  5
16437
  8
AM_0
 10
145.09057825484709
 20
136.4465000117643
 30
0.0
 70
    32
  0
VERTEX
  5
16438
  8
AM_0
 10
145.09157825484741
 20
136.44250001176411
 30
0.0
 70
    32
  0
VERTEX
  5
16439
  8
AM_0
 10
145.09157825484741
 20
136.43850001176401
 30
0.0
 70
    32
  0
VERTEX
  5
1643A
  8
AM_0
 10
145.09257825484721
 20
136.4345000117639
 30
0.0
 70
    32
  0
VERTEX
  5
1643B
  8
AM_0
 10
145.09257825484721
 20
136.4295000117643
 30
0.0
 70
    32
  0
VERTEX
  5
1643C
  8
AM_0
 10
145.09357825484739
 20
136.42550001176409
 30
0.0
 70
    32
  0
VERTEX
  5
1643D
  8
AM_0
 10
145.09357825484739
 20
136.42150001176401
 30
0.0
 70
    32
  0
VERTEX
  5
1643E
  8
AM_0
 10
145.09457825484731
 20
136.41750001176379
 30
0.0
 70
    32
  0
VERTEX
  5
1643F
  8
AM_0
 10
145.09557825484711
 20
136.41250001176391
 30
0.0
 70
    32
  0
VERTEX
  5
16440
  8
AM_0
 10
145.09557825484711
 20
136.4085000117642
 30
0.0
 70
    32
  0
VERTEX
  5
16441
  8
AM_0
 10
145.0965782548474
 20
136.40450001176399
 30
0.0
 70
    32
  0
VERTEX
  5
16442
  8
AM_0
 10
145.0965782548474
 20
136.40050001176391
 30
0.0
 70
    32
  0
VERTEX
  5
16443
  8
AM_0
 10
145.09757825484709
 20
136.396500011764
 30
0.0
 70
    32
  0
VERTEX
  5
16444
  8
AM_0
 10
145.0985782548471
 20
136.39150001176409
 30
0.0
 70
    32
  0
VERTEX
  5
16445
  8
AM_0
 10
145.0985782548471
 20
136.3875000117639
 30
0.0
 70
    32
  0
VERTEX
  5
16446
  8
AM_0
 10
145.0995782548473
 20
136.38350001176411
 30
0.0
 70
    32
  0
VERTEX
  5
16447
  8
AM_0
 10
145.0995782548473
 20
136.37950001176429
 30
0.0
 70
    32
  0
VERTEX
  5
16448
  8
AM_0
 10
145.10057825484751
 20
136.37450001176401
 30
0.0
 70
    32
  0
VERTEX
  5
16449
  8
AM_0
 10
145.10157825484731
 20
136.3705000117638
 30
0.0
 70
    32
  0
VERTEX
  5
1644A
  8
AM_0
 10
145.10157825484731
 20
136.366500011764
 30
0.0
 70
    32
  0
VERTEX
  5
1644B
  8
AM_0
 10
145.10257825484709
 20
136.3625000117641
 30
0.0
 70
    32
  0
VERTEX
  5
1644C
  8
AM_0
 10
145.10357825484741
 20
136.35850001176411
 30
0.0
 70
    32
  0
VERTEX
  5
1644D
  8
AM_0
 10
145.10357825484741
 20
136.35350001176391
 30
0.0
 70
    32
  0
VERTEX
  5
1644E
  8
AM_0
 10
145.1045782548473
 20
136.34950001176401
 30
0.0
 70
    32
  0
VERTEX
  5
1644F
  8
AM_0
 10
145.1045782548473
 20
136.34550001176419
 30
0.0
 70
    32
  0
VERTEX
  5
16450
  8
AM_0
 10
145.1055782548475
 20
136.3415000117642
 30
0.0
 70
    32
  0
VERTEX
  5
16451
  8
AM_0
 10
145.10657825484731
 20
136.33650001176409
 30
0.0
 70
    32
  0
VERTEX
  5
16452
  8
AM_0
 10
145.10657825484731
 20
136.3325000117643
 30
0.0
 70
    32
  0
VERTEX
  5
16453
  8
AM_0
 10
145.10757825484711
 20
136.32850001176411
 30
0.0
 70
    32
  0
VERTEX
  5
16454
  8
AM_0
 10
145.10857825484709
 20
136.324500011764
 30
0.0
 70
    32
  0
VERTEX
  5
16455
  8
AM_0
 10
145.10857825484709
 20
136.32050001176401
 30
0.0
 70
    32
  0
VERTEX
  5
16456
  8
AM_0
 10
145.10957825484729
 20
136.31550001176419
 30
0.0
 70
    32
  0
VERTEX
  5
16457
  8
AM_0
 10
145.1105782548475
 20
136.311500011764
 30
0.0
 70
    32
  0
VERTEX
  5
16458
  8
AM_0
 10
145.1105782548475
 20
136.30750001176389
 30
0.0
 70
    32
  0
VERTEX
  5
16459
  8
AM_0
 10
145.11157825484699
 20
136.30350001176421
 30
0.0
 70
    32
  0
VERTEX
  5
1645A
  8
AM_0
 10
145.11257825484719
 20
136.29850001176411
 30
0.0
 70
    32
  0
VERTEX
  5
1645B
  8
AM_0
 10
145.11257825484719
 20
136.29450001176409
 30
0.0
 70
    32
  0
VERTEX
  5
1645C
  8
AM_0
 10
145.1135782548474
 20
136.2905000117639
 30
0.0
 70
    32
  0
VERTEX
  5
1645D
  8
AM_0
 10
145.11457825484729
 20
136.28650001176391
 30
0.0
 70
    32
  0
VERTEX
  5
1645E
  8
AM_0
 10
145.11557825484709
 20
136.2825000117638
 30
0.0
 70
    32
  0
VERTEX
  5
1645F
  8
AM_0
 10
145.11557825484709
 20
136.277500011764
 30
0.0
 70
    32
  0
VERTEX
  5
16460
  8
AM_0
 10
145.11657825484701
 20
136.27350001176401
 30
0.0
 70
    32
  0
VERTEX
  5
16461
  8
AM_0
 10
145.11757825484719
 20
136.26950001176399
 30
0.0
 70
    32
  0
VERTEX
  5
16462
  8
AM_0
 10
145.11757825484719
 20
136.26550001176429
 30
0.0
 70
    32
  0
VERTEX
  5
16463
  8
AM_0
 10
145.11857825484739
 20
136.26150001176379
 30
0.0
 70
    32
  0
VERTEX
  5
16464
  8
AM_0
 10
145.11957825484731
 20
136.2565000117641
 30
0.0
 70
    32
  0
VERTEX
  5
16465
  8
AM_0
 10
145.12057825484709
 20
136.252500011764
 30
0.0
 70
    32
  0
VERTEX
  5
16466
  8
AM_0
 10
145.12057825484709
 20
136.24850001176389
 30
0.0
 70
    32
  0
VERTEX
  5
16467
  8
AM_0
 10
145.12157825484729
 20
136.24450001176399
 30
0.0
 70
    32
  0
VERTEX
  5
16468
  8
AM_0
 10
145.12257825484721
 20
136.24050001176411
 30
0.0
 70
    32
  0
VERTEX
  5
16469
  8
AM_0
 10
145.12357825484739
 20
136.235500011764
 30
0.0
 70
    32
  0
VERTEX
  5
1646A
  8
AM_0
 10
145.12357825484739
 20
136.23150001176381
 30
0.0
 70
    32
  0
VERTEX
  5
1646B
  8
AM_0
 10
145.12457825484731
 20
136.22750001176411
 30
0.0
 70
    32
  0
VERTEX
  5
1646C
  8
AM_0
 10
145.12557825484711
 20
136.223500011764
 30
0.0
 70
    32
  0
VERTEX
  5
1646D
  8
AM_0
 10
145.12657825484729
 20
136.2195000117639
 30
0.0
 70
    32
  0
VERTEX
  5
1646E
  8
AM_0
 10
145.12657825484729
 20
136.21450001176379
 30
0.0
 70
    32
  0
VERTEX
  5
1646F
  8
AM_0
 10
145.12757825484749
 20
136.21050001176411
 30
0.0
 70
    32
  0
VERTEX
  5
16470
  8
AM_0
 10
145.12857825484701
 20
136.20650001176389
 30
0.0
 70
    32
  0
VERTEX
  5
16471
  8
AM_0
 10
145.12957825484719
 20
136.2025000117641
 30
0.0
 70
    32
  0
VERTEX
  5
16472
  8
AM_0
 10
145.12957825484719
 20
136.19850001176431
 30
0.0
 70
    32
  0
VERTEX
  5
16473
  8
AM_0
 10
145.13057825484739
 20
136.193500011764
 30
0.0
 70
    32
  0
VERTEX
  5
16474
  8
AM_0
 10
145.13157825484731
 20
136.1895000117641
 30
0.0
 70
    32
  0
VERTEX
  5
16475
  8
AM_0
 10
145.13257825484709
 20
136.18550001176399
 30
0.0
 70
    32
  0
VERTEX
  5
16476
  8
AM_0
 10
145.13357825484741
 20
136.18150001176389
 30
0.0
 70
    32
  0
VERTEX
  5
16477
  8
AM_0
 10
145.13357825484741
 20
136.17750001176401
 30
0.0
 70
    32
  0
VERTEX
  5
16478
  8
AM_0
 10
145.1345782548469
 20
136.1725000117641
 30
0.0
 70
    32
  0
VERTEX
  5
16479
  8
AM_0
 10
145.1355782548471
 20
136.16850001176391
 30
0.0
 70
    32
  0
VERTEX
  5
1647A
  8
AM_0
 10
145.13657825484731
 20
136.16450001176401
 30
0.0
 70
    32
  0
VERTEX
  5
1647B
  8
AM_0
 10
145.13757825484711
 20
136.16050001176399
 30
0.0
 70
    32
  0
VERTEX
  5
1647C
  8
AM_0
 10
145.13757825484711
 20
136.15650001176391
 30
0.0
 70
    32
  0
VERTEX
  5
1647D
  8
AM_0
 10
145.138578254847
 20
136.15150001176389
 30
0.0
 70
    32
  0
VERTEX
  5
1647E
  8
AM_0
 10
145.13957825484721
 20
136.14750001176409
 30
0.0
 70
    32
  0
VERTEX
  5
1647F
  8
AM_0
 10
145.1405782548475
 20
136.14350001176399
 30
0.0
 70
    32
  0
VERTEX
  5
16480
  8
AM_0
 10
145.1415782548473
 20
136.1395000117638
 30
0.0
 70
    32
  0
VERTEX
  5
16481
  8
AM_0
 10
145.14257825484719
 20
136.1355000117639
 30
0.0
 70
    32
  0
VERTEX
  5
16482
  8
AM_0
 10
145.14257825484719
 20
136.1315000117643
 30
0.0
 70
    32
  0
VERTEX
  5
16483
  8
AM_0
 10
145.143578254847
 20
136.12650001176391
 30
0.0
 70
    32
  0
VERTEX
  5
16484
  8
AM_0
 10
145.14457825484709
 20
136.12250001176409
 30
0.0
 70
    32
  0
VERTEX
  5
16485
  8
AM_0
 10
145.14557825484741
 20
136.11850001176381
 30
0.0
 70
    32
  0
VERTEX
  5
16486
  8
AM_0
 10
145.1465782548473
 20
136.11450001176391
 30
0.0
 70
    32
  0
VERTEX
  5
16487
  8
AM_0
 10
145.1475782548475
 20
136.11050001176409
 30
0.0
 70
    32
  0
VERTEX
  5
16488
  8
AM_0
 10
145.14857825484739
 20
136.10550001176409
 30
0.0
 70
    32
  0
VERTEX
  5
16489
  8
AM_0
 10
145.14857825484739
 20
136.1015000117639
 30
0.0
 70
    32
  0
VERTEX
  5
1648A
  8
AM_0
 10
145.14957825484711
 20
136.097500011764
 30
0.0
 70
    32
  0
VERTEX
  5
1648B
  8
AM_0
 10
145.1505782548474
 20
136.09350001176401
 30
0.0
 70
    32
  0
VERTEX
  5
1648C
  8
AM_0
 10
145.15157825484729
 20
136.08950001176399
 30
0.0
 70
    32
  0
VERTEX
  5
1648D
  8
AM_0
 10
145.15257825484721
 20
136.08550001176411
 30
0.0
 70
    32
  0
VERTEX
  5
1648E
  8
AM_0
 10
145.1535782548473
 20
136.08050001176409
 30
0.0
 70
    32
  0
VERTEX
  5
1648F
  8
AM_0
 10
145.15457825484719
 20
136.07650001176401
 30
0.0
 70
    32
  0
VERTEX
  5
16490
  8
AM_0
 10
145.15557825484709
 20
136.07250001176391
 30
0.0
 70
    32
  0
VERTEX
  5
16491
  8
AM_0
 10
145.15657825484729
 20
136.068500011764
 30
0.0
 70
    32
  0
VERTEX
  5
16492
  8
AM_0
 10
145.15657825484729
 20
136.0645000117641
 30
0.0
 70
    32
  0
VERTEX
  5
16493
  8
AM_0
 10
145.15757825484681
 20
136.06050001176411
 30
0.0
 70
    32
  0
VERTEX
  5
16494
  8
AM_0
 10
145.15857825484741
 20
136.05550001176391
 30
0.0
 70
    32
  0
VERTEX
  5
16495
  8
AM_0
 10
145.15957825484719
 20
136.05150001176381
 30
0.0
 70
    32
  0
VERTEX
  5
16496
  8
AM_0
 10
145.16057825484739
 20
136.04750001176421
 30
0.0
 70
    32
  0
VERTEX
  5
16497
  8
AM_0
 10
145.16157825484689
 20
136.04350001176391
 30
0.0
 70
    32
  0
VERTEX
  5
16498
  8
AM_0
 10
145.1625782548472
 20
136.03950001176389
 30
0.0
 70
    32
  0
VERTEX
  5
16499
  8
AM_0
 10
145.16357825484741
 20
136.0355000117641
 30
0.0
 70
    32
  0
VERTEX
  5
1649A
  8
AM_0
 10
145.16457825484721
 20
136.0305000117641
 30
0.0
 70
    32
  0
VERTEX
  5
1649B
  8
AM_0
 10
145.16557825484711
 20
136.026500011764
 30
0.0
 70
    32
  0
VERTEX
  5
1649C
  8
AM_0
 10
145.16657825484691
 20
136.02250001176401
 30
0.0
 70
    32
  0
VERTEX
  5
1649D
  8
AM_0
 10
145.16757825484751
 20
136.01850001176379
 30
0.0
 70
    32
  0
VERTEX
  5
1649E
  8
AM_0
 10
145.16857825484729
 20
136.014500011764
 30
0.0
 70
    32
  0
VERTEX
  5
1649F
  8
AM_0
 10
145.16957825484721
 20
136.01050001176421
 30
0.0
 70
    32
  0
VERTEX
  5
164A0
  8
AM_0
 10
145.17057825484741
 20
136.0055000117639
 30
0.0
 70
    32
  0
VERTEX
  5
164A1
  8
AM_0
 10
145.1715782548473
 20
136.00150001176399
 30
0.0
 70
    32
  0
VERTEX
  5
164A2
  8
AM_0
 10
145.17257825484711
 20
135.9975000117642
 30
0.0
 70
    32
  0
VERTEX
  5
164A3
  8
AM_0
 10
145.1735782548474
 20
135.99350001176381
 30
0.0
 70
    32
  0
VERTEX
  5
164A4
  8
AM_0
 10
145.17457825484721
 20
135.98950001176411
 30
0.0
 70
    32
  0
VERTEX
  5
164A5
  8
AM_0
 10
145.1755782548471
 20
135.98550001176389
 30
0.0
 70
    32
  0
VERTEX
  5
164A6
  8
AM_0
 10
145.1765782548473
 20
135.9815000117641
 30
0.0
 70
    32
  0
VERTEX
  5
164A7
  8
AM_0
 10
145.1775782548475
 20
135.9765000117639
 30
0.0
 70
    32
  0
VERTEX
  5
164A8
  8
AM_0
 10
145.17857825484731
 20
135.972500011764
 30
0.0
 70
    32
  0
VERTEX
  5
164A9
  8
AM_0
 10
145.17957825484709
 20
135.96850001176389
 30
0.0
 70
    32
  0
VERTEX
  5
164AA
  8
AM_0
 10
145.1805782548474
 20
135.96450001176399
 30
0.0
 70
    32
  0
VERTEX
  5
164AB
  8
AM_0
 10
145.1815782548473
 20
135.96050001176391
 30
0.0
 70
    32
  0
VERTEX
  5
164AC
  8
AM_0
 10
145.1825782548471
 20
135.95650001176409
 30
0.0
 70
    32
  0
VERTEX
  5
164AD
  8
AM_0
 10
145.1835782548473
 20
135.9515000117639
 30
0.0
 70
    32
  0
VERTEX
  5
164AE
  8
AM_0
 10
145.18457825484691
 20
135.94750001176391
 30
0.0
 70
    32
  0
VERTEX
  5
164AF
  8
AM_0
 10
145.18557825484709
 20
135.9435000117642
 30
0.0
 70
    32
  0
VERTEX
  5
164B0
  8
AM_0
 10
145.18657825484729
 20
135.93950001176401
 30
0.0
 70
    32
  0
VERTEX
  5
164B1
  8
AM_0
 10
145.18757825484749
 20
135.93550001176399
 30
0.0
 70
    32
  0
VERTEX
  5
164B2
  8
AM_0
 10
145.18857825484699
 20
135.93150001176389
 30
0.0
 70
    32
  0
VERTEX
  5
164B3
  8
AM_0
 10
145.18957825484719
 20
135.92750001176401
 30
0.0
 70
    32
  0
VERTEX
  5
164B4
  8
AM_0
 10
145.1905782548474
 20
135.92350001176399
 30
0.0
 70
    32
  0
VERTEX
  5
164B5
  8
AM_0
 10
145.19157825484729
 20
135.9185000117638
 30
0.0
 70
    32
  0
VERTEX
  5
164B6
  8
AM_0
 10
145.19257825484709
 20
135.91450001176401
 30
0.0
 70
    32
  0
VERTEX
  5
164B7
  8
AM_0
 10
145.19357825484701
 20
135.9105000117643
 30
0.0
 70
    32
  0
VERTEX
  5
164B8
  8
AM_0
 10
145.19557825484711
 20
135.906500011764
 30
0.0
 70
    32
  0
VERTEX
  5
164B9
  8
AM_0
 10
145.19657825484731
 20
135.902500011764
 30
0.0
 70
    32
  0
VERTEX
  5
164BA
  8
AM_0
 10
145.19757825484709
 20
135.89850001176379
 30
0.0
 70
    32
  0
VERTEX
  5
164BB
  8
AM_0
 10
145.19857825484729
 20
135.8945000117638
 30
0.0
 70
    32
  0
VERTEX
  5
164BC
  8
AM_0
 10
145.19957825484721
 20
135.89050001176429
 30
0.0
 70
    32
  0
VERTEX
  5
164BD
  8
AM_0
 10
145.20057825484739
 20
135.8855000117639
 30
0.0
 70
    32
  0
VERTEX
  5
164BE
  8
AM_0
 10
145.20157825484719
 20
135.88150001176399
 30
0.0
 70
    32
  0
VERTEX
  5
164BF
  8
AM_0
 10
145.20257825484711
 20
135.8775000117638
 30
0.0
 70
    32
  0
VERTEX
  5
164C0
  8
AM_0
 10
145.20357825484729
 20
135.87350001176389
 30
0.0
 70
    32
  0
VERTEX
  5
164C1
  8
AM_0
 10
145.20557825484741
 20
135.86950001176399
 30
0.0
 70
    32
  0
VERTEX
  5
164C2
  8
AM_0
 10
145.2065782548473
 20
135.86550001176391
 30
0.0
 70
    32
  0
VERTEX
  5
164C3
  8
AM_0
 10
145.20757825484739
 20
135.86150001176421
 30
0.0
 70
    32
  0
VERTEX
  5
164C4
  8
AM_0
 10
145.20857825484731
 20
135.85750001176399
 30
0.0
 70
    32
  0
VERTEX
  5
164C5
  8
AM_0
 10
145.20957825484749
 20
135.85250001176399
 30
0.0
 70
    32
  0
VERTEX
  5
164C6
  8
AM_0
 10
145.21057825484741
 20
135.84850001176389
 30
0.0
 70
    32
  0
VERTEX
  5
164C7
  8
AM_0
 10
145.2115782548469
 20
135.8445000117641
 30
0.0
 70
    32
  0
VERTEX
  5
164C8
  8
AM_0
 10
145.21357825484731
 20
135.84050001176399
 30
0.0
 70
    32
  0
VERTEX
  5
164C9
  8
AM_0
 10
145.21457825484751
 20
135.83650001176409
 30
0.0
 70
    32
  0
VERTEX
  5
164CA
  8
AM_0
 10
145.215578254847
 20
135.83250001176421
 30
0.0
 70
    32
  0
VERTEX
  5
164CB
  8
AM_0
 10
145.21657825484709
 20
135.82850001176399
 30
0.0
 70
    32
  0
VERTEX
  5
164CC
  8
AM_0
 10
145.21757825484741
 20
135.82450001176409
 30
0.0
 70
    32
  0
VERTEX
  5
164CD
  8
AM_0
 10
145.2185782548473
 20
135.82050001176381
 30
0.0
 70
    32
  0
VERTEX
  5
164CE
  8
AM_0
 10
145.220578254847
 20
135.81650001176391
 30
0.0
 70
    32
  0
VERTEX
  5
164CF
  8
AM_0
 10
145.2215782548472
 20
135.811500011764
 30
0.0
 70
    32
  0
VERTEX
  5
164D0
  8
AM_0
 10
145.22257825484709
 20
135.80750001176381
 30
0.0
 70
    32
  0
VERTEX
  5
164D1
  8
AM_0
 10
145.2235782548473
 20
135.8035000117643
 30
0.0
 70
    32
  0
VERTEX
  5
164D2
  8
AM_0
 10
145.22457825484699
 20
135.7995000117638
 30
0.0
 70
    32
  0
VERTEX
  5
164D3
  8
AM_0
 10
145.22657825484711
 20
135.79550001176401
 30
0.0
 70
    32
  0
VERTEX
  5
164D4
  8
AM_0
 10
145.2275782548474
 20
135.79150001176399
 30
0.0
 70
    32
  0
VERTEX
  5
164D5
  8
AM_0
 10
145.22857825484729
 20
135.78750001176391
 30
0.0
 70
    32
  0
VERTEX
  5
164D6
  8
AM_0
 10
145.22957825484721
 20
135.783500011764
 30
0.0
 70
    32
  0
VERTEX
  5
164D7
  8
AM_0
 10
145.23157825484719
 20
135.77950001176421
 30
0.0
 70
    32
  0
VERTEX
  5
164D8
  8
AM_0
 10
145.23257825484711
 20
135.775500011764
 30
0.0
 70
    32
  0
VERTEX
  5
164D9
  8
AM_0
 10
145.23357825484729
 20
135.771500011764
 30
0.0
 70
    32
  0
VERTEX
  5
164DA
  8
AM_0
 10
145.23457825484749
 20
135.76650001176409
 30
0.0
 70
    32
  0
VERTEX
  5
164DB
  8
AM_0
 10
145.23657825484719
 20
135.7625000117641
 30
0.0
 70
    32
  0
VERTEX
  5
164DC
  8
AM_0
 10
145.23757825484739
 20
135.758500011764
 30
0.0
 70
    32
  0
VERTEX
  5
164DD
  8
AM_0
 10
145.238578254847
 20
135.75450001176421
 30
0.0
 70
    32
  0
VERTEX
  5
164DE
  8
AM_0
 10
145.23957825484709
 20
135.75050001176399
 30
0.0
 70
    32
  0
VERTEX
  5
164DF
  8
AM_0
 10
145.24157825484721
 20
135.74650001176431
 30
0.0
 70
    32
  0
VERTEX
  5
164E0
  8
AM_0
 10
145.2425782548471
 20
135.74250001176409
 30
0.0
 70
    32
  0
VERTEX
  5
164E1
  8
AM_0
 10
145.24357825484731
 20
135.73850001176399
 30
0.0
 70
    32
  0
VERTEX
  5
164E2
  8
AM_0
 10
145.24457825484751
 20
135.7345000117642
 30
0.0
 70
    32
  0
VERTEX
  5
164E3
  8
AM_0
 10
145.24657825484721
 20
135.73050001176409
 30
0.0
 70
    32
  0
VERTEX
  5
164E4
  8
AM_0
 10
145.24757825484741
 20
135.7265000117639
 30
0.0
 70
    32
  0
VERTEX
  5
164E5
  8
AM_0
 10
145.2485782548473
 20
135.7225000117642
 30
0.0
 70
    32
  0
VERTEX
  5
164E6
  8
AM_0
 10
145.25057825484731
 20
135.71850001176389
 30
0.0
 70
    32
  0
VERTEX
  5
164E7
  8
AM_0
 10
145.2515782548472
 20
135.71350001176401
 30
0.0
 70
    32
  0
VERTEX
  5
164E8
  8
AM_0
 10
145.25257825484709
 20
135.70950001176391
 30
0.0
 70
    32
  0
VERTEX
  5
164E9
  8
AM_0
 10
145.2545782548475
 20
135.7055000117638
 30
0.0
 70
    32
  0
VERTEX
  5
164EA
  8
AM_0
 10
145.25557825484731
 20
135.7015000117641
 30
0.0
 70
    32
  0
VERTEX
  5
164EB
  8
AM_0
 10
145.25657825484711
 20
135.69750001176391
 30
0.0
 70
    32
  0
VERTEX
  5
164EC
  8
AM_0
 10
145.25857825484729
 20
135.693500011764
 30
0.0
 70
    32
  0
VERTEX
  5
164ED
  8
AM_0
 10
145.2595782548471
 20
135.68950001176421
 30
0.0
 70
    32
  0
VERTEX
  5
164EE
  8
AM_0
 10
145.2605782548473
 20
135.68550001176379
 30
0.0
 70
    32
  0
VERTEX
  5
164EF
  8
AM_0
 10
145.26257825484711
 20
135.68150001176409
 30
0.0
 70
    32
  0
VERTEX
  5
164F0
  8
AM_0
 10
145.26357825484729
 20
135.67750001176381
 30
0.0
 70
    32
  0
VERTEX
  5
164F1
  8
AM_0
 10
145.26457825484749
 20
135.67350001176411
 30
0.0
 70
    32
  0
VERTEX
  5
164F2
  8
AM_0
 10
145.26657825484719
 20
135.6695000117642
 30
0.0
 70
    32
  0
VERTEX
  5
164F3
  8
AM_0
 10
145.26757825484739
 20
135.66550001176381
 30
0.0
 70
    32
  0
VERTEX
  5
164F4
  8
AM_0
 10
145.26857825484731
 20
135.66150001176399
 30
0.0
 70
    32
  0
VERTEX
  5
164F5
  8
AM_0
 10
145.27057825484701
 20
135.65750001176389
 30
0.0
 70
    32
  0
VERTEX
  5
164F6
  8
AM_0
 10
145.2715782548471
 20
135.65350001176381
 30
0.0
 70
    32
  0
VERTEX
  5
164F7
  8
AM_0
 10
145.27357825484719
 20
135.6495000117643
 30
0.0
 70
    32
  0
VERTEX
  5
164F8
  8
AM_0
 10
145.27457825484751
 20
135.645500011764
 30
0.0
 70
    32
  0
VERTEX
  5
164F9
  8
AM_0
 10
145.27557825484729
 20
135.64150001176401
 30
0.0
 70
    32
  0
VERTEX
  5
164FA
  8
AM_0
 10
145.27757825484741
 20
135.63750001176399
 30
0.0
 70
    32
  0
VERTEX
  5
164FB
  8
AM_0
 10
145.27857825484719
 20
135.63350001176369
 30
0.0
 70
    32
  0
VERTEX
  5
164FC
  8
AM_0
 10
145.28057825484731
 20
135.62950001176429
 30
0.0
 70
    32
  0
VERTEX
  5
164FD
  8
AM_0
 10
145.28157825484709
 20
135.62550001176419
 30
0.0
 70
    32
  0
VERTEX
  5
164FE
  8
AM_0
 10
145.28257825484701
 20
135.62150001176411
 30
0.0
 70
    32
  0
VERTEX
  5
164FF
  8
AM_0
 10
145.2845782548475
 20
135.61750001176401
 30
0.0
 70
    32
  0
VERTEX
  5
16500
  8
AM_0
 10
145.28557825484731
 20
135.6135000117641
 30
0.0
 70
    32
  0
VERTEX
  5
16501
  8
AM_0
 10
145.2875782548474
 20
135.60850001176399
 30
0.0
 70
    32
  0
VERTEX
  5
16502
  8
AM_0
 10
145.2885782548469
 20
135.60450001176409
 30
0.0
 70
    32
  0
VERTEX
  5
16503
  8
AM_0
 10
145.2905782548473
 20
135.60050001176421
 30
0.0
 70
    32
  0
VERTEX
  5
16504
  8
AM_0
 10
145.2915782548472
 20
135.59650001176411
 30
0.0
 70
    32
  0
VERTEX
  5
16505
  8
AM_0
 10
145.2935782548472
 20
135.59250001176369
 30
0.0
 70
    32
  0
VERTEX
  5
16506
  8
AM_0
 10
145.29457825484741
 20
135.5885000117641
 30
0.0
 70
    32
  0
VERTEX
  5
16507
  8
AM_0
 10
145.29657825484719
 20
135.58450001176399
 30
0.0
 70
    32
  0
VERTEX
  5
16508
  8
AM_0
 10
145.297578254847
 20
135.58050001176389
 30
0.0
 70
    32
  0
VERTEX
  5
16509
  8
AM_0
 10
145.29957825484709
 20
135.5765000117641
 30
0.0
 70
    32
  0
VERTEX
  5
1650A
  8
AM_0
 10
145.3005782548473
 20
135.57250001176391
 30
0.0
 70
    32
  0
VERTEX
  5
1650B
  8
AM_0
 10
145.30257825484739
 20
135.568500011764
 30
0.0
 70
    32
  0
VERTEX
  5
1650C
  8
AM_0
 10
145.3035782548472
 20
135.5645000117641
 30
0.0
 70
    32
  0
VERTEX
  5
1650D
  8
AM_0
 10
145.30557825484729
 20
135.56050001176391
 30
0.0
 70
    32
  0
VERTEX
  5
1650E
  8
AM_0
 10
145.30657825484721
 20
135.55650001176409
 30
0.0
 70
    32
  0
VERTEX
  5
1650F
  8
AM_0
 10
145.30857825484719
 20
135.5525000117639
 30
0.0
 70
    32
  0
VERTEX
  5
16510
  8
AM_0
 10
145.30957825484711
 20
135.54850001176411
 30
0.0
 70
    32
  0
VERTEX
  5
16511
  8
AM_0
 10
145.31157825484681
 20
135.54550001176409
 30
0.0
 70
    32
  0
VERTEX
  5
16512
  8
AM_0
 10
145.31257825484741
 20
135.5415000117641
 30
0.0
 70
    32
  0
VERTEX
  5
16513
  8
AM_0
 10
145.31457825484739
 20
135.537500011764
 30
0.0
 70
    32
  0
VERTEX
  5
16514
  8
AM_0
 10
145.315578254847
 20
135.53350001176381
 30
0.0
 70
    32
  0
VERTEX
  5
16515
  8
AM_0
 10
145.31757825484729
 20
135.52950001176399
 30
0.0
 70
    32
  0
VERTEX
  5
16516
  8
AM_0
 10
145.3185782548471
 20
135.52550001176391
 30
0.0
 70
    32
  0
VERTEX
  5
16517
  8
AM_0
 10
145.32057825484691
 20
135.52150001176409
 30
0.0
 70
    32
  0
VERTEX
  5
16518
  8
AM_0
 10
145.32257825484729
 20
135.51750001176401
 30
0.0
 70
    32
  0
VERTEX
  5
16519
  8
AM_0
 10
145.32357825484721
 20
135.51350001176399
 30
0.0
 70
    32
  0
VERTEX
  5
1651A
  8
AM_0
 10
145.3255782548473
 20
135.50950001176409
 30
0.0
 70
    32
  0
VERTEX
  5
1651B
  8
AM_0
 10
145.3265782548475
 20
135.5055000117639
 30
0.0
 70
    32
  0
VERTEX
  5
1651C
  8
AM_0
 10
145.32857825484709
 20
135.50150001176411
 30
0.0
 70
    32
  0
VERTEX
  5
1651D
  8
AM_0
 10
145.3305782548473
 20
135.497500011764
 30
0.0
 70
    32
  0
VERTEX
  5
1651E
  8
AM_0
 10
145.3315782548475
 20
135.49350001176401
 30
0.0
 70
    32
  0
VERTEX
  5
1651F
  8
AM_0
 10
145.3335782548472
 20
135.48950001176379
 30
0.0
 70
    32
  0
VERTEX
  5
16520
  8
AM_0
 10
145.3345782548474
 20
135.485500011764
 30
0.0
 70
    32
  0
VERTEX
  5
16521
  8
AM_0
 10
145.3365782548471
 20
135.4815000117641
 30
0.0
 70
    32
  0
VERTEX
  5
16522
  8
AM_0
 10
145.33857825484691
 20
135.47750001176411
 30
0.0
 70
    32
  0
VERTEX
  5
16523
  8
AM_0
 10
145.3395782548474
 20
135.473500011764
 30
0.0
 70
    32
  0
VERTEX
  5
16524
  8
AM_0
 10
145.34157825484749
 20
135.4695000117639
 30
0.0
 70
    32
  0
VERTEX
  5
16525
  8
AM_0
 10
145.34357825484719
 20
135.46550001176399
 30
0.0
 70
    32
  0
VERTEX
  5
16526
  8
AM_0
 10
145.34457825484739
 20
135.4615000117642
 30
0.0
 70
    32
  0
VERTEX
  5
16527
  8
AM_0
 10
145.34657825484709
 20
135.4575000117641
 30
0.0
 70
    32
  0
VERTEX
  5
16528
  8
AM_0
 10
145.34857825484721
 20
135.4545000117638
 30
0.0
 70
    32
  0
VERTEX
  5
16529
  8
AM_0
 10
145.34957825484739
 20
135.45050001176389
 30
0.0
 70
    32
  0
VERTEX
  5
1652A
  8
AM_0
 10
145.35157825484751
 20
135.44650001176419
 30
0.0
 70
    32
  0
VERTEX
  5
1652B
  8
AM_0
 10
145.35357825484709
 20
135.442500011764
 30
0.0
 70
    32
  0
VERTEX
  5
1652C
  8
AM_0
 10
145.35457825484741
 20
135.43850001176389
 30
0.0
 70
    32
  0
VERTEX
  5
1652D
  8
AM_0
 10
145.35657825484711
 20
135.43450001176379
 30
0.0
 70
    32
  0
VERTEX
  5
1652E
  8
AM_0
 10
145.35857825484709
 20
135.43050001176411
 30
0.0
 70
    32
  0
VERTEX
  5
1652F
  8
AM_0
 10
145.35957825484741
 20
135.4265000117642
 30
0.0
 70
    32
  0
VERTEX
  5
16530
  8
AM_0
 10
145.3615782548475
 20
135.4225000117639
 30
0.0
 70
    32
  0
VERTEX
  5
16531
  8
AM_0
 10
145.3635782548472
 20
135.41850001176391
 30
0.0
 70
    32
  0
VERTEX
  5
16532
  8
AM_0
 10
145.36557825484689
 20
135.41450001176381
 30
0.0
 70
    32
  0
VERTEX
  5
16533
  8
AM_0
 10
145.3665782548471
 20
135.41050001176399
 30
0.0
 70
    32
  0
VERTEX
  5
16534
  8
AM_0
 10
145.36857825484751
 20
135.4075000117638
 30
0.0
 70
    32
  0
VERTEX
  5
16535
  8
AM_0
 10
145.3705782548472
 20
135.40350001176409
 30
0.0
 70
    32
  0
VERTEX
  5
16536
  8
AM_0
 10
145.3725782548473
 20
135.39950001176419
 30
0.0
 70
    32
  0
VERTEX
  5
16537
  8
AM_0
 10
145.37357825484719
 20
135.395500011764
 30
0.0
 70
    32
  0
VERTEX
  5
16538
  8
AM_0
 10
145.37557825484711
 20
135.39150001176421
 30
0.0
 70
    32
  0
VERTEX
  5
16539
  8
AM_0
 10
145.37757825484729
 20
135.38750001176379
 30
0.0
 70
    32
  0
VERTEX
  5
1653A
  8
AM_0
 10
145.37957825484739
 20
135.38350001176411
 30
0.0
 70
    32
  0
VERTEX
  5
1653B
  8
AM_0
 10
145.38057825484719
 20
135.37950001176421
 30
0.0
 70
    32
  0
VERTEX
  5
1653C
  8
AM_0
 10
145.38257825484729
 20
135.3755000117641
 30
0.0
 70
    32
  0
VERTEX
  5
1653D
  8
AM_0
 10
145.38457825484741
 20
135.37250001176389
 30
0.0
 70
    32
  0
VERTEX
  5
1653E
  8
AM_0
 10
145.38657825484711
 20
135.36850001176401
 30
0.0
 70
    32
  0
VERTEX
  5
1653F
  8
AM_0
 10
145.38857825484749
 20
135.36450001176379
 30
0.0
 70
    32
  0
VERTEX
  5
16540
  8
AM_0
 10
145.38957825484741
 20
135.360500011764
 30
0.0
 70
    32
  0
VERTEX
  5
16541
  8
AM_0
 10
145.39157825484739
 20
135.35650001176401
 30
0.0
 70
    32
  0
VERTEX
  5
16542
  8
AM_0
 10
145.39357825484711
 20
135.35250001176411
 30
0.0
 70
    32
  0
VERTEX
  5
16543
  8
AM_0
 10
145.39557825484721
 20
135.348500011764
 30
0.0
 70
    32
  0
VERTEX
  5
16544
  8
AM_0
 10
145.3975782548473
 20
135.3455000117641
 30
0.0
 70
    32
  0
VERTEX
  5
16545
  8
AM_0
 10
145.39857825484751
 20
135.34150001176431
 30
0.0
 70
    32
  0
VERTEX
  5
16546
  8
AM_0
 10
145.40057825484709
 20
135.33750001176401
 30
0.0
 70
    32
  0
VERTEX
  5
16547
  8
AM_0
 10
145.4025782548473
 20
135.33350001176399
 30
0.0
 70
    32
  0
VERTEX
  5
16548
  8
AM_0
 10
145.40457825484731
 20
135.32950001176391
 30
0.0
 70
    32
  0
VERTEX
  5
16549
  8
AM_0
 10
145.40657825484709
 20
135.32550001176409
 30
0.0
 70
    32
  0
VERTEX
  5
1654A
  8
AM_0
 10
145.4085782548475
 20
135.3215000117643
 30
0.0
 70
    32
  0
VERTEX
  5
1654B
  8
AM_0
 10
145.4105782548472
 20
135.318500011764
 30
0.0
 70
    32
  0
VERTEX
  5
1654C
  8
AM_0
 10
145.41257825484729
 20
135.3145000117639
 30
0.0
 70
    32
  0
VERTEX
  5
1654D
  8
AM_0
 10
145.4135782548471
 20
135.31050001176411
 30
0.0
 70
    32
  0
VERTEX
  5
1654E
  8
AM_0
 10
145.41557825484679
 20
135.30650001176409
 30
0.0
 70
    32
  0
VERTEX
  5
1654F
  8
AM_0
 10
145.41757825484731
 20
135.30250001176381
 30
0.0
 70
    32
  0
VERTEX
  5
16550
  8
AM_0
 10
145.41957825484701
 20
135.29950001176391
 30
0.0
 70
    32
  0
VERTEX
  5
16551
  8
AM_0
 10
145.42157825484739
 20
135.29550001176389
 30
0.0
 70
    32
  0
VERTEX
  5
16552
  8
AM_0
 10
145.42357825484709
 20
135.29150001176379
 30
0.0
 70
    32
  0
VERTEX
  5
16553
  8
AM_0
 10
145.42557825484721
 20
135.28750001176391
 30
0.0
 70
    32
  0
VERTEX
  5
16554
  8
AM_0
 10
145.4275782548473
 20
135.2835000117642
 30
0.0
 70
    32
  0
VERTEX
  5
16555
  8
AM_0
 10
145.42957825484731
 20
135.2805000117641
 30
0.0
 70
    32
  0
VERTEX
  5
16556
  8
AM_0
 10
145.43157825484741
 20
135.276500011764
 30
0.0
 70
    32
  0
VERTEX
  5
16557
  8
AM_0
 10
145.43357825484711
 20
135.2725000117639
 30
0.0
 70
    32
  0
VERTEX
  5
16558
  8
AM_0
 10
145.43557825484709
 20
135.26850001176379
 30
0.0
 70
    32
  0
VERTEX
  5
16559
  8
AM_0
 10
145.4375782548471
 20
135.26450001176389
 30
0.0
 70
    32
  0
VERTEX
  5
1655A
  8
AM_0
 10
145.43957825484731
 20
135.26150001176379
 30
0.0
 70
    32
  0
VERTEX
  5
1655B
  8
AM_0
 10
145.4415782548474
 20
135.25750001176419
 30
0.0
 70
    32
  0
VERTEX
  5
1655C
  8
AM_0
 10
145.4435782548471
 20
135.25350001176409
 30
0.0
 70
    32
  0
VERTEX
  5
1655D
  8
AM_0
 10
145.44557825484719
 20
135.24950001176401
 30
0.0
 70
    32
  0
VERTEX
  5
1655E
  8
AM_0
 10
145.44757825484709
 20
135.24550001176419
 30
0.0
 70
    32
  0
VERTEX
  5
1655F
  8
AM_0
 10
145.4495782548473
 20
135.24250001176401
 30
0.0
 70
    32
  0
VERTEX
  5
16560
  8
AM_0
 10
145.45157825484699
 20
135.23850001176399
 30
0.0
 70
    32
  0
VERTEX
  5
16561
  8
AM_0
 10
145.45357825484709
 20
135.23450001176431
 30
0.0
 70
    32
  0
VERTEX
  5
16562
  8
AM_0
 10
145.45557825484721
 20
135.23050001176421
 30
0.0
 70
    32
  0
VERTEX
  5
16563
  8
AM_0
 10
145.45757825484719
 20
135.22750001176431
 30
0.0
 70
    32
  0
VERTEX
  5
16564
  8
AM_0
 10
145.45957825484729
 20
135.22350001176409
 30
0.0
 70
    32
  0
VERTEX
  5
16565
  8
AM_0
 10
145.46157825484741
 20
135.21950001176401
 30
0.0
 70
    32
  0
VERTEX
  5
16566
  8
AM_0
 10
145.46357825484711
 20
135.21550001176399
 30
0.0
 70
    32
  0
VERTEX
  5
16567
  8
AM_0
 10
145.4655782548468
 20
135.21250001176389
 30
0.0
 70
    32
  0
VERTEX
  5
16568
  8
AM_0
 10
145.4675782548475
 20
135.2085000117639
 30
0.0
 70
    32
  0
VERTEX
  5
16569
  8
AM_0
 10
145.46957825484691
 20
135.2045000117638
 30
0.0
 70
    32
  0
VERTEX
  5
1656A
  8
AM_0
 10
145.4715782548474
 20
135.20150001176381
 30
0.0
 70
    32
  0
VERTEX
  5
1656B
  8
AM_0
 10
145.4745782548473
 20
135.19750001176391
 30
0.0
 70
    32
  0
VERTEX
  5
1656C
  8
AM_0
 10
145.47657825484731
 20
135.1935000117642
 30
0.0
 70
    32
  0
VERTEX
  5
1656D
  8
AM_0
 10
145.47857825484709
 20
135.1895000117639
 30
0.0
 70
    32
  0
VERTEX
  5
1656E
  8
AM_0
 10
145.48057825484699
 20
135.186500011764
 30
0.0
 70
    32
  0
VERTEX
  5
1656F
  8
AM_0
 10
145.48257825484711
 20
135.18250001176389
 30
0.0
 70
    32
  0
VERTEX
  5
16570
  8
AM_0
 10
145.48457825484729
 20
135.17850001176421
 30
0.0
 70
    32
  0
VERTEX
  5
16571
  8
AM_0
 10
145.4865782548473
 20
135.175500011764
 30
0.0
 70
    32
  0
VERTEX
  5
16572
  8
AM_0
 10
145.4885782548474
 20
135.1715000117639
 30
0.0
 70
    32
  0
VERTEX
  5
16573
  8
AM_0
 10
145.4915782548473
 20
135.16750001176399
 30
0.0
 70
    32
  0
VERTEX
  5
16574
  8
AM_0
 10
145.49357825484739
 20
135.16450001176401
 30
0.0
 70
    32
  0
VERTEX
  5
16575
  8
AM_0
 10
145.49557825484749
 20
135.1605000117641
 30
0.0
 70
    32
  0
VERTEX
  5
16576
  8
AM_0
 10
145.49757825484721
 20
135.1565000117638
 30
0.0
 70
    32
  0
VERTEX
  5
16577
  8
AM_0
 10
145.49957825484719
 20
135.15350001176381
 30
0.0
 70
    32
  0
VERTEX
  5
16578
  8
AM_0
 10
145.50257825484721
 20
135.14950001176419
 30
0.0
 70
    32
  0
VERTEX
  5
16579
  8
AM_0
 10
145.5045782548473
 20
135.145500011764
 30
0.0
 70
    32
  0
VERTEX
  5
1657A
  8
AM_0
 10
145.50657825484731
 20
135.1425000117641
 30
0.0
 70
    32
  0
VERTEX
  5
1657B
  8
AM_0
 10
145.50857825484741
 20
135.13850001176391
 30
0.0
 70
    32
  0
VERTEX
  5
1657C
  8
AM_0
 10
145.5105782548471
 20
135.13450001176409
 30
0.0
 70
    32
  0
VERTEX
  5
1657D
  8
AM_0
 10
145.5135782548474
 20
135.1315000117641
 30
0.0
 70
    32
  0
VERTEX
  5
1657E
  8
AM_0
 10
145.51557825484741
 20
135.127500011764
 30
0.0
 70
    32
  0
VERTEX
  5
1657F
  8
AM_0
 10
145.51757825484719
 20
135.12350001176389
 30
0.0
 70
    32
  0
VERTEX
  5
16580
  8
AM_0
 10
145.51957825484689
 20
135.12050001176431
 30
0.0
 70
    32
  0
VERTEX
  5
16581
  8
AM_0
 10
145.5225782548475
 20
135.1165000117642
 30
0.0
 70
    32
  0
VERTEX
  5
16582
  8
AM_0
 10
145.52457825484711
 20
135.11350001176419
 30
0.0
 70
    32
  0
VERTEX
  5
16583
  8
AM_0
 10
145.52657825484729
 20
135.1095000117642
 30
0.0
 70
    32
  0
VERTEX
  5
16584
  8
AM_0
 10
145.52857825484699
 20
135.10550001176401
 30
0.0
 70
    32
  0
VERTEX
  5
16585
  8
AM_0
 10
145.53157825484729
 20
135.10250001176399
 30
0.0
 70
    32
  0
VERTEX
  5
16586
  8
AM_0
 10
145.53357825484741
 20
135.09850001176389
 30
0.0
 70
    32
  0
VERTEX
  5
16587
  8
AM_0
 10
145.53557825484739
 20
135.09550001176399
 30
0.0
 70
    32
  0
VERTEX
  5
16588
  8
AM_0
 10
145.53857825484729
 20
135.0915000117642
 30
0.0
 70
    32
  0
VERTEX
  5
16589
  8
AM_0
 10
145.54057825484711
 20
135.08750001176389
 30
0.0
 70
    32
  0
VERTEX
  5
1658A
  8
AM_0
 10
145.54257825484751
 20
135.08450001176411
 30
0.0
 70
    32
  0
VERTEX
  5
1658B
  8
AM_0
 10
145.54557825484741
 20
135.080500011764
 30
0.0
 70
    32
  0
VERTEX
  5
1658C
  8
AM_0
 10
145.54757825484711
 20
135.0775000117641
 30
0.0
 70
    32
  0
VERTEX
  5
1658D
  8
AM_0
 10
145.54957825484721
 20
135.07350001176431
 30
0.0
 70
    32
  0
VERTEX
  5
1658E
  8
AM_0
 10
145.5525782548475
 20
135.07050001176381
 30
0.0
 70
    32
  0
VERTEX
  5
1658F
  8
AM_0
 10
145.55457825484709
 20
135.06650001176391
 30
0.0
 70
    32
  0
VERTEX
  5
16590
  8
AM_0
 10
145.5575782548471
 20
135.06350001176369
 30
0.0
 70
    32
  0
VERTEX
  5
16591
  8
AM_0
 10
145.5595782548472
 20
135.0595000117641
 30
0.0
 70
    32
  0
VERTEX
  5
16592
  8
AM_0
 10
145.56157825484729
 20
135.055500011764
 30
0.0
 70
    32
  0
VERTEX
  5
16593
  8
AM_0
 10
145.56457825484719
 20
135.0525000117641
 30
0.0
 70
    32
  0
VERTEX
  5
16594
  8
AM_0
 10
145.56657825484729
 20
135.04850001176391
 30
0.0
 70
    32
  0
VERTEX
  5
16595
  8
AM_0
 10
145.5695782548469
 20
135.04550001176401
 30
0.0
 70
    32
  0
VERTEX
  5
16596
  8
AM_0
 10
145.5715782548472
 20
135.0415000117639
 30
0.0
 70
    32
  0
VERTEX
  5
16597
  8
AM_0
 10
145.57457825484721
 20
135.03850001176411
 30
0.0
 70
    32
  0
VERTEX
  5
16598
  8
AM_0
 10
145.57657825484759
 20
135.0345000117639
 30
0.0
 70
    32
  0
VERTEX
  5
16599
  8
AM_0
 10
145.578578254847
 20
135.03150001176391
 30
0.0
 70
    32
  0
VERTEX
  5
1659A
  8
AM_0
 10
145.58157825484719
 20
135.02750001176389
 30
0.0
 70
    32
  0
VERTEX
  5
1659B
  8
AM_0
 10
145.58357825484731
 20
135.02450001176419
 30
0.0
 70
    32
  0
VERTEX
  5
1659C
  8
AM_0
 10
145.5865782548471
 20
135.020500011764
 30
0.0
 70
    32
  0
VERTEX
  5
1659D
  8
AM_0
 10
145.58857825484731
 20
135.0175000117641
 30
0.0
 70
    32
  0
VERTEX
  5
1659E
  8
AM_0
 10
145.59157825484729
 20
135.0145000117638
 30
0.0
 70
    32
  0
VERTEX
  5
1659F
  8
AM_0
 10
145.5935782548473
 20
135.01050001176401
 30
0.0
 70
    32
  0
VERTEX
  5
165A0
  8
AM_0
 10
145.59657825484689
 20
135.00750001176391
 30
0.0
 70
    32
  0
VERTEX
  5
165A1
  8
AM_0
 10
145.5985782548473
 20
135.003500011764
 30
0.0
 70
    32
  0
VERTEX
  5
165A2
  8
AM_0
 10
145.60157825484711
 20
135.00050001176399
 30
0.0
 70
    32
  0
VERTEX
  5
165A3
  8
AM_0
 10
145.60357825484729
 20
134.99650001176431
 30
0.0
 70
    32
  0
VERTEX
  5
165A4
  8
AM_0
 10
145.60657825484719
 20
134.99350001176381
 30
0.0
 70
    32
  0
VERTEX
  5
165A5
  8
AM_0
 10
145.60957825484749
 20
134.99050001176411
 30
0.0
 70
    32
  0
VERTEX
  5
165A6
  8
AM_0
 10
145.61157825484759
 20
134.98650001176429
 30
0.0
 70
    32
  0
VERTEX
  5
165A7
  8
AM_0
 10
145.6145782548472
 20
134.98350001176399
 30
0.0
 70
    32
  0
VERTEX
  5
165A8
  8
AM_0
 10
145.61657825484721
 20
134.9795000117642
 30
0.0
 70
    32
  0
VERTEX
  5
165A9
  8
AM_0
 10
145.61957825484751
 20
134.9765000117639
 30
0.0
 70
    32
  0
VERTEX
  5
165AA
  8
AM_0
 10
145.62257825484741
 20
134.9735000117638
 30
0.0
 70
    32
  0
VERTEX
  5
165AB
  8
AM_0
 10
145.62457825484711
 20
134.96950001176421
 30
0.0
 70
    32
  0
VERTEX
  5
165AC
  8
AM_0
 10
145.62757825484709
 20
134.96650001176431
 30
0.0
 70
    32
  0
VERTEX
  5
165AD
  8
AM_0
 10
145.6295782548475
 20
134.96250001176409
 30
0.0
 70
    32
  0
VERTEX
  5
165AE
  8
AM_0
 10
145.63257825484709
 20
134.95950001176419
 30
0.0
 70
    32
  0
VERTEX
  5
165AF
  8
AM_0
 10
145.6355782548473
 20
134.95650001176401
 30
0.0
 70
    32
  0
VERTEX
  5
165B0
  8
AM_0
 10
145.63757825484711
 20
134.95250001176419
 30
0.0
 70
    32
  0
VERTEX
  5
165B1
  8
AM_0
 10
145.6405782548473
 20
134.9495000117642
 30
0.0
 70
    32
  0
VERTEX
  5
165B2
  8
AM_0
 10
145.64357825484731
 20
134.9465000117643
 30
0.0
 70
    32
  0
VERTEX
  5
165B3
  8
AM_0
 10
145.64557825484729
 20
134.9425000117642
 30
0.0
 70
    32
  0
VERTEX
  5
165B4
  8
AM_0
 10
145.64857825484719
 20
134.9395000117641
 30
0.0
 70
    32
  0
VERTEX
  5
165B5
  8
AM_0
 10
145.6515782548471
 20
134.936500011764
 30
0.0
 70
    32
  0
VERTEX
  5
165B6
  8
AM_0
 10
145.65457825484711
 20
134.93350001176381
 30
0.0
 70
    32
  0
VERTEX
  5
165B7
  8
AM_0
 10
145.65657825484709
 20
134.92950001176391
 30
0.0
 70
    32
  0
VERTEX
  5
165B8
  8
AM_0
 10
145.65957825484699
 20
134.92650001176381
 30
0.0
 70
    32
  0
VERTEX
  5
165B9
  8
AM_0
 10
145.6625782548474
 20
134.92350001176399
 30
0.0
 70
    32
  0
VERTEX
  5
165BA
  8
AM_0
 10
145.6655782548473
 20
134.91950001176431
 30
0.0
 70
    32
  0
VERTEX
  5
165BB
  8
AM_0
 10
145.6675782548474
 20
134.91650001176379
 30
0.0
 70
    32
  0
VERTEX
  5
165BC
  8
AM_0
 10
145.6705782548473
 20
134.91350001176411
 30
0.0
 70
    32
  0
VERTEX
  5
165BD
  8
AM_0
 10
145.6735782548468
 20
134.9105000117641
 30
0.0
 70
    32
  0
VERTEX
  5
165BE
  8
AM_0
 10
145.6765782548475
 20
134.9065000117638
 30
0.0
 70
    32
  0
VERTEX
  5
165BF
  8
AM_0
 10
145.6785782548472
 20
134.90350001176381
 30
0.0
 70
    32
  0
VERTEX
  5
165C0
  8
AM_0
 10
145.6815782548471
 20
134.90050001176391
 30
0.0
 70
    32
  0
VERTEX
  5
165C1
  8
AM_0
 10
145.68457825484711
 20
134.8975000117639
 30
0.0
 70
    32
  0
VERTEX
  5
165C2
  8
AM_0
 10
145.68757825484741
 20
134.89450001176391
 30
0.0
 70
    32
  0
VERTEX
  5
165C3
  8
AM_0
 10
145.69057825484731
 20
134.89050001176409
 30
0.0
 70
    32
  0
VERTEX
  5
165C4
  8
AM_0
 10
145.69357825484721
 20
134.88750001176399
 30
0.0
 70
    32
  0
VERTEX
  5
165C5
  8
AM_0
 10
145.69557825484731
 20
134.88450001176409
 30
0.0
 70
    32
  0
VERTEX
  5
165C6
  8
AM_0
 10
145.69857825484709
 20
134.8815000117641
 30
0.0
 70
    32
  0
VERTEX
  5
165C7
  8
AM_0
 10
145.70157825484711
 20
134.8785000117638
 30
0.0
 70
    32
  0
VERTEX
  5
165C8
  8
AM_0
 10
145.70457825484709
 20
134.87550001176419
 30
0.0
 70
    32
  0
VERTEX
  5
165C9
  8
AM_0
 10
145.7075782548477
 20
134.8725000117642
 30
0.0
 70
    32
  0
VERTEX
  5
165CA
  8
AM_0
 10
145.71057825484729
 20
134.86850001176381
 30
0.0
 70
    32
  0
VERTEX
  5
165CB
  8
AM_0
 10
145.71357825484719
 20
134.8655000117642
 30
0.0
 70
    32
  0
VERTEX
  5
165CC
  8
AM_0
 10
145.71657825484749
 20
134.86250001176421
 30
0.0
 70
    32
  0
VERTEX
  5
165CD
  8
AM_0
 10
145.71957825484739
 20
134.85950001176431
 30
0.0
 70
    32
  0
VERTEX
  5
165CE
  8
AM_0
 10
145.72257825484729
 20
134.8565000117641
 30
0.0
 70
    32
  0
VERTEX
  5
165CF
  8
AM_0
 10
145.72557825484731
 20
134.85350001176391
 30
0.0
 70
    32
  0
VERTEX
  5
165D0
  8
AM_0
 10
145.72857825484709
 20
134.85050001176421
 30
0.0
 70
    32
  0
VERTEX
  5
165D1
  8
AM_0
 10
145.73157825484711
 20
134.847500011764
 30
0.0
 70
    32
  0
VERTEX
  5
165D2
  8
AM_0
 10
145.73457825484741
 20
134.8445000117641
 30
0.0
 70
    32
  0
VERTEX
  5
165D3
  8
AM_0
 10
145.73757825484731
 20
134.8415000117642
 30
0.0
 70
    32
  0
VERTEX
  5
165D4
  8
AM_0
 10
145.74057825484721
 20
134.83850001176381
 30
0.0
 70
    32
  0
VERTEX
  5
165D5
  8
AM_0
 10
145.74357825484751
 20
134.8355000117638
 30
0.0
 70
    32
  0
VERTEX
  5
165D6
  8
AM_0
 10
145.74657825484741
 20
134.8325000117643
 30
0.0
 70
    32
  0
VERTEX
  5
165D7
  8
AM_0
 10
145.74957825484739
 20
134.829500011764
 30
0.0
 70
    32
  0
VERTEX
  5
165D8
  8
AM_0
 10
145.75257825484729
 20
134.82650001176381
 30
0.0
 70
    32
  0
VERTEX
  5
165D9
  8
AM_0
 10
145.75557825484719
 20
134.82350001176411
 30
0.0
 70
    32
  0
VERTEX
  5
165DA
  8
AM_0
 10
145.75857825484721
 20
134.8205000117639
 30
0.0
 70
    32
  0
VERTEX
  5
165DB
  8
AM_0
 10
145.76157825484711
 20
134.81750001176411
 30
0.0
 70
    32
  0
VERTEX
  5
165DC
  8
AM_0
 10
145.76457825484741
 20
134.81450001176401
 30
0.0
 70
    32
  0
VERTEX
  5
165DD
  8
AM_0
 10
145.76757825484731
 20
134.811500011764
 30
0.0
 70
    32
  0
VERTEX
  5
165DE
  8
AM_0
 10
145.77057825484761
 20
134.80850001176401
 30
0.0
 70
    32
  0
VERTEX
  5
165DF
  8
AM_0
 10
145.77357825484751
 20
134.80550001176391
 30
0.0
 70
    32
  0
VERTEX
  5
165E0
  8
AM_0
 10
145.77657825484741
 20
134.80250001176401
 30
0.0
 70
    32
  0
VERTEX
  5
165E1
  8
AM_0
 10
145.78057825484709
 20
134.7995000117638
 30
0.0
 70
    32
  0
VERTEX
  5
165E2
  8
AM_0
 10
145.7835782548475
 20
134.7965000117641
 30
0.0
 70
    32
  0
VERTEX
  5
165E3
  8
AM_0
 10
145.78657825484709
 20
134.7935000117638
 30
0.0
 70
    32
  0
VERTEX
  5
165E4
  8
AM_0
 10
145.7895782548473
 20
134.7915000117641
 30
0.0
 70
    32
  0
VERTEX
  5
165E5
  8
AM_0
 10
145.7925782548476
 20
134.78850001176411
 30
0.0
 70
    32
  0
VERTEX
  5
165E6
  8
AM_0
 10
145.79557825484719
 20
134.7855000117643
 30
0.0
 70
    32
  0
VERTEX
  5
165E7
  8
AM_0
 10
145.79957825484729
 20
134.782500011764
 30
0.0
 70
    32
  0
VERTEX
  5
165E8
  8
AM_0
 10
145.8025782548473
 20
134.77950001176399
 30
0.0
 70
    32
  0
VERTEX
  5
165E9
  8
AM_0
 10
145.80557825484721
 20
134.77650001176411
 30
0.0
 70
    32
  0
VERTEX
  5
165EA
  8
AM_0
 10
145.80857825484699
 20
134.77450001176419
 30
0.0
 70
    32
  0
VERTEX
  5
165EB
  8
AM_0
 10
145.8125782548473
 20
134.77150001176409
 30
0.0
 70
    32
  0
VERTEX
  5
165EC
  8
AM_0
 10
145.8155782548472
 20
134.7685000117639
 30
0.0
 70
    32
  0
VERTEX
  5
165ED
  8
AM_0
 10
145.8185782548471
 20
134.76550001176429
 30
0.0
 70
    32
  0
VERTEX
  5
165EE
  8
AM_0
 10
145.8215782548474
 20
134.76350001176391
 30
0.0
 70
    32
  0
VERTEX
  5
165EF
  8
AM_0
 10
145.82557825484719
 20
134.7605000117639
 30
0.0
 70
    32
  0
VERTEX
  5
165F0
  8
AM_0
 10
145.82857825484709
 20
134.75750001176399
 30
0.0
 70
    32
  0
VERTEX
  5
165F1
  8
AM_0
 10
145.83157825484699
 20
134.7555000117639
 30
0.0
 70
    32
  0
VERTEX
  5
165F2
  8
AM_0
 10
145.83557825484721
 20
134.7525000117638
 30
0.0
 70
    32
  0
VERTEX
  5
165F3
  8
AM_0
 10
145.83857825484699
 20
134.7495000117641
 30
0.0
 70
    32
  0
VERTEX
  5
165F4
  8
AM_0
 10
145.84157825484741
 20
134.74750001176409
 30
0.0
 70
    32
  0
VERTEX
  5
165F5
  8
AM_0
 10
145.84557825484711
 20
134.7445000117641
 30
0.0
 70
    32
  0
VERTEX
  5
165F6
  8
AM_0
 10
145.8485782548471
 20
134.741500011764
 30
0.0
 70
    32
  0
VERTEX
  5
165F7
  8
AM_0
 10
145.8515782548474
 20
134.73950001176391
 30
0.0
 70
    32
  0
VERTEX
  5
165F8
  8
AM_0
 10
145.85557825484699
 20
134.73650001176389
 30
0.0
 70
    32
  0
VERTEX
  5
165F9
  8
AM_0
 10
145.85857825484709
 20
134.7345000117642
 30
0.0
 70
    32
  0
VERTEX
  5
165FA
  8
AM_0
 10
145.86257825484719
 20
134.7315000117641
 30
0.0
 70
    32
  0
VERTEX
  5
165FB
  8
AM_0
 10
145.86557825484709
 20
134.72850001176371
 30
0.0
 70
    32
  0
VERTEX
  5
165FC
  8
AM_0
 10
145.86857825484711
 20
134.72650001176379
 30
0.0
 70
    32
  0
VERTEX
  5
165FD
  8
AM_0
 10
145.87257825484721
 20
134.723500011764
 30
0.0
 70
    32
  0
VERTEX
  5
165FE
  8
AM_0
 10
145.87557825484711
 20
134.72150001176411
 30
0.0
 70
    32
  0
VERTEX
  5
165FF
  8
AM_0
 10
145.87957825484719
 20
134.71850001176409
 30
0.0
 70
    32
  0
VERTEX
  5
16600
  8
AM_0
 10
145.8825782548472
 20
134.7165000117642
 30
0.0
 70
    32
  0
VERTEX
  5
16601
  8
AM_0
 10
145.886578254847
 20
134.71350001176401
 30
0.0
 70
    32
  0
VERTEX
  5
16602
  8
AM_0
 10
145.88957825484729
 20
134.71150001176409
 30
0.0
 70
    32
  0
VERTEX
  5
16603
  8
AM_0
 10
145.8935782548474
 20
134.70950001176391
 30
0.0
 70
    32
  0
VERTEX
  5
16604
  8
AM_0
 10
145.8965782548473
 20
134.70650001176381
 30
0.0
 70
    32
  0
VERTEX
  5
16605
  8
AM_0
 10
145.9005782548474
 20
134.7045000117638
 30
0.0
 70
    32
  0
VERTEX
  5
16606
  8
AM_0
 10
145.90357825484739
 20
134.70150001176421
 30
0.0
 70
    32
  0
VERTEX
  5
16607
  8
AM_0
 10
145.90757825484721
 20
134.69950001176409
 30
0.0
 70
    32
  0
VERTEX
  5
16608
  8
AM_0
 10
145.9115782548476
 20
134.69750001176411
 30
0.0
 70
    32
  0
VERTEX
  5
16609
  8
AM_0
 10
145.91457825484721
 20
134.69450001176409
 30
0.0
 70
    32
  0
VERTEX
  5
1660A
  8
AM_0
 10
145.91857825484729
 20
134.6925000117638
 30
0.0
 70
    32
  0
VERTEX
  5
1660B
  8
AM_0
 10
145.9215782548473
 20
134.69050001176399
 30
0.0
 70
    32
  0
VERTEX
  5
1660C
  8
AM_0
 10
145.9255782548471
 20
134.6875000117642
 30
0.0
 70
    32
  0
VERTEX
  5
1660D
  8
AM_0
 10
145.92957825484751
 20
134.68550001176379
 30
0.0
 70
    32
  0
VERTEX
  5
1660E
  8
AM_0
 10
145.9325782548471
 20
134.6835000117639
 30
0.0
 70
    32
  0
VERTEX
  5
1660F
  8
AM_0
 10
145.93657825484689
 20
134.6815000117642
 30
0.0
 70
    32
  0
VERTEX
  5
16610
  8
AM_0
 10
145.940578254847
 20
134.6785000117643
 30
0.0
 70
    32
  0
VERTEX
  5
16611
  8
AM_0
 10
145.9435782548473
 20
134.6765000117642
 30
0.0
 70
    32
  0
VERTEX
  5
16612
  8
AM_0
 10
145.94757825484751
 20
134.67450001176411
 30
0.0
 70
    32
  0
VERTEX
  5
16613
  8
AM_0
 10
145.95157825484759
 20
134.6725000117641
 30
0.0
 70
    32
  0
VERTEX
  5
16614
  8
AM_0
 10
145.95457825484689
 20
134.67050001176401
 30
0.0
 70
    32
  0
VERTEX
  5
16615
  8
AM_0
 10
145.958578254847
 20
134.668500011764
 30
0.0
 70
    32
  0
VERTEX
  5
16616
  8
AM_0
 10
145.9625782548471
 20
134.66650001176399
 30
0.0
 70
    32
  0
VERTEX
  5
16617
  8
AM_0
 10
145.965578254847
 20
134.66350001176389
 30
0.0
 70
    32
  0
VERTEX
  5
16618
  8
AM_0
 10
145.96957825484719
 20
134.66150001176391
 30
0.0
 70
    32
  0
VERTEX
  5
16619
  8
AM_0
 10
145.9735782548473
 20
134.6595000117639
 30
0.0
 70
    32
  0
VERTEX
  5
1661A
  8
AM_0
 10
145.9775782548474
 20
134.65750001176369
 30
0.0
 70
    32
  0
VERTEX
  5
1661B
  8
AM_0
 10
145.98057825484739
 20
134.65550001176379
 30
0.0
 70
    32
  0
VERTEX
  5
1661C
  8
AM_0
 10
145.98457825484749
 20
134.65350001176401
 30
0.0
 70
    32
  0
VERTEX
  5
1661D
  8
AM_0
 10
145.98857825484731
 20
134.6515000117642
 30
0.0
 70
    32
  0
VERTEX
  5
1661E
  8
AM_0
 10
145.99257825484739
 20
134.64950001176419
 30
0.0
 70
    32
  0
VERTEX
  5
1661F
  8
AM_0
 10
145.99657825484761
 20
134.6475000117637
 30
0.0
 70
    32
  0
VERTEX
  5
16620
  8
AM_0
 10
145.99957825484711
 20
134.646500011764
 30
0.0
 70
    32
  0
VERTEX
  5
16621
  8
AM_0
 10
146.0035782548473
 20
134.64450001176419
 30
0.0
 70
    32
  0
VERTEX
  5
16622
  8
AM_0
 10
146.0075782548474
 20
134.6425000117639
 30
0.0
 70
    32
  0
VERTEX
  5
16623
  8
AM_0
 10
146.01157825484719
 20
134.64050001176409
 30
0.0
 70
    32
  0
VERTEX
  5
16624
  8
AM_0
 10
146.0155782548473
 20
134.63850001176399
 30
0.0
 70
    32
  0
VERTEX
  5
16625
  8
AM_0
 10
146.01957825484709
 20
134.63650001176401
 30
0.0
 70
    32
  0
VERTEX
  5
16626
  8
AM_0
 10
146.02357825484731
 20
134.63550001176401
 30
0.0
 70
    32
  0
VERTEX
  5
16627
  8
AM_0
 10
146.0265782548471
 20
134.633500011764
 30
0.0
 70
    32
  0
VERTEX
  5
16628
  8
AM_0
 10
146.03057825484731
 20
134.63150001176399
 30
0.0
 70
    32
  0
VERTEX
  5
16629
  8
AM_0
 10
146.03457825484739
 20
134.62950001176421
 30
0.0
 70
    32
  0
VERTEX
  5
1662A
  8
AM_0
 10
146.03857825484721
 20
134.6285000117638
 30
0.0
 70
    32
  0
VERTEX
  5
1662B
  8
AM_0
 10
146.0425782548474
 20
134.62650001176391
 30
0.0
 70
    32
  0
VERTEX
  5
1662C
  8
AM_0
 10
146.04657825484719
 20
134.62450001176421
 30
0.0
 70
    32
  0
VERTEX
  5
1662D
  8
AM_0
 10
146.0505782548473
 20
134.62350001176389
 30
0.0
 70
    32
  0
VERTEX
  5
1662E
  8
AM_0
 10
146.0545782548474
 20
134.62150001176431
 30
0.0
 70
    32
  0
VERTEX
  5
1662F
  8
AM_0
 10
146.05857825484691
 20
134.61950001176399
 30
0.0
 70
    32
  0
VERTEX
  5
16630
  8
AM_0
 10
146.06257825484701
 20
134.61850001176401
 30
0.0
 70
    32
  0
VERTEX
  5
16631
  8
AM_0
 10
146.06657825484709
 20
134.61650001176389
 30
0.0
 70
    32
  0
VERTEX
  5
16632
  8
AM_0
 10
146.07057825484731
 20
134.615500011764
 30
0.0
 70
    32
  0
VERTEX
  5
16633
  8
AM_0
 10
146.07457825484741
 20
134.6135000117641
 30
0.0
 70
    32
  0
VERTEX
  5
16634
  8
AM_0
 10
146.07857825484709
 20
134.6125000117641
 30
0.0
 70
    32
  0
VERTEX
  5
16635
  8
AM_0
 10
146.08257825484731
 20
134.610500011764
 30
0.0
 70
    32
  0
VERTEX
  5
16636
  8
AM_0
 10
146.0865782548471
 20
134.6095000117642
 30
0.0
 70
    32
  0
VERTEX
  5
16637
  8
AM_0
 10
146.09057825484689
 20
134.60850001176399
 30
0.0
 70
    32
  0
VERTEX
  5
16638
  8
AM_0
 10
146.09457825484711
 20
134.6065000117639
 30
0.0
 70
    32
  0
VERTEX
  5
16639
  8
AM_0
 10
146.09857825484721
 20
134.60550001176409
 30
0.0
 70
    32
  0
VERTEX
  5
1663A
  8
AM_0
 10
146.10257825484729
 20
134.6045000117642
 30
0.0
 70
    32
  0
VERTEX
  5
1663B
  8
AM_0
 10
146.10657825484699
 20
134.60250001176411
 30
0.0
 70
    32
  0
VERTEX
  5
1663C
  8
AM_0
 10
146.11057825484761
 20
134.6015000117639
 30
0.0
 70
    32
  0
VERTEX
  5
1663D
  8
AM_0
 10
146.1145782548474
 20
134.60050001176421
 30
0.0
 70
    32
  0
VERTEX
  5
1663E
  8
AM_0
 10
146.1195782548474
 20
134.59950001176389
 30
0.0
 70
    32
  0
VERTEX
  5
1663F
  8
AM_0
 10
146.12357825484719
 20
134.598500011764
 30
0.0
 70
    32
  0
VERTEX
  5
16640
  8
AM_0
 10
146.12757825484729
 20
134.59650001176411
 30
0.0
 70
    32
  0
VERTEX
  5
16641
  8
AM_0
 10
146.1315782548474
 20
134.5955000117639
 30
0.0
 70
    32
  0
VERTEX
  5
16642
  8
AM_0
 10
146.13557825484691
 20
134.5945000117639
 30
0.0
 70
    32
  0
VERTEX
  5
16643
  8
AM_0
 10
146.13957825484701
 20
134.59350001176401
 30
0.0
 70
    32
  0
VERTEX
  5
16644
  8
AM_0
 10
146.1435782548472
 20
134.5925000117638
 30
0.0
 70
    32
  0
VERTEX
  5
16645
  8
AM_0
 10
146.1475782548473
 20
134.59150001176431
 30
0.0
 70
    32
  0
VERTEX
  5
16646
  8
AM_0
 10
146.1525782548473
 20
134.59050001176411
 30
0.0
 70
    32
  0
VERTEX
  5
16647
  8
AM_0
 10
146.15657825484709
 20
134.58950001176399
 30
0.0
 70
    32
  0
VERTEX
  5
16648
  8
AM_0
 10
146.1605782548472
 20
134.58850001176401
 30
0.0
 70
    32
  0
VERTEX
  5
16649
  8
AM_0
 10
146.1645782548473
 20
134.58750001176381
 30
0.0
 70
    32
  0
VERTEX
  5
1664A
  8
AM_0
 10
146.16857825484749
 20
134.58650001176409
 30
0.0
 70
    32
  0
VERTEX
  5
1664B
  8
AM_0
 10
146.17257825484731
 20
134.58550001176391
 30
0.0
 70
    32
  0
VERTEX
  5
1664C
  8
AM_0
 10
146.17757825484759
 20
134.58550001176391
 30
0.0
 70
    32
  0
VERTEX
  5
1664D
  8
AM_0
 10
146.18157825484741
 20
134.58450001176391
 30
0.0
 70
    32
  0
VERTEX
  5
1664E
  8
AM_0
 10
146.1855782548468
 20
134.58350001176399
 30
0.0
 70
    32
  0
VERTEX
  5
1664F
  8
AM_0
 10
146.18957825484699
 20
134.58250001176421
 30
0.0
 70
    32
  0
VERTEX
  5
16650
  8
AM_0
 10
146.1935782548471
 20
134.58150001176401
 30
0.0
 70
    32
  0
VERTEX
  5
16651
  8
AM_0
 10
146.19857825484709
 20
134.58150001176401
 30
0.0
 70
    32
  0
VERTEX
  5
16652
  8
AM_0
 10
146.2025782548472
 20
134.5805000117638
 30
0.0
 70
    32
  0
VERTEX
  5
16653
  8
AM_0
 10
146.20657825484739
 20
134.57950001176391
 30
0.0
 70
    32
  0
VERTEX
  5
16654
  8
AM_0
 10
146.21057825484721
 20
134.57950001176391
 30
0.0
 70
    32
  0
VERTEX
  5
16655
  8
AM_0
 10
146.21557825484749
 20
134.57850001176399
 30
0.0
 70
    32
  0
VERTEX
  5
16656
  8
AM_0
 10
146.21957825484731
 20
134.57750001176419
 30
0.0
 70
    32
  0
VERTEX
  5
16657
  8
AM_0
 10
146.2235782548471
 20
134.57750001176419
 30
0.0
 70
    32
  0
VERTEX
  5
16658
  8
AM_0
 10
146.2275782548472
 20
134.5765000117641
 30
0.0
 70
    32
  0
VERTEX
  5
16659
  8
AM_0
 10
146.23257825484711
 20
134.5765000117641
 30
0.0
 70
    32
  0
VERTEX
  5
1665A
  8
AM_0
 10
146.2365782548477
 20
134.57550001176389
 30
0.0
 70
    32
  0
VERTEX
  5
1665B
  8
AM_0
 10
146.24057825484709
 20
134.57550001176389
 30
0.0
 70
    32
  0
VERTEX
  5
1665C
  8
AM_0
 10
146.24457825484731
 20
134.5745000117642
 30
0.0
 70
    32
  0
VERTEX
  5
1665D
  8
AM_0
 10
146.24957825484719
 20
134.5745000117642
 30
0.0
 70
    32
  0
VERTEX
  5
1665E
  8
AM_0
 10
146.2535782548471
 20
134.5745000117642
 30
0.0
 70
    32
  0
VERTEX
  5
1665F
  8
AM_0
 10
146.25757825484709
 20
134.5735000117642
 30
0.0
 70
    32
  0
VERTEX
  5
16660
  8
AM_0
 10
146.26157825484731
 20
134.5735000117642
 30
0.0
 70
    32
  0
VERTEX
  5
16661
  8
AM_0
 10
146.2665782548473
 20
134.5735000117642
 30
0.0
 70
    32
  0
VERTEX
  5
16662
  8
AM_0
 10
146.27057825484709
 20
134.5735000117642
 30
0.0
 70
    32
  0
VERTEX
  5
16663
  8
AM_0
 10
146.2745782548472
 20
134.57250001176391
 30
0.0
 70
    32
  0
VERTEX
  5
16664
  8
AM_0
 10
146.27857825484739
 20
134.57250001176391
 30
0.0
 70
    32
  0
VERTEX
  5
16665
  8
AM_0
 10
146.28357825484741
 20
134.57250001176391
 30
0.0
 70
    32
  0
VERTEX
  5
16666
  8
AM_0
 10
146.28757825484709
 20
134.57250001176391
 30
0.0
 70
    32
  0
VERTEX
  5
16667
  8
AM_0
 10
146.29157825484731
 20
134.57250001176391
 30
0.0
 70
    32
  0
VERTEX
  5
16668
  8
AM_0
 10
146.2965782548473
 20
134.57250001176391
 30
0.0
 70
    32
  0
VERTEX
  5
16669
  8
AM_0
 10
146.3005782548471
 20
134.57250001176391
 30
0.0
 70
    32
  0
VERTEX
  5
1666A
  8
AM_0
 10
146.30457825484709
 20
134.57250001176391
 30
0.0
 70
    32
  0
VERTEX
  5
1666B
  8
AM_0
 10
146.3085782548473
 20
134.57250001176391
 30
0.0
 70
    32
  0
VERTEX
  5
1666C
  8
AM_0
 10
146.31357825484761
 20
134.57250001176391
 30
0.0
 70
    32
  0
VERTEX
  5
1666D
  8
AM_0
 10
146.31757825484709
 20
134.5735000117642
 30
0.0
 70
    32
  0
VERTEX
  5
1666E
  8
AM_0
 10
146.32157825484731
 20
134.5735000117642
 30
0.0
 70
    32
  0
VERTEX
  5
1666F
  8
AM_0
 10
146.32557825484699
 20
134.5735000117642
 30
0.0
 70
    32
  0
VERTEX
  5
16670
  8
AM_0
 10
146.33057825484701
 20
134.5735000117642
 30
0.0
 70
    32
  0
VERTEX
  5
16671
  8
AM_0
 10
146.33457825484709
 20
134.5745000117642
 30
0.0
 70
    32
  0
VERTEX
  5
16672
  8
AM_0
 10
146.33857825484731
 20
134.5745000117642
 30
0.0
 70
    32
  0
VERTEX
  5
16673
  8
AM_0
 10
146.34257825484741
 20
134.5745000117642
 30
0.0
 70
    32
  0
VERTEX
  5
16674
  8
AM_0
 10
146.34757825484709
 20
134.57550001176389
 30
0.0
 70
    32
  0
VERTEX
  5
16675
  8
AM_0
 10
146.35157825484711
 20
134.57550001176389
 30
0.0
 70
    32
  0
VERTEX
  5
16676
  8
AM_0
 10
146.35557825484739
 20
134.57550001176389
 30
0.0
 70
    32
  0
VERTEX
  5
16677
  8
AM_0
 10
146.35957825484749
 20
134.5765000117641
 30
0.0
 70
    32
  0
VERTEX
  5
16678
  8
AM_0
 10
146.36457825484709
 20
134.5765000117641
 30
0.0
 70
    32
  0
VERTEX
  5
16679
  8
AM_0
 10
146.36857825484731
 20
134.57750001176419
 30
0.0
 70
    32
  0
VERTEX
  5
1667A
  8
AM_0
 10
146.37257825484741
 20
134.57750001176419
 30
0.0
 70
    32
  0
VERTEX
  5
1667B
  8
AM_0
 10
146.37657825484709
 20
134.57850001176399
 30
0.0
 70
    32
  0
VERTEX
  5
1667C
  8
AM_0
 10
146.38157825484711
 20
134.57850001176399
 30
0.0
 70
    32
  0
VERTEX
  5
1667D
  8
AM_0
 10
146.3855782548473
 20
134.57950001176391
 30
0.0
 70
    32
  0
VERTEX
  5
1667E
  8
AM_0
 10
146.38957825484749
 20
134.57950001176391
 30
0.0
 70
    32
  0
VERTEX
  5
1667F
  8
AM_0
 10
146.39357825484689
 20
134.5805000117638
 30
0.0
 70
    32
  0
VERTEX
  5
16680
  8
AM_0
 10
146.39857825484731
 20
134.5805000117638
 30
0.0
 70
    32
  0
VERTEX
  5
16681
  8
AM_0
 10
146.40257825484699
 20
134.58150001176401
 30
0.0
 70
    32
  0
VERTEX
  5
16682
  8
AM_0
 10
146.40657825484709
 20
134.58150001176401
 30
0.0
 70
    32
  0
VERTEX
  5
16683
  8
AM_0
 10
146.41057825484731
 20
134.58250001176421
 30
0.0
 70
    32
  0
SEQEND
  5
16684
  8
AM_0
  0
LINE
  5
16685
  8
AM_0
 10
132.68099305789019
 20
151.57254707683799
 30
0.0
 11
163.1809930578905
 21
151.57254707683799
 31
0.0
  0
LINE
  5
16686
  8
AM_0
 10
143.60099305789049
 20
147.57254707683811
 30
0.0
 11
134.78099305788999
 21
146.1075470768381
 31
0.0
  0
LINE
  5
16687
  8
AM_0
 10
144.18099305789201
 20
151.57254707683799
 30
0.0
 11
132.6809930578919
 21
151.57254707683799
 31
0.0
  0
LINE
  5
16688
  8
AM_0
 10
135.181053843331
 20
168.5725470768383
 30
0.0
 11
135.181053843331
 21
171.57254707683819
 31
0.0
  0
ARC
  5
16689
  8
AM_0
 10
133.68099305789201
 20
167.57254707683839
 30
0.0
 40
0.9999999999998859
 50
90.0
 51
180.0
  0
ARC
  5
1668A
  8
AM_0
 10
143.1809930578919
 20
167.57254707683839
 30
0.0
 40
0.9999999999999996
 50
0.0
 51
90.0
  0
LINE
  5
1668B
  8
AM_0
 10
193.1809930578919
 20
167.57254707683839
 30
0.0
 11
193.1809930578919
 21
151.57254707683799
 31
0.0
  0
LINE
  5
1668C
  8
AM_0
 10
174.1809930578903
 20
161.85576063661031
 30
0.0
 11
174.1809930578903
 21
147.5725470768383
 31
0.0
  0
LINE
  5
1668D
  8
AM_0
 10
204.6809930578919
 20
135.07254707683811
 30
0.0
 11
204.6809930578919
 21
167.57254707683839
 31
0.0
  0
LINE
  5
1668E
  8
AM_0
 10
204.6809930578919
 20
151.57254707683799
 30
0.0
 11
193.1809930578919
 21
151.57254707683799
 31
0.0
  0
LINE
  5
1668F
  8
AM_0
 10
193.7609930578902
 20
147.57254707683811
 30
0.0
 11
202.58099305788971
 21
146.1075470768381
 31
0.0
  0
LINE
  5
16690
  8
AM_0
 10
174.1809930578903
 20
151.57254707683799
 30
0.0
 11
204.68099305789011
 21
151.57254707683799
 31
0.0
  0
LINE
  5
16691
  8
AM_0
 10
192.31114457690671
 20
147.57254707683811
 30
0.0
 11
192.31114457690671
 21
137.07254707683799
 31
0.0
  0
POLYLINE
  5
16692
  8
AM_0
 66
     1
 10
0.0
 20
0.0
 30
0.0
 70
     8
  0
VERTEX
  5
16693
  8
AM_0
 10
191.1711782548474
 20
134.58250001176421
 30
0.0
 70
    32
  0
VERTEX
  5
16694
  8
AM_0
 10
191.17537825484749
 20
134.58350001176399
 30
0.0
 70
    32
  0
VERTEX
  5
16695
  8
AM_0
 10
191.17967825484709
 20
134.58450001176391
 30
0.0
 70
    32
  0
VERTEX
  5
16696
  8
AM_0
 10
191.18387825484689
 20
134.58550001176391
 30
0.0
 70
    32
  0
VERTEX
  5
16697
  8
AM_0
 10
191.188178254847
 20
134.58650001176409
 30
0.0
 70
    32
  0
VERTEX
  5
16698
  8
AM_0
 10
191.19237825484731
 20
134.58750001176381
 30
0.0
 70
    32
  0
VERTEX
  5
16699
  8
AM_0
 10
191.19667825484731
 20
134.58850001176401
 30
0.0
 70
    32
  0
VERTEX
  5
1669A
  8
AM_0
 10
191.2008782548472
 20
134.58950001176399
 30
0.0
 70
    32
  0
VERTEX
  5
1669B
  8
AM_0
 10
191.20507825484739
 20
134.59050001176411
 30
0.0
 70
    32
  0
VERTEX
  5
1669C
  8
AM_0
 10
191.20937825484711
 20
134.59150001176431
 30
0.0
 70
    32
  0
VERTEX
  5
1669D
  8
AM_0
 10
191.21357825484699
 20
134.5925000117638
 30
0.0
 70
    32
  0
VERTEX
  5
1669E
  8
AM_0
 10
191.2177782548473
 20
134.59350001176401
 30
0.0
 70
    32
  0
VERTEX
  5
1669F
  8
AM_0
 10
191.2220782548473
 20
134.5945000117639
 30
0.0
 70
    32
  0
VERTEX
  5
166A0
  8
AM_0
 10
191.22627825484761
 20
134.5955000117639
 30
0.0
 70
    32
  0
VERTEX
  5
166A1
  8
AM_0
 10
191.2304782548475
 20
134.59650001176411
 30
0.0
 70
    32
  0
VERTEX
  5
166A2
  8
AM_0
 10
191.2346782548469
 20
134.5975000117642
 30
0.0
 70
    32
  0
VERTEX
  5
166A3
  8
AM_0
 10
191.23887825484721
 20
134.598500011764
 30
0.0
 70
    32
  0
VERTEX
  5
166A4
  8
AM_0
 10
191.24307825484729
 20
134.60050001176421
 30
0.0
 70
    32
  0
VERTEX
  5
166A5
  8
AM_0
 10
191.24727825484689
 20
134.6015000117639
 30
0.0
 70
    32
  0
VERTEX
  5
166A6
  8
AM_0
 10
191.251378254847
 20
134.60250001176411
 30
0.0
 70
    32
  0
VERTEX
  5
166A7
  8
AM_0
 10
191.25557825484731
 20
134.60350001176411
 30
0.0
 70
    32
  0
VERTEX
  5
166A8
  8
AM_0
 10
191.25977825484719
 20
134.6045000117642
 30
0.0
 70
    32
  0
VERTEX
  5
166A9
  8
AM_0
 10
191.26387825484679
 20
134.6065000117639
 30
0.0
 70
    32
  0
VERTEX
  5
166AA
  8
AM_0
 10
191.26807825484721
 20
134.60750001176379
 30
0.0
 70
    32
  0
VERTEX
  5
166AB
  8
AM_0
 10
191.27217825484729
 20
134.60850001176399
 30
0.0
 70
    32
  0
VERTEX
  5
166AC
  8
AM_0
 10
191.27627825484689
 20
134.610500011764
 30
0.0
 70
    32
  0
VERTEX
  5
166AD
  8
AM_0
 10
191.28037825484719
 20
134.61150001176389
 30
0.0
 70
    32
  0
VERTEX
  5
166AE
  8
AM_0
 10
191.2845782548473
 20
134.6125000117641
 30
0.0
 70
    32
  0
VERTEX
  5
166AF
  8
AM_0
 10
191.2885782548471
 20
134.61450001176391
 30
0.0
 70
    32
  0
VERTEX
  5
166B0
  8
AM_0
 10
191.2926782548472
 20
134.615500011764
 30
0.0
 70
    32
  0
VERTEX
  5
166B1
  8
AM_0
 10
191.296778254847
 20
134.61750001176409
 30
0.0
 70
    32
  0
VERTEX
  5
166B2
  8
AM_0
 10
191.30087825484731
 20
134.61850001176401
 30
0.0
 70
    32
  0
VERTEX
  5
166B3
  8
AM_0
 10
191.30487825484701
 20
134.62050001176419
 30
0.0
 70
    32
  0
VERTEX
  5
166B4
  8
AM_0
 10
191.3089782548474
 20
134.62150001176431
 30
0.0
 70
    32
  0
VERTEX
  5
166B5
  8
AM_0
 10
191.312978254847
 20
134.62350001176389
 30
0.0
 70
    32
  0
VERTEX
  5
166B6
  8
AM_0
 10
191.31697825484741
 20
134.62550001176399
 30
0.0
 70
    32
  0
VERTEX
  5
166B7
  8
AM_0
 10
191.32097825484729
 20
134.62650001176391
 30
0.0
 70
    32
  0
VERTEX
  5
166B8
  8
AM_0
 10
191.32497825484771
 20
134.6285000117638
 30
0.0
 70
    32
  0
VERTEX
  5
166B9
  8
AM_0
 10
191.3289782548473
 20
134.6305000117639
 30
0.0
 70
    32
  0
VERTEX
  5
166BA
  8
AM_0
 10
191.33297825484701
 20
134.63250001176391
 30
0.0
 70
    32
  0
VERTEX
  5
166BB
  8
AM_0
 10
191.33687825484759
 20
134.633500011764
 30
0.0
 70
    32
  0
VERTEX
  5
166BC
  8
AM_0
 10
191.3408782548471
 20
134.63550001176401
 30
0.0
 70
    32
  0
VERTEX
  5
166BD
  8
AM_0
 10
191.34477825484711
 20
134.6375000117641
 30
0.0
 70
    32
  0
VERTEX
  5
166BE
  8
AM_0
 10
191.34877825484759
 20
134.63950001176389
 30
0.0
 70
    32
  0
VERTEX
  5
166BF
  8
AM_0
 10
191.35267825484729
 20
134.6415000117639
 30
0.0
 70
    32
  0
VERTEX
  5
166C0
  8
AM_0
 10
191.35657825484719
 20
134.64350001176399
 30
0.0
 70
    32
  0
VERTEX
  5
166C1
  8
AM_0
 10
191.36047825484721
 20
134.6455000117638
 30
0.0
 70
    32
  0
VERTEX
  5
166C2
  8
AM_0
 10
191.36437825484731
 20
134.6475000117637
 30
0.0
 70
    32
  0
VERTEX
  5
166C3
  8
AM_0
 10
191.3682782548475
 20
134.64950001176419
 30
0.0
 70
    32
  0
VERTEX
  5
166C4
  8
AM_0
 10
191.3721782548474
 20
134.6515000117642
 30
0.0
 70
    32
  0
VERTEX
  5
166C5
  8
AM_0
 10
191.3759782548473
 20
134.65350001176401
 30
0.0
 70
    32
  0
VERTEX
  5
166C6
  8
AM_0
 10
191.37987825484731
 20
134.65550001176379
 30
0.0
 70
    32
  0
VERTEX
  5
166C7
  8
AM_0
 10
191.3836782548473
 20
134.65750001176369
 30
0.0
 70
    32
  0
VERTEX
  5
166C8
  8
AM_0
 10
191.3874782548472
 20
134.6595000117639
 30
0.0
 70
    32
  0
VERTEX
  5
166C9
  8
AM_0
 10
191.3913782548469
 20
134.66150001176391
 30
0.0
 70
    32
  0
VERTEX
  5
166CA
  8
AM_0
 10
191.39517825484731
 20
134.66350001176389
 30
0.0
 70
    32
  0
VERTEX
  5
166CB
  8
AM_0
 10
191.39897825484681
 20
134.66550001176381
 30
0.0
 70
    32
  0
VERTEX
  5
166CC
  8
AM_0
 10
191.40267825484699
 20
134.66750001176419
 30
0.0
 70
    32
  0
VERTEX
  5
166CD
  8
AM_0
 10
191.406478254847
 20
134.66950001176409
 30
0.0
 70
    32
  0
VERTEX
  5
166CE
  8
AM_0
 10
191.4102782548469
 20
134.6725000117641
 30
0.0
 70
    32
  0
VERTEX
  5
166CF
  8
AM_0
 10
191.41397825484711
 20
134.67450001176411
 30
0.0
 70
    32
  0
VERTEX
  5
166D0
  8
AM_0
 10
191.41777825484709
 20
134.6765000117642
 30
0.0
 70
    32
  0
VERTEX
  5
166D1
  8
AM_0
 10
191.4214782548471
 20
134.6785000117643
 30
0.0
 70
    32
  0
VERTEX
  5
166D2
  8
AM_0
 10
191.42517825484731
 20
134.6815000117642
 30
0.0
 70
    32
  0
VERTEX
  5
166D3
  8
AM_0
 10
191.42897825484721
 20
134.6835000117639
 30
0.0
 70
    32
  0
VERTEX
  5
166D4
  8
AM_0
 10
191.43267825484719
 20
134.68550001176379
 30
0.0
 70
    32
  0
VERTEX
  5
166D5
  8
AM_0
 10
191.4362782548472
 20
134.6875000117642
 30
0.0
 70
    32
  0
VERTEX
  5
166D6
  8
AM_0
 10
191.43997825484701
 20
134.69050001176399
 30
0.0
 70
    32
  0
VERTEX
  5
166D7
  8
AM_0
 10
191.44367825484721
 20
134.6925000117638
 30
0.0
 70
    32
  0
VERTEX
  5
166D8
  8
AM_0
 10
191.44727825484719
 20
134.69450001176409
 30
0.0
 70
    32
  0
VERTEX
  5
166D9
  8
AM_0
 10
191.4509782548474
 20
134.69750001176411
 30
0.0
 70
    32
  0
VERTEX
  5
166DA
  8
AM_0
 10
191.45457825484741
 20
134.69950001176409
 30
0.0
 70
    32
  0
VERTEX
  5
166DB
  8
AM_0
 10
191.4582782548471
 20
134.70250001176399
 30
0.0
 70
    32
  0
VERTEX
  5
166DC
  8
AM_0
 10
191.46187825484739
 20
134.7045000117638
 30
0.0
 70
    32
  0
VERTEX
  5
166DD
  8
AM_0
 10
191.4654782548476
 20
134.70650001176381
 30
0.0
 70
    32
  0
VERTEX
  5
166DE
  8
AM_0
 10
191.4690782548472
 20
134.70950001176391
 30
0.0
 70
    32
  0
VERTEX
  5
166DF
  8
AM_0
 10
191.47257825484741
 20
134.71150001176409
 30
0.0
 70
    32
  0
VERTEX
  5
166E0
  8
AM_0
 10
191.47617825484701
 20
134.7145000117641
 30
0.0
 70
    32
  0
VERTEX
  5
166E1
  8
AM_0
 10
191.47977825484719
 20
134.7165000117642
 30
0.0
 70
    32
  0
VERTEX
  5
166E2
  8
AM_0
 10
191.48327825484719
 20
134.7195000117641
 30
0.0
 70
    32
  0
VERTEX
  5
166E3
  8
AM_0
 10
191.48677825484711
 20
134.72150001176411
 30
0.0
 70
    32
  0
VERTEX
  5
166E4
  8
AM_0
 10
191.49027825484731
 20
134.72450001176409
 30
0.0
 70
    32
  0
VERTEX
  5
166E5
  8
AM_0
 10
191.49387825484729
 20
134.72750001176411
 30
0.0
 70
    32
  0
VERTEX
  5
166E6
  8
AM_0
 10
191.49727825484689
 20
134.72950001176409
 30
0.0
 70
    32
  0
VERTEX
  5
166E7
  8
AM_0
 10
191.5007782548474
 20
134.73250001176379
 30
0.0
 70
    32
  0
VERTEX
  5
166E8
  8
AM_0
 10
191.50427825484701
 20
134.7345000117642
 30
0.0
 70
    32
  0
VERTEX
  5
166E9
  8
AM_0
 10
191.50777825484721
 20
134.7375000117641
 30
0.0
 70
    32
  0
VERTEX
  5
166EA
  8
AM_0
 10
191.51117825484729
 20
134.74050001176391
 30
0.0
 70
    32
  0
VERTEX
  5
166EB
  8
AM_0
 10
191.5146782548475
 20
134.74250001176389
 30
0.0
 70
    32
  0
VERTEX
  5
166EC
  8
AM_0
 10
191.51807825484761
 20
134.74550001176431
 30
0.0
 70
    32
  0
VERTEX
  5
166ED
  8
AM_0
 10
191.52147825484701
 20
134.74850001176389
 30
0.0
 70
    32
  0
VERTEX
  5
166EE
  8
AM_0
 10
191.52487825484769
 20
134.75050001176399
 30
0.0
 70
    32
  0
VERTEX
  5
166EF
  8
AM_0
 10
191.52827825484729
 20
134.75350001176389
 30
0.0
 70
    32
  0
VERTEX
  5
166F0
  8
AM_0
 10
191.53167825484721
 20
134.75650001176399
 30
0.0
 70
    32
  0
VERTEX
  5
166F1
  8
AM_0
 10
191.5349782548472
 20
134.75950001176409
 30
0.0
 70
    32
  0
VERTEX
  5
166F2
  8
AM_0
 10
191.5383782548478
 20
134.7615000117641
 30
0.0
 70
    32
  0
VERTEX
  5
166F3
  8
AM_0
 10
191.54167825484711
 20
134.764500011764
 30
0.0
 70
    32
  0
VERTEX
  5
166F4
  8
AM_0
 10
191.54507825484711
 20
134.76750001176401
 30
0.0
 70
    32
  0
VERTEX
  5
166F5
  8
AM_0
 10
191.54837825484731
 20
134.770500011764
 30
0.0
 70
    32
  0
VERTEX
  5
166F6
  8
AM_0
 10
191.55167825484691
 20
134.7725000117637
 30
0.0
 70
    32
  0
VERTEX
  5
166F7
  8
AM_0
 10
191.55497825484721
 20
134.77550001176391
 30
0.0
 70
    32
  0
VERTEX
  5
166F8
  8
AM_0
 10
191.5582782548471
 20
134.7785000117639
 30
0.0
 70
    32
  0
VERTEX
  5
166F9
  8
AM_0
 10
191.56157825484689
 20
134.781500011764
 30
0.0
 70
    32
  0
VERTEX
  5
166FA
  8
AM_0
 10
191.5648782548472
 20
134.78450001176401
 30
0.0
 70
    32
  0
VERTEX
  5
166FB
  8
AM_0
 10
191.56807825484731
 20
134.787500011764
 30
0.0
 70
    32
  0
VERTEX
  5
166FC
  8
AM_0
 10
191.57137825484719
 20
134.7905000117639
 30
0.0
 70
    32
  0
VERTEX
  5
166FD
  8
AM_0
 10
191.57457825484681
 20
134.7935000117638
 30
0.0
 70
    32
  0
VERTEX
  5
166FE
  8
AM_0
 10
191.577778254847
 20
134.7965000117641
 30
0.0
 70
    32
  0
VERTEX
  5
166FF
  8
AM_0
 10
191.580978254847
 20
134.79850001176399
 30
0.0
 70
    32
  0
VERTEX
  5
16700
  8
AM_0
 10
191.58417825484759
 20
134.8015000117642
 30
0.0
 70
    32
  0
VERTEX
  5
16701
  8
AM_0
 10
191.58737825484729
 20
134.80450001176399
 30
0.0
 70
    32
  0
VERTEX
  5
16702
  8
AM_0
 10
191.59057825484709
 20
134.80750001176401
 30
0.0
 70
    32
  0
VERTEX
  5
16703
  8
AM_0
 10
191.59377825484751
 20
134.81050001176399
 30
0.0
 70
    32
  0
VERTEX
  5
16704
  8
AM_0
 10
191.59687825484741
 20
134.81350001176389
 30
0.0
 70
    32
  0
VERTEX
  5
16705
  8
AM_0
 10
191.60007825484749
 20
134.81650001176391
 30
0.0
 70
    32
  0
VERTEX
  5
16706
  8
AM_0
 10
191.60317825484691
 20
134.81950001176401
 30
0.0
 70
    32
  0
VERTEX
  5
16707
  8
AM_0
 10
191.6062782548473
 20
134.82250001176391
 30
0.0
 70
    32
  0
VERTEX
  5
16708
  8
AM_0
 10
191.60947825484709
 20
134.82550001176389
 30
0.0
 70
    32
  0
VERTEX
  5
16709
  8
AM_0
 10
191.61257825484739
 20
134.82850001176379
 30
0.0
 70
    32
  0
VERTEX
  5
1670A
  8
AM_0
 10
191.61567825484721
 20
134.83150001176401
 30
0.0
 70
    32
  0
VERTEX
  5
1670B
  8
AM_0
 10
191.61867825484711
 20
134.83450001176399
 30
0.0
 70
    32
  0
VERTEX
  5
1670C
  8
AM_0
 10
191.6217782548473
 20
134.83850001176381
 30
0.0
 70
    32
  0
VERTEX
  5
1670D
  8
AM_0
 10
191.6248782548476
 20
134.8415000117642
 30
0.0
 70
    32
  0
VERTEX
  5
1670E
  8
AM_0
 10
191.6278782548473
 20
134.8445000117641
 30
0.0
 70
    32
  0
VERTEX
  5
1670F
  8
AM_0
 10
191.63097825484721
 20
134.847500011764
 30
0.0
 70
    32
  0
VERTEX
  5
16710
  8
AM_0
 10
191.63397825484691
 20
134.85050001176421
 30
0.0
 70
    32
  0
VERTEX
  5
16711
  8
AM_0
 10
191.63697825484729
 20
134.85350001176391
 30
0.0
 70
    32
  0
VERTEX
  5
16712
  8
AM_0
 10
191.63997825484731
 20
134.8565000117641
 30
0.0
 70
    32
  0
VERTEX
  5
16713
  8
AM_0
 10
191.64297825484721
 20
134.85950001176431
 30
0.0
 70
    32
  0
VERTEX
  5
16714
  8
AM_0
 10
191.64597825484759
 20
134.8635000117639
 30
0.0
 70
    32
  0
VERTEX
  5
16715
  8
AM_0
 10
191.64897825484729
 20
134.866500011764
 30
0.0
 70
    32
  0
VERTEX
  5
16716
  8
AM_0
 10
191.65197825484739
 20
134.86950001176399
 30
0.0
 70
    32
  0
VERTEX
  5
16717
  8
AM_0
 10
191.65487825484709
 20
134.8725000117642
 30
0.0
 70
    32
  0
VERTEX
  5
16718
  8
AM_0
 10
191.65787825484711
 20
134.87550001176419
 30
0.0
 70
    32
  0
VERTEX
  5
16719
  8
AM_0
 10
191.66077825484749
 20
134.8785000117638
 30
0.0
 70
    32
  0
VERTEX
  5
1671A
  8
AM_0
 10
191.6637782548477
 20
134.88250001176391
 30
0.0
 70
    32
  0
VERTEX
  5
1671B
  8
AM_0
 10
191.6666782548474
 20
134.88550001176381
 30
0.0
 70
    32
  0
VERTEX
  5
1671C
  8
AM_0
 10
191.6695782548471
 20
134.88850001176399
 30
0.0
 70
    32
  0
VERTEX
  5
1671D
  8
AM_0
 10
191.6724782548475
 20
134.8915000117639
 30
0.0
 70
    32
  0
VERTEX
  5
1671E
  8
AM_0
 10
191.67537825484709
 20
134.8955000117642
 30
0.0
 70
    32
  0
VERTEX
  5
1671F
  8
AM_0
 10
191.67827825484699
 20
134.8985000117639
 30
0.0
 70
    32
  0
VERTEX
  5
16720
  8
AM_0
 10
191.68107825484759
 20
134.90150001176411
 30
0.0
 70
    32
  0
VERTEX
  5
16721
  8
AM_0
 10
191.68397825484709
 20
134.9045000117639
 30
0.0
 70
    32
  0
VERTEX
  5
16722
  8
AM_0
 10
191.6867782548473
 20
134.9085000117642
 30
0.0
 70
    32
  0
VERTEX
  5
16723
  8
AM_0
 10
191.68967825484771
 20
134.91150001176399
 30
0.0
 70
    32
  0
VERTEX
  5
16724
  8
AM_0
 10
191.69247825484749
 20
134.91450001176389
 30
0.0
 70
    32
  0
VERTEX
  5
16725
  8
AM_0
 10
191.69527825484721
 20
134.91850001176391
 30
0.0
 70
    32
  0
VERTEX
  5
16726
  8
AM_0
 10
191.69807825484719
 20
134.92150001176401
 30
0.0
 70
    32
  0
VERTEX
  5
16727
  8
AM_0
 10
191.7008782548472
 20
134.92450001176391
 30
0.0
 70
    32
  0
VERTEX
  5
16728
  8
AM_0
 10
191.7036782548474
 20
134.92850001176421
 30
0.0
 70
    32
  0
VERTEX
  5
16729
  8
AM_0
 10
191.70647825484721
 20
134.931500011764
 30
0.0
 70
    32
  0
VERTEX
  5
1672A
  8
AM_0
 10
191.70927825484691
 20
134.93450001176399
 30
0.0
 70
    32
  0
VERTEX
  5
1672B
  8
AM_0
 10
191.71197825484691
 20
134.93850001176369
 30
0.0
 70
    32
  0
VERTEX
  5
1672C
  8
AM_0
 10
191.71477825484729
 20
134.94150001176399
 30
0.0
 70
    32
  0
VERTEX
  5
1672D
  8
AM_0
 10
191.71747825484729
 20
134.94450001176401
 30
0.0
 70
    32
  0
VERTEX
  5
1672E
  8
AM_0
 10
191.7202782548473
 20
134.94850001176411
 30
0.0
 70
    32
  0
VERTEX
  5
1672F
  8
AM_0
 10
191.72297825484731
 20
134.95150001176401
 30
0.0
 70
    32
  0
VERTEX
  5
16730
  8
AM_0
 10
191.72567825484731
 20
134.95550001176409
 30
0.0
 70
    32
  0
VERTEX
  5
16731
  8
AM_0
 10
191.72837825484731
 20
134.9585000117637
 30
0.0
 70
    32
  0
VERTEX
  5
16732
  8
AM_0
 10
191.73107825484709
 20
134.96150001176389
 30
0.0
 70
    32
  0
VERTEX
  5
16733
  8
AM_0
 10
191.7337782548471
 20
134.96550001176411
 30
0.0
 70
    32
  0
VERTEX
  5
16734
  8
AM_0
 10
191.73647825484741
 20
134.96850001176401
 30
0.0
 70
    32
  0
VERTEX
  5
16735
  8
AM_0
 10
191.73907825484741
 20
134.9725000117638
 30
0.0
 70
    32
  0
VERTEX
  5
16736
  8
AM_0
 10
191.74177825484759
 20
134.97550001176421
 30
0.0
 70
    32
  0
VERTEX
  5
16737
  8
AM_0
 10
191.74447825484739
 20
134.9795000117642
 30
0.0
 70
    32
  0
VERTEX
  5
16738
  8
AM_0
 10
191.747078254847
 20
134.9825000117641
 30
0.0
 70
    32
  0
VERTEX
  5
16739
  8
AM_0
 10
191.7496782548472
 20
134.98550001176409
 30
0.0
 70
    32
  0
VERTEX
  5
1673A
  8
AM_0
 10
191.75227825484751
 20
134.98950001176391
 30
0.0
 70
    32
  0
VERTEX
  5
1673B
  8
AM_0
 10
191.754978254847
 20
134.99250001176409
 30
0.0
 70
    32
  0
VERTEX
  5
1673C
  8
AM_0
 10
191.75757825484729
 20
134.99650001176431
 30
0.0
 70
    32
  0
VERTEX
  5
1673D
  8
AM_0
 10
191.76017825484729
 20
134.9995000117639
 30
0.0
 70
    32
  0
VERTEX
  5
1673E
  8
AM_0
 10
191.7626782548476
 20
135.003500011764
 30
0.0
 70
    32
  0
VERTEX
  5
1673F
  8
AM_0
 10
191.76527825484689
 20
135.0065000117643
 30
0.0
 70
    32
  0
VERTEX
  5
16740
  8
AM_0
 10
191.76787825484709
 20
135.01050001176401
 30
0.0
 70
    32
  0
VERTEX
  5
16741
  8
AM_0
 10
191.77037825484729
 20
135.01350001176399
 30
0.0
 70
    32
  0
VERTEX
  5
16742
  8
AM_0
 10
191.77297825484749
 20
135.0175000117641
 30
0.0
 70
    32
  0
VERTEX
  5
16743
  8
AM_0
 10
191.77547825484709
 20
135.020500011764
 30
0.0
 70
    32
  0
VERTEX
  5
16744
  8
AM_0
 10
191.7780782548472
 20
135.02450001176419
 30
0.0
 70
    32
  0
VERTEX
  5
16745
  8
AM_0
 10
191.7805782548474
 20
135.02750001176389
 30
0.0
 70
    32
  0
VERTEX
  5
16746
  8
AM_0
 10
191.783078254847
 20
135.03150001176391
 30
0.0
 70
    32
  0
VERTEX
  5
16747
  8
AM_0
 10
191.78557825484731
 20
135.0355000117641
 30
0.0
 70
    32
  0
VERTEX
  5
16748
  8
AM_0
 10
191.78807825484759
 20
135.03850001176411
 30
0.0
 70
    32
  0
VERTEX
  5
16749
  8
AM_0
 10
191.79057825484719
 20
135.04250001176419
 30
0.0
 70
    32
  0
VERTEX
  5
1674A
  8
AM_0
 10
191.7930782548473
 20
135.04550001176401
 30
0.0
 70
    32
  0
VERTEX
  5
1674B
  8
AM_0
 10
191.7954782548471
 20
135.049500011764
 30
0.0
 70
    32
  0
VERTEX
  5
1674C
  8
AM_0
 10
191.79797825484741
 20
135.0525000117641
 30
0.0
 70
    32
  0
VERTEX
  5
1674D
  8
AM_0
 10
191.800378254847
 20
135.05650001176389
 30
0.0
 70
    32
  0
VERTEX
  5
1674E
  8
AM_0
 10
191.80287825484709
 20
135.06050001176399
 30
0.0
 70
    32
  0
VERTEX
  5
1674F
  8
AM_0
 10
191.80527825484691
 20
135.06350001176369
 30
0.0
 70
    32
  0
VERTEX
  5
16750
  8
AM_0
 10
191.80767825484719
 20
135.0675000117638
 30
0.0
 70
    32
  0
VERTEX
  5
16751
  8
AM_0
 10
191.8101782548473
 20
135.07050001176381
 30
0.0
 70
    32
  0
VERTEX
  5
16752
  8
AM_0
 10
191.81257825484761
 20
135.07450001176409
 30
0.0
 70
    32
  0
VERTEX
  5
16753
  8
AM_0
 10
191.81497825484701
 20
135.07850001176399
 30
0.0
 70
    32
  0
VERTEX
  5
16754
  8
AM_0
 10
191.81737825484731
 20
135.08150001176389
 30
0.0
 70
    32
  0
VERTEX
  5
16755
  8
AM_0
 10
191.81977825484711
 20
135.08550001176411
 30
0.0
 70
    32
  0
VERTEX
  5
16756
  8
AM_0
 10
191.82207825484721
 20
135.08950001176379
 30
0.0
 70
    32
  0
VERTEX
  5
16757
  8
AM_0
 10
191.82447825484709
 20
135.092500011764
 30
0.0
 70
    32
  0
VERTEX
  5
16758
  8
AM_0
 10
191.826878254847
 20
135.09650001176399
 30
0.0
 70
    32
  0
VERTEX
  5
16759
  8
AM_0
 10
191.82917825484751
 20
135.1005000117643
 30
0.0
 70
    32
  0
VERTEX
  5
1675A
  8
AM_0
 10
191.8315782548471
 20
135.1035000117638
 30
0.0
 70
    32
  0
VERTEX
  5
1675B
  8
AM_0
 10
191.83387825484701
 20
135.10750001176399
 30
0.0
 70
    32
  0
VERTEX
  5
1675C
  8
AM_0
 10
191.83617825484711
 20
135.11150001176409
 30
0.0
 70
    32
  0
VERTEX
  5
1675D
  8
AM_0
 10
191.83847825484719
 20
135.11450001176391
 30
0.0
 70
    32
  0
VERTEX
  5
1675E
  8
AM_0
 10
191.84077825484729
 20
135.1185000117639
 30
0.0
 70
    32
  0
VERTEX
  5
1675F
  8
AM_0
 10
191.8431782548476
 20
135.12250001176409
 30
0.0
 70
    32
  0
VERTEX
  5
16760
  8
AM_0
 10
191.8453782548475
 20
135.1255000117641
 30
0.0
 70
    32
  0
VERTEX
  5
16761
  8
AM_0
 10
191.84767825484741
 20
135.12950001176421
 30
0.0
 70
    32
  0
VERTEX
  5
16762
  8
AM_0
 10
191.84997825484729
 20
135.13350001176391
 30
0.0
 70
    32
  0
VERTEX
  5
16763
  8
AM_0
 10
191.85227825484691
 20
135.13650001176379
 30
0.0
 70
    32
  0
VERTEX
  5
16764
  8
AM_0
 10
191.8545782548475
 20
135.14050001176429
 30
0.0
 70
    32
  0
VERTEX
  5
16765
  8
AM_0
 10
191.8567782548474
 20
135.14450001176411
 30
0.0
 70
    32
  0
VERTEX
  5
16766
  8
AM_0
 10
191.8590782548473
 20
135.14850001176401
 30
0.0
 70
    32
  0
VERTEX
  5
16767
  8
AM_0
 10
191.86127825484709
 20
135.15150001176389
 30
0.0
 70
    32
  0
VERTEX
  5
16768
  8
AM_0
 10
191.86347825484731
 20
135.15550001176399
 30
0.0
 70
    32
  0
VERTEX
  5
16769
  8
AM_0
 10
191.86577825484741
 20
135.1595000117639
 30
0.0
 70
    32
  0
VERTEX
  5
1676A
  8
AM_0
 10
191.86797825484729
 20
135.16250001176411
 30
0.0
 70
    32
  0
VERTEX
  5
1676B
  8
AM_0
 10
191.87017825484759
 20
135.16650001176379
 30
0.0
 70
    32
  0
VERTEX
  5
1676C
  8
AM_0
 10
191.8723782548476
 20
135.17050001176389
 30
0.0
 70
    32
  0
VERTEX
  5
1676D
  8
AM_0
 10
191.87457825484751
 20
135.174500011764
 30
0.0
 70
    32
  0
VERTEX
  5
1676E
  8
AM_0
 10
191.87677825484741
 20
135.17750001176401
 30
0.0
 70
    32
  0
VERTEX
  5
1676F
  8
AM_0
 10
191.87887825484751
 20
135.18150001176389
 30
0.0
 70
    32
  0
VERTEX
  5
16770
  8
AM_0
 10
191.88107825484741
 20
135.18550001176399
 30
0.0
 70
    32
  0
VERTEX
  5
16771
  8
AM_0
 10
191.88327825484731
 20
135.1895000117639
 30
0.0
 70
    32
  0
VERTEX
  5
16772
  8
AM_0
 10
191.8853782548475
 20
135.1935000117642
 30
0.0
 70
    32
  0
VERTEX
  5
16773
  8
AM_0
 10
191.88757825484689
 20
135.19650001176419
 30
0.0
 70
    32
  0
VERTEX
  5
16774
  8
AM_0
 10
191.88967825484761
 20
135.20050001176389
 30
0.0
 70
    32
  0
VERTEX
  5
16775
  8
AM_0
 10
191.89187825484751
 20
135.2045000117638
 30
0.0
 70
    32
  0
VERTEX
  5
16776
  8
AM_0
 10
191.89397825484761
 20
135.2085000117639
 30
0.0
 70
    32
  0
VERTEX
  5
16777
  8
AM_0
 10
191.89607825484691
 20
135.21150001176409
 30
0.0
 70
    32
  0
VERTEX
  5
16778
  8
AM_0
 10
191.89817825484701
 20
135.21550001176399
 30
0.0
 70
    32
  0
VERTEX
  5
16779
  8
AM_0
 10
191.90027825484759
 20
135.21950001176401
 30
0.0
 70
    32
  0
VERTEX
  5
1677A
  8
AM_0
 10
191.90237825484709
 20
135.22350001176409
 30
0.0
 70
    32
  0
VERTEX
  5
1677B
  8
AM_0
 10
191.90447825484731
 20
135.22750001176431
 30
0.0
 70
    32
  0
VERTEX
  5
1677C
  8
AM_0
 10
191.9065782548474
 20
135.23150001176401
 30
0.0
 70
    32
  0
VERTEX
  5
1677D
  8
AM_0
 10
191.9086782548473
 20
135.23450001176431
 30
0.0
 70
    32
  0
VERTEX
  5
1677E
  8
AM_0
 10
191.91067825484771
 20
135.23850001176399
 30
0.0
 70
    32
  0
VERTEX
  5
1677F
  8
AM_0
 10
191.91277825484701
 20
135.24250001176401
 30
0.0
 70
    32
  0
VERTEX
  5
16780
  8
AM_0
 10
191.91487825484711
 20
135.24650001176411
 30
0.0
 70
    32
  0
VERTEX
  5
16781
  8
AM_0
 10
191.91687825484729
 20
135.2505000117641
 30
0.0
 70
    32
  0
VERTEX
  5
16782
  8
AM_0
 10
191.9189782548473
 20
135.25350001176409
 30
0.0
 70
    32
  0
VERTEX
  5
16783
  8
AM_0
 10
191.92097825484711
 20
135.25750001176419
 30
0.0
 70
    32
  0
VERTEX
  5
16784
  8
AM_0
 10
191.92297825484721
 20
135.26150001176379
 30
0.0
 70
    32
  0
VERTEX
  5
16785
  8
AM_0
 10
191.9249782548473
 20
135.2655000117642
 30
0.0
 70
    32
  0
VERTEX
  5
16786
  8
AM_0
 10
191.9269782548474
 20
135.26950001176391
 30
0.0
 70
    32
  0
VERTEX
  5
16787
  8
AM_0
 10
191.9289782548469
 20
135.2735000117641
 30
0.0
 70
    32
  0
VERTEX
  5
16788
  8
AM_0
 10
191.93097825484719
 20
135.27750001176389
 30
0.0
 70
    32
  0
VERTEX
  5
16789
  8
AM_0
 10
191.9329782548474
 20
135.2805000117641
 30
0.0
 70
    32
  0
VERTEX
  5
1678A
  8
AM_0
 10
191.93497825484729
 20
135.2845000117639
 30
0.0
 70
    32
  0
VERTEX
  5
1678B
  8
AM_0
 10
191.9369782548473
 20
135.28850001176411
 30
0.0
 70
    32
  0
VERTEX
  5
1678C
  8
AM_0
 10
191.9389782548472
 20
135.29250001176379
 30
0.0
 70
    32
  0
VERTEX
  5
1678D
  8
AM_0
 10
191.94087825484741
 20
135.29650001176401
 30
0.0
 70
    32
  0
VERTEX
  5
1678E
  8
AM_0
 10
191.94287825484719
 20
135.30050001176409
 30
0.0
 70
    32
  0
VERTEX
  5
1678F
  8
AM_0
 10
191.94477825484759
 20
135.3045000117643
 30
0.0
 70
    32
  0
VERTEX
  5
16790
  8
AM_0
 10
191.94677825484709
 20
135.3085000117639
 30
0.0
 70
    32
  0
VERTEX
  5
16791
  8
AM_0
 10
191.94867825484729
 20
135.3125000117642
 30
0.0
 70
    32
  0
VERTEX
  5
16792
  8
AM_0
 10
191.9505782548471
 20
135.3155000117641
 30
0.0
 70
    32
  0
VERTEX
  5
16793
  8
AM_0
 10
191.9525782548472
 20
135.31950001176389
 30
0.0
 70
    32
  0
VERTEX
  5
16794
  8
AM_0
 10
191.9544782548472
 20
135.323500011764
 30
0.0
 70
    32
  0
VERTEX
  5
16795
  8
AM_0
 10
191.95637825484721
 20
135.3275000117641
 30
0.0
 70
    32
  0
VERTEX
  5
16796
  8
AM_0
 10
191.95827825484761
 20
135.33150001176389
 30
0.0
 70
    32
  0
VERTEX
  5
16797
  8
AM_0
 10
191.96017825484719
 20
135.33550001176411
 30
0.0
 70
    32
  0
VERTEX
  5
16798
  8
AM_0
 10
191.9620782548476
 20
135.3395000117639
 30
0.0
 70
    32
  0
VERTEX
  5
16799
  8
AM_0
 10
191.96387825484729
 20
135.34350001176401
 30
0.0
 70
    32
  0
VERTEX
  5
1679A
  8
AM_0
 10
191.96577825484729
 20
135.347500011764
 30
0.0
 70
    32
  0
VERTEX
  5
1679B
  8
AM_0
 10
191.9676782548471
 20
135.3515000117639
 30
0.0
 70
    32
  0
VERTEX
  5
1679C
  8
AM_0
 10
191.9694782548471
 20
135.35550001176409
 30
0.0
 70
    32
  0
VERTEX
  5
1679D
  8
AM_0
 10
191.97137825484731
 20
135.35850001176399
 30
0.0
 70
    32
  0
VERTEX
  5
1679E
  8
AM_0
 10
191.9731782548472
 20
135.3625000117641
 30
0.0
 70
    32
  0
VERTEX
  5
1679F
  8
AM_0
 10
191.97507825484749
 20
135.366500011764
 30
0.0
 70
    32
  0
VERTEX
  5
167A0
  8
AM_0
 10
191.97687825484729
 20
135.37050001176391
 30
0.0
 70
    32
  0
VERTEX
  5
167A1
  8
AM_0
 10
191.97867825484749
 20
135.37450001176381
 30
0.0
 70
    32
  0
VERTEX
  5
167A2
  8
AM_0
 10
191.9805782548475
 20
135.378500011764
 30
0.0
 70
    32
  0
VERTEX
  5
167A3
  8
AM_0
 10
191.9823782548473
 20
135.3825000117638
 30
0.0
 70
    32
  0
VERTEX
  5
167A4
  8
AM_0
 10
191.98417825484731
 20
135.3865000117639
 30
0.0
 70
    32
  0
VERTEX
  5
167A5
  8
AM_0
 10
191.98597825484731
 20
135.3905000117642
 30
0.0
 70
    32
  0
VERTEX
  5
167A6
  8
AM_0
 10
191.98777825484731
 20
135.3945000117638
 30
0.0
 70
    32
  0
VERTEX
  5
167A7
  8
AM_0
 10
191.98957825484709
 20
135.39850001176401
 30
0.0
 70
    32
  0
VERTEX
  5
167A8
  8
AM_0
 10
191.99127825484749
 20
135.40250001176389
 30
0.0
 70
    32
  0
VERTEX
  5
167A9
  8
AM_0
 10
191.99307825484749
 20
135.40650001176391
 30
0.0
 70
    32
  0
VERTEX
  5
167AA
  8
AM_0
 10
191.99487825484709
 20
135.41050001176399
 30
0.0
 70
    32
  0
VERTEX
  5
167AB
  8
AM_0
 10
191.9966782548475
 20
135.41450001176381
 30
0.0
 70
    32
  0
VERTEX
  5
167AC
  8
AM_0
 10
191.9983782548473
 20
135.41850001176391
 30
0.0
 70
    32
  0
VERTEX
  5
167AD
  8
AM_0
 10
192.0001782548473
 20
135.4225000117639
 30
0.0
 70
    32
  0
VERTEX
  5
167AE
  8
AM_0
 10
192.0018782548471
 20
135.4265000117642
 30
0.0
 70
    32
  0
VERTEX
  5
167AF
  8
AM_0
 10
192.0035782548469
 20
135.43050001176411
 30
0.0
 70
    32
  0
VERTEX
  5
167B0
  8
AM_0
 10
192.00537825484739
 20
135.43450001176379
 30
0.0
 70
    32
  0
VERTEX
  5
167B1
  8
AM_0
 10
192.00707825484741
 20
135.43850001176389
 30
0.0
 70
    32
  0
VERTEX
  5
167B2
  8
AM_0
 10
192.00877825484719
 20
135.442500011764
 30
0.0
 70
    32
  0
VERTEX
  5
167B3
  8
AM_0
 10
192.01047825484719
 20
135.44650001176419
 30
0.0
 70
    32
  0
VERTEX
  5
167B4
  8
AM_0
 10
192.01217825484699
 20
135.45050001176389
 30
0.0
 70
    32
  0
VERTEX
  5
167B5
  8
AM_0
 10
192.0138782548473
 20
135.4545000117638
 30
0.0
 70
    32
  0
VERTEX
  5
167B6
  8
AM_0
 10
192.01557825484761
 20
135.4585000117639
 30
0.0
 70
    32
  0
VERTEX
  5
167B7
  8
AM_0
 10
192.01727825484741
 20
135.46250001176401
 30
0.0
 70
    32
  0
VERTEX
  5
167B8
  8
AM_0
 10
192.01897825484721
 20
135.4665000117642
 30
0.0
 70
    32
  0
VERTEX
  5
167B9
  8
AM_0
 10
192.02067825484741
 20
135.47050001176399
 30
0.0
 70
    32
  0
VERTEX
  5
167BA
  8
AM_0
 10
192.02237825484721
 20
135.47450001176409
 30
0.0
 70
    32
  0
VERTEX
  5
167BB
  8
AM_0
 10
192.02397825484701
 20
135.4785000117642
 30
0.0
 70
    32
  0
VERTEX
  5
167BC
  8
AM_0
 10
192.02567825484709
 20
135.48250001176379
 30
0.0
 70
    32
  0
VERTEX
  5
167BD
  8
AM_0
 10
192.02727825484709
 20
135.48650001176421
 30
0.0
 70
    32
  0
VERTEX
  5
167BE
  8
AM_0
 10
192.02897825484689
 20
135.49050001176391
 30
0.0
 70
    32
  0
VERTEX
  5
167BF
  8
AM_0
 10
192.030578254847
 20
135.4945000117641
 30
0.0
 70
    32
  0
VERTEX
  5
167C0
  8
AM_0
 10
192.03227825484711
 20
135.49850001176421
 30
0.0
 70
    32
  0
VERTEX
  5
167C1
  8
AM_0
 10
192.0338782548468
 20
135.5025000117638
 30
0.0
 70
    32
  0
VERTEX
  5
167C2
  8
AM_0
 10
192.03547825484731
 20
135.50650001176399
 30
0.0
 70
    32
  0
VERTEX
  5
167C3
  8
AM_0
 10
192.0370782548469
 20
135.5105000117639
 30
0.0
 70
    32
  0
VERTEX
  5
167C4
  8
AM_0
 10
192.03877825484719
 20
135.51450001176411
 30
0.0
 70
    32
  0
VERTEX
  5
167C5
  8
AM_0
 10
192.04037825484721
 20
135.5185000117639
 30
0.0
 70
    32
  0
VERTEX
  5
167C6
  8
AM_0
 10
192.0419782548469
 20
135.52250001176381
 30
0.0
 70
    32
  0
VERTEX
  5
167C7
  8
AM_0
 10
192.04357825484689
 20
135.52650001176411
 30
0.0
 70
    32
  0
VERTEX
  5
167C8
  8
AM_0
 10
192.0450782548472
 20
135.53050001176399
 30
0.0
 70
    32
  0
VERTEX
  5
167C9
  8
AM_0
 10
192.04667825484731
 20
135.53450001176401
 30
0.0
 70
    32
  0
VERTEX
  5
167CA
  8
AM_0
 10
192.04827825484711
 20
135.53850001176411
 30
0.0
 70
    32
  0
VERTEX
  5
167CB
  8
AM_0
 10
192.04987825484741
 20
135.5425000117643
 30
0.0
 70
    32
  0
VERTEX
  5
167CC
  8
AM_0
 10
192.05137825484721
 20
135.5465000117639
 30
0.0
 70
    32
  0
VERTEX
  5
167CD
  8
AM_0
 10
192.05297825484729
 20
135.550500011764
 30
0.0
 70
    32
  0
VERTEX
  5
167CE
  8
AM_0
 10
192.05457825484731
 20
135.55550001176391
 30
0.0
 70
    32
  0
VERTEX
  5
167CF
  8
AM_0
 10
192.05607825484759
 20
135.55950001176379
 30
0.0
 70
    32
  0
VERTEX
  5
167D0
  8
AM_0
 10
192.05757825484699
 20
135.56350001176389
 30
0.0
 70
    32
  0
VERTEX
  5
167D1
  8
AM_0
 10
192.0591782548471
 20
135.5675000117638
 30
0.0
 70
    32
  0
VERTEX
  5
167D2
  8
AM_0
 10
192.0606782548474
 20
135.57150001176419
 30
0.0
 70
    32
  0
VERTEX
  5
167D3
  8
AM_0
 10
192.0621782548472
 20
135.57550001176389
 30
0.0
 70
    32
  0
VERTEX
  5
167D4
  8
AM_0
 10
192.06377825484751
 20
135.5795000117638
 30
0.0
 70
    32
  0
VERTEX
  5
167D5
  8
AM_0
 10
192.06527825484761
 20
135.5835000117639
 30
0.0
 70
    32
  0
VERTEX
  5
167D6
  8
AM_0
 10
192.06677825484701
 20
135.58750001176389
 30
0.0
 70
    32
  0
VERTEX
  5
167D7
  8
AM_0
 10
192.06827825484731
 20
135.5915000117642
 30
0.0
 70
    32
  0
VERTEX
  5
167D8
  8
AM_0
 10
192.06977825484739
 20
135.5955000117639
 30
0.0
 70
    32
  0
VERTEX
  5
167D9
  8
AM_0
 10
192.07127825484699
 20
135.59950001176389
 30
0.0
 70
    32
  0
VERTEX
  5
167DA
  8
AM_0
 10
192.0727782548478
 20
135.60350001176411
 30
0.0
 70
    32
  0
VERTEX
  5
167DB
  8
AM_0
 10
192.0741782548472
 20
135.6075000117639
 30
0.0
 70
    32
  0
VERTEX
  5
167DC
  8
AM_0
 10
192.0756782548473
 20
135.6125000117643
 30
0.0
 70
    32
  0
VERTEX
  5
167DD
  8
AM_0
 10
192.07717825484761
 20
135.616500011764
 30
0.0
 70
    32
  0
VERTEX
  5
167DE
  8
AM_0
 10
192.0786782548474
 20
135.62050001176419
 30
0.0
 70
    32
  0
VERTEX
  5
167DF
  8
AM_0
 10
192.08007825484739
 20
135.6245000117641
 30
0.0
 70
    32
  0
VERTEX
  5
167E0
  8
AM_0
 10
192.08157825484739
 20
135.62850001176409
 30
0.0
 70
    32
  0
VERTEX
  5
167E1
  8
AM_0
 10
192.08297825484701
 20
135.63250001176391
 30
0.0
 70
    32
  0
VERTEX
  5
167E2
  8
AM_0
 10
192.08447825484731
 20
135.63650001176401
 30
0.0
 70
    32
  0
VERTEX
  5
167E3
  8
AM_0
 10
192.08587825484739
 20
135.64050001176409
 30
0.0
 70
    32
  0
VERTEX
  5
167E4
  8
AM_0
 10
192.08727825484749
 20
135.64450001176411
 30
0.0
 70
    32
  0
VERTEX
  5
167E5
  8
AM_0
 10
192.08867825484739
 20
135.64850001176401
 30
0.0
 70
    32
  0
VERTEX
  5
167E6
  8
AM_0
 10
192.0901782548475
 20
135.65350001176381
 30
0.0
 70
    32
  0
VERTEX
  5
167E7
  8
AM_0
 10
192.09157825484709
 20
135.65750001176389
 30
0.0
 70
    32
  0
VERTEX
  5
167E8
  8
AM_0
 10
192.0929782548472
 20
135.66150001176399
 30
0.0
 70
    32
  0
VERTEX
  5
167E9
  8
AM_0
 10
192.0943782548473
 20
135.66550001176381
 30
0.0
 70
    32
  0
VERTEX
  5
167EA
  8
AM_0
 10
192.0957782548472
 20
135.6695000117642
 30
0.0
 70
    32
  0
VERTEX
  5
167EB
  8
AM_0
 10
192.09717825484751
 20
135.67350001176411
 30
0.0
 70
    32
  0
VERTEX
  5
167EC
  8
AM_0
 10
192.09857825484721
 20
135.67750001176381
 30
0.0
 70
    32
  0
VERTEX
  5
167ED
  8
AM_0
 10
192.09997825484729
 20
135.68150001176409
 30
0.0
 70
    32
  0
VERTEX
  5
167EE
  8
AM_0
 10
192.10127825484719
 20
135.68550001176379
 30
0.0
 70
    32
  0
VERTEX
  5
167EF
  8
AM_0
 10
192.10267825484729
 20
135.6905000117639
 30
0.0
 70
    32
  0
VERTEX
  5
167F0
  8
AM_0
 10
192.10407825484691
 20
135.69450001176401
 30
0.0
 70
    32
  0
VERTEX
  5
167F1
  8
AM_0
 10
192.1053782548473
 20
135.6985000117642
 30
0.0
 70
    32
  0
VERTEX
  5
167F2
  8
AM_0
 10
192.10677825484689
 20
135.70250001176419
 30
0.0
 70
    32
  0
VERTEX
  5
167F3
  8
AM_0
 10
192.1080782548473
 20
135.70650001176401
 30
0.0
 70
    32
  0
VERTEX
  5
167F4
  8
AM_0
 10
192.10947825484701
 20
135.71050001176391
 30
0.0
 70
    32
  0
VERTEX
  5
167F5
  8
AM_0
 10
192.1107782548473
 20
135.71450001176399
 30
0.0
 70
    32
  0
VERTEX
  5
167F6
  8
AM_0
 10
192.11207825484721
 20
135.71950001176421
 30
0.0
 70
    32
  0
VERTEX
  5
167F7
  8
AM_0
 10
192.11347825484731
 20
135.723500011764
 30
0.0
 70
    32
  0
VERTEX
  5
167F8
  8
AM_0
 10
192.11477825484721
 20
135.72750001176411
 30
0.0
 70
    32
  0
VERTEX
  5
167F9
  8
AM_0
 10
192.11607825484759
 20
135.7315000117639
 30
0.0
 70
    32
  0
VERTEX
  5
167FA
  8
AM_0
 10
192.1173782548471
 20
135.73550001176409
 30
0.0
 70
    32
  0
VERTEX
  5
167FB
  8
AM_0
 10
192.11867825484691
 20
135.73950001176391
 30
0.0
 70
    32
  0
VERTEX
  5
167FC
  8
AM_0
 10
192.1199782548473
 20
135.74350001176381
 30
0.0
 70
    32
  0
VERTEX
  5
167FD
  8
AM_0
 10
192.12127825484711
 20
135.74850001176389
 30
0.0
 70
    32
  0
VERTEX
  5
167FE
  8
AM_0
 10
192.1225782548471
 20
135.7525000117638
 30
0.0
 70
    32
  0
VERTEX
  5
167FF
  8
AM_0
 10
192.1238782548472
 20
135.75650001176399
 30
0.0
 70
    32
  0
VERTEX
  5
16800
  8
AM_0
 10
192.1251782548473
 20
135.76050001176381
 30
0.0
 70
    32
  0
VERTEX
  5
16801
  8
AM_0
 10
192.12647825484709
 20
135.76450001176389
 30
0.0
 70
    32
  0
VERTEX
  5
16802
  8
AM_0
 10
192.12767825484721
 20
135.76850001176399
 30
0.0
 70
    32
  0
VERTEX
  5
16803
  8
AM_0
 10
192.12897825484731
 20
135.7725000117637
 30
0.0
 70
    32
  0
VERTEX
  5
16804
  8
AM_0
 10
192.13027825484741
 20
135.77750001176389
 30
0.0
 70
    32
  0
VERTEX
  5
16805
  8
AM_0
 10
192.13147825484731
 20
135.781500011764
 30
0.0
 70
    32
  0
VERTEX
  5
16806
  8
AM_0
 10
192.13277825484721
 20
135.7855000117641
 30
0.0
 70
    32
  0
VERTEX
  5
16807
  8
AM_0
 10
192.13397825484739
 20
135.78950001176409
 30
0.0
 70
    32
  0
VERTEX
  5
16808
  8
AM_0
 10
192.13527825484729
 20
135.793500011764
 30
0.0
 70
    32
  0
VERTEX
  5
16809
  8
AM_0
 10
192.13647825484699
 20
135.7975000117641
 30
0.0
 70
    32
  0
VERTEX
  5
1680A
  8
AM_0
 10
192.1376782548476
 20
135.80250001176401
 30
0.0
 70
    32
  0
VERTEX
  5
1680B
  8
AM_0
 10
192.1389782548475
 20
135.8065000117642
 30
0.0
 70
    32
  0
VERTEX
  5
1680C
  8
AM_0
 10
192.140178254847
 20
135.81050001176399
 30
0.0
 70
    32
  0
VERTEX
  5
1680D
  8
AM_0
 10
192.14137825484741
 20
135.8145000117639
 30
0.0
 70
    32
  0
VERTEX
  5
1680E
  8
AM_0
 10
192.14257825484751
 20
135.81850001176389
 30
0.0
 70
    32
  0
VERTEX
  5
1680F
  8
AM_0
 10
192.14377825484721
 20
135.82250001176411
 30
0.0
 70
    32
  0
VERTEX
  5
16810
  8
AM_0
 10
192.14497825484739
 20
135.82750001176399
 30
0.0
 70
    32
  0
VERTEX
  5
16811
  8
AM_0
 10
192.14617825484709
 20
135.83150001176381
 30
0.0
 70
    32
  0
VERTEX
  5
16812
  8
AM_0
 10
192.1473782548467
 20
135.835500011764
 30
0.0
 70
    32
  0
VERTEX
  5
16813
  8
AM_0
 10
192.14857825484739
 20
135.8395000117641
 30
0.0
 70
    32
  0
VERTEX
  5
16814
  8
AM_0
 10
192.14977825484749
 20
135.84350001176389
 30
0.0
 70
    32
  0
VERTEX
  5
16815
  8
AM_0
 10
192.15097825484719
 20
135.84850001176389
 30
0.0
 70
    32
  0
VERTEX
  5
16816
  8
AM_0
 10
192.1520782548472
 20
135.85250001176399
 30
0.0
 70
    32
  0
VERTEX
  5
16817
  8
AM_0
 10
192.15327825484729
 20
135.8565000117641
 30
0.0
 70
    32
  0
VERTEX
  5
16818
  8
AM_0
 10
192.1544782548475
 20
135.86050001176389
 30
0.0
 70
    32
  0
VERTEX
  5
16819
  8
AM_0
 10
192.1555782548474
 20
135.86450001176411
 30
0.0
 70
    32
  0
VERTEX
  5
1681A
  8
AM_0
 10
192.1567782548473
 20
135.8685000117639
 30
0.0
 70
    32
  0
VERTEX
  5
1681B
  8
AM_0
 10
192.1578782548473
 20
135.87350001176389
 30
0.0
 70
    32
  0
VERTEX
  5
1681C
  8
AM_0
 10
192.159078254847
 20
135.8775000117638
 30
0.0
 70
    32
  0
VERTEX
  5
1681D
  8
AM_0
 10
192.16017825484721
 20
135.88150001176399
 30
0.0
 70
    32
  0
VERTEX
  5
1681E
  8
AM_0
 10
192.16137825484731
 20
135.8855000117639
 30
0.0
 70
    32
  0
VERTEX
  5
1681F
  8
AM_0
 10
192.16247825484729
 20
135.88950001176411
 30
0.0
 70
    32
  0
VERTEX
  5
16820
  8
AM_0
 10
192.16357825484721
 20
135.8945000117638
 30
0.0
 70
    32
  0
VERTEX
  5
16821
  8
AM_0
 10
192.1646782548477
 20
135.89850001176379
 30
0.0
 70
    32
  0
VERTEX
  5
16822
  8
AM_0
 10
192.16587825484731
 20
135.902500011764
 30
0.0
 70
    32
  0
VERTEX
  5
16823
  8
AM_0
 10
192.16697825484749
 20
135.906500011764
 30
0.0
 70
    32
  0
VERTEX
  5
16824
  8
AM_0
 10
192.16807825484719
 20
135.9105000117643
 30
0.0
 70
    32
  0
VERTEX
  5
16825
  8
AM_0
 10
192.1691782548474
 20
135.9155000117639
 30
0.0
 70
    32
  0
VERTEX
  5
16826
  8
AM_0
 10
192.1702782548472
 20
135.9195000117642
 30
0.0
 70
    32
  0
VERTEX
  5
16827
  8
AM_0
 10
192.17137825484761
 20
135.92350001176399
 30
0.0
 70
    32
  0
VERTEX
  5
16828
  8
AM_0
 10
192.17247825484731
 20
135.92750001176401
 30
0.0
 70
    32
  0
VERTEX
  5
16829
  8
AM_0
 10
192.17347825484731
 20
135.93250001176401
 30
0.0
 70
    32
  0
VERTEX
  5
1682A
  8
AM_0
 10
192.17457825484721
 20
135.936500011764
 30
0.0
 70
    32
  0
VERTEX
  5
1682B
  8
AM_0
 10
192.17567825484721
 20
135.9405000117639
 30
0.0
 70
    32
  0
VERTEX
  5
1682C
  8
AM_0
 10
192.17677825484731
 20
135.94450001176401
 30
0.0
 70
    32
  0
VERTEX
  5
1682D
  8
AM_0
 10
192.1777782548474
 20
135.94850001176411
 30
0.0
 70
    32
  0
VERTEX
  5
1682E
  8
AM_0
 10
192.17887825484729
 20
135.95350001176379
 30
0.0
 70
    32
  0
VERTEX
  5
1682F
  8
AM_0
 10
192.17987825484749
 20
135.9575000117643
 30
0.0
 70
    32
  0
VERTEX
  5
16830
  8
AM_0
 10
192.18097825484739
 20
135.96150001176409
 30
0.0
 70
    32
  0
VERTEX
  5
16831
  8
AM_0
 10
192.18197825484719
 20
135.96550001176399
 30
0.0
 70
    32
  0
VERTEX
  5
16832
  8
AM_0
 10
192.1830782548476
 20
135.9695000117641
 30
0.0
 70
    32
  0
VERTEX
  5
16833
  8
AM_0
 10
192.1840782548478
 20
135.97450001176401
 30
0.0
 70
    32
  0
VERTEX
  5
16834
  8
AM_0
 10
192.1850782548471
 20
135.97850001176391
 30
0.0
 70
    32
  0
VERTEX
  5
16835
  8
AM_0
 10
192.18617825484699
 20
135.98250001176399
 30
0.0
 70
    32
  0
VERTEX
  5
16836
  8
AM_0
 10
192.1871782548472
 20
135.98650001176409
 30
0.0
 70
    32
  0
VERTEX
  5
16837
  8
AM_0
 10
192.1881782548474
 20
135.991500011764
 30
0.0
 70
    32
  0
VERTEX
  5
16838
  8
AM_0
 10
192.18917825484741
 20
135.99550001176419
 30
0.0
 70
    32
  0
VERTEX
  5
16839
  8
AM_0
 10
192.1901782548469
 20
135.99950001176381
 30
0.0
 70
    32
  0
VERTEX
  5
1683A
  8
AM_0
 10
192.19117825484761
 20
136.00350001176409
 30
0.0
 70
    32
  0
VERTEX
  5
1683B
  8
AM_0
 10
192.19217825484731
 20
136.00750001176391
 30
0.0
 70
    32
  0
VERTEX
  5
1683C
  8
AM_0
 10
192.19317825484711
 20
136.01250001176399
 30
0.0
 70
    32
  0
VERTEX
  5
1683D
  8
AM_0
 10
192.1941782548472
 20
136.0165000117637
 30
0.0
 70
    32
  0
VERTEX
  5
1683E
  8
AM_0
 10
192.19517825484729
 20
136.0205000117642
 30
0.0
 70
    32
  0
VERTEX
  5
1683F
  8
AM_0
 10
192.19607825484749
 20
136.0245000117643
 30
0.0
 70
    32
  0
VERTEX
  5
16840
  8
AM_0
 10
192.19707825484721
 20
136.0295000117639
 30
0.0
 70
    32
  0
VERTEX
  5
16841
  8
AM_0
 10
192.19807825484699
 20
136.0335000117642
 30
0.0
 70
    32
  0
VERTEX
  5
16842
  8
AM_0
 10
192.19897825484719
 20
136.03750001176419
 30
0.0
 70
    32
  0
VERTEX
  5
16843
  8
AM_0
 10
192.1999782548472
 20
136.04150001176379
 30
0.0
 70
    32
  0
VERTEX
  5
16844
  8
AM_0
 10
192.200978254847
 20
136.04650001176401
 30
0.0
 70
    32
  0
VERTEX
  5
16845
  8
AM_0
 10
192.201878254847
 20
136.05050001176409
 30
0.0
 70
    32
  0
VERTEX
  5
16846
  8
AM_0
 10
192.20287825484721
 20
136.05450001176419
 30
0.0
 70
    32
  0
VERTEX
  5
16847
  8
AM_0
 10
192.20377825484741
 20
136.05850001176381
 30
0.0
 70
    32
  0
VERTEX
  5
16848
  8
AM_0
 10
192.20467825484761
 20
136.06350001176369
 30
0.0
 70
    32
  0
VERTEX
  5
16849
  8
AM_0
 10
192.2056782548473
 20
136.0675000117642
 30
0.0
 70
    32
  0
VERTEX
  5
1684A
  8
AM_0
 10
192.20657825484739
 20
136.0715000117643
 30
0.0
 70
    32
  0
VERTEX
  5
1684B
  8
AM_0
 10
192.20747825484739
 20
136.07550001176389
 30
0.0
 70
    32
  0
VERTEX
  5
1684C
  8
AM_0
 10
192.20837825484739
 20
136.08050001176409
 30
0.0
 70
    32
  0
VERTEX
  5
1684D
  8
AM_0
 10
192.20927825484711
 20
136.08450001176419
 30
0.0
 70
    32
  0
VERTEX
  5
1684E
  8
AM_0
 10
192.21017825484731
 20
136.08850001176381
 30
0.0
 70
    32
  0
VERTEX
  5
1684F
  8
AM_0
 10
192.21107825484739
 20
136.09250001176389
 30
0.0
 70
    32
  0
VERTEX
  5
16850
  8
AM_0
 10
192.21197825484739
 20
136.097500011764
 30
0.0
 70
    32
  0
VERTEX
  5
16851
  8
AM_0
 10
192.2128782548474
 20
136.1015000117639
 30
0.0
 70
    32
  0
VERTEX
  5
16852
  8
AM_0
 10
192.21377825484689
 20
136.10550001176409
 30
0.0
 70
    32
  0
VERTEX
  5
16853
  8
AM_0
 10
192.21467825484709
 20
136.1095000117642
 30
0.0
 70
    32
  0
VERTEX
  5
16854
  8
AM_0
 10
192.2155782548474
 20
136.11450001176391
 30
0.0
 70
    32
  0
VERTEX
  5
16855
  8
AM_0
 10
192.2164782548474
 20
136.11850001176381
 30
0.0
 70
    32
  0
VERTEX
  5
16856
  8
AM_0
 10
192.2172782548476
 20
136.12250001176409
 30
0.0
 70
    32
  0
VERTEX
  5
16857
  8
AM_0
 10
192.2181782548476
 20
136.12650001176391
 30
0.0
 70
    32
  0
VERTEX
  5
16858
  8
AM_0
 10
192.2190782548472
 20
136.1315000117643
 30
0.0
 70
    32
  0
VERTEX
  5
16859
  8
AM_0
 10
192.219878254847
 20
136.1355000117639
 30
0.0
 70
    32
  0
VERTEX
  5
1685A
  8
AM_0
 10
192.220778254847
 20
136.1395000117638
 30
0.0
 70
    32
  0
VERTEX
  5
1685B
  8
AM_0
 10
192.22157825484709
 20
136.14350001176399
 30
0.0
 70
    32
  0
VERTEX
  5
1685C
  8
AM_0
 10
192.22247825484709
 20
136.14850001176401
 30
0.0
 70
    32
  0
VERTEX
  5
1685D
  8
AM_0
 10
192.22327825484729
 20
136.15250001176389
 30
0.0
 70
    32
  0
VERTEX
  5
1685E
  8
AM_0
 10
192.22417825484749
 20
136.15650001176391
 30
0.0
 70
    32
  0
VERTEX
  5
1685F
  8
AM_0
 10
192.22497825484729
 20
136.16050001176399
 30
0.0
 70
    32
  0
VERTEX
  5
16860
  8
AM_0
 10
192.22577825484751
 20
136.16550001176381
 30
0.0
 70
    32
  0
VERTEX
  5
16861
  8
AM_0
 10
192.22657825484711
 20
136.16950001176409
 30
0.0
 70
    32
  0
VERTEX
  5
16862
  8
AM_0
 10
192.2274782548474
 20
136.17350001176391
 30
0.0
 70
    32
  0
VERTEX
  5
16863
  8
AM_0
 10
192.22827825484711
 20
136.1785000117643
 30
0.0
 70
    32
  0
VERTEX
  5
16864
  8
AM_0
 10
192.22907825484739
 20
136.18250001176409
 30
0.0
 70
    32
  0
VERTEX
  5
16865
  8
AM_0
 10
192.22987825484719
 20
136.18650001176391
 30
0.0
 70
    32
  0
VERTEX
  5
16866
  8
AM_0
 10
192.23067825484739
 20
136.1905000117641
 30
0.0
 70
    32
  0
VERTEX
  5
16867
  8
AM_0
 10
192.2314782548473
 20
136.19550001176401
 30
0.0
 70
    32
  0
VERTEX
  5
16868
  8
AM_0
 10
192.2322782548475
 20
136.19950001176389
 30
0.0
 70
    32
  0
VERTEX
  5
16869
  8
AM_0
 10
192.2330782548473
 20
136.20350001176399
 30
0.0
 70
    32
  0
VERTEX
  5
1686A
  8
AM_0
 10
192.23387825484761
 20
136.20750001176421
 30
0.0
 70
    32
  0
VERTEX
  5
1686B
  8
AM_0
 10
192.2346782548471
 20
136.21250001176389
 30
0.0
 70
    32
  0
VERTEX
  5
1686C
  8
AM_0
 10
192.2353782548474
 20
136.2165000117642
 30
0.0
 70
    32
  0
VERTEX
  5
1686D
  8
AM_0
 10
192.23617825484709
 20
136.22050001176399
 30
0.0
 70
    32
  0
VERTEX
  5
1686E
  8
AM_0
 10
192.236978254847
 20
136.2255000117643
 30
0.0
 70
    32
  0
VERTEX
  5
1686F
  8
AM_0
 10
192.23777825484731
 20
136.22950001176389
 30
0.0
 70
    32
  0
VERTEX
  5
16870
  8
AM_0
 10
192.23847825484731
 20
136.23350001176399
 30
0.0
 70
    32
  0
VERTEX
  5
16871
  8
AM_0
 10
192.23927825484759
 20
136.23750001176401
 30
0.0
 70
    32
  0
VERTEX
  5
16872
  8
AM_0
 10
192.23997825484739
 20
136.24250001176401
 30
0.0
 70
    32
  0
VERTEX
  5
16873
  8
AM_0
 10
192.24077825484699
 20
136.24650001176411
 30
0.0
 70
    32
  0
VERTEX
  5
16874
  8
AM_0
 10
192.24147825484749
 20
136.2505000117641
 30
0.0
 70
    32
  0
VERTEX
  5
16875
  8
AM_0
 10
192.24227825484729
 20
136.2555000117639
 30
0.0
 70
    32
  0
VERTEX
  5
16876
  8
AM_0
 10
192.24297825484729
 20
136.25950001176409
 30
0.0
 70
    32
  0
VERTEX
  5
16877
  8
AM_0
 10
192.2436782548474
 20
136.26350001176391
 30
0.0
 70
    32
  0
VERTEX
  5
16878
  8
AM_0
 10
192.24447825484719
 20
136.2675000117641
 30
0.0
 70
    32
  0
VERTEX
  5
16879
  8
AM_0
 10
192.24517825484719
 20
136.27250001176401
 30
0.0
 70
    32
  0
VERTEX
  5
1687A
  8
AM_0
 10
192.2458782548473
 20
136.27650001176389
 30
0.0
 70
    32
  0
VERTEX
  5
1687B
  8
AM_0
 10
192.24657825484729
 20
136.28050001176399
 30
0.0
 70
    32
  0
VERTEX
  5
1687C
  8
AM_0
 10
192.2473782548476
 20
136.2855000117641
 30
0.0
 70
    32
  0
VERTEX
  5
1687D
  8
AM_0
 10
192.2480782548474
 20
136.28950001176401
 30
0.0
 70
    32
  0
VERTEX
  5
1687E
  8
AM_0
 10
192.2487782548472
 20
136.29350001176391
 30
0.0
 70
    32
  0
VERTEX
  5
1687F
  8
AM_0
 10
192.2494782548473
 20
136.29750001176399
 30
0.0
 70
    32
  0
VERTEX
  5
16880
  8
AM_0
 10
192.2501782548473
 20
136.30250001176401
 30
0.0
 70
    32
  0
VERTEX
  5
16881
  8
AM_0
 10
192.25087825484721
 20
136.30650001176389
 30
0.0
 70
    32
  0
VERTEX
  5
16882
  8
AM_0
 10
192.251578254847
 20
136.31050001176399
 30
0.0
 70
    32
  0
VERTEX
  5
16883
  8
AM_0
 10
192.25217825484731
 20
136.31550001176419
 30
0.0
 70
    32
  0
VERTEX
  5
16884
  8
AM_0
 10
192.2528782548473
 20
136.31950001176381
 30
0.0
 70
    32
  0
VERTEX
  5
16885
  8
AM_0
 10
192.25357825484721
 20
136.323500011764
 30
0.0
 70
    32
  0
VERTEX
  5
16886
  8
AM_0
 10
192.25427825484701
 20
136.3275000117639
 30
0.0
 70
    32
  0
VERTEX
  5
16887
  8
AM_0
 10
192.254978254847
 20
136.3325000117643
 30
0.0
 70
    32
  0
VERTEX
  5
16888
  8
AM_0
 10
192.25557825484731
 20
136.33650001176409
 30
0.0
 70
    32
  0
VERTEX
  5
16889
  8
AM_0
 10
192.25627825484719
 20
136.34050001176399
 30
0.0
 70
    32
  0
VERTEX
  5
1688A
  8
AM_0
 10
192.25687825484729
 20
136.34550001176419
 30
0.0
 70
    32
  0
VERTEX
  5
1688B
  8
AM_0
 10
192.25757825484729
 20
136.34950001176401
 30
0.0
 70
    32
  0
VERTEX
  5
1688C
  8
AM_0
 10
192.2582782548474
 20
136.35350001176391
 30
0.0
 70
    32
  0
VERTEX
  5
1688D
  8
AM_0
 10
192.25887825484719
 20
136.35750001176399
 30
0.0
 70
    32
  0
VERTEX
  5
1688E
  8
AM_0
 10
192.25947825484729
 20
136.3625000117641
 30
0.0
 70
    32
  0
VERTEX
  5
1688F
  8
AM_0
 10
192.26017825484709
 20
136.366500011764
 30
0.0
 70
    32
  0
VERTEX
  5
16890
  8
AM_0
 10
192.26077825484691
 20
136.3705000117638
 30
0.0
 70
    32
  0
VERTEX
  5
16891
  8
AM_0
 10
192.26147825484739
 20
136.3755000117641
 30
0.0
 70
    32
  0
VERTEX
  5
16892
  8
AM_0
 10
192.2620782548473
 20
136.37950001176429
 30
0.0
 70
    32
  0
VERTEX
  5
16893
  8
AM_0
 10
192.2626782548474
 20
136.38350001176411
 30
0.0
 70
    32
  0
VERTEX
  5
16894
  8
AM_0
 10
192.26327825484719
 20
136.38850001176411
 30
0.0
 70
    32
  0
VERTEX
  5
16895
  8
AM_0
 10
192.2638782548473
 20
136.3925000117639
 30
0.0
 70
    32
  0
VERTEX
  5
16896
  8
AM_0
 10
192.2645782548469
 20
136.396500011764
 30
0.0
 70
    32
  0
VERTEX
  5
16897
  8
AM_0
 10
192.26517825484709
 20
136.401500011764
 30
0.0
 70
    32
  0
VERTEX
  5
16898
  8
AM_0
 10
192.26577825484711
 20
136.4055000117641
 30
0.0
 70
    32
  0
VERTEX
  5
16899
  8
AM_0
 10
192.26637825484741
 20
136.4095000117639
 30
0.0
 70
    32
  0
VERTEX
  5
1689A
  8
AM_0
 10
192.2669782548472
 20
136.41350001176411
 30
0.0
 70
    32
  0
VERTEX
  5
1689B
  8
AM_0
 10
192.26757825484731
 20
136.418500011764
 30
0.0
 70
    32
  0
VERTEX
  5
1689C
  8
AM_0
 10
192.2681782548471
 20
136.4225000117639
 30
0.0
 70
    32
  0
VERTEX
  5
1689D
  8
AM_0
 10
192.26877825484721
 20
136.42650001176429
 30
0.0
 70
    32
  0
VERTEX
  5
1689E
  8
AM_0
 10
192.26927825484731
 20
136.43150001176409
 30
0.0
 70
    32
  0
VERTEX
  5
1689F
  8
AM_0
 10
192.2698782548471
 20
136.43550001176399
 30
0.0
 70
    32
  0
VERTEX
  5
168A0
  8
AM_0
 10
192.27047825484701
 20
136.43950001176421
 30
0.0
 70
    32
  0
VERTEX
  5
168A1
  8
AM_0
 10
192.27107825484731
 20
136.44450001176401
 30
0.0
 70
    32
  0
VERTEX
  5
168A2
  8
AM_0
 10
192.27157825484699
 20
136.44850001176411
 30
0.0
 70
    32
  0
VERTEX
  5
168A3
  8
AM_0
 10
192.27217825484729
 20
136.45250001176399
 30
0.0
 70
    32
  0
VERTEX
  5
168A4
  8
AM_0
 10
192.27277825484759
 20
136.45650001176389
 30
0.0
 70
    32
  0
VERTEX
  5
168A5
  8
AM_0
 10
192.27327825484721
 20
136.46150001176409
 30
0.0
 70
    32
  0
VERTEX
  5
168A6
  8
AM_0
 10
192.27387825484709
 20
136.46550001176399
 30
0.0
 70
    32
  0
VERTEX
  5
168A7
  8
AM_0
 10
192.27437825484759
 20
136.4695000117639
 30
0.0
 70
    32
  0
VERTEX
  5
168A8
  8
AM_0
 10
192.2749782548475
 20
136.47450001176389
 30
0.0
 70
    32
  0
VERTEX
  5
168A9
  8
AM_0
 10
192.2754782548476
 20
136.47850001176411
 30
0.0
 70
    32
  0
VERTEX
  5
168AA
  8
AM_0
 10
192.27597825484719
 20
136.48250001176379
 30
0.0
 70
    32
  0
VERTEX
  5
168AB
  8
AM_0
 10
192.2765782548471
 20
136.48750001176381
 30
0.0
 70
    32
  0
VERTEX
  5
168AC
  8
AM_0
 10
192.27707825484759
 20
136.491500011764
 30
0.0
 70
    32
  0
VERTEX
  5
168AD
  8
AM_0
 10
192.2775782548473
 20
136.49550001176419
 30
0.0
 70
    32
  0
VERTEX
  5
168AE
  8
AM_0
 10
192.2781782548476
 20
136.5005000117641
 30
0.0
 70
    32
  0
VERTEX
  5
168AF
  8
AM_0
 10
192.2786782548477
 20
136.50450001176421
 30
0.0
 70
    32
  0
VERTEX
  5
168B0
  8
AM_0
 10
192.2791782548473
 20
136.50850001176411
 30
0.0
 70
    32
  0
VERTEX
  5
168B1
  8
AM_0
 10
192.279678254847
 20
136.51350001176399
 30
0.0
 70
    32
  0
VERTEX
  5
168B2
  8
AM_0
 10
192.2801782548471
 20
136.5175000117639
 30
0.0
 70
    32
  0
VERTEX
  5
168B3
  8
AM_0
 10
192.28067825484709
 20
136.521500011764
 30
0.0
 70
    32
  0
VERTEX
  5
168B4
  8
AM_0
 10
192.2811782548473
 20
136.5265000117642
 30
0.0
 70
    32
  0
VERTEX
  5
168B5
  8
AM_0
 10
192.28167825484721
 20
136.53050001176399
 30
0.0
 70
    32
  0
VERTEX
  5
168B6
  8
AM_0
 10
192.28217825484739
 20
136.5345000117639
 30
0.0
 70
    32
  0
VERTEX
  5
168B7
  8
AM_0
 10
192.28267825484761
 20
136.53850001176389
 30
0.0
 70
    32
  0
VERTEX
  5
168B8
  8
AM_0
 10
192.28317825484709
 20
136.54350001176391
 30
0.0
 70
    32
  0
VERTEX
  5
168B9
  8
AM_0
 10
192.28357825484761
 20
136.5475000117639
 30
0.0
 70
    32
  0
VERTEX
  5
168BA
  8
AM_0
 10
192.28407825484709
 20
136.5515000117642
 30
0.0
 70
    32
  0
VERTEX
  5
168BB
  8
AM_0
 10
192.2845782548473
 20
136.5565000117642
 30
0.0
 70
    32
  0
VERTEX
  5
168BC
  8
AM_0
 10
192.28497825484729
 20
136.56050001176379
 30
0.0
 70
    32
  0
VERTEX
  5
168BD
  8
AM_0
 10
192.28547825484731
 20
136.5645000117641
 30
0.0
 70
    32
  0
VERTEX
  5
168BE
  8
AM_0
 10
192.28597825484721
 20
136.56950001176409
 30
0.0
 70
    32
  0
VERTEX
  5
168BF
  8
AM_0
 10
192.28637825484731
 20
136.57350001176431
 30
0.0
 70
    32
  0
VERTEX
  5
168C0
  8
AM_0
 10
192.28677825484721
 20
136.57750001176399
 30
0.0
 70
    32
  0
VERTEX
  5
168C1
  8
AM_0
 10
192.28727825484731
 20
136.5825000117641
 30
0.0
 70
    32
  0
VERTEX
  5
168C2
  8
AM_0
 10
192.28767825484721
 20
136.5865000117642
 30
0.0
 70
    32
  0
VERTEX
  5
168C3
  8
AM_0
 10
192.28817825484731
 20
136.59050001176399
 30
0.0
 70
    32
  0
VERTEX
  5
168C4
  8
AM_0
 10
192.28857825484721
 20
136.59550001176399
 30
0.0
 70
    32
  0
VERTEX
  5
168C5
  8
AM_0
 10
192.28897825484759
 20
136.59950001176409
 30
0.0
 70
    32
  0
VERTEX
  5
168C6
  8
AM_0
 10
192.28937825484689
 20
136.6035000117642
 30
0.0
 70
    32
  0
VERTEX
  5
168C7
  8
AM_0
 10
192.2898782548472
 20
136.60850001176399
 30
0.0
 70
    32
  0
VERTEX
  5
168C8
  8
AM_0
 10
192.29027825484729
 20
136.6125000117641
 30
0.0
 70
    32
  0
VERTEX
  5
168C9
  8
AM_0
 10
192.29067825484739
 20
136.61650001176409
 30
0.0
 70
    32
  0
VERTEX
  5
168CA
  8
AM_0
 10
192.29107825484729
 20
136.62150001176411
 30
0.0
 70
    32
  0
VERTEX
  5
168CB
  8
AM_0
 10
192.29147825484699
 20
136.6255000117639
 30
0.0
 70
    32
  0
VERTEX
  5
168CC
  8
AM_0
 10
192.29187825484709
 20
136.62950001176421
 30
0.0
 70
    32
  0
VERTEX
  5
168CD
  8
AM_0
 10
192.29227825484739
 20
136.63450001176409
 30
0.0
 70
    32
  0
VERTEX
  5
168CE
  8
AM_0
 10
192.29257825484709
 20
136.63850001176399
 30
0.0
 70
    32
  0
VERTEX
  5
168CF
  8
AM_0
 10
192.2929782548475
 20
136.64250001176401
 30
0.0
 70
    32
  0
VERTEX
  5
168D0
  8
AM_0
 10
192.2933782548474
 20
136.64750001176381
 30
0.0
 70
    32
  0
VERTEX
  5
168D1
  8
AM_0
 10
192.2937782548473
 20
136.65150001176411
 30
0.0
 70
    32
  0
VERTEX
  5
168D2
  8
AM_0
 10
192.29407825484719
 20
136.65550001176399
 30
0.0
 70
    32
  0
VERTEX
  5
168D3
  8
AM_0
 10
192.29447825484741
 20
136.6605000117639
 30
0.0
 70
    32
  0
VERTEX
  5
168D4
  8
AM_0
 10
192.2948782548473
 20
136.66450001176401
 30
0.0
 70
    32
  0
VERTEX
  5
168D5
  8
AM_0
 10
192.2951782548472
 20
136.6685000117638
 30
0.0
 70
    32
  0
VERTEX
  5
168D6
  8
AM_0
 10
192.2955782548473
 20
136.67350001176411
 30
0.0
 70
    32
  0
VERTEX
  5
168D7
  8
AM_0
 10
192.295878254847
 20
136.6775000117639
 30
0.0
 70
    32
  0
VERTEX
  5
168D8
  8
AM_0
 10
192.2961782548474
 20
136.68150001176409
 30
0.0
 70
    32
  0
VERTEX
  5
168D9
  8
AM_0
 10
192.2965782548475
 20
136.68650001176411
 30
0.0
 70
    32
  0
VERTEX
  5
168DA
  8
AM_0
 10
192.296878254847
 20
136.6905000117639
 30
0.0
 70
    32
  0
VERTEX
  5
168DB
  8
AM_0
 10
192.29717825484741
 20
136.69450001176401
 30
0.0
 70
    32
  0
VERTEX
  5
168DC
  8
AM_0
 10
192.2974782548475
 20
136.69950001176409
 30
0.0
 70
    32
  0
VERTEX
  5
168DD
  8
AM_0
 10
192.29787825484721
 20
136.70350001176411
 30
0.0
 70
    32
  0
VERTEX
  5
168DE
  8
AM_0
 10
192.2981782548471
 20
136.7075000117643
 30
0.0
 70
    32
  0
VERTEX
  5
168DF
  8
AM_0
 10
192.29847825484731
 20
136.71250001176389
 30
0.0
 70
    32
  0
VERTEX
  5
168E0
  8
AM_0
 10
192.29877825484741
 20
136.7165000117642
 30
0.0
 70
    32
  0
VERTEX
  5
168E1
  8
AM_0
 10
192.2990782548471
 20
136.7205000117639
 30
0.0
 70
    32
  0
VERTEX
  5
168E2
  8
AM_0
 10
192.29937825484751
 20
136.72550001176421
 30
0.0
 70
    32
  0
VERTEX
  5
168E3
  8
AM_0
 10
192.29967825484701
 20
136.72950001176409
 30
0.0
 70
    32
  0
VERTEX
  5
168E4
  8
AM_0
 10
192.2999782548471
 20
136.73350001176399
 30
0.0
 70
    32
  0
VERTEX
  5
168E5
  8
AM_0
 10
192.30027825484771
 20
136.7385000117641
 30
0.0
 70
    32
  0
VERTEX
  5
168E6
  8
AM_0
 10
192.30047825484709
 20
136.74250001176401
 30
0.0
 70
    32
  0
VERTEX
  5
168E7
  8
AM_0
 10
192.3007782548469
 20
136.7465000117642
 30
0.0
 70
    32
  0
VERTEX
  5
168E8
  8
AM_0
 10
192.30107825484751
 20
136.7515000117638
 30
0.0
 70
    32
  0
VERTEX
  5
168E9
  8
AM_0
 10
192.30137825484681
 20
136.75550001176379
 30
0.0
 70
    32
  0
VERTEX
  5
168EA
  8
AM_0
 10
192.30157825484761
 20
136.75950001176409
 30
0.0
 70
    32
  0
VERTEX
  5
168EB
  8
AM_0
 10
192.30187825484731
 20
136.76450001176389
 30
0.0
 70
    32
  0
VERTEX
  5
168EC
  8
AM_0
 10
192.30207825484729
 20
136.7685000117639
 30
0.0
 70
    32
  0
VERTEX
  5
168ED
  8
AM_0
 10
192.30237825484701
 20
136.7725000117639
 30
0.0
 70
    32
  0
VERTEX
  5
168EE
  8
AM_0
 10
192.30257825484739
 20
136.77750001176389
 30
0.0
 70
    32
  0
VERTEX
  5
168EF
  8
AM_0
 10
192.30287825484751
 20
136.781500011764
 30
0.0
 70
    32
  0
VERTEX
  5
168F0
  8
AM_0
 10
192.30307825484749
 20
136.7855000117641
 30
0.0
 70
    32
  0
VERTEX
  5
168F1
  8
AM_0
 10
192.30337825484759
 20
136.79050001176381
 30
0.0
 70
    32
  0
VERTEX
  5
168F2
  8
AM_0
 10
192.30357825484711
 20
136.79450001176431
 30
0.0
 70
    32
  0
VERTEX
  5
168F3
  8
AM_0
 10
192.30377825484749
 20
136.79850001176411
 30
0.0
 70
    32
  0
VERTEX
  5
168F4
  8
AM_0
 10
192.30397825484701
 20
136.80350001176399
 30
0.0
 70
    32
  0
VERTEX
  5
168F5
  8
AM_0
 10
192.30427825484759
 20
136.8075000117642
 30
0.0
 70
    32
  0
VERTEX
  5
168F6
  8
AM_0
 10
192.30447825484711
 20
136.811500011764
 30
0.0
 70
    32
  0
VERTEX
  5
168F7
  8
AM_0
 10
192.30467825484749
 20
136.81650001176399
 30
0.0
 70
    32
  0
VERTEX
  5
168F8
  8
AM_0
 10
192.30487825484721
 20
136.82050001176381
 30
0.0
 70
    32
  0
VERTEX
  5
168F9
  8
AM_0
 10
192.30507825484699
 20
136.8245000117642
 30
0.0
 70
    32
  0
VERTEX
  5
168FA
  8
AM_0
 10
192.30527825484739
 20
136.829500011764
 30
0.0
 70
    32
  0
VERTEX
  5
168FB
  8
AM_0
 10
192.30547825484729
 20
136.83350001176399
 30
0.0
 70
    32
  0
VERTEX
  5
168FC
  8
AM_0
 10
192.30567825484769
 20
136.83750001176421
 30
0.0
 70
    32
  0
VERTEX
  5
168FD
  8
AM_0
 10
192.30587825484719
 20
136.8425000117638
 30
0.0
 70
    32
  0
VERTEX
  5
168FE
  8
AM_0
 10
192.30607825484759
 20
136.84650001176391
 30
0.0
 70
    32
  0
VERTEX
  5
168FF
  8
AM_0
 10
192.30627825484709
 20
136.8505000117639
 30
0.0
 70
    32
  0
VERTEX
  5
16900
  8
AM_0
 10
192.30647825484729
 20
136.85550001176409
 30
0.0
 70
    32
  0
VERTEX
  5
16901
  8
AM_0
 10
192.30667825484699
 20
136.8595000117642
 30
0.0
 70
    32
  0
VERTEX
  5
16902
  8
AM_0
 10
192.30677825484719
 20
136.86350001176399
 30
0.0
 70
    32
  0
VERTEX
  5
16903
  8
AM_0
 10
192.30697825484759
 20
136.86850001176381
 30
0.0
 70
    32
  0
VERTEX
  5
16904
  8
AM_0
 10
192.30717825484709
 20
136.87250001176409
 30
0.0
 70
    32
  0
VERTEX
  5
16905
  8
AM_0
 10
192.30727825484729
 20
136.87750001176411
 30
0.0
 70
    32
  0
VERTEX
  5
16906
  8
AM_0
 10
192.3074782548475
 20
136.8815000117639
 30
0.0
 70
    32
  0
VERTEX
  5
16907
  8
AM_0
 10
192.30767825484719
 20
136.88550001176401
 30
0.0
 70
    32
  0
VERTEX
  5
16908
  8
AM_0
 10
192.30777825484699
 20
136.89050001176409
 30
0.0
 70
    32
  0
VERTEX
  5
16909
  8
AM_0
 10
192.3079782548474
 20
136.89450001176419
 30
0.0
 70
    32
  0
VERTEX
  5
1690A
  8
AM_0
 10
192.30807825484709
 20
136.89850001176401
 30
0.0
 70
    32
  0
VERTEX
  5
1690B
  8
AM_0
 10
192.3082782548471
 20
136.90350001176409
 30
0.0
 70
    32
  0
VERTEX
  5
1690C
  8
AM_0
 10
192.30837825484761
 20
136.90750001176411
 30
0.0
 70
    32
  0
VERTEX
  5
1690D
  8
AM_0
 10
192.3084782548475
 20
136.91150001176419
 30
0.0
 70
    32
  0
VERTEX
  5
1690E
  8
AM_0
 10
192.30867825484719
 20
136.91650001176399
 30
0.0
 70
    32
  0
VERTEX
  5
1690F
  8
AM_0
 10
192.3087782548476
 20
136.92050001176409
 30
0.0
 70
    32
  0
VERTEX
  5
16910
  8
AM_0
 10
192.30887825484689
 20
136.92450001176411
 30
0.0
 70
    32
  0
VERTEX
  5
16911
  8
AM_0
 10
192.30897825484709
 20
136.92950001176379
 30
0.0
 70
    32
  0
VERTEX
  5
16912
  8
AM_0
 10
192.30907825484729
 20
136.93350001176401
 30
0.0
 70
    32
  0
VERTEX
  5
16913
  8
AM_0
 10
192.3091782548475
 20
136.9375000117642
 30
0.0
 70
    32
  0
VERTEX
  5
16914
  8
AM_0
 10
192.30937825484699
 20
136.94250001176411
 30
0.0
 70
    32
  0
VERTEX
  5
16915
  8
AM_0
 10
192.30947825484679
 20
136.94650001176379
 30
0.0
 70
    32
  0
VERTEX
  5
16916
  8
AM_0
 10
192.30957825484739
 20
136.95050001176409
 30
0.0
 70
    32
  0
VERTEX
  5
16917
  8
AM_0
 10
192.3096782548474
 20
136.95550001176369
 30
0.0
 70
    32
  0
VERTEX
  5
16918
  8
AM_0
 10
192.3096782548474
 20
136.95950001176391
 30
0.0
 70
    32
  0
VERTEX
  5
16919
  8
AM_0
 10
192.3097782548472
 20
136.9635000117639
 30
0.0
 70
    32
  0
VERTEX
  5
1691A
  8
AM_0
 10
192.30987825484709
 20
136.96850001176369
 30
0.0
 70
    32
  0
VERTEX
  5
1691B
  8
AM_0
 10
192.30997825484729
 20
136.972500011764
 30
0.0
 70
    32
  0
VERTEX
  5
1691C
  8
AM_0
 10
192.3100782548475
 20
136.9765000117639
 30
0.0
 70
    32
  0
VERTEX
  5
1691D
  8
AM_0
 10
192.3100782548475
 20
136.9815000117641
 30
0.0
 70
    32
  0
VERTEX
  5
1691E
  8
AM_0
 10
192.3101782548475
 20
136.98550001176369
 30
0.0
 70
    32
  0
VERTEX
  5
1691F
  8
AM_0
 10
192.3102782548473
 20
136.98950001176411
 30
0.0
 70
    32
  0
VERTEX
  5
16920
  8
AM_0
 10
192.3102782548473
 20
136.99450001176399
 30
0.0
 70
    32
  0
VERTEX
  5
16921
  8
AM_0
 10
192.310378254847
 20
136.99850001176421
 30
0.0
 70
    32
  0
VERTEX
  5
16922
  8
AM_0
 10
192.310478254847
 20
137.00350001176389
 30
0.0
 70
    32
  0
VERTEX
  5
16923
  8
AM_0
 10
192.310478254847
 20
137.00750001176399
 30
0.0
 70
    32
  0
VERTEX
  5
16924
  8
AM_0
 10
192.3105782548476
 20
137.0115000117641
 30
0.0
 70
    32
  0
VERTEX
  5
16925
  8
AM_0
 10
192.3105782548476
 20
137.01650001176409
 30
0.0
 70
    32
  0
VERTEX
  5
16926
  8
AM_0
 10
192.3106782548474
 20
137.020500011764
 30
0.0
 70
    32
  0
VERTEX
  5
16927
  8
AM_0
 10
192.3106782548474
 20
137.02450001176399
 30
0.0
 70
    32
  0
VERTEX
  5
16928
  8
AM_0
 10
192.31077825484709
 20
137.0295000117641
 30
0.0
 70
    32
  0
VERTEX
  5
16929
  8
AM_0
 10
192.31077825484709
 20
137.0335000117642
 30
0.0
 70
    32
  0
VERTEX
  5
1692A
  8
AM_0
 10
192.3108782548473
 20
137.03750001176411
 30
0.0
 70
    32
  0
VERTEX
  5
1692B
  8
AM_0
 10
192.3108782548473
 20
137.0425000117643
 30
0.0
 70
    32
  0
VERTEX
  5
1692C
  8
AM_0
 10
192.3108782548473
 20
137.0465000117641
 30
0.0
 70
    32
  0
VERTEX
  5
1692D
  8
AM_0
 10
192.3109782548475
 20
137.050500011764
 30
0.0
 70
    32
  0
VERTEX
  5
1692E
  8
AM_0
 10
192.3109782548475
 20
137.05550001176391
 30
0.0
 70
    32
  0
VERTEX
  5
1692F
  8
AM_0
 10
192.3110782548477
 20
137.05950001176399
 30
0.0
 70
    32
  0
VERTEX
  5
16930
  8
AM_0
 10
192.3110782548477
 20
137.06350001176381
 30
0.0
 70
    32
  0
VERTEX
  5
16931
  8
AM_0
 10
192.3110782548477
 20
137.0685000117642
 30
0.0
 70
    32
  0
VERTEX
  5
16932
  8
AM_0
 10
192.31117825484739
 20
137.07250001176391
 30
0.0
 70
    32
  0
SEQEND
  5
16933
  8
AM_0
  0
LINE
  5
16934
  8
AM_0
 10
202.58099305788971
 20
137.07254707683799
 30
0.0
 11
202.58099305788971
 21
146.1075470768381
 31
0.0
  0
ARC
  5
16935
  8
AM_0
 10
204.1809930578903
 20
135.07254707683811
 30
0.0
 40
0.5
 50
270.0
 51
0.0
  0
LINE
  5
16936
  8
AM_0
 10
204.1809930578903
 20
134.57254707683811
 30
0.0
 11
200.08099305788971
 21
134.57254707683811
 31
0.0
  0
ARC
  5
16937
  8
AM_0
 10
200.08099305788971
 20
137.07254707683799
 30
0.0
 40
2.4999999999999991
 50
270.0
 51
0.0
  0
ARC
  5
16938
  8
AM_0
 10
194.18099305789141
 20
167.57254707683839
 30
0.0
 40
0.9999999999998859
 50
90.0
 51
180.0
  0
LINE
  5
16939
  8
AM_0
 10
202.1810538433312
 20
168.5725470768383
 30
0.0
 11
202.1810538433312
 21
171.57254707683819
 31
0.0
  0
ARC
  5
1693A
  8
AM_0
 10
203.6809930578919
 20
167.57254707683839
 30
0.0
 40
0.9999999999999996
 50
0.0
 51
90.0
  0
LINE
  5
1693B
  8
AM_0
 10
638.14710500915646
 20
548.85720465131305
 30
0.0
 11
630.14710500915635
 21
548.85720465131305
 31
0.0
  0
LINE
  5
1693C
  8
AM_0
 10
638.14710500915646
 20
548.85221465131315
 30
0.0
 11
630.14710500915635
 21
548.85221465131315
 31
0.0
  0
LINE
  5
1693D
  8
AM_0
 10
637.45710500915675
 20
539.04219465131314
 30
0.0
 11
631.22712500915657
 21
539.04219465131314
 31
0.0
  0
LINE
  5
1693E
  8
AM_0
 10
638.14710500915646
 20
442.85720065131312
 30
0.0
 11
630.14710500915635
 21
442.85720065131312
 31
0.0
  0
LINE
  5
1693F
  8
AM_0
 10
638.14710500915646
 20
442.85221165131333
 30
0.0
 11
630.14710500915635
 21
442.85221165131333
 31
0.0
  0
LINE
  5
16940
  8
AM_0
 10
637.45710500915675
 20
452.66220065131313
 30
0.0
 11
631.22712500915657
 21
452.66220065131313
 31
0.0
  0
LINE
  5
16941
  8
ﾁｭｳｼﾝｾﾝ1
 10
573.14710500915669
 20
536.48223146600981
 30
0.0
 11
573.14710500915669
 21
455.23222846600987
 31
0.0
  0
LINE
  5
16942
  8
AM_0
 10
630.14710500915635
 20
548.85221465131315
 30
0.0
 11
630.14710500915635
 21
446.41221665131297
 31
0.0
  0
LINE
  5
16943
  8
AM_0
 10
522.1471050091568
 20
551.85720465131305
 30
0.0
 11
522.1471050091568
 21
439.85720065131312
 31
0.0
  0
LINE
  5
16944
  8
AM_0
 10
626.94709500915656
 20
439.57219765131299
 30
0.0
 11
530.0271350091565
 21
439.57219765131299
 31
0.0
  0
LINE
  5
16945
  8
AM_0
 10
604.64710500915646
 20
457.63220965131308
 30
0.0
 11
522.1471050091568
 21
457.63220965131308
 31
0.0
  0
LINE
  5
16946
  8
AM_0
 10
630.14710500915635
 20
447.76219165131317
 30
0.0
 11
628.90711500915654
 21
441.20219465131322
 31
0.0
  0
LINE
  5
16947
  8
AM_0
 10
630.14710500915635
 20
446.41220065131313
 30
0.0
 11
628.86713500915675
 21
438.41220865131311
 31
0.0
  0
LINE
  5
16948
  8
AM_0
 10
626.89710500915658
 20
436.72220665131329
 30
0.0
 11
593.14710500915635
 21
436.72220665131329
 31
0.0
  0
LINE
  5
16949
  8
AM_0
 10
626.87708500915664
 20
434.88220265131309
 30
0.0
 11
593.14710500915635
 21
434.88220265131309
 31
0.0
  0
LINE
  5
1694A
  8
AM_0
 10
626.85712500915656
 20
433.96221165131311
 30
0.0
 11
593.14710500915635
 21
433.96221165131311
 31
0.0
  0
ARC
  5
1694B
  8
AM_0
 10
626.89112500915667
 20
438.72238165131319
 30
0.0
 40
2.0001840999999998
 50
270.1714700000008
 51
351.0790000000008
  0
LINE
  5
1694C
  8
AM_0
 10
630.14704500915673
 20
445.07220465131309
 30
0.0
 11
628.85706500915671
 21
436.57221265131318
 31
0.0
  0
LINE
  5
1694D
  8
AM_0
 10
630.14710500915635
 20
445.07222765131331
 30
0.0
 11
628.83710500915663
 21
435.69222265131327
 31
0.0
  0
ARC
  5
1694E
  8
AM_0
 10
626.85498500915674
 20
435.96268465131323
 30
0.0
 40
2.0004758999999992
 50
270.06031000000399
 51
352.22953999999908
  0
ARC
  5
1694F
  8
AM_0
 10
626.88355500915668
 20
436.87953965131322
 30
0.0
 40
1.9973480999999991
 50
269.81532000000249
 51
351.14853000000028
  0
ARC
  5
16950
  8
AM_0
 10
626.94245500915656
 20
441.57120565131322
 30
0.0
 40
1.9990078999999989
 50
270.13344999999691
 51
349.36258999999939
  0
ARC
  5
16951
  8
AM_0
 10
593.15430500915659
 20
438.72938565131318
 30
0.0
 40
2.0071799999999991
 50
180.204620000001
 51
269.79538000000241
  0
LINE
  5
16952
  8
AM_0
 10
591.14710500915669
 20
435.96220465131307
 30
0.0
 11
591.14710500915669
 21
439.57219765131299
 31
0.0
  0
ARC
  5
16953
  8
AM_0
 10
593.15509500915664
 20
435.97021465131297
 30
0.0
 40
2.0080360999999991
 50
180.22878999999941
 51
269.77121000000062
  0
ARC
  5
16954
  8
AM_0
 10
593.15039500915657
 20
436.88549065131332
 30
0.0
 40
2.003279899999999
 50
180.09379000000041
 51
269.90621000000289
  0
LINE
  5
16955
  8
AM_0
 10
604.64710500915646
 20
457.63220965131308
 30
0.0
 11
624.81995500915673
 21
459.1322096513133
 31
0.0
  0
LINE
  5
16956
  8
AM_0
 10
624.81755766987294
 20
459.13726656087277
 30
0.0
 11
630.14716500915665
 21
447.76222965131302
 31
0.0
  0
LINE
  5
16957
  8
AM_0
 10
523.6471050091568
 20
457.63221765131328
 30
0.0
 11
528.09711500915648
 21
441.05221565131302
 31
0.0
  0
LINE
  5
16958
  8
AM_0
 10
522.1471050091568
 20
439.85720065131312
 30
0.0
 11
514.14713500915673
 21
439.85720065131312
 31
0.0
  0
ARC
  5
16959
  8
AM_0
 10
530.02997500915671
 20
441.57434065131332
 30
0.0
 40
2.0021281000000002
 50
195.1166999999981
 51
269.9184800000001
  0
LINE
  5
1695A
  8
AM_0
 10
527.60712500915656
 20
442.85221165131333
 30
0.0
 11
522.1471050091568
 21
442.85221165131333
 31
0.0
  0
LINE
  5
1695B
  8
AM_0
 10
522.1471050091568
 20
463.91721365131298
 30
0.0
 11
514.14713500915673
 21
463.91721365131298
 31
0.0
  0
LINE
  5
1695C
  8
AM_0
 10
522.1471050091568
 20
449.85720865131327
 30
0.0
 11
514.14713500915673
 21
449.85720865131327
 31
0.0
  0
LINE
  5
1695D
  8
AM_0
 10
626.94709500915656
 20
552.14220465131314
 30
0.0
 11
530.0271350091565
 21
552.14220465131314
 31
0.0
  0
LINE
  5
1695E
  8
AM_0
 10
604.64710500915646
 20
534.0821946513131
 30
0.0
 11
522.1471050091568
 21
534.0821946513131
 31
0.0
  0
LINE
  5
1695F
  8
AM_0
 10
624.82221779284464
 20
532.57718121364906
 30
0.0
 11
630.14710500915635
 21
543.9522046513132
 31
0.0
  0
LINE
  5
16960
  8
AM_0
 10
604.64716500915665
 20
534.0822046513133
 30
0.0
 11
624.82459500915661
 21
532.5822046513133
 31
0.0
  0
LINE
  5
16961
  8
AM_0
 10
626.89710500915658
 20
554.98220465131305
 30
0.0
 11
593.14710500915635
 21
554.98220465131305
 31
0.0
  0
LINE
  5
16962
  8
AM_0
 10
626.87708500915664
 20
556.8322046513133
 30
0.0
 11
593.14710500915635
 21
556.8322046513133
 31
0.0
  0
LINE
  5
16963
  8
AM_0
 10
626.85712500915656
 20
557.74221465131313
 30
0.0
 11
593.14710500915635
 21
557.74221465131313
 31
0.0
  0
ARC
  5
16964
  8
AM_0
 10
626.86243500915646
 20
555.74872465131307
 30
0.0
 40
1.9934921000000001
 50
7.8852600000006259
 51
90.153908999998634
  0
LINE
  5
16965
  8
AM_0
 10
630.14710500915635
 20
543.95221465131306
 30
0.0
 11
628.90711500915654
 21
550.51221465131312
 31
0.0
  0
LINE
  5
16966
  8
AM_0
 10
630.14710500915635
 20
545.29221465131332
 30
0.0
 11
628.86713500915675
 21
553.3022046513131
 31
0.0
  0
LINE
  5
16967
  8
AM_0
 10
630.14704500915673
 20
546.6422246513132
 30
0.0
 11
628.85706500915671
 21
555.13221465131312
 31
0.0
  0
LINE
  5
16968
  8
AM_0
 10
630.14710500915635
 20
546.64218465131319
 30
0.0
 11
628.83710500915663
 21
556.02219465131304
 31
0.0
  0
ARC
  5
16969
  8
AM_0
 10
626.94422500915675
 20
550.14530465131304
 30
0.0
 40
1.9969039999999989
 50
10.587439999998571
 51
89.916526000000388
  0
ARC
  5
1696A
  8
AM_0
 10
626.89869500915665
 20
552.98906465131313
 30
0.0
 40
1.9931281000000001
 50
9.0388199999997205
 51
90.046626999999489
  0
ARC
  5
1696B
  8
AM_0
 10
626.88440500915658
 20
554.83763465131312
 30
0.0
 40
1.994588
 50
8.4929100000021833
 51
90.209246999997575
  0
ARC
  5
1696C
  8
AM_0
 10
593.14838500915675
 20
555.74091465131312
 30
0.0
 40
2.001287899999999
 50
90.036874000002015
 51
179.963128001001
  0
LINE
  5
1696D
  8
AM_0
 10
591.14710500915669
 20
555.74219465131296
 30
0.0
 11
591.14710500915669
 21
552.14220465131314
 31
0.0
  0
ARC
  5
1696E
  8
AM_0
 10
593.14753500915663
 20
552.98178465131321
 30
0.0
 40
2.000407899999999
 50
90.011650000002106
 51
179.98835099999931
  0
ARC
  5
1696F
  8
AM_0
 10
593.14869500915665
 20
554.83065465131301
 30
0.0
 40
2.0015439999999991
 50
90.044216000000915
 51
179.9557860009991
  0
LINE
  5
16970
  8
AM_0
 10
523.94709500915667
 20
535.19222465131304
 30
0.0
 11
528.09708500915656
 21
550.65221465131322
 31
0.0
  0
LINE
  5
16971
  8
AM_0
 10
522.1471050091568
 20
527.7972146513132
 30
0.0
 11
514.14713500915673
 21
527.7972146513132
 31
0.0
  0
ARC
  5
16972
  8
AM_0
 10
522.49390500915661
 20
535.57997465131314
 30
0.0
 40
1.5027759999999999
 50
270.12241000000358
 51
345.24357000000072
  0
LINE
  5
16973
  8
AM_0
 10
522.1471050091568
 20
551.85720465131305
 30
0.0
 11
514.14713500915673
 21
551.85720465131305
 31
0.0
  0
LINE
  5
16974
  8
AM_0
 10
522.1471050091568
 20
541.85720465131317
 30
0.0
 11
514.14713500915673
 21
541.85720465131317
 31
0.0
  0
ARC
  5
16975
  8
AM_0
 10
530.02991500915664
 20
550.14360465131313
 30
0.0
 40
1.9986041000000001
 50
90.080483999998876
 51
165.25728400000051
  0
LINE
  5
16976
  8
AM_0
 10
527.60712500915656
 20
548.85221465131315
 30
0.0
 11
522.1471050091568
 21
548.85221465131315
 31
0.0
  0
LINE
  5
16977
  8
AM_0
 10
528.80710500915654
 20
459.85723656087299
 30
0.0
 11
627.78714500915646
 21
459.85723656087299
 31
0.0
  0
LINE
  5
16978
  8
AM_0
 10
528.80710500915654
 20
461.8572365608731
 30
0.0
 11
627.78714500915646
 21
461.8572365608731
 31
0.0
  0
LINE
  5
16979
  8
AM_0
 10
528.81430500915667
 20
471.85723656087299
 30
0.0
 11
627.78714500915646
 21
471.85723656087299
 31
0.0
  0
LINE
  5
1697A
  8
AM_0
 10
628.46714500915664
 20
459.13726656087277
 30
0.0
 11
525.32712500915682
 21
459.13726656087277
 31
0.0
  0
LINE
  5
1697B
  8
AM_0
 10
628.68711500915674
 20
472.29717656087308
 30
0.0
 11
525.11289500915655
 21
472.29717656087308
 31
0.0
  0
LINE
  5
1697C
  8
AM_0
 10
528.79996500915672
 20
469.8572365608731
 30
0.0
 11
627.78714500915646
 21
469.8572365608731
 31
0.0
  0
LINE
  5
1697D
  8
AM_0
 10
628.46714500915664
 20
462.48724656087302
 30
0.0
 11
525.32712500915682
 21
462.48724656087302
 31
0.0
  0
LINE
  5
1697E
  8
AM_0
 10
628.68711500915674
 20
469.36724656087301
 30
0.0
 11
525.10147500915673
 21
469.36724656087301
 31
0.0
  0
POLYLINE
  5
1697F
  8
AM_0
 66
     1
 10
0.0
 20
0.0
 30
0.0
  0
VERTEX
  5
16980
  8
AM_0
 10
627.74308500915663
 20
489.58685656087312
 30
0.0
 42
-0.00076691992
  0
VERTEX
  5
16981
  8
AM_0
 10
627.72828500915671
 20
488.96908656087311
 30
0.0
 42
-0.00073262792
  0
VERTEX
  5
16982
  8
AM_0
 10
627.71164500915665
 20
488.35149656087299
 30
0.0
 42
-0.00076529537
  0
VERTEX
  5
16983
  8
AM_0
 10
627.69315500915673
 20
487.73382656087318
 30
0.0
 42
-0.00075141097
  0
VERTEX
  5
16984
  8
AM_0
 10
627.67278500915666
 20
487.11622656087297
 30
0.0
 42
-0.00075841687
  0
VERTEX
  5
16985
  8
AM_0
 10
627.65055500915673
 20
486.49879656087307
 30
0.0
 42
-0.00075711788
  0
VERTEX
  5
16986
  8
AM_0
 10
627.62644500915655
 20
485.88128656087298
 30
0.0
 42
-0.00075976003
  0
VERTEX
  5
16987
  8
AM_0
 10
627.60045500915669
 20
485.26389656087321
 30
0.0
 42
-0.00075797311
  0
VERTEX
  5
16988
  8
AM_0
 10
627.57261500915661
 20
484.64661656087299
 30
0.0
 42
-0.0007482613
  0
VERTEX
  5
16989
  8
AM_0
 10
627.54288500915663
 20
484.02923656087307
 30
0.0
 42
-0.00074893561
  0
VERTEX
  5
1698A
  8
AM_0
 10
627.51132500915674
 20
483.41210656087299
 30
0.0
 42
-0.00076039839
  0
VERTEX
  5
1698B
  8
AM_0
 10
627.47790500915664
 20
482.7950765608731
 30
0.0
 42
-0.00075618786
  0
VERTEX
  5
1698C
  8
AM_0
 10
627.44260500915675
 20
482.17803656087301
 30
0.0
  0
SEQEND
  5
1698D
  8
AM_0
  0
LINE
  5
1698E
  8
AM_0
 10
528.80376871574526
 20
489.8572365608731
 30
0.0
 11
627.78714500915646
 21
489.8572365608731
 31
0.0
  0
LINE
  5
1698F
  8
AM_0
 10
528.80376871574526
 20
491.8572365608731
 30
0.0
 11
627.78714500915646
 21
491.8572365608731
 31
0.0
  0
LINE
  5
16990
  8
AM_0
 10
628.87711500915668
 20
489.587216560873
 30
0.0
 11
524.76101575564985
 21
489.587216560873
 31
0.0
  0
LINE
  5
16991
  8
AM_0
 10
628.87711500915668
 20
492.11724656087301
 30
0.0
 11
524.92430303314723
 21
492.11724656087301
 31
0.0
  0
POLYLINE
  5
16992
  8
AM_0
 66
     1
 10
0.0
 20
0.0
 30
0.0
  0
VERTEX
  5
16993
  8
AM_0
 10
627.78714500915646
 20
495.8572365608731
 30
0.0
 42
-0.00039106649
  0
VERTEX
  5
16994
  8
AM_0
 10
627.78950500915676
 20
495.546106560873
 30
0.0
 42
-0.00035488198
  0
VERTEX
  5
16995
  8
AM_0
 10
627.79139500915664
 20
495.23499656087313
 30
0.0
 42
-0.00039706113
  0
VERTEX
  5
16996
  8
AM_0
 10
627.79282500915667
 20
494.92388656087297
 30
0.0
 42
-0.00038765718
  0
VERTEX
  5
16997
  8
AM_0
 10
627.79375500915671
 20
494.61274656087289
 30
0.0
 42
-0.00040613432
  0
VERTEX
  5
16998
  8
AM_0
 10
627.79420500915671
 20
494.30164656087322
 30
0.0
 42
-0.00035573434
  0
VERTEX
  5
16999
  8
AM_0
 10
627.79416500915636
 20
493.99053656087301
 30
0.0
 42
-0.00038545884
  0
VERTEX
  5
1699A
  8
AM_0
 10
627.79367500915669
 20
493.67940656087308
 30
0.0
 42
-0.00035501205
  0
VERTEX
  5
1699B
  8
AM_0
 10
627.79271500915638
 20
493.36829656087298
 30
0.0
 42
-0.00040120779
  0
VERTEX
  5
1699C
  8
AM_0
 10
627.79129500915656
 20
493.05706656087312
 30
0.0
 42
-0.00038317817
  0
VERTEX
  5
1699D
  8
AM_0
 10
627.78938500915638
 20
492.74593656087302
 30
0.0
 42
-0.00035656084
  0
VERTEX
  5
1699E
  8
AM_0
 10
627.7870050091567
 20
492.43469656087302
 30
0.0
 42
-0.00040143615
  0
VERTEX
  5
1699F
  8
AM_0
 10
627.78415500915662
 20
492.12359656087312
 30
0.0
  0
SEQEND
  5
169A0
  8
AM_0
  0
ARC
  5
169A1
  8
AM_0
 10
628.88297500915655
 20
490.85223656087311
 30
0.0
 40
1.2650129999999991
 50
269.73557900000168
 51
90.264410000002485
  0
ARC
  5
169A2
  8
AM_0
 10
627.6025150091566
 20
490.8572365608731
 30
0.0
 40
1.0000138999999999
 50
269.69165999999939
 51
90.308340000000754
  0
ARC
  5
169A3
  8
AM_0
 10
528.80714510915664
 20
490.8572365608731
 30
0.0
 40
1.000005699999998
 50
89.999989999998988
 51
270.00000299999761
  0
ARC
  5
169A4
  8
AM_0
 10
524.9202086091567
 20
490.84722656087308
 30
0.0
 40
1.2700266
 50
89.629319999999964
 51
270.37066999999809
  0
LINE
  5
169A5
  8
AM_0
 10
528.80376871572412
 20
479.85723656087299
 30
0.0
 11
627.78714500915646
 21
479.85723656087299
 31
0.0
  0
LINE
  5
169A6
  8
AM_0
 10
528.8037687157489
 20
481.8572365608731
 30
0.0
 11
627.78714500915646
 21
481.8572365608731
 31
0.0
  0
LINE
  5
169A7
  8
AM_0
 10
628.81711500915662
 20
479.51727656087309
 30
0.0
 11
524.81853705275614
 21
479.51727656087309
 31
0.0
  0
LINE
  5
169A8
  8
AM_0
 10
628.81711500915662
 20
482.17718656087311
 30
0.0
 11
524.97006255116321
 21
482.17718656087311
 31
0.0
  0
ARC
  5
169A9
  8
AM_0
 10
627.6025150091566
 20
470.8572365608731
 30
0.0
 40
1.0000138999999999
 50
269.69165999999939
 51
90.308340000000754
  0
ARC
  5
169AA
  8
AM_0
 10
628.68711500915674
 20
470.83221656087312
 30
0.0
 40
1.465004
 50
270.00000299999761
 51
90.0
  0
POLYLINE
  5
169AB
  8
AM_0
 66
     1
 10
0.0
 20
0.0
 30
0.0
  0
VERTEX
  5
169AC
  8
AM_0
 10
627.26889500915672
 20
479.51666656087298
 30
0.0
 42
-0.0007337051
  0
VERTEX
  5
169AD
  8
AM_0
 10
627.22475500915675
 20
478.9142465608731
 30
0.0
 42
-0.00075211323
  0
VERTEX
  5
169AE
  8
AM_0
 10
627.17881500915666
 20
478.31185656087303
 30
0.0
 42
-0.0007297491
  0
VERTEX
  5
169AF
  8
AM_0
 10
627.13108500915666
 20
477.70965656087299
 30
0.0
 42
-0.00073593041
  0
VERTEX
  5
169B0
  8
AM_0
 10
627.08160500915665
 20
477.10766656087299
 30
0.0
 42
-0.00074742739
  0
VERTEX
  5
169B1
  8
AM_0
 10
627.03033500915672
 20
476.50579656087319
 30
0.0
 42
-0.00073217363
  0
VERTEX
  5
169B2
  8
AM_0
 10
626.97727500915676
 20
475.90399656087322
 30
0.0
 42
-0.00073754168
  0
VERTEX
  5
169B3
  8
AM_0
 10
626.92245500915669
 20
475.30245656087322
 30
0.0
 42
-0.00073075073
  0
VERTEX
  5
169B4
  8
AM_0
 10
626.86587500915675
 20
474.70109656087322
 30
0.0
 42
-0.00074550816
  0
VERTEX
  5
169B5
  8
AM_0
 10
626.8075350091566
 20
474.10003656087309
 30
0.0
 42
-0.00074288416
  0
VERTEX
  5
169B6
  8
AM_0
 10
626.74738500915657
 20
473.49901656087297
 30
0.0
 42
-0.00072504001
  0
VERTEX
  5
169B7
  8
AM_0
 10
626.68547500915668
 20
472.89826656087308
 30
0.0
 42
-0.00074640667
  0
VERTEX
  5
169B8
  8
AM_0
 10
626.62180500915656
 20
472.29766656087321
 30
0.0
  0
SEQEND
  5
169B9
  8
AM_0
  0
ARC
  5
169BA
  8
AM_0
 10
628.81711500915662
 20
480.84722656087303
 30
0.0
 40
1.3300049999999981
 50
270.00000299999761
 51
90.0
  0
ARC
  5
169BB
  8
AM_0
 10
627.6025150091566
 20
480.8572365608731
 30
0.0
 40
1.0000138999999999
 50
269.69165999999939
 51
90.308340000000754
  0
POLYLINE
  5
169BC
  8
AM_0
 66
     1
 10
0.0
 20
0.0
 30
0.0
  0
VERTEX
  5
169BD
  8
AM_0
 10
626.2862350091566
 20
469.37420656087318
 30
0.0
 42
-0.00068898288
  0
VERTEX
  5
169BE
  8
AM_0
 10
626.21535500915672
 20
468.79945656087318
 30
0.0
 42
-0.00070644354
  0
VERTEX
  5
169BF
  8
AM_0
 10
626.14285500915662
 20
468.22476656087309
 30
0.0
 42
-0.00069248071
  0
VERTEX
  5
169C0
  8
AM_0
 10
626.06876500915678
 20
467.65045656087301
 30
0.0
 42
-0.00069585665
  0
VERTEX
  5
169C1
  8
AM_0
 10
625.99308500915663
 20
467.07631656087318
 30
0.0
 42
-0.00068980191
  0
VERTEX
  5
169C2
  8
AM_0
 10
625.91578500915659
 20
466.502316560873
 30
0.0
 42
-0.00072080104
  0
VERTEX
  5
169C3
  8
AM_0
 10
625.83689500915671
 20
465.92852656087319
 30
0.0
 42
-0.00071002307
  0
VERTEX
  5
169C4
  8
AM_0
 10
625.75635500915678
 20
465.35505656087309
 30
0.0
 42
-0.00072659056
  0
VERTEX
  5
169C5
  8
AM_0
 10
625.67419500915662
 20
464.78195656087303
 30
0.0
 42
-0.00069570481
  0
VERTEX
  5
169C6
  8
AM_0
 10
625.59037500915656
 20
464.20892656087301
 30
0.0
 42
-0.00071266935
  0
VERTEX
  5
169C7
  8
AM_0
 10
625.5049450091567
 20
463.63615656087302
 30
0.0
 42
-0.00071614426
  0
VERTEX
  5
169C8
  8
AM_0
 10
625.41791500915656
 20
463.06381656087308
 30
0.0
 42
-0.00072288975
  0
VERTEX
  5
169C9
  8
AM_0
 10
625.32920500915657
 20
462.49151656087298
 30
0.0
  0
SEQEND
  5
169CA
  8
AM_0
  0
ARC
  5
169CB
  8
AM_0
 10
628.47452500915665
 20
460.81219656087308
 30
0.0
 40
1.6750160000000001
 50
269.7461450000045
 51
90.253870000000916
  0
ARC
  5
169CC
  8
AM_0
 10
627.6025150091566
 20
460.8572365608731
 30
0.0
 40
1.0000138999999999
 50
269.69165999999939
 51
90.308340000000754
  0
ARC
  5
169CD
  8
AM_0
 10
528.80714510915664
 20
480.8572365608731
 30
0.0
 40
1.000005699999998
 50
89.999989999998988
 51
270.00000299999761
  0
ARC
  5
169CE
  8
AM_0
 10
524.98215860915661
 20
480.8422265608732
 30
0.0
 40
1.3350147999999999
 50
89.730429999999885
 51
270.26955600000139
  0
ARC
  5
169CF
  8
AM_0
 10
528.80716500915673
 20
470.8572365608731
 30
0.0
 40
1.0000255999999981
 50
89.589470000003189
 51
270.41053099999777
  0
ARC
  5
169D0
  8
AM_0
 10
525.10715500915671
 20
470.82720656087298
 30
0.0
 40
1.460011199999999
 50
89.775249999996646
 51
270.22475000000333
  0
ARC
  5
169D1
  8
AM_0
 10
528.80710500915654
 20
460.8572365608731
 30
0.0
 40
1.0
 50
89.999989999998988
 51
270.00000299999761
  0
ARC
  5
169D2
  8
AM_0
 10
525.32714517692216
 20
460.81222056087358
 30
0.0
 40
1.675026000120903
 50
90.000689856668657
 51
269.99931314329001
  0
LINE
  5
169D3
  8
AM_0
 10
528.80377266561698
 20
511.85723491756062
 30
0.0
 11
627.78714895904625
 21
511.85721048170109
 31
0.0
  0
LINE
  5
169D4
  8
AM_0
 10
528.80377217190505
 20
509.85723491756062
 30
0.0
 11
627.78714846530988
 21
509.85721048170097
 31
0.0
  0
LINE
  5
169D5
  8
AM_0
 10
528.80377019695516
 20
501.85723491756102
 30
0.0
 11
627.78714649036328
 21
501.85721048170132
 31
0.0
  0
LINE
  5
169D6
  8
AM_0
 10
528.80376970321834
 20
499.85723491756102
 30
0.0
 11
627.78714599662658
 21
499.85721048170132
 31
0.0
  0
LINE
  5
169D7
  8
AM_0
 10
628.87711593243853
 20
499.59720021262228
 30
0.0
 11
524.92430395643214
 21
499.59722587527813
 31
0.0
  0
LINE
  5
169D8
  8
AM_0
 10
628.87711655702265
 20
502.12723021262229
 30
0.0
 11
524.76101730351877
 21
502.12725591558848
 31
0.0
  0
LINE
  5
169D9
  8
AM_0
 10
628.81711838632418
 20
509.5372602274341
 30
0.0
 11
524.97006592833395
 21
509.53728586398108
 31
0.0
  0
LINE
  5
169DA
  8
AM_0
 10
628.81711904297174
 20
512.19717022743419
 30
0.0
 11
524.81854108657467
 21
512.19719590138811
 31
0.0
  0
LINE
  5
169DB
  8
AM_0
 10
628.46715324714671
 20
529.22720031382994
 30
0.0
 11
525.32713324714985
 21
529.22722577583306
 31
0.0
  0
LINE
  5
169DC
  8
AM_0
 10
528.79997142773277
 20
521.85723491849933
 30
0.0
 11
627.78715142772955
 21
521.8572104817008
 31
0.0
  0
LINE
  5
169DD
  8
AM_0
 10
628.68712154869263
 20
522.34720025952663
 30
0.0
 11
525.1014815486958
 21
522.34722583153939
 31
0.0
  0
LINE
  5
169DE
  8
AM_0
 10
628.6871208253857
 20
519.41727025952662
 30
0.0
 11
525.11290082538869
 21
519.41729582871994
 31
0.0
  0
LINE
  5
169DF
  8
AM_0
 10
628.46715407415059
 20
532.57718031383001
 30
0.0
 11
525.32713407415395
 21
532.57720577583325
 31
0.0
  0
LINE
  5
169E0
  8
AM_0
 10
528.81431093399601
 20
519.85723491495924
 30
0.0
 11
627.78715093399285
 21
519.85721048170069
 31
0.0
  0
LINE
  5
169E1
  8
AM_0
 10
528.80711340267908
 20
529.85723491673662
 30
0.0
 11
627.78715340267615
 21
529.85721048170035
 31
0.0
  0
LINE
  5
169E2
  8
AM_0
 10
528.80711389641601
 20
531.85723491673627
 30
0.0
 11
627.78715389641275
 21
531.85721048170024
 31
0.0
  0
ARC
  5
169E3
  8
AM_0
 10
528.80714634349795
 20
500.85723491672729
 30
0.0
 40
1.000005699999998
 50
89.999982855487545
 51
269.9999958554863
  0
ARC
  5
169E4
  8
AM_0
 10
528.80714881218114
 20
510.85723491672718
 30
0.0
 40
1.000005699999998
 50
89.999982855487545
 51
269.9999958554863
  0
ARC
  5
169E5
  8
AM_0
 10
524.92020984596934
 20
500.86724587628879
 30
0.0
 40
1.2700266
 50
89.629315855484165
 51
270.37066585548888
  0
ARC
  5
169E6
  8
AM_0
 10
524.98216231588685
 20
510.87224586099512
 30
0.0
 40
1.3350147999999999
 50
89.730429855483649
 51
270.26955585548518
  0
ARC
  5
169E7
  8
AM_0
 10
528.80711364954755
 20
530.85723491673639
 30
0.0
 40
1.0
 50
89.999982855487545
 51
269.9999958554863
  0
ARC
  5
169E8
  8
AM_0
 10
528.80717118086432
 20
520.85723491672184
 30
0.0
 40
1.0000255999999981
 50
89.589454855482614
 51
270.41051585548382
  0
ARC
  5
169E9
  8
AM_0
 10
525.10716118827793
 20
520.88726583013704
 30
0.0
 40
1.460011199999999
 50
89.775235855483814
 51
270.22473585548403
  0
ARC
  5
169EA
  8
AM_0
 10
525.32715382842639
 20
530.90225177582749
 30
0.0
 40
1.675026000120903
 50
90.000672712195325
 51
269.99929599882307
  0
POLYLINE
  5
169EB
  8
AM_0
 66
     1
 10
0.0
 20
0.0
 30
0.0
  0
VERTEX
  5
169EC
  8
AM_0
 10
627.26889904312225
 20
512.19778060964063
 30
0.0
 42
0.0007337051
  0
VERTEX
  5
169ED
  8
AM_0
 10
627.22475919184058
 20
512.80020062053734
 30
0.0
 42
0.00075211323
  0
VERTEX
  5
169EE
  8
AM_0
 10
627.17881934055185
 20
513.40259063187818
 30
0.0
 42
0.0007297491
  0
VERTEX
  5
169EF
  8
AM_0
 10
627.13108948921604
 20
514.00479064366118
 30
0.0
 42
0.00073593041
  0
VERTEX
  5
169F0
  8
AM_0
 10
627.08160963782825
 20
514.60678065587649
 30
0.0
 42
0.00074742739
  0
VERTEX
  5
169F1
  8
AM_0
 10
627.03033978641076
 20
515.20865066853321
 30
0.0
 42
0.00073217363
  0
VERTEX
  5
169F2
  8
AM_0
 10
626.9772799349762
 20
515.81045068163212
 30
0.0
 42
0.00073754168
  0
VERTEX
  5
169F3
  8
AM_0
 10
626.92246008347752
 20
516.41199069516551
 30
0.0
 42
0.00073075073
  0
VERTEX
  5
169F4
  8
AM_0
 10
626.86588023193406
 20
517.01335070913319
 30
0.0
 42
0.00074550816
  0
VERTEX
  5
169F5
  8
AM_0
 10
626.80754038031682
 20
517.61441072353568
 30
0.0
 42
0.00074288416
  0
VERTEX
  5
169F6
  8
AM_0
 10
626.74739052868972
 20
518.21543073838461
 30
0.0
 42
0.00072504001
  0
VERTEX
  5
169F7
  8
AM_0
 10
626.68548067699567
 20
518.81618075366805
 30
0.0
 42
0.00074640667
  0
VERTEX
  5
169F8
  8
AM_0
 10
626.62181082526479
 20
519.41678076938626
 30
0.0
  0
SEQEND
  5
169F9
  8
AM_0
  0
POLYLINE
  5
169FA
  8
AM_0
 66
     1
 10
0.0
 20
0.0
 30
0.0
  0
VERTEX
  5
169FB
  8
AM_0
 10
627.7430865571115
 20
502.12759049257852
 30
0.0
 42
0.00076691992
  0
VERTEX
  5
169FC
  8
AM_0
 10
627.72828670961962
 20
502.7453604962318
 30
0.0
 42
0.00073262792
  0
VERTEX
  5
169FD
  8
AM_0
 10
627.71164686208294
 20
503.36295050033999
 30
0.0
 42
0.00076529537
  0
VERTEX
  5
169FE
  8
AM_0
 10
627.69315701456605
 20
503.98062050490432
 30
0.0
 42
0.00075141097
  0
VERTEX
  5
169FF
  8
AM_0
 10
627.67278716703174
 20
504.59822050993301
 30
0.0
 42
0.00075841687
  0
VERTEX
  5
16A00
  8
AM_0
 10
627.65055731945574
 20
505.21565051542098
 30
0.0
 42
0.00075711788
  0
VERTEX
  5
16A01
  8
AM_0
 10
627.62644747189938
 20
505.83316052137292
 30
0.0
 42
0.00075976003
  0
VERTEX
  5
16A02
  8
AM_0
 10
627.60045762431355
 20
506.45055052778918
 30
0.0
 42
0.00075797311
  0
VERTEX
  5
16A03
  8
AM_0
 10
627.57261777670033
 20
507.06783053466188
 30
0.0
 42
0.0007482613
  0
VERTEX
  5
16A04
  8
AM_0
 10
627.54288792911166
 20
507.68521054200107
 30
0.0
 42
0.00074893561
  0
VERTEX
  5
16A05
  8
AM_0
 10
627.51132808146167
 20
508.30234054979229
 30
0.0
 42
0.00076039839
  0
VERTEX
  5
16A06
  8
AM_0
 10
627.47790823378682
 20
508.91937055804249
 30
0.0
 42
0.00075618786
  0
VERTEX
  5
16A07
  8
AM_0
 10
627.44260838611433
 20
509.5364105667573
 30
0.0
  0
SEQEND
  5
16A08
  8
AM_0
  0
POLYLINE
  5
16A09
  8
AM_0
 66
     1
 10
0.0
 20
0.0
 30
0.0
  0
VERTEX
  5
16A0A
  8
AM_0
 10
627.78714500915339
 20
495.8572104817016
 30
0.0
 42
0.00039106649
  0
VERTEX
  5
16A0B
  8
AM_0
 10
627.78950508596154
 20
496.16834048111878
 30
0.0
 42
0.00035488198
  0
VERTEX
  5
16A0C
  8
AM_0
 10
627.79139516276473
 20
496.47945048065208
 30
0.0
 42
0.00039706113
  0
VERTEX
  5
16A0D
  8
AM_0
 10
627.79282523956783
 20
496.79056048029918
 30
0.0
 42
0.00038765718
  0
VERTEX
  5
16A0E
  8
AM_0
 10
627.79375531637845
 20
497.10170048006978
 30
0.0
 42
0.00040613432
  0
VERTEX
  5
16A0F
  8
AM_0
 10
627.79420539317948
 20
497.41280047995849
 30
0.0
 42
0.00035573434
  0
VERTEX
  5
16A10
  8
AM_0
 10
627.79416546998254
 20
497.72391047996831
 30
0.0
 42
0.00038545884
  0
VERTEX
  5
16A11
  8
AM_0
 10
627.79367554679061
 20
498.03504048008932
 30
0.0
 42
0.00035501205
  0
VERTEX
  5
16A12
  8
AM_0
 10
627.79271562359395
 20
498.34615048032651
 30
0.0
 42
0.00040120779
  0
VERTEX
  5
16A13
  8
AM_0
 10
627.79129570042664
 20
498.65738048067669
 30
0.0
 42
0.00038317817
  0
VERTEX
  5
16A14
  8
AM_0
 10
627.78938577723466
 20
498.96851048114831
 30
0.0
 42
0.00035656084
  0
VERTEX
  5
16A15
  8
AM_0
 10
627.78700585407023
 20
499.27975048173579
 30
0.0
 42
0.00040143615
  0
VERTEX
  5
16A16
  8
AM_0
 10
627.78415593087072
 20
499.59085048243929
 30
0.0
  0
SEQEND
  5
16A17
  8
AM_0
  0
ARC
  5
16A18
  8
AM_0
 10
627.60251624349496
 20
500.85721052728059
 30
0.0
 40
1.0000138999999999
 50
269.6916458554881
 51
90.308325855489613
  0
ARC
  5
16A19
  8
AM_0
 10
628.88297624472943
 20
500.86221021117569
 30
0.0
 40
1.2650129999999991
 50
269.73557585548838
 51
90.264406855489256
  0
ARC
  5
16A1A
  8
AM_0
 10
627.60251871217815
 20
510.8572105272803
 30
0.0
 40
1.0000138999999999
 50
269.6916458554881
 51
90.308325855489613
  0
ARC
  5
16A1B
  8
AM_0
 10
628.81711871464927
 20
510.86722022743402
 30
0.0
 40
1.3300049999999981
 50
269.99998585548531
 51
89.999982855487545
  0
POLYLINE
  5
16A1C
  8
AM_0
 66
     1
 10
0.0
 20
0.0
 30
0.0
  0
VERTEX
  5
16A1D
  8
AM_0
 10
626.28624154697445
 20
522.34024085222791
 30
0.0
 42
0.00068898288
  0
VERTEX
  5
16A1E
  8
AM_0
 10
626.21536168886223
 20
522.9149908697259
 30
0.0
 42
0.00070644354
  0
VERTEX
  5
16A1F
  8
AM_0
 10
626.14286183073466
 20
523.48968088762365
 30
0.0
 42
0.00069248071
  0
VERTEX
  5
16A20
  8
AM_0
 10
626.06877197251379
 20
524.06399090591435
 30
0.0
 42
0.00069585665
  0
VERTEX
  5
16A21
  8
AM_0
 10
625.99309211425066
 20
524.63813092459736
 30
0.0
 42
0.00068980191
  0
VERTEX
  5
16A22
  8
AM_0
 10
625.91579225595308
 20
525.21213094368022
 30
0.0
 42
0.00072080104
  0
VERTEX
  5
16A23
  8
AM_0
 10
625.83690239760381
 20
525.7859209631556
 30
0.0
 42
0.00071002307
  0
VERTEX
  5
16A24
  8
AM_0
 10
625.75636253917526
 20
526.35939098303834
 30
0.0
 42
0.00072659056
  0
VERTEX
  5
16A25
  8
AM_0
 10
625.67420268065553
 20
526.93249100332105
 30
0.0
 42
0.00069570481
  0
VERTEX
  5
16A26
  8
AM_0
 10
625.59038282211839
 20
527.50552102401355
 30
0.0
 42
0.00071266935
  0
VERTEX
  5
16A27
  8
AM_0
 10
625.50495296351721
 20
528.07829104510336
 30
0.0
 42
0.00071614426
  0
VERTEX
  5
16A28
  8
AM_0
 10
625.41792310480992
 20
528.6506310665884
 30
0.0
 42
0.00072288975
  0
VERTEX
  5
16A29
  8
AM_0
 10
625.32921324609265
 20
529.22293108848817
 30
0.0
  0
SEQEND
  5
16A2A
  8
AM_0
  0
ARC
  5
16A2B
  8
AM_0
 10
628.68712118703775
 20
520.88223025952664
 30
0.0
 40
1.465004
 50
269.99998585548531
 51
89.999982855487545
  0
ARC
  5
16A2C
  8
AM_0
 10
627.60252118086134
 20
520.85721052728013
 30
0.0
 40
1.0000138999999999
 50
269.6916458554881
 51
90.308325855489613
  0
ARC
  5
16A2D
  8
AM_0
 10
627.60252364954454
 20
530.85721052727956
 30
0.0
 40
1.0000138999999999
 50
269.6916458554881
 51
90.308325855489613
  0
ARC
  5
16A2E
  8
AM_0
 10
628.4745336606635
 20
530.90225031200816
 30
0.0
 40
1.6750160000000001
 50
269.74611585548217
 51
90.253840855485208
  0
LINE
  5
16A2F
  8
ｶｸﾚｾﾝ2
 10
620.64710500915658
 20
459.85725388015629
 30
0.0
 11
537.14710500915669
 21
459.85725388015629
 31
0.0
  0
LINE
  5
16A30
  8
ｶｸﾚｾﾝ2
 10
537.14710500915669
 20
531.85725388015612
 30
0.0
 11
620.64710500915658
 21
531.85725388015612
 31
0.0
  0
LINE
  5
16A31
  8
ｶｸﾚｾﾝ2
 10
624.14710500915669
 20
528.35725388015612
 30
0.0
 11
624.14710500915669
 21
463.35725388015589
 31
0.0
  0
ARC
  5
16A32
  8
ｶｸﾚｾﾝ2
 10
620.64710500915658
 20
528.35725388015612
 30
0.0
 40
3.5
 50
0.0
 51
90.0
  0
ARC
  5
16A33
  8
ｶｸﾚｾﾝ2
 10
620.64710500915658
 20
463.35725388015589
 30
0.0
 40
3.5
 50
270.0
 51
0.0
  0
LINE
  5
16A34
  8
ｶｸﾚｾﾝ2
 10
535.1471050091568
 20
529.85725388015612
 30
0.0
 11
535.1471050091568
 21
522.35725388015635
 31
0.0
  0
ARC
  5
16A35
  8
ｶｸﾚｾﾝ2
 10
537.14710500915669
 20
529.85725388015612
 30
0.0
 40
2.0
 50
90.0
 51
180.0
  0
LINE
  5
16A36
  8
ｶｸﾚｾﾝ2
 10
537.14710500915669
 20
520.35725388015635
 30
0.0
 11
537.64710500915658
 21
520.35725388015635
 31
0.0
  0
ARC
  5
16A37
  8
ｶｸﾚｾﾝ2
 10
537.64710500915658
 20
518.35725388015612
 30
0.0
 40
2.0
 50
0.0
 51
90.0
  0
ARC
  5
16A38
  8
ｶｸﾚｾﾝ2
 10
537.14710500915669
 20
522.35725388015612
 30
0.0
 40
2.0
 50
180.0
 51
270.0
  0
ARC
  5
16A39
  8
ｶｸﾚｾﾝ2
 10
537.64710500915658
 20
473.35725388015601
 30
0.0
 40
2.0
 50
270.0
 51
0.0
  0
LINE
  5
16A3A
  8
ｶｸﾚｾﾝ2
 10
539.6471050091568
 20
473.35725388015601
 30
0.0
 11
539.6471050091568
 21
518.35725388015635
 31
0.0
  0
ARC
  5
16A3B
  8
ｶｸﾚｾﾝ2
 10
537.14710500915669
 20
461.85725388015612
 30
0.0
 40
2.0
 50
180.0
 51
270.0
  0
LINE
  5
16A3C
  8
ｶｸﾚｾﾝ2
 10
537.64710500915658
 20
471.35725388015589
 30
0.0
 11
537.14710500915669
 21
471.35725388015589
 31
0.0
  0
ARC
  5
16A3D
  8
ｶｸﾚｾﾝ2
 10
537.14710500915669
 20
469.35725388015601
 30
0.0
 40
2.0
 50
90.0
 51
180.0
  0
LINE
  5
16A3E
  8
ｶｸﾚｾﾝ2
 10
535.1471050091568
 20
469.35725388015601
 30
0.0
 11
535.1471050091568
 21
461.85725388015612
 31
0.0
  0
LINE
  5
16A3F
  8
ｶｸﾚｾﾝ2
 10
535.1471050091568
 20
469.35725388015601
 30
0.0
 11
535.1471050091568
 21
461.85725388015612
 31
0.0
  0
LINE
  5
16A40
  8
AM_0
 10
628.46714500915721
 20
271.44253707683788
 30
0.0
 11
561.12711500915714
 21
271.44253707683788
 31
0.0
  0
LINE
  5
16A41
  8
AM_0
 10
628.68711500915697
 20
264.562537076838
 30
0.0
 11
561.14713500915695
 21
264.562537076838
 31
0.0
  0
LINE
  5
16A42
  8
AM_0
 10
626.93711500915731
 20
294.35257707683792
 30
0.0
 11
530.01712500915721
 21
294.35257707683792
 31
0.0
  0
LINE
  5
16A43
  8
AM_0
 10
626.8971350091573
 20
297.20254707683779
 30
0.0
 11
530.01712500915721
 21
297.20254707683779
 31
0.0
  0
LINE
  5
16A44
  8
AM_0
 10
626.87711500915725
 20
299.05252707683798
 30
0.0
 11
530.01712500915721
 21
299.05252707683798
 31
0.0
  0
LINE
  5
16A45
  8
AM_0
 10
626.85715500915717
 20
299.96255707683781
 30
0.0
 11
530.01706500915714
 21
299.96255707683781
 31
0.0
  0
LINE
  5
16A46
  8
AM_0
 10
528.80710500915734
 20
274.07254707683802
 30
0.0
 11
627.78714500915726
 21
274.07254707683802
 31
0.0
  0
LINE
  5
16A47
  8
AM_0
 10
528.80710500915734
 20
272.07254707683802
 30
0.0
 11
627.78714500915726
 21
272.07254707683802
 31
0.0
  0
LINE
  5
16A48
  8
AM_0
 10
628.81711500915731
 20
221.73257707683791
 30
0.0
 11
592.47586500915736
 21
221.73257707683791
 31
0.0
  0
LINE
  5
16A49
  8
AM_0
 10
628.87711500915725
 20
234.3425670768379
 30
0.0
 11
592.42844500915726
 21
234.3425670768379
 31
0.0
  0
LINE
  5
16A4A
  8
AM_0
 10
593.70841500915731
 20
234.07254707683799
 30
0.0
 11
627.78714500915726
 21
234.07254707683799
 31
0.0
  0
LINE
  5
16A4B
  8
AM_0
 10
593.70841500915731
 20
232.07254707683799
 30
0.0
 11
627.78714500915726
 21
232.07254707683799
 31
0.0
  0
LINE
  5
16A4C
  8
AM_0
 10
628.87711500915725
 20
231.802527076838
 30
0.0
 11
592.42844500915726
 21
231.802527076838
 31
0.0
  0
LINE
  5
16A4D
  8
AM_0
 10
628.81711500915731
 20
224.39248707683811
 30
0.0
 11
592.4884450091572
 21
224.39248707683811
 31
0.0
  0
LINE
  5
16A4E
  8
AM_0
 10
593.70841500915731
 20
224.07254707683799
 30
0.0
 11
627.78714500915726
 21
224.07254707683799
 31
0.0
  0
LINE
  5
16A4F
  8
AM_0
 10
593.70841500915731
 20
222.07254707683799
 30
0.0
 11
627.78714500915726
 21
222.07254707683799
 31
0.0
  0
LINE
  5
16A50
  8
AM_0
 10
593.70841500915731
 20
244.07254707683799
 30
0.0
 11
627.78714500915726
 21
244.07254707683799
 31
0.0
  0
LINE
  5
16A51
  8
AM_0
 10
593.70841500915731
 20
242.07254707683799
 30
0.0
 11
627.78714500915726
 21
242.07254707683799
 31
0.0
  0
LINE
  5
16A52
  8
AM_0
 10
628.87711500915725
 20
244.3425670768379
 30
0.0
 11
592.42844500915726
 21
244.3425670768379
 31
0.0
  0
LINE
  5
16A53
  8
AM_0
 10
628.87711500915725
 20
241.812537076838
 30
0.0
 11
592.42844500915726
 21
241.812537076838
 31
0.0
  0
LINE
  5
16A54
  8
AM_0
 10
593.70841500915731
 20
254.07254707683791
 30
0.0
 11
627.78714500915726
 21
254.07254707683791
 31
0.0
  0
LINE
  5
16A55
  8
AM_0
 10
628.81711500915731
 20
254.41250707683801
 30
0.0
 11
592.4884450091572
 21
254.41250707683801
 31
0.0
  0
LINE
  5
16A56
  8
AM_0
 10
593.70841500915731
 20
252.07254707683791
 30
0.0
 11
627.78714500915726
 21
252.07254707683791
 31
0.0
  0
LINE
  5
16A57
  8
AM_0
 10
628.81711500915731
 20
251.7525970768379
 30
0.0
 11
592.4884450091572
 21
251.7525970768379
 31
0.0
  0
LINE
  5
16A58
  8
AM_0
 10
627.24088500915695
 20
178.94253707683791
 30
0.0
 11
604.81448481049051
 21
178.94253707683791
 31
0.0
  0
LINE
  5
16A59
  8
AM_0
 10
626.93711500915731
 20
181.79251707683781
 30
0.0
 11
530.01712500915721
 21
181.79251707683781
 31
0.0
  0
LINE
  5
16A5A
  8
AM_0
 10
561.14713500915695
 20
212.07254707683799
 30
0.0
 11
627.78714500915726
 21
212.07254707683799
 31
0.0
  0
LINE
  5
16A5B
  8
AM_0
 10
628.68711500915697
 20
211.5825570768379
 30
0.0
 11
561.14713500915695
 21
211.5825570768379
 31
0.0
  0
LINE
  5
16A5C
  8
AM_0
 10
628.46714500915721
 20
201.3525770768378
 30
0.0
 11
573.14713500915695
 21
201.3525770768378
 31
0.0
  0
LINE
  5
16A5D
  8
AM_0
 10
628.46714500915721
 20
204.7025470768379
 30
0.0
 11
561.12711500915714
 21
204.7025470768379
 31
0.0
  0
LINE
  5
16A5E
  8
AM_0
 10
573.14713500915695
 20
204.07254707683791
 30
0.0
 11
627.78714500915726
 21
204.07254707683791
 31
0.0
  0
LINE
  5
16A5F
  8
AM_0
 10
573.14713500915695
 20
202.07254707683791
 30
0.0
 11
627.78714500915726
 21
202.07254707683791
 31
0.0
  0
LINE
  5
16A60
  8
AM_0
 10
528.81430500915735
 20
214.07254707683799
 30
0.0
 11
627.78714500915726
 21
214.07254707683799
 31
0.0
  0
LINE
  5
16A61
  8
AM_0
 10
561.14713500915695
 20
264.07254707683802
 30
0.0
 11
627.78714500915726
 21
264.07254707683802
 31
0.0
  0
LINE
  5
16A62
  8
AM_0
 10
528.81430500915735
 20
262.07254707683802
 30
0.0
 11
627.78714500915726
 21
262.07254707683802
 31
0.0
  0
LINE
  5
16A63
  8
AM_0
 10
616.84497257757823
 20
168.57254707683791
 30
0.0
 11
599.24497257757832
 21
168.57254707683791
 31
0.0
  0
LINE
  5
16A64
  8
ﾁｭｳｼﾝｾﾝ1
 10
619.54497257756873
 20
151.57254707683791
 30
0.0
 11
595.54497257758771
 21
151.57254707683791
 31
0.0
  0
ARC
  5
16A65
  8
AM_0
 10
607.54497257757805
 20
151.57254707683791
 30
0.0
 40
9.3000000000000007
 50
180.0
 51
0.0
  0
LINE
  5
16A66
  8
AM_0
 10
620.12639636178926
 20
139.57254707683799
 30
0.0
 11
588.14832662305719
 21
145.02097311358199
 31
0.0
  0
LINE
  5
16A67
  8
AM_0
 10
620.04497257757805
 20
138.57254707683799
 30
0.0
 11
543.74497257757821
 21
151.57254707683791
 31
0.0
  0
LINE
  5
16A68
  8
AM_0
 10
620.04497257757805
 20
138.57254707683799
 30
0.0
 11
543.74497257757821
 21
151.57254707683791
 31
0.0
  0
LINE
  5
16A69
  8
AM_0
 10
544.24497257757707
 20
134.57254707683799
 30
0.0
 11
619.71927744073719
 21
134.57254707683799
 31
0.0
  0
LINE
  5
16A6A
  8
AM_0
 10
543.41927744073712
 20
147.57254707683799
 30
0.0
 11
619.71927744073719
 21
134.57254707683799
 31
0.0
  0
LINE
  5
16A6B
  8
AM_0
 10
628.68711500915697
 20
214.512487076838
 30
0.0
 11
525.11289500915723
 21
214.512487076838
 31
0.0
  0
LINE
  5
16A6C
  8
AM_0
 10
628.46714500915721
 20
274.79251707683812
 30
0.0
 11
525.32712500915727
 21
274.79251707683812
 31
0.0
  0
LINE
  5
16A6D
  8
AM_0
 10
628.68711500915697
 20
261.63260707683799
 30
0.0
 11
525.11289500915723
 21
261.63260707683799
 31
0.0
  0
POLYLINE
  5
16A6E
  8
AM_0
 66
     1
 10
0.0
 20
0.0
 30
0.0
  0
VERTEX
  5
16A6F
  8
AM_0
 10
627.7430850091572
 20
231.8021570768378
 30
0.0
 42
-0.00076695235
  0
VERTEX
  5
16A70
  8
AM_0
 10
627.72828500915716
 20
231.18439707683791
 30
0.0
 42
-0.00073263043
  0
VERTEX
  5
16A71
  8
AM_0
 10
627.71164500915722
 20
230.5667970768379
 30
0.0
 42
-0.00076525988
  0
VERTEX
  5
16A72
  8
AM_0
 10
627.69315500915741
 20
229.9491270768379
 30
0.0
 42
-0.00075144488
  0
VERTEX
  5
16A73
  8
AM_0
 10
627.67278500915722
 20
229.331527076838
 30
0.0
 42
-0.00076035096
  0
VERTEX
  5
16A74
  8
AM_0
 10
627.65054500915721
 20
228.71409707683799
 30
0.0
 42
-0.00075543154
  0
VERTEX
  5
16A75
  8
AM_0
 10
627.62644500915735
 20
228.0967170768379
 30
0.0
 42
-0.0007577325
  0
VERTEX
  5
16A76
  8
AM_0
 10
627.60046500915723
 20
227.47931707683799
 30
0.0
 42
-0.00076034585
  0
VERTEX
  5
16A77
  8
AM_0
 10
627.57261500915718
 20
226.8619270768379
 30
0.0
 42
-0.00074823143
  0
VERTEX
  5
16A78
  8
AM_0
 10
627.5428850091572
 20
226.24453707683799
 30
0.0
 42
-0.00074896605
  0
VERTEX
  5
16A79
  8
AM_0
 10
627.51132500915742
 20
225.6274070768379
 30
0.0
 42
-0.00076039763
  0
VERTEX
  5
16A7A
  8
AM_0
 10
627.47790500915721
 20
225.01037707683801
 30
0.0
 42
-0.00075616127
  0
VERTEX
  5
16A7B
  8
AM_0
 10
627.44260500915698
 20
224.3933470768379
 30
0.0
  0
SEQEND
  5
16A7C
  8
AM_0
  0
LINE
  5
16A7D
  8
AM_0
 10
638.14713500915718
 20
296.82254707683802
 30
0.0
 11
638.14713500915718
 21
179.32254707683791
 31
0.0
  0
LINE
  5
16A7E
  8
AM_0
 10
630.14713500915707
 20
291.07254707683802
 30
0.0
 11
630.14713500915707
 21
185.07254707683791
 31
0.0
  0
LINE
  5
16A7F
  8
AM_0
 10
643.14713500915707
 20
200.887487076838
 30
0.0
 11
643.14713500915707
 21
275.25857707683781
 31
0.0
  0
LINE
  5
16A80
  8
AM_0
 10
693.64856510915718
 20
294.07254707683802
 30
0.0
 11
693.64856510915718
 21
243.07254707683799
 31
0.0
  0
LINE
  5
16A81
  8
AM_0
 10
693.64856510915718
 20
233.07254707683791
 30
0.0
 11
693.64856510915718
 21
182.07254707683799
 31
0.0
  0
LINE
  5
16A82
  8
AM_0
 10
688.14713500915718
 20
203.54348707683789
 30
0.0
 11
688.14713500915718
 21
272.60159707683812
 31
0.0
  0
LINE
  5
16A83
  8
AM_0
 10
688.64856510915729
 20
233.07254707683791
 30
0.0
 11
688.64856510915729
 21
183.07254707683791
 31
0.0
  0
LINE
  5
16A84
  8
AM_0
 10
685.64713500915695
 20
185.29055707683801
 30
0.0
 11
685.64713500915695
 21
290.82254707683768
 31
0.0
  0
LINE
  5
16A85
  8
AM_0
 10
622.6449725775783
 20
167.57254707683791
 30
0.0
 11
622.6449725775783
 21
144.57254707683799
 31
0.0
  0
LINE
  5
16A86
  8
AM_0
 10
616.84497257757823
 20
168.57254707683791
 30
0.0
 11
616.84497257757823
 21
151.57254707683791
 31
0.0
  0
LINE
  5
16A87
  8
AM_0
 10
622.94497257757826
 20
139.57254707683799
 30
0.0
 11
622.94497257757826
 21
140.56818975755391
 31
0.0
  0
LINE
  5
16A88
  8
AM_0
 10
622.6449725775783
 20
144.57254707683799
 30
0.0
 11
622.64497257757932
 21
139.57254707683799
 31
0.0
  0
LINE
  5
16A89
  8
AM_0
 10
623.1449725775783
 20
139.57254707683799
 30
0.0
 11
623.1449725775783
 21
143.272547076839
 31
0.0
  0
LINE
  5
16A8A
  8
AM_0
 10
624.64497257757716
 20
143.272547076839
 30
0.0
 11
624.64497257757716
 21
136.07254707683799
 31
0.0
  0
LINE
  5
16A8B
  8
AM_0
 10
622.6449725775783
 20
134.57254707683799
 30
0.0
 11
619.71927744073719
 21
134.57254707683799
 31
0.0
  0
LINE
  5
16A8C
  8
AM_0
 10
624.14497257757819
 20
138.57254707683799
 30
0.0
 11
620.04497257757805
 21
138.57254707683799
 31
0.0
  0
LINE
  5
16A8D
  8
AM_0
 10
623.84497257757823
 20
138.57254707683799
 30
0.0
 11
620.04497257757805
 21
138.57254707683799
 31
0.0
  0
LINE
  5
16A8E
  8
AM_0
 10
623.14497257757705
 20
134.57254707683799
 30
0.0
 11
622.84648668142006
 21
134.57254707683899
 31
0.0
  0
LINE
  5
16A8F
  8
AM_0
 10
624.14497257757819
 20
139.272547076839
 30
0.0
 11
624.14497257757819
 21
138.57254707683799
 31
0.0
  0
ARC
  5
16A90
  8
AM_0
 10
623.84497257757823
 20
138.272547076839
 30
0.0
 40
0.3
 50
0.0
 51
90.0
  0
ARC
  5
16A91
  8
AM_0
 10
623.84497257757823
 20
139.272547076839
 30
0.0
 40
0.3
 50
0.0
 51
90.0
  0
LINE
  5
16A92
  8
AM_0
 10
624.14497257757819
 20
138.272547076839
 30
0.0
 11
624.14497257757819
 21
136.07254707683799
 31
0.0
  0
LINE
  5
16A93
  8
AM_0
 10
620.12639636178926
 20
139.57254707683799
 30
0.0
 11
623.84497257757823
 21
139.57254707683799
 31
0.0
  0
ARC
  5
16A94
  8
AM_0
 10
623.14497257757705
 20
136.07254707683899
 30
0.0
 40
1.5
 50
270.00000000000648
 51
359.99999999999352
  0
ARC
  5
16A95
  8
AM_0
 10
622.6449725775783
 20
136.07254707683799
 30
0.0
 40
1.5
 50
270.0
 51
0.0
  0
ARC
  5
16A96
  8
AM_0
 10
623.44497257757826
 20
143.272547076839
 30
0.0
 40
0.3
 50
90.0
 51
180.0
  0
LINE
  5
16A97
  8
AM_0
 10
622.74497257757832
 20
144.57254707683799
 30
0.0
 11
622.6449725775783
 21
144.57254707683799
 31
0.0
  0
LINE
  5
16A98
  8
AM_0
 10
622.94497257757826
 20
144.37254707683891
 30
0.0
 11
622.74497257757832
 21
144.57254707683799
 31
0.0
  0
LINE
  5
16A99
  8
AM_0
 10
622.94497257757826
 20
140.56818975755391
 30
0.0
 11
622.94497257757826
 21
141.76818975755401
 31
0.0
  0
LINE
  5
16A9A
  8
AM_0
 10
622.94497257757826
 20
140.56818975755391
 30
0.0
 11
623.1449725775783
 21
140.56818975755391
 31
0.0
  0
LINE
  5
16A9B
  8
AM_0
 10
623.1449725775783
 20
141.76818975755401
 30
0.0
 11
622.94497257757826
 21
141.76818975755401
 31
0.0
  0
LINE
  5
16A9C
  8
AM_0
 10
622.94497257757826
 20
141.76818975755401
 30
0.0
 11
622.94497257757826
 21
144.37254707683891
 31
0.0
  0
ARC
  5
16A9D
  8
AM_0
 10
624.3449725775771
 20
143.272547076839
 30
0.0
 40
0.3
 50
0.0
 51
90.0
  0
LINE
  5
16A9E
  8
AM_0
 10
623.84497257757823
 20
143.57254707683799
 30
0.0
 11
624.3449725775771
 21
143.57254707683799
 31
0.0
  0
LINE
  5
16A9F
  8
AM_0
 10
623.44497257757826
 20
143.57254707683799
 30
0.0
 11
623.84497257757823
 21
143.57254707683799
 31
0.0
  0
LINE
  5
16AA0
  8
AM_0
 10
686.14713500915695
 20
185.32254707683791
 30
0.0
 11
638.14713500915718
 21
185.32254707683791
 31
0.0
  0
LINE
  5
16AA1
  8
AM_0
 10
685.64713500915695
 20
204.43155707683781
 30
0.0
 11
643.14713500915707
 21
204.43155707683781
 31
0.0
  0
LINE
  5
16AA2
  8
AM_0
 10
685.64713500915695
 20
194.18155707683781
 30
0.0
 11
643.14713500915707
 21
194.18155707683781
 31
0.0
  0
LINE
  5
16AA3
  8
AM_0
 10
663.14713500915718
 20
179.32254707683791
 30
0.0
 11
638.14713500915718
 21
179.32254707683791
 31
0.0
  0
LINE
  5
16AA4
  8
AM_0
 10
684.64856510915729
 20
173.07254707683791
 30
0.0
 11
647.14713500915707
 21
173.07254707683791
 31
0.0
  0
LINE
  5
16AA5
  8
AM_0
 10
688.14713500915718
 20
194.8196170768378
 30
0.0
 11
688.14713500915718
 21
187.32254707683799
 31
0.0
  0
LINE
  5
16AA6
  8
AM_0
 10
683.64856510915729
 20
178.07254707683791
 30
0.0
 11
660.14713500915695
 21
178.07254707683791
 31
0.0
  0
ARC
  5
16AA7
  8
AM_0
 10
684.64856510915729
 20
182.07254707683799
 30
0.0
 40
9.0
 50
270.00004999999851
 51
0.0000200000020129
  0
ARC
  5
16AA8
  8
AM_0
 10
683.64856510915729
 20
183.07254707683791
 30
0.0
 40
5.0
 50
270.00004999999851
 51
0.0000200000020129
  0
ARC
  5
16AA9
  8
AM_0
 10
686.14713500915695
 20
187.32254707683799
 30
0.0
 40
2.0
 50
270.00004999999851
 51
0.0000200000020129
  0
LINE
  5
16AAA
  8
AM_0
 10
660.14713500915695
 20
179.32254707683791
 30
0.0
 11
660.14713500915695
 21
173.07254707683791
 31
0.0
  0
LINE
  5
16AAB
  8
AM_0
 10
663.14713500915718
 20
179.32254707683791
 30
0.0
 11
663.14713500915718
 21
185.32254707683791
 31
0.0
  0
LINE
  5
16AAC
  8
AM_0
 10
686.94712500915728
 20
203.78152707683779
 30
0.0
 11
686.94712500915728
 21
194.5815770768379
 31
0.0
  0
ARC
  5
16AAD
  8
AM_0
 10
687.24710500915739
 20
197.68155707683781
 30
0.0
 40
3.0
 50
270.00004999999851
 51
297.8496734971971
  0
LINE
  5
16AAE
  8
AM_0
 10
686.94712500915728
 20
194.5815770768379
 30
0.0
 11
685.64713500915695
 21
194.5815770768379
 31
0.0
  0
LINE
  5
16AAF
  8
AM_0
 10
687.24710500915739
 20
194.68155707683789
 30
0.0
 11
686.94712500915728
 21
194.68155707683789
 31
0.0
  0
ARC
  5
16AB0
  8
AM_0
 10
687.24710500915739
 20
200.68155707683789
 30
0.0
 40
3.0
 50
62.150326502802919
 51
90.000011000002416
  0
LINE
  5
16AB1
  8
AM_0
 10
686.94712500915728
 20
203.78152707683779
 30
0.0
 11
685.64713500915695
 21
203.78152707683779
 31
0.0
  0
LINE
  5
16AB2
  8
AM_0
 10
687.24710500915739
 20
203.68155707683789
 30
0.0
 11
686.94712500915728
 21
203.68155707683789
 31
0.0
  0
LINE
  5
16AB3
  8
AM_0
 10
643.14713500915707
 20
194.18155707683781
 30
0.0
 11
643.14713500915707
 21
185.32254707683791
 31
0.0
  0
LINE
  5
16AB4
  8
AM_0
 10
624.78714500915714
 20
201.4225470768379
 30
0.0
 11
630.14713500915707
 21
189.98254707683799
 31
0.0
  0
LINE
  5
16AB5
  8
AM_0
 10
638.14713500915718
 20
185.07254707683791
 30
0.0
 11
630.14713500915707
 21
185.07254707683791
 31
0.0
  0
LINE
  5
16AB6
  8
AM_0
 10
650.1471350091573
 20
179.32254707683791
 30
0.0
 11
650.1471350091573
 21
173.07254707683791
 31
0.0
  0
LINE
  5
16AB7
  8
AM_0
 10
647.14713500915707
 20
178.07254707683791
 30
0.0
 11
647.14713500915707
 21
173.07254707683791
 31
0.0
  0
LINE
  5
16AB8
  8
AM_0
 10
650.1471350091573
 20
178.07254707683791
 30
0.0
 11
647.14713500915707
 21
178.07254707683791
 31
0.0
  0
LINE
  5
16AB9
  8
AM_0
 10
621.6449725775783
 20
168.57254707683791
 30
0.0
 11
616.84497257757823
 21
168.57254707683791
 31
0.0
  0
ARC
  5
16ABA
  8
AM_0
 10
621.6449725775783
 20
167.57254707683791
 30
0.0
 40
1.0
 50
0.0
 51
90.0
  0
ARC
  5
16ABB
  8
AM_0
 10
626.94229500915731
 20
183.79178707683789
 30
0.0
 40
1.9992490000000001
 50
269.85256999999859
 51
349.35689999999892
  0
LINE
  5
16ABC
  8
AM_0
 10
630.14713500915707
 20
188.6324770768378
 30
0.0
 11
628.86716500915725
 21
180.63253707683791
 31
0.0
  0
LINE
  5
16ABD
  8
AM_0
 10
630.14713500915707
 20
187.29248707683789
 30
0.0
 11
629.13791500915727
 21
180.6424570768379
 31
0.0
  0
LINE
  5
16ABE
  8
AM_0
 10
630.14713500915707
 20
187.29254707683799
 30
0.0
 11
629.22165500915719
 21
180.66592707683799
 31
0.0
  0
ARC
  5
16ABF
  8
AM_0
 10
626.8909650091573
 20
180.9429070768378
 30
0.0
 40
2.000420099999999
 50
270.17729000000389
 51
351.07317999999839
  0
ARC
  5
16AC0
  8
AM_0
 10
627.16050500915719
 20
180.94253707683779
 30
0.0
 40
2.0
 50
270.000010000001
 51
351.37037999999581
  0
ARC
  5
16AC1
  8
AM_0
 10
627.24088500915695
 20
180.94253707683779
 30
0.0
 40
2.0
 50
270.000010000001
 51
352.04955999999657
  0
LINE
  5
16AC2
  8
AM_0
 10
630.14713500915707
 20
189.98248707683791
 30
0.0
 11
628.90714500915715
 21
183.422487076838
 31
0.0
  0
LINE
  5
16AC3
  8
AM_0
 10
637.44712500915728
 20
194.88260707683801
 30
0.0
 11
631.21714500915721
 21
194.88260707683801
 31
0.0
  0
POLYLINE
  5
16AC4
  8
AM_0
 66
     1
 10
0.0
 20
0.0
 30
0.0
  0
VERTEX
  5
16AC5
  8
AM_0
 10
626.28623500915717
 20
211.58950707683789
 30
0.0
 42
-0.00068900015
  0
VERTEX
  5
16AC6
  8
AM_0
 10
626.21535500915718
 20
211.0147570768379
 30
0.0
 42
-0.00070644648
  0
VERTEX
  5
16AC7
  8
AM_0
 10
626.14285500915719
 20
210.44007707683789
 30
0.0
 42
-0.00069245587
  0
VERTEX
  5
16AC8
  8
AM_0
 10
626.06876500915723
 20
209.86575707683801
 30
0.0
 42
-0.00069587802
  0
VERTEX
  5
16AC9
  8
AM_0
 10
625.9930850091572
 20
209.29161707683781
 30
0.0
 42
-0.00068980012
  0
VERTEX
  5
16ACA
  8
AM_0
 10
625.91578500915739
 20
208.717617076838
 30
0.0
 42
-0.00072079193
  0
VERTEX
  5
16ACB
  8
AM_0
 10
625.83689500915705
 20
208.14383707683811
 30
0.0
 42
-0.00071003147
  0
VERTEX
  5
16ACC
  8
AM_0
 10
625.75635500915723
 20
207.57035707683781
 30
0.0
 42
-0.00072658712
  0
VERTEX
  5
16ACD
  8
AM_0
 10
625.6741950091573
 20
206.99726707683789
 30
0.0
 42
-0.00069571059
  0
VERTEX
  5
16ACE
  8
AM_0
 10
625.59037500915724
 20
206.42422707683789
 30
0.0
 42
-0.0007126617
  0
VERTEX
  5
16ACF
  8
AM_0
 10
625.50494500915715
 20
205.85146707683791
 30
0.0
 42
-0.00071614574
  0
VERTEX
  5
16AD0
  8
AM_0
 10
625.41791500915724
 20
205.27911707683799
 30
0.0
 42
-0.00072290803
  0
VERTEX
  5
16AD1
  8
AM_0
 10
625.32920500915725
 20
204.70681707683801
 30
0.0
  0
SEQEND
  5
16AD2
  8
AM_0
  0
ARC
  5
16AD3
  8
AM_0
 10
628.47397500915724
 20
203.02749707683799
 30
0.0
 40
1.675014
 50
269.7664900000006
 51
90.233501000003244
  0
ARC
  5
16AD4
  8
AM_0
 10
627.60251500915717
 20
203.07254707683799
 30
0.0
 40
1.0000138999999999
 50
269.69165999999939
 51
90.308340000000754
  0
POLYLINE
  5
16AD5
  8
AM_0
 66
     1
 10
0.0
 20
0.0
 30
0.0
  0
VERTEX
  5
16AD6
  8
AM_0
 10
627.26889500915729
 20
221.73196707683789
 30
0.0
 42
-0.00073721992
  0
VERTEX
  5
16AD7
  8
AM_0
 10
627.22474500915723
 20
221.1295570768379
 30
0.0
 42
-0.00074398496
  0
VERTEX
  5
16AD8
  8
AM_0
 10
627.17881500915723
 20
220.52728707683789
 30
0.0
 42
-0.00073322625
  0
VERTEX
  5
16AD9
  8
AM_0
 10
627.13108500915723
 20
219.9249570768379
 30
0.0
 42
-0.00073594289
  0
VERTEX
  5
16ADA
  8
AM_0
 10
627.08160500915722
 20
219.32296707683781
 30
0.0
 42
-0.00074742568
  0
VERTEX
  5
16ADB
  8
AM_0
 10
627.03033500915706
 20
218.7211070768378
 30
0.0
 42
-0.00073216749
  0
VERTEX
  5
16ADC
  8
AM_0
 10
626.97727500915721
 20
218.11929707683791
 30
0.0
 42
-0.00074184065
  0
VERTEX
  5
16ADD
  8
AM_0
 10
626.92245500915715
 20
217.517767076838
 30
0.0
 42
-0.00072077528
  0
VERTEX
  5
16ADE
  8
AM_0
 10
626.86587500915721
 20
216.91653707683801
 30
0.0
 42
-0.00074978179
  0
VERTEX
  5
16ADF
  8
AM_0
 10
626.80753500915739
 20
216.31533707683801
 30
0.0
 42
-0.00074288888
  0
VERTEX
  5
16AE0
  8
AM_0
 10
626.74738500915726
 20
215.71431707683789
 30
0.0
 42
-0.00072503679
  0
VERTEX
  5
16AE1
  8
AM_0
 10
626.68547500915724
 20
215.1135770768378
 30
0.0
 42
-0.00074640584
  0
VERTEX
  5
16AE2
  8
AM_0
 10
626.62180500915724
 20
214.51297707683781
 30
0.0
  0
SEQEND
  5
16AE3
  8
AM_0
  0
ARC
  5
16AE4
  8
AM_0
 10
627.60251500915717
 20
213.07254707683799
 30
0.0
 40
1.0000138999999999
 50
269.69165999999939
 51
90.308340000000754
  0
ARC
  5
16AE5
  8
AM_0
 10
628.68711500915697
 20
213.04751707683789
 30
0.0
 40
1.465004
 50
270.0
 51
89.999997000002296
  0
ARC
  5
16AE6
  8
AM_0
 10
628.81711500915731
 20
223.062537076838
 30
0.0
 40
1.3300049999999981
 50
270.0
 51
89.999997000002296
  0
ARC
  5
16AE7
  8
AM_0
 10
627.60251500915717
 20
223.07254707683799
 30
0.0
 40
1.0000138999999999
 50
269.69165999999939
 51
90.308340000000754
  0
LINE
  5
16AE8
  8
AM_0
 10
630.14713500915707
 20
288.8625570768379
 30
0.0
 11
628.8571550091574
 21
297.35251707683801
 31
0.0
  0
LINE
  5
16AE9
  8
AM_0
 10
630.14713500915707
 20
287.51257707683789
 30
0.0
 11
628.86716500915725
 21
295.52252707683778
 31
0.0
  0
LINE
  5
16AEA
  8
AM_0
 10
630.14713500915707
 20
288.8625570768379
 30
0.0
 11
628.83713500915724
 21
298.24258707683788
 31
0.0
  0
LINE
  5
16AEB
  8
AM_0
 10
663.14713500915718
 20
296.82254707683768
 30
0.0
 11
663.14713500915718
 21
290.82254707683768
 31
0.0
  0
ARC
  5
16AEC
  8
AM_0
 10
683.64856510915729
 20
293.07254707683791
 30
0.0
 40
5.0
 50
0.0
 51
90.000011000002416
  0
ARC
  5
16AED
  8
AM_0
 10
684.64856510915729
 20
294.07254707683802
 30
0.0
 40
9.0
 50
0.0000200000020129
 51
90.000011000002416
  0
LINE
  5
16AEE
  8
AM_0
 10
685.64713500915695
 20
281.96353707683789
 30
0.0
 11
643.14713500915707
 21
281.96353707683789
 31
0.0
  0
LINE
  5
16AEF
  8
AM_0
 10
685.64713500915695
 20
271.71353707683778
 30
0.0
 11
643.14713500915707
 21
271.71353707683778
 31
0.0
  0
LINE
  5
16AF0
  8
AM_0
 10
686.14713500915695
 20
290.82254707683768
 30
0.0
 11
638.14713500915718
 21
290.82254707683768
 31
0.0
  0
LINE
  5
16AF1
  8
AM_0
 10
694.64710500915714
 20
233.07254707683791
 30
0.0
 11
694.64710500915714
 21
243.07254707683799
 31
0.0
  0
LINE
  5
16AF2
  8
AM_0
 10
688.14713500915718
 20
233.07254707683791
 30
0.0
 11
694.64710500915714
 21
233.07254707683791
 31
0.0
  0
LINE
  5
16AF3
  8
AM_0
 10
688.14713500915718
 20
243.07254707683799
 30
0.0
 11
694.64710500915714
 21
243.07254707683799
 31
0.0
  0
LINE
  5
16AF4
  8
AM_0
 10
686.94712500915728
 20
272.3635670768378
 30
0.0
 11
686.94712500915728
 21
281.5635170768378
 31
0.0
  0
ARC
  5
16AF5
  8
AM_0
 10
687.24710500915739
 20
275.46353707683789
 30
0.0
 40
3.0
 50
269.99998899999758
 51
297.8496734971971
  0
LINE
  5
16AF6
  8
AM_0
 10
686.94712500915728
 20
272.3635670768378
 30
0.0
 11
685.64713500915695
 21
272.3635670768378
 31
0.0
  0
LINE
  5
16AF7
  8
AM_0
 10
687.24710500915739
 20
272.46353707683778
 30
0.0
 11
686.94712500915728
 21
272.46353707683778
 31
0.0
  0
LINE
  5
16AF8
  8
AM_0
 10
688.14713500915718
 20
281.3254770768379
 30
0.0
 11
688.14713500915718
 21
288.82254707683768
 31
0.0
  0
LINE
  5
16AF9
  8
AM_0
 10
688.64856510915729
 20
243.07254707683791
 30
0.0
 11
688.64856510915729
 21
293.07254707683768
 31
0.0
  0
ARC
  5
16AFA
  8
AM_0
 10
687.24710500915739
 20
278.46353707683778
 30
0.0
 40
3.0
 50
62.150326502802919
 51
89.999950000001448
  0
LINE
  5
16AFB
  8
AM_0
 10
686.94712500915728
 20
281.5635170768378
 30
0.0
 11
685.64713500915695
 21
281.5635170768378
 31
0.0
  0
LINE
  5
16AFC
  8
AM_0
 10
687.24710500915739
 20
281.46353707683778
 30
0.0
 11
686.94712500915728
 21
281.46353707683778
 31
0.0
  0
ARC
  5
16AFD
  8
AM_0
 10
686.14713500915695
 20
288.82254707683768
 30
0.0
 40
2.0
 50
359.999979999998
 51
89.999950000001448
  0
POLYLINE
  5
16AFE
  8
AM_0
 66
     1
 10
0.0
 20
0.0
 30
0.0
  0
VERTEX
  5
16AFF
  8
AM_0
 10
627.26889500915729
 20
254.41311707683801
 30
0.0
 42
0.0007337051
  0
VERTEX
  5
16B00
  8
AM_0
 10
627.22475500915721
 20
255.015537076838
 30
0.0
 42
0.00075211323
  0
VERTEX
  5
16B01
  8
AM_0
 10
627.17881500915723
 20
255.61792707683799
 30
0.0
 42
0.0007297491
  0
VERTEX
  5
16B02
  8
AM_0
 10
627.13108500915723
 20
256.22012707683803
 30
0.0
 42
0.00073593041
  0
VERTEX
  5
16B03
  8
AM_0
 10
627.08160500915722
 20
256.82211707683791
 30
0.0
 42
0.00074742739
  0
VERTEX
  5
16B04
  8
AM_0
 10
627.03033500915706
 20
257.42398707683799
 30
0.0
 42
0.00073217363
  0
VERTEX
  5
16B05
  8
AM_0
 10
626.97727500915721
 20
258.02578707683779
 30
0.0
 42
0.00073754168
  0
VERTEX
  5
16B06
  8
AM_0
 10
626.92245500915715
 20
258.6273270768379
 30
0.0
 42
0.00073075073
  0
VERTEX
  5
16B07
  8
AM_0
 10
626.86587500915721
 20
259.22868707683779
 30
0.0
 42
0.00074550816
  0
VERTEX
  5
16B08
  8
AM_0
 10
626.80753500915739
 20
259.82974707683798
 30
0.0
 42
0.00074288416
  0
VERTEX
  5
16B09
  8
AM_0
 10
626.74738500915726
 20
260.43076707683798
 30
0.0
 42
0.00072504001
  0
VERTEX
  5
16B0A
  8
AM_0
 10
626.68547500915724
 20
261.03151707683787
 30
0.0
 42
0.00074640667
  0
VERTEX
  5
16B0B
  8
AM_0
 10
626.62180500915724
 20
261.63211707683791
 30
0.0
  0
SEQEND
  5
16B0C
  8
AM_0
  0
ARC
  5
16B0D
  8
AM_0
 10
627.60251500915717
 20
243.07254707683799
 30
0.0
 40
1.0000138999999999
 50
269.69165999999939
 51
90.308340000000754
  0
ARC
  5
16B0E
  8
AM_0
 10
628.88297500915724
 20
243.0775470768379
 30
0.0
 40
1.2650129999999991
 50
269.7355899999975
 51
90.264420999998279
  0
POLYLINE
  5
16B0F
  8
AM_0
 66
     1
 10
0.0
 20
0.0
 30
0.0
  0
VERTEX
  5
16B10
  8
AM_0
 10
627.78714500915726
 20
238.07254707683799
 30
0.0
 42
-0.00039106589
  0
VERTEX
  5
16B11
  8
AM_0
 10
627.78950500915721
 20
237.76140707683791
 30
0.0
 42
-0.00035488584
  0
VERTEX
  5
16B12
  8
AM_0
 10
627.79139500915721
 20
237.4502970768379
 30
0.0
 42
-0.00039705232
  0
VERTEX
  5
16B13
  8
AM_0
 10
627.79282500915724
 20
237.13919707683789
 30
0.0
 42
-0.0003876649
  0
VERTEX
  5
16B14
  8
AM_0
 10
627.79375500915717
 20
236.82805707683789
 30
0.0
 42
-0.00040613779
  0
VERTEX
  5
16B15
  8
AM_0
 10
627.79420500915728
 20
236.51694707683811
 30
0.0
 42
-0.00035571855
  0
VERTEX
  5
16B16
  8
AM_0
 10
627.79416500915715
 20
236.2058470768379
 30
0.0
 42
-0.00038547358
  0
VERTEX
  5
16B17
  8
AM_0
 10
627.79367500915737
 20
235.8947070768379
 30
0.0
 42
-0.000355015
  0
VERTEX
  5
16B18
  8
AM_0
 10
627.79271500915718
 20
235.58360707683801
 30
0.0
 42
-0.00040118616
  0
VERTEX
  5
16B19
  8
AM_0
 10
627.79129500915724
 20
235.27237707683801
 30
0.0
 42
-0.00038319867
  0
VERTEX
  5
16B1A
  8
AM_0
 10
627.78938500915717
 20
234.96123707683799
 30
0.0
 42
-0.00035656356
  0
VERTEX
  5
16B1B
  8
AM_0
 10
627.78700500915716
 20
234.65000707683791
 30
0.0
 42
-0.00040140992
  0
VERTEX
  5
16B1C
  8
AM_0
 10
627.78415500915719
 20
234.3388970768379
 30
0.0
  0
SEQEND
  5
16B1D
  8
AM_0
  0
ARC
  5
16B1E
  8
AM_0
 10
628.88297500915724
 20
233.07254707683791
 30
0.0
 40
1.2700129999999981
 50
269.73663000000079
 51
90.263382999998399
  0
ARC
  5
16B1F
  8
AM_0
 10
627.60251500915717
 20
233.07254707683791
 30
0.0
 40
1.0000138999999999
 50
269.69165999999939
 51
90.308340000000754
  0
POLYLINE
  5
16B20
  8
AM_0
 66
     1
 10
0.0
 20
0.0
 30
0.0
  0
VERTEX
  5
16B21
  8
AM_0
 10
627.78714500915726
 20
238.07254707683799
 30
0.0
 42
0.00039106649
  0
VERTEX
  5
16B22
  8
AM_0
 10
627.78950500915721
 20
238.38367707683801
 30
0.0
 42
0.00035488198
  0
VERTEX
  5
16B23
  8
AM_0
 10
627.79139500915721
 20
238.69478707683791
 30
0.0
 42
0.00039706113
  0
VERTEX
  5
16B24
  8
AM_0
 10
627.79282500915724
 20
239.00589707683801
 30
0.0
 42
0.00038765718
  0
VERTEX
  5
16B25
  8
AM_0
 10
627.79375500915717
 20
239.31703707683801
 30
0.0
 42
0.00040613432
  0
VERTEX
  5
16B26
  8
AM_0
 10
627.79420500915728
 20
239.6281370768379
 30
0.0
 42
0.00035573434
  0
VERTEX
  5
16B27
  8
AM_0
 10
627.79416500915715
 20
239.939247076838
 30
0.0
 42
0.00038545884
  0
VERTEX
  5
16B28
  8
AM_0
 10
627.79367500915737
 20
240.25037707683779
 30
0.0
 42
0.00035501205
  0
VERTEX
  5
16B29
  8
AM_0
 10
627.79271500915718
 20
240.56148707683789
 30
0.0
 42
0.00040120779
  0
VERTEX
  5
16B2A
  8
AM_0
 10
627.79129500915724
 20
240.87271707683789
 30
0.0
 42
0.00038317817
  0
VERTEX
  5
16B2B
  8
AM_0
 10
627.78938500915717
 20
241.18384707683799
 30
0.0
 42
0.00035656084
  0
VERTEX
  5
16B2C
  8
AM_0
 10
627.78700500915716
 20
241.49508707683799
 30
0.0
 42
0.00040143615
  0
VERTEX
  5
16B2D
  8
AM_0
 10
627.78415500915719
 20
241.80618707683789
 30
0.0
  0
SEQEND
  5
16B2E
  8
AM_0
  0
ARC
  5
16B2F
  8
AM_0
 10
628.81711500915731
 20
253.0825570768379
 30
0.0
 40
1.3300049999999981
 50
270.0
 51
89.999997000002296
  0
POLYLINE
  5
16B30
  8
AM_0
 66
     1
 10
0.0
 20
0.0
 30
0.0
  0
VERTEX
  5
16B31
  8
AM_0
 10
627.7430850091572
 20
244.3429270768379
 30
0.0
 42
0.00076691992
  0
VERTEX
  5
16B32
  8
AM_0
 10
627.72828500915716
 20
244.96069707683799
 30
0.0
 42
0.00073262792
  0
VERTEX
  5
16B33
  8
AM_0
 10
627.71164500915722
 20
245.578287076838
 30
0.0
 42
0.00076529537
  0
VERTEX
  5
16B34
  8
AM_0
 10
627.69315500915741
 20
246.19595707683791
 30
0.0
 42
0.00075141097
  0
VERTEX
  5
16B35
  8
AM_0
 10
627.67278500915722
 20
246.8135570768379
 30
0.0
 42
0.00075841687
  0
VERTEX
  5
16B36
  8
AM_0
 10
627.65055500915696
 20
247.43098707683791
 30
0.0
 42
0.00075711788
  0
VERTEX
  5
16B37
  8
AM_0
 10
627.62644500915735
 20
248.048497076838
 30
0.0
 42
0.00075976003
  0
VERTEX
  5
16B38
  8
AM_0
 10
627.60045500915714
 20
248.66588707683781
 30
0.0
 42
0.00075797311
  0
VERTEX
  5
16B39
  8
AM_0
 10
627.57261500915718
 20
249.283167076838
 30
0.0
 42
0.0007482613
  0
VERTEX
  5
16B3A
  8
AM_0
 10
627.5428850091572
 20
249.90054707683791
 30
0.0
 42
0.00074893561
  0
VERTEX
  5
16B3B
  8
AM_0
 10
627.51132500915742
 20
250.517677076838
 30
0.0
 42
0.00076039839
  0
VERTEX
  5
16B3C
  8
AM_0
 10
627.47790500915721
 20
251.13470707683791
 30
0.0
 42
0.00075618786
  0
VERTEX
  5
16B3D
  8
AM_0
 10
627.44260500915698
 20
251.751747076838
 30
0.0
  0
SEQEND
  5
16B3E
  8
AM_0
  0
ARC
  5
16B3F
  8
AM_0
 10
627.60251500915717
 20
253.07254707683799
 30
0.0
 40
1.0000138999999999
 50
269.69165999999939
 51
90.308340000000754
  0
LINE
  5
16B40
  8
AM_0
 10
638.14713500915718
 20
291.07254707683802
 30
0.0
 11
630.14713500915707
 21
291.07254707683802
 31
0.0
  0
LINE
  5
16B41
  8
AM_0
 10
637.44712500915728
 20
281.26248707683789
 30
0.0
 11
631.21714500915721
 21
281.26248707683789
 31
0.0
  0
LINE
  5
16B42
  8
AM_0
 10
643.14713500915707
 20
281.96353707683789
 30
0.0
 11
643.14713500915707
 21
290.82254707683768
 31
0.0
  0
LINE
  5
16B43
  8
AM_0
 10
624.78714500915714
 20
274.7225370768378
 30
0.0
 11
630.14713500915707
 21
286.17251707683801
 31
0.0
  0
POLYLINE
  5
16B44
  8
AM_0
 66
     1
 10
0.0
 20
0.0
 30
0.0
  0
VERTEX
  5
16B45
  8
AM_0
 10
626.28623500915717
 20
264.55557707683778
 30
0.0
 42
0.00068898288
  0
VERTEX
  5
16B46
  8
AM_0
 10
626.21535500915718
 20
265.13032707683777
 30
0.0
 42
0.00070644354
  0
VERTEX
  5
16B47
  8
AM_0
 10
626.14285500915719
 20
265.70501707683798
 30
0.0
 42
0.00069248071
  0
VERTEX
  5
16B48
  8
AM_0
 10
626.06876500915723
 20
266.27932707683789
 30
0.0
 42
0.00069585665
  0
VERTEX
  5
16B49
  8
AM_0
 10
625.9930850091572
 20
266.853467076838
 30
0.0
 42
0.00068980191
  0
VERTEX
  5
16B4A
  8
AM_0
 10
625.91578500915739
 20
267.4274670768379
 30
0.0
 42
0.00072080104
  0
VERTEX
  5
16B4B
  8
AM_0
 10
625.83689500915705
 20
268.00125707683787
 30
0.0
 42
0.00071002307
  0
VERTEX
  5
16B4C
  8
AM_0
 10
625.75635500915723
 20
268.57472707683792
 30
0.0
 42
0.00072659056
  0
VERTEX
  5
16B4D
  8
AM_0
 10
625.6741950091573
 20
269.14782707683798
 30
0.0
 42
0.00069570481
  0
VERTEX
  5
16B4E
  8
AM_0
 10
625.59037500915724
 20
269.720857076838
 30
0.0
 42
0.00071266935
  0
VERTEX
  5
16B4F
  8
AM_0
 10
625.50494500915715
 20
270.29362707683799
 30
0.0
 42
0.00071614426
  0
VERTEX
  5
16B50
  8
AM_0
 10
625.41791500915724
 20
270.86596707683788
 30
0.0
 42
0.00072288975
  0
VERTEX
  5
16B51
  8
AM_0
 10
625.32920500915725
 20
271.43826707683797
 30
0.0
  0
SEQEND
  5
16B52
  8
AM_0
  0
ARC
  5
16B53
  8
AM_0
 10
627.60251500915717
 20
263.07254707683802
 30
0.0
 40
1.0000138999999999
 50
269.69165999999939
 51
90.308340000000754
  0
ARC
  5
16B54
  8
AM_0
 10
628.68711500915697
 20
263.097567076838
 30
0.0
 40
1.465004
 50
270.0
 51
89.999997000002296
  0
ARC
  5
16B55
  8
AM_0
 10
628.47452500915722
 20
273.11758707683788
 30
0.0
 40
1.6750160000000001
 50
269.74612999999908
 51
90.253854999995511
  0
ARC
  5
16B56
  8
AM_0
 10
627.60251500915717
 20
273.07254707683802
 30
0.0
 40
1.0000138999999999
 50
269.69165999999939
 51
90.308340000000754
  0
LINE
  5
16B57
  8
AM_0
 10
630.14713500915707
 20
286.17257707683802
 30
0.0
 11
628.90714500915715
 21
292.73254707683799
 31
0.0
  0
ARC
  5
16B58
  8
AM_0
 10
626.94840500915723
 20
292.3584370768379
 30
0.0
 40
1.994108999999999
 50
10.812230000001239
 51
90.324451999997237
  0
LINE
  5
16B59
  8
AM_0
 10
684.64856510915729
 20
303.07254707683802
 30
0.0
 11
647.14713500915707
 21
303.07254707683802
 31
0.0
  0
LINE
  5
16B5A
  8
AM_0
 10
663.14713500915718
 20
296.82254707683768
 30
0.0
 11
638.14713500915718
 21
296.82254707683768
 31
0.0
  0
LINE
  5
16B5B
  8
AM_0
 10
683.64856510915729
 20
298.07254707683802
 30
0.0
 11
660.14713500915695
 21
298.07254707683802
 31
0.0
  0
LINE
  5
16B5C
  8
AM_0
 10
660.14713500915695
 20
296.82254707683802
 30
0.0
 11
660.14713500915695
 21
303.07254707683802
 31
0.0
  0
LINE
  5
16B5D
  8
AM_0
 10
650.1471350091573
 20
298.07254707683802
 30
0.0
 11
647.14713500915707
 21
298.07254707683802
 31
0.0
  0
LINE
  5
16B5E
  8
AM_0
 10
650.1471350091573
 20
296.82254707683802
 30
0.0
 11
650.1471350091573
 21
303.07254707683802
 31
0.0
  0
LINE
  5
16B5F
  8
AM_0
 10
647.14713500915707
 20
298.07254707683802
 30
0.0
 11
647.14713500915707
 21
303.07254707683802
 31
0.0
  0
ARC
  5
16B60
  8
AM_0
 10
626.86063500915725
 20
297.9669570768379
 30
0.0
 40
1.995633
 50
7.938870000000315
 51
90.100291999997694
  0
ARC
  5
16B61
  8
AM_0
 10
626.89688500915736
 20
295.20730707683788
 30
0.0
 40
1.9952829999999999
 50
9.0916499999993068
 51
89.993796000003144
  0
ARC
  5
16B62
  8
AM_0
 10
626.88254500915696
 20
297.05581707683791
 30
0.0
 40
1.9967330000000001
 50
8.5461200000027322
 51
90.156033000001074
  0
LINE
  5
16B63
  8
AM_0
 10
522.14713500915707
 20
294.07254707683802
 30
0.0
 11
522.14713500915707
 21
182.07254707683799
 31
0.0
  0
ARC
  5
16B64
  8
AM_0
 10
522.49393500915721
 20
198.34976707683791
 30
0.0
 40
1.5027759999999999
 50
14.7564299999993
 51
89.877586999998385
  0
LINE
  5
16B65
  8
AM_0
 10
527.60508500915705
 20
185.07254707683791
 30
0.0
 11
522.14713500915707
 21
185.07254707683791
 31
0.0
  0
LINE
  5
16B66
  8
AM_0
 10
523.14713500915695
 20
185.07251707683781
 30
0.0
 11
528.87293500915735
 21
176.2555570768379
 31
0.0
  0
LINE
  5
16B67
  8
AM_0
 10
550.36984631173095
 20
151.45767355980979
 30
0.0
 11
550.36984631173095
 21
168.57254707683791
 31
0.0
  0
LINE
  5
16B68
  8
AM_0
 10
535.36984631173118
 20
151.57254707683791
 30
0.0
 11
535.36984631173118
 21
167.57254707683791
 31
0.0
  0
LINE
  5
16B69
  8
AM_0
 10
561.7315563956704
 20
163.57254707683791
 30
0.0
 11
561.7315563956704
 21
149.52186450225781
 31
0.0
  0
LINE
  5
16B6A
  8
AM_0
 10
572.84161853210219
 20
163.57254707683791
 30
0.0
 11
572.84161853210219
 21
147.62893124179209
 31
0.0
  0
LINE
  5
16B6B
  8
AM_0
 10
571.3416185321023
 20
147.88450135974699
 30
0.0
 11
571.3416185321023
 21
163.57254707683791
 31
0.0
  0
LINE
  5
16B6C
  8
AM_0
 10
569.13826448662417
 20
163.57254707683791
 30
0.0
 11
569.13826448662417
 21
148.25990899528099
 31
0.0
  0
LINE
  5
16B6D
  8
AM_0
 10
567.63826448662405
 20
148.5154791132359
 30
0.0
 11
567.63826448662405
 21
163.57254707683791
 31
0.0
  0
LINE
  5
16B6E
  8
AM_0
 10
565.43491044114728
 20
163.57254707683791
 30
0.0
 11
565.43491044114728
 21
148.89088674876891
 31
0.0
  0
LINE
  5
16B6F
  8
AM_0
 10
563.93491044114705
 20
149.146456866725
 30
0.0
 11
563.93491044114705
 21
163.57254707683791
 31
0.0
  0
LINE
  5
16B70
  8
AM_0
 10
578.74832662305721
 20
146.62254585276901
 30
0.0
 11
578.74832662305721
 21
163.57254707683791
 31
0.0
  0
LINE
  5
16B71
  8
AM_0
 10
576.5449725775793
 20
163.57254707683791
 30
0.0
 11
576.5449725775793
 21
146.9979534883029
 31
0.0
  0
LINE
  5
16B72
  8
AM_0
 10
586.1483266230573
 20
145.36173327085589
 30
0.0
 11
586.1483266230573
 21
163.5725470768391
 31
0.0
  0
LINE
  5
16B73
  8
AM_0
 10
583.94832662305726
 20
163.57254707683791
 30
0.0
 11
583.94832662305623
 21
145.73656944385701
 31
0.0
  0
LINE
  5
16B74
  8
AM_0
 10
582.44832662305726
 20
145.99213956181299
 30
0.0
 11
582.44832662305726
 21
163.57254707683791
 31
0.0
  0
LINE
  5
16B75
  8
AM_0
 10
580.24832662305721
 20
163.57254707683791
 30
0.0
 11
580.24832662305721
 21
146.36697573481391
 31
0.0
  0
LINE
  5
16B76
  8
AM_0
 10
560.2315563956704
 20
149.7774346202138
 30
0.0
 11
560.2315563956704
 21
163.57254707683791
 31
0.0
  0
LINE
  5
16B77
  8
AM_0
 10
588.14832662305719
 20
160.86117089763999
 30
0.0
 11
588.14832662305719
 21
145.02097311358199
 31
0.0
  0
LINE
  5
16B78
  8
AM_0
 10
574.54497257757623
 20
147.338713645577
 30
0.0
 11
574.54497257757623
 21
160.86117089763999
 31
0.0
  0
LINE
  5
16B79
  8
ﾁｭｳｼﾝｾﾝ1
 10
607.54497257757805
 20
163.5725620768379
 30
0.0
 11
607.54497257757805
 21
139.5725620768379
 31
0.0
  0
LINE
  5
16B7A
  8
AM_0
 10
598.24497257757832
 20
168.57254707683791
 30
0.0
 11
598.24497257757832
 21
151.57254707683791
 31
0.0
  0
CIRCLE
  5
16B7B
  8
AM_0
 10
607.54497257757805
 20
151.57254707683791
 30
0.0
 40
6.299999999999998
  0
CIRCLE
  5
16B7C
  8
AM_0
 10
593.04497257757805
 20
151.57254707683791
 30
0.0
 40
0.75
  0
LINE
  5
16B7D
  8
AM_0
 10
582.44832662305726
 20
145.99213956181299
 30
0.0
 11
580.24832662305721
 21
146.36697573481391
 31
0.0
  0
LINE
  5
16B7E
  8
AM_0
 10
586.1483266230573
 20
145.36173327085589
 30
0.0
 11
583.94832662305623
 21
145.73656944385701
 31
0.0
  0
LINE
  5
16B7F
  8
AM_0
 10
578.74832662305721
 20
146.62254585276901
 30
0.0
 11
576.5449725775793
 21
146.9979534883029
 31
0.0
  0
LINE
  5
16B80
  8
AM_0
 10
571.3416185321023
 20
147.88450135974699
 30
0.0
 11
569.13826448662417
 21
148.25990899528099
 31
0.0
  0
LINE
  5
16B81
  8
AM_0
 10
574.54497257757623
 20
147.338713645577
 30
0.0
 11
572.84161853210219
 21
147.62893124179209
 31
0.0
  0
LINE
  5
16B82
  8
AM_0
 10
552.0148210585603
 20
134.57254707683799
 30
0.0
 11
552.0148210585603
 21
146.10803767930611
 31
0.0
  0
LINE
  5
16B83
  8
AM_0
 10
560.2315563956704
 20
149.7774346202138
 30
0.0
 11
550.36984631173095
 21
151.45767355980979
 31
0.0
  0
LINE
  5
16B84
  8
AM_0
 10
567.63826448662405
 20
148.5154791132359
 30
0.0
 11
565.43491044114728
 21
148.89088674876891
 31
0.0
  0
LINE
  5
16B85
  8
AM_0
 10
563.93491044114705
 20
149.146456866725
 30
0.0
 11
561.7315563956704
 21
149.52186450225781
 31
0.0
  0
CIRCLE
  5
16B86
  8
AM_0
 10
558.54497257757805
 20
151.57254707683791
 30
0.0
 40
0.75
  0
LINE
  5
16B87
  8
AM_0
 10
551.14497257757705
 20
146.2583418495411
 30
0.0
 11
551.14497257757705
 21
150.31173449492479
 31
0.0
  0
LINE
  5
16B88
  8
AM_0
 10
541.7449725775773
 20
147.07254707683799
 30
0.0
 11
541.7449725775773
 21
137.07254707683799
 31
0.0
  0
ARC
  5
16B89
  8
AM_0
 10
544.24497257757707
 20
137.07254707683799
 30
0.0
 40
2.5
 50
180.0
 51
270.0
  0
LINE
  5
16B8A
  8
AM_0
 10
535.36984631173118
 20
151.57254707683791
 30
0.0
 11
535.36984631173118
 21
148.07254707683799
 31
0.0
  0
LINE
  5
16B8B
  8
AM_0
 10
541.2449725775773
 20
147.57254707683799
 30
0.0
 11
535.86984631173118
 21
147.57254707683799
 31
0.0
  0
ARC
  5
16B8C
  8
AM_0
 10
541.2449725775773
 20
147.07254707683799
 30
0.0
 40
0.5
 50
0.0
 51
90.0
  0
LINE
  5
16B8D
  8
AM_0
 10
541.2449725775773
 20
147.57254707683799
 30
0.0
 11
543.41927744073712
 21
147.57254707683799
 31
0.0
  0
ARC
  5
16B8E
  8
AM_0
 10
535.86984631173118
 20
148.07254707683799
 30
0.0
 40
0.5
 50
180.0
 51
270.0
  0
LINE
  5
16B8F
  8
AM_0
 10
535.36984631173118
 20
151.57254707683791
 30
0.0
 11
543.74497257757821
 21
151.57254707683791
 31
0.0
  0
LINE
  5
16B90
  8
AM_0
 10
528.80710500915734
 20
204.07254707683791
 30
0.0
 11
573.14713500915695
 21
204.07254707683791
 31
0.0
  0
LINE
  5
16B91
  8
AM_0
 10
528.80710500915734
 20
202.07254707683791
 30
0.0
 11
573.14713500915695
 21
202.07254707683791
 31
0.0
  0
LINE
  5
16B92
  8
AM_0
 10
567.63826448662405
 20
159.57254707683791
 30
0.0
 11
569.13826448662417
 21
159.57254707683791
 31
0.0
  0
LINE
  5
16B93
  8
AM_0
 10
567.63826448662405
 20
163.57254707683791
 30
0.0
 11
569.13826448662417
 21
163.57254707683791
 31
0.0
  0
LINE
  5
16B94
  8
AM_0
 10
539.64713500915695
 20
171.07254707683791
 30
0.0
 11
606.64713500915695
 21
171.07254707683791
 31
0.0
  0
LINE
  5
16B95
  8
AM_0
 10
554.24497257757821
 20
168.57254707683791
 30
0.0
 11
592.04497257757805
 21
168.57254707683791
 31
0.0
  0
LINE
  5
16B96
  8
AM_0
 10
573.14713500915695
 20
201.3525770768378
 30
0.0
 11
525.32712500915727
 21
201.3525770768378
 31
0.0
  0
LINE
  5
16B97
  8
AM_0
 10
603.14719500915714
 20
171.07251707683781
 30
0.0
 11
603.42785919649623
 21
181.79251707683781
 31
0.0
  0
LINE
  5
16B98
  8
AM_0
 10
606.64713500915695
 20
168.57254707683791
 30
0.0
 11
606.64713500915695
 21
171.07254707683791
 31
0.0
  0
LINE
  5
16B99
  8
AM_0
 10
592.04497257757805
 20
168.57254707683791
 30
0.0
 11
598.24497257757832
 21
168.57254707683791
 31
0.0
  0
LINE
  5
16B9A
  8
AM_0
 10
599.24497257757832
 20
168.57254707683791
 30
0.0
 11
598.24497257757832
 21
168.57254707683791
 31
0.0
  0
ARC
  5
16B9B
  8
AM_0
 10
604.81448481049051
 20
177.44253707683791
 30
0.0
 40
1.5
 50
90.0
 51
178.50026113613271
1001
GENIUS_GENODEF_13
1002
{
1000
HIER
1070
     0
1002
}
1002
{
1000
MANEDIT
1070
     0
1002
}
1002
{
1000
NOSEL
1070
     0
1002
}
1002
{
1000
BEHIND
1070
     0
1002
}
1002
{
1000
REACTOR
1002
}
1001
GENIUS_GENOBJ-N-FIL_13
1002
{
1000
OWNER
1000
GEN
1002
}
  0
LINE
  5
16B9C
  8
AM_0
 10
587.44832662305726
 20
163.57254707683791
 30
0.0
 11
587.44832662305726
 21
161.5285229542439
 31
0.0
  0
LINE
  5
16B9D
  8
AM_0
 10
586.1483266230573
 20
163.5725470768391
 30
0.0
 11
587.44832662305726
 21
163.57254707683791
 31
0.0
  0
LINE
  5
16B9E
  8
AM_0
 10
586.1483266230573
 20
159.57254707683791
 30
0.0
 11
588.14832662305719
 21
159.57254707683791
 31
0.0
  0
LINE
  5
16B9F
  8
AM_0
 10
587.44832662305726
 20
161.5285229542439
 30
0.0
 11
588.14832662305719
 21
160.86117089763999
 31
0.0
  0
LINE
  5
16BA0
  8
AM_0
 10
582.44832662305726
 20
159.57254707683791
 30
0.0
 11
583.94832662305726
 21
159.57254707683791
 31
0.0
  0
LINE
  5
16BA1
  8
AM_0
 10
582.44832662305726
 20
163.57254707683791
 30
0.0
 11
583.94832662305726
 21
163.57254707683791
 31
0.0
  0
LINE
  5
16BA2
  8
AM_0
 10
574.54497257757623
 20
160.86117089763999
 30
0.0
 11
575.24497257757923
 21
161.5285229542439
 31
0.0
  0
LINE
  5
16BA3
  8
AM_0
 10
574.54497257757623
 20
159.57254707683791
 30
0.0
 11
576.5449725775793
 21
159.57254707683791
 31
0.0
  0
LINE
  5
16BA4
  8
AM_0
 10
575.24497257757923
 20
161.5285229542439
 30
0.0
 11
575.24497257757923
 21
163.57254707683791
 31
0.0
  0
LINE
  5
16BA5
  8
AM_0
 10
578.74832662305721
 20
159.57254707683791
 30
0.0
 11
580.24832662305721
 21
159.57254707683791
 31
0.0
  0
LINE
  5
16BA6
  8
AM_0
 10
578.74832662305721
 20
163.57254707683791
 30
0.0
 11
580.24832662305721
 21
163.57254707683791
 31
0.0
  0
LINE
  5
16BA7
  8
AM_0
 10
575.24497257757923
 20
163.57254707683791
 30
0.0
 11
576.5449725775793
 21
163.57254707683791
 31
0.0
  0
LINE
  5
16BA8
  8
AM_0
 10
571.3416185321023
 20
159.57254707683791
 30
0.0
 11
572.84161853210219
 21
159.57254707683791
 31
0.0
  0
LINE
  5
16BA9
  8
AM_0
 10
571.3416185321023
 20
163.57254707683791
 30
0.0
 11
572.84161853210219
 21
163.57254707683791
 31
0.0
  0
ARC
  5
16BAA
  8
AM_0
 10
592.48215500915717
 20
223.062537076838
 30
0.0
 40
1.3300148000000001
 50
89.729432999998977
 51
270.27058000000142
  0
ARC
  5
16BAB
  8
AM_0
 10
593.70841500915731
 20
223.07254707683799
 30
0.0
 40
1.000005699999998
 50
89.999997000002296
 51
270.000010000001
  0
LINE
  5
16BAC
  8
AM_0
 10
523.94144500915718
 20
198.7536070768378
 30
0.0
 11
528.08719500915709
 21
183.27249707683791
 31
0.0
  0
LINE
  5
16BAD
  8
AM_0
 10
536.36984631173107
 20
168.57254707683791
 30
0.0
 11
547.04497257757816
 21
168.57254707683791
 31
0.0
  0
LINE
  5
16BAE
  8
AM_0
 10
563.93491044114705
 20
159.57254707683791
 30
0.0
 11
565.43491044114728
 21
159.57254707683791
 31
0.0
  0
LINE
  5
16BAF
  8
AM_0
 10
563.93491044114705
 20
163.57254707683791
 30
0.0
 11
565.43491044114728
 21
163.57254707683791
 31
0.0
  0
LINE
  5
16BB0
  8
AM_0
 10
560.2315563956704
 20
159.57254707683791
 30
0.0
 11
561.7315563956704
 21
159.57254707683791
 31
0.0
  0
LINE
  5
16BB1
  8
AM_0
 10
560.2315563956704
 20
163.57254707683791
 30
0.0
 11
561.7315563956704
 21
163.57254707683791
 31
0.0
  0
LINE
  5
16BB2
  8
AM_0
 10
547.04497257757816
 20
168.57254707683791
 30
0.0
 11
554.24497257757821
 21
168.57254707683791
 31
0.0
  0
LINE
  5
16BB3
  8
AM_0
 10
543.14713500915707
 20
171.07248707683789
 30
0.0
 11
542.8663958860941
 21
181.79251707683781
 31
0.0
  0
ARC
  5
16BB4
  8
AM_0
 10
541.56805432337217
 20
174.07254707683791
 30
0.0
 40
1.5
 50
1.5001349063531439
 51
90.0
1001
GENIUS_GENODEF_13
1002
{
1000
HIER
1070
     0
1002
}
1002
{
1000
MANEDIT
1070
     0
1002
}
1002
{
1000
NOSEL
1070
     0
1002
}
1002
{
1000
BEHIND
1070
     0
1002
}
1002
{
1000
REACTOR
1002
}
1001
GENIUS_GENOBJ-N-FIL_13
1002
{
1000
OWNER
1000
GEN
1002
}
  0
LINE
  5
16BB5
  8
AM_0
 10
539.64713500915695
 20
168.57254707683791
 30
0.0
 11
539.64713500915695
 21
171.07254707683791
 31
0.0
  0
ARC
  5
16BB6
  8
AM_0
 10
536.36984631173107
 20
167.57254707683791
 30
0.0
 40
1.0
 50
90.0
 51
180.0
  0
LINE
  5
16BB7
  8
AM_0
 10
541.56805432337217
 20
175.57254707683791
 30
0.0
 11
530.13095500915733
 21
175.57254707683791
 31
0.0
  0
ARC
  5
16BB8
  8
AM_0
 10
530.02195500915695
 20
183.7972770768379
 30
0.0
 40
2.0047290000000002
 50
195.17349999999811
 51
269.86167999999577
  0
ARC
  5
16BB9
  8
AM_0
 10
530.13095500915733
 20
177.07254707683791
 30
0.0
 40
1.5
 50
213.0000000000019
 51
270.000010000001
  0
LINE
  5
16BBA
  8
AM_0
 10
559.64713500915707
 20
210.57254707683791
 30
0.0
 11
559.64713500915707
 21
205.57254707683799
 31
0.0
  0
CIRCLE
  5
16BBB
  8
AM_0
 10
554.64713500915718
 20
209.57254707683799
 30
0.0
 40
1.149999999999999
  0
CIRCLE
  5
16BBC
  8
AM_0
 10
554.64713500915718
 20
209.57254707683799
 30
0.0
 40
1.1000000000000001
  0
CIRCLE
  5
16BBD
  8
AM_0
 10
549.64713500915718
 20
209.57254707683799
 30
0.0
 40
1.0
  0
LINE
  5
16BBE
  8
AM_0
 10
560.12711500915714
 20
210.57254707683791
 30
0.0
 11
560.12711500915714
 21
205.71255707683781
 31
0.0
  0
ARC
  5
16BBF
  8
AM_0
 10
561.12711500915714
 20
205.71255707683781
 30
0.0
 40
1.0
 50
179.99999931675049
 51
270.000010000001
  0
ARC
  5
16BC0
  8
AM_0
 10
561.14713500915695
 20
205.57254707683799
 30
0.0
 40
1.5
 50
179.99999931675049
 51
270.000010000001
  0
ARC
  5
16BC1
  8
AM_0
 10
561.14713500915695
 20
210.57254707683791
 30
0.0
 40
1.02
 50
89.999997000002296
 51
180.0
  0
ARC
  5
16BC2
  8
AM_0
 10
561.14713500915695
 20
210.57254707683791
 30
0.0
 40
1.5
 50
89.999997000002296
 51
180.0
  0
LINE
  5
16BC3
  8
AM_0
 10
544.16715500915734
 20
210.57254707683791
 30
0.0
 11
544.16715500915734
 21
205.71255707683781
 31
0.0
  0
LINE
  5
16BC4
  8
AM_0
 10
544.64713500915695
 20
210.57254707683791
 30
0.0
 11
544.64713500915695
 21
205.57254707683799
 31
0.0
  0
LINE
  5
16BC5
  8
AM_0
 10
525.32712500915727
 20
204.7025470768379
 30
0.0
 11
543.16715500915734
 21
204.7025470768379
 31
0.0
  0
ARC
  5
16BC6
  8
AM_0
 10
543.16715500915734
 20
205.71255707683781
 30
0.0
 40
1.0
 50
270.0
 51
0.0000100000010064
  0
ARC
  5
16BC7
  8
AM_0
 10
543.14713500915707
 20
205.57254707683799
 30
0.0
 40
1.5
 50
270.0
 51
0.0000100000010064
  0
ARC
  5
16BC8
  8
AM_0
 10
528.80710500915734
 20
203.07254707683799
 30
0.0
 40
1.0
 50
89.999997000002296
 51
270.000010000001
  0
ARC
  5
16BC9
  8
AM_0
 10
525.32712500915727
 20
203.02749707683799
 30
0.0
 40
1.6750020000000001
 50
89.999997000002296
 51
270.000010000001
  0
LINE
  5
16BCA
  8
AM_0
 10
528.81430500915735
 20
212.07254707683799
 30
0.0
 11
543.14713500915707
 21
212.07254707683799
 31
0.0
  0
LINE
  5
16BCB
  8
AM_0
 10
543.14713500915707
 20
211.5925670768379
 30
0.0
 11
525.11289500915723
 21
211.5925670768379
 31
0.0
  0
ARC
  5
16BCC
  8
AM_0
 10
543.14713500915707
 20
210.57254707683791
 30
0.0
 40
1.5
 50
359.999989999999
 51
89.999997000002296
  0
ARC
  5
16BCD
  8
AM_0
 10
543.14713500915707
 20
210.57254707683791
 30
0.0
 40
1.02
 50
359.999989999999
 51
89.999997000002296
  0
ARC
  5
16BCE
  8
AM_0
 10
528.80716500915719
 20
213.07254707683799
 30
0.0
 40
1.0000255999999981
 50
89.589469000002197
 51
270.41052999999681
  0
ARC
  5
16BCF
  8
AM_0
 10
525.10715500915705
 20
213.04251707683781
 30
0.0
 40
1.460011199999999
 50
89.77525000000314
 51
270.22475000000333
  0
LINE
  5
16BD0
  8
AM_0
 10
522.14713500915707
 20
182.07254707683799
 30
0.0
 11
514.14713500915695
 21
182.07254707683799
 31
0.0
  0
LINE
  5
16BD1
  8
AM_0
 10
522.14713500915707
 20
192.07254707683791
 30
0.0
 11
514.14713500915695
 21
192.07254707683791
 31
0.0
  0
LINE
  5
16BD2
  8
AM_0
 10
522.14713500915707
 20
206.13260707683801
 30
0.0
 11
514.14713500915695
 21
206.13260707683801
 31
0.0
  0
LINE
  5
16BD3
  8
AM_0
 10
527.60715500915705
 20
291.07254707683802
 30
0.0
 11
522.14713500915707
 21
291.07254707683802
 31
0.0
  0
ARC
  5
16BD4
  8
AM_0
 10
522.49393500915721
 20
283.40530707683803
 30
0.0
 40
1.5027759999999999
 50
270.12242000000128
 51
345.24357000000072
  0
ARC
  5
16BD5
  8
AM_0
 10
522.49393500915721
 20
280.64529707683801
 30
0.0
 40
1.5027759999999999
 50
270.12242000000128
 51
345.24357000000072
  0
ARC
  5
16BD6
  8
AM_0
 10
522.49393500915721
 20
277.79532707683802
 30
0.0
 40
1.5027759999999999
 50
270.12242000000128
 51
345.24357000000072
  0
ARC
  5
16BD7
  8
AM_0
 10
522.49393500915721
 20
282.49527707683802
 30
0.0
 40
1.5027759999999999
 50
270.12242000000128
 51
345.24357000000072
  0
LINE
  5
16BD8
  8
AM_0
 10
523.94141500915714
 20
280.24139707683798
 30
0.0
 11
528.08713500915724
 21
295.7225370768378
 31
0.0
  0
LINE
  5
16BD9
  8
AM_0
 10
523.94138500915733
 20
283.00137707683803
 30
0.0
 11
528.0871050091572
 21
298.48248707683803
 31
0.0
  0
LINE
  5
16BDA
  8
AM_0
 10
523.94141500915714
 20
282.09137707683789
 30
0.0
 11
528.08713500915724
 21
297.57248707683789
 31
0.0
  0
ARC
  5
16BDB
  8
AM_0
 10
592.42020500915714
 20
243.0825570768379
 30
0.0
 40
1.2700266
 50
89.629329999995278
 51
270.37067999999999
  0
ARC
  5
16BDC
  8
AM_0
 10
592.42020500915714
 20
233.07254707683791
 30
0.0
 40
1.2700266
 50
89.629329999995278
 51
270.37067999999999
  0
ARC
  5
16BDD
  8
AM_0
 10
592.48215500915717
 20
253.08755707683781
 30
0.0
 40
1.3350147999999999
 50
89.730443999998613
 51
270.2695700000001
  0
ARC
  5
16BDE
  8
AM_0
 10
593.70841500915731
 20
243.07254707683799
 30
0.0
 40
1.000005699999998
 50
89.999997000002296
 51
270.000010000001
  0
ARC
  5
16BDF
  8
AM_0
 10
593.70841500915731
 20
233.07254707683791
 30
0.0
 40
1.000005699999998
 50
89.999997000002296
 51
270.000010000001
  0
ARC
  5
16BE0
  8
AM_0
 10
593.70841500915731
 20
253.07254707683799
 30
0.0
 40
1.000005699999998
 50
89.999997000002296
 51
270.000010000001
  0
LINE
  5
16BE1
  8
AM_0
 10
559.64713500915707
 20
265.57254707683802
 30
0.0
 11
559.64713500915707
 21
270.57254707683791
 31
0.0
  0
LINE
  5
16BE2
  8
AM_0
 10
560.12711500915714
 20
265.57254707683802
 30
0.0
 11
560.12711500915714
 21
270.43252707683791
 31
0.0
  0
ARC
  5
16BE3
  8
AM_0
 10
561.14713500915695
 20
265.57254707683802
 30
0.0
 40
1.5
 50
179.99999931675049
 51
270.000010000001
  0
ARC
  5
16BE4
  8
AM_0
 10
561.14713500915695
 20
265.57254707683802
 30
0.0
 40
1.02
 50
179.999999316757
 51
270.000010000001
  0
ARC
  5
16BE5
  8
AM_0
 10
561.12711500915714
 20
270.43252707683791
 30
0.0
 40
1.0
 50
89.999997000002296
 51
180.0
  0
ARC
  5
16BE6
  8
AM_0
 10
561.14713500915695
 20
270.57254707683791
 30
0.0
 40
1.5
 50
89.999997000002296
 51
180.0
  0
CIRCLE
  5
16BE7
  8
AM_0
 10
554.64713500915718
 20
266.57254707683791
 30
0.0
 40
1.1000000000000001
  0
CIRCLE
  5
16BE8
  8
AM_0
 10
554.64713500915718
 20
266.57254707683791
 30
0.0
 40
1.149999999999999
  0
CIRCLE
  5
16BE9
  8
AM_0
 10
549.64713500915718
 20
266.57254707683791
 30
0.0
 40
1.0
  0
LINE
  5
16BEA
  8
AM_0
 10
523.94712500915739
 20
277.41247707683777
 30
0.0
 11
528.08713500915724
 21
292.8724970768381
 31
0.0
  0
LINE
  5
16BEB
  8
AM_0
 10
528.79996500915695
 20
264.07254707683802
 30
0.0
 11
543.14713500915707
 21
264.07254707683802
 31
0.0
  0
LINE
  5
16BEC
  8
AM_0
 10
543.16715500915734
 20
271.43252707683791
 30
0.0
 11
525.32712500915727
 21
271.43252707683791
 31
0.0
  0
LINE
  5
16BED
  8
AM_0
 10
543.14713500915707
 20
264.562537076838
 30
0.0
 11
525.10147500915696
 21
264.562537076838
 31
0.0
  0
LINE
  5
16BEE
  8
AM_0
 10
544.16715500915734
 20
265.57254707683802
 30
0.0
 11
544.16715500915734
 21
270.43252707683791
 31
0.0
  0
LINE
  5
16BEF
  8
AM_0
 10
544.64713500915695
 20
265.57254707683802
 30
0.0
 11
544.64713500915695
 21
270.57254707683791
 31
0.0
  0
ARC
  5
16BF0
  8
AM_0
 10
543.14713500915707
 20
265.57254707683802
 30
0.0
 40
1.5
 50
270.0
 51
0.0000100000010064
  0
ARC
  5
16BF1
  8
AM_0
 10
543.14713500915707
 20
265.57254707683802
 30
0.0
 40
1.02
 50
270.0
 51
0.0000100000010064
  0
ARC
  5
16BF2
  8
AM_0
 10
543.14713500915707
 20
270.57254707683791
 30
0.0
 40
1.5
 50
359.999989999999
 51
89.999997000002296
  0
ARC
  5
16BF3
  8
AM_0
 10
543.16715500915734
 20
270.43252707683791
 30
0.0
 40
1.0
 50
359.999989999999
 51
89.999997000002296
  0
ARC
  5
16BF4
  8
AM_0
 10
528.80716500915719
 20
263.07254707683802
 30
0.0
 40
1.0000255999999981
 50
89.589469000002197
 51
270.41052999999681
  0
ARC
  5
16BF5
  8
AM_0
 10
525.10715500915705
 20
263.10257707683792
 30
0.0
 40
1.460011199999999
 50
89.77525000000314
 51
270.22475000000333
  0
ARC
  5
16BF6
  8
AM_0
 10
528.80710500915734
 20
273.07254707683802
 30
0.0
 40
1.0
 50
89.999997000002296
 51
270.000010000001
  0
ARC
  5
16BF7
  8
AM_0
 10
525.32712500915727
 20
273.11758707683788
 30
0.0
 40
1.6750020000000001
 50
89.999997000002296
 51
270.000010000001
  0
ARC
  5
16BF8
  8
AM_0
 10
530.01706500915714
 20
292.35428707683792
 30
0.0
 40
1.9982919999999991
 50
89.997367999998644
 51
164.96745200000399
  0
ARC
  5
16BF9
  8
AM_0
 10
530.02195500915695
 20
297.95779707683801
 30
0.0
 40
2.0047290000000002
 50
90.138321999999846
 51
164.82650400000369
  0
ARC
  5
16BFA
  8
AM_0
 10
530.02195500915695
 20
295.19778707683781
 30
0.0
 40
2.0047290000000002
 50
90.138321999999846
 51
164.82650400000369
  0
ARC
  5
16BFB
  8
AM_0
 10
530.02195500915695
 20
297.047767076838
 30
0.0
 40
2.0047290000000002
 50
90.138321999999846
 51
164.82650400000369
  0
LINE
  5
16BFC
  8
AM_0
 10
522.14713500915707
 20
270.01248707683789
 30
0.0
 11
514.14713500915695
 21
270.01248707683789
 31
0.0
  0
LINE
  5
16BFD
  8
AM_0
 10
522.14713500915707
 20
284.07254707683802
 30
0.0
 11
514.14713500915695
 21
284.07254707683802
 31
0.0
  0
LINE
  5
16BFE
  8
AM_0
 10
522.14713500915707
 20
294.07254707683802
 30
0.0
 11
514.14713500915695
 21
294.07254707683802
 31
0.0
  0
LINE
  5
16BFF
  8
AM_0
 10
688.14713500915684
 20
539.11721915131329
 30
0.0
 11
688.14713500915684
 21
550.85720915131333
 31
0.0
  0
LINE
  5
16C00
  8
AM_0
 10
643.14713500915627
 20
503.85723515131332
 30
0.0
 11
643.14713500915627
 21
552.85724915131323
 31
0.0
  0
LINE
  5
16C01
  8
AM_0
 10
685.6471450091567
 20
471.87722315131339
 30
0.0
 11
685.64714500915636
 21
552.85724915131323
 31
0.0
  0
LINE
  5
16C02
  8
AM_0
 10
685.6471450091567
 20
455.6972151513134
 30
0.0
 11
685.6471450091567
 21
438.85723115131339
 31
0.0
  0
LINE
  5
16C03
  8
AM_0
 10
679.06712500915671
 20
492.13723115131342
 30
0.0
 11
693.52712500915675
 21
447.62722115131328
 31
0.0
  0
LINE
  5
16C04
  8
AM_0
 10
674.30717500915671
 20
490.59722315131307
 30
0.0
 11
688.76711500915656
 21
446.08722815131318
 31
0.0
  0
LINE
  5
16C05
  8
AM_0
 10
686.14712500915653
 20
438.85723115131339
 30
0.0
 11
638.14712500915653
 21
438.85723115131339
 31
0.0
  0
LINE
  5
16C06
  8
AM_0
 10
685.6471450091567
 20
451.96721915131337
 30
0.0
 11
638.14712500915653
 21
451.96721915131337
 31
0.0
  0
ARC
  5
16C07
  8
AM_0
 10
686.14940500915657
 20
440.85491315131333
 30
0.0
 40
1.9976960999999991
 50
269.93383000000301
 51
0.066170000003478
  0
ARC
  5
16C08
  8
AM_0
 10
691.14713500915661
 20
446.85723215131333
 30
0.0
 40
2.5014601500000002
 50
197.9279300000012
 51
17.927920000001439
  0
ARC
  5
16C09
  8
AM_0
 10
691.14818500915669
 20
446.8556901513133
 30
0.0
 40
3.001016099999998
 50
179.9708539990001
 51
354.86740000000231
  0
ARC
  5
16C0A
  8
AM_0
 10
694.43675500915629
 20
446.55617615131331
 30
0.0
 40
0.30119199
 50
91.824012999999795
 51
174.08517019999809
  0
LINE
  5
16C0B
  8
AM_0
 10
694.64714500915625
 20
447.3572181513133
 30
0.0
 11
694.64714500915625
 21
446.85723215131333
 31
0.0
  0
LINE
  5
16C0C
  8
AM_0
 10
694.64714500915625
 20
447.3572181513133
 30
0.0
 11
694.4270950091568
 21
447.3572181513133
 31
0.0
  0
ARC
  5
16C0D
  8
AM_0
 10
694.4352850091567
 20
446.5548801513134
 30
0.0
 40
0.8023920299999998
 50
90.582441999999901
 51
174.1091650000001
  0
LINE
  5
16C0E
  8
AM_0
 10
688.14713500915684
 20
448.00722515131332
 30
0.0
 11
688.14713500915684
 21
440.85723215131321
 31
0.0
  0
LINE
  5
16C0F
  8
AM_0
 10
643.14713500915627
 20
451.96721915131337
 30
0.0
 11
643.14713500915627
 21
438.85723115131339
 31
0.0
  0
LINE
  5
16C10
  8
AM_0
 10
685.6471450091567
 20
529.49721815131318
 30
0.0
 11
643.14713500915627
 21
529.49721815131318
 31
0.0
  0
LINE
  5
16C11
  8
AM_0
 10
685.6471450091567
 20
539.74721915131317
 30
0.0
 11
638.14712500915653
 21
539.74721915131317
 31
0.0
  0
LINE
  5
16C12
  8
AM_0
 10
688.14713500915684
 20
464.18721815131312
 30
0.0
 11
688.14713500915684
 21
530.38720415131297
 31
0.0
  0
ARC
  5
16C13
  8
AM_0
 10
688.09841500915684
 20
458.35714115131327
 30
0.0
 40
4.0507442999999981
 50
315.08765999999378
 51
80.928209000001658
  0
LINE
  5
16C14
  8
AM_0
 10
686.94713500915668
 20
530.14724315131321
 30
0.0
 11
686.94713500915668
 21
539.34722915131306
 31
0.0
  0
ARC
  5
16C15
  8
AM_0
 10
687.25145500915664
 20
533.2473891513132
 30
0.0
 40
2.9956880400000001
 50
264.1696299999968
 51
359.99636000000248
  0
LINE
  5
16C16
  8
AM_0
 10
686.94713500915668
 20
530.14724315131321
 30
0.0
 11
685.6471450091567
 21
530.14724315131321
 31
0.0
  0
ARC
  5
16C17
  8
AM_0
 10
687.24545500915644
 20
536.25041915131305
 30
0.0
 40
3.0016479
 50
359.93865000000221
 51
95.704386999996871
  0
LINE
  5
16C18
  8
AM_0
 10
686.94713500915668
 20
539.34722915131306
 30
0.0
 11
685.6471450091567
 21
539.34722915131306
 31
0.0
  0
LINE
  5
16C19
  8
AM_0
 10
690.24710500915683
 20
533.2472091513132
 30
0.0
 11
690.24710500915683
 21
536.2472091513132
 31
0.0
  0
LINE
  5
16C1A
  8
AM_0
 10
649.6471450091567
 20
493.35723515131338
 30
0.0
 11
649.6471450091567
 21
498.35720315131329
 31
0.0
  0
LINE
  5
16C1B
  8
AM_0
 10
647.14712500915653
 20
493.35723515131338
 30
0.0
 11
647.14712500915653
 21
498.35720315131329
 31
0.0
  0
LINE
  5
16C1C
  8
AM_0
 10
660.64712500915653
 20
493.35723515131338
 30
0.0
 11
660.64712500915653
 21
498.35720315131329
 31
0.0
  0
LINE
  5
16C1D
  8
ﾁｭｳｼﾝｾﾝ1
 10
655.14713500915673
 20
483.64522315131308
 30
0.0
 11
655.14713500915673
 21
508.0652191513131
 31
0.0
  0
ARC
  5
16C1E
  8
AM_0
 10
670.49936500915692
 20
489.3601341513131
 30
0.0
 40
8.9970875999999969
 50
17.978799999997239
 51
90.014225000001446
  0
ARC
  5
16C1F
  8
AM_0
 10
655.1495650091565
 20
495.85479215131329
 30
0.0
 40
7.9975721999999996
 50
269.98269000000079
 51
341.80265000000122
  0
LINE
  5
16C20
  8
AM_0
 10
670.49717500915654
 20
493.35723515131338
 30
0.0
 11
660.64712500915653
 21
493.35723515131338
 31
0.0
  0
ARC
  5
16C21
  8
AM_0
 10
670.50389500915662
 20
489.3568371513133
 30
0.0
 40
4.0003919999999971
 50
18.063209999999849
 51
90.096945000002066
  0
LINE
  5
16C22
  8
AM_0
 10
649.6471450091567
 20
493.35723515131338
 30
0.0
 11
647.14712500915653
 21
493.35723515131338
 31
0.0
  0
LINE
  5
16C23
  8
AM_0
 10
655.14713500915673
 20
487.85720315131312
 30
0.0
 11
638.14712500915653
 21
487.85720315131312
 31
0.0
  0
LINE
  5
16C24
  8
AM_0
 10
660.64712500915653
 20
493.85720315131329
 30
0.0
 11
649.6471450091567
 21
493.85720315131329
 31
0.0
  0
ARC
  5
16C25
  8
AM_0
 10
655.14713500915673
 20
495.85522115131329
 30
0.0
 40
4.9968401999999976
 50
203.56897999999919
 51
336.4310200000009
  0
LINE
  5
16C26
  8
AM_0
 10
670.49717500915654
 20
498.35720315131329
 30
0.0
 11
660.64712500915653
 21
498.35720315131329
 31
0.0
  0
ARC
  5
16C27
  8
AM_0
 10
655.14761500915665
 20
495.85702115131329
 30
0.0
 40
8.000195699999999
 50
18.210970000003979
 51
90.003699000002285
  0
LINE
  5
16C28
  8
AM_0
 10
649.6471450091567
 20
498.35720315131329
 30
0.0
 11
647.14712500915653
 21
498.35720315131329
 31
0.0
  0
LINE
  5
16C29
  8
AM_0
 10
655.14713500915673
 20
503.85723515131332
 30
0.0
 11
638.14712500915653
 21
503.85723515131332
 31
0.0
  0
LINE
  5
16C2A
  8
AM_0
 10
660.64712500915653
 20
497.85723515131332
 30
0.0
 11
649.6471450091567
 21
497.85723515131332
 31
0.0
  0
ARC
  5
16C2B
  8
AM_0
 10
655.14713500915673
 20
495.85522115131329
 30
0.0
 40
4.998440399999998
 50
23.610999999994529
 51
156.3890009999989
  0
LINE
  5
16C2C
  8
AM_0
 10
686.14712500915653
 20
552.85724915131323
 30
0.0
 11
638.14712500915653
 21
552.85724915131323
 31
0.0
  0
ARC
  5
16C2D
  8
AM_0
 10
686.1476350091566
 20
550.85771915131318
 30
0.0
 40
1.9994960399999999
 50
359.98554000000013
 51
90.014457000002096
  0
LINE
  5
16C2E
  8
AM_0
 10
638.14712500915653
 20
552.85724915131323
 30
0.0
 11
638.14712500915653
 21
438.85723115131339
 31
0.0
  0
TEXT
  5
16D56
  8
AM_0
 10
68.540979325977787
 20
489.44647366543808
 30
0.0
 40
10.0
  1
VC01-007FBR~VC01-060FBR
1001
ACAD
1000
MTEXTBEGIN
1070
    73
1070
     1
1070
    44
1040
1.0
1070
    74
1070
     0
1000
MTEXTEND
  0
VIEWPORT
  5
89
 67
     1
  8
0
 10
210.0
 20
148.5
 30
0.0
 40
420.0
 41
297.0
 68
     1
 69
     1
1001
ACAD
1000
MVIEW
1002
{
1070
    16
1010
0.0
1020
0.0
1030
0.0
1010
0.0
1020
0.0
1030
1.0
1040
0.0
1040
297.0
1040
221.70154043645701
1040
148.5
1040
50.0
1040
0.0
1040
0.0
1070
     0
1070
   100
1070
     1
1070
     1
1070
     0
1070
     0
1070
     0
1070
     0
1040
0.0
1040
0.0
1040
0.0
1040
10.0
1040
10.0
1040
10.0
1040
10.0
1070
     0
1002
{
1002
}
1002
}
1001
GENIUS_GENOREF_13
1005
1B94
1001
GENIUS_GENSCREG_15
1000
PF
1040
1.0
1000
DF
1040
1.0
1000
MIN
1011
0.0
1021
0.0
1031
0.0
1021
0.0
1031
0.0
1000
MAX
1011
420.0
1021
0.0
1031
0.0
1021
297.0
1031
0.0
1000
FLAGS
1070
     4
  0
ENDSEC
  0
EOF
