  0
SECTION
  2
HEADER
  9
$ACADVER
  1
AC1009
  9
$INSBASE
 10
0.0
 20
0.0
 30
0.0
  9
$EXTMIN
 10
93.872499655085207
 20
150.32391917121211
 30
-0.0015258207003583
  9
$EXTMAX
 10
746.66924472172877
 20
603.56116731088514
 30
0.0000000349246037
  9
$LIMMIN
 10
0.0
 20
0.0
  9
$LIMMAX
 10
853.5
 20
555.00000000000011
  9
$ORTHOMODE
 70
     0
  9
$REGENMODE
 70
     1
  9
$FILLMODE
 70
     1
  9
$QTEXTMODE
 70
     0
  9
$MIRRTEXT
 70
     1
  9
$DRAGMODE
 70
     2
  9
$LTSCALE
 40
3.0
  9
$OSMODE
 70
   551
  9
$ATTMODE
 70
     1
  9
$TEXTSIZE
 40
2.5
  9
$TRACEWID
 40
1.0
  9
$TEXTSTYLE
  7
STANDARD
  9
$CLAYER
  8
AM_0
  9
$CELTYPE
  6
BYLAYER
  9
$CECOLOR
 62
   256
  9
$DIMSCALE
 40
3.0
  9
$DIMASZ
 40
2.5
  9
$DIMEXO
 40
1.0
  9
$DIMDLI
 40
7.0
  9
$DIMRND
 40
0.0
  9
$DIMDLE
 40
0.0
  9
$DIMEXE
 40
1.0
  9
$DIMTP
 40
0.1
  9
$DIMTM
 40
0.1000000001
  9
$DIMTXT
 40
2.5
  9
$DIMCEN
 40
0.0
  9
$DIMTSZ
 40
0.0
  9
$DIMTOL
 70
     0
  9
$DIMLIM
 70
     0
  9
$DIMTIH
 70
     0
  9
$DIMTOH
 70
     0
  9
$DIMSE1
 70
     0
  9
$DIMSE2
 70
     0
  9
$DIMTAD
 70
     3
  9
$DIMZIN
 70
     8
  9
$DIMBLK
  1

  9
$DIMASO
 70
     1
  9
$DIMSHO
 70
     1
  9
$DIMPOST
  1

  9
$DIMAPOST
  1
"
  9
$DIMALT
 70
     0
  9
$DIMALTD
 70
     2
  9
$DIMALTF
 40
0.0393701
  9
$DIMLFAC
 40
1.0
  9
$DIMTOFL
 70
     1
  9
$DIMTVP
 40
0.0
  9
$DIMTIX
 70
     0
  9
$DIMSOXD
 70
     0
  9
$DIMSAH
 70
     0
  9
$DIMBLK1
  1

  9
$DIMBLK2
  1

  9
$DIMSTYLE
  2
AM_JIS
  9
$DIMCLRD
 70
   256
  9
$DIMCLRE
 70
   256
  9
$DIMCLRT
 70
     4
  9
$DIMTFAC
 40
0.71
  9
$DIMGAP
 40
1.0
  9
$LUNITS
 70
     2
  9
$LUPREC
 70
     2
  9
$SKETCHINC
 40
1.0
  9
$FILLETRAD
 40
7.5
  9
$AUNITS
 70
     0
  9
$AUPREC
 70
     3
  9
$MENU
  1
.
  9
$ELEVATION
 40
0.0
  9
$PELEVATION
 40
0.0
  9
$THICKNESS
 40
0.0
  9
$LIMCHECK
 70
     0
  9
$BLIPMODE
 70
     0
  9
$CHAMFERA
 40
7.5
  9
$CHAMFERB
 40
7.5
  9
$SKPOLY
 70
     0
  9
$TDCREATE
 40
2452753.643349607
  9
$TDUPDATE
 40
2458543.5389085878
  9
$TDINDWG
 40
0.2839116435
  9
$TDUSRTIMER
 40
0.2839114468
  9
$USRTIMER
 70
     1
  9
$ANGBASE
 50
0.0
  9
$ANGDIR
 70
     0
  9
$PDMODE
 70
     0
  9
$PDSIZE
 40
0.0
  9
$PLINEWID
 40
0.0
  9
$COORDS
 70
     1
  9
$SPLFRAME
 70
     0
  9
$SPLINETYPE
 70
     6
  9
$SPLINESEGS
 70
     8
  9
$ATTDIA
 70
     1
  9
$ATTREQ
 70
     1
  9
$HANDLING
 70
     1
  9
$HANDSEED
  5
17735
  9
$SURFTAB1
 70
     6
  9
$SURFTAB2
 70
     6
  9
$SURFTYPE
 70
     6
  9
$SURFU
 70
     6
  9
$SURFV
 70
     6
  9
$UCSNAME
  2

  9
$UCSORG
 10
0.0
 20
0.0
 30
0.0
  9
$UCSXDIR
 10
1.0
 20
0.0
 30
0.0
  9
$UCSYDIR
 10
0.0
 20
1.0
 30
0.0
  9
$PUCSNAME
  2

  9
$PUCSORG
 10
0.0
 20
0.0
 30
0.0
  9
$PUCSXDIR
 10
1.0
 20
0.0
 30
0.0
  9
$PUCSYDIR
 10
0.0
 20
1.0
 30
0.0
  9
$USERI1
 70
     0
  9
$USERI2
 70
     0
  9
$USERI3
 70
     0
  9
$USERI4
 70
     0
  9
$USERI5
 70
     0
  9
$USERR1
 40
0.0
  9
$USERR2
 40
0.0
  9
$USERR3
 40
0.0
  9
$USERR4
 40
0.0
  9
$USERR5
 40
0.0
  9
$WORLDVIEW
 70
     1
  9
$SHADEDGE
 70
     3
  9
$SHADEDIF
 70
    70
  9
$TILEMODE
 70
     1
  9
$MAXACTVP
 70
    48
  9
$PLIMCHECK
 70
     0
  9
$PEXTMIN
 10
1.0000000000000000E+020
 20
1.0000000000000000E+020
 30
1.0000000000000000E+020
  9
$PEXTMAX
 10
-1.0000000000000000E+020
 20
-1.0000000000000000E+020
 30
-1.0000000000000000E+020
  9
$PLIMMIN
 10
0.0
 20
0.0
  9
$PLIMMAX
 10
420.0
 20
297.0
  9
$UNITMODE
 70
     0
  9
$VISRETAIN
 70
     1
  9
$PLINEGEN
 70
     0
  9
$PSLTSCALE
 70
     1
  0
ENDSEC
  0
SECTION
  2
TABLES
  0
TABLE
  2
VPORT
 70
     1
  0
VPORT
  2
*ACTIVE
 70
     0
 10
0.0
 20
0.0
 11
1.0
 21
1.0
 12
420.270872188407
 22
376.94254324104861
 13
0.0
 23
0.0
 14
7.5
 24
7.5
 15
30.0
 25
30.0
 16
0.0
 26
0.0
 36
1.0
 17
0.0
 27
0.0
 37
0.0
 40
456.34871666237098
 41
1.7571592210767459
 42
50.0
 43
0.0
 44
0.0
 50
0.0
 51
0.0
 71
    16
 72
   100
 73
     1
 74
     1
 75
     0
 76
     0
 77
     0
 78
     0
  0
ENDTAB
  0
TABLE
  2
LTYPE
 70
    21
  0
LTYPE
  2
CONTINUOUS
 70
     0
  3
Solid line
 72
    65
 73
     0
 40
0.0
  0
LTYPE
  2
PHANTOM2
 70
     0
  3
Phantom (.5x) ___ _ _ ___ _ _ ___ _ _ ___ _ _
 72
    65
 73
     6
 40
31.75
 49
15.875
 49
-3.174999999999998
 49
3.174999999999998
 49
-3.174999999999998
 49
3.174999999999998
 49
-3.174999999999998
  0
LTYPE
  2
CENTER
 70
     0
  3
Center ____ _ ____ _ ____ _ ____ _ ____ _ ____
 72
    65
 73
     4
 40
50.799999999999997
 49
31.75
 49
-6.3499999999999979
 49
6.3499999999999979
 49
-6.3499999999999979
  0
LTYPE
  2
ACANSTGBM
 70
     0
  3
__ . . __ . .
 72
    65
 73
     6
 40
9.0
 49
4.0
 49
-1.0
 49
1.0
 49
-1.0
 49
1.0
 49
-1.0
  0
LTYPE
  2
ACANSTGLM
 70
     0
  3
_ _ _ _ _
 72
    65
 73
     2
 40
3.0
 49
2.0
 49
-1.0
  0
LTYPE
  2
GEN3B
 70
     0
  3
 - - - - -
 72
    65
 73
     2
 40
1.0
 49
0.5
 49
-0.5
  0
LTYPE
  2
GEN7A
 70
     0
  3
__ . __ . __
 72
    65
 73
     4
 40
7.375
 49
4.75
 49
-0.875
 49
0.875
 49
-0.875
  0
LTYPE
  2
AM_ISO02W050
 70
     0
  3
__ __ __ __ __ __ __ __ __ __ __ __ __ __ __
 72
    65
 73
     2
 40
7.5
 49
6.0
 49
-1.5
  0
LTYPE
  2
AM_ISO08W050
 70
     0
  3
____ . ____ . ____ . ____ . ____ . ____ . ____
 72
    65
 73
     4
 40
18.0
 49
12.0
 49
-1.5
 49
3.0
 49
-1.5
  0
LTYPE
  2
AM_ISO09W050
 70
     0
  3
_____ . . _____ . . _____ . . ____ .. ____
 72
    65
 73
     6
 40
22.5
 49
12.0
 49
-1.5
 49
3.0
 49
-1.5
 49
3.0
 49
-1.5
  0
LTYPE
  2
AMCONSTR
 70
     0
  3
_______________________
 72
    65
 73
     2
 40
9999.0
 49
9999.0
 49
0.0
  0
LTYPE
  2
AM_ISO02W050X2
 70
     0
  3
 _ _ _ _ _ _ _ _ _ _ _ _
 72
    65
 73
     2
 40
3.75
 49
3.0
 49
-0.75
  0
LTYPE
  2
AM_ISO08W050X2
 70
     0
  3
__ . __ . __ . __ . __ . __
 72
    65
 73
     4
 40
9.0
 49
6.0
 49
-0.75
 49
1.5
 49
-0.75
  0
LTYPE
  2
AMZIGZAG
 70
     0
  3
/\/-/\/-/\/-/\/-/\/-/\/
 72
    65
 73
     2
 40
11.0001
 49
0.0001
 49
-11.0
  0
LTYPE
  2
ACJISTGB
 70
     0
  3
__ . . __ . .
 72
    65
 73
     6
 40
9.0
 49
4.0
 49
-1.0
 49
1.0
 49
-1.0
 49
1.0
 49
-1.0
  0
LTYPE
  2
ACJISTGL
 70
     0
  3
_ _ _ _ _
 72
    65
 73
     2
 40
3.0
 49
2.0
 49
-1.0
  0
LTYPE
  2
ACISOWELD
 70
     0
  3
_ _ _ _ _
 72
    65
 73
     2
 40
2.0
 49
2.0
 49
-1.0
  0
LTYPE
  2
ACISOTGB
 70
     0
  3
__ . . __ . .
 72
    65
 73
     6
 40
9.0
 49
4.0
 49
-1.0
 49
1.0
 49
-1.0
 49
1.0
 49
-1.0
  0
LTYPE
  2
ACISOTGL
 70
     0
  3
_ _ _ _ _
 72
    65
 73
     2
 40
3.0
 49
2.0
 49
-1.0
  0
LTYPE
  2
HIDDEN
 70
     0
  3
Hidden __ __ __ __ __ __ __ __ __ __ __ __ __ _
 72
    65
 73
     2
 40
9.5249999999999968
 49
6.3499999999999979
 49
-3.174999999999998
  0
ENDTAB
  0
TABLE
  2
LAYER
 70
     9
  0
LAYER
  2
0
 70
     0
 62
     7
  6
CONTINUOUS
  0
LAYER
  2
ｽﾝﾎﾟｳｾﾝ
 70
     0
 62
     2
  6
CONTINUOUS
  0
LAYER
  2
DEFPOINTS
 70
     0
 62
     7
  6
CONTINUOUS
  0
LAYER
  2
ｷｲﾛ
 70
     0
 62
     2
  6
CONTINUOUS
  0
LAYER
  2
ｶｸﾚｾﾝ2
 70
     0
 62
     3
  6
GEN3B
  0
LAYER
  2
ﾁｭｳｼﾝｾﾝ1
 70
     0
 62
     1
  6
GEN7A
  0
LAYER
  2
AM_0
 70
     0
 62
     7
  6
CONTINUOUS
  0
LAYER
  2
AM_0N
 70
     0
 62
     7
  6
CONTINUOUS
  0
LAYER
  2
AM_5
 70
     0
 62
     2
  6
CONTINUOUS
  0
ENDTAB
  0
TABLE
  2
STYLE
 70
     8
  0
STYLE
  2
STANDARD
 70
     0
 40
0.0
 41
0.8299999999999999
 50
0.0
 71
     0
 42
2.5
  3
txt.shx
  4
bigfont.shx
  0
STYLE
  2
ACANSTS
 70
     0
 40
1.0
 41
1.0
 50
0.0
 71
     0
 42
2.5
  3
romans.shx
  4
bigfont.shx
  0
STYLE
  2
ACANSGDT
 70
     0
 40
0.0
 41
1.0
 50
0.0
 71
     0
 42
2.5
  3
amgdtans.shx
  4

  0
STYLE
  2

 70
     1
 40
0.0
 41
1.0
 50
0.0
 71
     0
 42
2.5
  3
ltypeshp.shx
  4

  0
STYLE
  2
ACJISTS
 70
     0
 40
1.0
 41
1.0
 50
0.0
 71
     0
 42
2.5
  3
isocp.shx
  4
bigfont.shx
  0
STYLE
  2
ACJISGDT
 70
     0
 40
0.0
 41
1.0
 50
0.0
 71
     0
 42
2.5
  3
amgdt.shx
  4

  0
STYLE
  2
ACISOTS
 70
     0
 40
3.0
 41
1.0
 50
0.0
 71
     0
 42
2.5
  3
isocp.shx
  4
extfont.shx
  0
STYLE
  2
ACISOGDT
 70
     0
 40
0.0
 41
1.0
 50
0.0
 71
     0
 42
2.5
  3
amgdt.shx
  4

  0
ENDTAB
  0
TABLE
  2
VIEW
 70
    12
  0
VIEW
  2
GEN1
 70
     0
 40
95.824742268041234
 10
71.5
 20
137.08762886597941
 41
143.0
 11
0.0
 21
0.0
 31
1.0
 12
0.0
 22
0.0
 32
0.0
 42
50.0
 43
0.0
 44
0.0
 50
0.0
 71
     0
  0
VIEW
  2
GEN2
 70
     0
 40
95.824742268041234
 10
214.5
 20
137.08762886597941
 41
143.0
 11
0.0
 21
0.0
 31
1.0
 12
0.0
 22
0.0
 32
0.0
 42
50.0
 43
0.0
 44
0.0
 50
0.0
 71
     0
  0
VIEW
  2
GEN3
 70
     0
 40
95.824742268041234
 10
71.5
 20
47.912371134020603
 41
143.0
 11
0.0
 21
0.0
 31
1.0
 12
0.0
 22
0.0
 32
0.0
 42
50.0
 43
0.0
 44
0.0
 50
0.0
 71
     0
  0
VIEW
  2
GEN4
 70
     0
 40
95.824742268041234
 10
214.5
 20
47.912371134020603
 41
143.0
 11
0.0
 21
0.0
 31
1.0
 12
0.0
 22
0.0
 32
0.0
 42
50.0
 43
0.0
 44
0.0
 50
0.0
 71
     0
  0
VIEW
  2
GEN5
 70
     0
 40
95.824742268041234
 10
143.0
 20
92.500000000000057
 41
143.0
 11
0.0
 21
0.0
 31
1.0
 12
0.0
 22
0.0
 32
0.0
 42
50.0
 43
0.0
 44
0.0
 50
0.0
 71
     0
  0
VIEW
  2
GEN6
 70
     0
 40
191.64756804123709
 10
143.0
 20
92.5
 41
285.99714
 11
0.0
 21
0.0
 31
1.0
 12
0.0
 22
0.0
 32
0.0
 42
50.0
 43
0.0
 44
0.0
 50
0.0
 71
     0
  0
VIEW
  2
AM_VIEW1
 70
     0
 40
277.50000000000011
 10
249.64779005524869
 20
416.25000000000011
 41
499.29558011049721
 11
0.0
 21
0.0
 31
1.0
 12
0.0
 22
0.0
 32
0.0
 42
50.0
 43
0.0
 44
0.0
 50
0.0
 71
    16
  0
VIEW
  2
AM_VIEW2
 70
     0
 40
277.50000000000011
 10
603.85220994475117
 20
416.25000000000011
 41
499.29558011049721
 11
0.0
 21
0.0
 31
1.0
 12
0.0
 22
0.0
 32
0.0
 42
50.0
 43
0.0
 44
0.0
 50
0.0
 71
    16
  0
VIEW
  2
AM_VIEW3
 70
     0
 40
277.50000000000011
 10
249.64779005524869
 20
138.75
 41
499.29558011049721
 11
0.0
 21
0.0
 31
1.0
 12
0.0
 22
0.0
 32
0.0
 42
50.0
 43
0.0
 44
0.0
 50
0.0
 71
    16
  0
VIEW
  2
AM_VIEW4
 70
     0
 40
277.50000000000011
 10
603.85220994475117
 20
138.75
 41
499.29558011049721
 11
0.0
 21
0.0
 31
1.0
 12
0.0
 22
0.0
 32
0.0
 42
50.0
 43
0.0
 44
0.0
 50
0.0
 71
    16
  0
VIEW
  2
AM_VIEW5
 70
     0
 40
277.50000000000011
 10
426.75
 20
277.50000000000011
 41
499.2955801104971
 11
0.0
 21
0.0
 31
1.0
 12
0.0
 22
0.0
 32
0.0
 42
50.0
 43
0.0
 44
0.0
 50
0.0
 71
    16
  0
VIEW
  2
AM_VIEW6
 70
     0
 40
554.99445000000014
 10
426.75
 20
277.5
 41
998.5811743093924
 11
0.0
 21
0.0
 31
1.0
 12
0.0
 22
0.0
 32
0.0
 42
50.0
 43
0.0
 44
0.0
 50
0.0
 71
    16
  0
ENDTAB
  0
TABLE
  2
UCS
 70
     0
  0
ENDTAB
  0
TABLE
  2
APPID
 70
    96
  0
APPID
  2
ACAD
 70
     0
  0
APPID
  2
MCAD_NO_VIS
 70
     0
  0
APPID
  2
ACAD_TEMP_GRAPHIC
 70
     0
  0
APPID
  2
AD_DRAW
 70
     0
  0
APPID
  2
DESIGNERASSEMBLIES
 70
     0
  0
APPID
  2
ASURF_PCURVE_APPNAME
 70
     0
  0
APPID
  2
GENIUS_GE3SECT_13
 70
     0
  0
APPID
  2
GENIUS_GENCFG_13
 70
     0
  0
APPID
  2
GENIUS_GE3CFG0_13
 70
     0
  0
APPID
  2
GENIUS_GENCFG0_13
 70
     0
  0
APPID
  2
GENIUS_GENCFG1_13
 70
     0
  0
APPID
  2
GENIUS_GENCFG2_13
 70
     0
  0
APPID
  2
GENIUS_GENCFG3_13
 70
     0
  0
APPID
  2
GENIUS_GENCFG4_13
 70
     0
  0
APPID
  2
GENIUS_GEVCFG0_13
 70
     0
  0
APPID
  2
GENIUS_GENOENT_13
 70
     0
  0
APPID
  2
GENIUS_GENREC_14
 70
     0
  0
APPID
  2
GENIUS_GENODEF_13
 70
     0
  0
APPID
  2
GENIUS_GENOBJ-N-REC_13
 70
     0
  0
APPID
  2
GENIUS_GENHINW_13
 70
     0
  0
APPID
  2
GENIUS_FIRSTVISTXT_14
 70
     0
  0
APPID
  2
GENIUS_GENOBJ-N-LEADER_13
 70
     0
  0
APPID
  2
GENIUS_GENOREF_13
 70
     0
  0
APPID
  2
GENIUS_GENOLIS_13
 70
     0
  0
APPID
  2
GEV_VCCNULL_SWITCH_OFF
 70
     0
  0
APPID
  2
GENIUS_GENDTOL_13
 70
     0
  0
APPID
  2
GENIUS_GEFCFG0_13
 70
     0
  0
APPID
  2
GENIUS_GENOBJ-N-TIT_13
 70
     0
  0
APPID
  2
GENIUS_GENTITLE_13
 70
     0
  0
APPID
  2
GENIUS_GENZVEED_13
 70
     0
  0
APPID
  2
GENIUS_GENOBJ-N-SDF_13
 70
     0
  0
APPID
  2
GENIUS_GENSCREG_13
 70
     0
  0
APPID
  2
GENIUS_DUMCFG0_13
 70
     0
  0
APPID
  2
GEVID936201362
 70
     0
  0
APPID
  2
GEVDC
 70
     0
  0
APPID
  2
GEVCON
 70
     0
  0
APPID
  2
VCC
 70
     0
  0
APPID
  2
GEVPT
 70
     0
  0
APPID
  2
GEVIT
 70
     0
  0
APPID
  2
GENBH
 70
     0
  0
APPID
  2
GEVMK
 70
     0
  0
APPID
  2
GENIUS_GENBH_13
 70
     0
  0
APPID
  2
GENIUS_GENOBJ-NBEHI-BHF_13
 70
     0
  0
APPID
  2
GENIUS_GENOBJ-NBEHI-BHB_13
 70
     0
  0
APPID
  2
GENIUS_GENOBJ-F-DESC_13
 70
     0
  0
APPID
  2
GENIUS_GEFDESC_14
 70
     0
  0
APPID
  2
GENIUS_GENOBJ-F-PART_13
 70
     0
  0
APPID
  2
GENIUS_GEFSTDP_13
 70
     0
  0
APPID
  2
GENIUS_GEFPARTINS_13
 70
     0
  0
APPID
  2
GENIUS_GENTRA_14
 70
     0
  0
APPID
  2
GENIUS_GENINF13_13
 70
     0
  0
APPID
  2
GENIUS_GENOBJ-N-INFOPT_13
 70
     0
  0
APPID
  2
GENIUS_GENOBJ-N-RSSYM_13
 70
     0
  0
APPID
  2
GENIUS_GENSYMENT_13
 70
     0
  0
APPID
  2
GENIUS_GENSCSYM_13
 70
     0
  0
APPID
  2
GENIUS_GEFINFNAM_13
 70
     0
  0
APPID
  2
GENIUS_GENSCREG_15
 70
     0
  0
APPID
  2
GENIUS_GENOBJ-N-CEN_13
 70
     0
  0
APPID
  2
GENIUS_GENOBJ-N-CRS_13
 70
     0
  0
APPID
  2
GENIUS_GENOBJ-N-CRC_13
 70
     0
  0
APPID
  2
GENIUS_GENCRC_14
 70
     0
  0
APPID
  2
GEVID942827039
 70
     0
  0
APPID
  2
GEVID942827040
 70
     0
  0
APPID
  2
GEVID942827041
 70
     0
  0
APPID
  2
GENIUS_GENOBJ-F-SCPASSM_13
 70
     0
  0
APPID
  2
GENIUS_GENDIMSH_14
 70
     0
  0
APPID
  2
GENIUS_GENFIL_13
 70
     0
  0
APPID
  2
GENIUS_GENOBJ-N-CHA_13
 70
     0
  0
APPID
  2
GENIUS_GENOBJ-N-FIL_13
 70
     0
  0
APPID
  2
GEVID942827042
 70
     0
  0
APPID
  2
GEVID946020473
 70
     0
  0
APPID
  2
GEVID946020474
 70
     0
  0
APPID
  2
GEVID946020475
 70
     0
  0
APPID
  2
GENIUS_GENOBJ-N-HTC_13
 70
     0
  0
APPID
  2
GENIUS_GENHATCH_13
 70
     0
  0
APPID
  2
GEVID948854295
 70
     0
  0
APPID
  2
GEVID939402019
 70
     0
  0
APPID
  2
GEVID952919491
 70
     0
  0
APPID
  2
GEVID952919492
 70
     0
  0
APPID
  2
GENIUS_GEFWELD_13
 70
     0
  0
APPID
  2
GENIUS_GENOBJ-F-WELS_13
 70
     0
  0
APPID
  2
GEVID952919493
 70
     0
  0
APPID
  2
GENIUS_GENOBJ-N-RSBK_13
 70
     0
  0
APPID
  2
GENIUS_GENOBJ-N-LIB_13
 70
     0
  0
APPID
  2
GENIUS_GENSCALE_13
 70
     0
  0
APPID
  2
GEVID986376691
 70
     0
  0
APPID
  2
ACATTRIBSERVICES
 70
     0
  0
APPID
  2
DCO15
 70
     0
  0
APPID
  2
ACADM_DIM_EDIT
 70
     0
  0
APPID
  2
AMDT_DM_ADJ
 70
     0
  0
APPID
  2
ACAD_MLEADERVER
 70
     0
  0
APPID
  2
ACAD_DSTYLE_DIMBREAK
 70
     0
  0
APPID
  2
ACAD_DSTYLE_DIMJAG
 70
     0
  0
APPID
  2
ACAD_NAV_VCDISPLAY
 70
     0
  0
APPID
  2
ACADANNOPO
 70
     0
  0
APPID
  2
ACAD_EXEMPT_FROM_CAD_STANDARDS
 70
     0
  0
ENDTAB
  0
TABLE
  2
DIMSTYLE
 70
    15
  0
DIMSTYLE
  2
STANDARD
 70
     0
  3

  4

  5

  6

  7

 40
1.0
 41
0.18
 42
0.0625
 43
0.38
 44
0.18
 45
0.0
 46
0.0
 47
0.0
 48
0.0
140
0.18
141
0.09
142
0.0
143
25.399999999999999
144
1.0
145
0.0
146
1.0
147
0.09
 71
     0
 72
     0
 73
     1
 74
     1
 75
     0
 76
     0
 77
     0
 78
     0
170
     0
171
     2
172
     0
173
     0
174
     0
175
     0
176
     0
177
     0
178
     0
  0
DIMSTYLE
  2
AM_JIS
 70
     0
  3

  4
"
  5

  6

  7

 40
1.0
 41
2.5
 42
1.0
 43
7.0
 44
1.0
 45
0.0
 46
0.0
 47
0.1
 48
0.1000000001
140
2.5
141
0.0
142
0.0
143
0.0393701
144
1.0
145
0.0
146
0.71
147
1.0
 71
     0
 72
     0
 73
     0
 74
     0
 75
     0
 76
     0
 77
     3
 78
     8
170
     0
171
     2
172
     1
173
     0
174
     0
175
     0
176
   256
177
   256
178
     4
  0
DIMSTYLE
  2
AM_JIS$3
 70
     0
  3

  4
"
  5

  6

  7

 40
1.0
 41
2.5
 42
1.0
 43
7.0
 44
1.0
 45
0.0
 46
0.0
 47
0.1
 48
0.1000000001
140
2.5
141
0.0
142
0.0
143
0.0393701
144
1.0
145
0.0
146
0.71
147
1.0
 71
     0
 72
     0
 73
     0
 74
     1
 75
     0
 76
     0
 77
     3
 78
     8
170
     0
171
     2
172
     0
173
     0
174
     0
175
     0
176
   256
177
   256
178
     4
  0
DIMSTYLE
  2
AM_JIS$4
 70
     0
  3

  4
"
  5

  6

  7

 40
1.0
 41
2.5
 42
1.0
 43
7.0
 44
1.0
 45
0.0
 46
0.0
 47
0.1
 48
0.1000000001
140
2.5
141
0.0
142
0.0
143
0.0393701
144
1.0
145
0.0
146
0.71
147
1.0
 71
     0
 72
     0
 73
     0
 74
     0
 75
     0
 76
     0
 77
     3
 78
     8
170
     0
171
     2
172
     0
173
     0
174
     0
175
     0
176
   256
177
   256
178
     4
  0
DIMSTYLE
  2
AM_JIS$6
 70
     0
  3

  4
"
  5

  6

  7

 40
1.0
 41
2.5
 42
1.0
 43
7.0
 44
1.0
 45
0.0
 46
0.0
 47
0.1
 48
0.1000000001
140
2.5
141
0.0
142
0.0
143
0.0393701
144
1.0
145
0.0
146
0.71
147
1.0
 71
     0
 72
     0
 73
     0
 74
     0
 75
     0
 76
     0
 77
     0
 78
     8
170
     0
171
     2
172
     1
173
     0
174
     0
175
     0
176
   256
177
   256
178
     4
  0
DIMSTYLE
  2
AM_JIS$7
 70
     0
  3

  4
"
  5

  6

  7

 40
1.0
 41
2.5
 42
1.0
 43
7.0
 44
1.0
 45
0.0
 46
0.0
 47
0.1
 48
0.1000000001
140
2.5
141
0.0
142
0.0
143
0.0393701
144
1.0
145
0.0
146
0.71
147
1.0
 71
     0
 72
     0
 73
     0
 74
     0
 75
     0
 76
     0
 77
     3
 78
     8
170
     0
171
     2
172
     1
173
     0
174
     0
175
     0
176
   256
177
   256
178
     4
  0
DIMSTYLE
  2
AM_JIS$SF
 70
     0
  3

  4
"
  5
OPEN30
  6
OPEN30
  7
OPEN30
 40
1.0
 41
2.5
 42
1.0
 43
10.0
 44
1.0
 45
0.0
 46
0.0
 47
0.1
 48
0.1
140
3.5
141
0.0
142
0.0
143
0.0393701
144
1.0
145
0.0
146
0.71
147
1.5
 71
     0
 72
     0
 73
     0
 74
     0
 75
     1
 76
     1
 77
     3
 78
     8
170
     0
171
     2
172
     1
173
     0
174
     0
175
     0
176
   256
177
   256
178
     4
  0
DIMSTYLE
  2
AM_JIS$SH
 70
     0
  3

  4
"
  5

  6
NONE
  7

 40
1.0
 41
2.5
 42
1.0
 43
10.0
 44
1.0
 45
0.0
 46
0.0
 47
0.1
 48
0.1
140
3.5
141
0.0
142
0.0
143
0.0393701
144
1.0
145
0.0
146
0.71
147
1.5
 71
     0
 72
     0
 73
     0
 74
     0
 75
     1
 76
     0
 77
     3
 78
     8
170
     0
171
     2
172
     1
173
     1
174
     0
175
     0
176
   256
177
   256
178
     4
  0
DIMSTYLE
  2
AM_ISO
 70
     0
  3

  4
"
  5

  6

  7

 40
1.0
 41
2.5
 42
1.0
 43
10.0
 44
1.0
 45
0.0
 46
0.0
 47
0.0
 48
0.000000001
140
3.0
141
0.0
142
0.0
143
0.0393701
144
1.0
145
0.0
146
0.71
147
1.299999999999998
 71
     1
 72
     0
 73
     0
 74
     0
 75
     0
 76
     0
 77
     1
 78
     8
170
     0
171
     2
172
     1
173
     0
174
     0
175
     0
176
   256
177
   256
178
     4
  0
DIMSTYLE
  2
AM_ISO$3
 70
     0
  3

  4
"
  5

  6

  7

 40
1.0
 41
2.5
 42
1.0
 43
10.0
 44
1.0
 45
0.0
 46
0.0
 47
0.0
 48
0.000000001
140
2.5
141
0.0
142
0.0
143
0.0393701
144
1.0
145
0.0
146
0.71
147
1.299999999999998
 71
     1
 72
     0
 73
     0
 74
     1
 75
     0
 76
     0
 77
     1
 78
     8
170
     0
171
     2
172
     0
173
     0
174
     0
175
     0
176
   256
177
   256
178
     4
  0
DIMSTYLE
  2
AM_ISO$4
 70
     0
  3

  4
"
  5

  6

  7

 40
1.0
 41
2.5
 42
1.0
 43
10.0
 44
1.0
 45
0.0
 46
0.0
 47
0.0
 48
0.000000001
140
2.5
141
0.0
142
0.0
143
0.0393701
144
1.0
145
0.0
146
0.71
147
1.299999999999998
 71
     1
 72
     0
 73
     0
 74
     1
 75
     0
 76
     0
 77
     1
 78
     8
170
     0
171
     2
172
     0
173
     0
174
     0
175
     0
176
   256
177
   256
178
     4
  0
DIMSTYLE
  2
AM_ISO$6
 70
     0
  3

  4
"
  5

  6

  7

 40
1.0
 41
2.5
 42
1.0
 43
10.0
 44
1.0
 45
0.0
 46
0.0
 47
0.0
 48
0.000000001
140
2.5
141
0.0
142
0.0
143
0.0393701
144
1.0
145
0.0
146
0.71
147
1.299999999999998
 71
     1
 72
     0
 73
     0
 74
     0
 75
     0
 76
     0
 77
     0
 78
     8
170
     0
171
     2
172
     1
173
     0
174
     0
175
     0
176
   256
177
   256
178
     4
  0
DIMSTYLE
  2
AM_ISO$7
 70
     0
  3

  4
"
  5

  6

  7

 40
1.0
 41
2.5
 42
1.0
 43
10.0
 44
1.0
 45
0.0
 46
0.0
 47
0.0
 48
0.000000001
140
2.5
141
0.0
142
0.0
143
0.0393701
144
1.0
145
0.0
146
0.71
147
1.299999999999998
 71
     1
 72
     0
 73
     0
 74
     0
 75
     0
 76
     0
 77
     1
 78
     8
170
     0
171
     2
172
     1
173
     0
174
     0
175
     0
176
   256
177
   256
178
     4
  0
DIMSTYLE
  2
AM_ISO$SF
 70
     0
  3

  4
"
  5

  6

  7

 40
1.0
 41
2.5
 42
1.0
 43
10.0
 44
1.0
 45
0.0
 46
0.0
 47
0.1
 48
0.1
140
3.5
141
0.0
142
0.0
143
0.0393701
144
1.0
145
0.0
146
0.71
147
1.5
 71
     0
 72
     0
 73
     0
 74
     0
 75
     1
 76
     1
 77
     1
 78
     8
170
     0
171
     2
172
     1
173
     0
174
     0
175
     0
176
   256
177
   256
178
     4
  0
DIMSTYLE
  2
AM_ISO$SH
 70
     0
  3

  4
"
  5

  6
GENAXEH
  7

 40
1.0
 41
2.5
 42
1.0
 43
10.0
 44
1.0
 45
0.0
 46
0.0
 47
0.1
 48
0.1
140
3.5
141
0.0
142
0.0
143
0.0393701
144
2.0
145
0.0
146
0.71
147
1.5
 71
     0
 72
     0
 73
     0
 74
     0
 75
     1
 76
     1
 77
     1
 78
     8
170
     0
171
     2
172
     1
173
     1
174
     0
175
     0
176
   256
177
   256
178
     4
  0
ENDTAB
  0
ENDSEC
  0
SECTION
  2
BLOCKS
  0
BLOCK
  8
0
  2
$MODEL_SPACE
 70
     0
 10
0.0
 20
0.0
 30
0.0
  3
$MODEL_SPACE
  1

  0
ENDBLK
  5
1A
  8
0
  0
BLOCK
 67
     1
  8
0
  2
$PAPER_SPACE
 70
     0
 10
0.0
 20
0.0
 30
0.0
  3
$PAPER_SPACE
  1

  0
ENDBLK
  5
17
 67
     1
  8
0
  0
BLOCK
  8
0
  2
_OPEN30
 70
     0
 10
0.0
 20
0.0
 30
0.0
  3
_OPEN30
  1

  0
LINE
  5
21C5
  8
0
 62
     0
 10
-1.0
 20
0.26794919
 30
0.0
 11
0.0
 21
0.0
 31
0.0
  0
LINE
  5
21C6
  8
0
 62
     0
 10
0.0
 20
0.0
 30
0.0
 11
-1.0
 21
-0.26794919
 31
0.0
  0
LINE
  5
21C7
  8
0
 62
     0
 10
0.0
 20
0.0
 30
0.0
 11
-1.0
 21
0.0
 31
0.0
  0
ENDBLK
  5
21C9
  8
0
  0
BLOCK
  8
0
  2
GENAXEH
 70
     0
 10
0.0
 20
0.0
 30
0.0
  3
GENAXEH
  1

  0
LINE
  5
21D0
  8
0
 10
-1.0
 20
0.0
 30
0.0
 11
1.0
 21
0.0
 31
0.0
  0
ENDBLK
  5
21D2
  8
0
  0
BLOCK
  8
0
  2
_NONE
 70
     0
 10
0.0
 20
0.0
 30
0.0
  3
_NONE
  1

  0
ENDBLK
  5
8193
  8
0
  0
ENDSEC
  0
SECTION
  2
ENTITIES
  0
POINT
  5
1B94
  8
0
 10
0.0
 20
0.0
 30
0.0
1001
GENIUS_GENODEF_13
1002
{
1000
HIER
1070
     1
1002
}
1002
{
1000
MANEDIT
1070
     0
1002
}
1002
{
1000
NOSEL
1070
     0
1002
}
1002
{
1000
BEHIND
1070
     0
1002
}
1002
{
1000
REACTOR
1002
}
1001
GENIUS_GENOBJ-N-SDF_13
1002
{
1000
OWNER
1000
GEN
1002
}
1001
GENIUS_GENOENT_13
1002
{
1000
MYREF
1005
1B94
1002
}
1002
{
1000
GRP
1005
0
1002
}
1001
GENIUS_GENOLIS_13
1002
{
1000
ENT
1005
89
1002
}
  0
LINE
  5
1500E
  8
AM_0
 10
462.49763277554558
 20
299.87951144231232
 30
0.0
 11
394.83497856685022
 21
299.87951144231249
 31
0.0
  0
ARC
  5
1500F
  8
0
 10
464.49761879825559
 20
414.05456574958049
 30
0.0
 40
112.1750543072711
 50
245.53408066714121
 51
267.9923002767668
  0
ARC
  5
15010
  8
0
 10
464.49761879825559
 20
414.05456574958049
 30
0.0
 40
108.1750543072711
 50
245.7481492359598
 51
294.25185076404
  0
ARC
  5
15011
  8
0
 10
464.49761879825559
 20
73.704457135044436
 30
0.0
 40
112.1750543072711
 50
92.007699723233188
 51
114.4659193328587
  0
LINE
  5
15012
  8
AM_0
 10
462.49763277554558
 20
187.87951144231249
 30
0.0
 11
394.83497856685022
 21
187.87951144231249
 31
0.0
  0
ARC
  5
15013
  8
0
 10
464.49761879825559
 20
73.704457135044436
 30
0.0
 40
108.1750543072711
 50
65.7481492359599
 51
114.2518507640401
  0
LINE
  5
15014
  8
AM_0
 10
423.69454257731059
 20
160.87951144231289
 30
0.0
 11
505.30069501920048
 21
160.87951144231289
 31
0.0
  0
LINE
  5
15015
  8
AM_0
 10
423.69454257731059
 20
326.87951144231249
 30
0.0
 11
505.30069501920082
 21
326.87951144231249
 31
0.0
  0
LINE
  5
15016
  8
AM_0
 10
408.9976041206113
 20
156.8795114423132
 30
0.0
 11
519.99763347589965
 21
156.87951144231289
 31
0.0
  0
LINE
  5
15017
  8
AM_0
 10
408.9976041206113
 20
330.87951144231249
 30
0.0
 11
519.99763347589965
 21
330.87951144231272
 31
0.0
  0
CIRCLE
  5
15018
  8
0
 10
444.99763347589982
 20
243.87951144231249
 30
0.0
 40
39.0
  0
LINE
  5
15019
  8
ﾁｭｳｼﾝｾﾝ1
 10
555.142138081658
 20
243.87951144231249
 30
0.0
 11
377.3609329120975
 21
243.87951144231249
 31
0.0
  0
CIRCLE
  5
1501F
  8
AM_0
 10
444.99763347589982
 20
243.87951144231241
 30
0.0
 40
19.999800629214029
  0
LINE
  5
15041
  8
ﾁｭｳｼﾝｾﾝ1
 10
179.46296190996449
 20
151.196606344987
 30
0.0
 11
179.4629624656009
 21
328.8681895243127
 31
0.0
  0
LINE
  5
15044
  8
AM_0
 10
130.46296093694761
 20
281.37913760078447
 30
0.0
 11
130.46296093694761
 21
206.3798853656327
 31
0.0
  0
LINE
  5
15046
  8
AM_0
 10
134.4629610561569
 20
185.10196030584211
 30
0.0
 11
134.4629610561569
 21
302.65709317784911
 31
0.0
  0
LINE
  5
15047
  8
AM_0
 10
204.46296314231861
 20
183.8801096950873
 30
0.0
 11
204.46296314231861
 21
303.87891327132991
 31
0.0
  0
LINE
  5
15048
  8
0
 10
249.46296195866759
 20
156.8795105231282
 30
0.0
 11
249.46296245563121
 21
330.87951052312781
 31
0.0
  0
ARC
  5
1504C
  8
AM_0
 10
179.46296240193229
 20
260.37951097300981
 30
0.0
 40
56.499999999999972
 50
152.02943984642619
 51
209.85860574840919
  0
LINE
  5
1504D
  8
AM_0
 10
389.49763176226702
 20
293.37901791751239
 30
0.0
 11
389.49763176226702
 21
194.38000496711251
 31
0.0
  0
LINE
  5
1504E
  8
AM_0
 10
385.49763176226702
 20
293.37901791751239
 30
0.0
 11
385.49763176226702
 21
194.380004967113
 31
0.0
  0
LINE
  5
15054
  8
ﾁｭｳｼﾝｾﾝ1
 10
294.42055847339861
 20
243.87951144231249
 30
0.0
 11
112.96296239726151
 21
243.87951148320869
 31
0.0
  0
LINE
  5
15056
  8
AM_0
 10
204.46296314231861
 20
183.8801096950873
 30
0.0
 11
134.4629610561569
 21
185.10196030584211
 31
0.0
  0
LINE
  5
15058
  8
ﾁｭｳｼﾝｾﾝ1
 10
241.3579565586648
 20
260.37951142552299
 30
0.0
 11
117.5679679298426
 21
260.37951147647851
 31
0.0
  0
LINE
  5
15060
  8
AM_0
 10
132.87296105615681
 20
185.88000501396851
 30
0.0
 11
132.87296105615701
 21
202.88000501396871
 31
0.0
  0
LINE
  5
15061
  8
0
 10
124.8729610561571
 20
200.8800050139686
 30
0.0
 11
124.8729610561571
 21
187.88000501396871
 31
0.0
  0
LINE
  5
15063
  8
0
 10
124.8729610561571
 20
187.88000501396871
 30
0.0
 11
132.87296105615701
 21
187.88000501396871
 31
0.0
  0
LINE
  5
15065
  8
0
 10
134.4629610561569
 20
185.88000501396851
 30
0.0
 11
132.87296105615701
 21
185.88000501396851
 31
0.0
  0
LINE
  5
1506D
  8
AM_0
 10
125.4629624019326
 20
226.47255958415269
 30
0.0
 11
125.4629624019323
 21
234.20798011184499
 31
0.0
  0
LINE
  5
1506E
  8
AM_0
 10
130.46296093694761
 20
206.3798853656327
 30
0.0
 11
134.4629610561569
 21
206.3798853656327
 31
0.0
  0
LINE
  5
1506F
  8
0
 10
132.87296105615701
 20
200.8800050139686
 30
0.0
 11
124.8729610561571
 21
200.8800050139686
 31
0.0
  0
LINE
  5
15070
  8
0
 10
134.4629610561569
 20
202.88000501396871
 30
0.0
 11
132.87296105615701
 21
202.88000501396871
 31
0.0
  0
ARC
  5
15072
  8
AM_0
 10
124.18799052580481
 20
225.35480197731971
 30
0.0
 40
0.9999999999999996
 50
198.56658080190309
 51
267.99999999999631
1001
GENIUS_GENODEF_13
1002
{
1000
HIER
1070
     0
1002
}
1002
{
1000
MANEDIT
1070
     0
1002
}
1002
{
1000
NOSEL
1070
     0
1002
}
1002
{
1000
BEHIND
1070
     0
1002
}
1002
{
1000
REACTOR
1002
}
1001
GENIUS_GENOBJ-N-FIL_13
1002
{
1000
OWNER
1000
GEN
1002
}
  0
ARC
  5
15073
  8
AM_0
 10
124.1639066214649
 20
225.42658601238699
 30
0.0
 40
0.9999999999999996
 50
92.000000000003695
 51
198.52714231446831
1001
GENIUS_GENODEF_13
1002
{
1000
HIER
1070
     0
1002
}
1002
{
1000
MANEDIT
1070
     0
1002
}
1002
{
1000
NOSEL
1070
     0
1002
}
1002
{
1000
BEHIND
1070
     0
1002
}
1002
{
1000
REACTOR
1002
}
1001
GENIUS_GENOBJ-N-FIL_13
1002
{
1000
OWNER
1000
GEN
1002
}
  0
ARC
  5
15074
  8
AM_0
 10
228.4629624019324
 20
260.37951097300981
 30
0.0
 40
110.9999999999999
 50
198.52714231446831
 51
198.56658080189609
  0
LINE
  5
15075
  8
AM_0
 10
124.129007124762
 20
226.42597683940639
 30
0.0
 11
130.46296093694761
 21
226.64716338045341
 31
0.0
  0
LINE
  5
15076
  8
AM_0
 10
124.1530910291025
 20
224.35541115030071
 30
0.0
 11
130.46296093694761
 21
224.13506563772589
 31
0.0
  0
ARC
  5
15077
  8
AM_0
 10
118.5750385940581
 20
255.4152183552462
 30
0.0
 40
0.9999999999999996
 50
92.000000000003695
 51
182.58663322877331
1001
GENIUS_GENODEF_13
1002
{
1000
HIER
1070
     0
1002
}
1002
{
1000
MANEDIT
1070
     0
1002
}
1002
{
1000
NOSEL
1070
     0
1002
}
1002
{
1000
BEHIND
1070
     0
1002
}
1002
{
1000
REACTOR
1002
}
1001
GENIUS_GENOBJ-N-FIL_13
1002
{
1000
OWNER
1000
GEN
1002
}
  0
ARC
  5
15078
  8
AM_0
 10
119.49460271566279
 20
245.34965444396229
 30
0.0
 40
0.9999999999999996
 50
187.853178088806
 51
268.0000000000029
1001
GENIUS_GENODEF_13
1002
{
1000
HIER
1070
     0
1002
}
1002
{
1000
MANEDIT
1070
     0
1002
}
1002
{
1000
NOSEL
1070
     0
1002
}
1002
{
1000
BEHIND
1070
     0
1002
}
1002
{
1000
REACTOR
1002
}
1001
GENIUS_GENOBJ-N-FIL_13
1002
{
1000
OWNER
1000
GEN
1002
}
  0
LINE
  5
15079
  8
AM_0
 10
121.31299270439349
 20
234.35290024705029
 30
0.0
 11
129.46326780449931
 21
234.06828636898541
 31
0.0
  0
LINE
  5
1507A
  8
AM_0
 10
121.2966579700708
 20
236.42169689605399
 30
0.0
 11
128.18200834381221
 21
236.6621386293254
 31
0.0
  0
LINE
  5
1507B
  8
AM_0
 10
119.4597032189601
 20
244.35026361694361
 30
0.0
 11
125.3456675559092
 21
244.1447212130962
 31
0.0
  0
ARC
  5
1507C
  8
AM_0
 10
121.3478922010962
 20
235.35229107406931
 30
0.0
 40
0.9999999999999996
 50
193.15111826064839
 51
268.0000000000029
1001
GENIUS_GENODEF_13
1002
{
1000
HIER
1070
     0
1002
}
1002
{
1000
MANEDIT
1070
     0
1002
}
1002
{
1000
NOSEL
1070
     0
1002
}
1002
{
1000
BEHIND
1070
     0
1002
}
1002
{
1000
REACTOR
1002
}
1001
GENIUS_GENOBJ-N-FIL_13
1002
{
1000
OWNER
1000
GEN
1002
}
  0
ARC
  5
1507D
  8
AM_0
 10
121.3315574667734
 20
235.4223060690347
 30
0.0
 40
0.9999999999999996
 50
92.000000000003695
 51
193.11367014329889
1001
GENIUS_GENODEF_13
1002
{
1000
HIER
1070
     0
1002
}
1002
{
1000
MANEDIT
1070
     0
1002
}
1002
{
1000
NOSEL
1070
     0
1002
}
1002
{
1000
BEHIND
1070
     0
1002
}
1002
{
1000
REACTOR
1002
}
1001
GENIUS_GENOBJ-N-FIL_13
1002
{
1000
OWNER
1000
GEN
1002
}
  0
ARC
  5
1507E
  8
AM_0
 10
228.4629624019324
 20
260.37951097300981
 30
0.0
 40
110.9999999999999
 50
193.11367014329889
 51
193.15111826064839
  0
LINE
  5
1507F
  8
AM_0
 10
119.45022106658659
 20
246.41795302691611
 30
0.0
 11
124.6689802325124
 21
246.60019611278261
 31
0.0
  0
LINE
  5
15080
  8
AM_0
 10
118.5432492758157
 20
254.34745349411119
 30
0.0
 11
123.3039826808216
 21
254.18120502026329
 31
0.0
  0
ARC
  5
15081
  8
AM_0
 10
228.4629624019324
 20
260.37951097300981
 30
0.0
 40
110.9999999999999
 50
187.81694783169451
 51
187.853178088806
  0
ARC
  5
15082
  8
AM_0
 10
119.4851205632893
 20
245.41856219989711
 30
0.0
 40
0.9999999999999996
 50
92.000000000003695
 51
187.816947831688
1001
GENIUS_GENODEF_13
1002
{
1000
HIER
1070
     0
1002
}
1002
{
1000
MANEDIT
1070
     0
1002
}
1002
{
1000
NOSEL
1070
     0
1002
}
1002
{
1000
BEHIND
1070
     0
1002
}
1002
{
1000
REACTOR
1002
}
1001
GENIUS_GENOBJ-N-FIL_13
1002
{
1000
OWNER
1000
GEN
1002
}
  0
ARC
  5
15083
  8
AM_0
 10
118.5781487725184
 20
255.34684432113011
 30
0.0
 40
0.9999999999999996
 50
182.62228408795289
 51
267.99999999999631
1001
GENIUS_GENODEF_13
1002
{
1000
HIER
1070
     0
1002
}
1002
{
1000
MANEDIT
1070
     0
1002
}
1002
{
1000
NOSEL
1070
     0
1002
}
1002
{
1000
BEHIND
1070
     0
1002
}
1002
{
1000
REACTOR
1002
}
1001
GENIUS_GENOBJ-N-FIL_13
1002
{
1000
OWNER
1000
GEN
1002
}
  0
ARC
  5
15084
  8
AM_0
 10
228.4629624019324
 20
260.37951097300981
 30
0.0
 40
110.9999999999999
 50
182.58663322877331
 51
182.62228408795289
  0
LINE
  5
15085
  8
AM_0
 10
118.54013909735519
 20
256.41460918226528
 30
0.0
 11
123.09129772512929
 21
256.57353914362631
 31
0.0
  0
LINE
  5
15086
  8
AM_0
 10
118.54013909735519
 20
264.34441276375389
 30
0.0
 11
123.09129772512929
 21
264.18548280239332
 31
0.0
  0
LINE
  5
15087
  8
AM_0
 10
118.5432492758157
 20
266.41156845190818
 30
0.0
 11
123.3039826808216
 21
266.57781692575611
 31
0.0
  0
ARC
  5
15088
  8
AM_0
 10
118.5781487725184
 20
265.41217762488913
 30
0.0
 40
0.9999999999999996
 50
92.000000000003695
 51
177.37771591204699
1001
GENIUS_GENODEF_13
1002
{
1000
HIER
1070
     0
1002
}
1002
{
1000
MANEDIT
1070
     0
1002
}
1002
{
1000
NOSEL
1070
     0
1002
}
1002
{
1000
BEHIND
1070
     0
1002
}
1002
{
1000
REACTOR
1002
}
1001
GENIUS_GENOBJ-N-FIL_13
1002
{
1000
OWNER
1000
GEN
1002
}
  0
ARC
  5
15089
  8
AM_0
 10
228.4629624019324
 20
260.37951097300981
 30
0.0
 40
110.9999999999999
 50
177.37771591204699
 51
177.41336677122669
  0
ARC
  5
1508A
  8
AM_0
 10
118.5750385940581
 20
265.34380359077278
 30
0.0
 40
0.9999999999999996
 50
177.41336677122669
 51
267.99999999999631
1001
GENIUS_GENODEF_13
1002
{
1000
HIER
1070
     0
1002
}
1002
{
1000
MANEDIT
1070
     0
1002
}
1002
{
1000
NOSEL
1070
     0
1002
}
1002
{
1000
BEHIND
1070
     0
1002
}
1002
{
1000
REACTOR
1002
}
1001
GENIUS_GENOBJ-N-FIL_13
1002
{
1000
OWNER
1000
GEN
1002
}
  0
LINE
  5
1508C
  8
AM_0
 10
119.45022106658659
 20
274.34106891910312
 30
0.0
 11
124.6689802325124
 21
274.15882583323707
 31
0.0
  0
LINE
  5
1508D
  8
AM_0
 10
119.4597032189601
 20
276.40875832907602
 30
0.0
 11
125.3456675559092
 21
276.6143007329232
 31
0.0
  0
ARC
  5
1508E
  8
AM_0
 10
119.4851205632893
 20
275.34045974612229
 30
0.0
 40
0.9999999999999996
 50
172.183052168312
 51
267.99999999999631
1001
GENIUS_GENODEF_13
1002
{
1000
HIER
1070
     0
1002
}
1002
{
1000
MANEDIT
1070
     0
1002
}
1002
{
1000
NOSEL
1070
     0
1002
}
1002
{
1000
BEHIND
1070
     0
1002
}
1002
{
1000
REACTOR
1002
}
1001
GENIUS_GENOBJ-N-FIL_13
1002
{
1000
OWNER
1000
GEN
1002
}
  0
ARC
  5
1508F
  8
AM_0
 10
228.4629624019324
 20
260.37951097300981
 30
0.0
 40
110.9999999999999
 50
172.1468219111938
 51
172.183052168312
  0
ARC
  5
15090
  8
AM_0
 10
119.49460271566279
 20
275.4093675020568
 30
0.0
 40
0.9999999999999996
 50
91.999999999997215
 51
172.14682191120039
1001
GENIUS_GENODEF_13
1002
{
1000
HIER
1070
     0
1002
}
1002
{
1000
MANEDIT
1070
     0
1002
}
1002
{
1000
NOSEL
1070
     0
1002
}
1002
{
1000
BEHIND
1070
     0
1002
}
1002
{
1000
REACTOR
1002
}
1001
GENIUS_GENOBJ-N-FIL_13
1002
{
1000
OWNER
1000
GEN
1002
}
  0
LINE
  5
15098
  8
ﾁｭｳｼﾝｾﾝ1
 10
229.42154972863551
 20
168.87951223620269
 30
0.0
 11
255.4215497286352
 21
168.87951223620269
 31
0.0
1001
GENIUS_GENODEF_13
1002
{
1000
HIER
1070
     0
1002
}
1002
{
1000
MANEDIT
1070
     0
1002
}
1002
{
1000
NOSEL
1070
     0
1002
}
1002
{
1000
BEHIND
1070
     0
1002
}
1002
{
1000
OTHER
1070
     0
1002
}
1002
{
1000
REACTOR
1002
}
1001
GENIUS_GENOBJ-N-CEN_13
1002
{
1000
OWNER
1000
GEN
1002
}
  0
LINE
  5
15099
  8
0
 10
236.3582639642166
 20
157.33713847930051
 30
0.0
 11
249.4629624556313
 21
156.8795123614974
 31
0.0
  0
LINE
  5
1509D
  8
0
 10
204.46296314231861
 20
183.88010961329499
 30
0.0
 11
230.56766087978869
 21
182.96851348095299
 31
0.0
  0
LINE
  5
150A5
  8
0
 10
233.46296238968139
 20
179.970341008464
 30
0.0
 11
233.46296244576089
 21
160.33531095208849
 31
0.0
  0
ARC
  5
150A7
  8
0
 10
236.46296244576089
 20
160.3353109606569
 30
0.0
 40
3.0
 50
180.00000016364561
 51
268.0000001636455
1001
GENIUS_GENODEF_13
1002
{
1000
HIER
1070
     0
1002
}
1002
{
1000
MANEDIT
1070
     0
1002
}
1002
{
1000
NOSEL
1070
     0
1002
}
1002
{
1000
BEHIND
1070
     0
1002
}
1002
{
1000
OTHER
1070
     0
1002
}
1002
{
1000
REACTOR
1002
}
1001
GENIUS_GENOBJ-N-FIL_13
1002
{
1000
OWNER
1000
GEN
1002
}
  0
ARC
  5
150AA
  8
0
 10
230.46296238968139
 20
179.97034099989571
 30
0.0
 40
3.0
 50
0.0000001636455941
 51
87.999999999999517
1001
GENIUS_GENODEF_13
1002
{
1000
HIER
1070
     0
1002
}
1002
{
1000
MANEDIT
1070
     0
1002
}
1002
{
1000
NOSEL
1070
     0
1002
}
1002
{
1000
BEHIND
1070
     0
1002
}
1002
{
1000
OTHER
1070
     0
1002
}
1002
{
1000
REACTOR
1002
}
1001
GENIUS_GENOBJ-N-FIL_13
1002
{
1000
OWNER
1000
GEN
1002
}
  0
LINE
  5
150B0
  8
ｶｸﾚｾﾝ2
 10
228.46296385757421
 20
276.87913760078447
 30
0.0
 11
228.46296385757421
 21
210.87988528384051
 31
0.0
  0
LINE
  5
150B7
  8
0
 10
395.64689131474847
 20
178.9670516566249
 30
0.0
 11
390.25468853539792
 21
190.87332125464479
 31
0.0
  0
CIRCLE
  5
150B8
  8
ｷｲﾛ
 10
397.99763347589987
 20
194.37951144231249
 30
0.0
 40
4.0
  0
ARC
  5
150B9
  8
0
 10
394.83497856685022
 20
192.87951144231249
 30
0.0
 40
5.0
 50
204.36518630421739
 51
270.0
1001
GENIUS_GENODEF_13
1002
{
1000
HIER
1070
     0
1002
}
1002
{
1000
MANEDIT
1070
     0
1002
}
1002
{
1000
NOSEL
1070
     0
1002
}
1002
{
1000
BEHIND
1070
     0
1002
}
1002
{
1000
OTHER
1070
     0
1002
}
1002
{
1000
REACTOR
1002
}
1001
GENIUS_GENOBJ-N-FIL_13
1002
{
1000
OWNER
1000
GEN
1002
}
  0
ARC
  5
150BA
  8
0
 10
397.9976320751914
 20
194.380004967113
 30
0.0
 40
12.50000031292438
 50
180.0
 51
204.36518630421739
  0
LINE
  5
150C0
  8
0
 10
398.06639011392008
 20
163.9288993246131
 30
0.0
 11
386.6109505331674
 21
189.22311721541141
 31
0.0
  0
LINE
  5
150C1
  8
ﾁｭｳｼﾝｾﾝ1
 10
408.9976041206113
 20
155.87951144231269
 30
0.0
 11
408.9976041206113
 21
181.87951144231269
 31
0.0
1001
GENIUS_GENODEF_13
1002
{
1000
HIER
1070
     0
1002
}
1002
{
1000
MANEDIT
1070
     0
1002
}
1002
{
1000
NOSEL
1070
     0
1002
}
1002
{
1000
BEHIND
1070
     0
1002
}
1002
{
1000
OTHER
1070
     0
1002
}
1002
{
1000
REACTOR
1002
}
1001
GENIUS_GENOBJ-N-CEN_13
1002
{
1000
OWNER
1000
GEN
1002
}
  0
ARC
  5
150C2
  8
0
 10
408.9976041206113
 20
168.87951144231249
 30
0.0
 40
10.0
 50
348.46304096718188
 51
125.902145337034
  0
CIRCLE
  5
150C3
  8
0
 10
408.9976041206113
 20
168.87951144231269
 30
0.0
 40
4.5
  0
LINE
  5
150C4
  8
ﾁｭｳｼﾝｾﾝ1
 10
395.99760412061141
 20
168.87951144231269
 30
0.0
 11
421.99760412061141
 21
168.87951144231269
 31
0.0
1001
GENIUS_GENODEF_13
1002
{
1000
HIER
1070
     0
1002
}
1002
{
1000
MANEDIT
1070
     0
1002
}
1002
{
1000
NOSEL
1070
     0
1002
}
1002
{
1000
BEHIND
1070
     0
1002
}
1002
{
1000
OTHER
1070
     0
1002
}
1002
{
1000
REACTOR
1002
}
1001
GENIUS_GENOBJ-N-CEN_13
1002
{
1000
OWNER
1000
GEN
1002
}
  0
ARC
  5
150C5
  8
0
 10
408.9976041206113
 20
168.87951144231289
 30
0.0
 40
12.0
 50
204.36518630421739
 51
270.0
  0
ARC
  5
150C6
  8
0
 10
423.69454257731059
 20
165.87951144231289
 30
0.0
 40
5.0
 50
168.4630409671818
 51
270.0
1001
GENIUS_GENODEF_13
1002
{
1000
HIER
1070
     0
1002
}
1002
{
1000
MANEDIT
1070
     0
1002
}
1002
{
1000
NOSEL
1070
     0
1002
}
1002
{
1000
BEHIND
1070
     0
1002
}
1002
{
1000
OTHER
1070
     0
1002
}
1002
{
1000
REACTOR
1002
}
1001
GENIUS_GENOBJ-N-FIL_13
1002
{
1000
OWNER
1000
GEN
1002
}
  0
ARC
  5
150C7
  8
0
 10
400.2015638175364
 20
181.02980670566629
 30
0.0
 40
5.0
 50
204.36518630421739
 51
305.90214533703409
1001
GENIUS_GENOBJ-N-FIL_13
1002
{
1000
OWNER
1000
GEN
1002
}
1001
GENIUS_GENODEF_13
1002
{
1000
HIER
1070
     0
1002
}
1002
{
1000
MANEDIT
1070
     0
1002
}
1002
{
1000
NOSEL
1070
     0
1002
}
1002
{
1000
BEHIND
1070
     0
1002
}
1002
{
1000
OTHER
1070
     0
1002
}
1002
{
1000
REACTOR
1002
}
  0
ARC
  5
150C8
  8
0
 10
417.2118024052877
 20
177.62747958011579
 30
0.0
 40
2.0
 50
226.80240366557771
 51
294.46591933285879
1001
GENIUS_GENODEF_13
1002
{
1000
HIER
1070
     0
1002
}
1002
{
1000
MANEDIT
1070
     0
1002
}
1002
{
1000
NOSEL
1070
     0
1002
}
1002
{
1000
BEHIND
1070
     0
1002
}
1002
{
1000
OTHER
1070
     0
1002
}
1002
{
1000
REACTOR
1002
}
1001
GENIUS_GENOBJ-N-FIL_13
1002
{
1000
OWNER
1000
GEN
1002
}
  0
ARC
  5
150C9
  8
0
 10
420.8863953070645
 20
170.50943295113211
 30
0.0
 40
2.0
 50
114.2518507640401
 51
187.80643199356041
1001
GENIUS_GENODEF_13
1002
{
1000
HIER
1070
     0
1002
}
1002
{
1000
MANEDIT
1070
     0
1002
}
1002
{
1000
NOSEL
1070
     0
1002
}
1002
{
1000
BEHIND
1070
     0
1002
}
1002
{
1000
OTHER
1070
     0
1002
}
1002
{
1000
REACTOR
1002
}
1001
GENIUS_GENOBJ-N-FIL_13
1002
{
1000
OWNER
1000
GEN
1002
}
  0
LINE
  5
150CC
  8
0
 10
393.49763176226702
 20
221.87951144231249
 30
0.0
 11
391.49763176226702
 21
221.87951144231249
 31
0.0
  0
LINE
  5
150CD
  8
0
 10
393.49763176226702
 20
225.87951144231249
 30
0.0
 11
391.49763176226702
 21
225.87951144231249
 31
0.0
  0
ARC
  5
150CE
  8
0
 10
397.9976320751914
 20
194.380004967113
 30
0.0
 40
8.5000003129243851
 50
180.0
 51
204.36518630421739
  0
ARC
  5
150CF
  8
0
 10
391.49763176226702
 20
219.87951144231249
 30
0.0
 40
2.0
 50
90.0
 51
180.0
1001
GENIUS_GENODEF_13
1002
{
1000
HIER
1070
     0
1002
}
1002
{
1000
MANEDIT
1070
     0
1002
}
1002
{
1000
NOSEL
1070
     0
1002
}
1002
{
1000
BEHIND
1070
     0
1002
}
1002
{
1000
OTHER
1070
     0
1002
}
1002
{
1000
REACTOR
1002
}
1001
GENIUS_GENOBJ-N-FIL_13
1002
{
1000
OWNER
1000
GEN
1002
}
  0
ARC
  5
150D0
  8
0
 10
391.49763176226702
 20
227.87951144231249
 30
0.0
 40
2.0
 50
180.0
 51
270.0
1001
GENIUS_GENOBJ-N-FIL_13
1002
{
1000
OWNER
1000
GEN
1002
}
1001
GENIUS_GENODEF_13
1002
{
1000
HIER
1070
     0
1002
}
1002
{
1000
MANEDIT
1070
     0
1002
}
1002
{
1000
NOSEL
1070
     0
1002
}
1002
{
1000
BEHIND
1070
     0
1002
}
1002
{
1000
OTHER
1070
     0
1002
}
1002
{
1000
REACTOR
1002
}
  0
CIRCLE
  5
150D1
  8
0
 10
397.99763347589987
 20
194.37951144231249
 30
0.0
 40
3.25
  0
ARC
  5
150D2
  8
0
 10
393.49763176226702
 20
223.87951144231249
 30
0.0
 40
2.0
 50
270.0
 51
90.0
  0
LINE
  5
150D3
  8
0
 10
393.49763176226702
 20
261.87951144231249
 30
0.0
 11
391.49763176226702
 21
261.87951144231249
 31
0.0
  0
LINE
  5
150D4
  8
0
 10
393.49763176226702
 20
265.87951144231249
 30
0.0
 11
391.49763176226702
 21
265.87951144231249
 31
0.0
  0
ARC
  5
150D5
  8
0
 10
391.49763176226702
 20
267.87951144231249
 30
0.0
 40
2.0
 50
180.0
 51
270.0
1001
GENIUS_GENODEF_13
1002
{
1000
HIER
1070
     0
1002
}
1002
{
1000
MANEDIT
1070
     0
1002
}
1002
{
1000
NOSEL
1070
     0
1002
}
1002
{
1000
BEHIND
1070
     0
1002
}
1002
{
1000
OTHER
1070
     0
1002
}
1002
{
1000
REACTOR
1002
}
1001
GENIUS_GENOBJ-N-FIL_13
1002
{
1000
OWNER
1000
GEN
1002
}
  0
ARC
  5
150D6
  8
0
 10
391.49763176226702
 20
259.87951144231249
 30
0.0
 40
2.0
 50
90.0
 51
180.0
1001
GENIUS_GENOBJ-N-FIL_13
1002
{
1000
OWNER
1000
GEN
1002
}
1001
GENIUS_GENODEF_13
1002
{
1000
HIER
1070
     0
1002
}
1002
{
1000
MANEDIT
1070
     0
1002
}
1002
{
1000
NOSEL
1070
     0
1002
}
1002
{
1000
BEHIND
1070
     0
1002
}
1002
{
1000
OTHER
1070
     0
1002
}
1002
{
1000
REACTOR
1002
}
  0
ARC
  5
150D7
  8
0
 10
393.49763176226702
 20
263.87951144231249
 30
0.0
 40
2.0
 50
270.0
 51
90.0
  0
LINE
  5
150D8
  8
AM_0
 10
204.46296314231861
 20
303.87891327132991
 30
0.0
 11
134.4629610561569
 21
302.65709317784911
 31
0.0
  0
ARC
  5
150DA
  8
AM_0
 10
179.46296240193229
 20
260.37951097300981
 30
0.0
 40
56.499999999999972
 50
55.1361620456954
 51
124.8638379543046
  0
LINE
  5
150DF
  8
AM_0
 10
175.49806061118821
 20
321.30233427758662
 30
0.0
 11
175.65699057254889
 21
316.75117564981281
 31
0.0
  0
LINE
  5
150E0
  8
AM_0
 10
173.43090492303389
 20
321.29922409912632
 30
0.0
 11
173.26465644918579
 21
316.5384906941207
 31
0.0
  0
ARC
  5
150E1
  8
AM_0
 10
164.50201362881961
 20
320.35735281165267
 30
0.0
 40
0.9999999999999996
 50
1.9999999999971321
 51
97.816947831694847
1001
GENIUS_GENODEF_13
1002
{
1000
HIER
1070
     0
1002
}
1002
{
1000
MANEDIT
1070
     0
1002
}
1002
{
1000
NOSEL
1070
     0
1002
}
1002
{
1000
BEHIND
1070
     0
1002
}
1002
{
1000
REACTOR
1002
}
1001
GENIUS_GENOBJ-N-FIL_13
1002
{
1000
OWNER
1000
GEN
1002
}
  0
ARC
  5
150E2
  8
AM_0
 10
164.43310587288511
 20
320.34787065927941
 30
0.0
 40
0.9999999999999996
 50
97.853178088805706
 51
178.00000000000281
1001
GENIUS_GENODEF_13
1002
{
1000
HIER
1070
     0
1002
}
1002
{
1000
MANEDIT
1070
     0
1002
}
1002
{
1000
NOSEL
1070
     0
1002
}
1002
{
1000
BEHIND
1070
     0
1002
}
1002
{
1000
REACTOR
1002
}
1001
GENIUS_GENOBJ-N-FIL_13
1002
{
1000
OWNER
1000
GEN
1002
}
  0
LINE
  5
150E3
  8
AM_0
 10
132.87296105615681
 20
284.87901795626391
 30
0.0
 11
132.87296105615701
 21
301.87901795626419
 31
0.0
  0
LINE
  5
150E4
  8
0
 10
124.8729610561571
 20
299.87901795626419
 30
0.0
 11
124.8729610561571
 21
286.87901795626419
 31
0.0
  0
LINE
  5
150E5
  8
AM_0
 10
130.46296093694761
 20
281.37913760078447
 30
0.0
 11
134.4629610561569
 21
281.37913760078447
 31
0.0
  0
LINE
  5
150E6
  8
0
 10
124.8729610561571
 20
286.87901795626419
 30
0.0
 11
132.87296105615701
 21
286.87901795626419
 31
0.0
  0
LINE
  5
150E7
  8
AM_0
 10
121.2966579700708
 20
284.33732504996539
 30
0.0
 11
128.18200834381221
 21
284.096883316694
 31
0.0
  0
LINE
  5
150E8
  8
AM_0
 10
121.31299270439349
 20
286.40612169896912
 30
0.0
 11
129.46326780449931
 21
286.69073557703422
 31
0.0
  0
ARC
  5
150E9
  8
AM_0
 10
121.3478922010962
 20
285.40673087194978
 30
0.0
 40
0.9999999999999996
 50
91.999999999997215
 51
166.84888173935161
1001
GENIUS_GENODEF_13
1002
{
1000
HIER
1070
     0
1002
}
1002
{
1000
MANEDIT
1070
     0
1002
}
1002
{
1000
NOSEL
1070
     0
1002
}
1002
{
1000
BEHIND
1070
     0
1002
}
1002
{
1000
REACTOR
1002
}
1001
GENIUS_GENOBJ-N-FIL_13
1002
{
1000
OWNER
1000
GEN
1002
}
  0
ARC
  5
150EA
  8
AM_0
 10
121.3315574667734
 20
285.33671587698439
 30
0.0
 40
0.9999999999999996
 50
166.8863298567012
 51
267.99999999999631
1001
GENIUS_GENODEF_13
1002
{
1000
HIER
1070
     0
1002
}
1002
{
1000
MANEDIT
1070
     0
1002
}
1002
{
1000
NOSEL
1070
     0
1002
}
1002
{
1000
BEHIND
1070
     0
1002
}
1002
{
1000
REACTOR
1002
}
1001
GENIUS_GENOBJ-N-FIL_13
1002
{
1000
OWNER
1000
GEN
1002
}
  0
ARC
  5
150EB
  8
AM_0
 10
228.4629624019324
 20
260.37951097300981
 30
0.0
 40
110.9999999999999
 50
166.84888173935161
 51
166.8863298567012
  0
LINE
  5
150EC
  8
AM_0
 10
125.4629624019323
 20
286.87901795626419
 30
0.0
 11
125.4629624019323
 21
286.55104183417461
 31
0.0
  0
LINE
  5
150ED
  8
AM_0
 10
124.1530910291025
 20
296.40361079571869
 30
0.0
 11
124.872961056157
 21
296.42874921099741
 31
0.0
  0
LINE
  5
150EE
  8
AM_0
 10
124.129007124762
 20
294.33304510661299
 30
0.0
 11
124.8729610561571
 21
294.30706566286221
 31
0.0
  0
ARC
  5
150EF
  8
AM_0
 10
124.18799052580481
 20
295.40421996869929
 30
0.0
 40
0.9999999999999996
 50
92.000000000003695
 51
161.43341919809691
1001
GENIUS_GENODEF_13
1002
{
1000
HIER
1070
     0
1002
}
1002
{
1000
MANEDIT
1070
     0
1002
}
1002
{
1000
NOSEL
1070
     0
1002
}
1002
{
1000
BEHIND
1070
     0
1002
}
1002
{
1000
REACTOR
1002
}
1001
GENIUS_GENOBJ-N-FIL_13
1002
{
1000
OWNER
1000
GEN
1002
}
  0
ARC
  5
150F0
  8
AM_0
 10
124.1639066214649
 20
295.33243593363193
 30
0.0
 40
0.9999999999999996
 50
161.47285768553169
 51
267.99999999999631
1001
GENIUS_GENODEF_13
1002
{
1000
HIER
1070
     0
1002
}
1002
{
1000
MANEDIT
1070
     0
1002
}
1002
{
1000
NOSEL
1070
     0
1002
}
1002
{
1000
BEHIND
1070
     0
1002
}
1002
{
1000
REACTOR
1002
}
1001
GENIUS_GENOBJ-N-FIL_13
1002
{
1000
OWNER
1000
GEN
1002
}
  0
ARC
  5
150F1
  8
AM_0
 10
228.4629624019324
 20
260.37951097300981
 30
0.0
 40
110.9999999999999
 50
161.43341919810359
 51
161.47285768553169
  0
LINE
  5
150F2
  8
0
 10
134.4629610561569
 20
284.87901795626419
 30
0.0
 11
132.87296105615701
 21
284.87901795626419
 31
0.0
  0
LINE
  5
150F3
  8
0
 10
132.87296105615701
 20
299.87901795626419
 30
0.0
 11
124.8729610561571
 21
299.87901795626419
 31
0.0
  0
LINE
  5
150F4
  8
AM_0
 10
145.50942826832909
 20
315.71346625017998
 30
0.0
 11
145.8350690836123
 21
306.3883333844708
 31
0.0
  0
LINE
  5
150F5
  8
AM_0
 10
143.43886257922321
 20
315.68938234583982
 30
0.0
 11
143.113754707015
 21
306.37951097300981
 31
0.0
  0
LINE
  5
150F6
  8
AM_0
 10
138.46296240193229
 20
306.37951097300981
 30
0.0
 11
146.02271718752041
 21
306.37951097300981
 31
0.0
  0
LINE
  5
150F7
  8
0
 10
134.4629610561569
 20
301.87901795626419
 30
0.0
 11
132.87296105615701
 21
301.87901795626419
 31
0.0
  0
ARC
  5
150F8
  8
AM_0
 10
138.46296240193229
 20
301.37951097300981
 30
0.0
 40
4.9999999999999982
 50
90.0
 51
174.26650751163271
1001
GENIUS_GENOBJ-N-CEN_13
1002
{
1000
OWNER
1000
GEN
1002
}
1001
GENIUS_GENODEF_13
1002
{
1000
HIER
1070
     0
1002
}
1002
{
1000
MANEDIT
1070
     0
1002
}
1002
{
1000
NOSEL
1070
     0
1002
}
1002
{
1000
BEHIND
1070
     0
1002
}
1002
{
1000
REACTOR
1002
}
1001
GENIUS_GENOBJ-N-FIL_13
1002
{
1000
OWNER
1000
GEN
1002
}
  0
ARC
  5
150F9
  8
AM_0
 10
146.02271718752041
 20
308.37951097300959
 30
0.0
 40
1.9999999999999989
 50
270.0
 51
304.86383795430459
1001
GENIUS_GENOBJ-N-FIL_13
1002
{
1000
OWNER
1000
GEN
1002
}
1001
GENIUS_GENODEF_13
1002
{
1000
HIER
1070
     0
1002
}
1002
{
1000
MANEDIT
1070
     0
1002
}
1002
{
1000
NOSEL
1070
     0
1002
}
1002
{
1000
BEHIND
1070
     0
1002
}
1002
{
1000
OTHER
1070
     0
1002
}
1002
{
1000
REACTOR
1002
}
  0
ARC
  5
150FA
  8
AM_0
 10
144.43825340624269
 20
315.65448284913703
 30
0.0
 40
0.9999999999999996
 50
108.5665808019029
 51
177.9999999999898
1001
GENIUS_GENODEF_13
1002
{
1000
HIER
1070
     0
1002
}
1002
{
1000
MANEDIT
1070
     0
1002
}
1002
{
1000
NOSEL
1070
     0
1002
}
1002
{
1000
BEHIND
1070
     0
1002
}
1002
{
1000
REACTOR
1002
}
1001
GENIUS_GENOBJ-N-FIL_13
1002
{
1000
OWNER
1000
GEN
1002
}
  0
ARC
  5
150FB
  8
AM_0
 10
179.46296240193229
 20
211.37951097300979
 30
0.0
 40
110.9999999999999
 50
108.5271423144743
 51
108.56658080189671
  0
ARC
  5
150FC
  8
AM_0
 10
144.51003744131
 20
315.67856675347701
 30
0.0
 40
0.9999999999999996
 50
2.0000000000036491
 51
108.5271423144743
1001
GENIUS_GENODEF_13
1002
{
1000
HIER
1070
     0
1002
}
1002
{
1000
MANEDIT
1070
     0
1002
}
1002
{
1000
NOSEL
1070
     0
1002
}
1002
{
1000
BEHIND
1070
     0
1002
}
1002
{
1000
REACTOR
1002
}
1001
GENIUS_GENOBJ-N-FIL_13
1002
{
1000
OWNER
1000
GEN
1002
}
  0
LINE
  5
150FD
  8
AM_0
 10
155.5051483249766
 20
318.54581540487129
 30
0.0
 11
155.7455900582479
 21
311.66046503112977
 31
0.0
  0
LINE
  5
150FE
  8
AM_0
 10
153.4363516759731
 20
318.52948067054848
 30
0.0
 11
153.15173779790771
 21
310.37920557044271
 31
0.0
  0
ARC
  5
150FF
  8
AM_0
 10
179.46296240193229
 20
211.37951097300979
 30
0.0
 40
110.9999999999999
 50
103.11367014329809
 51
103.15111826065571
  0
ARC
  5
15100
  8
AM_0
 10
154.4357425029921
 20
318.4945811738462
 30
0.0
 40
0.9999999999999996
 50
103.15111826065571
 51
178.00000000000281
1001
GENIUS_GENODEF_13
1002
{
1000
HIER
1070
     0
1002
}
1002
{
1000
MANEDIT
1070
     0
1002
}
1002
{
1000
NOSEL
1070
     0
1002
}
1002
{
1000
BEHIND
1070
     0
1002
}
1002
{
1000
REACTOR
1002
}
1001
GENIUS_GENOBJ-N-FIL_13
1002
{
1000
OWNER
1000
GEN
1002
}
  0
ARC
  5
15101
  8
AM_0
 10
154.5057574979576
 20
318.51091590816861
 30
0.0
 40
0.9999999999999996
 50
2.0000000000036491
 51
103.11367014329809
1001
GENIUS_GENODEF_13
1002
{
1000
HIER
1070
     0
1002
}
1002
{
1000
MANEDIT
1070
     0
1002
}
1002
{
1000
NOSEL
1070
     0
1002
}
1002
{
1000
BEHIND
1070
     0
1002
}
1002
{
1000
REACTOR
1002
}
1001
GENIUS_GENOBJ-N-FIL_13
1002
{
1000
OWNER
1000
GEN
1002
}
  0
LINE
  5
15102
  8
AM_0
 10
163.43371504586611
 20
320.38277015598192
 30
0.0
 11
163.22817264201859
 21
314.49680581903272
 31
0.0
  0
LINE
  5
15103
  8
AM_0
 10
165.50140445583881
 20
320.39225230835541
 30
0.0
 11
165.6836475417052
 21
315.17349314242949
 31
0.0
  0
ARC
  5
15104
  8
AM_0
 10
179.46296240193229
 20
211.37951097300979
 30
0.0
 40
110.9999999999999
 50
97.816947831694847
 51
97.853178088805706
  0
ARC
  5
15105
  8
AM_0
 10
174.43029575005289
 20
321.2643246024237
 30
0.0
 40
0.9999999999999996
 50
92.622284087952934
 51
177.99999999999631
1001
GENIUS_GENODEF_13
1002
{
1000
HIER
1070
     0
1002
}
1002
{
1000
MANEDIT
1070
     0
1002
}
1002
{
1000
NOSEL
1070
     0
1002
}
1002
{
1000
BEHIND
1070
     0
1002
}
1002
{
1000
REACTOR
1002
}
1001
GENIUS_GENOBJ-N-FIL_13
1002
{
1000
OWNER
1000
GEN
1002
}
  0
ARC
  5
15106
  8
AM_0
 10
174.49866978416901
 20
321.26743478088417
 30
0.0
 40
0.9999999999999996
 50
2.0000000000036491
 51
92.586633228773294
1001
GENIUS_GENODEF_13
1002
{
1000
HIER
1070
     0
1002
}
1002
{
1000
MANEDIT
1070
     0
1002
}
1002
{
1000
NOSEL
1070
     0
1002
}
1002
{
1000
BEHIND
1070
     0
1002
}
1002
{
1000
REACTOR
1002
}
1001
GENIUS_GENOBJ-N-FIL_13
1002
{
1000
OWNER
1000
GEN
1002
}
  0
LINE
  5
1510A
  8
ﾁｭｳｼﾝｾﾝ1
 10
229.42154972863551
 20
318.87951065165299
 30
0.0
 11
255.4215497286352
 21
318.87951065165299
 31
0.0
1001
GENIUS_GENODEF_13
1002
{
1000
HIER
1070
     0
1002
}
1002
{
1000
MANEDIT
1070
     0
1002
}
1002
{
1000
NOSEL
1070
     0
1002
}
1002
{
1000
BEHIND
1070
     0
1002
}
1002
{
1000
OTHER
1070
     0
1002
}
1002
{
1000
REACTOR
1002
}
1001
GENIUS_GENOBJ-N-CEN_13
1002
{
1000
OWNER
1000
GEN
1002
}
  0
LINE
  5
1510B
  8
0
 10
236.3582639642166
 20
330.42188440532459
 30
0.0
 11
249.4629624556313
 21
330.87951052312781
 31
0.0
  0
LINE
  5
1510E
  8
0
 10
233.46296238968139
 20
307.78868187616092
 30
0.0
 11
233.46296244576089
 21
327.42371193253632
 31
0.0
  0
LINE
  5
15110
  8
AM_0
 10
183.42786419267671
 20
321.30233427758662
 30
0.0
 11
183.26893423131591
 21
316.75117564981281
 31
0.0
  0
LINE
  5
15111
  8
AM_0
 10
185.49501988083091
 20
321.29922409912632
 30
0.0
 11
185.6612683546789
 21
316.5384906941207
 31
0.0
  0
ARC
  5
15112
  8
AM_0
 10
194.49281893097961
 20
320.34787065927941
 30
0.0
 40
0.9999999999999996
 50
1.9999999999971321
 51
82.146821911194266
1001
GENIUS_GENODEF_13
1002
{
1000
HIER
1070
     0
1002
}
1002
{
1000
MANEDIT
1070
     0
1002
}
1002
{
1000
NOSEL
1070
     0
1002
}
1002
{
1000
BEHIND
1070
     0
1002
}
1002
{
1000
REACTOR
1002
}
1001
GENIUS_GENOBJ-N-FIL_13
1002
{
1000
OWNER
1000
GEN
1002
}
  0
ARC
  5
15113
  8
AM_0
 10
194.42391117504519
 20
320.35735281165267
 30
0.0
 40
0.9999999999999996
 50
82.183052168305124
 51
178.00000000000281
1001
GENIUS_GENODEF_13
1002
{
1000
HIER
1070
     0
1002
}
1002
{
1000
MANEDIT
1070
     0
1002
}
1002
{
1000
NOSEL
1070
     0
1002
}
1002
{
1000
BEHIND
1070
     0
1002
}
1002
{
1000
REACTOR
1002
}
1001
GENIUS_GENOBJ-N-FIL_13
1002
{
1000
OWNER
1000
GEN
1002
}
  0
LINE
  5
15114
  8
0
 10
204.46296314231861
 20
303.87891327132991
 30
0.0
 11
230.56766087978869
 21
304.79050940367222
 31
0.0
  0
LINE
  5
15115
  8
AM_0
 10
212.90320761634439
 20
306.37951097300981
 30
0.0
 11
220.46296240193249
 21
306.37951097300981
 31
0.0
  0
ARC
  5
15116
  8
AM_0
 10
214.4158873625548
 20
315.67856675347701
 30
0.0
 40
0.9999999999999996
 50
71.472857685525653
 51
177.99999999999631
1001
GENIUS_GENODEF_13
1002
{
1000
HIER
1070
     0
1002
}
1002
{
1000
MANEDIT
1070
     0
1002
}
1002
{
1000
NOSEL
1070
     0
1002
}
1002
{
1000
BEHIND
1070
     0
1002
}
1002
{
1000
REACTOR
1002
}
1001
GENIUS_GENOBJ-N-FIL_13
1002
{
1000
OWNER
1000
GEN
1002
}
  0
LINE
  5
15117
  8
AM_0
 10
193.42452034802599
 20
320.39225230835541
 30
0.0
 11
193.2422772621596
 21
315.17349314242949
 31
0.0
  0
LINE
  5
15118
  8
AM_0
 10
195.49220975799869
 20
320.38277015598192
 30
0.0
 11
195.69775216184601
 21
314.49680581903272
 31
0.0
  0
LINE
  5
15119
  8
AM_0
 10
213.41649653553571
 20
315.71346625017998
 30
0.0
 11
213.09085572025239
 21
306.3883333844708
 31
0.0
  0
ARC
  5
1511A
  8
AM_0
 10
212.90320761634439
 20
308.37951097300959
 30
0.0
 40
1.9999999999999989
 50
235.13616204569539
 51
270.0
1001
GENIUS_GENODEF_13
1002
{
1000
HIER
1070
     0
1002
}
1002
{
1000
MANEDIT
1070
     0
1002
}
1002
{
1000
NOSEL
1070
     0
1002
}
1002
{
1000
BEHIND
1070
     0
1002
}
1002
{
1000
OTHER
1070
     0
1002
}
1002
{
1000
REACTOR
1002
}
1001
GENIUS_GENOBJ-N-FIL_13
1002
{
1000
OWNER
1000
GEN
1002
}
  0
LINE
  5
1511B
  8
AM_0
 10
205.48957312789179
 20
318.52948067054848
 30
0.0
 11
205.7741870059572
 21
310.37920557044271
 31
0.0
  0
LINE
  5
1511C
  8
AM_0
 10
203.4207764788882
 20
318.54581540487129
 30
0.0
 11
203.18033474561699
 21
311.66046503112977
 31
0.0
  0
ARC
  5
1511D
  8
AM_0
 10
179.46296240193229
 20
211.37951097300979
 30
0.0
 40
110.9999999999999
 50
76.848881739344279
 51
76.886329856701835
  0
ARC
  5
1511E
  8
AM_0
 10
204.4901823008727
 20
318.4945811738462
 30
0.0
 40
0.9999999999999996
 50
1.9999999999971321
 51
76.848881739344279
1001
GENIUS_GENODEF_13
1002
{
1000
HIER
1070
     0
1002
}
1002
{
1000
MANEDIT
1070
     0
1002
}
1002
{
1000
NOSEL
1070
     0
1002
}
1002
{
1000
BEHIND
1070
     0
1002
}
1002
{
1000
REACTOR
1002
}
1001
GENIUS_GENOBJ-N-FIL_13
1002
{
1000
OWNER
1000
GEN
1002
}
  0
ARC
  5
1511F
  8
AM_0
 10
204.4201673059072
 20
318.51091590816861
 30
0.0
 40
0.9999999999999996
 50
76.886329856701835
 51
177.99999999999631
1001
GENIUS_GENODEF_13
1002
{
1000
HIER
1070
     0
1002
}
1002
{
1000
MANEDIT
1070
     0
1002
}
1002
{
1000
NOSEL
1070
     0
1002
}
1002
{
1000
BEHIND
1070
     0
1002
}
1002
{
1000
REACTOR
1002
}
1001
GENIUS_GENOBJ-N-FIL_13
1002
{
1000
OWNER
1000
GEN
1002
}
  0
ARC
  5
15124
  8
0
 10
230.46296238968139
 20
307.7886818847295
 30
0.0
 40
3.0
 50
272.00000000000051
 51
359.99999983635439
1001
GENIUS_GENOBJ-N-FIL_13
1002
{
1000
OWNER
1000
GEN
1002
}
1001
GENIUS_GENODEF_13
1002
{
1000
HIER
1070
     0
1002
}
1002
{
1000
MANEDIT
1070
     0
1002
}
1002
{
1000
NOSEL
1070
     0
1002
}
1002
{
1000
BEHIND
1070
     0
1002
}
1002
{
1000
OTHER
1070
     0
1002
}
1002
{
1000
REACTOR
1002
}
  0
LINE
  5
15125
  8
AM_0
 10
215.48706222464151
 20
315.68938234583982
 30
0.0
 11
215.81217009684991
 21
306.37951097300981
 31
0.0
  0
ARC
  5
15126
  8
AM_0
 10
220.46296240193249
 20
301.37951097300981
 30
0.0
 40
4.9999999999999982
 50
39.68025457286133
 51
90.0
1001
GENIUS_GENODEF_13
1002
{
1000
HIER
1070
     0
1002
}
1002
{
1000
MANEDIT
1070
     0
1002
}
1002
{
1000
NOSEL
1070
     0
1002
}
1002
{
1000
BEHIND
1070
     0
1002
}
1002
{
1000
REACTOR
1002
}
1001
GENIUS_GENOBJ-N-FIL_13
1002
{
1000
OWNER
1000
GEN
1002
}
  0
ARC
  5
15127
  8
AM_0
 10
214.48767139762219
 20
315.65448284913703
 30
0.0
 40
0.9999999999999996
 50
2.0000000000101679
 51
71.43341919809707
1001
GENIUS_GENODEF_13
1002
{
1000
HIER
1070
     0
1002
}
1002
{
1000
MANEDIT
1070
     0
1002
}
1002
{
1000
NOSEL
1070
     0
1002
}
1002
{
1000
BEHIND
1070
     0
1002
}
1002
{
1000
REACTOR
1002
}
1001
GENIUS_GENOBJ-N-FIL_13
1002
{
1000
OWNER
1000
GEN
1002
}
  0
ARC
  5
15128
  8
AM_0
 10
179.46296240193229
 20
211.37951097300979
 30
0.0
 40
110.9999999999999
 50
71.433419198103252
 51
71.472857685525653
  0
ARC
  5
1512B
  8
AM_0
 10
184.42725501969579
 20
321.26743478088417
 30
0.0
 40
0.9999999999999996
 50
87.413366771226706
 51
177.99999999999631
1001
GENIUS_GENODEF_13
1002
{
1000
HIER
1070
     0
1002
}
1002
{
1000
MANEDIT
1070
     0
1002
}
1002
{
1000
NOSEL
1070
     0
1002
}
1002
{
1000
BEHIND
1070
     0
1002
}
1002
{
1000
REACTOR
1002
}
1001
GENIUS_GENOBJ-N-FIL_13
1002
{
1000
OWNER
1000
GEN
1002
}
  0
ARC
  5
1512C
  8
AM_0
 10
184.4956290538118
 20
321.2643246024237
 30
0.0
 40
0.9999999999999996
 50
2.0000000000036491
 51
87.37771591204698
1001
GENIUS_GENODEF_13
1002
{
1000
HIER
1070
     0
1002
}
1002
{
1000
MANEDIT
1070
     0
1002
}
1002
{
1000
NOSEL
1070
     0
1002
}
1002
{
1000
BEHIND
1070
     0
1002
}
1002
{
1000
REACTOR
1002
}
1001
GENIUS_GENOBJ-N-FIL_13
1002
{
1000
OWNER
1000
GEN
1002
}
  0
ARC
  5
1512D
  8
AM_0
 10
179.46296240193229
 20
211.37951097300979
 30
0.0
 40
110.9999999999999
 50
82.146821911194266
 51
82.183052168305124
  0
ARC
  5
1512F
  8
0
 10
236.46296244576089
 20
327.4237119239682
 30
0.0
 40
3.0
 50
91.999999836354448
 51
179.99999983635439
1001
GENIUS_GENODEF_13
1002
{
1000
HIER
1070
     0
1002
}
1002
{
1000
MANEDIT
1070
     0
1002
}
1002
{
1000
NOSEL
1070
     0
1002
}
1002
{
1000
BEHIND
1070
     0
1002
}
1002
{
1000
OTHER
1070
     0
1002
}
1002
{
1000
REACTOR
1002
}
1001
GENIUS_GENOBJ-N-FIL_13
1002
{
1000
OWNER
1000
GEN
1002
}
  0
ARC
  5
15134
  8
0
 10
408.9976041206113
 20
318.87951144231232
 30
0.0
 40
10.0
 50
234.09785466296589
 51
11.536959032818149
  0
LINE
  5
15135
  8
0
 10
398.06639011392008
 20
323.83012356001228
 30
0.0
 11
386.6109505331674
 21
298.535905669214
 31
0.0
  0
CIRCLE
  5
15136
  8
0
 10
408.9976041206113
 20
318.87951144231232
 30
0.0
 40
4.5
  0
LINE
  5
15137
  8
ﾁｭｳｼﾝｾﾝ1
 10
408.9976041206113
 20
331.87951144231249
 30
0.0
 11
408.9976041206113
 21
305.87951144231272
 31
0.0
1001
GENIUS_GENODEF_13
1002
{
1000
HIER
1070
     0
1002
}
1002
{
1000
MANEDIT
1070
     0
1002
}
1002
{
1000
NOSEL
1070
     0
1002
}
1002
{
1000
BEHIND
1070
     0
1002
}
1002
{
1000
OTHER
1070
     0
1002
}
1002
{
1000
REACTOR
1002
}
1001
GENIUS_GENOBJ-N-CEN_13
1002
{
1000
OWNER
1000
GEN
1002
}
  0
LINE
  5
15138
  8
0
 10
395.64689131474847
 20
308.79197122800031
 30
0.0
 11
390.25468853539792
 21
296.8857016299807
 31
0.0
  0
ARC
  5
15139
  8
0
 10
394.83497856684988
 20
294.87951144231232
 30
0.0
 40
5.0
 50
90.0
 51
155.63481369578261
1001
GENIUS_GENODEF_13
1002
{
1000
HIER
1070
     0
1002
}
1002
{
1000
MANEDIT
1070
     0
1002
}
1002
{
1000
NOSEL
1070
     0
1002
}
1002
{
1000
BEHIND
1070
     0
1002
}
1002
{
1000
OTHER
1070
     0
1002
}
1002
{
1000
REACTOR
1002
}
1001
GENIUS_GENOBJ-N-FIL_13
1002
{
1000
OWNER
1000
GEN
1002
}
  0
ARC
  5
1513A
  8
0
 10
397.9976320751914
 20
293.37901791751239
 30
0.0
 40
8.5000003129243851
 50
155.63481369578261
 51
180.0
  0
ARC
  5
1513B
  8
0
 10
397.9976320751914
 20
293.37901791751239
 30
0.0
 40
12.50000031292438
 50
155.63481369578261
 51
180.0
  0
CIRCLE
  5
1513C
  8
ｷｲﾛ
 10
397.99763347589987
 20
293.37951144231232
 30
0.0
 40
4.0
  0
CIRCLE
  5
1513D
  8
0
 10
397.99763347589987
 20
293.37951144231232
 30
0.0
 40
3.25
  0
LINE
  5
1513E
  8
ﾁｭｳｼﾝｾﾝ1
 10
395.99760412061141
 20
318.87951144231249
 30
0.0
 11
421.99760412061141
 21
318.87951144231249
 31
0.0
1001
GENIUS_GENODEF_13
1002
{
1000
HIER
1070
     0
1002
}
1002
{
1000
MANEDIT
1070
     0
1002
}
1002
{
1000
NOSEL
1070
     0
1002
}
1002
{
1000
BEHIND
1070
     0
1002
}
1002
{
1000
OTHER
1070
     0
1002
}
1002
{
1000
REACTOR
1002
}
1001
GENIUS_GENOBJ-N-CEN_13
1002
{
1000
OWNER
1000
GEN
1002
}
  0
ARC
  5
1513F
  8
0
 10
400.2015638175364
 20
306.72921617895861
 30
0.0
 40
5.0
 50
54.097854662965901
 51
155.63481369578261
1001
GENIUS_GENODEF_13
1002
{
1000
HIER
1070
     0
1002
}
1002
{
1000
MANEDIT
1070
     0
1002
}
1002
{
1000
NOSEL
1070
     0
1002
}
1002
{
1000
BEHIND
1070
     0
1002
}
1002
{
1000
OTHER
1070
     0
1002
}
1002
{
1000
REACTOR
1002
}
1001
GENIUS_GENOBJ-N-FIL_13
1002
{
1000
OWNER
1000
GEN
1002
}
  0
ARC
  5
15140
  8
0
 10
417.2118024052877
 20
310.13154330450908
 30
0.0
 40
2.0
 50
65.534080667141254
 51
133.19759633442229
1001
GENIUS_GENODEF_13
1002
{
1000
HIER
1070
     0
1002
}
1002
{
1000
MANEDIT
1070
     0
1002
}
1002
{
1000
NOSEL
1070
     0
1002
}
1002
{
1000
BEHIND
1070
     0
1002
}
1002
{
1000
OTHER
1070
     0
1002
}
1002
{
1000
REACTOR
1002
}
1001
GENIUS_GENOBJ-N-FIL_13
1002
{
1000
OWNER
1000
GEN
1002
}
  0
ARC
  5
15141
  8
0
 10
420.8863953070645
 20
317.2495899334927
 30
0.0
 40
2.0
 50
172.19356800643959
 51
245.7481492359598
1001
GENIUS_GENODEF_13
1002
{
1000
HIER
1070
     0
1002
}
1002
{
1000
MANEDIT
1070
     0
1002
}
1002
{
1000
NOSEL
1070
     0
1002
}
1002
{
1000
BEHIND
1070
     0
1002
}
1002
{
1000
OTHER
1070
     0
1002
}
1002
{
1000
REACTOR
1002
}
1001
GENIUS_GENOBJ-N-FIL_13
1002
{
1000
OWNER
1000
GEN
1002
}
  0
ARC
  5
15142
  8
0
 10
408.9976041206113
 20
318.87951144231232
 30
0.0
 40
12.0
 50
90.0
 51
155.63481369578261
  0
ARC
  5
15143
  8
0
 10
423.6945425773103
 20
321.87951144231232
 30
0.0
 40
5.0
 50
90.0
 51
191.53695903281809
1001
GENIUS_GENOBJ-N-FIL_13
1002
{
1000
OWNER
1000
GEN
1002
}
1001
GENIUS_GENODEF_13
1002
{
1000
HIER
1070
     0
1002
}
1002
{
1000
MANEDIT
1070
     0
1002
}
1002
{
1000
NOSEL
1070
     0
1002
}
1002
{
1000
BEHIND
1070
     0
1002
}
1002
{
1000
OTHER
1070
     0
1002
}
1002
{
1000
REACTOR
1002
}
  0
LINE
  5
1515E
  8
AM_0
 10
539.49760583424415
 20
293.37901791751239
 30
0.0
 11
539.49760583424415
 21
194.380004967113
 31
0.0
  0
LINE
  5
1515F
  8
AM_0
 10
543.49760583424415
 20
293.37901791751239
 30
0.0
 11
543.49760583424415
 21
194.380004967113
 31
0.0
  0
LINE
  5
15161
  8
ﾁｭｳｼﾝｾﾝ1
 10
444.99763347589982
 20
337.41202771273811
 30
0.0
 11
444.99763347589982
 21
150.3469951718869
 31
0.0
  0
LINE
  5
15162
  8
AM_0
 10
547.49152824664179
 20
314.8789364424124
 30
0.0
 11
547.49152824664145
 21
205.88008644221259
 31
0.0
  0
ARC
  5
15163
  8
AM_0
 10
315.4915435054312
 20
260.37951144231278
 30
0.0
 40
235.99999999999989
 50
0.0000050089569452
 51
10.56397173027319
  0
LINE
  5
15164
  8
AM_0
 10
558.99763176226656
 20
316.87893644241251
 30
0.0
 11
558.99763176226656
 21
203.8800864422127
 31
0.0
  0
LINE
  5
15166
  8
ﾁｭｳｼﾝｾﾝ1
 10
526.38341378465725
 20
260.37951144231272
 30
0.0
 11
746.66279494965625
 21
260.37951144231278
 31
0.0
  0
LINE
  5
15175
  8
0
 10
533.34834628176259
 20
178.9670516566249
 30
0.0
 11
538.74054906111348
 21
190.87332125464459
 31
0.0
  0
CIRCLE
  5
15176
  8
ｷｲﾛ
 10
530.99763347589976
 20
194.37951144231249
 30
0.0
 40
4.0
  0
ARC
  5
15177
  8
0
 10
534.16025902966112
 20
192.87951144231249
 30
0.0
 40
5.0
 50
270.0
 51
335.63481369578261
1001
GENIUS_GENODEF_13
1002
{
1000
HIER
1070
     0
1002
}
1002
{
1000
MANEDIT
1070
     0
1002
}
1002
{
1000
NOSEL
1070
     0
1002
}
1002
{
1000
BEHIND
1070
     0
1002
}
1002
{
1000
OTHER
1070
     0
1002
}
1002
{
1000
REACTOR
1002
}
1001
GENIUS_GENOBJ-N-FIL_13
1002
{
1000
OWNER
1000
GEN
1002
}
  0
ARC
  5
15178
  8
0
 10
530.99760552131988
 20
194.38000496711271
 30
0.0
 40
12.50000031292438
 50
335.63481369578261
 51
0.0
  0
LINE
  5
15179
  8
0
 10
466.49763277554558
 20
191.87951144231221
 30
0.0
 11
466.49763277554558
 21
187.80942159430799
 31
0.0
  0
LINE
  5
1517A
  8
0
 10
462.49763277554558
 20
191.87951144231221
 30
0.0
 11
462.49763277554558
 21
187.8094225742683
 31
0.0
  0
LINE
  5
1517C
  8
AM_0
 10
534.16025902966066
 20
187.87951144231249
 30
0.0
 11
466.49763277554558
 21
187.87951144231249
 31
0.0
  0
ARC
  5
1517D
  8
0
 10
464.49761879825559
 20
73.704457135044436
 30
0.0
 40
112.1750543072711
 50
65.534080667141254
 51
87.992286239871859
  0
ARC
  5
15181
  8
0
 10
468.49763277554553
 20
187.80942159430799
 30
0.0
 40
2.0
 50
180.0
 51
267.99228623987182
1001
GENIUS_GENOBJ-N-FIL_13
1002
{
1000
OWNER
1000
GEN
1002
}
1001
GENIUS_GENODEF_13
1002
{
1000
HIER
1070
     0
1002
}
1002
{
1000
MANEDIT
1070
     0
1002
}
1002
{
1000
NOSEL
1070
     0
1002
}
1002
{
1000
BEHIND
1070
     0
1002
}
1002
{
1000
OTHER
1070
     0
1002
}
1002
{
1000
REACTOR
1002
}
  0
ARC
  5
15182
  8
0
 10
460.49763277554553
 20
187.8094225742683
 30
0.0
 40
2.0
 50
272.00769972323309
 51
0.0
1001
GENIUS_GENOBJ-N-FIL_13
1002
{
1000
OWNER
1000
GEN
1002
}
1001
GENIUS_GENODEF_13
1002
{
1000
HIER
1070
     0
1002
}
1002
{
1000
MANEDIT
1070
     0
1002
}
1002
{
1000
NOSEL
1070
     0
1002
}
1002
{
1000
BEHIND
1070
     0
1002
}
1002
{
1000
OTHER
1070
     0
1002
}
1002
{
1000
REACTOR
1002
}
  0
LINE
  5
15183
  8
ﾁｭｳｼﾝｾﾝ1
 10
506.9976334758997
 20
168.87951144231269
 30
0.0
 11
532.99763347589965
 21
168.87951144231269
 31
0.0
1001
GENIUS_GENODEF_13
1002
{
1000
HIER
1070
     0
1002
}
1002
{
1000
MANEDIT
1070
     0
1002
}
1002
{
1000
NOSEL
1070
     0
1002
}
1002
{
1000
BEHIND
1070
     0
1002
}
1002
{
1000
OTHER
1070
     0
1002
}
1002
{
1000
REACTOR
1002
}
1001
GENIUS_GENOBJ-N-CEN_13
1002
{
1000
OWNER
1000
GEN
1002
}
  0
ARC
  5
15184
  8
0
 10
519.99763347589965
 20
168.87951144231289
 30
0.0
 40
12.0
 50
270.0
 51
335.63481369578261
  0
ARC
  5
15185
  8
0
 10
528.79367377897449
 20
181.02980670566629
 30
0.0
 40
5.0
 50
234.09785466296589
 51
335.63481369578261
1001
GENIUS_GENODEF_13
1002
{
1000
HIER
1070
     0
1002
}
1002
{
1000
MANEDIT
1070
     0
1002
}
1002
{
1000
NOSEL
1070
     0
1002
}
1002
{
1000
BEHIND
1070
     0
1002
}
1002
{
1000
OTHER
1070
     0
1002
}
1002
{
1000
REACTOR
1002
}
1001
GENIUS_GENOBJ-N-FIL_13
1002
{
1000
OWNER
1000
GEN
1002
}
  0
ARC
  5
15186
  8
0
 10
519.99763347589965
 20
168.87951144231249
 30
0.0
 40
10.0
 50
54.097854662965901
 51
191.53695903281809
  0
LINE
  5
15187
  8
ﾁｭｳｼﾝｾﾝ1
 10
519.99763347589965
 20
155.87951144231269
 30
0.0
 11
519.99763347589965
 21
181.87951144231269
 31
0.0
1001
GENIUS_GENODEF_13
1002
{
1000
HIER
1070
     0
1002
}
1002
{
1000
MANEDIT
1070
     0
1002
}
1002
{
1000
NOSEL
1070
     0
1002
}
1002
{
1000
BEHIND
1070
     0
1002
}
1002
{
1000
OTHER
1070
     0
1002
}
1002
{
1000
REACTOR
1002
}
1001
GENIUS_GENOBJ-N-CEN_13
1002
{
1000
OWNER
1000
GEN
1002
}
  0
CIRCLE
  5
15188
  8
0
 10
519.99763347589965
 20
168.87951144231269
 30
0.0
 40
4.5
  0
ARC
  5
15189
  8
0
 10
505.30069501920048
 20
165.87951144231269
 30
0.0
 40
5.0
 50
270.0
 51
11.536959032818149
1001
GENIUS_GENODEF_13
1002
{
1000
HIER
1070
     0
1002
}
1002
{
1000
MANEDIT
1070
     0
1002
}
1002
{
1000
NOSEL
1070
     0
1002
}
1002
{
1000
BEHIND
1070
     0
1002
}
1002
{
1000
OTHER
1070
     0
1002
}
1002
{
1000
REACTOR
1002
}
1001
GENIUS_GENOBJ-N-FIL_13
1002
{
1000
OWNER
1000
GEN
1002
}
  0
ARC
  5
1518A
  8
0
 10
508.10884228944678
 20
170.5094329511324
 30
0.0
 40
2.0
 50
352.19356800643959
 51
65.7481492359599
1001
GENIUS_GENODEF_13
1002
{
1000
HIER
1070
     0
1002
}
1002
{
1000
MANEDIT
1070
     0
1002
}
1002
{
1000
NOSEL
1070
     0
1002
}
1002
{
1000
BEHIND
1070
     0
1002
}
1002
{
1000
OTHER
1070
     0
1002
}
1002
{
1000
REACTOR
1002
}
1001
GENIUS_GENOBJ-N-FIL_13
1002
{
1000
OWNER
1000
GEN
1002
}
  0
ARC
  5
1518B
  8
0
 10
511.78343519122382
 20
177.62747958011579
 30
0.0
 40
2.0
 50
245.53408066713951
 51
313.1975963344222
1001
GENIUS_GENOBJ-N-FIL_13
1002
{
1000
OWNER
1000
GEN
1002
}
1001
GENIUS_GENODEF_13
1002
{
1000
HIER
1070
     0
1002
}
1002
{
1000
MANEDIT
1070
     0
1002
}
1002
{
1000
NOSEL
1070
     0
1002
}
1002
{
1000
BEHIND
1070
     0
1002
}
1002
{
1000
OTHER
1070
     0
1002
}
1002
{
1000
REACTOR
1002
}
  0
LINE
  5
1518C
  8
0
 10
530.92884748259121
 20
163.9288993246131
 30
0.0
 11
542.38428706334366
 21
189.22311721541141
 31
0.0
  0
ARC
  5
1518F
  8
0
 10
464.49763277554553
 20
191.87951144231221
 30
0.0
 40
2.0
 50
0.0
 51
180.0
  0
ARC
  5
15193
  8
AM_0
 10
315.4915435054312
 20
260.37951144231278
 30
0.0
 40
235.99999999999989
 50
349.4360382876414
 51
0.0000050089569452
  0
CIRCLE
  5
15194
  8
0
 10
530.99763347589976
 20
194.37951144231249
 30
0.0
 40
3.25
  0
ARC
  5
15195
  8
0
 10
530.99760552131988
 20
194.38000496711271
 30
0.0
 40
8.5000003129243851
 50
335.63481369578261
 51
0.0
  0
LINE
  5
15196
  8
AM_0
 10
558.99763176226668
 20
203.8800864422127
 30
0.0
 11
549.49152824664179
 21
203.8800864422127
 31
0.0
  0
ARC
  5
15197
  8
AM_0
 10
549.49152824664179
 20
205.88008644221259
 30
0.0
 40
1.9999999999999989
 50
180.0
 51
270.0
1001
GENIUS_GENOBJ-N-FIL_13
1002
{
1000
OWNER
1000
GEN
1002
}
1001
GENIUS_GENODEF_13
1002
{
1000
HIER
1070
     0
1002
}
1002
{
1000
MANEDIT
1070
     0
1002
}
1002
{
1000
NOSEL
1070
     0
1002
}
1002
{
1000
BEHIND
1070
     0
1002
}
1002
{
1000
OTHER
1070
     0
1002
}
1002
{
1000
REACTOR
1002
}
  0
ARC
  5
15198
  8
AM_0
 10
546.027426631504
 20
204.37951144231269
 30
0.0
 40
1.9999999999999989
 50
42.72374923871029
 51
90.0
1001
GENIUS_GENOBJ-N-FIL_13
1002
{
1000
OWNER
1000
GEN
1002
}
1001
GENIUS_GENODEF_13
1002
{
1000
HIER
1070
     0
1002
}
1002
{
1000
MANEDIT
1070
     0
1002
}
1002
{
1000
NOSEL
1070
     0
1002
}
1002
{
1000
BEHIND
1070
     0
1002
}
1002
{
1000
OTHER
1070
     0
1002
}
1002
{
1000
REACTOR
1002
}
  0
LINE
  5
15199
  8
AM_0
 10
543.49763176226645
 20
206.37951144231289
 30
0.0
 11
546.027426631504
 21
206.37951144231289
 31
0.0
  0
ARC
  5
1519A
  8
0
 10
535.49765807771621
 20
223.87951144231249
 30
0.0
 40
2.0
 50
90.0
 51
270.0
  0
ARC
  5
1519B
  8
0
 10
537.49765807771632
 20
219.87951144231249
 30
0.0
 40
2.0
 50
0.0
 51
90.0
1001
GENIUS_GENODEF_13
1002
{
1000
HIER
1070
     0
1002
}
1002
{
1000
MANEDIT
1070
     0
1002
}
1002
{
1000
NOSEL
1070
     0
1002
}
1002
{
1000
BEHIND
1070
     0
1002
}
1002
{
1000
OTHER
1070
     0
1002
}
1002
{
1000
REACTOR
1002
}
1001
GENIUS_GENOBJ-N-FIL_13
1002
{
1000
OWNER
1000
GEN
1002
}
  0
LINE
  5
1519C
  8
0
 10
535.49765807771655
 20
221.87951144231249
 30
0.0
 11
537.49765807771632
 21
221.87951144231249
 31
0.0
  0
ARC
  5
1519D
  8
0
 10
537.49765807771632
 20
227.87951144231249
 30
0.0
 40
2.0
 50
270.0
 51
0.0
1001
GENIUS_GENOBJ-N-FIL_13
1002
{
1000
OWNER
1000
GEN
1002
}
1001
GENIUS_GENODEF_13
1002
{
1000
HIER
1070
     0
1002
}
1002
{
1000
MANEDIT
1070
     0
1002
}
1002
{
1000
NOSEL
1070
     0
1002
}
1002
{
1000
BEHIND
1070
     0
1002
}
1002
{
1000
OTHER
1070
     0
1002
}
1002
{
1000
REACTOR
1002
}
  0
LINE
  5
1519E
  8
0
 10
535.49765807771655
 20
225.87951144231249
 30
0.0
 11
537.49765807771632
 21
225.87951144231249
 31
0.0
  0
LINE
  5
1519F
  8
AM_0
 10
558.99763176226668
 20
214.37951144231269
 30
0.0
 11
547.49152824664145
 21
214.37951144231269
 31
0.0
  0
LINE
  5
151A0
  8
AM_0
 10
546.99152824664145
 20
217.1128946210238
 30
0.0
 11
543.49760583424415
 21
217.11289462102391
 31
0.0
  0
LINE
  5
151A1
  8
AM_0
 10
558.99763176226668
 20
228.43956144231279
 30
0.0
 11
549.39161562630409
 21
228.43956144231279
 31
0.0
  0
ARC
  5
151A2
  8
0
 10
537.49765807771632
 20
267.87951144231249
 30
0.0
 40
2.0
 50
270.0
 51
0.0
1001
GENIUS_GENODEF_13
1002
{
1000
HIER
1070
     0
1002
}
1002
{
1000
MANEDIT
1070
     0
1002
}
1002
{
1000
NOSEL
1070
     0
1002
}
1002
{
1000
BEHIND
1070
     0
1002
}
1002
{
1000
OTHER
1070
     0
1002
}
1002
{
1000
REACTOR
1002
}
1001
GENIUS_GENOBJ-N-FIL_13
1002
{
1000
OWNER
1000
GEN
1002
}
  0
ARC
  5
151A3
  8
0
 10
535.49765807771621
 20
263.87951144231249
 30
0.0
 40
2.0
 50
90.0
 51
270.0
  0
ARC
  5
151A4
  8
0
 10
537.49765807771632
 20
259.87951144231249
 30
0.0
 40
2.0
 50
0.0
 51
90.0
1001
GENIUS_GENOBJ-N-FIL_13
1002
{
1000
OWNER
1000
GEN
1002
}
1001
GENIUS_GENODEF_13
1002
{
1000
HIER
1070
     0
1002
}
1002
{
1000
MANEDIT
1070
     0
1002
}
1002
{
1000
NOSEL
1070
     0
1002
}
1002
{
1000
BEHIND
1070
     0
1002
}
1002
{
1000
OTHER
1070
     0
1002
}
1002
{
1000
REACTOR
1002
}
  0
LINE
  5
151A5
  8
0
 10
535.49765807771655
 20
261.87951144231249
 30
0.0
 11
537.49765807771632
 21
261.87951144231249
 31
0.0
  0
LINE
  5
151A6
  8
0
 10
535.49765807771655
 20
265.87951144231249
 30
0.0
 11
537.49765807771632
 21
265.87951144231249
 31
0.0
  0
LINE
  5
152EC
  8
AM_0
 10
534.16025902966135
 20
299.87951144231232
 30
0.0
 11
466.49763277554558
 21
299.87951144231232
 31
0.0
  0
ARC
  5
152ED
  8
0
 10
464.49761879825559
 20
414.05456574958049
 30
0.0
 40
112.1750543072711
 50
272.00771376012813
 51
294.46591933285879
  0
LINE
  5
152EE
  8
0
 10
466.49763277554558
 20
295.87951144231272
 30
0.0
 11
466.49763277554558
 21
299.94960129031682
 31
0.0
  0
LINE
  5
152EF
  8
0
 10
462.49763277554558
 20
295.87951144231272
 30
0.0
 11
462.49763277554558
 21
299.94960031035669
 31
0.0
  0
ARC
  5
152F0
  8
0
 10
464.49763277554553
 20
295.87951144231272
 30
0.0
 40
2.0
 50
180.0
 51
0.0
  0
ARC
  5
152F1
  8
0
 10
468.49763277554553
 20
299.94960129031682
 30
0.0
 40
2.0
 50
92.007713760129676
 51
180.0
1001
GENIUS_GENODEF_13
1002
{
1000
HIER
1070
     0
1002
}
1002
{
1000
MANEDIT
1070
     0
1002
}
1002
{
1000
NOSEL
1070
     0
1002
}
1002
{
1000
BEHIND
1070
     0
1002
}
1002
{
1000
OTHER
1070
     0
1002
}
1002
{
1000
REACTOR
1002
}
1001
GENIUS_GENOBJ-N-FIL_13
1002
{
1000
OWNER
1000
GEN
1002
}
  0
ARC
  5
152F2
  8
0
 10
460.49763277554553
 20
299.94960031035669
 30
0.0
 40
2.0
 50
0.0
 51
87.992300276766798
1001
GENIUS_GENOBJ-N-FIL_13
1002
{
1000
OWNER
1000
GEN
1002
}
1001
GENIUS_GENODEF_13
1002
{
1000
HIER
1070
     0
1002
}
1002
{
1000
MANEDIT
1070
     0
1002
}
1002
{
1000
NOSEL
1070
     0
1002
}
1002
{
1000
BEHIND
1070
     0
1002
}
1002
{
1000
OTHER
1070
     0
1002
}
1002
{
1000
REACTOR
1002
}
  0
ARC
  5
152F4
  8
0
 10
519.99763347589965
 20
318.87951144231232
 30
0.0
 40
10.0
 50
168.4630409671818
 51
305.90214533703409
  0
LINE
  5
152F5
  8
0
 10
530.92884748259121
 20
323.83012356001228
 30
0.0
 11
542.38428706334366
 21
298.535905669214
 31
0.0
  0
CIRCLE
  5
152F6
  8
0
 10
519.99763347589965
 20
318.87951144231232
 30
0.0
 40
4.5
  0
LINE
  5
152F7
  8
ﾁｭｳｼﾝｾﾝ1
 10
519.99763347589965
 20
331.87951144231272
 30
0.0
 11
519.99763347589965
 21
305.87951144231272
 31
0.0
1001
GENIUS_GENODEF_13
1002
{
1000
HIER
1070
     0
1002
}
1002
{
1000
MANEDIT
1070
     0
1002
}
1002
{
1000
NOSEL
1070
     0
1002
}
1002
{
1000
BEHIND
1070
     0
1002
}
1002
{
1000
OTHER
1070
     0
1002
}
1002
{
1000
REACTOR
1002
}
1001
GENIUS_GENOBJ-N-CEN_13
1002
{
1000
OWNER
1000
GEN
1002
}
  0
ARC
  5
152F8
  8
0
 10
528.79367377897483
 20
306.72921617895861
 30
0.0
 40
5.0
 50
24.365186304217399
 51
125.902145337034
1001
GENIUS_GENOBJ-N-FIL_13
1002
{
1000
OWNER
1000
GEN
1002
}
1001
GENIUS_GENODEF_13
1002
{
1000
HIER
1070
     0
1002
}
1002
{
1000
MANEDIT
1070
     0
1002
}
1002
{
1000
NOSEL
1070
     0
1002
}
1002
{
1000
BEHIND
1070
     0
1002
}
1002
{
1000
OTHER
1070
     0
1002
}
1002
{
1000
REACTOR
1002
}
  0
LINE
  5
152F9
  8
ﾁｭｳｼﾝｾﾝ1
 10
532.99763347589965
 20
318.87951144231272
 30
0.0
 11
506.9976334758997
 21
318.87951144231272
 31
0.0
1001
GENIUS_GENODEF_13
1002
{
1000
HIER
1070
     0
1002
}
1002
{
1000
MANEDIT
1070
     0
1002
}
1002
{
1000
NOSEL
1070
     0
1002
}
1002
{
1000
BEHIND
1070
     0
1002
}
1002
{
1000
OTHER
1070
     0
1002
}
1002
{
1000
REACTOR
1002
}
1001
GENIUS_GENOBJ-N-CEN_13
1002
{
1000
OWNER
1000
GEN
1002
}
  0
ARC
  5
152FA
  8
0
 10
508.10884228944678
 20
317.24958993349247
 30
0.0
 40
2.0
 50
294.25185076404
 51
7.8064319935604116
1001
GENIUS_GENODEF_13
1002
{
1000
HIER
1070
     0
1002
}
1002
{
1000
MANEDIT
1070
     0
1002
}
1002
{
1000
NOSEL
1070
     0
1002
}
1002
{
1000
BEHIND
1070
     0
1002
}
1002
{
1000
OTHER
1070
     0
1002
}
1002
{
1000
REACTOR
1002
}
1001
GENIUS_GENOBJ-N-FIL_13
1002
{
1000
OWNER
1000
GEN
1002
}
  0
ARC
  5
152FB
  8
0
 10
511.78343519122382
 20
310.13154330450908
 30
0.0
 40
2.0
 50
46.802403665578197
 51
114.46591933286049
1001
GENIUS_GENOBJ-N-FIL_13
1002
{
1000
OWNER
1000
GEN
1002
}
1001
GENIUS_GENODEF_13
1002
{
1000
HIER
1070
     0
1002
}
1002
{
1000
MANEDIT
1070
     0
1002
}
1002
{
1000
NOSEL
1070
     0
1002
}
1002
{
1000
BEHIND
1070
     0
1002
}
1002
{
1000
OTHER
1070
     0
1002
}
1002
{
1000
REACTOR
1002
}
  0
LINE
  5
152FC
  8
0
 10
533.3483462817627
 20
308.79197122800031
 30
0.0
 11
538.74054906111348
 21
296.8857016299807
 31
0.0
  0
ARC
  5
152FD
  8
0
 10
534.16025902966135
 20
294.87951144231232
 30
0.0
 40
5.0
 50
24.365186304217399
 51
90.0
1001
GENIUS_GENODEF_13
1002
{
1000
HIER
1070
     0
1002
}
1002
{
1000
MANEDIT
1070
     0
1002
}
1002
{
1000
NOSEL
1070
     0
1002
}
1002
{
1000
BEHIND
1070
     0
1002
}
1002
{
1000
OTHER
1070
     0
1002
}
1002
{
1000
REACTOR
1002
}
1001
GENIUS_GENOBJ-N-FIL_13
1002
{
1000
OWNER
1000
GEN
1002
}
  0
ARC
  5
152FE
  8
0
 10
530.99760552131988
 20
293.37901791751239
 30
0.0
 40
12.50000031292438
 50
0.0
 51
24.365186304217399
  0
CIRCLE
  5
152FF
  8
0
 10
530.99763347589976
 20
293.37951144231232
 30
0.0
 40
3.25
  0
CIRCLE
  5
15300
  8
ｷｲﾛ
 10
530.99763347589976
 20
293.37951144231232
 30
0.0
 40
4.0
  0
ARC
  5
15301
  8
0
 10
530.99760552131988
 20
293.37901791751239
 30
0.0
 40
8.5000003129243851
 50
0.0
 51
24.365186304217399
  0
LINE
  5
15302
  8
AM_0
 10
558.99763176226668
 20
292.31945144231258
 30
0.0
 11
549.31688140127324
 21
292.31945144231258
 31
0.0
  0
LINE
  5
15303
  8
AM_0
 10
544.49152824664179
 20
303.87891323043391
 30
0.0
 11
539.96450478103327
 21
303.87891323043391
 31
0.0
  0
LINE
  5
15304
  8
AM_0
 10
558.99763176226668
 20
306.37951144231261
 30
0.0
 11
547.49152824664179
 21
306.37951144231261
 31
0.0
  0
ARC
  5
15305
  8
AM_0
 10
544.49152824664179
 20
306.87891323043391
 30
0.0
 40
3.0
 50
270.0
 51
0.0
1001
GENIUS_GENODEF_13
1002
{
1000
HIER
1070
     0
1002
}
1002
{
1000
MANEDIT
1070
     0
1002
}
1002
{
1000
NOSEL
1070
     0
1002
}
1002
{
1000
BEHIND
1070
     0
1002
}
1002
{
1000
OTHER
1070
     0
1002
}
1002
{
1000
REACTOR
1002
}
1001
GENIUS_GENOBJ-N-FIL_13
1002
{
1000
OWNER
1000
GEN
1002
}
  0
LINE
  5
15306
  8
AM_0
 10
558.99763176226668
 20
316.87893644241251
 30
0.0
 11
549.49152824664179
 21
316.87893644241228
 31
0.0
  0
ARC
  5
15307
  8
AM_0
 10
549.49152824664179
 20
314.8789364424124
 30
0.0
 40
1.9999999999999989
 50
90.0
 51
180.0
1001
GENIUS_GENOBJ-N-FIL_13
1002
{
1000
OWNER
1000
GEN
1002
}
1001
GENIUS_GENODEF_13
1002
{
1000
HIER
1070
     0
1002
}
1002
{
1000
MANEDIT
1070
     0
1002
}
1002
{
1000
NOSEL
1070
     0
1002
}
1002
{
1000
BEHIND
1070
     0
1002
}
1002
{
1000
OTHER
1070
     0
1002
}
1002
{
1000
REACTOR
1002
}
  0
ARC
  5
15308
  8
0
 10
519.99763347589965
 20
318.87951144231232
 30
0.0
 40
12.0
 50
24.365186304217399
 51
90.0
  0
ARC
  5
15309
  8
0
 10
505.30069501920082
 20
321.87951144231272
 30
0.0
 40
5.0
 50
348.46304096718188
 51
90.0
1001
GENIUS_GENOBJ-N-FIL_13
1002
{
1000
OWNER
1000
GEN
1002
}
1001
GENIUS_GENODEF_13
1002
{
1000
HIER
1070
     0
1002
}
1002
{
1000
MANEDIT
1070
     0
1002
}
1002
{
1000
NOSEL
1070
     0
1002
}
1002
{
1000
BEHIND
1070
     0
1002
}
1002
{
1000
OTHER
1070
     0
1002
}
1002
{
1000
REACTOR
1002
}
  0
ARC
  5
15B3A
  8
AM_0
 10
444.99763347589959
 20
243.87951144231261
 30
0.0
 40
12.0
 50
109.4712206344888
 51
70.528779365511184
  0
CIRCLE
  5
15B3B
  8
ｽﾝﾎﾟｳｾﾝ
 10
444.99763347589982
 20
243.87951144231249
 30
0.0
 40
4.0
  0
LINE
  5
15B3C
  8
AM_0
 10
440.99763347589959
 20
258.87951144231261
 30
0.0
 11
448.99763347589959
 21
258.87951144231261
 31
0.0
  0
LINE
  5
15B3D
  8
AM_0
 10
448.99763347589959
 20
251.87951144231261
 30
0.0
 11
440.99763347589959
 21
251.87951144231261
 31
0.0
  0
LINE
  5
15B3E
  8
AM_0
 10
440.99763347589959
 20
251.87951144231261
 30
0.0
 11
440.99763347589959
 21
258.87951144231261
 31
0.0
  0
LINE
  5
15B3F
  8
AM_0
 10
448.99763347589959
 20
258.87951144231261
 30
0.0
 11
448.99763347589959
 21
251.87951144231261
 31
0.0
  0
LINE
  5
15B41
  8
ｶｸﾚｾﾝ2
 10
247.46296218778289
 20
228.87951144655671
 30
0.0
 11
247.46296218778289
 21
258.87951144655671
 31
0.0
  0
LINE
  5
15B42
  8
ｶｸﾚｾﾝ2
 10
232.46296395741689
 20
263.87931207577037
 30
0.0
 11
232.46296395741689
 21
223.87971088368951
 31
0.0
  0
LINE
  5
15B43
  8
ｶｸﾚｾﾝ2
 10
232.46296395741689
 20
223.87971088368951
 30
0.0
 11
228.4629638382076
 21
223.87971088368951
 31
0.0
  0
LINE
  5
15B44
  8
ｶｸﾚｾﾝ2
 10
232.46296395741689
 20
223.87971088368951
 30
0.0
 11
247.46296218778289
 21
228.87951144655671
 31
0.0
  0
LINE
  5
15B45
  8
ｶｸﾚｾﾝ2
 10
232.46296395741689
 20
263.87931207577037
 30
0.0
 11
228.4629638382076
 21
263.87931207577037
 31
0.0
  0
LINE
  5
15B46
  8
ｶｸﾚｾﾝ2
 10
232.46296395741689
 20
263.87931207577037
 30
0.0
 11
247.46296218778289
 21
258.87951144655671
 31
0.0
  0
LINE
  5
15B47
  8
0
 10
287.46296215350958
 20
231.87951143128811
 30
0.0
 11
287.46296223062461
 21
258.87951143128811
 31
0.0
  0
LINE
  5
15B48
  8
0
 10
287.46296218778292
 20
231.87951143128831
 30
0.0
 11
249.4629621535093
 21
231.87951143128831
 31
0.0
  0
LINE
  5
15B49
  8
0
 10
287.46296218778292
 20
258.87951143128828
 30
0.0
 11
255.4629622306245
 21
258.87951143128828
 31
0.0
  0
LINE
  5
15B4A
  8
0
 10
287.46296218778292
 20
255.87951143128831
 30
0.0
 11
249.46296222205601
 21
255.879511425576
 31
0.0
  0
LINE
  5
15B4B
  8
0
 10
255.4629622306245
 20
258.87951143128828
 30
0.0
 11
255.46296223107549
 21
255.87951142647799
 31
0.0
  0
CIRCLE
  5
15C23
  8
AM_0
 10
444.99763347589982
 20
243.87951144231249
 30
0.0
 40
3.399999999999999
  0
LINE
  5
15C25
  8
ｶｸﾚｾﾝ2
 10
249.46296222205601
 20
255.879511425576
 30
0.0
 11
247.46296218778301
 21
255.87951142557611
 31
0.0
  0
LINE
  5
15C27
  8
ｶｸﾚｾﾝ2
 10
249.4629621535093
 20
231.87951143128831
 30
0.0
 11
247.46296218778289
 21
231.87951143128831
 31
0.0
  0
LINE
  5
15DFD
  8
AM_0
 10
233.46296238140701
 20
304.89161651889287
 30
0.0
 11
249.46296238140681
 21
304.89161651889287
 31
0.0
  0
LINE
  5
15DFE
  8
AM_0
 10
233.46296238140701
 20
182.86740828948621
 30
0.0
 11
249.46296238140681
 21
182.86740828948629
 31
0.0
  0
LINE
  5
15E00
  8
AM_0
 10
387.49765584582121
 20
516.65917148223673
 30
0.0
 11
541.49761226881583
 21
516.65917148223673
 31
0.0
  0
LINE
  5
15E01
  8
AM_0
 10
541.49761226881583
 20
516.65917148223673
 30
0.0
 11
543.49760583424415
 21
471.65917148223679
 31
0.0
  0
LINE
  5
15E02
  8
AM_0
 10
387.49765584582121
 20
516.65917148223673
 30
0.0
 11
385.49763176226708
 21
471.65917148223679
 31
0.0
  0
LINE
  5
15E03
  8
AM_0
 10
543.49760583424415
 20
471.65917148223679
 30
0.0
 11
385.49763176226708
 21
471.65917148223679
 31
0.0
  0
LINE
  5
15E04
  8
AM_0
 10
386.20875143804813
 20
487.6591715188784
 30
0.0
 11
542.78649700943765
 21
487.65917151695942
 31
0.0
  0
LINE
  5
15E05
  8
AM_0
 10
407.49763235831301
 20
590.65779416587475
 30
0.0
 11
482.49763459348702
 21
590.65779416587475
 31
0.0
  0
LINE
  5
15E06
  8
AM_0
 10
388.84165646052452
 20
586.65779404666557
 30
0.0
 11
540.15361165356546
 21
586.65779404666534
 31
0.0
  0
LINE
  5
15E07
  8
ﾁｭｳｼﾝｾﾝ1
 10
741.99842997067663
 20
541.65775678510136
 30
0.0
 11
382.49763176226639
 21
541.65780023467642
 31
0.0
1001
GENIUS_GENODEF_13
1002
{
1000
HIER
1070
     0
1002
}
1002
{
1000
MANEDIT
1070
     0
1002
}
1002
{
1000
NOSEL
1070
     0
1002
}
1002
{
1000
BEHIND
1070
     0
1002
}
1002
{
1000
REACTOR
1002
}
1001
GENIUS_GENOBJ-N-CEN_13
1002
{
1000
OWNER
1000
GEN
1002
}
  0
LINE
  5
15E08
  8
AM_0
 10
541.49761226881583
 20
516.65917148223673
 30
0.0
 11
540.15361165356546
 21
586.65779404666534
 31
0.0
  0
LINE
  5
15E09
  8
AM_0
 10
550.36005917630894
 20
597.18986526351159
 30
0.0
 11
550.36004391819483
 21
486.12568749103599
 31
0.0
  0
LINE
  5
15E0A
  8
AM_0
 10
558.99763635182364
 20
597.65778678510128
 30
0.0
 11
558.99763635182364
 21
485.65776578510139
 31
0.0
  0
LINE
  5
15E0B
  8
AM_0
 10
549.67600324334558
 20
487.31048275432221
 30
0.0
 11
544.29433955383115
 21
517.83143978833709
 31
0.0
1001
GENIUS_GENODEF_13
1002
{
1000
HIER
1070
     0
1002
}
1002
{
1000
MANEDIT
1070
     0
1002
}
1002
{
1000
NOSEL
1070
     0
1002
}
1002
{
1000
BEHIND
1070
     0
1002
}
1002
{
1000
REACTOR
1002
}
1001
GENIUS_GENOBJ-N-CEN_13
1002
{
1000
OWNER
1000
GEN
1002
}
  0
LINE
  5
15E0C
  8
AM_0
 10
558.99763635182364
 20
485.65777628510142
 30
0.0
 11
551.64561924741474
 21
485.65777628510142
 31
0.0
  0
ARC
  5
15E0D
  8
AM_0
 10
551.64561924741508
 20
487.65777628510119
 30
0.0
 40
2.0
 50
189.9999917840673
 51
270.0
1001
GENIUS_GENOBJ-N-CEN_13
1002
{
1000
OWNER
1000
GEN
1002
}
1001
GENIUS_GENODEF_13
1002
{
1000
HIER
1070
     0
1002
}
1002
{
1000
MANEDIT
1070
     0
1002
}
1002
{
1000
NOSEL
1070
     0
1002
}
1002
{
1000
BEHIND
1070
     0
1002
}
1002
{
1000
OTHER
1070
     0
1002
}
1002
{
1000
REACTOR
1002
}
1001
GENIUS_GENOBJ-N-FIL_13
1002
{
1000
OWNER
1000
GEN
1002
}
  0
LINE
  5
15E0E
  8
AM_0
 10
558.99763635182364
 20
509.72031878510148
 30
0.0
 11
550.36004715934575
 21
509.71810378994383
 31
0.0
  0
LINE
  5
15E0F
  8
AM_0
 10
558.99763635182364
 20
495.65775078510131
 30
0.0
 11
550.36004522772237
 21
495.65776992786101
 31
0.0
  0
LINE
  5
15E10
  8
AM_0
 10
542.48033381069945
 20
518.65779175188663
 30
0.0
 11
543.30953177591857
 21
518.65779175188663
 31
0.0
  0
ARC
  5
15E11
  8
AM_0
 10
543.30953177591891
 20
517.65779175188663
 30
0.0
 40
1.0
 50
9.9999917840689072
 51
90.0
1001
GENIUS_GENODEF_13
1002
{
1000
HIER
1070
     0
1002
}
1002
{
1000
MANEDIT
1070
     0
1002
}
1002
{
1000
NOSEL
1070
     0
1002
}
1002
{
1000
BEHIND
1070
     0
1002
}
1002
{
1000
OTHER
1070
     0
1002
}
1002
{
1000
REACTOR
1002
}
1001
GENIUS_GENOBJ-N-FIL_13
1002
{
1000
OWNER
1000
GEN
1002
}
  0
ARC
  5
15E12
  8
AM_0
 10
542.48033381069979
 20
517.65779175188663
 30
0.0
 40
1.0
 50
90.0
 51
180.9999885880236
1001
GENIUS_GENOBJ-N-FIL_13
1002
{
1000
OWNER
1000
GEN
1002
}
1001
GENIUS_GENODEF_13
1002
{
1000
HIER
1070
     0
1002
}
1002
{
1000
MANEDIT
1070
     0
1002
}
1002
{
1000
NOSEL
1070
     0
1002
}
1002
{
1000
BEHIND
1070
     0
1002
}
1002
{
1000
OTHER
1070
     0
1002
}
1002
{
1000
REACTOR
1002
}
  0
LINE
  5
15E13
  8
AM_0
 10
549.67601882961128
 20
596.00507292286818
 30
0.0
 11
547.96660216660723
 21
586.31049740889841
 31
0.0
1001
GENIUS_GENODEF_13
1002
{
1000
HIER
1070
     0
1002
}
1002
{
1000
MANEDIT
1070
     0
1002
}
1002
{
1000
NOSEL
1070
     0
1002
}
1002
{
1000
BEHIND
1070
     0
1002
}
1002
{
1000
REACTOR
1002
}
1001
GENIUS_GENOBJ-N-CEN_13
1002
{
1000
OWNER
1000
GEN
1002
}
  0
LINE
  5
15E14
  8
AM_0
 10
558.99763635182364
 20
573.5977262851012
 30
0.0
 11
550.36005593519587
 21
573.5977262851012
 31
0.0
  0
LINE
  5
15E15
  8
AM_0
 10
558.99763635182364
 20
587.65777628510125
 30
0.0
 11
550.36005786678072
 21
587.65777628510125
 31
0.0
  0
LINE
  5
15E16
  8
AM_0
 10
542.15391630269914
 20
584.65779404666534
 30
0.0
 11
545.99698671038345
 21
584.65779404666534
 31
0.0
  0
ARC
  5
15E17
  8
AM_0
 10
545.99698671038345
 20
586.65779404666534
 30
0.0
 40
2.0
 50
270.0
 51
349.99999178407012
1001
GENIUS_GENOBJ-N-CEN_13
1002
{
1000
OWNER
1000
GEN
1002
}
1001
GENIUS_GENODEF_13
1002
{
1000
HIER
1070
     0
1002
}
1002
{
1000
MANEDIT
1070
     0
1002
}
1002
{
1000
NOSEL
1070
     0
1002
}
1002
{
1000
BEHIND
1070
     0
1002
}
1002
{
1000
OTHER
1070
     0
1002
}
1002
{
1000
REACTOR
1002
}
1001
GENIUS_GENOBJ-N-FIL_13
1002
{
1000
OWNER
1000
GEN
1002
}
  0
ARC
  5
15E18
  8
AM_0
 10
542.15391630269971
 20
586.65779404666534
 30
0.0
 40
2.0
 50
180.9999885880236
 51
270.0
1001
GENIUS_GENOBJ-N-FIL_13
1002
{
1000
OWNER
1000
GEN
1002
}
1001
GENIUS_GENODEF_13
1002
{
1000
HIER
1070
     0
1002
}
1002
{
1000
MANEDIT
1070
     0
1002
}
1002
{
1000
NOSEL
1070
     0
1002
}
1002
{
1000
BEHIND
1070
     0
1002
}
1002
{
1000
OTHER
1070
     0
1002
}
1002
{
1000
REACTOR
1002
}
  0
LINE
  5
15E19
  8
AM_0
 10
558.99763635182364
 20
597.65777628510136
 30
0.0
 11
551.64563428583529
 21
597.65777628510136
 31
0.0
  0
ARC
  5
15E1A
  8
AM_0
 10
551.64563428583574
 20
595.65777628510125
 30
0.0
 40
2.0
 50
90.0
 51
169.99999178407
1001
GENIUS_GENOBJ-N-CEN_13
1002
{
1000
OWNER
1000
GEN
1002
}
1001
GENIUS_GENOBJ-N-FIL_13
1002
{
1000
OWNER
1000
GEN
1002
}
1001
GENIUS_GENODEF_13
1002
{
1000
HIER
1070
     0
1002
}
1002
{
1000
MANEDIT
1070
     0
1002
}
1002
{
1000
NOSEL
1070
     0
1002
}
1002
{
1000
BEHIND
1070
     0
1002
}
1002
{
1000
OTHER
1070
     0
1002
}
1002
{
1000
REACTOR
1002
}
  0
LINE
  5
15E1B
  8
AM_0
 10
482.49763459348702
 20
586.65779404666557
 30
0.0
 11
482.49763459348702
 21
590.65779416587475
 31
0.0
  0
LINE
  5
15E1C
  8
ﾁｭｳｼﾝｾﾝ1
 10
444.99763347589987
 20
427.92084781814071
 30
0.0
 11
444.99763347589982
 21
596.79719372470629
 31
0.0
  0
LINE
  5
15E1D
  8
AM_0
 10
387.49765584582121
 20
516.65917148223673
 30
0.0
 11
388.8416869781035
 21
586.65779404666557
 31
0.0
  0
LINE
  5
15E1E
  8
AM_0
 10
407.49763235831301
 20
586.65779404666557
 30
0.0
 11
407.49763235831301
 21
590.65779416587475
 31
0.0
  0
LINE
  5
15FAE
  8
AM_0
 10
389.49763207519038
 20
588.24779404666572
 30
0.0
 11
406.49763207519061
 21
588.2477940466656
 31
0.0
  0
LINE
  5
15FAF
  8
0
 10
404.49763207519061
 20
596.24779404666515
 30
0.0
 11
391.49763207519072
 21
596.24779404666515
 31
0.0
  0
LINE
  5
15FB0
  8
0
 10
391.49763207519072
 20
596.24779404666515
 30
0.0
 11
391.49763207519072
 21
588.2477940466656
 31
0.0
  0
LINE
  5
15FB1
  8
0
 10
389.49763207519061
 20
586.65779404666557
 30
0.0
 11
389.49763207519061
 21
588.2477940466656
 31
0.0
  0
LINE
  5
15FB2
  8
0
 10
404.49763207519061
 20
588.2477940466656
 30
0.0
 11
404.49763207519061
 21
596.24779404666515
 31
0.0
  0
LINE
  5
15FB3
  8
0
 10
406.49763207519061
 20
586.65779404666557
 30
0.0
 11
406.49763207519061
 21
588.2477940466656
 31
0.0
  0
LINE
  5
15FB4
  8
AM_0
 10
522.49763603889915
 20
588.24779404666572
 30
0.0
 11
539.49763603889926
 21
588.24779404666515
 31
0.0
  0
LINE
  5
15FB5
  8
0
 10
537.49763603889915
 20
596.24779404666515
 30
0.0
 11
524.49763603889915
 21
596.24779404666515
 31
0.0
  0
LINE
  5
15FB6
  8
0
 10
524.49763603889915
 20
596.24779404666515
 30
0.0
 11
524.49763603889915
 21
588.2477940466656
 31
0.0
  0
LINE
  5
15FB7
  8
0
 10
522.49763603889937
 20
586.65779404666557
 30
0.0
 11
522.49763603889937
 21
588.2477940466656
 31
0.0
  0
LINE
  5
15FB8
  8
0
 10
537.49763603889915
 20
588.24779404666515
 30
0.0
 11
537.49763603889915
 21
596.24779404666515
 31
0.0
  0
LINE
  5
15FB9
  8
0
 10
539.49763603889926
 20
586.65779404666534
 30
0.0
 11
539.49763603889926
 21
588.24779404666515
 31
0.0
  0
LINE
  5
15FBA
  8
AM_0
 10
402.49404145897728
 20
471.6591714822365
 30
0.0
 11
402.49404145897728
 21
487.65917151867347
 31
0.0
  0
LINE
  5
15FBB
  8
AM_0
 10
526.50119613753373
 20
471.6591714822365
 30
0.0
 11
526.50119613753373
 21
487.65917151715371
 31
0.0
  0
LINE
  5
15FBC
  8
ﾁｭｳｼﾝｾﾝ1
 10
519.99763347589965
 20
466.65917148223667
 30
0.0
 11
519.99763347589965
 21
492.6591715172334
 31
0.0
  0
LINE
  5
15FBD
  8
ﾁｭｳｼﾝｾﾝ1
 10
408.9976041206113
 20
466.65917148223667
 30
0.0
 11
408.99760412061153
 21
492.65917151859389
 31
0.0
  0
LINE
  5
15FBE
  8
0
 10
432.99763342745831
 20
433.65780768400577
 30
0.0
 11
432.99763342745831
 21
471.65917148223679
 31
0.0
  0
LINE
  5
15FBF
  8
0
 10
456.99763342745831
 20
433.65780768400589
 30
0.0
 11
456.9976334217456
 21
471.65917148223667
 31
0.0
  0
LINE
  5
15FC0
  8
0
 10
432.9976334274582
 20
433.65780771827912
 30
0.0
 11
456.99763342745831
 21
433.6578076497326
 31
0.0
  0
LINE
  5
15FC1
  8
ｶｸﾚｾﾝ2
 10
464.9974340719404
 20
488.65780591437181
 30
0.0
 11
424.99783287985952
 21
488.65780591437158
 31
0.0
  0
LINE
  5
15FC2
  8
ｶｸﾚｾﾝ2
 10
429.99763344272679
 20
473.6578076840056
 30
0.0
 11
459.99763344272668
 21
473.6578076840056
 31
0.0
  0
LINE
  5
15FC3
  8
ｶｸﾚｾﾝ2
 10
424.99783287985952
 20
488.65780591437158
 30
0.0
 11
424.99783287985952
 21
492.65780603358098
 31
0.0
  0
LINE
  5
15FC4
  8
ｶｸﾚｾﾝ2
 10
424.99783287985952
 20
488.65780591437158
 30
0.0
 11
429.99763344272679
 21
473.6578076840056
 31
0.0
  0
LINE
  5
15FC5
  8
ｶｸﾚｾﾝ2
 10
464.9974340719404
 20
488.65780591437181
 30
0.0
 11
464.9974340719404
 21
492.65780603358121
 31
0.0
  0
LINE
  5
15FC6
  8
ｶｸﾚｾﾝ2
 10
464.9974340719404
 20
488.65780591437181
 30
0.0
 11
459.99763344272668
 21
473.6578076840056
 31
0.0
  0
LINE
  5
15FC7
  8
AM_0
 10
440.99763342745831
 20
433.65780768400577
 30
0.0
 11
440.99763342745831
 21
465.65780764071309
 31
0.0
  0
LINE
  5
15FC8
  8
AM_0
 10
448.99763342745831
 20
433.65780768400577
 30
0.0
 11
448.99763342745831
 21
465.65780764071309
 31
0.0
  0
LINE
  5
15FC9
  8
AM_0
 10
448.99763342745831
 20
465.65780764071309
 30
0.0
 11
440.99763342745831
 21
465.65780764071309
 31
0.0
  0
ARC
  5
15FCA
  8
AM_0
 10
444.99763342745831
 20
465.65780764071309
 30
0.0
 40
4.0
 50
0.0
 51
180.0
  0
LINE
  5
15FCC
  8
ｶｸﾚｾﾝ2
 10
477.9972596204081
 20
492.65780601421437
 30
0.0
 11
411.99800730346431
 21
492.6578060142146
 31
0.0
  0
LINE
  5
15FCD
  8
ｶｸﾚｾﾝ2
 10
456.99763342174577
 20
471.65917148223679
 30
0.0
 11
456.9976334214453
 21
473.6578076840056
 31
0.0
  0
LINE
  5
15FCF
  8
ｶｸﾚｾﾝ2
 10
432.99763342745831
 20
471.65917148223679
 30
0.0
 11
432.99763342745831
 21
473.6578076840056
 31
0.0
  0
LINE
  5
16D0E
  8
AM_0
 10
174.52258930138851
 20
325.37951249055942
 30
0.0
 11
177.72258930138861
 21
325.37951249055942
 31
0.0
  0
LINE
  5
16D0F
  8
AM_0
 10
177.72258930138861
 20
319.12951249055948
 30
0.0
 11
181.32258930138849
 21
319.12951249055948
 31
0.0
  0
LINE
  5
16D10
  8
AM_0
 10
177.72258930138861
 20
319.12951249055948
 30
0.0
 11
177.72258930138869
 21
321.15931519290098
 31
0.0
  0
LINE
  5
16D11
  8
AM_0
 10
177.72258930138869
 20
324.611775872701
 30
0.0
 11
177.72258930138861
 21
325.37951249055942
 31
0.0
  0
CIRCLE
  5
16D12
  8
AM_0
 10
179.52258930138851
 20
322.88554553280102
 30
0.0
 40
2.4939669577585151
  0
LINE
  5
16D13
  8
AM_0
 10
181.32258930138849
 20
325.37951249055942
 30
0.0
 11
184.52258930138851
 21
325.37951249055942
 31
0.0
  0
LINE
  5
16D14
  8
AM_0
 10
179.52258930138839
 20
320.39157857504227
 30
0.0
 11
181.32258930138869
 21
320.3915785750425
 31
0.0
  0
LINE
  5
16D15
  8
AM_0
 10
179.52258930138839
 20
325.37951249055942
 30
0.0
 11
181.32258930138869
 21
325.37951249055959
 31
0.0
  0
LINE
  5
16D16
  8
AM_0
 10
181.32258930138849
 20
319.12951249055948
 30
0.0
 11
181.32258930138849
 21
321.15931519290058
 31
0.0
  0
LINE
  5
16D17
  8
AM_0
 10
181.32258930138849
 20
324.61177587270112
 30
0.0
 11
181.32258930138849
 21
325.37951249055942
 31
0.0
  0
LINE
  5
16D18
  8
AM_0
 10
174.52258930138851
 20
322.26679809478378
 30
0.0
 11
174.52258930138851
 21
325.37951249055942
 31
0.0
  0
LINE
  5
16D19
  8
AM_0
 10
184.52258930138851
 20
325.37951249055942
 30
0.0
 11
201.3733651112143
 21
325.37951249055942
 31
0.0
  0
LINE
  5
16D1A
  8
AM_0
 10
184.52258930138831
 20
322.26379193074581
 30
0.0
 11
184.52258930138851
 21
325.37951249055942
 31
0.0
  0
LINE
  5
16D1B
  8
AM_0
 10
185.58634249623589
 20
320.39157857504227
 30
0.0
 11
193.48412368437451
 21
320.39157857504227
 31
0.0
  0
LINE
  5
16D1C
  8
AM_0
 10
195.55152909650539
 20
320.39157857504227
 30
0.0
 11
200.52258930138839
 21
320.39157857504227
 31
0.0
  0
ARC
  5
16D1D
  8
AM_0
 10
200.52258930138839
 20
295.39157857504239
 30
0.0
 40
29.999999999999989
 50
18.15011495156141
 51
88.374920016405966
1001
GENIUS_GENOBJ-N-FIL_13
1002
{
1000
OWNER
1000
GEN
1002
}
1001
GENIUS_GENODEF_13
1002
{
1000
HIER
1070
     0
1002
}
1002
{
1000
MANEDIT
1070
     0
1002
}
1002
{
1000
NOSEL
1070
     0
1002
}
1002
{
1000
BEHIND
1070
     0
1002
}
1002
{
1000
OTHER
1070
     0
1002
}
1002
{
1000
REACTOR
1002
}
  0
ARC
  5
16D1E
  8
AM_0
 10
200.52258930138839
 20
295.39157857504239
 30
0.0
 40
25.0
 50
57.467847186513779
 51
90.0
1001
GENIUS_GENOBJ-N-FIL_13
1002
{
1000
OWNER
1000
GEN
1002
}
1001
GENIUS_GENODEF_13
1002
{
1000
HIER
1070
     0
1002
}
1002
{
1000
MANEDIT
1070
     0
1002
}
1002
{
1000
NOSEL
1070
     0
1002
}
1002
{
1000
BEHIND
1070
     0
1002
}
1002
{
1000
OTHER
1070
     0
1002
}
1002
{
1000
REACTOR
1002
}
  0
ARC
  5
16D1F
  8
AM_0
 10
200.52258930138839
 20
295.39157857504239
 30
0.0
 40
25.0
 50
23.609207794112798
 51
53.155059700517981
1001
GENIUS_GENOBJ-N-FIL_13
1002
{
1000
OWNER
1000
GEN
1002
}
1001
GENIUS_GENODEF_13
1002
{
1000
HIER
1070
     0
1002
}
1002
{
1000
MANEDIT
1070
     0
1002
}
1002
{
1000
NOSEL
1070
     0
1002
}
1002
{
1000
BEHIND
1070
     0
1002
}
1002
{
1000
OTHER
1070
     0
1002
}
1002
{
1000
REACTOR
1002
}
  0
LINE
  5
16D20
  8
AM_0
 10
148.06295594999639
 20
156.3795114659834
 30
0.0
 11
210.86295594999621
 21
156.3795114659834
 31
0.0
  0
LINE
  5
16D21
  8
AM_0
 10
215.46295594999839
 20
169.3795114659832
 30
0.0
 11
143.4629559499983
 21
169.3795114659832
 31
0.0
  0
LINE
  5
16D22
  8
AM_0
 10
143.46295594999671
 20
173.37951146598331
 30
0.0
 11
173.96295594999691
 21
173.37951146598331
 31
0.0
  0
LINE
  5
16D23
  8
AM_0
 10
143.4629559499983
 20
184.94486532118921
 30
0.0
 11
143.4629559499983
 21
156.87951146598331
 31
0.0
  0
LINE
  5
16D24
  8
AM_0
 10
145.56295594999639
 20
167.91451146598351
 30
0.0
 11
145.56295594999639
 21
158.8795114659832
 31
0.0
  0
LINE
  5
16D25
  8
AM_0
 10
155.83280443097971
 20
169.3795114659832
 30
0.0
 11
155.83280443097971
 21
158.87951146597911
 31
0.0
  0
ARC
  5
16D26
  8
AM_0
 10
143.96295594999691
 20
156.87951146598331
 30
0.0
 40
0.5
 50
180.0
 51
270.0
  0
ARC
  5
16D27
  8
AM_0
 10
148.06295594999639
 20
158.8795114659832
 30
0.0
 40
2.4999999999999991
 50
180.0
 51
270.0
  0
LINE
  5
16D28
  8
AM_0
 10
143.96295594999691
 20
156.3795114659834
 30
0.0
 11
148.06295594999639
 21
156.3795114659834
 31
0.0
  0
POLYLINE
  5
16D29
  8
AM_0
 66
     1
 10
0.0
 20
0.0
 30
0.0
 70
     8
  0
VERTEX
  5
16D2A
  8
AM_0
 10
155.8325411469537
 20
158.87946440090931
 30
0.0
 70
    32
  0
VERTEX
  5
16D2B
  8
AM_0
 10
155.8325411469537
 20
158.87546440090941
 30
0.0
 70
    32
  0
VERTEX
  5
16D2C
  8
AM_0
 10
155.8325411469537
 20
158.87146440090939
 30
0.0
 70
    32
  0
VERTEX
  5
16D2D
  8
AM_0
 10
155.8325411469537
 20
158.86646440090939
 30
0.0
 70
    32
  0
VERTEX
  5
16D2E
  8
AM_0
 10
155.8325411469537
 20
158.86246440090929
 30
0.0
 70
    32
  0
VERTEX
  5
16D2F
  8
AM_0
 10
155.8325411469537
 20
158.8584644009095
 30
0.0
 70
    32
  0
VERTEX
  5
16D30
  8
AM_0
 10
155.8325411469537
 20
158.8534644009095
 30
0.0
 70
    32
  0
VERTEX
  5
16D31
  8
AM_0
 10
155.83354114695391
 20
158.84946440090951
 30
0.0
 70
    32
  0
VERTEX
  5
16D32
  8
AM_0
 10
155.83354114695391
 20
158.84546440090921
 30
0.0
 70
    32
  0
VERTEX
  5
16D33
  8
AM_0
 10
155.83354114695391
 20
158.84146440090919
 30
0.0
 70
    32
  0
VERTEX
  5
16D34
  8
AM_0
 10
155.83354114695391
 20
158.83646440090931
 30
0.0
 70
    32
  0
VERTEX
  5
16D35
  8
AM_0
 10
155.83354114695391
 20
158.83246440090889
 30
0.0
 70
    32
  0
VERTEX
  5
16D36
  8
AM_0
 10
155.83354114695391
 20
158.8284644009093
 30
0.0
 70
    32
  0
VERTEX
  5
16D37
  8
AM_0
 10
155.83354114695391
 20
158.82446440090919
 30
0.0
 70
    32
  0
VERTEX
  5
16D38
  8
AM_0
 10
155.83354114695391
 20
158.8194644009094
 30
0.0
 70
    32
  0
VERTEX
  5
16D39
  8
AM_0
 10
155.83354114695391
 20
158.81546440090921
 30
0.0
 70
    32
  0
VERTEX
  5
16D3A
  8
AM_0
 10
155.83354114695391
 20
158.81146440090939
 30
0.0
 70
    32
  0
VERTEX
  5
16D3B
  8
AM_0
 10
155.83354114695391
 20
158.80646440090911
 30
0.0
 70
    32
  0
VERTEX
  5
16D3C
  8
AM_0
 10
155.83354114695391
 20
158.80246440090951
 30
0.0
 70
    32
  0
VERTEX
  5
16D3D
  8
AM_0
 10
155.83354114695391
 20
158.79846440090921
 30
0.0
 70
    32
  0
VERTEX
  5
16D3E
  8
AM_0
 10
155.83354114695391
 20
158.79446440090919
 30
0.0
 70
    32
  0
VERTEX
  5
16D3F
  8
AM_0
 10
155.83354114695391
 20
158.7894644009094
 30
0.0
 70
    32
  0
VERTEX
  5
16D40
  8
AM_0
 10
155.83354114695391
 20
158.78546440090929
 30
0.0
 70
    32
  0
VERTEX
  5
16D41
  8
AM_0
 10
155.83354114695391
 20
158.7814644009093
 30
0.0
 70
    32
  0
VERTEX
  5
16D42
  8
AM_0
 10
155.83354114695391
 20
158.7774644009092
 30
0.0
 70
    32
  0
VERTEX
  5
16D43
  8
AM_0
 10
155.8345411469536
 20
158.77246440090931
 30
0.0
 70
    32
  0
VERTEX
  5
16D44
  8
AM_0
 10
155.8345411469536
 20
158.76846440090921
 30
0.0
 70
    32
  0
VERTEX
  5
16D45
  8
AM_0
 10
155.8345411469536
 20
158.76446440090939
 30
0.0
 70
    32
  0
VERTEX
  5
16D46
  8
AM_0
 10
155.8345411469536
 20
158.760464400909
 30
0.0
 70
    32
  0
VERTEX
  5
16D47
  8
AM_0
 10
155.8345411469536
 20
158.75546440090949
 30
0.0
 70
    32
  0
VERTEX
  5
16D48
  8
AM_0
 10
155.8345411469536
 20
158.75146440090921
 30
0.0
 70
    32
  0
VERTEX
  5
16D49
  8
AM_0
 10
155.8345411469536
 20
158.74746440090919
 30
0.0
 70
    32
  0
VERTEX
  5
16D4A
  8
AM_0
 10
155.8345411469536
 20
158.7424644009094
 30
0.0
 70
    32
  0
VERTEX
  5
16D4B
  8
AM_0
 10
155.8345411469536
 20
158.73846440090921
 30
0.0
 70
    32
  0
VERTEX
  5
16D4C
  8
AM_0
 10
155.8345411469536
 20
158.7344644009093
 30
0.0
 70
    32
  0
VERTEX
  5
16D4D
  8
AM_0
 10
155.83554114695389
 20
158.73046440090931
 30
0.0
 70
    32
  0
VERTEX
  5
16D4E
  8
AM_0
 10
155.83554114695389
 20
158.72546440090929
 30
0.0
 70
    32
  0
VERTEX
  5
16D4F
  8
AM_0
 10
155.83554114695389
 20
158.72146440090921
 30
0.0
 70
    32
  0
VERTEX
  5
16D50
  8
AM_0
 10
155.83554114695389
 20
158.71746440090939
 30
0.0
 70
    32
  0
VERTEX
  5
16D51
  8
AM_0
 10
155.83554114695389
 20
158.71346440090929
 30
0.0
 70
    32
  0
VERTEX
  5
16D52
  8
AM_0
 10
155.83554114695389
 20
158.70846440090941
 30
0.0
 70
    32
  0
VERTEX
  5
16D53
  8
AM_0
 10
155.83554114695389
 20
158.7044644009091
 30
0.0
 70
    32
  0
VERTEX
  5
16D54
  8
AM_0
 10
155.83654114695381
 20
158.7004644009092
 30
0.0
 70
    32
  0
VERTEX
  5
16D55
  8
AM_0
 10
155.83654114695381
 20
158.69646440090921
 30
0.0
 70
    32
  0
VERTEX
  5
16D56
  8
AM_0
 10
155.83654114695381
 20
158.69146440090941
 30
0.0
 70
    32
  0
VERTEX
  5
16D57
  8
AM_0
 10
155.83654114695381
 20
158.68746440090931
 30
0.0
 70
    32
  0
VERTEX
  5
16D58
  8
AM_0
 10
155.83654114695381
 20
158.68346440090929
 30
0.0
 70
    32
  0
VERTEX
  5
16D59
  8
AM_0
 10
155.83654114695381
 20
158.67846440090949
 30
0.0
 70
    32
  0
VERTEX
  5
16D5A
  8
AM_0
 10
155.83654114695381
 20
158.67446440090919
 30
0.0
 70
    32
  0
VERTEX
  5
16D5B
  8
AM_0
 10
155.83754114695381
 20
158.6704644009092
 30
0.0
 70
    32
  0
VERTEX
  5
16D5C
  8
AM_0
 10
155.83754114695381
 20
158.6664644009096
 30
0.0
 70
    32
  0
VERTEX
  5
16D5D
  8
AM_0
 10
155.83754114695381
 20
158.66146440090941
 30
0.0
 70
    32
  0
VERTEX
  5
16D5E
  8
AM_0
 10
155.83754114695381
 20
158.65746440090911
 30
0.0
 70
    32
  0
VERTEX
  5
16D5F
  8
AM_0
 10
155.83754114695381
 20
158.65346440090929
 30
0.0
 70
    32
  0
VERTEX
  5
16D60
  8
AM_0
 10
155.83854114695379
 20
158.64946440090901
 30
0.0
 70
    32
  0
VERTEX
  5
16D61
  8
AM_0
 10
155.83854114695379
 20
158.64446440090941
 30
0.0
 70
    32
  0
VERTEX
  5
16D62
  8
AM_0
 10
155.83854114695379
 20
158.6404644009092
 30
0.0
 70
    32
  0
VERTEX
  5
16D63
  8
AM_0
 10
155.83854114695379
 20
158.63646440090929
 30
0.0
 70
    32
  0
VERTEX
  5
16D64
  8
AM_0
 10
155.83854114695379
 20
158.6324644009095
 30
0.0
 70
    32
  0
VERTEX
  5
16D65
  8
AM_0
 10
155.83854114695379
 20
158.6274644009091
 30
0.0
 70
    32
  0
VERTEX
  5
16D66
  8
AM_0
 10
155.83954114695351
 20
158.6234644009092
 30
0.0
 70
    32
  0
VERTEX
  5
16D67
  8
AM_0
 10
155.83954114695351
 20
158.61946440090949
 30
0.0
 70
    32
  0
VERTEX
  5
16D68
  8
AM_0
 10
155.83954114695351
 20
158.61546440090939
 30
0.0
 70
    32
  0
VERTEX
  5
16D69
  8
AM_0
 10
155.83954114695351
 20
158.61046440090931
 30
0.0
 70
    32
  0
VERTEX
  5
16D6A
  8
AM_0
 10
155.84054114695371
 20
158.60646440090929
 30
0.0
 70
    32
  0
VERTEX
  5
16D6B
  8
AM_0
 10
155.84054114695371
 20
158.60246440090921
 30
0.0
 70
    32
  0
VERTEX
  5
16D6C
  8
AM_0
 10
155.84054114695371
 20
158.59746440090919
 30
0.0
 70
    32
  0
VERTEX
  5
16D6D
  8
AM_0
 10
155.84054114695371
 20
158.5934644009092
 30
0.0
 70
    32
  0
VERTEX
  5
16D6E
  8
AM_0
 10
155.84054114695371
 20
158.58946440090921
 30
0.0
 70
    32
  0
VERTEX
  5
16D6F
  8
AM_0
 10
155.8415411469538
 20
158.5854644009091
 30
0.0
 70
    32
  0
VERTEX
  5
16D70
  8
AM_0
 10
155.8415411469538
 20
158.58046440090911
 30
0.0
 70
    32
  0
VERTEX
  5
16D71
  8
AM_0
 10
155.8415411469538
 20
158.57646440090929
 30
0.0
 70
    32
  0
VERTEX
  5
16D72
  8
AM_0
 10
155.8415411469538
 20
158.5724644009095
 30
0.0
 70
    32
  0
VERTEX
  5
16D73
  8
AM_0
 10
155.84254114695361
 20
158.56846440090939
 30
0.0
 70
    32
  0
VERTEX
  5
16D74
  8
AM_0
 10
155.84254114695361
 20
158.5634644009094
 30
0.0
 70
    32
  0
VERTEX
  5
16D75
  8
AM_0
 10
155.84254114695361
 20
158.55946440090909
 30
0.0
 70
    32
  0
VERTEX
  5
16D76
  8
AM_0
 10
155.84354114695361
 20
158.5554644009091
 30
0.0
 70
    32
  0
VERTEX
  5
16D77
  8
AM_0
 10
155.84354114695361
 20
158.55146440090931
 30
0.0
 70
    32
  0
VERTEX
  5
16D78
  8
AM_0
 10
155.84354114695361
 20
158.5464644009092
 30
0.0
 70
    32
  0
VERTEX
  5
16D79
  8
AM_0
 10
155.84354114695361
 20
158.5424644009091
 30
0.0
 70
    32
  0
VERTEX
  5
16D7A
  8
AM_0
 10
155.84454114695379
 20
158.53846440090911
 30
0.0
 70
    32
  0
VERTEX
  5
16D7B
  8
AM_0
 10
155.84454114695379
 20
158.53446440090951
 30
0.0
 70
    32
  0
VERTEX
  5
16D7C
  8
AM_0
 10
155.84454114695379
 20
158.52946440090929
 30
0.0
 70
    32
  0
VERTEX
  5
16D7D
  8
AM_0
 10
155.84454114695379
 20
158.5254644009093
 30
0.0
 70
    32
  0
VERTEX
  5
16D7E
  8
AM_0
 10
155.84554114695391
 20
158.52146440090939
 30
0.0
 70
    32
  0
VERTEX
  5
16D7F
  8
AM_0
 10
155.84554114695391
 20
158.5174644009092
 30
0.0
 70
    32
  0
VERTEX
  5
16D80
  8
AM_0
 10
155.84554114695391
 20
158.5124644009091
 30
0.0
 70
    32
  0
VERTEX
  5
16D81
  8
AM_0
 10
155.8465411469538
 20
158.5084644009095
 30
0.0
 70
    32
  0
VERTEX
  5
16D82
  8
AM_0
 10
155.8465411469538
 20
158.50446440090931
 30
0.0
 70
    32
  0
VERTEX
  5
16D83
  8
AM_0
 10
155.8465411469538
 20
158.4994644009092
 30
0.0
 70
    32
  0
VERTEX
  5
16D84
  8
AM_0
 10
155.8475411469538
 20
158.49546440090921
 30
0.0
 70
    32
  0
VERTEX
  5
16D85
  8
AM_0
 10
155.8475411469538
 20
158.49146440090911
 30
0.0
 70
    32
  0
VERTEX
  5
16D86
  8
AM_0
 10
155.8475411469538
 20
158.48746440090929
 30
0.0
 70
    32
  0
VERTEX
  5
16D87
  8
AM_0
 10
155.84854114695349
 20
158.48246440090909
 30
0.0
 70
    32
  0
VERTEX
  5
16D88
  8
AM_0
 10
155.84854114695349
 20
158.4784644009095
 30
0.0
 70
    32
  0
VERTEX
  5
16D89
  8
AM_0
 10
155.84854114695349
 20
158.47446440090951
 30
0.0
 70
    32
  0
VERTEX
  5
16D8A
  8
AM_0
 10
155.84954114695361
 20
158.47046440090921
 30
0.0
 70
    32
  0
VERTEX
  5
16D8B
  8
AM_0
 10
155.84954114695361
 20
158.46546440090921
 30
0.0
 70
    32
  0
VERTEX
  5
16D8C
  8
AM_0
 10
155.84954114695361
 20
158.46146440090939
 30
0.0
 70
    32
  0
VERTEX
  5
16D8D
  8
AM_0
 10
155.85054114695359
 20
158.45746440090929
 30
0.0
 70
    32
  0
VERTEX
  5
16D8E
  8
AM_0
 10
155.85054114695359
 20
158.4534644009093
 30
0.0
 70
    32
  0
VERTEX
  5
16D8F
  8
AM_0
 10
155.85054114695359
 20
158.44846440090919
 30
0.0
 70
    32
  0
VERTEX
  5
16D90
  8
AM_0
 10
155.85154114695379
 20
158.444464400909
 30
0.0
 70
    32
  0
VERTEX
  5
16D91
  8
AM_0
 10
155.85154114695379
 20
158.44046440090941
 30
0.0
 70
    32
  0
VERTEX
  5
16D92
  8
AM_0
 10
155.8525411469536
 20
158.4364644009095
 30
0.0
 70
    32
  0
VERTEX
  5
16D93
  8
AM_0
 10
155.8525411469536
 20
158.43146440090939
 30
0.0
 70
    32
  0
VERTEX
  5
16D94
  8
AM_0
 10
155.8525411469536
 20
158.42746440090951
 30
0.0
 70
    32
  0
VERTEX
  5
16D95
  8
AM_0
 10
155.8535411469538
 20
158.4234644009093
 30
0.0
 70
    32
  0
VERTEX
  5
16D96
  8
AM_0
 10
155.8535411469538
 20
158.41946440090939
 30
0.0
 70
    32
  0
VERTEX
  5
16D97
  8
AM_0
 10
155.85454114695381
 20
158.41446440090911
 30
0.0
 70
    32
  0
VERTEX
  5
16D98
  8
AM_0
 10
155.85454114695381
 20
158.4104644009094
 30
0.0
 70
    32
  0
VERTEX
  5
16D99
  8
AM_0
 10
155.85454114695381
 20
158.4064644009093
 30
0.0
 70
    32
  0
VERTEX
  5
16D9A
  8
AM_0
 10
155.8555411469539
 20
158.4024644009092
 30
0.0
 70
    32
  0
VERTEX
  5
16D9B
  8
AM_0
 10
155.8555411469539
 20
158.3974644009092
 30
0.0
 70
    32
  0
VERTEX
  5
16D9C
  8
AM_0
 10
155.85654114695379
 20
158.39346440090941
 30
0.0
 70
    32
  0
VERTEX
  5
16D9D
  8
AM_0
 10
155.85654114695379
 20
158.38946440090939
 30
0.0
 70
    32
  0
VERTEX
  5
16D9E
  8
AM_0
 10
155.85754114695359
 20
158.38546440090931
 30
0.0
 70
    32
  0
VERTEX
  5
16D9F
  8
AM_0
 10
155.85754114695359
 20
158.38046440090949
 30
0.0
 70
    32
  0
VERTEX
  5
16DA0
  8
AM_0
 10
155.85754114695359
 20
158.3764644009093
 30
0.0
 70
    32
  0
VERTEX
  5
16DA1
  8
AM_0
 10
155.8585411469538
 20
158.37246440090919
 30
0.0
 70
    32
  0
VERTEX
  5
16DA2
  8
AM_0
 10
155.8585411469538
 20
158.3684644009092
 30
0.0
 70
    32
  0
VERTEX
  5
16DA3
  8
AM_0
 10
155.85954114695369
 20
158.36346440090941
 30
0.0
 70
    32
  0
VERTEX
  5
16DA4
  8
AM_0
 10
155.85954114695369
 20
158.3594644009091
 30
0.0
 70
    32
  0
VERTEX
  5
16DA5
  8
AM_0
 10
155.86054114695361
 20
158.35546440090931
 30
0.0
 70
    32
  0
VERTEX
  5
16DA6
  8
AM_0
 10
155.86054114695361
 20
158.35146440090949
 30
0.0
 70
    32
  0
VERTEX
  5
16DA7
  8
AM_0
 10
155.86154114695381
 20
158.34746440090939
 30
0.0
 70
    32
  0
VERTEX
  5
16DA8
  8
AM_0
 10
155.86154114695381
 20
158.34246440090939
 30
0.0
 70
    32
  0
VERTEX
  5
16DA9
  8
AM_0
 10
155.86254114695399
 20
158.33846440090909
 30
0.0
 70
    32
  0
VERTEX
  5
16DAA
  8
AM_0
 10
155.86254114695399
 20
158.3344644009091
 30
0.0
 70
    32
  0
VERTEX
  5
16DAB
  8
AM_0
 10
155.86354114695379
 20
158.33046440090931
 30
0.0
 70
    32
  0
VERTEX
  5
16DAC
  8
AM_0
 10
155.86354114695379
 20
158.3254644009092
 30
0.0
 70
    32
  0
VERTEX
  5
16DAD
  8
AM_0
 10
155.864541146954
 20
158.32146440090921
 30
0.0
 70
    32
  0
VERTEX
  5
16DAE
  8
AM_0
 10
155.864541146954
 20
158.31746440090919
 30
0.0
 70
    32
  0
VERTEX
  5
16DAF
  8
AM_0
 10
155.86554114695389
 20
158.31346440090951
 30
0.0
 70
    32
  0
VERTEX
  5
16DB0
  8
AM_0
 10
155.86554114695389
 20
158.30846440090929
 30
0.0
 70
    32
  0
VERTEX
  5
16DB1
  8
AM_0
 10
155.86654114695349
 20
158.30446440090921
 30
0.0
 70
    32
  0
VERTEX
  5
16DB2
  8
AM_0
 10
155.86654114695349
 20
158.30046440090939
 30
0.0
 70
    32
  0
VERTEX
  5
16DB3
  8
AM_0
 10
155.86754114695361
 20
158.2964644009092
 30
0.0
 70
    32
  0
VERTEX
  5
16DB4
  8
AM_0
 10
155.86754114695361
 20
158.2914644009096
 30
0.0
 70
    32
  0
VERTEX
  5
16DB5
  8
AM_0
 10
155.86854114695379
 20
158.2874644009093
 30
0.0
 70
    32
  0
VERTEX
  5
16DB6
  8
AM_0
 10
155.86854114695379
 20
158.28346440090931
 30
0.0
 70
    32
  0
VERTEX
  5
16DB7
  8
AM_0
 10
155.86954114695371
 20
158.27946440090921
 30
0.0
 70
    32
  0
VERTEX
  5
16DB8
  8
AM_0
 10
155.86954114695371
 20
158.27446440090921
 30
0.0
 70
    32
  0
VERTEX
  5
16DB9
  8
AM_0
 10
155.87054114695371
 20
158.27046440090939
 30
0.0
 70
    32
  0
VERTEX
  5
16DBA
  8
AM_0
 10
155.87054114695371
 20
158.26646440090931
 30
0.0
 70
    32
  0
VERTEX
  5
16DBB
  8
AM_0
 10
155.87154114695389
 20
158.26246440090929
 30
0.0
 70
    32
  0
VERTEX
  5
16DBC
  8
AM_0
 10
155.87154114695389
 20
158.2584644009093
 30
0.0
 70
    32
  0
VERTEX
  5
16DBD
  8
AM_0
 10
155.87254114695361
 20
158.25346440090951
 30
0.0
 70
    32
  0
VERTEX
  5
16DBE
  8
AM_0
 10
155.87354114695381
 20
158.2494644009092
 30
0.0
 70
    32
  0
VERTEX
  5
16DBF
  8
AM_0
 10
155.87354114695381
 20
158.24546440090921
 30
0.0
 70
    32
  0
VERTEX
  5
16DC0
  8
AM_0
 10
155.87454114695379
 20
158.24146440090911
 30
0.0
 70
    32
  0
VERTEX
  5
16DC1
  8
AM_0
 10
155.87454114695379
 20
158.23646440090951
 30
0.0
 70
    32
  0
VERTEX
  5
16DC2
  8
AM_0
 10
155.87554114695379
 20
158.23246440090929
 30
0.0
 70
    32
  0
VERTEX
  5
16DC3
  8
AM_0
 10
155.87554114695379
 20
158.22846440090919
 30
0.0
 70
    32
  0
VERTEX
  5
16DC4
  8
AM_0
 10
155.87654114695371
 20
158.2244644009092
 30
0.0
 70
    32
  0
VERTEX
  5
16DC5
  8
AM_0
 10
155.87754114695369
 20
158.2194644009092
 30
0.0
 70
    32
  0
VERTEX
  5
16DC6
  8
AM_0
 10
155.87754114695369
 20
158.2154644009095
 30
0.0
 70
    32
  0
VERTEX
  5
16DC7
  8
AM_0
 10
155.87854114695381
 20
158.21146440090931
 30
0.0
 70
    32
  0
VERTEX
  5
16DC8
  8
AM_0
 10
155.87854114695381
 20
158.2074644009092
 30
0.0
 70
    32
  0
VERTEX
  5
16DC9
  8
AM_0
 10
155.8795411469537
 20
158.20346440090941
 30
0.0
 70
    32
  0
VERTEX
  5
16DCA
  8
AM_0
 10
155.8805411469535
 20
158.19846440090939
 30
0.0
 70
    32
  0
VERTEX
  5
16DCB
  8
AM_0
 10
155.8805411469535
 20
158.19446440090911
 30
0.0
 70
    32
  0
VERTEX
  5
16DCC
  8
AM_0
 10
155.88154114695359
 20
158.19046440090949
 30
0.0
 70
    32
  0
VERTEX
  5
16DCD
  8
AM_0
 10
155.88154114695359
 20
158.1864644009095
 30
0.0
 70
    32
  0
VERTEX
  5
16DCE
  8
AM_0
 10
155.88254114695391
 20
158.18146440090919
 30
0.0
 70
    32
  0
VERTEX
  5
16DCF
  8
AM_0
 10
155.8835411469538
 20
158.1774644009092
 30
0.0
 70
    32
  0
VERTEX
  5
16DD0
  8
AM_0
 10
155.8835411469538
 20
158.17346440090941
 30
0.0
 70
    32
  0
VERTEX
  5
16DD1
  8
AM_0
 10
155.88454114695361
 20
158.16946440090931
 30
0.0
 70
    32
  0
VERTEX
  5
16DD2
  8
AM_0
 10
155.8855411469539
 20
158.16546440090929
 30
0.0
 70
    32
  0
VERTEX
  5
16DD3
  8
AM_0
 10
155.8855411469539
 20
158.16046440090921
 30
0.0
 70
    32
  0
VERTEX
  5
16DD4
  8
AM_0
 10
155.8865411469537
 20
158.15646440090941
 30
0.0
 70
    32
  0
VERTEX
  5
16DD5
  8
AM_0
 10
155.8865411469537
 20
158.15246440090939
 30
0.0
 70
    32
  0
VERTEX
  5
16DD6
  8
AM_0
 10
155.88754114695391
 20
158.1484644009094
 30
0.0
 70
    32
  0
VERTEX
  5
16DD7
  8
AM_0
 10
155.8885411469538
 20
158.14346440090941
 30
0.0
 70
    32
  0
VERTEX
  5
16DD8
  8
AM_0
 10
155.8885411469538
 20
158.1394644009095
 30
0.0
 70
    32
  0
VERTEX
  5
16DD9
  8
AM_0
 10
155.88954114695369
 20
158.1354644009094
 30
0.0
 70
    32
  0
VERTEX
  5
16DDA
  8
AM_0
 10
155.89054114695361
 20
158.13146440090921
 30
0.0
 70
    32
  0
VERTEX
  5
16DDB
  8
AM_0
 10
155.89054114695361
 20
158.12746440090919
 30
0.0
 70
    32
  0
VERTEX
  5
16DDC
  8
AM_0
 10
155.89154114695381
 20
158.12246440090939
 30
0.0
 70
    32
  0
VERTEX
  5
16DDD
  8
AM_0
 10
155.8925411469539
 20
158.11846440090909
 30
0.0
 70
    32
  0
VERTEX
  5
16DDE
  8
AM_0
 10
155.8925411469539
 20
158.1144644009093
 30
0.0
 70
    32
  0
VERTEX
  5
16DDF
  8
AM_0
 10
155.89354114695359
 20
158.11046440090951
 30
0.0
 70
    32
  0
VERTEX
  5
16DE0
  8
AM_0
 10
155.8945411469538
 20
158.1054644009092
 30
0.0
 70
    32
  0
VERTEX
  5
16DE1
  8
AM_0
 10
155.8945411469538
 20
158.10146440090941
 30
0.0
 70
    32
  0
VERTEX
  5
16DE2
  8
AM_0
 10
155.89554114695389
 20
158.0974644009091
 30
0.0
 70
    32
  0
VERTEX
  5
16DE3
  8
AM_0
 10
155.89654114695361
 20
158.09346440090911
 30
0.0
 70
    32
  0
VERTEX
  5
16DE4
  8
AM_0
 10
155.89754114695361
 20
158.08946440090901
 30
0.0
 70
    32
  0
VERTEX
  5
16DE5
  8
AM_0
 10
155.89754114695361
 20
158.08446440090921
 30
0.0
 70
    32
  0
VERTEX
  5
16DE6
  8
AM_0
 10
155.89854114695339
 20
158.08046440090919
 30
0.0
 70
    32
  0
VERTEX
  5
16DE7
  8
AM_0
 10
155.89954114695371
 20
158.07646440090929
 30
0.0
 70
    32
  0
VERTEX
  5
16DE8
  8
AM_0
 10
155.89954114695371
 20
158.0724644009095
 30
0.0
 70
    32
  0
VERTEX
  5
16DE9
  8
AM_0
 10
155.90054114695391
 20
158.06846440090919
 30
0.0
 70
    32
  0
VERTEX
  5
16DEA
  8
AM_0
 10
155.9015411469538
 20
158.06346440090951
 30
0.0
 70
    32
  0
VERTEX
  5
16DEB
  8
AM_0
 10
155.90254114695361
 20
158.05946440090941
 30
0.0
 70
    32
  0
VERTEX
  5
16DEC
  8
AM_0
 10
155.90254114695361
 20
158.05546440090919
 30
0.0
 70
    32
  0
VERTEX
  5
16DED
  8
AM_0
 10
155.90354114695381
 20
158.05146440090911
 30
0.0
 70
    32
  0
VERTEX
  5
16DEE
  8
AM_0
 10
155.90454114695379
 20
158.04746440090929
 30
0.0
 70
    32
  0
VERTEX
  5
16DEF
  8
AM_0
 10
155.90554114695391
 20
158.0424644009093
 30
0.0
 70
    32
  0
VERTEX
  5
16DF0
  8
AM_0
 10
155.90554114695391
 20
158.03846440090919
 30
0.0
 70
    32
  0
VERTEX
  5
16DF1
  8
AM_0
 10
155.90654114695371
 20
158.0344644009094
 30
0.0
 70
    32
  0
VERTEX
  5
16DF2
  8
AM_0
 10
155.9075411469536
 20
158.0304644009093
 30
0.0
 70
    32
  0
VERTEX
  5
16DF3
  8
AM_0
 10
155.90854114695381
 20
158.02646440090911
 30
0.0
 70
    32
  0
VERTEX
  5
16DF4
  8
AM_0
 10
155.90854114695381
 20
158.02146440090911
 30
0.0
 70
    32
  0
VERTEX
  5
16DF5
  8
AM_0
 10
155.9095411469539
 20
158.0174644009094
 30
0.0
 70
    32
  0
VERTEX
  5
16DF6
  8
AM_0
 10
155.91054114695359
 20
158.01346440090921
 30
0.0
 70
    32
  0
VERTEX
  5
16DF7
  8
AM_0
 10
155.91154114695371
 20
158.00946440090931
 30
0.0
 70
    32
  0
VERTEX
  5
16DF8
  8
AM_0
 10
155.91154114695371
 20
158.00546440090949
 30
0.0
 70
    32
  0
VERTEX
  5
16DF9
  8
AM_0
 10
155.91254114695391
 20
158.00046440090929
 30
0.0
 70
    32
  0
VERTEX
  5
16DFA
  8
AM_0
 10
155.9135411469538
 20
157.9964644009093
 30
0.0
 70
    32
  0
VERTEX
  5
16DFB
  8
AM_0
 10
155.91454114695381
 20
157.9924644009094
 30
0.0
 70
    32
  0
VERTEX
  5
16DFC
  8
AM_0
 10
155.91554114695381
 20
157.98846440090929
 30
0.0
 70
    32
  0
VERTEX
  5
16DFD
  8
AM_0
 10
155.91554114695381
 20
157.9844644009091
 30
0.0
 70
    32
  0
VERTEX
  5
16DFE
  8
AM_0
 10
155.91654114695351
 20
157.97946440090951
 30
0.0
 70
    32
  0
VERTEX
  5
16DFF
  8
AM_0
 10
155.91754114695371
 20
157.97546440090909
 30
0.0
 70
    32
  0
VERTEX
  5
16E00
  8
AM_0
 10
155.9185411469538
 20
157.97146440090921
 30
0.0
 70
    32
  0
VERTEX
  5
16E01
  8
AM_0
 10
155.91954114695361
 20
157.96746440090939
 30
0.0
 70
    32
  0
VERTEX
  5
16E02
  8
AM_0
 10
155.91954114695361
 20
157.96346440090909
 30
0.0
 70
    32
  0
VERTEX
  5
16E03
  8
AM_0
 10
155.92054114695361
 20
157.95846440090929
 30
0.0
 70
    32
  0
VERTEX
  5
16E04
  8
AM_0
 10
155.92154114695381
 20
157.9544644009093
 30
0.0
 70
    32
  0
VERTEX
  5
16E05
  8
AM_0
 10
155.9225411469539
 20
157.9504644009092
 30
0.0
 70
    32
  0
VERTEX
  5
16E06
  8
AM_0
 10
155.9235411469538
 20
157.94646440090921
 30
0.0
 70
    32
  0
VERTEX
  5
16E07
  8
AM_0
 10
155.9245411469538
 20
157.94246440090939
 30
0.0
 70
    32
  0
VERTEX
  5
16E08
  8
AM_0
 10
155.9245411469538
 20
157.93846440090951
 30
0.0
 70
    32
  0
VERTEX
  5
16E09
  8
AM_0
 10
155.92554114695349
 20
157.93346440090909
 30
0.0
 70
    32
  0
VERTEX
  5
16E0A
  8
AM_0
 10
155.9265411469537
 20
157.9294644009095
 30
0.0
 70
    32
  0
VERTEX
  5
16E0B
  8
AM_0
 10
155.9275411469539
 20
157.92546440090899
 30
0.0
 70
    32
  0
VERTEX
  5
16E0C
  8
AM_0
 10
155.92854114695379
 20
157.9214644009092
 30
0.0
 70
    32
  0
VERTEX
  5
16E0D
  8
AM_0
 10
155.9295411469538
 20
157.9174644009093
 30
0.0
 70
    32
  0
VERTEX
  5
16E0E
  8
AM_0
 10
155.9305411469538
 20
157.9124644009093
 30
0.0
 70
    32
  0
VERTEX
  5
16E0F
  8
AM_0
 10
155.9305411469538
 20
157.90846440090931
 30
0.0
 70
    32
  0
VERTEX
  5
16E10
  8
AM_0
 10
155.9315411469538
 20
157.90446440090921
 30
0.0
 70
    32
  0
VERTEX
  5
16E11
  8
AM_0
 10
155.93254114695389
 20
157.90046440090919
 30
0.0
 70
    32
  0
VERTEX
  5
16E12
  8
AM_0
 10
155.93354114695379
 20
157.89646440090931
 30
0.0
 70
    32
  0
VERTEX
  5
16E13
  8
AM_0
 10
155.93454114695359
 20
157.89246440090949
 30
0.0
 70
    32
  0
VERTEX
  5
16E14
  8
AM_0
 10
155.9355411469538
 20
157.88746440090929
 30
0.0
 70
    32
  0
VERTEX
  5
16E15
  8
AM_0
 10
155.93654114695369
 20
157.88346440090919
 30
0.0
 70
    32
  0
VERTEX
  5
16E16
  8
AM_0
 10
155.93754114695369
 20
157.8794644009092
 30
0.0
 70
    32
  0
VERTEX
  5
16E17
  8
AM_0
 10
155.93854114695381
 20
157.87546440090941
 30
0.0
 70
    32
  0
VERTEX
  5
16E18
  8
AM_0
 10
155.93854114695381
 20
157.8714644009093
 30
0.0
 70
    32
  0
VERTEX
  5
16E19
  8
AM_0
 10
155.93954114695339
 20
157.86746440090931
 30
0.0
 70
    32
  0
VERTEX
  5
16E1A
  8
AM_0
 10
155.94054114695379
 20
157.8624644009092
 30
0.0
 70
    32
  0
VERTEX
  5
16E1B
  8
AM_0
 10
155.9415411469538
 20
157.85846440090901
 30
0.0
 70
    32
  0
VERTEX
  5
16E1C
  8
AM_0
 10
155.94254114695389
 20
157.85446440090939
 30
0.0
 70
    32
  0
VERTEX
  5
16E1D
  8
AM_0
 10
155.94354114695349
 20
157.85046440090909
 30
0.0
 70
    32
  0
VERTEX
  5
16E1E
  8
AM_0
 10
155.94454114695361
 20
157.8464644009093
 30
0.0
 70
    32
  0
VERTEX
  5
16E1F
  8
AM_0
 10
155.94554114695379
 20
157.84246440090951
 30
0.0
 70
    32
  0
VERTEX
  5
16E20
  8
AM_0
 10
155.94654114695359
 20
157.8374644009094
 30
0.0
 70
    32
  0
VERTEX
  5
16E21
  8
AM_0
 10
155.94754114695371
 20
157.83346440090921
 30
0.0
 70
    32
  0
VERTEX
  5
16E22
  8
AM_0
 10
155.9485411469534
 20
157.82946440090919
 30
0.0
 70
    32
  0
VERTEX
  5
16E23
  8
AM_0
 10
155.949541146954
 20
157.82546440090911
 30
0.0
 70
    32
  0
VERTEX
  5
16E24
  8
AM_0
 10
155.95054114695381
 20
157.82146440090921
 30
0.0
 70
    32
  0
VERTEX
  5
16E25
  8
AM_0
 10
155.95154114695379
 20
157.8174644009093
 30
0.0
 70
    32
  0
VERTEX
  5
16E26
  8
AM_0
 10
155.95254114695379
 20
157.81246440090919
 30
0.0
 70
    32
  0
VERTEX
  5
16E27
  8
AM_0
 10
155.95354114695371
 20
157.8084644009092
 30
0.0
 70
    32
  0
VERTEX
  5
16E28
  8
AM_0
 10
155.95454114695369
 20
157.80446440090941
 30
0.0
 70
    32
  0
VERTEX
  5
16E29
  8
AM_0
 10
155.95554114695381
 20
157.80046440090911
 30
0.0
 70
    32
  0
VERTEX
  5
16E2A
  8
AM_0
 10
155.95654114695361
 20
157.79646440090929
 30
0.0
 70
    32
  0
VERTEX
  5
16E2B
  8
AM_0
 10
155.9575411469535
 20
157.79246440090921
 30
0.0
 70
    32
  0
VERTEX
  5
16E2C
  8
AM_0
 10
155.95854114695391
 20
157.78846440090931
 30
0.0
 70
    32
  0
VERTEX
  5
16E2D
  8
AM_0
 10
155.95954114695391
 20
157.78346440090911
 30
0.0
 70
    32
  0
VERTEX
  5
16E2E
  8
AM_0
 10
155.9605411469538
 20
157.77946440090929
 30
0.0
 70
    32
  0
VERTEX
  5
16E2F
  8
AM_0
 10
155.96154114695369
 20
157.77546440090919
 30
0.0
 70
    32
  0
VERTEX
  5
16E30
  8
AM_0
 10
155.9625411469539
 20
157.77146440090939
 30
0.0
 70
    32
  0
VERTEX
  5
16E31
  8
AM_0
 10
155.96354114695359
 20
157.76746440090929
 30
0.0
 70
    32
  0
VERTEX
  5
16E32
  8
AM_0
 10
155.96454114695371
 20
157.7634644009093
 30
0.0
 70
    32
  0
VERTEX
  5
16E33
  8
AM_0
 10
155.9655411469538
 20
157.75846440090911
 30
0.0
 70
    32
  0
VERTEX
  5
16E34
  8
AM_0
 10
155.9665411469534
 20
157.75446440090931
 30
0.0
 70
    32
  0
VERTEX
  5
16E35
  8
AM_0
 10
155.96754114695361
 20
157.75046440090941
 30
0.0
 70
    32
  0
VERTEX
  5
16E36
  8
AM_0
 10
155.96854114695361
 20
157.74646440090939
 30
0.0
 70
    32
  0
VERTEX
  5
16E37
  8
AM_0
 10
155.9695411469539
 20
157.74246440090931
 30
0.0
 70
    32
  0
VERTEX
  5
16E38
  8
AM_0
 10
155.97054114695359
 20
157.73846440090909
 30
0.0
 70
    32
  0
VERTEX
  5
16E39
  8
AM_0
 10
155.9715411469538
 20
157.7344644009093
 30
0.0
 70
    32
  0
VERTEX
  5
16E3A
  8
AM_0
 10
155.97254114695389
 20
157.7304644009092
 30
0.0
 70
    32
  0
VERTEX
  5
16E3B
  8
AM_0
 10
155.97354114695361
 20
157.7254644009092
 30
0.0
 70
    32
  0
VERTEX
  5
16E3C
  8
AM_0
 10
155.9745411469537
 20
157.7214644009093
 30
0.0
 70
    32
  0
VERTEX
  5
16E3D
  8
AM_0
 10
155.9755411469535
 20
157.71746440090951
 30
0.0
 70
    32
  0
VERTEX
  5
16E3E
  8
AM_0
 10
155.9775411469536
 20
157.71346440090929
 30
0.0
 70
    32
  0
VERTEX
  5
16E3F
  8
AM_0
 10
155.9785411469538
 20
157.70946440090921
 30
0.0
 70
    32
  0
VERTEX
  5
16E40
  8
AM_0
 10
155.97954114695361
 20
157.70546440090919
 30
0.0
 70
    32
  0
VERTEX
  5
16E41
  8
AM_0
 10
155.98054114695381
 20
157.70146440090909
 30
0.0
 70
    32
  0
VERTEX
  5
16E42
  8
AM_0
 10
155.98154114695379
 20
157.6974644009095
 30
0.0
 70
    32
  0
VERTEX
  5
16E43
  8
AM_0
 10
155.98254114695391
 20
157.6924644009091
 30
0.0
 70
    32
  0
VERTEX
  5
16E44
  8
AM_0
 10
155.98354114695371
 20
157.68846440090931
 30
0.0
 70
    32
  0
VERTEX
  5
16E45
  8
AM_0
 10
155.9845411469536
 20
157.68446440090901
 30
0.0
 70
    32
  0
VERTEX
  5
16E46
  8
AM_0
 10
155.98554114695381
 20
157.6804644009093
 30
0.0
 70
    32
  0
VERTEX
  5
16E47
  8
AM_0
 10
155.9875411469539
 20
157.67646440090931
 30
0.0
 70
    32
  0
VERTEX
  5
16E48
  8
AM_0
 10
155.98854114695371
 20
157.67246440090921
 30
0.0
 70
    32
  0
VERTEX
  5
16E49
  8
AM_0
 10
155.98954114695391
 20
157.6684644009095
 30
0.0
 70
    32
  0
VERTEX
  5
16E4A
  8
AM_0
 10
155.9905411469538
 20
157.6644644009094
 30
0.0
 70
    32
  0
VERTEX
  5
16E4B
  8
AM_0
 10
155.99154114695401
 20
157.6594644009094
 30
0.0
 70
    32
  0
VERTEX
  5
16E4C
  8
AM_0
 10
155.99254114695381
 20
157.6554644009091
 30
0.0
 70
    32
  0
VERTEX
  5
16E4D
  8
AM_0
 10
155.9935411469535
 20
157.6514644009095
 30
0.0
 70
    32
  0
VERTEX
  5
16E4E
  8
AM_0
 10
155.9955411469538
 20
157.6474644009094
 30
0.0
 70
    32
  0
VERTEX
  5
16E4F
  8
AM_0
 10
155.996541146954
 20
157.64346440090921
 30
0.0
 70
    32
  0
VERTEX
  5
16E50
  8
AM_0
 10
155.99754114695361
 20
157.63946440090939
 30
0.0
 70
    32
  0
VERTEX
  5
16E51
  8
AM_0
 10
155.99854114695381
 20
157.63546440090931
 30
0.0
 70
    32
  0
VERTEX
  5
16E52
  8
AM_0
 10
155.9995411469539
 20
157.63146440090949
 30
0.0
 70
    32
  0
VERTEX
  5
16E53
  8
AM_0
 10
156.00054114695379
 20
157.62746440090899
 30
0.0
 70
    32
  0
VERTEX
  5
16E54
  8
AM_0
 10
156.00254114695349
 20
157.6234644009092
 30
0.0
 70
    32
  0
VERTEX
  5
16E55
  8
AM_0
 10
156.00354114695361
 20
157.6184644009092
 30
0.0
 70
    32
  0
VERTEX
  5
16E56
  8
AM_0
 10
156.0045411469537
 20
157.6144644009091
 30
0.0
 70
    32
  0
VERTEX
  5
16E57
  8
AM_0
 10
156.00554114695379
 20
157.61046440090951
 30
0.0
 70
    32
  0
VERTEX
  5
16E58
  8
AM_0
 10
156.00654114695359
 20
157.6064644009092
 30
0.0
 70
    32
  0
VERTEX
  5
16E59
  8
AM_0
 10
156.0085411469538
 20
157.60246440090921
 30
0.0
 70
    32
  0
VERTEX
  5
16E5A
  8
AM_0
 10
156.00954114695389
 20
157.59846440090931
 30
0.0
 70
    32
  0
VERTEX
  5
16E5B
  8
AM_0
 10
156.01054114695381
 20
157.59446440090909
 30
0.0
 70
    32
  0
VERTEX
  5
16E5C
  8
AM_0
 10
156.01154114695359
 20
157.5904644009091
 30
0.0
 70
    32
  0
VERTEX
  5
16E5D
  8
AM_0
 10
156.01354114695371
 20
157.58646440090939
 30
0.0
 70
    32
  0
VERTEX
  5
16E5E
  8
AM_0
 10
156.01454114695369
 20
157.5824644009092
 30
0.0
 70
    32
  0
VERTEX
  5
16E5F
  8
AM_0
 10
156.01554114695361
 20
157.5784644009093
 30
0.0
 70
    32
  0
VERTEX
  5
16E60
  8
AM_0
 10
156.0165411469539
 20
157.5734644009093
 30
0.0
 70
    32
  0
VERTEX
  5
16E61
  8
AM_0
 10
156.01854114695379
 20
157.56946440090931
 30
0.0
 70
    32
  0
VERTEX
  5
16E62
  8
AM_0
 10
156.01954114695391
 20
157.56546440090921
 30
0.0
 70
    32
  0
VERTEX
  5
16E63
  8
AM_0
 10
156.02054114695349
 20
157.56146440090961
 30
0.0
 70
    32
  0
VERTEX
  5
16E64
  8
AM_0
 10
156.02154114695369
 20
157.5574644009094
 30
0.0
 70
    32
  0
VERTEX
  5
16E65
  8
AM_0
 10
156.02354114695359
 20
157.55346440090949
 30
0.0
 70
    32
  0
VERTEX
  5
16E66
  8
AM_0
 10
156.0245411469536
 20
157.5494644009093
 30
0.0
 70
    32
  0
VERTEX
  5
16E67
  8
AM_0
 10
156.02554114695391
 20
157.5454644009092
 30
0.0
 70
    32
  0
VERTEX
  5
16E68
  8
AM_0
 10
156.026541146954
 20
157.5414644009096
 30
0.0
 70
    32
  0
VERTEX
  5
16E69
  8
AM_0
 10
156.02854114695381
 20
157.5374644009093
 30
0.0
 70
    32
  0
VERTEX
  5
16E6A
  8
AM_0
 10
156.02954114695379
 20
157.53346440090911
 30
0.0
 70
    32
  0
VERTEX
  5
16E6B
  8
AM_0
 10
156.03054114695371
 20
157.5294644009094
 30
0.0
 70
    32
  0
VERTEX
  5
16E6C
  8
AM_0
 10
156.0325411469538
 20
157.52546440090941
 30
0.0
 70
    32
  0
VERTEX
  5
16E6D
  8
AM_0
 10
156.03354114695361
 20
157.52046440090939
 30
0.0
 70
    32
  0
VERTEX
  5
16E6E
  8
AM_0
 10
156.0345411469535
 20
157.51646440090931
 30
0.0
 70
    32
  0
VERTEX
  5
16E6F
  8
AM_0
 10
156.03654114695399
 20
157.5124644009091
 30
0.0
 70
    32
  0
VERTEX
  5
16E70
  8
AM_0
 10
156.0375411469538
 20
157.5084644009093
 30
0.0
 70
    32
  0
VERTEX
  5
16E71
  8
AM_0
 10
156.03854114695369
 20
157.5044644009092
 30
0.0
 70
    32
  0
VERTEX
  5
16E72
  8
AM_0
 10
156.04054114695359
 20
157.50046440090929
 30
0.0
 70
    32
  0
VERTEX
  5
16E73
  8
AM_0
 10
156.04154114695359
 20
157.49646440090939
 30
0.0
 70
    32
  0
VERTEX
  5
16E74
  8
AM_0
 10
156.04254114695379
 20
157.4924644009092
 30
0.0
 70
    32
  0
VERTEX
  5
16E75
  8
AM_0
 10
156.04454114695369
 20
157.48846440090941
 30
0.0
 70
    32
  0
VERTEX
  5
16E76
  8
AM_0
 10
156.04554114695381
 20
157.48446440090919
 30
0.0
 70
    32
  0
VERTEX
  5
16E77
  8
AM_0
 10
156.0465411469539
 20
157.48046440090931
 30
0.0
 70
    32
  0
VERTEX
  5
16E78
  8
AM_0
 10
156.0485411469538
 20
157.47646440090949
 30
0.0
 70
    32
  0
VERTEX
  5
16E79
  8
AM_0
 10
156.04954114695391
 20
157.47246440090919
 30
0.0
 70
    32
  0
VERTEX
  5
16E7A
  8
AM_0
 10
156.05054114695369
 20
157.4684644009092
 30
0.0
 70
    32
  0
VERTEX
  5
16E7B
  8
AM_0
 10
156.0525411469535
 20
157.46446440090909
 30
0.0
 70
    32
  0
VERTEX
  5
16E7C
  8
AM_0
 10
156.05354114695371
 20
157.4604644009091
 30
0.0
 70
    32
  0
VERTEX
  5
16E7D
  8
AM_0
 10
156.0555411469538
 20
157.45646440090951
 30
0.0
 70
    32
  0
VERTEX
  5
16E7E
  8
AM_0
 10
156.0565411469538
 20
157.45246440090921
 30
0.0
 70
    32
  0
VERTEX
  5
16E7F
  8
AM_0
 10
156.05754114695381
 20
157.44846440090919
 30
0.0
 70
    32
  0
VERTEX
  5
16E80
  8
AM_0
 10
156.0595411469539
 20
157.44446440090931
 30
0.0
 70
    32
  0
VERTEX
  5
16E81
  8
AM_0
 10
156.06054114695371
 20
157.44046440090909
 30
0.0
 70
    32
  0
VERTEX
  5
16E82
  8
AM_0
 10
156.06254114695381
 20
157.4364644009095
 30
0.0
 70
    32
  0
VERTEX
  5
16E83
  8
AM_0
 10
156.06354114695361
 20
157.4324644009094
 30
0.0
 70
    32
  0
VERTEX
  5
16E84
  8
AM_0
 10
156.06454114695359
 20
157.42846440090941
 30
0.0
 70
    32
  0
VERTEX
  5
16E85
  8
AM_0
 10
156.06654114695391
 20
157.4244644009093
 30
0.0
 70
    32
  0
VERTEX
  5
16E86
  8
AM_0
 10
156.0675411469538
 20
157.42046440090951
 30
0.0
 70
    32
  0
VERTEX
  5
16E87
  8
AM_0
 10
156.06954114695381
 20
157.41546440090929
 30
0.0
 70
    32
  0
VERTEX
  5
16E88
  8
AM_0
 10
156.0705411469535
 20
157.41146440090941
 30
0.0
 70
    32
  0
VERTEX
  5
16E89
  8
AM_0
 10
156.0725411469538
 20
157.40746440090959
 30
0.0
 70
    32
  0
VERTEX
  5
16E8A
  8
AM_0
 10
156.0735411469536
 20
157.4034644009094
 30
0.0
 70
    32
  0
VERTEX
  5
16E8B
  8
AM_0
 10
156.07554114695381
 20
157.39946440090901
 30
0.0
 70
    32
  0
VERTEX
  5
16E8C
  8
AM_0
 10
156.0765411469539
 20
157.3954644009093
 30
0.0
 70
    32
  0
VERTEX
  5
16E8D
  8
AM_0
 10
156.0785411469536
 20
157.3914644009092
 30
0.0
 70
    32
  0
VERTEX
  5
16E8E
  8
AM_0
 10
156.07954114695349
 20
157.3874644009091
 30
0.0
 70
    32
  0
VERTEX
  5
16E8F
  8
AM_0
 10
156.08154114695361
 20
157.38346440090939
 30
0.0
 70
    32
  0
VERTEX
  5
16E90
  8
AM_0
 10
156.08254114695379
 20
157.37946440090931
 30
0.0
 70
    32
  0
VERTEX
  5
16E91
  8
AM_0
 10
156.0845411469538
 20
157.37546440090921
 30
0.0
 70
    32
  0
VERTEX
  5
16E92
  8
AM_0
 10
156.0855411469538
 20
157.37146440090939
 30
0.0
 70
    32
  0
VERTEX
  5
16E93
  8
AM_0
 10
156.08754114695361
 20
157.36746440090911
 30
0.0
 70
    32
  0
VERTEX
  5
16E94
  8
AM_0
 10
156.08854114695359
 20
157.36346440090949
 30
0.0
 70
    32
  0
VERTEX
  5
16E95
  8
AM_0
 10
156.09054114695371
 20
157.35946440090919
 30
0.0
 70
    32
  0
VERTEX
  5
16E96
  8
AM_0
 10
156.09154114695369
 20
157.3554644009092
 30
0.0
 70
    32
  0
VERTEX
  5
16E97
  8
AM_0
 10
156.09354114695341
 20
157.3524644009093
 30
0.0
 70
    32
  0
VERTEX
  5
16E98
  8
AM_0
 10
156.09454114695379
 20
157.34846440090931
 30
0.0
 70
    32
  0
VERTEX
  5
16E99
  8
AM_0
 10
156.09654114695391
 20
157.3444644009092
 30
0.0
 70
    32
  0
VERTEX
  5
16E9A
  8
AM_0
 10
156.09754114695349
 20
157.34046440090921
 30
0.0
 70
    32
  0
VERTEX
  5
16E9B
  8
AM_0
 10
156.09954114695381
 20
157.33646440090939
 30
0.0
 70
    32
  0
VERTEX
  5
16E9C
  8
AM_0
 10
156.1005411469537
 20
157.33246440090929
 30
0.0
 70
    32
  0
VERTEX
  5
16E9D
  8
AM_0
 10
156.1025411469534
 20
157.3284644009093
 30
0.0
 70
    32
  0
VERTEX
  5
16E9E
  8
AM_0
 10
156.10454114695381
 20
157.32446440090919
 30
0.0
 70
    32
  0
VERTEX
  5
16E9F
  8
AM_0
 10
156.10554114695381
 20
157.3204644009092
 30
0.0
 70
    32
  0
VERTEX
  5
16EA0
  8
AM_0
 10
156.10754114695379
 20
157.31646440090941
 30
0.0
 70
    32
  0
VERTEX
  5
16EA1
  8
AM_0
 10
156.10854114695391
 20
157.31246440090911
 30
0.0
 70
    32
  0
VERTEX
  5
16EA2
  8
AM_0
 10
156.11054114695361
 20
157.30846440090929
 30
0.0
 70
    32
  0
VERTEX
  5
16EA3
  8
AM_0
 10
156.11254114695379
 20
157.30446440090921
 30
0.0
 70
    32
  0
VERTEX
  5
16EA4
  8
AM_0
 10
156.11354114695391
 20
157.30046440090931
 30
0.0
 70
    32
  0
VERTEX
  5
16EA5
  8
AM_0
 10
156.11554114695369
 20
157.29646440090909
 30
0.0
 70
    32
  0
VERTEX
  5
16EA6
  8
AM_0
 10
156.11654114695389
 20
157.2924644009091
 30
0.0
 70
    32
  0
VERTEX
  5
16EA7
  8
AM_0
 10
156.11854114695359
 20
157.28846440090939
 30
0.0
 70
    32
  0
VERTEX
  5
16EA8
  8
AM_0
 10
156.1205411469534
 20
157.2844644009094
 30
0.0
 70
    32
  0
VERTEX
  5
16EA9
  8
AM_0
 10
156.12154114695389
 20
157.2804644009093
 30
0.0
 70
    32
  0
VERTEX
  5
16EAA
  8
AM_0
 10
156.1235411469539
 20
157.27646440090911
 30
0.0
 70
    32
  0
VERTEX
  5
16EAB
  8
AM_0
 10
156.12554114695379
 20
157.2724644009092
 30
0.0
 70
    32
  0
VERTEX
  5
16EAC
  8
AM_0
 10
156.12654114695391
 20
157.26846440090941
 30
0.0
 70
    32
  0
VERTEX
  5
16EAD
  8
AM_0
 10
156.12854114695361
 20
157.26446440090939
 30
0.0
 70
    32
  0
VERTEX
  5
16EAE
  8
AM_0
 10
156.1305411469537
 20
157.2614644009092
 30
0.0
 70
    32
  0
VERTEX
  5
16EAF
  8
AM_0
 10
156.13154114695391
 20
157.25746440090921
 30
0.0
 70
    32
  0
VERTEX
  5
16EB0
  8
AM_0
 10
156.1335411469538
 20
157.25346440090959
 30
0.0
 70
    32
  0
VERTEX
  5
16EB1
  8
AM_0
 10
156.13554114695381
 20
157.24946440090929
 30
0.0
 70
    32
  0
VERTEX
  5
16EB2
  8
AM_0
 10
156.13654114695379
 20
157.2454644009093
 30
0.0
 70
    32
  0
VERTEX
  5
16EB3
  8
AM_0
 10
156.1385411469536
 20
157.24146440090919
 30
0.0
 70
    32
  0
VERTEX
  5
16EB4
  8
AM_0
 10
156.14054114695361
 20
157.2374644009094
 30
0.0
 70
    32
  0
VERTEX
  5
16EB5
  8
AM_0
 10
156.14154114695381
 20
157.23346440090961
 30
0.0
 70
    32
  0
VERTEX
  5
16EB6
  8
AM_0
 10
156.14354114695391
 20
157.22946440090911
 30
0.0
 70
    32
  0
VERTEX
  5
16EB7
  8
AM_0
 10
156.1455411469538
 20
157.22546440090929
 30
0.0
 70
    32
  0
VERTEX
  5
16EB8
  8
AM_0
 10
156.1475411469535
 20
157.22146440090921
 30
0.0
 70
    32
  0
VERTEX
  5
16EB9
  8
AM_0
 10
156.1485411469537
 20
157.21746440090939
 30
0.0
 70
    32
  0
VERTEX
  5
16EBA
  8
AM_0
 10
156.150541146954
 20
157.21446440090909
 30
0.0
 70
    32
  0
VERTEX
  5
16EBB
  8
AM_0
 10
156.15254114695381
 20
157.2104644009093
 30
0.0
 70
    32
  0
VERTEX
  5
16EBC
  8
AM_0
 10
156.15454114695379
 20
157.20646440090951
 30
0.0
 70
    32
  0
VERTEX
  5
16EBD
  8
AM_0
 10
156.15554114695371
 20
157.20246440090921
 30
0.0
 70
    32
  0
VERTEX
  5
16EBE
  8
AM_0
 10
156.15754114695369
 20
157.19846440090939
 30
0.0
 70
    32
  0
VERTEX
  5
16EBF
  8
AM_0
 10
156.15954114695381
 20
157.19446440090911
 30
0.0
 70
    32
  0
VERTEX
  5
16EC0
  8
AM_0
 10
156.16154114695379
 20
157.19046440090941
 30
0.0
 70
    32
  0
VERTEX
  5
16EC1
  8
AM_0
 10
156.1625411469538
 20
157.18646440090961
 30
0.0
 70
    32
  0
VERTEX
  5
16EC2
  8
AM_0
 10
156.16454114695381
 20
157.18246440090931
 30
0.0
 70
    32
  0
VERTEX
  5
16EC3
  8
AM_0
 10
156.16654114695379
 20
157.17946440090921
 30
0.0
 70
    32
  0
VERTEX
  5
16EC4
  8
AM_0
 10
156.16854114695369
 20
157.17546440090939
 30
0.0
 70
    32
  0
VERTEX
  5
16EC5
  8
AM_0
 10
156.17054114695401
 20
157.1714644009092
 30
0.0
 70
    32
  0
VERTEX
  5
16EC6
  8
AM_0
 10
156.17154114695381
 20
157.1674644009091
 30
0.0
 70
    32
  0
VERTEX
  5
16EC7
  8
AM_0
 10
156.17354114695391
 20
157.16346440090931
 30
0.0
 70
    32
  0
VERTEX
  5
16EC8
  8
AM_0
 10
156.17554114695369
 20
157.15946440090951
 30
0.0
 70
    32
  0
VERTEX
  5
16EC9
  8
AM_0
 10
156.1775411469537
 20
157.15546440090941
 30
0.0
 70
    32
  0
VERTEX
  5
16ECA
  8
AM_0
 10
156.17954114695391
 20
157.15246440090951
 30
0.0
 70
    32
  0
VERTEX
  5
16ECB
  8
AM_0
 10
156.18054114695391
 20
157.1484644009094
 30
0.0
 70
    32
  0
VERTEX
  5
16ECC
  8
AM_0
 10
156.18254114695381
 20
157.14446440090919
 30
0.0
 70
    32
  0
VERTEX
  5
16ECD
  8
AM_0
 10
156.18454114695371
 20
157.1404644009092
 30
0.0
 70
    32
  0
VERTEX
  5
16ECE
  8
AM_0
 10
156.1865411469538
 20
157.13646440090909
 30
0.0
 70
    32
  0
VERTEX
  5
16ECF
  8
AM_0
 10
156.1885411469535
 20
157.1324644009095
 30
0.0
 70
    32
  0
VERTEX
  5
16ED0
  8
AM_0
 10
156.1905411469539
 20
157.12846440090951
 30
0.0
 70
    32
  0
VERTEX
  5
16ED1
  8
AM_0
 10
156.19254114695369
 20
157.12546440090941
 30
0.0
 70
    32
  0
VERTEX
  5
16ED2
  8
AM_0
 10
156.1945411469537
 20
157.1214644009093
 30
0.0
 70
    32
  0
VERTEX
  5
16ED3
  8
AM_0
 10
156.1955411469537
 20
157.11746440090931
 30
0.0
 70
    32
  0
VERTEX
  5
16ED4
  8
AM_0
 10
156.1975411469534
 20
157.11346440090941
 30
0.0
 70
    32
  0
VERTEX
  5
16ED5
  8
AM_0
 10
156.19954114695381
 20
157.10946440090919
 30
0.0
 70
    32
  0
VERTEX
  5
16ED6
  8
AM_0
 10
156.20154114695359
 20
157.10646440090909
 30
0.0
 70
    32
  0
VERTEX
  5
16ED7
  8
AM_0
 10
156.20354114695391
 20
157.1024644009091
 30
0.0
 70
    32
  0
VERTEX
  5
16ED8
  8
AM_0
 10
156.20554114695369
 20
157.09846440090899
 30
0.0
 70
    32
  0
VERTEX
  5
16ED9
  8
AM_0
 10
156.20754114695359
 20
157.0944644009092
 30
0.0
 70
    32
  0
VERTEX
  5
16EDA
  8
AM_0
 10
156.2095411469538
 20
157.0904644009095
 30
0.0
 70
    32
  0
VERTEX
  5
16EDB
  8
AM_0
 10
156.21154114695381
 20
157.08746440090931
 30
0.0
 70
    32
  0
VERTEX
  5
16EDC
  8
AM_0
 10
156.21354114695379
 20
157.08346440090921
 30
0.0
 70
    32
  0
VERTEX
  5
16EDD
  8
AM_0
 10
156.2155411469536
 20
157.0794644009091
 30
0.0
 70
    32
  0
VERTEX
  5
16EDE
  8
AM_0
 10
156.21754114695361
 20
157.07546440090911
 30
0.0
 70
    32
  0
VERTEX
  5
16EDF
  8
AM_0
 10
156.21954114695359
 20
157.07146440090909
 30
0.0
 70
    32
  0
VERTEX
  5
16EE0
  8
AM_0
 10
156.2215411469538
 20
157.06846440090911
 30
0.0
 70
    32
  0
VERTEX
  5
16EE1
  8
AM_0
 10
156.22354114695381
 20
157.0644644009094
 30
0.0
 70
    32
  0
VERTEX
  5
16EE2
  8
AM_0
 10
156.2255411469537
 20
157.0604644009093
 30
0.0
 70
    32
  0
VERTEX
  5
16EE3
  8
AM_0
 10
156.2275411469536
 20
157.05646440090919
 30
0.0
 70
    32
  0
VERTEX
  5
16EE4
  8
AM_0
 10
156.22954114695381
 20
157.05246440090951
 30
0.0
 70
    32
  0
VERTEX
  5
16EE5
  8
AM_0
 10
156.23154114695379
 20
157.0494644009093
 30
0.0
 70
    32
  0
VERTEX
  5
16EE6
  8
AM_0
 10
156.23354114695351
 20
157.04546440090951
 30
0.0
 70
    32
  0
VERTEX
  5
16EE7
  8
AM_0
 10
156.23554114695361
 20
157.04146440090949
 30
0.0
 70
    32
  0
VERTEX
  5
16EE8
  8
AM_0
 10
156.23754114695359
 20
157.03746440090941
 30
0.0
 70
    32
  0
VERTEX
  5
16EE9
  8
AM_0
 10
156.2395411469538
 20
157.03446440090951
 30
0.0
 70
    32
  0
VERTEX
  5
16EEA
  8
AM_0
 10
156.24154114695381
 20
157.0304644009093
 30
0.0
 70
    32
  0
VERTEX
  5
16EEB
  8
AM_0
 10
156.24354114695379
 20
157.02646440090919
 30
0.0
 70
    32
  0
VERTEX
  5
16EEC
  8
AM_0
 10
156.24554114695371
 20
157.0224644009092
 30
0.0
 70
    32
  0
VERTEX
  5
16EED
  8
AM_0
 10
156.24754114695341
 20
157.0194644009093
 30
0.0
 70
    32
  0
VERTEX
  5
16EEE
  8
AM_0
 10
156.24954114695399
 20
157.0154644009092
 30
0.0
 70
    32
  0
VERTEX
  5
16EEF
  8
AM_0
 10
156.25154114695351
 20
157.01146440090901
 30
0.0
 70
    32
  0
VERTEX
  5
16EF0
  8
AM_0
 10
156.25354114695381
 20
157.00846440090911
 30
0.0
 70
    32
  0
VERTEX
  5
16EF1
  8
AM_0
 10
156.25654114695359
 20
157.0044644009092
 30
0.0
 70
    32
  0
VERTEX
  5
16EF2
  8
AM_0
 10
156.2585411469538
 20
157.00046440090941
 30
0.0
 70
    32
  0
VERTEX
  5
16EF3
  8
AM_0
 10
156.2605411469535
 20
156.99646440090919
 30
0.0
 70
    32
  0
VERTEX
  5
16EF4
  8
AM_0
 10
156.26254114695371
 20
156.99346440090909
 30
0.0
 70
    32
  0
VERTEX
  5
16EF5
  8
AM_0
 10
156.26454114695369
 20
156.9894644009093
 30
0.0
 70
    32
  0
VERTEX
  5
16EF6
  8
AM_0
 10
156.26654114695381
 20
156.98546440090951
 30
0.0
 70
    32
  0
VERTEX
  5
16EF7
  8
AM_0
 10
156.26854114695379
 20
156.98246440090929
 30
0.0
 70
    32
  0
VERTEX
  5
16EF8
  8
AM_0
 10
156.27054114695389
 20
156.9784644009091
 30
0.0
 70
    32
  0
VERTEX
  5
16EF9
  8
AM_0
 10
156.27354114695379
 20
156.97446440090931
 30
0.0
 70
    32
  0
VERTEX
  5
16EFA
  8
AM_0
 10
156.27554114695391
 20
156.97146440090921
 30
0.0
 70
    32
  0
VERTEX
  5
16EFB
  8
AM_0
 10
156.27754114695389
 20
156.96746440090931
 30
0.0
 70
    32
  0
VERTEX
  5
16EFC
  8
AM_0
 10
156.27954114695379
 20
156.9634644009092
 30
0.0
 70
    32
  0
VERTEX
  5
16EFD
  8
AM_0
 10
156.28154114695371
 20
156.96046440090919
 30
0.0
 70
    32
  0
VERTEX
  5
16EFE
  8
AM_0
 10
156.28454114695359
 20
156.9564644009094
 30
0.0
 70
    32
  0
VERTEX
  5
16EFF
  8
AM_0
 10
156.28654114695379
 20
156.95246440090929
 30
0.0
 70
    32
  0
VERTEX
  5
16F00
  8
AM_0
 10
156.2885411469538
 20
156.94946440090939
 30
0.0
 70
    32
  0
VERTEX
  5
16F01
  8
AM_0
 10
156.29054114695381
 20
156.94546440090909
 30
0.0
 70
    32
  0
VERTEX
  5
16F02
  8
AM_0
 10
156.2925411469536
 20
156.9414644009093
 30
0.0
 70
    32
  0
VERTEX
  5
16F03
  8
AM_0
 10
156.29554114695381
 20
156.93846440090951
 30
0.0
 70
    32
  0
VERTEX
  5
16F04
  8
AM_0
 10
156.2975411469539
 20
156.93446440090941
 30
0.0
 70
    32
  0
VERTEX
  5
16F05
  8
AM_0
 10
156.29954114695369
 20
156.93046440090919
 30
0.0
 70
    32
  0
VERTEX
  5
16F06
  8
AM_0
 10
156.3015411469535
 20
156.92746440090951
 30
0.0
 70
    32
  0
VERTEX
  5
16F07
  8
AM_0
 10
156.30454114695399
 20
156.92346440090941
 30
0.0
 70
    32
  0
VERTEX
  5
16F08
  8
AM_0
 10
156.3065411469538
 20
156.9204644009094
 30
0.0
 70
    32
  0
VERTEX
  5
16F09
  8
AM_0
 10
156.30854114695379
 20
156.91646440090949
 30
0.0
 70
    32
  0
VERTEX
  5
16F0A
  8
AM_0
 10
156.31054114695351
 20
156.9124644009093
 30
0.0
 70
    32
  0
VERTEX
  5
16F0B
  8
AM_0
 10
156.31354114695381
 20
156.9094644009092
 30
0.0
 70
    32
  0
VERTEX
  5
16F0C
  8
AM_0
 10
156.31554114695379
 20
156.9054644009091
 30
0.0
 70
    32
  0
VERTEX
  5
16F0D
  8
AM_0
 10
156.31754114695389
 20
156.90246440090931
 30
0.0
 70
    32
  0
VERTEX
  5
16F0E
  8
AM_0
 10
156.32054114695379
 20
156.8984644009096
 30
0.0
 70
    32
  0
VERTEX
  5
16F0F
  8
AM_0
 10
156.3225411469536
 20
156.8944644009093
 30
0.0
 70
    32
  0
VERTEX
  5
16F10
  8
AM_0
 10
156.32454114695389
 20
156.89146440090951
 30
0.0
 70
    32
  0
VERTEX
  5
16F11
  8
AM_0
 10
156.32754114695391
 20
156.88746440090941
 30
0.0
 70
    32
  0
VERTEX
  5
16F12
  8
AM_0
 10
156.32954114695369
 20
156.88446440090931
 30
0.0
 70
    32
  0
VERTEX
  5
16F13
  8
AM_0
 10
156.33154114695361
 20
156.88046440090949
 30
0.0
 70
    32
  0
VERTEX
  5
16F14
  8
AM_0
 10
156.334541146954
 20
156.87746440090899
 30
0.0
 70
    32
  0
VERTEX
  5
16F15
  8
AM_0
 10
156.33654114695381
 20
156.8734644009092
 30
0.0
 70
    32
  0
VERTEX
  5
16F16
  8
AM_0
 10
156.33954114695359
 20
156.87046440090899
 30
0.0
 70
    32
  0
VERTEX
  5
16F17
  8
AM_0
 10
156.34154114695369
 20
156.86646440090931
 30
0.0
 70
    32
  0
VERTEX
  5
16F18
  8
AM_0
 10
156.34354114695361
 20
156.8624644009092
 30
0.0
 70
    32
  0
VERTEX
  5
16F19
  8
AM_0
 10
156.3465411469536
 20
156.8594644009093
 30
0.0
 70
    32
  0
VERTEX
  5
16F1A
  8
AM_0
 10
156.34854114695361
 20
156.8554644009092
 30
0.0
 70
    32
  0
VERTEX
  5
16F1B
  8
AM_0
 10
156.35154114695339
 20
156.85246440090921
 30
0.0
 70
    32
  0
VERTEX
  5
16F1C
  8
AM_0
 10
156.3535411469538
 20
156.84846440090911
 30
0.0
 70
    32
  0
VERTEX
  5
16F1D
  8
AM_0
 10
156.35654114695379
 20
156.84546440090929
 30
0.0
 70
    32
  0
VERTEX
  5
16F1E
  8
AM_0
 10
156.35854114695391
 20
156.84146440090919
 30
0.0
 70
    32
  0
VERTEX
  5
16F1F
  8
AM_0
 10
156.36054114695341
 20
156.83846440090909
 30
0.0
 70
    32
  0
VERTEX
  5
16F20
  8
AM_0
 10
156.36354114695379
 20
156.8344644009091
 30
0.0
 70
    32
  0
VERTEX
  5
16F21
  8
AM_0
 10
156.3655411469538
 20
156.83146440090951
 30
0.0
 70
    32
  0
VERTEX
  5
16F22
  8
AM_0
 10
156.3685411469537
 20
156.82746440090941
 30
0.0
 70
    32
  0
VERTEX
  5
16F23
  8
AM_0
 10
156.3705411469538
 20
156.82446440090951
 30
0.0
 70
    32
  0
VERTEX
  5
16F24
  8
AM_0
 10
156.37354114695361
 20
156.82146440090921
 30
0.0
 70
    32
  0
VERTEX
  5
16F25
  8
AM_0
 10
156.37554114695379
 20
156.81746440090939
 30
0.0
 70
    32
  0
VERTEX
  5
16F26
  8
AM_0
 10
156.37854114695349
 20
156.8144644009092
 30
0.0
 70
    32
  0
VERTEX
  5
16F27
  8
AM_0
 10
156.38054114695379
 20
156.8104644009093
 30
0.0
 70
    32
  0
VERTEX
  5
16F28
  8
AM_0
 10
156.3835411469538
 20
156.8074644009094
 30
0.0
 70
    32
  0
VERTEX
  5
16F29
  8
AM_0
 10
156.38554114695361
 20
156.80346440090949
 30
0.0
 70
    32
  0
VERTEX
  5
16F2A
  8
AM_0
 10
156.38854114695371
 20
156.80046440090899
 30
0.0
 70
    32
  0
VERTEX
  5
16F2B
  8
AM_0
 10
156.3915411469539
 20
156.7974644009094
 30
0.0
 70
    32
  0
VERTEX
  5
16F2C
  8
AM_0
 10
156.39354114695399
 20
156.7934644009095
 30
0.0
 70
    32
  0
VERTEX
  5
16F2D
  8
AM_0
 10
156.39654114695361
 20
156.7904644009094
 30
0.0
 70
    32
  0
VERTEX
  5
16F2E
  8
AM_0
 10
156.3985411469537
 20
156.78646440090941
 30
0.0
 70
    32
  0
VERTEX
  5
16F2F
  8
AM_0
 10
156.40154114695389
 20
156.78346440090911
 30
0.0
 70
    32
  0
VERTEX
  5
16F30
  8
AM_0
 10
156.4045411469539
 20
156.78046440090901
 30
0.0
 70
    32
  0
VERTEX
  5
16F31
  8
AM_0
 10
156.40654114695371
 20
156.77646440090939
 30
0.0
 70
    32
  0
VERTEX
  5
16F32
  8
AM_0
 10
156.40954114695359
 20
156.77346440090949
 30
0.0
 70
    32
  0
VERTEX
  5
16F33
  8
AM_0
 10
156.41154114695391
 20
156.76946440090941
 30
0.0
 70
    32
  0
VERTEX
  5
16F34
  8
AM_0
 10
156.4145411469535
 20
156.7664644009094
 30
0.0
 70
    32
  0
VERTEX
  5
16F35
  8
AM_0
 10
156.41754114695379
 20
156.7634644009093
 30
0.0
 70
    32
  0
VERTEX
  5
16F36
  8
AM_0
 10
156.41954114695349
 20
156.75946440090939
 30
0.0
 70
    32
  0
VERTEX
  5
16F37
  8
AM_0
 10
156.42254114695379
 20
156.75646440090941
 30
0.0
 70
    32
  0
VERTEX
  5
16F38
  8
AM_0
 10
156.42554114695369
 20
156.75346440090951
 30
0.0
 70
    32
  0
VERTEX
  5
16F39
  8
AM_0
 10
156.42754114695381
 20
156.7494644009094
 30
0.0
 70
    32
  0
VERTEX
  5
16F3A
  8
AM_0
 10
156.4305411469538
 20
156.7464644009093
 30
0.0
 70
    32
  0
VERTEX
  5
16F3B
  8
AM_0
 10
156.43354114695379
 20
156.7434644009092
 30
0.0
 70
    32
  0
VERTEX
  5
16F3C
  8
AM_0
 10
156.43654114695369
 20
156.7404644009091
 30
0.0
 70
    32
  0
VERTEX
  5
16F3D
  8
AM_0
 10
156.4385411469537
 20
156.73646440090931
 30
0.0
 70
    32
  0
VERTEX
  5
16F3E
  8
AM_0
 10
156.4415411469536
 20
156.73346440090901
 30
0.0
 70
    32
  0
VERTEX
  5
16F3F
  8
AM_0
 10
156.44454114695381
 20
156.73046440090931
 30
0.0
 70
    32
  0
VERTEX
  5
16F40
  8
AM_0
 10
156.4475411469538
 20
156.72646440090949
 30
0.0
 70
    32
  0
VERTEX
  5
16F41
  8
AM_0
 10
156.44954114695381
 20
156.72346440090899
 30
0.0
 70
    32
  0
VERTEX
  5
16F42
  8
AM_0
 10
156.45254114695379
 20
156.72046440090929
 30
0.0
 70
    32
  0
VERTEX
  5
16F43
  8
AM_0
 10
156.45554114695349
 20
156.71746440090951
 30
0.0
 70
    32
  0
VERTEX
  5
16F44
  8
AM_0
 10
156.45854114695399
 20
156.713464400909
 30
0.0
 70
    32
  0
VERTEX
  5
16F45
  8
AM_0
 10
156.4605411469538
 20
156.7104644009091
 30
0.0
 70
    32
  0
VERTEX
  5
16F46
  8
AM_0
 10
156.46354114695359
 20
156.7074644009092
 30
0.0
 70
    32
  0
VERTEX
  5
16F47
  8
AM_0
 10
156.46654114695369
 20
156.7044644009091
 30
0.0
 70
    32
  0
VERTEX
  5
16F48
  8
AM_0
 10
156.46954114695379
 20
156.70146440090909
 30
0.0
 70
    32
  0
VERTEX
  5
16F49
  8
AM_0
 10
156.4725411469536
 20
156.6974644009095
 30
0.0
 70
    32
  0
VERTEX
  5
16F4A
  8
AM_0
 10
156.4755411469537
 20
156.69446440090931
 30
0.0
 70
    32
  0
VERTEX
  5
16F4B
  8
AM_0
 10
156.4775411469538
 20
156.6914644009093
 30
0.0
 70
    32
  0
VERTEX
  5
16F4C
  8
AM_0
 10
156.48054114695381
 20
156.6884644009094
 30
0.0
 70
    32
  0
VERTEX
  5
16F4D
  8
AM_0
 10
156.48354114695371
 20
156.6854644009091
 30
0.0
 70
    32
  0
VERTEX
  5
16F4E
  8
AM_0
 10
156.4865411469537
 20
156.6824644009094
 30
0.0
 70
    32
  0
VERTEX
  5
16F4F
  8
AM_0
 10
156.489541146954
 20
156.67946440090941
 30
0.0
 70
    32
  0
VERTEX
  5
16F50
  8
AM_0
 10
156.4925411469537
 20
156.67546440090911
 30
0.0
 70
    32
  0
VERTEX
  5
16F51
  8
AM_0
 10
156.49554114695371
 20
156.6724644009094
 30
0.0
 70
    32
  0
VERTEX
  5
16F52
  8
AM_0
 10
156.4985411469539
 20
156.66946440090939
 30
0.0
 70
    32
  0
VERTEX
  5
16F53
  8
AM_0
 10
156.50154114695391
 20
156.66646440090949
 30
0.0
 70
    32
  0
VERTEX
  5
16F54
  8
AM_0
 10
156.50454114695381
 20
156.66346440090919
 30
0.0
 70
    32
  0
VERTEX
  5
16F55
  8
AM_0
 10
156.5075411469538
 20
156.66046440090909
 30
0.0
 70
    32
  0
VERTEX
  5
16F56
  8
AM_0
 10
156.51054114695381
 20
156.65746440090959
 30
0.0
 70
    32
  0
VERTEX
  5
16F57
  8
AM_0
 10
156.51354114695371
 20
156.65446440090929
 30
0.0
 70
    32
  0
VERTEX
  5
16F58
  8
AM_0
 10
156.51654114695381
 20
156.65146440090939
 30
0.0
 70
    32
  0
VERTEX
  5
16F59
  8
AM_0
 10
156.5195411469538
 20
156.6484644009094
 30
0.0
 70
    32
  0
VERTEX
  5
16F5A
  8
AM_0
 10
156.52254114695361
 20
156.64546440090919
 30
0.0
 70
    32
  0
VERTEX
  5
16F5B
  8
AM_0
 10
156.525541146954
 20
156.6424644009092
 30
0.0
 70
    32
  0
VERTEX
  5
16F5C
  8
AM_0
 10
156.5285411469539
 20
156.6394644009095
 30
0.0
 70
    32
  0
VERTEX
  5
16F5D
  8
AM_0
 10
156.5315411469538
 20
156.6364644009094
 30
0.0
 70
    32
  0
VERTEX
  5
16F5E
  8
AM_0
 10
156.53454114695381
 20
156.63346440090911
 30
0.0
 70
    32
  0
VERTEX
  5
16F5F
  8
AM_0
 10
156.5375411469538
 20
156.63046440090949
 30
0.0
 70
    32
  0
VERTEX
  5
16F60
  8
AM_0
 10
156.5405411469537
 20
156.6274644009091
 30
0.0
 70
    32
  0
VERTEX
  5
16F61
  8
AM_0
 10
156.54354114695369
 20
156.62446440090929
 30
0.0
 70
    32
  0
VERTEX
  5
16F62
  8
AM_0
 10
156.54654114695381
 20
156.62146440090919
 30
0.0
 70
    32
  0
VERTEX
  5
16F63
  8
AM_0
 10
156.5495411469538
 20
156.61846440090909
 30
0.0
 70
    32
  0
VERTEX
  5
16F64
  8
AM_0
 10
156.5525411469539
 20
156.61546440090919
 30
0.0
 70
    32
  0
VERTEX
  5
16F65
  8
AM_0
 10
156.555541146954
 20
156.61246440090929
 30
0.0
 70
    32
  0
VERTEX
  5
16F66
  8
AM_0
 10
156.5585411469539
 20
156.6094644009093
 30
0.0
 70
    32
  0
VERTEX
  5
16F67
  8
AM_0
 10
156.56254114695369
 20
156.60646440090909
 30
0.0
 70
    32
  0
VERTEX
  5
16F68
  8
AM_0
 10
156.5655411469539
 20
156.6034644009095
 30
0.0
 70
    32
  0
VERTEX
  5
16F69
  8
AM_0
 10
156.56854114695349
 20
156.6004644009092
 30
0.0
 70
    32
  0
VERTEX
  5
16F6A
  8
AM_0
 10
156.57154114695379
 20
156.59846440090931
 30
0.0
 70
    32
  0
VERTEX
  5
16F6B
  8
AM_0
 10
156.57454114695409
 20
156.59546440090921
 30
0.0
 70
    32
  0
VERTEX
  5
16F6C
  8
AM_0
 10
156.57754114695371
 20
156.59246440090939
 30
0.0
 70
    32
  0
VERTEX
  5
16F6D
  8
AM_0
 10
156.58154114695381
 20
156.58946440090929
 30
0.0
 70
    32
  0
VERTEX
  5
16F6E
  8
AM_0
 10
156.5845411469538
 20
156.58646440090939
 30
0.0
 70
    32
  0
VERTEX
  5
16F6F
  8
AM_0
 10
156.58754114695381
 20
156.58346440090949
 30
0.0
 70
    32
  0
VERTEX
  5
16F70
  8
AM_0
 10
156.5905411469536
 20
156.5814644009094
 30
0.0
 70
    32
  0
VERTEX
  5
16F71
  8
AM_0
 10
156.59454114695379
 20
156.5784644009093
 30
0.0
 70
    32
  0
VERTEX
  5
16F72
  8
AM_0
 10
156.59754114695369
 20
156.5754644009092
 30
0.0
 70
    32
  0
VERTEX
  5
16F73
  8
AM_0
 10
156.60054114695359
 20
156.5724644009095
 30
0.0
 70
    32
  0
VERTEX
  5
16F74
  8
AM_0
 10
156.6035411469538
 20
156.5704644009092
 30
0.0
 70
    32
  0
VERTEX
  5
16F75
  8
AM_0
 10
156.60754114695371
 20
156.5674644009091
 30
0.0
 70
    32
  0
VERTEX
  5
16F76
  8
AM_0
 10
156.61054114695361
 20
156.5644644009092
 30
0.0
 70
    32
  0
VERTEX
  5
16F77
  8
AM_0
 10
156.61354114695359
 20
156.56246440090931
 30
0.0
 70
    32
  0
VERTEX
  5
16F78
  8
AM_0
 10
156.61754114695361
 20
156.55946440090901
 30
0.0
 70
    32
  0
VERTEX
  5
16F79
  8
AM_0
 10
156.62054114695371
 20
156.5564644009095
 30
0.0
 70
    32
  0
VERTEX
  5
16F7A
  8
AM_0
 10
156.62354114695381
 20
156.55446440090941
 30
0.0
 70
    32
  0
VERTEX
  5
16F7B
  8
AM_0
 10
156.6275411469536
 20
156.55146440090931
 30
0.0
 70
    32
  0
VERTEX
  5
16F7C
  8
AM_0
 10
156.63054114695359
 20
156.54846440090921
 30
0.0
 70
    32
  0
VERTEX
  5
16F7D
  8
AM_0
 10
156.6335411469538
 20
156.54646440090909
 30
0.0
 70
    32
  0
VERTEX
  5
16F7E
  8
AM_0
 10
156.63754114695359
 20
156.54346440090919
 30
0.0
 70
    32
  0
VERTEX
  5
16F7F
  8
AM_0
 10
156.64054114695361
 20
156.54146440090949
 30
0.0
 70
    32
  0
VERTEX
  5
16F80
  8
AM_0
 10
156.6445411469538
 20
156.53846440090919
 30
0.0
 70
    32
  0
VERTEX
  5
16F81
  8
AM_0
 10
156.64754114695361
 20
156.53546440090889
 30
0.0
 70
    32
  0
VERTEX
  5
16F82
  8
AM_0
 10
156.65054114695349
 20
156.5334644009092
 30
0.0
 70
    32
  0
VERTEX
  5
16F83
  8
AM_0
 10
156.6545411469537
 20
156.5304644009093
 30
0.0
 70
    32
  0
VERTEX
  5
16F84
  8
AM_0
 10
156.65754114695369
 20
156.5284644009092
 30
0.0
 70
    32
  0
VERTEX
  5
16F85
  8
AM_0
 10
156.66154114695379
 20
156.5254644009093
 30
0.0
 70
    32
  0
VERTEX
  5
16F86
  8
AM_0
 10
156.66454114695381
 20
156.5234644009096
 30
0.0
 70
    32
  0
VERTEX
  5
16F87
  8
AM_0
 10
156.6685411469534
 20
156.5204644009093
 30
0.0
 70
    32
  0
VERTEX
  5
16F88
  8
AM_0
 10
156.67154114695381
 20
156.5184644009091
 30
0.0
 70
    32
  0
VERTEX
  5
16F89
  8
AM_0
 10
156.6755411469538
 20
156.5164644009092
 30
0.0
 70
    32
  0
VERTEX
  5
16F8A
  8
AM_0
 10
156.67854114695379
 20
156.51346440090921
 30
0.0
 70
    32
  0
VERTEX
  5
16F8B
  8
AM_0
 10
156.68254114695389
 20
156.51146440090909
 30
0.0
 70
    32
  0
VERTEX
  5
16F8C
  8
AM_0
 10
156.6855411469538
 20
156.50846440090939
 30
0.0
 70
    32
  0
VERTEX
  5
16F8D
  8
AM_0
 10
156.68954114695359
 20
156.50646440090949
 30
0.0
 70
    32
  0
VERTEX
  5
16F8E
  8
AM_0
 10
156.693541146954
 20
156.50446440090931
 30
0.0
 70
    32
  0
VERTEX
  5
16F8F
  8
AM_0
 10
156.69654114695371
 20
156.5014644009093
 30
0.0
 70
    32
  0
VERTEX
  5
16F90
  8
AM_0
 10
156.70054114695381
 20
156.49946440090909
 30
0.0
 70
    32
  0
VERTEX
  5
16F91
  8
AM_0
 10
156.70354114695371
 20
156.49746440090919
 30
0.0
 70
    32
  0
VERTEX
  5
16F92
  8
AM_0
 10
156.70754114695359
 20
156.49446440090941
 30
0.0
 70
    32
  0
VERTEX
  5
16F93
  8
AM_0
 10
156.711541146954
 20
156.492464400909
 30
0.0
 70
    32
  0
VERTEX
  5
16F94
  8
AM_0
 10
156.71454114695371
 20
156.4904644009093
 30
0.0
 70
    32
  0
VERTEX
  5
16F95
  8
AM_0
 10
156.71854114695341
 20
156.48846440090941
 30
0.0
 70
    32
  0
VERTEX
  5
16F96
  8
AM_0
 10
156.72254114695349
 20
156.48546440090951
 30
0.0
 70
    32
  0
VERTEX
  5
16F97
  8
AM_0
 10
156.72554114695379
 20
156.48346440090961
 30
0.0
 70
    32
  0
VERTEX
  5
16F98
  8
AM_0
 10
156.72954114695389
 20
156.4814644009094
 30
0.0
 70
    32
  0
VERTEX
  5
16F99
  8
AM_0
 10
156.73354114695391
 20
156.47946440090939
 30
0.0
 70
    32
  0
VERTEX
  5
16F9A
  8
AM_0
 10
156.73654114695341
 20
156.47746440090921
 30
0.0
 70
    32
  0
VERTEX
  5
16F9B
  8
AM_0
 10
156.74054114695349
 20
156.4754644009092
 30
0.0
 70
    32
  0
VERTEX
  5
16F9C
  8
AM_0
 10
156.74454114695371
 20
156.47346440090919
 30
0.0
 70
    32
  0
VERTEX
  5
16F9D
  8
AM_0
 10
156.74754114695361
 20
156.47046440090929
 30
0.0
 70
    32
  0
VERTEX
  5
16F9E
  8
AM_0
 10
156.75154114695371
 20
156.46846440090931
 30
0.0
 70
    32
  0
VERTEX
  5
16F9F
  8
AM_0
 10
156.75554114695379
 20
156.46646440090919
 30
0.0
 70
    32
  0
VERTEX
  5
16FA0
  8
AM_0
 10
156.75954114695389
 20
156.46446440090909
 30
0.0
 70
    32
  0
VERTEX
  5
16FA1
  8
AM_0
 10
156.76254114695379
 20
156.46246440090911
 30
0.0
 70
    32
  0
VERTEX
  5
16FA2
  8
AM_0
 10
156.76654114695401
 20
156.46046440090919
 30
0.0
 70
    32
  0
VERTEX
  5
16FA3
  8
AM_0
 10
156.77054114695369
 20
156.45846440090941
 30
0.0
 70
    32
  0
VERTEX
  5
16FA4
  8
AM_0
 10
156.77454114695391
 20
156.45646440090951
 30
0.0
 70
    32
  0
VERTEX
  5
16FA5
  8
AM_0
 10
156.77854114695401
 20
156.4544644009091
 30
0.0
 70
    32
  0
VERTEX
  5
16FA6
  8
AM_0
 10
156.7815411469536
 20
156.4534644009093
 30
0.0
 70
    32
  0
VERTEX
  5
16FA7
  8
AM_0
 10
156.7855411469537
 20
156.4514644009094
 30
0.0
 70
    32
  0
VERTEX
  5
16FA8
  8
AM_0
 10
156.78954114695389
 20
156.44946440090911
 30
0.0
 70
    32
  0
VERTEX
  5
16FA9
  8
AM_0
 10
156.79354114695369
 20
156.44746440090941
 30
0.0
 70
    32
  0
VERTEX
  5
16FAA
  8
AM_0
 10
156.79754114695379
 20
156.4454644009092
 30
0.0
 70
    32
  0
VERTEX
  5
16FAB
  8
AM_0
 10
156.80154114695361
 20
156.44346440090931
 30
0.0
 70
    32
  0
VERTEX
  5
16FAC
  8
AM_0
 10
156.8055411469538
 20
156.44246440090919
 30
0.0
 70
    32
  0
VERTEX
  5
16FAD
  8
AM_0
 10
156.8085411469537
 20
156.44046440090921
 30
0.0
 70
    32
  0
VERTEX
  5
16FAE
  8
AM_0
 10
156.81254114695381
 20
156.43846440090931
 30
0.0
 70
    32
  0
VERTEX
  5
16FAF
  8
AM_0
 10
156.81654114695391
 20
156.43646440090961
 30
0.0
 70
    32
  0
VERTEX
  5
16FB0
  8
AM_0
 10
156.82054114695359
 20
156.43546440090901
 30
0.0
 70
    32
  0
VERTEX
  5
16FB1
  8
AM_0
 10
156.82454114695381
 20
156.43346440090909
 30
0.0
 70
    32
  0
VERTEX
  5
16FB2
  8
AM_0
 10
156.82854114695371
 20
156.43146440090939
 30
0.0
 70
    32
  0
VERTEX
  5
16FB3
  8
AM_0
 10
156.83254114695379
 20
156.43046440090919
 30
0.0
 70
    32
  0
VERTEX
  5
16FB4
  8
AM_0
 10
156.83654114695389
 20
156.42846440090949
 30
0.0
 70
    32
  0
VERTEX
  5
16FB5
  8
AM_0
 10
156.84054114695351
 20
156.4264644009092
 30
0.0
 70
    32
  0
VERTEX
  5
16FB6
  8
AM_0
 10
156.84454114695359
 20
156.42546440090939
 30
0.0
 70
    32
  0
VERTEX
  5
16FB7
  8
AM_0
 10
156.84854114695361
 20
156.4234644009093
 30
0.0
 70
    32
  0
VERTEX
  5
16FB8
  8
AM_0
 10
156.85254114695371
 20
156.42246440090929
 30
0.0
 70
    32
  0
VERTEX
  5
16FB9
  8
AM_0
 10
156.8565411469539
 20
156.4204644009094
 30
0.0
 70
    32
  0
VERTEX
  5
16FBA
  8
AM_0
 10
156.86054114695361
 20
156.4194644009095
 30
0.0
 70
    32
  0
VERTEX
  5
16FBB
  8
AM_0
 10
156.8645411469538
 20
156.4174644009091
 30
0.0
 70
    32
  0
VERTEX
  5
16FBC
  8
AM_0
 10
156.86854114695359
 20
156.4164644009096
 30
0.0
 70
    32
  0
VERTEX
  5
16FBD
  8
AM_0
 10
156.87254114695341
 20
156.4154644009094
 30
0.0
 70
    32
  0
VERTEX
  5
16FBE
  8
AM_0
 10
156.87654114695351
 20
156.41346440090911
 30
0.0
 70
    32
  0
VERTEX
  5
16FBF
  8
AM_0
 10
156.8805411469537
 20
156.4124644009093
 30
0.0
 70
    32
  0
VERTEX
  5
16FC0
  8
AM_0
 10
156.88454114695381
 20
156.41146440090941
 30
0.0
 70
    32
  0
VERTEX
  5
16FC1
  8
AM_0
 10
156.88854114695371
 20
156.40946440090951
 30
0.0
 70
    32
  0
VERTEX
  5
16FC2
  8
AM_0
 10
156.8925411469541
 20
156.40846440090931
 30
0.0
 70
    32
  0
VERTEX
  5
16FC3
  8
AM_0
 10
156.89654114695381
 20
156.40746440090939
 30
0.0
 70
    32
  0
VERTEX
  5
16FC4
  8
AM_0
 10
156.9015411469538
 20
156.4064644009093
 30
0.0
 70
    32
  0
VERTEX
  5
16FC5
  8
AM_0
 10
156.90554114695371
 20
156.40546440090941
 30
0.0
 70
    32
  0
VERTEX
  5
16FC6
  8
AM_0
 10
156.90954114695381
 20
156.40346440090929
 30
0.0
 70
    32
  0
VERTEX
  5
16FC7
  8
AM_0
 10
156.91354114695389
 20
156.40246440090911
 30
0.0
 70
    32
  0
VERTEX
  5
16FC8
  8
AM_0
 10
156.91754114695351
 20
156.40146440090919
 30
0.0
 70
    32
  0
VERTEX
  5
16FC9
  8
AM_0
 10
156.92154114695359
 20
156.40046440090941
 30
0.0
 70
    32
  0
VERTEX
  5
16FCA
  8
AM_0
 10
156.92554114695369
 20
156.39946440090901
 30
0.0
 70
    32
  0
VERTEX
  5
16FCB
  8
AM_0
 10
156.9295411469536
 20
156.39846440090949
 30
0.0
 70
    32
  0
VERTEX
  5
16FCC
  8
AM_0
 10
156.93454114695371
 20
156.39746440090931
 30
0.0
 70
    32
  0
VERTEX
  5
16FCD
  8
AM_0
 10
156.93854114695361
 20
156.39646440090931
 30
0.0
 70
    32
  0
VERTEX
  5
16FCE
  8
AM_0
 10
156.9425411469538
 20
156.39546440090939
 30
0.0
 70
    32
  0
VERTEX
  5
16FCF
  8
AM_0
 10
156.94654114695379
 20
156.39446440090919
 30
0.0
 70
    32
  0
VERTEX
  5
16FD0
  8
AM_0
 10
156.9505411469539
 20
156.39346440090929
 30
0.0
 70
    32
  0
VERTEX
  5
16FD1
  8
AM_0
 10
156.95454114695369
 20
156.39246440090909
 30
0.0
 70
    32
  0
VERTEX
  5
16FD2
  8
AM_0
 10
156.959541146954
 20
156.39246440090909
 30
0.0
 70
    32
  0
VERTEX
  5
16FD3
  8
AM_0
 10
156.9635411469539
 20
156.39146440090931
 30
0.0
 70
    32
  0
VERTEX
  5
16FD4
  8
AM_0
 10
156.96754114695341
 20
156.3904644009092
 30
0.0
 70
    32
  0
VERTEX
  5
16FD5
  8
AM_0
 10
156.9715411469536
 20
156.3894644009095
 30
0.0
 70
    32
  0
VERTEX
  5
16FD6
  8
AM_0
 10
156.97554114695359
 20
156.3884644009093
 30
0.0
 70
    32
  0
VERTEX
  5
16FD7
  8
AM_0
 10
156.98054114695361
 20
156.3884644009093
 30
0.0
 70
    32
  0
VERTEX
  5
16FD8
  8
AM_0
 10
156.98454114695369
 20
156.3874644009091
 30
0.0
 70
    32
  0
VERTEX
  5
16FD9
  8
AM_0
 10
156.98854114695379
 20
156.38646440090909
 30
0.0
 70
    32
  0
VERTEX
  5
16FDA
  8
AM_0
 10
156.99254114695361
 20
156.38646440090909
 30
0.0
 70
    32
  0
VERTEX
  5
16FDB
  8
AM_0
 10
156.99754114695381
 20
156.3854644009094
 30
0.0
 70
    32
  0
VERTEX
  5
16FDC
  8
AM_0
 10
157.00154114695371
 20
156.38446440090939
 30
0.0
 70
    32
  0
VERTEX
  5
16FDD
  8
AM_0
 10
157.0055411469537
 20
156.38446440090939
 30
0.0
 70
    32
  0
VERTEX
  5
16FDE
  8
AM_0
 10
157.00954114695381
 20
156.3834644009093
 30
0.0
 70
    32
  0
VERTEX
  5
16FDF
  8
AM_0
 10
157.01454114695369
 20
156.3834644009093
 30
0.0
 70
    32
  0
VERTEX
  5
16FE0
  8
AM_0
 10
157.01854114695399
 20
156.3824644009091
 30
0.0
 70
    32
  0
VERTEX
  5
16FE1
  8
AM_0
 10
157.02254114695361
 20
156.3824644009091
 30
0.0
 70
    32
  0
VERTEX
  5
16FE2
  8
AM_0
 10
157.0265411469538
 20
156.38146440090941
 30
0.0
 70
    32
  0
VERTEX
  5
16FE3
  8
AM_0
 10
157.03154114695371
 20
156.38146440090941
 30
0.0
 70
    32
  0
VERTEX
  5
16FE4
  8
AM_0
 10
157.03554114695351
 20
156.38146440090941
 30
0.0
 70
    32
  0
VERTEX
  5
16FE5
  8
AM_0
 10
157.03954114695361
 20
156.3804644009094
 30
0.0
 70
    32
  0
VERTEX
  5
16FE6
  8
AM_0
 10
157.0435411469538
 20
156.3804644009094
 30
0.0
 70
    32
  0
VERTEX
  5
16FE7
  8
AM_0
 10
157.0485411469538
 20
156.3804644009094
 30
0.0
 70
    32
  0
VERTEX
  5
16FE8
  8
AM_0
 10
157.0525411469537
 20
156.3804644009094
 30
0.0
 70
    32
  0
VERTEX
  5
16FE9
  8
AM_0
 10
157.0565411469538
 20
156.3794644009092
 30
0.0
 70
    32
  0
VERTEX
  5
16FEA
  8
AM_0
 10
157.0605411469538
 20
156.3794644009092
 30
0.0
 70
    32
  0
VERTEX
  5
16FEB
  8
AM_0
 10
157.06554114695379
 20
156.3794644009092
 30
0.0
 70
    32
  0
VERTEX
  5
16FEC
  8
AM_0
 10
157.06954114695361
 20
156.3794644009092
 30
0.0
 70
    32
  0
VERTEX
  5
16FED
  8
AM_0
 10
157.07354114695369
 20
156.3794644009092
 30
0.0
 70
    32
  0
VERTEX
  5
16FEE
  8
AM_0
 10
157.0785411469536
 20
156.3794644009092
 30
0.0
 70
    32
  0
VERTEX
  5
16FEF
  8
AM_0
 10
157.08254114695359
 20
156.3794644009092
 30
0.0
 70
    32
  0
VERTEX
  5
16FF0
  8
AM_0
 10
157.08654114695381
 20
156.3794644009092
 30
0.0
 70
    32
  0
VERTEX
  5
16FF1
  8
AM_0
 10
157.0905411469538
 20
156.3794644009092
 30
0.0
 70
    32
  0
VERTEX
  5
16FF2
  8
AM_0
 10
157.09554114695399
 20
156.3794644009092
 30
0.0
 70
    32
  0
VERTEX
  5
16FF3
  8
AM_0
 10
157.0995411469537
 20
156.3804644009094
 30
0.0
 70
    32
  0
VERTEX
  5
16FF4
  8
AM_0
 10
157.1035411469538
 20
156.3804644009094
 30
0.0
 70
    32
  0
VERTEX
  5
16FF5
  8
AM_0
 10
157.10754114695351
 20
156.3804644009094
 30
0.0
 70
    32
  0
VERTEX
  5
16FF6
  8
AM_0
 10
157.1125411469535
 20
156.3804644009094
 30
0.0
 70
    32
  0
VERTEX
  5
16FF7
  8
AM_0
 10
157.11654114695361
 20
156.38146440090941
 30
0.0
 70
    32
  0
VERTEX
  5
16FF8
  8
AM_0
 10
157.1205411469538
 20
156.38146440090941
 30
0.0
 70
    32
  0
VERTEX
  5
16FF9
  8
AM_0
 10
157.1245411469539
 20
156.38146440090941
 30
0.0
 70
    32
  0
VERTEX
  5
16FFA
  8
AM_0
 10
157.12954114695361
 20
156.3824644009091
 30
0.0
 70
    32
  0
VERTEX
  5
16FFB
  8
AM_0
 10
157.1335411469538
 20
156.3824644009091
 30
0.0
 70
    32
  0
VERTEX
  5
16FFC
  8
AM_0
 10
157.13754114695379
 20
156.3824644009091
 30
0.0
 70
    32
  0
VERTEX
  5
16FFD
  8
AM_0
 10
157.14154114695401
 20
156.3834644009093
 30
0.0
 70
    32
  0
VERTEX
  5
16FFE
  8
AM_0
 10
157.14654114695361
 20
156.3834644009093
 30
0.0
 70
    32
  0
VERTEX
  5
16FFF
  8
AM_0
 10
157.1505411469536
 20
156.38446440090939
 30
0.0
 70
    32
  0
VERTEX
  5
17000
  8
AM_0
 10
157.1545411469539
 20
156.38446440090939
 30
0.0
 70
    32
  0
VERTEX
  5
17001
  8
AM_0
 10
157.15854114695361
 20
156.3854644009094
 30
0.0
 70
    32
  0
VERTEX
  5
17002
  8
AM_0
 10
157.1635411469538
 20
156.3854644009094
 30
0.0
 70
    32
  0
VERTEX
  5
17003
  8
AM_0
 10
157.16754114695379
 20
156.38646440090909
 30
0.0
 70
    32
  0
VERTEX
  5
17004
  8
AM_0
 10
157.1715411469539
 20
156.38646440090909
 30
0.0
 70
    32
  0
VERTEX
  5
17005
  8
AM_0
 10
157.17554114695349
 20
156.3874644009091
 30
0.0
 70
    32
  0
VERTEX
  5
17006
  8
AM_0
 10
157.1805411469538
 20
156.3874644009091
 30
0.0
 70
    32
  0
VERTEX
  5
17007
  8
AM_0
 10
157.18454114695351
 20
156.3884644009093
 30
0.0
 70
    32
  0
VERTEX
  5
17008
  8
AM_0
 10
157.18854114695361
 20
156.3884644009093
 30
0.0
 70
    32
  0
VERTEX
  5
17009
  8
AM_0
 10
157.1925411469538
 20
156.3894644009095
 30
0.0
 70
    32
  0
SEQEND
  5
1700A
  8
AM_0
  0
LINE
  5
1700B
  8
AM_0
 10
154.9629559499983
 20
173.37951146598331
 30
0.0
 11
143.4629559499983
 21
173.37951146598331
 31
0.0
  0
LINE
  5
1700C
  8
AM_0
 10
154.9629559499983
 20
184.7441327268331
 30
0.0
 11
154.9629559499983
 21
173.37951146598331
 31
0.0
  0
LINE
  5
1700D
  8
AM_0
 10
154.3829559499969
 20
169.3795114659832
 30
0.0
 11
145.56295594999639
 21
167.91451146598351
 31
0.0
  0
LINE
  5
1700E
  8
AM_0
 10
184.9629559499966
 20
173.37951146598331
 30
0.0
 11
215.46295594999671
 21
173.37951146598331
 31
0.0
  0
LINE
  5
1700F
  8
AM_0
 10
173.96295594999691
 20
183.66272502575549
 30
0.0
 11
184.9629559499966
 21
183.66272502575549
 31
0.0
  0
LINE
  5
17010
  8
AM_0
 10
173.96295594999691
 20
169.3795114659836
 30
0.0
 11
173.96295594999691
 21
183.66272502575549
 31
0.0
  0
LINE
  5
17011
  8
AM_0
 10
184.9629559499966
 20
183.66272502575549
 30
0.0
 11
184.9629559499966
 21
169.3795114659836
 31
0.0
  0
LINE
  5
17012
  8
AM_0
 10
215.46295594999839
 20
156.87951146598331
 30
0.0
 11
215.46295594999839
 21
183.49598140241011
 31
0.0
  0
LINE
  5
17013
  8
AM_0
 10
203.0931074690134
 20
169.3795114659832
 30
0.0
 11
203.0931074690134
 21
158.8795114659832
 31
0.0
  0
LINE
  5
17014
  8
AM_0
 10
213.36295594999621
 20
158.8795114659832
 30
0.0
 11
213.36295594999621
 21
167.91451146598351
 31
0.0
  0
POLYLINE
  5
17015
  8
AM_0
 66
     1
 10
0.0
 20
0.0
 30
0.0
 70
     8
  0
VERTEX
  5
17016
  8
AM_0
 10
201.9531411469539
 20
156.3894644009095
 30
0.0
 70
    32
  0
VERTEX
  5
17017
  8
AM_0
 10
201.95734114695381
 20
156.3904644009092
 30
0.0
 70
    32
  0
VERTEX
  5
17018
  8
AM_0
 10
201.9616411469535
 20
156.39146440090931
 30
0.0
 70
    32
  0
VERTEX
  5
17019
  8
AM_0
 10
201.96584114695361
 20
156.39246440090909
 30
0.0
 70
    32
  0
VERTEX
  5
1701A
  8
AM_0
 10
201.97014114695369
 20
156.39346440090929
 30
0.0
 70
    32
  0
VERTEX
  5
1701B
  8
AM_0
 10
201.97434114695389
 20
156.39446440090919
 30
0.0
 70
    32
  0
VERTEX
  5
1701C
  8
AM_0
 10
201.978641146954
 20
156.39546440090939
 30
0.0
 70
    32
  0
VERTEX
  5
1701D
  8
AM_0
 10
201.9828411469536
 20
156.39646440090931
 30
0.0
 70
    32
  0
VERTEX
  5
1701E
  8
AM_0
 10
201.98704114695391
 20
156.39746440090931
 30
0.0
 70
    32
  0
VERTEX
  5
1701F
  8
AM_0
 10
201.9913411469536
 20
156.39846440090949
 30
0.0
 70
    32
  0
VERTEX
  5
17020
  8
AM_0
 10
201.99554114695371
 20
156.39946440090901
 30
0.0
 70
    32
  0
VERTEX
  5
17021
  8
AM_0
 10
201.99974114695391
 20
156.40046440090941
 30
0.0
 70
    32
  0
VERTEX
  5
17022
  8
AM_0
 10
202.00404114695399
 20
156.40146440090919
 30
0.0
 70
    32
  0
VERTEX
  5
17023
  8
AM_0
 10
202.00824114695411
 20
156.40246440090911
 30
0.0
 70
    32
  0
VERTEX
  5
17024
  8
AM_0
 10
202.0124411469539
 20
156.40346440090929
 30
0.0
 70
    32
  0
VERTEX
  5
17025
  8
AM_0
 10
202.0166411469535
 20
156.4044644009094
 30
0.0
 70
    32
  0
VERTEX
  5
17026
  8
AM_0
 10
202.02084114695381
 20
156.40546440090941
 30
0.0
 70
    32
  0
VERTEX
  5
17027
  8
AM_0
 10
202.02504114695381
 20
156.40746440090939
 30
0.0
 70
    32
  0
VERTEX
  5
17028
  8
AM_0
 10
202.02924114695341
 20
156.40846440090931
 30
0.0
 70
    32
  0
VERTEX
  5
17029
  8
AM_0
 10
202.03334114695369
 20
156.40946440090951
 30
0.0
 70
    32
  0
VERTEX
  5
1702A
  8
AM_0
 10
202.03754114695391
 20
156.4104644009094
 30
0.0
 70
    32
  0
VERTEX
  5
1702B
  8
AM_0
 10
202.04174114695371
 20
156.41146440090941
 30
0.0
 70
    32
  0
VERTEX
  5
1702C
  8
AM_0
 10
202.04584114695359
 20
156.41346440090911
 30
0.0
 70
    32
  0
VERTEX
  5
1702D
  8
AM_0
 10
202.0500411469539
 20
156.4144644009092
 30
0.0
 70
    32
  0
VERTEX
  5
1702E
  8
AM_0
 10
202.05414114695381
 20
156.4154644009094
 30
0.0
 70
    32
  0
VERTEX
  5
1702F
  8
AM_0
 10
202.05824114695361
 20
156.4174644009091
 30
0.0
 70
    32
  0
VERTEX
  5
17030
  8
AM_0
 10
202.0623411469538
 20
156.4184644009093
 30
0.0
 70
    32
  0
VERTEX
  5
17031
  8
AM_0
 10
202.06654114695371
 20
156.4194644009095
 30
0.0
 70
    32
  0
VERTEX
  5
17032
  8
AM_0
 10
202.07054114695379
 20
156.4214644009092
 30
0.0
 70
    32
  0
VERTEX
  5
17033
  8
AM_0
 10
202.0746411469537
 20
156.42246440090929
 30
0.0
 70
    32
  0
VERTEX
  5
17034
  8
AM_0
 10
202.0787411469536
 20
156.4244644009093
 30
0.0
 70
    32
  0
VERTEX
  5
17035
  8
AM_0
 10
202.0828411469538
 20
156.42546440090939
 30
0.0
 70
    32
  0
VERTEX
  5
17036
  8
AM_0
 10
202.08684114695359
 20
156.4274644009094
 30
0.0
 70
    32
  0
VERTEX
  5
17037
  8
AM_0
 10
202.09094114695381
 20
156.42846440090949
 30
0.0
 70
    32
  0
VERTEX
  5
17038
  8
AM_0
 10
202.0949411469536
 20
156.43046440090919
 30
0.0
 70
    32
  0
VERTEX
  5
17039
  8
AM_0
 10
202.09894114695379
 20
156.4324644009094
 30
0.0
 70
    32
  0
VERTEX
  5
1703A
  8
AM_0
 10
202.1029411469539
 20
156.43346440090909
 30
0.0
 70
    32
  0
VERTEX
  5
1703B
  8
AM_0
 10
202.10694114695389
 20
156.43546440090901
 30
0.0
 70
    32
  0
VERTEX
  5
1703C
  8
AM_0
 10
202.11094114695379
 20
156.43746440090911
 30
0.0
 70
    32
  0
VERTEX
  5
1703D
  8
AM_0
 10
202.1149411469537
 20
156.43946440090909
 30
0.0
 70
    32
  0
VERTEX
  5
1703E
  8
AM_0
 10
202.118841146954
 20
156.44046440090921
 30
0.0
 70
    32
  0
VERTEX
  5
1703F
  8
AM_0
 10
202.12284114695359
 20
156.44246440090919
 30
0.0
 70
    32
  0
VERTEX
  5
17040
  8
AM_0
 10
202.1267411469538
 20
156.44446440090931
 30
0.0
 70
    32
  0
VERTEX
  5
17041
  8
AM_0
 10
202.13074114695391
 20
156.44646440090921
 30
0.0
 70
    32
  0
VERTEX
  5
17042
  8
AM_0
 10
202.13464114695381
 20
156.4484644009093
 30
0.0
 70
    32
  0
VERTEX
  5
17043
  8
AM_0
 10
202.13854114695371
 20
156.4504644009092
 30
0.0
 70
    32
  0
VERTEX
  5
17044
  8
AM_0
 10
202.14244114695379
 20
156.45246440090909
 30
0.0
 70
    32
  0
VERTEX
  5
17045
  8
AM_0
 10
202.1463411469538
 20
156.4544644009091
 30
0.0
 70
    32
  0
VERTEX
  5
17046
  8
AM_0
 10
202.15024114695379
 20
156.45646440090951
 30
0.0
 70
    32
  0
VERTEX
  5
17047
  8
AM_0
 10
202.15414114695389
 20
156.45846440090941
 30
0.0
 70
    32
  0
VERTEX
  5
17048
  8
AM_0
 10
202.15794114695379
 20
156.46046440090919
 30
0.0
 70
    32
  0
VERTEX
  5
17049
  8
AM_0
 10
202.16184114695389
 20
156.46246440090911
 30
0.0
 70
    32
  0
VERTEX
  5
1704A
  8
AM_0
 10
202.1656411469537
 20
156.46446440090909
 30
0.0
 70
    32
  0
VERTEX
  5
1704B
  8
AM_0
 10
202.1694411469538
 20
156.46646440090919
 30
0.0
 70
    32
  0
VERTEX
  5
1704C
  8
AM_0
 10
202.1733411469535
 20
156.46846440090931
 30
0.0
 70
    32
  0
VERTEX
  5
1704D
  8
AM_0
 10
202.1771411469538
 20
156.47046440090929
 30
0.0
 70
    32
  0
VERTEX
  5
1704E
  8
AM_0
 10
202.1809411469535
 20
156.47246440090899
 30
0.0
 70
    32
  0
VERTEX
  5
1704F
  8
AM_0
 10
202.18464114695379
 20
156.47446440090951
 30
0.0
 70
    32
  0
VERTEX
  5
17050
  8
AM_0
 10
202.18844114695369
 20
156.47646440090949
 30
0.0
 70
    32
  0
VERTEX
  5
17051
  8
AM_0
 10
202.19224114695351
 20
156.47946440090939
 30
0.0
 70
    32
  0
VERTEX
  5
17052
  8
AM_0
 10
202.19594114695391
 20
156.4814644009094
 30
0.0
 70
    32
  0
VERTEX
  5
17053
  8
AM_0
 10
202.19974114695381
 20
156.48346440090961
 30
0.0
 70
    32
  0
VERTEX
  5
17054
  8
AM_0
 10
202.20344114695359
 20
156.48546440090951
 30
0.0
 70
    32
  0
VERTEX
  5
17055
  8
AM_0
 10
202.2071411469538
 20
156.48846440090941
 30
0.0
 70
    32
  0
VERTEX
  5
17056
  8
AM_0
 10
202.2109411469537
 20
156.4904644009093
 30
0.0
 70
    32
  0
VERTEX
  5
17057
  8
AM_0
 10
202.21464114695371
 20
156.492464400909
 30
0.0
 70
    32
  0
VERTEX
  5
17058
  8
AM_0
 10
202.21824114695369
 20
156.49446440090941
 30
0.0
 70
    32
  0
VERTEX
  5
17059
  8
AM_0
 10
202.22194114695361
 20
156.49746440090919
 30
0.0
 70
    32
  0
VERTEX
  5
1705A
  8
AM_0
 10
202.2256411469539
 20
156.49946440090909
 30
0.0
 70
    32
  0
VERTEX
  5
1705B
  8
AM_0
 10
202.22924114695371
 20
156.5014644009093
 30
0.0
 70
    32
  0
VERTEX
  5
1705C
  8
AM_0
 10
202.23294114695381
 20
156.50446440090931
 30
0.0
 70
    32
  0
VERTEX
  5
1705D
  8
AM_0
 10
202.2365411469539
 20
156.50646440090949
 30
0.0
 70
    32
  0
VERTEX
  5
1705E
  8
AM_0
 10
202.24024114695391
 20
156.50946440090939
 30
0.0
 70
    32
  0
VERTEX
  5
1705F
  8
AM_0
 10
202.24384114695391
 20
156.51146440090909
 30
0.0
 70
    32
  0
VERTEX
  5
17060
  8
AM_0
 10
202.247441146954
 20
156.51346440090921
 30
0.0
 70
    32
  0
VERTEX
  5
17061
  8
AM_0
 10
202.2510411469539
 20
156.5164644009092
 30
0.0
 70
    32
  0
VERTEX
  5
17062
  8
AM_0
 10
202.25454114695381
 20
156.5184644009091
 30
0.0
 70
    32
  0
VERTEX
  5
17063
  8
AM_0
 10
202.2581411469537
 20
156.52146440090931
 30
0.0
 70
    32
  0
VERTEX
  5
17064
  8
AM_0
 10
202.26174114695371
 20
156.5234644009096
 30
0.0
 70
    32
  0
VERTEX
  5
17065
  8
AM_0
 10
202.26524114695371
 20
156.5264644009095
 30
0.0
 70
    32
  0
VERTEX
  5
17066
  8
AM_0
 10
202.2687411469536
 20
156.5284644009092
 30
0.0
 70
    32
  0
VERTEX
  5
17067
  8
AM_0
 10
202.2722411469538
 20
156.5314644009093
 30
0.0
 70
    32
  0
VERTEX
  5
17068
  8
AM_0
 10
202.27584114695389
 20
156.5344644009094
 30
0.0
 70
    32
  0
VERTEX
  5
17069
  8
AM_0
 10
202.27924114695369
 20
156.53646440090949
 30
0.0
 70
    32
  0
VERTEX
  5
1706A
  8
AM_0
 10
202.2827411469539
 20
156.53946440090911
 30
0.0
 70
    32
  0
VERTEX
  5
1706B
  8
AM_0
 10
202.2862411469537
 20
156.54146440090949
 30
0.0
 70
    32
  0
VERTEX
  5
1706C
  8
AM_0
 10
202.2897411469537
 20
156.54446440090939
 30
0.0
 70
    32
  0
VERTEX
  5
1706D
  8
AM_0
 10
202.2931411469539
 20
156.54746440090929
 30
0.0
 70
    32
  0
VERTEX
  5
1706E
  8
AM_0
 10
202.29664114695379
 20
156.54946440090939
 30
0.0
 70
    32
  0
VERTEX
  5
1706F
  8
AM_0
 10
202.3000411469541
 20
156.55246440090951
 30
0.0
 70
    32
  0
VERTEX
  5
17070
  8
AM_0
 10
202.3034411469535
 20
156.5554644009093
 30
0.0
 70
    32
  0
VERTEX
  5
17071
  8
AM_0
 10
202.30684114695401
 20
156.55746440090931
 30
0.0
 70
    32
  0
VERTEX
  5
17072
  8
AM_0
 10
202.31024114695381
 20
156.5604644009091
 30
0.0
 70
    32
  0
VERTEX
  5
17073
  8
AM_0
 10
202.31364114695359
 20
156.5634644009094
 30
0.0
 70
    32
  0
VERTEX
  5
17074
  8
AM_0
 10
202.3169411469537
 20
156.56646440090941
 30
0.0
 70
    32
  0
VERTEX
  5
17075
  8
AM_0
 10
202.32034114695401
 20
156.56846440090931
 30
0.0
 70
    32
  0
VERTEX
  5
17076
  8
AM_0
 10
202.32364114695361
 20
156.57146440090929
 30
0.0
 70
    32
  0
VERTEX
  5
17077
  8
AM_0
 10
202.32704114695369
 20
156.57446440090919
 30
0.0
 70
    32
  0
VERTEX
  5
17078
  8
AM_0
 10
202.3303411469538
 20
156.57746440090929
 30
0.0
 70
    32
  0
VERTEX
  5
17079
  8
AM_0
 10
202.3336411469534
 20
156.57946440090899
 30
0.0
 70
    32
  0
VERTEX
  5
1707A
  8
AM_0
 10
202.33694114695379
 20
156.58246440090929
 30
0.0
 70
    32
  0
VERTEX
  5
1707B
  8
AM_0
 10
202.34024114695379
 20
156.58546440090919
 30
0.0
 70
    32
  0
VERTEX
  5
1707C
  8
AM_0
 10
202.3435411469535
 20
156.58846440090929
 30
0.0
 70
    32
  0
VERTEX
  5
1707D
  8
AM_0
 10
202.34684114695369
 20
156.59146440090919
 30
0.0
 70
    32
  0
VERTEX
  5
1707E
  8
AM_0
 10
202.3500411469538
 20
156.5944644009092
 30
0.0
 70
    32
  0
VERTEX
  5
1707F
  8
AM_0
 10
202.35334114695371
 20
156.5974644009091
 30
0.0
 70
    32
  0
VERTEX
  5
17080
  8
AM_0
 10
202.35654114695359
 20
156.6004644009092
 30
0.0
 70
    32
  0
VERTEX
  5
17081
  8
AM_0
 10
202.3597411469535
 20
156.6034644009095
 30
0.0
 70
    32
  0
VERTEX
  5
17082
  8
AM_0
 10
202.3629411469538
 20
156.6054644009092
 30
0.0
 70
    32
  0
VERTEX
  5
17083
  8
AM_0
 10
202.36614114695411
 20
156.6084644009095
 30
0.0
 70
    32
  0
VERTEX
  5
17084
  8
AM_0
 10
202.3693411469539
 20
156.6114644009092
 30
0.0
 70
    32
  0
VERTEX
  5
17085
  8
AM_0
 10
202.37254114695361
 20
156.6144644009091
 30
0.0
 70
    32
  0
VERTEX
  5
17086
  8
AM_0
 10
202.375741146954
 20
156.61746440090931
 30
0.0
 70
    32
  0
VERTEX
  5
17087
  8
AM_0
 10
202.37884114695379
 20
156.62046440090921
 30
0.0
 70
    32
  0
VERTEX
  5
17088
  8
AM_0
 10
202.3820411469539
 20
156.62346440090911
 30
0.0
 70
    32
  0
VERTEX
  5
17089
  8
AM_0
 10
202.38514114695371
 20
156.62646440090941
 30
0.0
 70
    32
  0
VERTEX
  5
1708A
  8
AM_0
 10
202.3882411469539
 20
156.62946440090931
 30
0.0
 70
    32
  0
VERTEX
  5
1708B
  8
AM_0
 10
202.3914411469537
 20
156.63246440090921
 30
0.0
 70
    32
  0
VERTEX
  5
1708C
  8
AM_0
 10
202.394541146954
 20
156.6354644009092
 30
0.0
 70
    32
  0
VERTEX
  5
1708D
  8
AM_0
 10
202.3976411469537
 20
156.6384644009091
 30
0.0
 70
    32
  0
VERTEX
  5
1708E
  8
AM_0
 10
202.4006411469536
 20
156.6414644009092
 30
0.0
 70
    32
  0
VERTEX
  5
1708F
  8
AM_0
 10
202.40374114695379
 20
156.64546440090919
 30
0.0
 70
    32
  0
VERTEX
  5
17090
  8
AM_0
 10
202.40684114695401
 20
156.6484644009094
 30
0.0
 70
    32
  0
VERTEX
  5
17091
  8
AM_0
 10
202.40984114695391
 20
156.65146440090939
 30
0.0
 70
    32
  0
VERTEX
  5
17092
  8
AM_0
 10
202.4129411469537
 20
156.65446440090929
 30
0.0
 70
    32
  0
VERTEX
  5
17093
  8
AM_0
 10
202.41594114695371
 20
156.65746440090959
 30
0.0
 70
    32
  0
VERTEX
  5
17094
  8
AM_0
 10
202.41894114695381
 20
156.66046440090909
 30
0.0
 70
    32
  0
VERTEX
  5
17095
  8
AM_0
 10
202.42194114695371
 20
156.66346440090919
 30
0.0
 70
    32
  0
VERTEX
  5
17096
  8
AM_0
 10
202.4249411469537
 20
156.66646440090949
 30
0.0
 70
    32
  0
VERTEX
  5
17097
  8
AM_0
 10
202.42794114695391
 20
156.67046440090911
 30
0.0
 70
    32
  0
VERTEX
  5
17098
  8
AM_0
 10
202.4309411469539
 20
156.6734644009093
 30
0.0
 70
    32
  0
VERTEX
  5
17099
  8
AM_0
 10
202.4339411469538
 20
156.67646440090931
 30
0.0
 70
    32
  0
VERTEX
  5
1709A
  8
AM_0
 10
202.4368411469537
 20
156.67946440090941
 30
0.0
 70
    32
  0
VERTEX
  5
1709B
  8
AM_0
 10
202.4398411469536
 20
156.6824644009094
 30
0.0
 70
    32
  0
VERTEX
  5
1709C
  8
AM_0
 10
202.44274114695401
 20
156.6854644009091
 30
0.0
 70
    32
  0
VERTEX
  5
1709D
  8
AM_0
 10
202.44574114695399
 20
156.68946440090929
 30
0.0
 70
    32
  0
VERTEX
  5
1709E
  8
AM_0
 10
202.4486411469538
 20
156.69246440090919
 30
0.0
 70
    32
  0
VERTEX
  5
1709F
  8
AM_0
 10
202.4515411469537
 20
156.69546440090909
 30
0.0
 70
    32
  0
VERTEX
  5
170A0
  8
AM_0
 10
202.45444114695391
 20
156.69846440090939
 30
0.0
 70
    32
  0
VERTEX
  5
170A1
  8
AM_0
 10
202.45734114695369
 20
156.70246440090941
 30
0.0
 70
    32
  0
VERTEX
  5
170A2
  8
AM_0
 10
202.46024114695371
 20
156.70546440090911
 30
0.0
 70
    32
  0
VERTEX
  5
170A3
  8
AM_0
 10
202.463041146954
 20
156.70846440090941
 30
0.0
 70
    32
  0
VERTEX
  5
170A4
  8
AM_0
 10
202.46594114695361
 20
156.71146440090931
 30
0.0
 70
    32
  0
VERTEX
  5
170A5
  8
AM_0
 10
202.4687411469539
 20
156.71546440090941
 30
0.0
 70
    32
  0
VERTEX
  5
170A6
  8
AM_0
 10
202.471641146954
 20
156.7184644009092
 30
0.0
 70
    32
  0
VERTEX
  5
170A7
  8
AM_0
 10
202.47444114695381
 20
156.7214644009093
 30
0.0
 70
    32
  0
VERTEX
  5
170A8
  8
AM_0
 10
202.47724114695359
 20
156.72546440090909
 30
0.0
 70
    32
  0
VERTEX
  5
170A9
  8
AM_0
 10
202.48004114695371
 20
156.72846440090919
 30
0.0
 70
    32
  0
VERTEX
  5
170AA
  8
AM_0
 10
202.4828411469538
 20
156.73146440090929
 30
0.0
 70
    32
  0
VERTEX
  5
170AB
  8
AM_0
 10
202.4856411469539
 20
156.73546440090939
 30
0.0
 70
    32
  0
VERTEX
  5
170AC
  8
AM_0
 10
202.48844114695359
 20
156.73846440090921
 30
0.0
 70
    32
  0
VERTEX
  5
170AD
  8
AM_0
 10
202.4912411469534
 20
156.74146440090931
 30
0.0
 70
    32
  0
VERTEX
  5
170AE
  8
AM_0
 10
202.4939411469534
 20
156.7454644009091
 30
0.0
 70
    32
  0
VERTEX
  5
170AF
  8
AM_0
 10
202.49674114695389
 20
156.7484644009092
 30
0.0
 70
    32
  0
VERTEX
  5
170B0
  8
AM_0
 10
202.49944114695381
 20
156.7514644009093
 30
0.0
 70
    32
  0
VERTEX
  5
170B1
  8
AM_0
 10
202.50224114695391
 20
156.7554644009094
 30
0.0
 70
    32
  0
VERTEX
  5
170B2
  8
AM_0
 10
202.50494114695391
 20
156.75846440090919
 30
0.0
 70
    32
  0
VERTEX
  5
170B3
  8
AM_0
 10
202.507641146954
 20
156.76246440090929
 30
0.0
 70
    32
  0
VERTEX
  5
170B4
  8
AM_0
 10
202.51034114695389
 20
156.76546440090911
 30
0.0
 70
    32
  0
VERTEX
  5
170B5
  8
AM_0
 10
202.51304114695361
 20
156.76846440090929
 30
0.0
 70
    32
  0
VERTEX
  5
170B6
  8
AM_0
 10
202.51574114695359
 20
156.77246440090931
 30
0.0
 70
    32
  0
VERTEX
  5
170B7
  8
AM_0
 10
202.51844114695379
 20
156.77546440090919
 30
0.0
 70
    32
  0
VERTEX
  5
170B8
  8
AM_0
 10
202.52104114695391
 20
156.77946440090921
 30
0.0
 70
    32
  0
VERTEX
  5
170B9
  8
AM_0
 10
202.52374114695411
 20
156.7824644009095
 30
0.0
 70
    32
  0
VERTEX
  5
170BA
  8
AM_0
 10
202.52644114695391
 20
156.78646440090941
 30
0.0
 70
    32
  0
VERTEX
  5
170BB
  8
AM_0
 10
202.5290411469534
 20
156.78946440090931
 30
0.0
 70
    32
  0
VERTEX
  5
170BC
  8
AM_0
 10
202.53164114695369
 20
156.7924644009093
 30
0.0
 70
    32
  0
VERTEX
  5
170BD
  8
AM_0
 10
202.534241146954
 20
156.7964644009092
 30
0.0
 70
    32
  0
VERTEX
  5
170BE
  8
AM_0
 10
202.53694114695369
 20
156.7994644009093
 30
0.0
 70
    32
  0
VERTEX
  5
170BF
  8
AM_0
 10
202.53954114695389
 20
156.80346440090949
 30
0.0
 70
    32
  0
VERTEX
  5
170C0
  8
AM_0
 10
202.54214114695381
 20
156.80646440090919
 30
0.0
 70
    32
  0
VERTEX
  5
170C1
  8
AM_0
 10
202.54464114695401
 20
156.8104644009093
 30
0.0
 70
    32
  0
VERTEX
  5
170C2
  8
AM_0
 10
202.5472411469537
 20
156.81346440090951
 30
0.0
 70
    32
  0
VERTEX
  5
170C3
  8
AM_0
 10
202.54984114695381
 20
156.81746440090939
 30
0.0
 70
    32
  0
VERTEX
  5
170C4
  8
AM_0
 10
202.55234114695381
 20
156.8204644009092
 30
0.0
 70
    32
  0
VERTEX
  5
170C5
  8
AM_0
 10
202.55494114695389
 20
156.82446440090951
 30
0.0
 70
    32
  0
VERTEX
  5
170C6
  8
AM_0
 10
202.55744114695381
 20
156.82746440090941
 30
0.0
 70
    32
  0
VERTEX
  5
170C7
  8
AM_0
 10
202.56004114695361
 20
156.83146440090951
 30
0.0
 70
    32
  0
VERTEX
  5
170C8
  8
AM_0
 10
202.56254114695381
 20
156.8344644009091
 30
0.0
 70
    32
  0
VERTEX
  5
170C9
  8
AM_0
 10
202.5650411469536
 20
156.83846440090909
 30
0.0
 70
    32
  0
VERTEX
  5
170CA
  8
AM_0
 10
202.5675411469538
 20
156.84246440090939
 30
0.0
 70
    32
  0
VERTEX
  5
170CB
  8
AM_0
 10
202.570041146954
 20
156.84546440090929
 30
0.0
 70
    32
  0
VERTEX
  5
170CC
  8
AM_0
 10
202.5725411469538
 20
156.84946440090951
 30
0.0
 70
    32
  0
VERTEX
  5
170CD
  8
AM_0
 10
202.57504114695371
 20
156.85246440090921
 30
0.0
 70
    32
  0
VERTEX
  5
170CE
  8
AM_0
 10
202.57744114695379
 20
156.8564644009092
 30
0.0
 70
    32
  0
VERTEX
  5
170CF
  8
AM_0
 10
202.5799411469539
 20
156.8594644009093
 30
0.0
 70
    32
  0
VERTEX
  5
170D0
  8
AM_0
 10
202.58234114695369
 20
156.86346440090921
 30
0.0
 70
    32
  0
VERTEX
  5
170D1
  8
AM_0
 10
202.58484114695361
 20
156.8674644009094
 30
0.0
 70
    32
  0
VERTEX
  5
170D2
  8
AM_0
 10
202.5872411469536
 20
156.87046440090899
 30
0.0
 70
    32
  0
VERTEX
  5
170D3
  8
AM_0
 10
202.58964114695371
 20
156.87446440090909
 30
0.0
 70
    32
  0
VERTEX
  5
170D4
  8
AM_0
 10
202.59214114695379
 20
156.87746440090899
 30
0.0
 70
    32
  0
VERTEX
  5
170D5
  8
AM_0
 10
202.5945411469541
 20
156.88146440090949
 30
0.0
 70
    32
  0
VERTEX
  5
170D6
  8
AM_0
 10
202.5969411469537
 20
156.88546440090931
 30
0.0
 70
    32
  0
VERTEX
  5
170D7
  8
AM_0
 10
202.5993411469538
 20
156.88846440090921
 30
0.0
 70
    32
  0
VERTEX
  5
170D8
  8
AM_0
 10
202.6017411469538
 20
156.8924644009094
 30
0.0
 70
    32
  0
VERTEX
  5
170D9
  8
AM_0
 10
202.6040411469537
 20
156.89646440090911
 30
0.0
 70
    32
  0
VERTEX
  5
170DA
  8
AM_0
 10
202.60644114695361
 20
156.89946440090921
 30
0.0
 70
    32
  0
VERTEX
  5
170DB
  8
AM_0
 10
202.60884114695369
 20
156.9034644009092
 30
0.0
 70
    32
  0
VERTEX
  5
170DC
  8
AM_0
 10
202.61114114695391
 20
156.9074644009095
 30
0.0
 70
    32
  0
VERTEX
  5
170DD
  8
AM_0
 10
202.61354114695359
 20
156.91046440090929
 30
0.0
 70
    32
  0
VERTEX
  5
170DE
  8
AM_0
 10
202.6158411469537
 20
156.9144644009094
 30
0.0
 70
    32
  0
VERTEX
  5
170DF
  8
AM_0
 10
202.6181411469536
 20
156.9184644009095
 30
0.0
 70
    32
  0
VERTEX
  5
170E0
  8
AM_0
 10
202.6204411469536
 20
156.92146440090909
 30
0.0
 70
    32
  0
VERTEX
  5
170E1
  8
AM_0
 10
202.6227411469539
 20
156.92546440090911
 30
0.0
 70
    32
  0
VERTEX
  5
170E2
  8
AM_0
 10
202.62514114695401
 20
156.92946440090941
 30
0.0
 70
    32
  0
VERTEX
  5
170E3
  8
AM_0
 10
202.62734114695391
 20
156.93246440090931
 30
0.0
 70
    32
  0
VERTEX
  5
170E4
  8
AM_0
 10
202.6296411469539
 20
156.93646440090939
 30
0.0
 70
    32
  0
VERTEX
  5
170E5
  8
AM_0
 10
202.63194114695389
 20
156.94046440090921
 30
0.0
 70
    32
  0
VERTEX
  5
170E6
  8
AM_0
 10
202.63424114695371
 20
156.94346440090919
 30
0.0
 70
    32
  0
VERTEX
  5
170E7
  8
AM_0
 10
202.6365411469539
 20
156.9474644009095
 30
0.0
 70
    32
  0
VERTEX
  5
170E8
  8
AM_0
 10
202.63874114695381
 20
156.95146440090929
 30
0.0
 70
    32
  0
VERTEX
  5
170E9
  8
AM_0
 10
202.6410411469538
 20
156.95546440090919
 30
0.0
 70
    32
  0
VERTEX
  5
170EA
  8
AM_0
 10
202.6432411469537
 20
156.95846440090921
 30
0.0
 70
    32
  0
VERTEX
  5
170EB
  8
AM_0
 10
202.64544114695391
 20
156.96246440090931
 30
0.0
 70
    32
  0
VERTEX
  5
170EC
  8
AM_0
 10
202.6477411469539
 20
156.96646440090919
 30
0.0
 70
    32
  0
VERTEX
  5
170ED
  8
AM_0
 10
202.64994114695381
 20
156.9694644009094
 30
0.0
 70
    32
  0
VERTEX
  5
170EE
  8
AM_0
 10
202.65214114695399
 20
156.97346440090911
 30
0.0
 70
    32
  0
VERTEX
  5
170EF
  8
AM_0
 10
202.6543411469539
 20
156.9774644009093
 30
0.0
 70
    32
  0
VERTEX
  5
170F0
  8
AM_0
 10
202.65654114695391
 20
156.9814644009092
 30
0.0
 70
    32
  0
VERTEX
  5
170F1
  8
AM_0
 10
202.65874114695359
 20
156.98446440090919
 30
0.0
 70
    32
  0
VERTEX
  5
170F2
  8
AM_0
 10
202.66084114695391
 20
156.98846440090909
 30
0.0
 70
    32
  0
VERTEX
  5
170F3
  8
AM_0
 10
202.66304114695379
 20
156.99246440090931
 30
0.0
 70
    32
  0
VERTEX
  5
170F4
  8
AM_0
 10
202.6652411469538
 20
156.99646440090919
 30
0.0
 70
    32
  0
VERTEX
  5
170F5
  8
AM_0
 10
202.6673411469539
 20
157.00046440090941
 30
0.0
 70
    32
  0
VERTEX
  5
170F6
  8
AM_0
 10
202.66954114695349
 20
157.00346440090951
 30
0.0
 70
    32
  0
VERTEX
  5
170F7
  8
AM_0
 10
202.6716411469539
 20
157.00746440090921
 30
0.0
 70
    32
  0
VERTEX
  5
170F8
  8
AM_0
 10
202.67384114695381
 20
157.01146440090901
 30
0.0
 70
    32
  0
VERTEX
  5
170F9
  8
AM_0
 10
202.67594114695399
 20
157.0154644009092
 30
0.0
 70
    32
  0
VERTEX
  5
170FA
  8
AM_0
 10
202.6780411469536
 20
157.01846440090949
 30
0.0
 70
    32
  0
VERTEX
  5
170FB
  8
AM_0
 10
202.6801411469537
 20
157.0224644009092
 30
0.0
 70
    32
  0
VERTEX
  5
170FC
  8
AM_0
 10
202.68224114695411
 20
157.02646440090919
 30
0.0
 70
    32
  0
VERTEX
  5
170FD
  8
AM_0
 10
202.68434114695361
 20
157.0304644009093
 30
0.0
 70
    32
  0
VERTEX
  5
170FE
  8
AM_0
 10
202.68644114695371
 20
157.03446440090951
 30
0.0
 70
    32
  0
VERTEX
  5
170FF
  8
AM_0
 10
202.6885411469539
 20
157.03846440090939
 30
0.0
 70
    32
  0
VERTEX
  5
17100
  8
AM_0
 10
202.69064114695371
 20
157.04146440090949
 30
0.0
 70
    32
  0
VERTEX
  5
17101
  8
AM_0
 10
202.692641146954
 20
157.04546440090951
 30
0.0
 70
    32
  0
VERTEX
  5
17102
  8
AM_0
 10
202.69474114695359
 20
157.0494644009093
 30
0.0
 70
    32
  0
VERTEX
  5
17103
  8
AM_0
 10
202.6968411469538
 20
157.05346440090941
 30
0.0
 70
    32
  0
VERTEX
  5
17104
  8
AM_0
 10
202.69884114695381
 20
157.0574644009092
 30
0.0
 70
    32
  0
VERTEX
  5
17105
  8
AM_0
 10
202.7009411469538
 20
157.0604644009093
 30
0.0
 70
    32
  0
VERTEX
  5
17106
  8
AM_0
 10
202.70294114695369
 20
157.0644644009094
 30
0.0
 70
    32
  0
VERTEX
  5
17107
  8
AM_0
 10
202.7049411469539
 20
157.06846440090911
 30
0.0
 70
    32
  0
VERTEX
  5
17108
  8
AM_0
 10
202.7069411469538
 20
157.0724644009095
 30
0.0
 70
    32
  0
VERTEX
  5
17109
  8
AM_0
 10
202.70894114695389
 20
157.07646440090929
 30
0.0
 70
    32
  0
VERTEX
  5
1710A
  8
AM_0
 10
202.71094114695359
 20
157.08046440090931
 30
0.0
 70
    32
  0
VERTEX
  5
1710B
  8
AM_0
 10
202.71294114695371
 20
157.08446440090921
 30
0.0
 70
    32
  0
VERTEX
  5
1710C
  8
AM_0
 10
202.71494114695381
 20
157.08746440090931
 30
0.0
 70
    32
  0
VERTEX
  5
1710D
  8
AM_0
 10
202.71694114695379
 20
157.0914644009093
 30
0.0
 70
    32
  0
VERTEX
  5
1710E
  8
AM_0
 10
202.71894114695391
 20
157.09546440090941
 30
0.0
 70
    32
  0
VERTEX
  5
1710F
  8
AM_0
 10
202.72094114695369
 20
157.0994644009092
 30
0.0
 70
    32
  0
VERTEX
  5
17110
  8
AM_0
 10
202.7228411469539
 20
157.10346440090919
 30
0.0
 70
    32
  0
VERTEX
  5
17111
  8
AM_0
 10
202.72484114695359
 20
157.10746440090929
 30
0.0
 70
    32
  0
VERTEX
  5
17112
  8
AM_0
 10
202.726741146954
 20
157.11146440090951
 30
0.0
 70
    32
  0
VERTEX
  5
17113
  8
AM_0
 10
202.72874114695381
 20
157.11546440090939
 30
0.0
 70
    32
  0
VERTEX
  5
17114
  8
AM_0
 10
202.73064114695379
 20
157.11946440090961
 30
0.0
 70
    32
  0
VERTEX
  5
17115
  8
AM_0
 10
202.73254114695359
 20
157.12246440090951
 30
0.0
 70
    32
  0
VERTEX
  5
17116
  8
AM_0
 10
202.73454114695369
 20
157.1264644009091
 30
0.0
 70
    32
  0
VERTEX
  5
17117
  8
AM_0
 10
202.73644114695369
 20
157.1304644009094
 30
0.0
 70
    32
  0
VERTEX
  5
17118
  8
AM_0
 10
202.7383411469537
 20
157.1344644009092
 30
0.0
 70
    32
  0
VERTEX
  5
17119
  8
AM_0
 10
202.74024114695399
 20
157.1384644009093
 30
0.0
 70
    32
  0
VERTEX
  5
1711A
  8
AM_0
 10
202.7421411469536
 20
157.14246440090949
 30
0.0
 70
    32
  0
VERTEX
  5
1711B
  8
AM_0
 10
202.744041146954
 20
157.14646440090911
 30
0.0
 70
    32
  0
VERTEX
  5
1711C
  8
AM_0
 10
202.74584114695381
 20
157.15046440090919
 30
0.0
 70
    32
  0
VERTEX
  5
1711D
  8
AM_0
 10
202.74774114695381
 20
157.15446440090921
 30
0.0
 70
    32
  0
VERTEX
  5
1711E
  8
AM_0
 10
202.74964114695351
 20
157.15846440090931
 30
0.0
 70
    32
  0
VERTEX
  5
1711F
  8
AM_0
 10
202.75144114695371
 20
157.1624644009093
 30
0.0
 70
    32
  0
VERTEX
  5
17120
  8
AM_0
 10
202.7533411469538
 20
157.1654644009094
 30
0.0
 70
    32
  0
VERTEX
  5
17121
  8
AM_0
 10
202.75514114695389
 20
157.16946440090931
 30
0.0
 70
    32
  0
VERTEX
  5
17122
  8
AM_0
 10
202.7570411469539
 20
157.1734644009093
 30
0.0
 70
    32
  0
VERTEX
  5
17123
  8
AM_0
 10
202.75884114695381
 20
157.17746440090909
 30
0.0
 70
    32
  0
VERTEX
  5
17124
  8
AM_0
 10
202.76064114695399
 20
157.18146440090919
 30
0.0
 70
    32
  0
VERTEX
  5
17125
  8
AM_0
 10
202.76254114695399
 20
157.18546440090941
 30
0.0
 70
    32
  0
VERTEX
  5
17126
  8
AM_0
 10
202.76434114695391
 20
157.189464400909
 30
0.0
 70
    32
  0
VERTEX
  5
17127
  8
AM_0
 10
202.76614114695369
 20
157.19346440090911
 30
0.0
 70
    32
  0
VERTEX
  5
17128
  8
AM_0
 10
202.7679411469538
 20
157.19746440090941
 30
0.0
 70
    32
  0
VERTEX
  5
17129
  8
AM_0
 10
202.76974114695389
 20
157.2014644009092
 30
0.0
 70
    32
  0
VERTEX
  5
1712A
  8
AM_0
 10
202.77154114695381
 20
157.20546440090931
 30
0.0
 70
    32
  0
VERTEX
  5
1712B
  8
AM_0
 10
202.77324114695389
 20
157.2094644009091
 30
0.0
 70
    32
  0
VERTEX
  5
1712C
  8
AM_0
 10
202.77504114695401
 20
157.21346440090909
 30
0.0
 70
    32
  0
VERTEX
  5
1712D
  8
AM_0
 10
202.77684114695381
 20
157.21746440090939
 30
0.0
 70
    32
  0
VERTEX
  5
1712E
  8
AM_0
 10
202.7786411469539
 20
157.22146440090921
 30
0.0
 70
    32
  0
VERTEX
  5
1712F
  8
AM_0
 10
202.78034114695379
 20
157.22546440090929
 30
0.0
 70
    32
  0
VERTEX
  5
17130
  8
AM_0
 10
202.7821411469539
 20
157.22946440090911
 30
0.0
 70
    32
  0
VERTEX
  5
17131
  8
AM_0
 10
202.78384114695379
 20
157.23346440090961
 30
0.0
 70
    32
  0
VERTEX
  5
17132
  8
AM_0
 10
202.78554114695359
 20
157.2374644009094
 30
0.0
 70
    32
  0
VERTEX
  5
17133
  8
AM_0
 10
202.78734114695379
 20
157.24146440090919
 30
0.0
 70
    32
  0
VERTEX
  5
17134
  8
AM_0
 10
202.78904114695391
 20
157.2454644009093
 30
0.0
 70
    32
  0
VERTEX
  5
17135
  8
AM_0
 10
202.79074114695371
 20
157.24946440090929
 30
0.0
 70
    32
  0
VERTEX
  5
17136
  8
AM_0
 10
202.79244114695371
 20
157.25346440090959
 30
0.0
 70
    32
  0
VERTEX
  5
17137
  8
AM_0
 10
202.79414114695379
 20
157.25746440090921
 30
0.0
 70
    32
  0
VERTEX
  5
17138
  8
AM_0
 10
202.79584114695379
 20
157.2614644009092
 30
0.0
 70
    32
  0
VERTEX
  5
17139
  8
AM_0
 10
202.7975411469539
 20
157.26546440090931
 30
0.0
 70
    32
  0
VERTEX
  5
1713A
  8
AM_0
 10
202.79924114695359
 20
157.26946440090919
 30
0.0
 70
    32
  0
VERTEX
  5
1713B
  8
AM_0
 10
202.8009411469537
 20
157.27346440090949
 30
0.0
 70
    32
  0
VERTEX
  5
1713C
  8
AM_0
 10
202.8026411469539
 20
157.2774644009092
 30
0.0
 70
    32
  0
VERTEX
  5
1713D
  8
AM_0
 10
202.80434114695379
 20
157.2814644009093
 30
0.0
 70
    32
  0
VERTEX
  5
1713E
  8
AM_0
 10
202.8059411469535
 20
157.2854644009094
 30
0.0
 70
    32
  0
VERTEX
  5
1713F
  8
AM_0
 10
202.80764114695381
 20
157.28946440090911
 30
0.0
 70
    32
  0
VERTEX
  5
17140
  8
AM_0
 10
202.80924114695381
 20
157.2934644009095
 30
0.0
 70
    32
  0
VERTEX
  5
17141
  8
AM_0
 10
202.8109411469535
 20
157.29746440090929
 30
0.0
 70
    32
  0
VERTEX
  5
17142
  8
AM_0
 10
202.81254114695369
 20
157.30146440090931
 30
0.0
 70
    32
  0
VERTEX
  5
17143
  8
AM_0
 10
202.81424114695369
 20
157.30546440090939
 30
0.0
 70
    32
  0
VERTEX
  5
17144
  8
AM_0
 10
202.8158411469536
 20
157.30946440090901
 30
0.0
 70
    32
  0
VERTEX
  5
17145
  8
AM_0
 10
202.8174411469538
 20
157.31346440090951
 30
0.0
 70
    32
  0
VERTEX
  5
17146
  8
AM_0
 10
202.81904114695351
 20
157.3174644009093
 30
0.0
 70
    32
  0
VERTEX
  5
17147
  8
AM_0
 10
202.82074114695371
 20
157.32146440090929
 30
0.0
 70
    32
  0
VERTEX
  5
17148
  8
AM_0
 10
202.8223411469537
 20
157.3254644009092
 30
0.0
 70
    32
  0
VERTEX
  5
17149
  8
AM_0
 10
202.8239411469535
 20
157.32946440090899
 30
0.0
 70
    32
  0
VERTEX
  5
1714A
  8
AM_0
 10
202.82554114695361
 20
157.33346440090949
 30
0.0
 70
    32
  0
VERTEX
  5
1714B
  8
AM_0
 10
202.8270411469538
 20
157.33746440090931
 30
0.0
 70
    32
  0
VERTEX
  5
1714C
  8
AM_0
 10
202.8286411469538
 20
157.34146440090919
 30
0.0
 70
    32
  0
VERTEX
  5
1714D
  8
AM_0
 10
202.8302411469536
 20
157.34546440090921
 30
0.0
 70
    32
  0
VERTEX
  5
1714E
  8
AM_0
 10
202.83184114695379
 20
157.34946440090951
 30
0.0
 70
    32
  0
VERTEX
  5
1714F
  8
AM_0
 10
202.8333411469537
 20
157.3534644009091
 30
0.0
 70
    32
  0
VERTEX
  5
17150
  8
AM_0
 10
202.8349411469537
 20
157.35746440090929
 30
0.0
 70
    32
  0
VERTEX
  5
17151
  8
AM_0
 10
202.83654114695369
 20
157.36246440090929
 30
0.0
 70
    32
  0
VERTEX
  5
17152
  8
AM_0
 10
202.838041146954
 20
157.36646440090911
 30
0.0
 70
    32
  0
VERTEX
  5
17153
  8
AM_0
 10
202.83954114695371
 20
157.37046440090921
 30
0.0
 70
    32
  0
VERTEX
  5
17154
  8
AM_0
 10
202.84114114695379
 20
157.37446440090929
 30
0.0
 70
    32
  0
VERTEX
  5
17155
  8
AM_0
 10
202.84264114695381
 20
157.37846440090939
 30
0.0
 70
    32
  0
VERTEX
  5
17156
  8
AM_0
 10
202.84414114695369
 20
157.3824644009093
 30
0.0
 70
    32
  0
VERTEX
  5
17157
  8
AM_0
 10
202.845741146954
 20
157.38646440090901
 30
0.0
 70
    32
  0
VERTEX
  5
17158
  8
AM_0
 10
202.84724114695399
 20
157.3904644009092
 30
0.0
 70
    32
  0
VERTEX
  5
17159
  8
AM_0
 10
202.84874114695361
 20
157.3944644009091
 30
0.0
 70
    32
  0
VERTEX
  5
1715A
  8
AM_0
 10
202.85024114695389
 20
157.3984644009094
 30
0.0
 70
    32
  0
VERTEX
  5
1715B
  8
AM_0
 10
202.85174114695391
 20
157.4024644009092
 30
0.0
 70
    32
  0
VERTEX
  5
1715C
  8
AM_0
 10
202.85324114695351
 20
157.40646440090941
 30
0.0
 70
    32
  0
VERTEX
  5
1715D
  8
AM_0
 10
202.85474114695401
 20
157.41046440090949
 30
0.0
 70
    32
  0
VERTEX
  5
1715E
  8
AM_0
 10
202.8561411469536
 20
157.41446440090911
 30
0.0
 70
    32
  0
VERTEX
  5
1715F
  8
AM_0
 10
202.85764114695371
 20
157.4194644009095
 30
0.0
 70
    32
  0
VERTEX
  5
17160
  8
AM_0
 10
202.8591411469539
 20
157.42346440090921
 30
0.0
 70
    32
  0
VERTEX
  5
17161
  8
AM_0
 10
202.8606411469539
 20
157.42746440090951
 30
0.0
 70
    32
  0
VERTEX
  5
17162
  8
AM_0
 10
202.862041146954
 20
157.43146440090931
 30
0.0
 70
    32
  0
VERTEX
  5
17163
  8
AM_0
 10
202.86354114695371
 20
157.4354644009093
 30
0.0
 70
    32
  0
VERTEX
  5
17164
  8
AM_0
 10
202.86494114695361
 20
157.43946440090929
 30
0.0
 70
    32
  0
VERTEX
  5
17165
  8
AM_0
 10
202.86644114695389
 20
157.44346440090939
 30
0.0
 70
    32
  0
VERTEX
  5
17166
  8
AM_0
 10
202.86784114695379
 20
157.4474644009095
 30
0.0
 70
    32
  0
VERTEX
  5
17167
  8
AM_0
 10
202.86924114695401
 20
157.45146440090929
 30
0.0
 70
    32
  0
VERTEX
  5
17168
  8
AM_0
 10
202.87064114695389
 20
157.45546440090911
 30
0.0
 70
    32
  0
VERTEX
  5
17169
  8
AM_0
 10
202.87214114695371
 20
157.4604644009091
 30
0.0
 70
    32
  0
VERTEX
  5
1716A
  8
AM_0
 10
202.8735411469539
 20
157.46446440090909
 30
0.0
 70
    32
  0
VERTEX
  5
1716B
  8
AM_0
 10
202.87494114695369
 20
157.4684644009092
 30
0.0
 70
    32
  0
VERTEX
  5
1716C
  8
AM_0
 10
202.87634114695379
 20
157.47246440090919
 30
0.0
 70
    32
  0
VERTEX
  5
1716D
  8
AM_0
 10
202.8777411469537
 20
157.47646440090949
 30
0.0
 70
    32
  0
VERTEX
  5
1716E
  8
AM_0
 10
202.87914114695391
 20
157.48046440090931
 30
0.0
 70
    32
  0
VERTEX
  5
1716F
  8
AM_0
 10
202.8805411469539
 20
157.48446440090919
 30
0.0
 70
    32
  0
VERTEX
  5
17170
  8
AM_0
 10
202.88194114695381
 20
157.48846440090941
 30
0.0
 70
    32
  0
VERTEX
  5
17171
  8
AM_0
 10
202.88324114695391
 20
157.4924644009092
 30
0.0
 70
    32
  0
VERTEX
  5
17172
  8
AM_0
 10
202.88464114695381
 20
157.49746440090911
 30
0.0
 70
    32
  0
VERTEX
  5
17173
  8
AM_0
 10
202.8860411469536
 20
157.5014644009093
 30
0.0
 70
    32
  0
VERTEX
  5
17174
  8
AM_0
 10
202.88734114695379
 20
157.5054644009094
 30
0.0
 70
    32
  0
VERTEX
  5
17175
  8
AM_0
 10
202.88874114695369
 20
157.50946440090939
 30
0.0
 70
    32
  0
VERTEX
  5
17176
  8
AM_0
 10
202.89004114695379
 20
157.5134644009093
 30
0.0
 70
    32
  0
VERTEX
  5
17177
  8
AM_0
 10
202.89144114695361
 20
157.51746440090909
 30
0.0
 70
    32
  0
VERTEX
  5
17178
  8
AM_0
 10
202.8927411469538
 20
157.52146440090931
 30
0.0
 70
    32
  0
VERTEX
  5
17179
  8
AM_0
 10
202.89404114695381
 20
157.52646440090939
 30
0.0
 70
    32
  0
VERTEX
  5
1717A
  8
AM_0
 10
202.8954411469538
 20
157.53046440090941
 30
0.0
 70
    32
  0
VERTEX
  5
1717B
  8
AM_0
 10
202.89674114695379
 20
157.53446440090951
 30
0.0
 70
    32
  0
VERTEX
  5
1717C
  8
AM_0
 10
202.898041146954
 20
157.53846440090931
 30
0.0
 70
    32
  0
VERTEX
  5
1717D
  8
AM_0
 10
202.8993411469537
 20
157.5424644009093
 30
0.0
 70
    32
  0
VERTEX
  5
1717E
  8
AM_0
 10
202.9006411469536
 20
157.5464644009092
 30
0.0
 70
    32
  0
VERTEX
  5
1717F
  8
AM_0
 10
202.9019411469537
 20
157.55046440090899
 30
0.0
 70
    32
  0
VERTEX
  5
17180
  8
AM_0
 10
202.90324114695389
 20
157.55546440090899
 30
0.0
 70
    32
  0
VERTEX
  5
17181
  8
AM_0
 10
202.90454114695359
 20
157.55946440090909
 30
0.0
 70
    32
  0
VERTEX
  5
17182
  8
AM_0
 10
202.90584114695369
 20
157.56346440090931
 30
0.0
 70
    32
  0
VERTEX
  5
17183
  8
AM_0
 10
202.90714114695379
 20
157.5674644009091
 30
0.0
 70
    32
  0
VERTEX
  5
17184
  8
AM_0
 10
202.90844114695369
 20
157.57146440090921
 30
0.0
 70
    32
  0
VERTEX
  5
17185
  8
AM_0
 10
202.9096411469537
 20
157.5754644009092
 30
0.0
 70
    32
  0
VERTEX
  5
17186
  8
AM_0
 10
202.9109411469538
 20
157.5794644009091
 30
0.0
 70
    32
  0
VERTEX
  5
17187
  8
AM_0
 10
202.9122411469539
 20
157.5844644009091
 30
0.0
 70
    32
  0
VERTEX
  5
17188
  8
AM_0
 10
202.91344114695389
 20
157.58846440090929
 30
0.0
 70
    32
  0
VERTEX
  5
17189
  8
AM_0
 10
202.9147411469537
 20
157.59246440090939
 30
0.0
 70
    32
  0
VERTEX
  5
1718A
  8
AM_0
 10
202.9159411469538
 20
157.59646440090941
 30
0.0
 70
    32
  0
VERTEX
  5
1718B
  8
AM_0
 10
202.9172411469539
 20
157.6004644009092
 30
0.0
 70
    32
  0
VERTEX
  5
1718C
  8
AM_0
 10
202.91844114695371
 20
157.60446440090939
 30
0.0
 70
    32
  0
VERTEX
  5
1718D
  8
AM_0
 10
202.91964114695401
 20
157.6094644009091
 30
0.0
 70
    32
  0
VERTEX
  5
1718E
  8
AM_0
 10
202.92094114695399
 20
157.61346440090941
 30
0.0
 70
    32
  0
VERTEX
  5
1718F
  8
AM_0
 10
202.92214114695349
 20
157.6174644009094
 30
0.0
 70
    32
  0
VERTEX
  5
17190
  8
AM_0
 10
202.92334114695379
 20
157.62146440090919
 30
0.0
 70
    32
  0
VERTEX
  5
17191
  8
AM_0
 10
202.92454114695391
 20
157.62546440090929
 30
0.0
 70
    32
  0
VERTEX
  5
17192
  8
AM_0
 10
202.92574114695361
 20
157.62946440090931
 30
0.0
 70
    32
  0
VERTEX
  5
17193
  8
AM_0
 10
202.92694114695391
 20
157.63446440090939
 30
0.0
 70
    32
  0
VERTEX
  5
17194
  8
AM_0
 10
202.92814114695381
 20
157.63846440090921
 30
0.0
 70
    32
  0
VERTEX
  5
17195
  8
AM_0
 10
202.9293411469535
 20
157.6424644009092
 30
0.0
 70
    32
  0
VERTEX
  5
17196
  8
AM_0
 10
202.93054114695369
 20
157.64646440090931
 30
0.0
 70
    32
  0
VERTEX
  5
17197
  8
AM_0
 10
202.93174114695401
 20
157.6504644009093
 30
0.0
 70
    32
  0
VERTEX
  5
17198
  8
AM_0
 10
202.93294114695371
 20
157.6554644009091
 30
0.0
 70
    32
  0
VERTEX
  5
17199
  8
AM_0
 10
202.93404114695389
 20
157.6594644009094
 30
0.0
 70
    32
  0
VERTEX
  5
1719A
  8
AM_0
 10
202.93524114695381
 20
157.66346440090919
 30
0.0
 70
    32
  0
VERTEX
  5
1719B
  8
AM_0
 10
202.93644114695391
 20
157.6674644009093
 30
0.0
 70
    32
  0
VERTEX
  5
1719C
  8
AM_0
 10
202.93754114695381
 20
157.67146440090951
 30
0.0
 70
    32
  0
VERTEX
  5
1719D
  8
AM_0
 10
202.93874114695379
 20
157.67546440090911
 30
0.0
 70
    32
  0
VERTEX
  5
1719E
  8
AM_0
 10
202.9398411469538
 20
157.6804644009093
 30
0.0
 70
    32
  0
VERTEX
  5
1719F
  8
AM_0
 10
202.94104114695349
 20
157.68446440090901
 30
0.0
 70
    32
  0
VERTEX
  5
171A0
  8
AM_0
 10
202.9421411469539
 20
157.68846440090931
 30
0.0
 70
    32
  0
VERTEX
  5
171A1
  8
AM_0
 10
202.9433411469538
 20
157.6924644009091
 30
0.0
 70
    32
  0
VERTEX
  5
171A2
  8
AM_0
 10
202.94444114695381
 20
157.69646440090929
 30
0.0
 70
    32
  0
VERTEX
  5
171A3
  8
AM_0
 10
202.9455411469537
 20
157.70146440090909
 30
0.0
 70
    32
  0
VERTEX
  5
171A4
  8
AM_0
 10
202.94664114695391
 20
157.70546440090919
 30
0.0
 70
    32
  0
VERTEX
  5
171A5
  8
AM_0
 10
202.94784114695389
 20
157.70946440090921
 30
0.0
 70
    32
  0
VERTEX
  5
171A6
  8
AM_0
 10
202.94894114695401
 20
157.71346440090929
 30
0.0
 70
    32
  0
VERTEX
  5
171A7
  8
AM_0
 10
202.95004114695359
 20
157.71746440090951
 30
0.0
 70
    32
  0
VERTEX
  5
171A8
  8
AM_0
 10
202.95114114695389
 20
157.7224644009091
 30
0.0
 70
    32
  0
VERTEX
  5
171A9
  8
AM_0
 10
202.95224114695361
 20
157.72646440090941
 30
0.0
 70
    32
  0
VERTEX
  5
171AA
  8
AM_0
 10
202.95334114695399
 20
157.7304644009092
 30
0.0
 70
    32
  0
VERTEX
  5
171AB
  8
AM_0
 10
202.9544411469538
 20
157.7344644009093
 30
0.0
 70
    32
  0
VERTEX
  5
171AC
  8
AM_0
 10
202.9554411469536
 20
157.7394644009093
 30
0.0
 70
    32
  0
VERTEX
  5
171AD
  8
AM_0
 10
202.9565411469537
 20
157.74346440090909
 30
0.0
 70
    32
  0
VERTEX
  5
171AE
  8
AM_0
 10
202.9576411469537
 20
157.74746440090919
 30
0.0
 70
    32
  0
VERTEX
  5
171AF
  8
AM_0
 10
202.9587411469538
 20
157.75146440090941
 30
0.0
 70
    32
  0
VERTEX
  5
171B0
  8
AM_0
 10
202.959741146954
 20
157.75546440090949
 30
0.0
 70
    32
  0
VERTEX
  5
171B1
  8
AM_0
 10
202.96084114695361
 20
157.7604644009092
 30
0.0
 70
    32
  0
VERTEX
  5
171B2
  8
AM_0
 10
202.9618411469539
 20
157.7644644009095
 30
0.0
 70
    32
  0
VERTEX
  5
171B3
  8
AM_0
 10
202.9629411469538
 20
157.76846440090929
 30
0.0
 70
    32
  0
VERTEX
  5
171B4
  8
AM_0
 10
202.96394114695369
 20
157.7724644009092
 30
0.0
 70
    32
  0
VERTEX
  5
171B5
  8
AM_0
 10
202.96504114695389
 20
157.77646440090939
 30
0.0
 70
    32
  0
VERTEX
  5
171B6
  8
AM_0
 10
202.96604114695401
 20
157.78146440090941
 30
0.0
 70
    32
  0
VERTEX
  5
171B7
  8
AM_0
 10
202.96704114695379
 20
157.78546440090909
 30
0.0
 70
    32
  0
VERTEX
  5
171B8
  8
AM_0
 10
202.9681411469538
 20
157.78946440090931
 30
0.0
 70
    32
  0
VERTEX
  5
171B9
  8
AM_0
 10
202.9691411469538
 20
157.79346440090939
 30
0.0
 70
    32
  0
VERTEX
  5
171BA
  8
AM_0
 10
202.97014114695389
 20
157.79846440090941
 30
0.0
 70
    32
  0
VERTEX
  5
171BB
  8
AM_0
 10
202.9711411469539
 20
157.80246440090951
 30
0.0
 70
    32
  0
VERTEX
  5
171BC
  8
AM_0
 10
202.97214114695339
 20
157.80646440090899
 30
0.0
 70
    32
  0
VERTEX
  5
171BD
  8
AM_0
 10
202.97314114695399
 20
157.8104644009093
 30
0.0
 70
    32
  0
VERTEX
  5
171BE
  8
AM_0
 10
202.9741411469538
 20
157.81446440090929
 30
0.0
 70
    32
  0
VERTEX
  5
171BF
  8
AM_0
 10
202.9751411469538
 20
157.81946440090931
 30
0.0
 70
    32
  0
VERTEX
  5
171C0
  8
AM_0
 10
202.97614114695381
 20
157.8234644009091
 30
0.0
 70
    32
  0
VERTEX
  5
171C1
  8
AM_0
 10
202.97714114695381
 20
157.82746440090941
 30
0.0
 70
    32
  0
VERTEX
  5
171C2
  8
AM_0
 10
202.9780411469539
 20
157.83146440090951
 30
0.0
 70
    32
  0
VERTEX
  5
171C3
  8
AM_0
 10
202.9790411469537
 20
157.83646440090931
 30
0.0
 70
    32
  0
VERTEX
  5
171C4
  8
AM_0
 10
202.98004114695371
 20
157.84046440090941
 30
0.0
 70
    32
  0
VERTEX
  5
171C5
  8
AM_0
 10
202.98094114695371
 20
157.8444644009094
 30
0.0
 70
    32
  0
VERTEX
  5
171C6
  8
AM_0
 10
202.98194114695369
 20
157.84846440090899
 30
0.0
 70
    32
  0
VERTEX
  5
171C7
  8
AM_0
 10
202.98294114695341
 20
157.85346440090919
 30
0.0
 70
    32
  0
VERTEX
  5
171C8
  8
AM_0
 10
202.98384114695361
 20
157.85746440090929
 30
0.0
 70
    32
  0
VERTEX
  5
171C9
  8
AM_0
 10
202.9848411469539
 20
157.86146440090951
 30
0.0
 70
    32
  0
VERTEX
  5
171CA
  8
AM_0
 10
202.9857411469539
 20
157.8654644009091
 30
0.0
 70
    32
  0
VERTEX
  5
171CB
  8
AM_0
 10
202.98664114695401
 20
157.8704644009091
 30
0.0
 70
    32
  0
VERTEX
  5
171CC
  8
AM_0
 10
202.98764114695391
 20
157.8744644009094
 30
0.0
 70
    32
  0
VERTEX
  5
171CD
  8
AM_0
 10
202.98854114695391
 20
157.87846440090951
 30
0.0
 70
    32
  0
VERTEX
  5
171CE
  8
AM_0
 10
202.98944114695371
 20
157.8824644009091
 30
0.0
 70
    32
  0
VERTEX
  5
171CF
  8
AM_0
 10
202.9903411469538
 20
157.88746440090929
 30
0.0
 70
    32
  0
VERTEX
  5
171D0
  8
AM_0
 10
202.9912411469536
 20
157.8914644009094
 30
0.0
 70
    32
  0
VERTEX
  5
171D1
  8
AM_0
 10
202.99214114695371
 20
157.89546440090911
 30
0.0
 70
    32
  0
VERTEX
  5
171D2
  8
AM_0
 10
202.99304114695391
 20
157.89946440090921
 30
0.0
 70
    32
  0
VERTEX
  5
171D3
  8
AM_0
 10
202.99394114695389
 20
157.90446440090921
 30
0.0
 70
    32
  0
VERTEX
  5
171D4
  8
AM_0
 10
202.9948411469538
 20
157.90846440090931
 30
0.0
 70
    32
  0
VERTEX
  5
171D5
  8
AM_0
 10
202.99574114695361
 20
157.9124644009093
 30
0.0
 70
    32
  0
VERTEX
  5
171D6
  8
AM_0
 10
202.99664114695369
 20
157.9164644009096
 30
0.0
 70
    32
  0
VERTEX
  5
171D7
  8
AM_0
 10
202.99754114695369
 20
157.9214644009092
 30
0.0
 70
    32
  0
VERTEX
  5
171D8
  8
AM_0
 10
202.99844114695389
 20
157.92546440090899
 30
0.0
 70
    32
  0
VERTEX
  5
171D9
  8
AM_0
 10
202.99924114695409
 20
157.9294644009095
 30
0.0
 70
    32
  0
VERTEX
  5
171DA
  8
AM_0
 10
203.00014114695401
 20
157.93346440090909
 30
0.0
 70
    32
  0
VERTEX
  5
171DB
  8
AM_0
 10
203.0010411469539
 20
157.93846440090951
 30
0.0
 70
    32
  0
VERTEX
  5
171DC
  8
AM_0
 10
203.00184114695341
 20
157.94246440090939
 30
0.0
 70
    32
  0
VERTEX
  5
171DD
  8
AM_0
 10
203.00274114695361
 20
157.94646440090921
 30
0.0
 70
    32
  0
VERTEX
  5
171DE
  8
AM_0
 10
203.00354114695369
 20
157.9504644009092
 30
0.0
 70
    32
  0
VERTEX
  5
171DF
  8
AM_0
 10
203.0044411469537
 20
157.95546440090931
 30
0.0
 70
    32
  0
VERTEX
  5
171E0
  8
AM_0
 10
203.00524114695369
 20
157.9594644009091
 30
0.0
 70
    32
  0
VERTEX
  5
171E1
  8
AM_0
 10
203.00614114695389
 20
157.96346440090909
 30
0.0
 70
    32
  0
VERTEX
  5
171E2
  8
AM_0
 10
203.00694114695389
 20
157.96746440090939
 30
0.0
 70
    32
  0
VERTEX
  5
171E3
  8
AM_0
 10
203.00774114695389
 20
157.9724644009091
 30
0.0
 70
    32
  0
VERTEX
  5
171E4
  8
AM_0
 10
203.0085411469536
 20
157.97646440090949
 30
0.0
 70
    32
  0
VERTEX
  5
171E5
  8
AM_0
 10
203.00944114695369
 20
157.9804644009092
 30
0.0
 70
    32
  0
VERTEX
  5
171E6
  8
AM_0
 10
203.01024114695389
 20
157.98546440090951
 30
0.0
 70
    32
  0
VERTEX
  5
171E7
  8
AM_0
 10
203.0110411469538
 20
157.9894644009093
 30
0.0
 70
    32
  0
VERTEX
  5
171E8
  8
AM_0
 10
203.0118411469538
 20
157.9934644009092
 30
0.0
 70
    32
  0
VERTEX
  5
171E9
  8
AM_0
 10
203.01264114695371
 20
157.99746440090939
 30
0.0
 70
    32
  0
VERTEX
  5
171EA
  8
AM_0
 10
203.01344114695391
 20
158.00246440090939
 30
0.0
 70
    32
  0
VERTEX
  5
171EB
  8
AM_0
 10
203.01424114695391
 20
158.0064644009091
 30
0.0
 70
    32
  0
VERTEX
  5
171EC
  8
AM_0
 10
203.01504114695391
 20
158.01046440090931
 30
0.0
 70
    32
  0
VERTEX
  5
171ED
  8
AM_0
 10
203.0158411469539
 20
158.01446440090939
 30
0.0
 70
    32
  0
VERTEX
  5
171EE
  8
AM_0
 10
203.01664114695359
 20
158.01946440090919
 30
0.0
 70
    32
  0
VERTEX
  5
171EF
  8
AM_0
 10
203.0173411469539
 20
158.02346440090949
 30
0.0
 70
    32
  0
VERTEX
  5
171F0
  8
AM_0
 10
203.0181411469537
 20
158.02746440090939
 30
0.0
 70
    32
  0
VERTEX
  5
171F1
  8
AM_0
 10
203.01894114695361
 20
158.0324644009095
 30
0.0
 70
    32
  0
VERTEX
  5
171F2
  8
AM_0
 10
203.01974114695369
 20
158.0364644009091
 30
0.0
 70
    32
  0
VERTEX
  5
171F3
  8
AM_0
 10
203.02044114695391
 20
158.04046440090929
 30
0.0
 70
    32
  0
VERTEX
  5
171F4
  8
AM_0
 10
203.02124114695391
 20
158.04446440090939
 30
0.0
 70
    32
  0
VERTEX
  5
171F5
  8
AM_0
 10
203.02194114695391
 20
158.04946440090939
 30
0.0
 70
    32
  0
VERTEX
  5
171F6
  8
AM_0
 10
203.02274114695371
 20
158.05346440090949
 30
0.0
 70
    32
  0
VERTEX
  5
171F7
  8
AM_0
 10
203.0234411469537
 20
158.05746440090931
 30
0.0
 70
    32
  0
VERTEX
  5
171F8
  8
AM_0
 10
203.0242411469539
 20
158.06246440090931
 30
0.0
 70
    32
  0
VERTEX
  5
171F9
  8
AM_0
 10
203.02494114695381
 20
158.0664644009093
 30
0.0
 70
    32
  0
VERTEX
  5
171FA
  8
AM_0
 10
203.0256411469538
 20
158.0704644009092
 30
0.0
 70
    32
  0
VERTEX
  5
171FB
  8
AM_0
 10
203.02644114695391
 20
158.07446440090939
 30
0.0
 70
    32
  0
VERTEX
  5
171FC
  8
AM_0
 10
203.02714114695371
 20
158.07946440090939
 30
0.0
 70
    32
  0
VERTEX
  5
171FD
  8
AM_0
 10
203.02784114695379
 20
158.08346440090921
 30
0.0
 70
    32
  0
VERTEX
  5
171FE
  8
AM_0
 10
203.0285411469539
 20
158.08746440090931
 30
0.0
 70
    32
  0
VERTEX
  5
171FF
  8
AM_0
 10
203.02934114695401
 20
158.09246440090931
 30
0.0
 70
    32
  0
VERTEX
  5
17200
  8
AM_0
 10
203.03004114695389
 20
158.09646440090921
 30
0.0
 70
    32
  0
VERTEX
  5
17201
  8
AM_0
 10
203.0307411469538
 20
158.1004644009092
 30
0.0
 70
    32
  0
VERTEX
  5
17202
  8
AM_0
 10
203.0314411469538
 20
158.10446440090919
 30
0.0
 70
    32
  0
VERTEX
  5
17203
  8
AM_0
 10
203.03214114695379
 20
158.10946440090919
 30
0.0
 70
    32
  0
VERTEX
  5
17204
  8
AM_0
 10
203.0328411469537
 20
158.11346440090909
 30
0.0
 70
    32
  0
VERTEX
  5
17205
  8
AM_0
 10
203.0335411469537
 20
158.11746440090931
 30
0.0
 70
    32
  0
VERTEX
  5
17206
  8
AM_0
 10
203.0341411469538
 20
158.12246440090939
 30
0.0
 70
    32
  0
VERTEX
  5
17207
  8
AM_0
 10
203.0348411469538
 20
158.12646440090899
 30
0.0
 70
    32
  0
VERTEX
  5
17208
  8
AM_0
 10
203.03554114695359
 20
158.13046440090949
 30
0.0
 70
    32
  0
VERTEX
  5
17209
  8
AM_0
 10
203.0362411469537
 20
158.13446440090931
 30
0.0
 70
    32
  0
VERTEX
  5
1720A
  8
AM_0
 10
203.0369411469535
 20
158.1394644009095
 30
0.0
 70
    32
  0
VERTEX
  5
1720B
  8
AM_0
 10
203.0375411469538
 20
158.14346440090941
 30
0.0
 70
    32
  0
VERTEX
  5
1720C
  8
AM_0
 10
203.03824114695371
 20
158.1474644009092
 30
0.0
 70
    32
  0
VERTEX
  5
1720D
  8
AM_0
 10
203.03884114695381
 20
158.15246440090939
 30
0.0
 70
    32
  0
VERTEX
  5
1720E
  8
AM_0
 10
203.03954114695381
 20
158.15646440090941
 30
0.0
 70
    32
  0
VERTEX
  5
1720F
  8
AM_0
 10
203.0402411469538
 20
158.16046440090921
 30
0.0
 70
    32
  0
VERTEX
  5
17210
  8
AM_0
 10
203.04084114695371
 20
158.16446440090931
 30
0.0
 70
    32
  0
VERTEX
  5
17211
  8
AM_0
 10
203.0414411469537
 20
158.16946440090931
 30
0.0
 70
    32
  0
VERTEX
  5
17212
  8
AM_0
 10
203.04214114695381
 20
158.17346440090941
 30
0.0
 70
    32
  0
VERTEX
  5
17213
  8
AM_0
 10
203.04274114695369
 20
158.1774644009092
 30
0.0
 70
    32
  0
VERTEX
  5
17214
  8
AM_0
 10
203.0434411469538
 20
158.1824644009092
 30
0.0
 70
    32
  0
VERTEX
  5
17215
  8
AM_0
 10
203.04404114695379
 20
158.1864644009095
 30
0.0
 70
    32
  0
VERTEX
  5
17216
  8
AM_0
 10
203.04464114695389
 20
158.19046440090949
 30
0.0
 70
    32
  0
VERTEX
  5
17217
  8
AM_0
 10
203.04524114695371
 20
158.19546440090929
 30
0.0
 70
    32
  0
VERTEX
  5
17218
  8
AM_0
 10
203.0458411469539
 20
158.19946440090931
 30
0.0
 70
    32
  0
VERTEX
  5
17219
  8
AM_0
 10
203.04654114695359
 20
158.20346440090941
 30
0.0
 70
    32
  0
VERTEX
  5
1721A
  8
AM_0
 10
203.04714114695369
 20
158.20846440090921
 30
0.0
 70
    32
  0
VERTEX
  5
1721B
  8
AM_0
 10
203.0477411469536
 20
158.21246440090931
 30
0.0
 70
    32
  0
VERTEX
  5
1721C
  8
AM_0
 10
203.0483411469537
 20
158.2164644009093
 30
0.0
 70
    32
  0
VERTEX
  5
1721D
  8
AM_0
 10
203.04894114695369
 20
158.22046440090941
 30
0.0
 70
    32
  0
VERTEX
  5
1721E
  8
AM_0
 10
203.0495411469538
 20
158.22546440090929
 30
0.0
 70
    32
  0
VERTEX
  5
1721F
  8
AM_0
 10
203.05014114695359
 20
158.22946440090919
 30
0.0
 70
    32
  0
VERTEX
  5
17220
  8
AM_0
 10
203.05074114695381
 20
158.2334644009095
 30
0.0
 70
    32
  0
VERTEX
  5
17221
  8
AM_0
 10
203.05124114695391
 20
158.23846440090941
 30
0.0
 70
    32
  0
VERTEX
  5
17222
  8
AM_0
 10
203.0518411469539
 20
158.24246440090931
 30
0.0
 70
    32
  0
VERTEX
  5
17223
  8
AM_0
 10
203.0524411469537
 20
158.24646440090939
 30
0.0
 70
    32
  0
VERTEX
  5
17224
  8
AM_0
 10
203.0530411469538
 20
158.2514644009093
 30
0.0
 70
    32
  0
VERTEX
  5
17225
  8
AM_0
 10
203.05354114695371
 20
158.2554644009094
 30
0.0
 70
    32
  0
VERTEX
  5
17226
  8
AM_0
 10
203.0541411469537
 20
158.2594644009092
 30
0.0
 70
    32
  0
VERTEX
  5
17227
  8
AM_0
 10
203.054741146954
 20
158.2634644009093
 30
0.0
 70
    32
  0
VERTEX
  5
17228
  8
AM_0
 10
203.0552411469537
 20
158.26846440090929
 30
0.0
 70
    32
  0
VERTEX
  5
17229
  8
AM_0
 10
203.0558411469535
 20
158.27246440090909
 30
0.0
 70
    32
  0
VERTEX
  5
1722A
  8
AM_0
 10
203.056341146954
 20
158.2764644009093
 30
0.0
 70
    32
  0
VERTEX
  5
1722B
  8
AM_0
 10
203.05694114695379
 20
158.28146440090919
 30
0.0
 70
    32
  0
VERTEX
  5
1722C
  8
AM_0
 10
203.05744114695389
 20
158.2854644009094
 30
0.0
 70
    32
  0
VERTEX
  5
1722D
  8
AM_0
 10
203.05794114695371
 20
158.2894644009092
 30
0.0
 70
    32
  0
VERTEX
  5
1722E
  8
AM_0
 10
203.05854114695359
 20
158.29446440090899
 30
0.0
 70
    32
  0
VERTEX
  5
1722F
  8
AM_0
 10
203.059041146954
 20
158.2984644009093
 30
0.0
 70
    32
  0
VERTEX
  5
17230
  8
AM_0
 10
203.05954114695371
 20
158.3024644009094
 30
0.0
 70
    32
  0
VERTEX
  5
17231
  8
AM_0
 10
203.06014114695401
 20
158.30746440090931
 30
0.0
 70
    32
  0
VERTEX
  5
17232
  8
AM_0
 10
203.06064114695391
 20
158.31146440090961
 30
0.0
 70
    32
  0
VERTEX
  5
17233
  8
AM_0
 10
203.06114114695379
 20
158.31546440090941
 30
0.0
 70
    32
  0
VERTEX
  5
17234
  8
AM_0
 10
203.06164114695369
 20
158.32046440090929
 30
0.0
 70
    32
  0
VERTEX
  5
17235
  8
AM_0
 10
203.06214114695371
 20
158.32446440090911
 30
0.0
 70
    32
  0
VERTEX
  5
17236
  8
AM_0
 10
203.06264114695389
 20
158.3284644009093
 30
0.0
 70
    32
  0
VERTEX
  5
17237
  8
AM_0
 10
203.06314114695391
 20
158.33346440090941
 30
0.0
 70
    32
  0
VERTEX
  5
17238
  8
AM_0
 10
203.06364114695359
 20
158.3374644009094
 30
0.0
 70
    32
  0
VERTEX
  5
17239
  8
AM_0
 10
203.064141146954
 20
158.34146440090919
 30
0.0
 70
    32
  0
VERTEX
  5
1723A
  8
AM_0
 10
203.0646411469541
 20
158.34546440090929
 30
0.0
 70
    32
  0
VERTEX
  5
1723B
  8
AM_0
 10
203.06514114695369
 20
158.3504644009092
 30
0.0
 70
    32
  0
VERTEX
  5
1723C
  8
AM_0
 10
203.06554114695399
 20
158.35446440090911
 30
0.0
 70
    32
  0
VERTEX
  5
1723D
  8
AM_0
 10
203.06604114695369
 20
158.35846440090961
 30
0.0
 70
    32
  0
VERTEX
  5
1723E
  8
AM_0
 10
203.0665411469538
 20
158.36346440090941
 30
0.0
 70
    32
  0
VERTEX
  5
1723F
  8
AM_0
 10
203.06694114695381
 20
158.367464400909
 30
0.0
 70
    32
  0
VERTEX
  5
17240
  8
AM_0
 10
203.067441146954
 20
158.3714644009095
 30
0.0
 70
    32
  0
VERTEX
  5
17241
  8
AM_0
 10
203.0679411469537
 20
158.3764644009093
 30
0.0
 70
    32
  0
VERTEX
  5
17242
  8
AM_0
 10
203.0683411469538
 20
158.38046440090949
 30
0.0
 70
    32
  0
VERTEX
  5
17243
  8
AM_0
 10
203.0687411469537
 20
158.38446440090939
 30
0.0
 70
    32
  0
VERTEX
  5
17244
  8
AM_0
 10
203.0692411469538
 20
158.38946440090939
 30
0.0
 70
    32
  0
VERTEX
  5
17245
  8
AM_0
 10
203.06964114695381
 20
158.39346440090941
 30
0.0
 70
    32
  0
VERTEX
  5
17246
  8
AM_0
 10
203.07014114695389
 20
158.3974644009092
 30
0.0
 70
    32
  0
VERTEX
  5
17247
  8
AM_0
 10
203.0705411469537
 20
158.4024644009092
 30
0.0
 70
    32
  0
VERTEX
  5
17248
  8
AM_0
 10
203.070941146954
 20
158.4064644009093
 30
0.0
 70
    32
  0
VERTEX
  5
17249
  8
AM_0
 10
203.0713411469537
 20
158.4104644009094
 30
0.0
 70
    32
  0
VERTEX
  5
1724A
  8
AM_0
 10
203.07184114695389
 20
158.41546440090929
 30
0.0
 70
    32
  0
VERTEX
  5
1724B
  8
AM_0
 10
203.0722411469537
 20
158.41946440090939
 30
0.0
 70
    32
  0
VERTEX
  5
1724C
  8
AM_0
 10
203.0726411469538
 20
158.4234644009093
 30
0.0
 70
    32
  0
VERTEX
  5
1724D
  8
AM_0
 10
203.07304114695381
 20
158.42846440090949
 30
0.0
 70
    32
  0
VERTEX
  5
1724E
  8
AM_0
 10
203.07344114695351
 20
158.43246440090931
 30
0.0
 70
    32
  0
VERTEX
  5
1724F
  8
AM_0
 10
203.07384114695361
 20
158.4364644009095
 30
0.0
 70
    32
  0
VERTEX
  5
17250
  8
AM_0
 10
203.0742411469538
 20
158.44146440090941
 30
0.0
 70
    32
  0
VERTEX
  5
17251
  8
AM_0
 10
203.07454114695381
 20
158.4454644009092
 30
0.0
 70
    32
  0
VERTEX
  5
17252
  8
AM_0
 10
203.07494114695399
 20
158.44946440090919
 30
0.0
 70
    32
  0
VERTEX
  5
17253
  8
AM_0
 10
203.0753411469538
 20
158.45446440090899
 30
0.0
 70
    32
  0
VERTEX
  5
17254
  8
AM_0
 10
203.07574114695379
 20
158.45846440090949
 30
0.0
 70
    32
  0
VERTEX
  5
17255
  8
AM_0
 10
203.07604114695371
 20
158.46246440090931
 30
0.0
 70
    32
  0
VERTEX
  5
17256
  8
AM_0
 10
203.0764411469537
 20
158.46746440090931
 30
0.0
 70
    32
  0
VERTEX
  5
17257
  8
AM_0
 10
203.07684114695371
 20
158.47146440090921
 30
0.0
 70
    32
  0
VERTEX
  5
17258
  8
AM_0
 10
203.07714114695369
 20
158.4754644009092
 30
0.0
 70
    32
  0
VERTEX
  5
17259
  8
AM_0
 10
203.07754114695379
 20
158.4804644009092
 30
0.0
 70
    32
  0
VERTEX
  5
1725A
  8
AM_0
 10
203.07784114695369
 20
158.48446440090919
 30
0.0
 70
    32
  0
VERTEX
  5
1725B
  8
AM_0
 10
203.0781411469539
 20
158.48846440090949
 30
0.0
 70
    32
  0
VERTEX
  5
1725C
  8
AM_0
 10
203.07854114695391
 20
158.49346440090929
 30
0.0
 70
    32
  0
VERTEX
  5
1725D
  8
AM_0
 10
203.07884114695349
 20
158.49746440090931
 30
0.0
 70
    32
  0
VERTEX
  5
1725E
  8
AM_0
 10
203.0791411469537
 20
158.50146440090941
 30
0.0
 70
    32
  0
VERTEX
  5
1725F
  8
AM_0
 10
203.079441146954
 20
158.50646440090941
 30
0.0
 70
    32
  0
VERTEX
  5
17260
  8
AM_0
 10
203.07984114695361
 20
158.51046440090931
 30
0.0
 70
    32
  0
VERTEX
  5
17261
  8
AM_0
 10
203.08014114695359
 20
158.5144644009095
 30
0.0
 70
    32
  0
VERTEX
  5
17262
  8
AM_0
 10
203.08044114695389
 20
158.5194644009091
 30
0.0
 70
    32
  0
VERTEX
  5
17263
  8
AM_0
 10
203.08074114695381
 20
158.5234644009094
 30
0.0
 70
    32
  0
VERTEX
  5
17264
  8
AM_0
 10
203.08104114695371
 20
158.5274644009092
 30
0.0
 70
    32
  0
VERTEX
  5
17265
  8
AM_0
 10
203.081341146954
 20
158.53246440090959
 30
0.0
 70
    32
  0
VERTEX
  5
17266
  8
AM_0
 10
203.0816411469537
 20
158.53646440090941
 30
0.0
 70
    32
  0
VERTEX
  5
17267
  8
AM_0
 10
203.0819411469536
 20
158.54046440090929
 30
0.0
 70
    32
  0
VERTEX
  5
17268
  8
AM_0
 10
203.082241146954
 20
158.54546440090951
 30
0.0
 70
    32
  0
VERTEX
  5
17269
  8
AM_0
 10
203.08244114695361
 20
158.5494644009093
 30
0.0
 70
    32
  0
VERTEX
  5
1726A
  8
AM_0
 10
203.08274114695359
 20
158.55346440090941
 30
0.0
 70
    32
  0
VERTEX
  5
1726B
  8
AM_0
 10
203.083041146954
 20
158.55846440090909
 30
0.0
 70
    32
  0
VERTEX
  5
1726C
  8
AM_0
 10
203.0833411469535
 20
158.56246440090919
 30
0.0
 70
    32
  0
VERTEX
  5
1726D
  8
AM_0
 10
203.0835411469541
 20
158.5664644009093
 30
0.0
 70
    32
  0
VERTEX
  5
1726E
  8
AM_0
 10
203.0838411469538
 20
158.57146440090929
 30
0.0
 70
    32
  0
VERTEX
  5
1726F
  8
AM_0
 10
203.08404114695369
 20
158.57546440090911
 30
0.0
 70
    32
  0
VERTEX
  5
17270
  8
AM_0
 10
203.0843411469537
 20
158.5794644009091
 30
0.0
 70
    32
  0
VERTEX
  5
17271
  8
AM_0
 10
203.08454114695371
 20
158.58446440090921
 30
0.0
 70
    32
  0
VERTEX
  5
17272
  8
AM_0
 10
203.08484114695401
 20
158.5884644009094
 30
0.0
 70
    32
  0
VERTEX
  5
17273
  8
AM_0
 10
203.08504114695381
 20
158.59246440090951
 30
0.0
 70
    32
  0
VERTEX
  5
17274
  8
AM_0
 10
203.08534114695411
 20
158.59746440090919
 30
0.0
 70
    32
  0
VERTEX
  5
17275
  8
AM_0
 10
203.0855411469536
 20
158.60146440090949
 30
0.0
 70
    32
  0
VERTEX
  5
17276
  8
AM_0
 10
203.08574114695401
 20
158.60546440090931
 30
0.0
 70
    32
  0
VERTEX
  5
17277
  8
AM_0
 10
203.0859411469537
 20
158.61046440090931
 30
0.0
 70
    32
  0
VERTEX
  5
17278
  8
AM_0
 10
203.08624114695411
 20
158.61446440090941
 30
0.0
 70
    32
  0
VERTEX
  5
17279
  8
AM_0
 10
203.08644114695369
 20
158.6184644009094
 30
0.0
 70
    32
  0
VERTEX
  5
1727A
  8
AM_0
 10
203.08664114695389
 20
158.6234644009092
 30
0.0
 70
    32
  0
VERTEX
  5
1727B
  8
AM_0
 10
203.0868411469537
 20
158.6274644009091
 30
0.0
 70
    32
  0
VERTEX
  5
1727C
  8
AM_0
 10
203.08704114695371
 20
158.63146440090941
 30
0.0
 70
    32
  0
VERTEX
  5
1727D
  8
AM_0
 10
203.0872411469538
 20
158.63646440090929
 30
0.0
 70
    32
  0
VERTEX
  5
1727E
  8
AM_0
 10
203.08744114695389
 20
158.6404644009092
 30
0.0
 70
    32
  0
VERTEX
  5
1727F
  8
AM_0
 10
203.08764114695401
 20
158.64446440090941
 30
0.0
 70
    32
  0
VERTEX
  5
17280
  8
AM_0
 10
203.08784114695359
 20
158.64946440090901
 30
0.0
 70
    32
  0
VERTEX
  5
17281
  8
AM_0
 10
203.08804114695411
 20
158.65346440090929
 30
0.0
 70
    32
  0
VERTEX
  5
17282
  8
AM_0
 10
203.08824114695361
 20
158.65746440090911
 30
0.0
 70
    32
  0
VERTEX
  5
17283
  8
AM_0
 10
203.08844114695381
 20
158.66246440090941
 30
0.0
 70
    32
  0
VERTEX
  5
17284
  8
AM_0
 10
203.08864114695371
 20
158.6664644009096
 30
0.0
 70
    32
  0
VERTEX
  5
17285
  8
AM_0
 10
203.08874114695371
 20
158.6704644009092
 30
0.0
 70
    32
  0
VERTEX
  5
17286
  8
AM_0
 10
203.08894114695411
 20
158.67546440090899
 30
0.0
 70
    32
  0
VERTEX
  5
17287
  8
AM_0
 10
203.08914114695369
 20
158.6794644009095
 30
0.0
 70
    32
  0
VERTEX
  5
17288
  8
AM_0
 10
203.08924114695381
 20
158.68446440090929
 30
0.0
 70
    32
  0
VERTEX
  5
17289
  8
AM_0
 10
203.08944114695399
 20
158.68846440090931
 30
0.0
 70
    32
  0
VERTEX
  5
1728A
  8
AM_0
 10
203.08964114695371
 20
158.69246440090939
 30
0.0
 70
    32
  0
VERTEX
  5
1728B
  8
AM_0
 10
203.08974114695371
 20
158.69746440090941
 30
0.0
 70
    32
  0
VERTEX
  5
1728C
  8
AM_0
 10
203.08994114695369
 20
158.7014644009094
 30
0.0
 70
    32
  0
VERTEX
  5
1728D
  8
AM_0
 10
203.09004114695361
 20
158.70546440090919
 30
0.0
 70
    32
  0
VERTEX
  5
1728E
  8
AM_0
 10
203.09024114695379
 20
158.7104644009093
 30
0.0
 70
    32
  0
VERTEX
  5
1728F
  8
AM_0
 10
203.09034114695399
 20
158.71446440090929
 30
0.0
 70
    32
  0
VERTEX
  5
17290
  8
AM_0
 10
203.09044114695379
 20
158.7184644009094
 30
0.0
 70
    32
  0
VERTEX
  5
17291
  8
AM_0
 10
203.09064114695369
 20
158.72346440090919
 30
0.0
 70
    32
  0
VERTEX
  5
17292
  8
AM_0
 10
203.09074114695409
 20
158.72746440090941
 30
0.0
 70
    32
  0
VERTEX
  5
17293
  8
AM_0
 10
203.09084114695361
 20
158.73146440090929
 30
0.0
 70
    32
  0
VERTEX
  5
17294
  8
AM_0
 10
203.09094114695361
 20
158.736464400909
 30
0.0
 70
    32
  0
VERTEX
  5
17295
  8
AM_0
 10
203.09104114695381
 20
158.7404644009093
 30
0.0
 70
    32
  0
VERTEX
  5
17296
  8
AM_0
 10
203.09114114695399
 20
158.74446440090941
 30
0.0
 70
    32
  0
VERTEX
  5
17297
  8
AM_0
 10
203.09134114695371
 20
158.7494644009094
 30
0.0
 70
    32
  0
VERTEX
  5
17298
  8
AM_0
 10
203.09144114695351
 20
158.75346440090919
 30
0.0
 70
    32
  0
VERTEX
  5
17299
  8
AM_0
 10
203.0915411469538
 20
158.75746440090941
 30
0.0
 70
    32
  0
VERTEX
  5
1729A
  8
AM_0
 10
203.09164114695389
 20
158.76246440090901
 30
0.0
 70
    32
  0
VERTEX
  5
1729B
  8
AM_0
 10
203.09164114695389
 20
158.7664644009092
 30
0.0
 70
    32
  0
VERTEX
  5
1729C
  8
AM_0
 10
203.09174114695361
 20
158.77046440090911
 30
0.0
 70
    32
  0
VERTEX
  5
1729D
  8
AM_0
 10
203.0918411469537
 20
158.7754644009089
 30
0.0
 70
    32
  0
VERTEX
  5
1729E
  8
AM_0
 10
203.09194114695379
 20
158.7794644009094
 30
0.0
 70
    32
  0
VERTEX
  5
1729F
  8
AM_0
 10
203.0920411469539
 20
158.7834644009092
 30
0.0
 70
    32
  0
VERTEX
  5
172A0
  8
AM_0
 10
203.0920411469539
 20
158.78846440090919
 30
0.0
 70
    32
  0
VERTEX
  5
172A1
  8
AM_0
 10
203.09214114695399
 20
158.79246440090901
 30
0.0
 70
    32
  0
VERTEX
  5
172A2
  8
AM_0
 10
203.09224114695371
 20
158.79646440090951
 30
0.0
 70
    32
  0
VERTEX
  5
172A3
  8
AM_0
 10
203.09224114695371
 20
158.80146440090931
 30
0.0
 70
    32
  0
VERTEX
  5
172A4
  8
AM_0
 10
203.09234114695349
 20
158.80546440090939
 30
0.0
 70
    32
  0
VERTEX
  5
172A5
  8
AM_0
 10
203.09244114695369
 20
158.8104644009091
 30
0.0
 70
    32
  0
VERTEX
  5
172A6
  8
AM_0
 10
203.09244114695369
 20
158.8144644009092
 30
0.0
 70
    32
  0
VERTEX
  5
172A7
  8
AM_0
 10
203.09254114695401
 20
158.81846440090931
 30
0.0
 70
    32
  0
VERTEX
  5
172A8
  8
AM_0
 10
203.09254114695401
 20
158.8234644009095
 30
0.0
 70
    32
  0
VERTEX
  5
172A9
  8
AM_0
 10
203.09264114695381
 20
158.82746440090929
 30
0.0
 70
    32
  0
VERTEX
  5
172AA
  8
AM_0
 10
203.09264114695381
 20
158.83146440090931
 30
0.0
 70
    32
  0
VERTEX
  5
172AB
  8
AM_0
 10
203.09274114695361
 20
158.83646440090931
 30
0.0
 70
    32
  0
VERTEX
  5
172AC
  8
AM_0
 10
203.09274114695361
 20
158.8404644009095
 30
0.0
 70
    32
  0
VERTEX
  5
172AD
  8
AM_0
 10
203.0928411469539
 20
158.8444644009094
 30
0.0
 70
    32
  0
VERTEX
  5
172AE
  8
AM_0
 10
203.0928411469539
 20
158.84946440090951
 30
0.0
 70
    32
  0
VERTEX
  5
172AF
  8
AM_0
 10
203.0928411469539
 20
158.8534644009095
 30
0.0
 70
    32
  0
VERTEX
  5
172B0
  8
AM_0
 10
203.09294114695399
 20
158.85746440090929
 30
0.0
 70
    32
  0
VERTEX
  5
172B1
  8
AM_0
 10
203.09294114695399
 20
158.86246440090929
 30
0.0
 70
    32
  0
VERTEX
  5
172B2
  8
AM_0
 10
203.09304114695399
 20
158.86646440090939
 30
0.0
 70
    32
  0
VERTEX
  5
172B3
  8
AM_0
 10
203.09304114695399
 20
158.87046440090899
 30
0.0
 70
    32
  0
VERTEX
  5
172B4
  8
AM_0
 10
203.09304114695399
 20
158.87546440090941
 30
0.0
 70
    32
  0
VERTEX
  5
172B5
  8
AM_0
 10
203.09314114695391
 20
158.87946440090931
 30
0.0
 70
    32
  0
SEQEND
  5
172B6
  8
AM_0
  0
ARC
  5
172B7
  8
AM_0
 10
214.9629559499968
 20
156.87951146598331
 30
0.0
 40
0.5
 50
270.0
 51
0.0
  0
LINE
  5
172B8
  8
AM_0
 10
214.9629559499968
 20
156.3795114659834
 30
0.0
 11
210.86295594999621
 21
156.3795114659834
 31
0.0
  0
ARC
  5
172B9
  8
AM_0
 10
210.86295594999621
 20
158.8795114659832
 30
0.0
 40
2.4999999999999991
 50
270.0
 51
0.0
  0
LINE
  5
172BA
  8
AM_0
 10
204.5429559499967
 20
169.3795114659832
 30
0.0
 11
213.36295594999621
 21
167.91451146598351
 31
0.0
  0
LINE
  5
172BB
  8
AM_0
 10
215.46295594999839
 20
173.37951146598331
 30
0.0
 11
203.96295594999839
 21
173.37951146598331
 31
0.0
  0
LINE
  5
172BC
  8
AM_0
 10
203.96295594999839
 20
183.88883732479451
 30
0.0
 11
203.96295594999839
 21
173.37951146598331
 31
0.0
  0
POLYLINE
  5
172BD
  8
AM_0
 66
     1
 10
0.0
 20
0.0
 30
0.0
  0
VERTEX
  5
172BE
  8
AM_0
 10
672.63764176226664
 20
260.37951144231289
 30
0.0
 42
0.00039106649
  0
VERTEX
  5
172BF
  8
AM_0
 10
672.64000176226682
 20
260.69064144231288
 30
0.0
 42
0.00035488198
  0
VERTEX
  5
172C0
  8
AM_0
 10
672.64189176226682
 20
261.00175144231281
 30
0.0
 42
0.00039706113
  0
VERTEX
  5
172C1
  8
AM_0
 10
672.64332176226674
 20
261.31286144231291
 30
0.0
 42
0.00038765718
  0
VERTEX
  5
172C2
  8
AM_0
 10
672.64425176226666
 20
261.62400144231287
 30
0.0
 42
0.00040613432
  0
VERTEX
  5
172C3
  8
AM_0
 10
672.64470176226678
 20
261.93510144231283
 30
0.0
 42
0.00035573434
  0
VERTEX
  5
172C4
  8
AM_0
 10
672.64466176226665
 20
262.24621144231293
 30
0.0
 42
0.00038545884
  0
VERTEX
  5
172C5
  8
AM_0
 10
672.64417176226675
 20
262.55734144231269
 30
0.0
 42
0.00035501205
  0
VERTEX
  5
172C6
  8
AM_0
 10
672.64321176226679
 20
262.86845144231279
 30
0.0
 42
0.00040120779
  0
VERTEX
  5
172C7
  8
AM_0
 10
672.64179176226685
 20
263.17968144231293
 30
0.0
 42
0.00038317817
  0
VERTEX
  5
172C8
  8
AM_0
 10
672.63988176226667
 20
263.4908114423128
 30
0.0
 42
0.00035656084
  0
VERTEX
  5
172C9
  8
AM_0
 10
672.63750176226665
 20
263.80205144231292
 30
0.0
 42
0.00040143615
  0
VERTEX
  5
172CA
  8
AM_0
 10
672.63465176226646
 20
264.11315144231281
 30
0.0
  0
SEQEND
  5
172CB
  8
AM_0
  0
LINE
  5
172CC
  8
AM_0
 10
687.99763176226656
 20
223.1944514423129
 30
0.0
 11
687.99763176226656
 21
297.56554144231279
 31
0.0
  0
LINE
  5
172CD
  8
AM_0
 10
732.99763176226668
 20
225.85045144231279
 30
0.0
 11
732.99763176226668
 21
294.90856144231299
 31
0.0
  0
LINE
  5
172CE
  8
AM_0
 10
739.49760176226664
 20
255.37951144231289
 30
0.0
 11
739.49760176226664
 21
265.37951144231289
 31
0.0
  0
LINE
  5
172CF
  8
AM_0
 10
682.99763176226668
 20
319.12951144231289
 30
0.0
 11
682.99763176226668
 21
201.62951144231289
 31
0.0
  0
LINE
  5
172D0
  8
AM_0
 10
674.99763176226668
 20
313.37951144231289
 30
0.0
 11
674.99763176226668
 21
207.37951144231289
 31
0.0
  0
LINE
  5
172D1
  8
AM_0
 10
738.49906186226667
 20
316.37951144231289
 30
0.0
 11
738.49906186226713
 21
265.37951144231289
 31
0.0
  0
LINE
  5
172D2
  8
AM_0
 10
738.49906186226713
 20
255.37951144231289
 30
0.0
 11
738.49906186226667
 21
204.37951144231289
 31
0.0
  0
LINE
  5
172D3
  8
AM_0
 10
730.49763176226656
 20
207.597521442313
 30
0.0
 11
730.49763176226656
 21
313.12951144231272
 31
0.0
  0
LINE
  5
172D4
  8
AM_0
 10
566.99763176226668
 20
316.37951144231289
 30
0.0
 11
566.99763176226668
 21
204.37951144231289
 31
0.0
  0
LINE
  5
172D5
  8
AM_0
 10
682.29762176226677
 20
217.18957144231291
 30
0.0
 11
676.06764176226682
 21
217.18957144231291
 31
0.0
  0
LINE
  5
172D6
  8
AM_0
 10
682.99763176226668
 20
207.37951144231289
 30
0.0
 11
674.99763176226668
 21
207.37951144231289
 31
0.0
  0
LINE
  5
172D7
  8
AM_0
 10
730.49763176226656
 20
226.73852144231279
 30
0.0
 11
687.99763176226656
 21
226.73852144231279
 31
0.0
  0
ARC
  5
172D8
  8
AM_0
 10
728.4990618622669
 20
205.37951144231289
 30
0.0
 40
5.0
 50
270.00005000000499
 51
0.0000200000020129
  0
ARC
  5
172D9
  8
AM_0
 10
729.49906186226667
 20
204.37951144231289
 30
0.0
 40
9.0
 50
270.00005000000499
 51
0.0000200000020129
  0
LINE
  5
172DA
  8
AM_0
 10
730.99763176226656
 20
207.62951144231289
 30
0.0
 11
682.99763176226668
 21
207.62951144231289
 31
0.0
  0
LINE
  5
172DB
  8
AM_0
 10
730.49763176226656
 20
216.48852144231279
 30
0.0
 11
687.99763176226656
 21
216.48852144231279
 31
0.0
  0
LINE
  5
172DC
  8
AM_0
 10
732.99763176226668
 20
217.12658144231281
 30
0.0
 11
732.99763176226668
 21
209.62951144231289
 31
0.0
  0
ARC
  5
172DD
  8
AM_0
 10
730.99763176226656
 20
209.62951144231289
 30
0.0
 40
2.0
 50
270.00005000000499
 51
0.0000200000020129
  0
ARC
  5
172DE
  8
AM_0
 10
732.09760176226655
 20
222.98852144231279
 30
0.0
 40
3.0
 50
62.150326502797853
 51
90.000011000008925
  0
ARC
  5
172DF
  8
AM_0
 10
732.09760176226655
 20
219.98852144231279
 30
0.0
 40
3.0
 50
270.00005000000499
 51
297.84967349720222
  0
LINE
  5
172E0
  8
AM_0
 10
731.79762176226654
 20
226.0884914423128
 30
0.0
 11
730.49763176226656
 21
226.0884914423128
 31
0.0
  0
LINE
  5
172E1
  8
AM_0
 10
732.09760176226655
 20
225.98852144231279
 30
0.0
 11
731.79762176226654
 21
225.98852144231279
 31
0.0
  0
LINE
  5
172E2
  8
AM_0
 10
731.79762176226654
 20
216.8885414423128
 30
0.0
 11
730.49763176226656
 21
216.8885414423128
 31
0.0
  0
LINE
  5
172E3
  8
AM_0
 10
732.09760176226655
 20
216.98852144231279
 30
0.0
 11
731.79762176226654
 21
216.98852144231279
 31
0.0
  0
LINE
  5
172E4
  8
AM_0
 10
731.79762176226654
 20
226.0884914423128
 30
0.0
 11
731.79762176226654
 21
216.8885414423128
 31
0.0
  0
LINE
  5
172E5
  8
AM_0
 10
732.99763176226668
 20
255.37951144231289
 30
0.0
 11
739.49760176226664
 21
255.37951144231289
 31
0.0
  0
LINE
  5
172E6
  8
AM_0
 10
687.99763176226656
 20
216.48852144231279
 30
0.0
 11
687.99763176226656
 21
207.62951144231289
 31
0.0
  0
LINE
  5
172E7
  8
AM_0
 10
707.99763176226668
 20
201.62951144231289
 30
0.0
 11
682.99763176226668
 21
201.62951144231289
 31
0.0
  0
LINE
  5
172E8
  8
AM_0
 10
729.49906186226667
 20
195.37951144231289
 30
0.0
 11
691.99763176226656
 21
195.37951144231289
 31
0.0
  0
LINE
  5
172E9
  8
AM_0
 10
728.4990618622669
 20
200.37951144231289
 30
0.0
 11
704.99763176226656
 21
200.37951144231289
 31
0.0
  0
LINE
  5
172EA
  8
AM_0
 10
707.99763176226668
 20
201.62951144231289
 30
0.0
 11
707.99763176226668
 21
207.62951144231289
 31
0.0
  0
LINE
  5
172EB
  8
AM_0
 10
694.99763176226668
 20
200.37951144231289
 30
0.0
 11
691.99763176226656
 21
200.37951144231289
 31
0.0
  0
LINE
  5
172EC
  8
AM_0
 10
704.99763176226656
 20
201.62951144231289
 30
0.0
 11
704.99763176226656
 21
195.37951144231289
 31
0.0
  0
LINE
  5
172ED
  8
AM_0
 10
694.99763176226668
 20
201.62951144231289
 30
0.0
 11
694.99763176226668
 21
195.37951144231289
 31
0.0
  0
LINE
  5
172EE
  8
AM_0
 10
691.99763176226656
 20
200.37951144231289
 30
0.0
 11
691.99763176226656
 21
195.37951144231289
 31
0.0
  0
LINE
  5
172EF
  8
AM_0
 10
573.65760176226672
 20
226.37951144231289
 30
0.0
 11
617.99763176226668
 21
226.37951144231289
 31
0.0
  0
LINE
  5
172F0
  8
AM_0
 10
573.65760176226672
 20
224.37951144231289
 30
0.0
 11
617.99763176226668
 21
224.37951144231289
 31
0.0
  0
LINE
  5
172F1
  8
AM_0
 10
617.99763176226668
 20
223.65954144231279
 30
0.0
 11
570.17762176226677
 21
223.65954144231279
 31
0.0
  0
LINE
  5
172F2
  8
AM_0
 10
570.17762176226677
 20
227.0095114423128
 30
0.0
 11
588.01765176226672
 21
227.0095114423128
 31
0.0
  0
LINE
  5
172F3
  8
AM_0
 10
573.66480176226673
 20
234.37951144231289
 30
0.0
 11
587.99763176226668
 21
234.37951144231289
 31
0.0
  0
LINE
  5
172F4
  8
AM_0
 10
587.99763176226668
 20
233.89953144231279
 30
0.0
 11
569.96339176226672
 21
233.89953144231279
 31
0.0
  0
LINE
  5
172F5
  8
AM_0
 10
573.66480176226673
 20
236.37951144231289
 30
0.0
 11
672.63764176226664
 21
236.37951144231289
 31
0.0
  0
LINE
  5
172F6
  8
AM_0
 10
673.53761176226681
 20
236.8194514423129
 30
0.0
 11
569.96339176226672
 21
236.8194514423129
 31
0.0
  0
LINE
  5
172F7
  8
AM_0
 10
581.22034306484068
 20
190.87951144231289
 30
0.0
 11
591.89546933068766
 21
190.87951144231289
 31
0.0
  0
LINE
  5
172F8
  8
AM_0
 10
586.09546933068657
 20
169.87951144231289
 30
0.0
 11
580.72034306484068
 21
169.87951144231289
 31
0.0
  0
LINE
  5
172F9
  8
AM_0
 10
580.22034306484079
 20
173.87951144231289
 30
0.0
 11
588.59546933068771
 21
173.87951144231289
 31
0.0
  0
LINE
  5
172FA
  8
AM_0
 10
584.49763176226668
 20
193.37951144231289
 30
0.0
 11
651.49763176226679
 21
193.37951144231289
 31
0.0
  0
LINE
  5
172FB
  8
AM_0
 10
586.41855107648166
 20
197.8795114423128
 30
0.0
 11
574.98145176226672
 21
197.8795114423128
 31
0.0
  0
LINE
  5
172FC
  8
AM_0
 10
671.78761176226681
 20
204.09948144231279
 30
0.0
 11
574.86762176226682
 21
204.09948144231279
 31
0.0
  0
LINE
  5
172FD
  8
ﾁｭｳｼﾝｾﾝ1
 10
652.39546933068755
 20
185.87952644231279
 30
0.0
 11
652.39546933068755
 21
161.87952644231279
 31
0.0
  0
LINE
  5
172FE
  8
AM_0
 10
595.99546933068666
 20
168.56530621501591
 30
0.0
 11
595.99546933068666
 21
172.61869886039969
 31
0.0
  0
LINE
  5
172FF
  8
AM_0
 10
619.39546933068584
 20
169.64567801105181
 30
0.0
 11
619.39546933068584
 21
183.16813526311489
 31
0.0
  0
LINE
  5
17300
  8
AM_0
 10
617.69211528521191
 20
185.87951144231289
 30
0.0
 11
617.69211528521191
 21
169.93589560726701
 31
0.0
  0
LINE
  5
17301
  8
AM_0
 10
623.59882337616682
 20
168.92951021824391
 30
0.0
 11
623.59882337616682
 21
185.87951144231289
 31
0.0
  0
LINE
  5
17302
  8
AM_0
 10
621.39546933068857
 20
185.87951144231289
 30
0.0
 11
621.39546933068857
 21
169.30491785377791
 31
0.0
  0
ARC
  5
17303
  8
AM_0
 10
652.39546933068755
 20
173.87951144231289
 30
0.0
 40
9.3000000000000007
 50
180.0
 51
0.0
  0
CIRCLE
  5
17304
  8
AM_0
 10
652.39546933068755
 20
173.87951144231289
 30
0.0
 40
6.299999999999998
  0
LINE
  5
17305
  8
AM_0
 10
667.49546933068791
 20
189.87951144231289
 30
0.0
 11
667.49546933068791
 21
166.87951144231289
 31
0.0
  0
LINE
  5
17306
  8
AM_0
 10
630.9988233761668
 20
167.66869763633079
 30
0.0
 11
630.9988233761668
 21
185.879511442314
 31
0.0
  0
LINE
  5
17307
  8
AM_0
 10
628.79882337616687
 20
185.87951144231289
 30
0.0
 11
628.79882337616573
 21
168.0435338093319
 31
0.0
  0
LINE
  5
17308
  8
AM_0
 10
627.29882337616675
 20
168.29910392728789
 30
0.0
 11
627.29882337616675
 21
185.87951144231289
 31
0.0
  0
LINE
  5
17309
  8
AM_0
 10
625.09882337616682
 20
185.87951144231289
 30
0.0
 11
625.09882337616682
 21
168.6739401002888
 31
0.0
  0
LINE
  5
1730A
  8
AM_0
 10
632.99882337616668
 20
183.16813526311489
 30
0.0
 11
632.99882337616668
 21
167.3279374790568
 31
0.0
  0
LINE
  5
1730B
  8
AM_0
 10
664.89546933068755
 20
160.87951144231289
 30
0.0
 11
588.59546933068771
 21
173.87951144231289
 31
0.0
  0
LINE
  5
1730C
  8
AM_0
 10
664.89546933068755
 20
160.87951144231289
 30
0.0
 11
588.59546933068771
 21
173.87951144231289
 31
0.0
  0
LINE
  5
1730D
  8
AM_0
 10
664.97689311489876
 20
161.87951144231289
 30
0.0
 11
632.99882337616668
 21
167.3279374790568
 31
0.0
  0
LINE
  5
1730E
  8
AM_0
 10
589.09546933068657
 20
156.87951144231289
 30
0.0
 11
664.5697741938468
 21
156.87951144231289
 31
0.0
  0
LINE
  5
1730F
  8
AM_0
 10
588.26977419384673
 20
169.87951144231289
 30
0.0
 11
664.5697741938468
 21
156.87951144231289
 31
0.0
  0
ARC
  5
17310
  8
AM_0
 10
669.19546933068659
 20
165.57951144231379
 30
0.0
 40
0.3
 50
0.0
 51
90.0
  0
ARC
  5
17311
  8
AM_0
 10
667.99546933068677
 20
158.379511442314
 30
0.0
 40
1.5
 50
270.00000000001302
 51
359.99999999999352
  0
LINE
  5
17312
  8
AM_0
 10
669.49546933068666
 20
165.57951144231379
 30
0.0
 11
669.49546933068666
 21
158.37951144231289
 31
0.0
  0
LINE
  5
17313
  8
AM_0
 10
668.99546933068791
 20
160.57951144231379
 30
0.0
 11
668.99546933068791
 21
158.37951144231289
 31
0.0
  0
LINE
  5
17314
  8
AM_0
 10
667.99546933068677
 20
156.87951144231289
 30
0.0
 11
667.69698343452956
 21
156.879511442314
 31
0.0
  0
ARC
  5
17315
  8
AM_0
 10
667.49546933068791
 20
158.37951144231289
 30
0.0
 40
1.5
 50
270.0
 51
0.0
  0
LINE
  5
17316
  8
AM_0
 10
667.49546933068791
 20
156.87951144231289
 30
0.0
 11
664.5697741938468
 21
156.87951144231289
 31
0.0
  0
ARC
  5
17317
  8
AM_0
 10
668.29546933068787
 20
165.57951144231379
 30
0.0
 40
0.3
 50
90.0
 51
180.0
  0
LINE
  5
17318
  8
AM_0
 10
667.59546933068771
 20
166.87951144231289
 30
0.0
 11
667.49546933068791
 21
166.87951144231289
 31
0.0
  0
LINE
  5
17319
  8
AM_0
 10
667.79546933068787
 20
166.6795114423137
 30
0.0
 11
667.59546933068771
 21
166.87951144231289
 31
0.0
  0
LINE
  5
1731A
  8
AM_0
 10
667.99546933068768
 20
164.07515412302891
 30
0.0
 11
667.79546933068787
 21
164.07515412302891
 31
0.0
  0
LINE
  5
1731B
  8
AM_0
 10
667.79546933068787
 20
164.07515412302891
 30
0.0
 11
667.79546933068787
 21
166.6795114423137
 31
0.0
  0
LINE
  5
1731C
  8
AM_0
 10
668.69546933068784
 20
165.87951144231289
 30
0.0
 11
669.19546933068659
 21
165.87951144231289
 31
0.0
  0
LINE
  5
1731D
  8
AM_0
 10
668.29546933068787
 20
165.87951144231289
 30
0.0
 11
668.69546933068784
 21
165.87951144231289
 31
0.0
  0
LINE
  5
1731E
  8
AM_0
 10
667.79546933068787
 20
161.87951144231289
 30
0.0
 11
667.79546933068787
 21
162.87515412302881
 31
0.0
  0
LINE
  5
1731F
  8
AM_0
 10
668.99546933068791
 20
161.57951144231379
 30
0.0
 11
668.99546933068791
 21
160.87951144231289
 31
0.0
  0
ARC
  5
17320
  8
AM_0
 10
668.69546933068784
 20
160.57951144231379
 30
0.0
 40
0.3
 50
0.0
 51
90.0
  0
ARC
  5
17321
  8
AM_0
 10
668.69546933068784
 20
161.57951144231379
 30
0.0
 40
0.3
 50
0.0
 51
90.0
  0
LINE
  5
17322
  8
AM_0
 10
667.79546933068787
 20
162.87515412302881
 30
0.0
 11
667.99546933068768
 21
162.87515412302881
 31
0.0
  0
LINE
  5
17323
  8
AM_0
 10
668.99546933068791
 20
160.87951144231289
 30
0.0
 11
664.89546933068755
 21
160.87951144231289
 31
0.0
  0
LINE
  5
17324
  8
AM_0
 10
668.69546933068784
 20
160.87951144231289
 30
0.0
 11
664.89546933068755
 21
160.87951144231289
 31
0.0
  0
LINE
  5
17325
  8
AM_0
 10
664.97689311489876
 20
161.87951144231289
 30
0.0
 11
668.69546933068784
 21
161.87951144231289
 31
0.0
  0
LINE
  5
17326
  8
AM_0
 10
667.49546933068791
 20
166.87951144231289
 30
0.0
 11
667.49546933068871
 21
161.87951144231289
 31
0.0
  0
LINE
  5
17327
  8
AM_0
 10
667.99546933068768
 20
161.87951144231289
 30
0.0
 11
667.99546933068768
 21
165.57951144231379
 31
0.0
  0
LINE
  5
17328
  8
AM_0
 10
667.79546933068787
 20
162.87515412302881
 30
0.0
 11
667.79546933068787
 21
164.07515412302891
 31
0.0
  0
LINE
  5
17329
  8
AM_0
 10
627.29882337616675
 20
168.29910392728789
 30
0.0
 11
625.09882337616682
 21
168.6739401002888
 31
0.0
  0
LINE
  5
1732A
  8
AM_0
 10
630.9988233761668
 20
167.66869763633079
 30
0.0
 11
628.79882337616573
 21
168.0435338093319
 31
0.0
  0
LINE
  5
1732B
  8
AM_0
 10
623.59882337616682
 20
168.92951021824391
 30
0.0
 11
621.39546933068857
 21
169.30491785377791
 31
0.0
  0
LINE
  5
1732C
  8
AM_0
 10
619.39546933068584
 20
169.64567801105181
 30
0.0
 11
617.69211528521191
 21
169.93589560726701
 31
0.0
  0
LINE
  5
1732D
  8
AM_0
 10
596.8653178116698
 20
156.87951144231289
 30
0.0
 11
596.8653178116698
 21
168.415002044781
 31
0.0
  0
ARC
  5
1732E
  8
AM_0
 10
589.09546933068657
 20
159.37951144231289
 30
0.0
 40
2.5
 50
180.0
 51
270.0
  0
ARC
  5
1732F
  8
AM_0
 10
586.09546933068657
 20
169.37951144231289
 30
0.0
 40
0.5
 50
0.0
 51
90.0
  0
LINE
  5
17330
  8
AM_0
 10
586.09546933068657
 20
169.87951144231289
 30
0.0
 11
588.26977419384673
 21
169.87951144231289
 31
0.0
  0
LINE
  5
17331
  8
AM_0
 10
586.59546933068668
 20
169.37951144231289
 30
0.0
 11
586.59546933068668
 21
159.37951144231289
 31
0.0
  0
LINE
  5
17332
  8
AM_0
 10
605.99763176226679
 20
234.37951144231289
 30
0.0
 11
672.63764176226664
 21
234.37951144231289
 31
0.0
  0
LINE
  5
17333
  8
AM_0
 10
617.99763176226668
 20
226.37951144231289
 30
0.0
 11
672.63764176226664
 21
226.37951144231289
 31
0.0
  0
LINE
  5
17334
  8
AM_0
 10
617.99763176226668
 20
224.37951144231289
 30
0.0
 11
672.63764176226664
 21
224.37951144231289
 31
0.0
  0
LINE
  5
17335
  8
AM_0
 10
673.53761176226681
 20
233.8895214423128
 30
0.0
 11
605.99763176226679
 21
233.8895214423128
 31
0.0
  0
LINE
  5
17336
  8
AM_0
 10
673.31764176226682
 20
223.65954144231279
 30
0.0
 11
617.99763176226668
 21
223.65954144231279
 31
0.0
  0
LINE
  5
17337
  8
AM_0
 10
673.31764176226682
 20
227.0095114423128
 30
0.0
 11
605.97761176226675
 21
227.0095114423128
 31
0.0
  0
LINE
  5
17338
  8
AM_0
 10
599.09546933068771
 20
190.87951144231289
 30
0.0
 11
636.89546933068755
 21
190.87951144231289
 31
0.0
  0
LINE
  5
17339
  8
AM_0
 10
669.63764176226664
 20
223.7295114423128
 30
0.0
 11
674.99763176226668
 21
212.289511442313
 31
0.0
  0
LINE
  5
1733A
  8
ﾁｭｳｼﾝｾﾝ1
 10
664.39546933067845
 20
173.87951144231289
 30
0.0
 11
640.3954693306971
 21
173.87951144231289
 31
0.0
  0
LINE
  5
1733B
  8
AM_0
 10
672.09138176226668
 20
201.24950144231281
 30
0.0
 11
649.66498156359989
 21
201.24950144231281
 31
0.0
  0
LINE
  5
1733C
  8
AM_0
 10
661.69546933068807
 20
190.87951144231289
 30
0.0
 11
644.09546933068771
 21
190.87951144231289
 31
0.0
  0
LINE
  5
1733D
  8
AM_0
 10
661.69546933068807
 20
190.87951144231289
 30
0.0
 11
661.69546933068807
 21
173.87951144231289
 31
0.0
  0
LINE
  5
1733E
  8
AM_0
 10
666.49546933068791
 20
190.87951144231289
 30
0.0
 11
661.69546933068807
 21
190.87951144231289
 31
0.0
  0
ARC
  5
1733F
  8
AM_0
 10
666.49546933068791
 20
189.87951144231289
 30
0.0
 40
1.0
 50
0.0
 51
90.0
  0
LINE
  5
17340
  8
AM_0
 10
674.99763176226668
 20
210.93944144231281
 30
0.0
 11
673.71766176226674
 21
202.9395014423128
 31
0.0
  0
LINE
  5
17341
  8
AM_0
 10
674.99763176226668
 20
209.59945144231281
 30
0.0
 11
673.98841176226665
 21
202.9494214423128
 31
0.0
  0
LINE
  5
17342
  8
AM_0
 10
674.99763176226668
 20
209.59951144231289
 30
0.0
 11
674.0721517622668
 21
202.97289144231291
 31
0.0
  0
ARC
  5
17343
  8
AM_0
 10
671.7927917622668
 20
206.09875144231279
 30
0.0
 40
1.9992490000000001
 50
269.85256999999859
 51
349.35689999999892
  0
ARC
  5
17344
  8
AM_0
 10
671.74146176226645
 20
203.24987144231281
 30
0.0
 40
2.000420099999999
 50
270.17729000000389
 51
351.07317999999839
  0
ARC
  5
17345
  8
AM_0
 10
672.01100176226657
 20
203.24950144231281
 30
0.0
 40
2.0
 50
270.000010000001
 51
351.37037999999581
  0
ARC
  5
17346
  8
AM_0
 10
672.09138176226668
 20
203.24950144231281
 30
0.0
 40
2.0
 50
270.000010000001
 51
352.04955999999657
  0
LINE
  5
17347
  8
AM_0
 10
674.99763176226668
 20
212.2894514423129
 30
0.0
 11
673.75764176226664
 21
205.72945144231301
 31
0.0
  0
LINE
  5
17348
  8
AM_0
 10
651.49763176226679
 20
190.87951144231289
 30
0.0
 11
651.49763176226679
 21
193.37951144231289
 31
0.0
  0
LINE
  5
17349
  8
AM_0
 10
643.09546933068771
 20
190.87951144231289
 30
0.0
 11
643.09546933068771
 21
173.87951144231289
 31
0.0
  0
CIRCLE
  5
1734A
  8
AM_0
 10
637.89546933068766
 20
173.87951144231289
 30
0.0
 40
0.75
  0
LINE
  5
1734B
  8
AM_0
 10
636.89546933068755
 20
190.87951144231289
 30
0.0
 11
643.09546933068771
 21
190.87951144231289
 31
0.0
  0
LINE
  5
1734C
  8
AM_0
 10
644.09546933068771
 20
190.87951144231289
 30
0.0
 11
643.09546933068771
 21
190.87951144231289
 31
0.0
  0
LINE
  5
1734D
  8
AM_0
 10
647.99769176226664
 20
193.37948144231271
 30
0.0
 11
648.27835594960573
 21
204.09948144231279
 31
0.0
  0
ARC
  5
1734E
  8
AM_0
 10
649.66498156359989
 20
199.74950144231281
 30
0.0
 40
1.5
 50
90.0
 51
178.50026113613271
1001
GENIUS_GENODEF_13
1002
{
1000
HIER
1070
     0
1002
}
1002
{
1000
MANEDIT
1070
     0
1002
}
1002
{
1000
NOSEL
1070
     0
1002
}
1002
{
1000
BEHIND
1070
     0
1002
}
1002
{
1000
REACTOR
1002
}
1001
GENIUS_GENOBJ-N-FIL_13
1002
{
1000
OWNER
1000
GEN
1002
}
  0
LINE
  5
1734F
  8
AM_0
 10
638.55891176226646
 20
256.37951144231289
 30
0.0
 11
672.63764176226664
 21
256.37951144231289
 31
0.0
  0
LINE
  5
17350
  8
AM_0
 10
638.55891176226646
 20
254.37951144231289
 30
0.0
 11
672.63764176226664
 21
254.37951144231289
 31
0.0
  0
LINE
  5
17351
  8
AM_0
 10
638.55891176226646
 20
246.37951144231289
 30
0.0
 11
672.63764176226664
 21
246.37951144231289
 31
0.0
  0
LINE
  5
17352
  8
AM_0
 10
638.55891176226646
 20
244.37951144231289
 30
0.0
 11
672.63764176226664
 21
244.37951144231289
 31
0.0
  0
LINE
  5
17353
  8
AM_0
 10
673.6676117622668
 20
244.0395414423129
 30
0.0
 11
637.32636176226674
 21
244.0395414423129
 31
0.0
  0
LINE
  5
17354
  8
AM_0
 10
673.72761176226675
 20
256.64953144231282
 30
0.0
 11
637.27894176226664
 21
256.64953144231282
 31
0.0
  0
LINE
  5
17355
  8
AM_0
 10
673.72761176226675
 20
254.10949144231299
 30
0.0
 11
637.27894176226664
 21
254.10949144231299
 31
0.0
  0
LINE
  5
17356
  8
AM_0
 10
673.6676117622668
 20
246.69945144231301
 30
0.0
 11
637.33894176226681
 21
246.69945144231301
 31
0.0
  0
POLYLINE
  5
17357
  8
AM_0
 66
     1
 10
0.0
 20
0.0
 30
0.0
  0
VERTEX
  5
17358
  8
AM_0
 10
672.11939176226679
 20
244.0389314423129
 30
0.0
 42
-0.00073721992
  0
VERTEX
  5
17359
  8
AM_0
 10
672.07524176226673
 20
243.43652144231291
 30
0.0
 42
-0.00074398496
  0
VERTEX
  5
1735A
  8
AM_0
 10
672.02931176226673
 20
242.83425144231279
 30
0.0
 42
-0.00073322625
  0
VERTEX
  5
1735B
  8
AM_0
 10
671.98158176226661
 20
242.2319214423128
 30
0.0
 42
-0.00073594289
  0
VERTEX
  5
1735C
  8
AM_0
 10
671.93210176226683
 20
241.62993144231271
 30
0.0
 42
-0.00074742568
  0
VERTEX
  5
1735D
  8
AM_0
 10
671.88083176226667
 20
241.02807144231269
 30
0.0
 42
-0.00073216749
  0
VERTEX
  5
1735E
  8
AM_0
 10
671.82777176226682
 20
240.42626144231281
 30
0.0
 42
-0.00074184065
  0
VERTEX
  5
1735F
  8
AM_0
 10
671.77295176226664
 20
239.82473144231301
 30
0.0
 42
-0.00072077528
  0
VERTEX
  5
17360
  8
AM_0
 10
671.71637176226682
 20
239.22350144231299
 30
0.0
 42
-0.00074978179
  0
VERTEX
  5
17361
  8
AM_0
 10
671.65803176226677
 20
238.6223014423129
 30
0.0
 42
-0.00074288888
  0
VERTEX
  5
17362
  8
AM_0
 10
671.59788176226675
 20
238.02128144231281
 30
0.0
 42
-0.00072503679
  0
VERTEX
  5
17363
  8
AM_0
 10
671.53597176226674
 20
237.42054144231281
 30
0.0
 42
-0.00074640584
  0
VERTEX
  5
17364
  8
AM_0
 10
671.47230176226674
 20
236.81994144231271
 30
0.0
  0
SEQEND
  5
17365
  8
AM_0
  0
ARC
  5
17366
  8
AM_0
 10
673.32447176226674
 20
225.33446144231289
 30
0.0
 40
1.675014
 50
269.7664900000006
 51
90.233501000009724
  0
ARC
  5
17367
  8
AM_0
 10
672.45301176226656
 20
225.37951144231289
 30
0.0
 40
1.0000138999999999
 50
269.69165999999939
 51
90.308340000000754
  0
POLYLINE
  5
17368
  8
AM_0
 66
     1
 10
0.0
 20
0.0
 30
0.0
  0
VERTEX
  5
17369
  8
AM_0
 10
671.13673176226655
 20
233.89647144231279
 30
0.0
 42
-0.00068900015
  0
VERTEX
  5
1736A
  8
AM_0
 10
671.06585176226667
 20
233.32172144231279
 30
0.0
 42
-0.00070644648
  0
VERTEX
  5
1736B
  8
AM_0
 10
670.99335176226646
 20
232.74704144231291
 30
0.0
 42
-0.00069245587
  0
VERTEX
  5
1736C
  8
AM_0
 10
670.91926176226673
 20
232.17272144231299
 30
0.0
 42
-0.00069587802
  0
VERTEX
  5
1736D
  8
AM_0
 10
670.84358176226669
 20
231.59858144231279
 30
0.0
 42
-0.00068980012
  0
VERTEX
  5
1736E
  8
AM_0
 10
670.76628176226677
 20
231.02458144231289
 30
0.0
 42
-0.00072079193
  0
VERTEX
  5
1736F
  8
AM_0
 10
670.68739176226666
 20
230.45080144231301
 30
0.0
 42
-0.00071003147
  0
VERTEX
  5
17370
  8
AM_0
 10
670.60685176226673
 20
229.87732144231271
 30
0.0
 42
-0.00072658712
  0
VERTEX
  5
17371
  8
AM_0
 10
670.52469176226646
 20
229.3042314423129
 30
0.0
 42
-0.00069571059
  0
VERTEX
  5
17372
  8
AM_0
 10
670.44087176226674
 20
228.73119144231291
 30
0.0
 42
-0.0007126617
  0
VERTEX
  5
17373
  8
AM_0
 10
670.35544176226665
 20
228.1584314423128
 30
0.0
 42
-0.00071614574
  0
VERTEX
  5
17374
  8
AM_0
 10
670.26841176226674
 20
227.586081442313
 30
0.0
 42
-0.00072290803
  0
VERTEX
  5
17375
  8
AM_0
 10
670.17970176226675
 20
227.0137814423129
 30
0.0
  0
SEQEND
  5
17376
  8
AM_0
  0
ARC
  5
17377
  8
AM_0
 10
673.53761176226681
 20
235.3544814423129
 30
0.0
 40
1.465004
 50
270.0
 51
89.999997000002296
  0
ARC
  5
17378
  8
AM_0
 10
672.45301176226656
 20
235.37951144231289
 30
0.0
 40
1.0000138999999999
 50
269.69165999999939
 51
90.308340000000754
  0
POLYLINE
  5
17379
  8
AM_0
 66
     1
 10
0.0
 20
0.0
 30
0.0
  0
VERTEX
  5
1737A
  8
AM_0
 10
672.59358176226681
 20
254.1091214423127
 30
0.0
 42
-0.00076695235
  0
VERTEX
  5
1737B
  8
AM_0
 10
672.57878176226666
 20
253.49136144231289
 30
0.0
 42
-0.00073263043
  0
VERTEX
  5
1737C
  8
AM_0
 10
672.56214176226672
 20
252.8737614423128
 30
0.0
 42
-0.00076525988
  0
VERTEX
  5
1737D
  8
AM_0
 10
672.54365176226679
 20
252.25609144231279
 30
0.0
 42
-0.00075144488
  0
VERTEX
  5
1737E
  8
AM_0
 10
672.52328176226672
 20
251.63849144231301
 30
0.0
 42
-0.00076035096
  0
VERTEX
  5
1737F
  8
AM_0
 10
672.50104176226682
 20
251.02106144231291
 30
0.0
 42
-0.00075543154
  0
VERTEX
  5
17380
  8
AM_0
 10
672.47694176226673
 20
250.4036814423128
 30
0.0
 42
-0.0007577325
  0
VERTEX
  5
17381
  8
AM_0
 10
672.45096176226673
 20
249.78628144231291
 30
0.0
 42
-0.00076034585
  0
VERTEX
  5
17382
  8
AM_0
 10
672.42311176226656
 20
249.1688914423128
 30
0.0
 42
-0.00074823143
  0
VERTEX
  5
17383
  8
AM_0
 10
672.3933817622667
 20
248.55150144231291
 30
0.0
 42
-0.00074896605
  0
VERTEX
  5
17384
  8
AM_0
 10
672.3618217622668
 20
247.93437144231291
 30
0.0
 42
-0.00076039763
  0
VERTEX
  5
17385
  8
AM_0
 10
672.32840176226682
 20
247.31734144231299
 30
0.0
 42
-0.00075616127
  0
VERTEX
  5
17386
  8
AM_0
 10
672.29310176226682
 20
246.7003114423128
 30
0.0
  0
SEQEND
  5
17387
  8
AM_0
  0
ARC
  5
17388
  8
AM_0
 10
673.6676117622668
 20
245.3695014423129
 30
0.0
 40
1.3300049999999981
 50
270.0
 51
89.999997000002296
  0
ARC
  5
17389
  8
AM_0
 10
672.45301176226656
 20
245.37951144231289
 30
0.0
 40
1.0000138999999999
 50
269.69165999999939
 51
90.308340000000754
  0
POLYLINE
  5
1738A
  8
AM_0
 66
     1
 10
0.0
 20
0.0
 30
0.0
  0
VERTEX
  5
1738B
  8
AM_0
 10
672.63764176226664
 20
260.37951144231289
 30
0.0
 42
-0.00039106589
  0
VERTEX
  5
1738C
  8
AM_0
 10
672.64000176226682
 20
260.06837144231292
 30
0.0
 42
-0.00035488584
  0
VERTEX
  5
1738D
  8
AM_0
 10
672.64189176226682
 20
259.75726144231282
 30
0.0
 42
-0.00039705232
  0
VERTEX
  5
1738E
  8
AM_0
 10
672.64332176226674
 20
259.44616144231293
 30
0.0
 42
-0.0003876649
  0
VERTEX
  5
1738F
  8
AM_0
 10
672.64425176226666
 20
259.13502144231279
 30
0.0
 42
-0.00040613779
  0
VERTEX
  5
17390
  8
AM_0
 10
672.64470176226678
 20
258.82391144231298
 30
0.0
 42
-0.00035571855
  0
VERTEX
  5
17391
  8
AM_0
 10
672.64466176226665
 20
258.5128114423128
 30
0.0
 42
-0.00038547358
  0
VERTEX
  5
17392
  8
AM_0
 10
672.64417176226675
 20
258.20167144231277
 30
0.0
 42
-0.000355015
  0
VERTEX
  5
17393
  8
AM_0
 10
672.64321176226679
 20
257.89057144231288
 30
0.0
 42
-0.00040118616
  0
VERTEX
  5
17394
  8
AM_0
 10
672.64179176226685
 20
257.57934144231291
 30
0.0
 42
-0.00038319867
  0
VERTEX
  5
17395
  8
AM_0
 10
672.63988176226667
 20
257.26820144231289
 30
0.0
 42
-0.00035656356
  0
VERTEX
  5
17396
  8
AM_0
 10
672.63750176226665
 20
256.95697144231292
 30
0.0
 42
-0.00040140992
  0
VERTEX
  5
17397
  8
AM_0
 10
672.63465176226646
 20
256.64586144231282
 30
0.0
  0
SEQEND
  5
17398
  8
AM_0
  0
ARC
  5
17399
  8
AM_0
 10
673.73347176226673
 20
255.37951144231289
 30
0.0
 40
1.2700129999999981
 50
269.73663000000079
 51
90.263383000004936
  0
ARC
  5
1739A
  8
AM_0
 10
672.45301176226656
 20
255.37951144231289
 30
0.0
 40
1.0000138999999999
 50
269.69165999999939
 51
90.308340000000754
  0
ARC
  5
1739B
  8
AM_0
 10
638.55891176226646
 20
245.37951144231289
 30
0.0
 40
1.000005699999998
 50
89.999997000002296
 51
270.000010000001
  0
ARC
  5
1739C
  8
AM_0
 10
637.33265176226666
 20
245.3695014423129
 30
0.0
 40
1.3300148000000001
 50
89.729432999998977
 51
270.27058000000142
  0
ARC
  5
1739D
  8
AM_0
 10
638.55891176226646
 20
255.37951144231289
 30
0.0
 40
1.000005699999998
 50
89.999997000002296
 51
270.000010000001
  0
ARC
  5
1739E
  8
AM_0
 10
637.27070176226675
 20
255.37951144231289
 30
0.0
 40
1.2700266
 50
89.629329999988755
 51
270.37067999999999
  0
LINE
  5
1739F
  8
AM_0
 10
608.78540719425666
 20
181.87951144231289
 30
0.0
 11
610.28540719425678
 21
181.87951144231289
 31
0.0
  0
LINE
  5
173A0
  8
AM_0
 10
608.78540719425666
 20
185.87951144231289
 30
0.0
 11
610.28540719425678
 21
185.87951144231289
 31
0.0
  0
LINE
  5
173A1
  8
AM_0
 10
619.39546933068584
 20
181.87951144231289
 30
0.0
 11
621.39546933068857
 21
181.87951144231289
 31
0.0
  0
LINE
  5
173A2
  8
AM_0
 10
620.09546933068884
 20
185.87951144231289
 30
0.0
 11
621.39546933068857
 21
185.87951144231289
 31
0.0
  0
LINE
  5
173A3
  8
AM_0
 10
627.29882337616675
 20
181.87951144231289
 30
0.0
 11
628.79882337616687
 21
181.87951144231289
 31
0.0
  0
LINE
  5
173A4
  8
AM_0
 10
627.29882337616675
 20
185.87951144231289
 30
0.0
 11
628.79882337616687
 21
185.87951144231289
 31
0.0
  0
LINE
  5
173A5
  8
AM_0
 10
632.29882337616687
 20
185.87951144231289
 30
0.0
 11
632.29882337616687
 21
183.83548731971891
 31
0.0
  0
LINE
  5
173A6
  8
AM_0
 10
630.9988233761668
 20
185.879511442314
 30
0.0
 11
632.29882337616687
 21
185.87951144231289
 31
0.0
  0
LINE
  5
173A7
  8
AM_0
 10
630.9988233761668
 20
181.87951144231289
 30
0.0
 11
632.99882337616668
 21
181.87951144231289
 31
0.0
  0
LINE
  5
173A8
  8
AM_0
 10
632.29882337616687
 20
183.83548731971891
 30
0.0
 11
632.99882337616668
 21
183.16813526311489
 31
0.0
  0
LINE
  5
173A9
  8
AM_0
 10
623.59882337616682
 20
181.87951144231289
 30
0.0
 11
625.09882337616682
 21
181.87951144231289
 31
0.0
  0
LINE
  5
173AA
  8
AM_0
 10
623.59882337616682
 20
185.87951144231289
 30
0.0
 11
625.09882337616682
 21
185.87951144231289
 31
0.0
  0
LINE
  5
173AB
  8
AM_0
 10
616.19211528521168
 20
170.19146572522189
 30
0.0
 11
616.19211528521168
 21
185.87951144231289
 31
0.0
  0
LINE
  5
173AC
  8
AM_0
 10
613.98876123973378
 20
185.87951144231289
 30
0.0
 11
613.98876123973378
 21
170.56687336075589
 31
0.0
  0
LINE
  5
173AD
  8
AM_0
 10
612.48876123973366
 20
170.8224434787108
 30
0.0
 11
612.48876123973366
 21
185.87951144231289
 31
0.0
  0
LINE
  5
173AE
  8
AM_0
 10
610.28540719425678
 20
185.87951144231289
 30
0.0
 11
610.28540719425678
 21
171.1978511142438
 31
0.0
  0
LINE
  5
173AF
  8
AM_0
 10
616.19211528521168
 20
170.19146572522189
 30
0.0
 11
613.98876123973378
 21
170.56687336075589
 31
0.0
  0
LINE
  5
173B0
  8
AM_0
 10
612.48876123973366
 20
170.8224434787108
 30
0.0
 11
610.28540719425678
 21
171.1978511142438
 31
0.0
  0
LINE
  5
173B1
  8
AM_0
 10
616.19211528521168
 20
181.87951144231289
 30
0.0
 11
617.69211528521191
 21
181.87951144231289
 31
0.0
  0
LINE
  5
173B2
  8
AM_0
 10
616.19211528521168
 20
185.87951144231289
 30
0.0
 11
617.69211528521191
 21
185.87951144231289
 31
0.0
  0
LINE
  5
173B3
  8
AM_0
 10
619.39546933068584
 20
183.16813526311489
 30
0.0
 11
620.09546933068884
 21
183.83548731971891
 31
0.0
  0
LINE
  5
173B4
  8
AM_0
 10
620.09546933068884
 20
183.83548731971891
 30
0.0
 11
620.09546933068884
 21
185.87951144231289
 31
0.0
  0
LINE
  5
173B5
  8
AM_0
 10
612.48876123973366
 20
181.87951144231289
 30
0.0
 11
613.98876123973378
 21
181.87951144231289
 31
0.0
  0
LINE
  5
173B6
  8
AM_0
 10
612.48876123973366
 20
185.87951144231289
 30
0.0
 11
613.98876123973378
 21
185.87951144231289
 31
0.0
  0
LINE
  5
173B7
  8
AM_0
 10
591.89546933068766
 20
190.87951144231289
 30
0.0
 11
599.09546933068771
 21
190.87951144231289
 31
0.0
  0
LINE
  5
173B8
  8
AM_0
 10
605.08205314877966
 20
172.08439898568881
 30
0.0
 11
595.22034306484079
 21
173.76463792528469
 31
0.0
  0
LINE
  5
173B9
  8
AM_0
 10
606.58205314877978
 20
185.87951144231289
 30
0.0
 11
606.58205314877978
 21
171.82882886773271
 31
0.0
  0
LINE
  5
173BA
  8
AM_0
 10
608.78540719425666
 20
171.4534212321999
 30
0.0
 11
608.78540719425666
 21
185.87951144231289
 31
0.0
  0
LINE
  5
173BB
  8
AM_0
 10
605.08205314877966
 20
172.08439898568881
 30
0.0
 11
605.08205314877966
 21
185.87951144231289
 31
0.0
  0
CIRCLE
  5
173BC
  8
AM_0
 10
603.39546933068755
 20
173.87951144231289
 30
0.0
 40
0.75
  0
LINE
  5
173BD
  8
AM_0
 10
608.78540719425666
 20
171.4534212321999
 30
0.0
 11
606.58205314877978
 21
171.82882886773271
 31
0.0
  0
LINE
  5
173BE
  8
AM_0
 10
605.08205314877966
 20
181.87951144231289
 30
0.0
 11
606.58205314877978
 21
181.87951144231289
 31
0.0
  0
LINE
  5
173BF
  8
AM_0
 10
605.08205314877966
 20
185.87951144231289
 30
0.0
 11
606.58205314877978
 21
185.87951144231289
 31
0.0
  0
LINE
  5
173C0
  8
AM_0
 10
595.22034306484079
 20
173.76463792528469
 30
0.0
 11
595.22034306484079
 21
190.87951144231289
 31
0.0
  0
LINE
  5
173C1
  8
AM_0
 10
587.99763176226668
 20
193.37945144231281
 30
0.0
 11
587.71689263920371
 21
204.09948144231279
 31
0.0
  0
ARC
  5
173C2
  8
AM_0
 10
586.41855107648166
 20
196.37951144231289
 30
0.0
 40
1.5
 50
1.5001349063531439
 51
90.0
1001
GENIUS_GENODEF_13
1002
{
1000
HIER
1070
     0
1002
}
1002
{
1000
MANEDIT
1070
     0
1002
}
1002
{
1000
NOSEL
1070
     0
1002
}
1002
{
1000
BEHIND
1070
     0
1002
}
1002
{
1000
REACTOR
1002
}
1001
GENIUS_GENOBJ-N-FIL_13
1002
{
1000
OWNER
1000
GEN
1002
}
  0
ARC
  5
173C3
  8
AM_0
 10
605.99763176226679
 20
227.87951144231289
 30
0.0
 40
1.5
 50
179.99999931675049
 51
270.000010000001
  0
ARC
  5
173C4
  8
AM_0
 10
605.99763176226679
 20
232.87951144231289
 30
0.0
 40
1.02
 50
89.999997000002296
 51
180.0
  0
ARC
  5
173C5
  8
AM_0
 10
605.99763176226679
 20
232.87951144231289
 30
0.0
 40
1.5
 50
89.999997000002296
 51
180.0
  0
ARC
  5
173C6
  8
AM_0
 10
605.97761176226675
 20
228.01952144231271
 30
0.0
 40
1.0
 50
179.99999931675049
 51
270.000010000001
  0
LINE
  5
173C7
  8
AM_0
 10
604.49763176226668
 20
232.87951144231289
 30
0.0
 11
604.49763176226668
 21
227.87951144231289
 31
0.0
  0
LINE
  5
173C8
  8
AM_0
 10
604.97761176226675
 20
232.87951144231289
 30
0.0
 11
604.97761176226675
 21
228.01952144231271
 31
0.0
  0
CIRCLE
  5
173C9
  8
AM_0
 10
599.49763176226679
 20
231.87951144231289
 30
0.0
 40
1.149999999999999
  0
CIRCLE
  5
173CA
  8
AM_0
 10
599.49763176226679
 20
231.87951144231289
 30
0.0
 40
1.1000000000000001
  0
ARC
  5
173CB
  8
AM_0
 10
587.99763176226668
 20
227.87951144231289
 30
0.0
 40
1.5
 50
270.0
 51
0.0000100000010064
  0
CIRCLE
  5
173CC
  8
AM_0
 10
594.49763176226679
 20
231.87951144231289
 30
0.0
 40
1.0
  0
LINE
  5
173CD
  8
AM_0
 10
589.01765176226672
 20
232.87951144231289
 30
0.0
 11
589.01765176226672
 21
228.01952144231271
 31
0.0
  0
LINE
  5
173CE
  8
AM_0
 10
589.49763176226679
 20
232.87951144231289
 30
0.0
 11
589.49763176226679
 21
227.87951144231289
 31
0.0
  0
ARC
  5
173CF
  8
AM_0
 10
588.01765176226672
 20
228.01952144231271
 30
0.0
 40
1.0
 50
270.0
 51
0.0000100000010064
  0
ARC
  5
173D0
  8
AM_0
 10
587.99763176226668
 20
232.87951144231289
 30
0.0
 40
1.5
 50
359.999989999999
 51
89.999997000002296
  0
ARC
  5
173D1
  8
AM_0
 10
587.99763176226668
 20
232.87951144231289
 30
0.0
 40
1.02
 50
359.999989999999
 51
89.999997000002296
  0
ARC
  5
173D2
  8
AM_0
 10
580.72034306484068
 20
170.37951144231289
 30
0.0
 40
0.5
 50
180.0
 51
270.0
  0
LINE
  5
173D3
  8
AM_0
 10
568.79194176226667
 20
221.06057144231281
 30
0.0
 11
572.93769176226658
 21
205.57946144231281
 31
0.0
  0
LINE
  5
173D4
  8
AM_0
 10
566.99763176226668
 20
204.37951144231289
 30
0.0
 11
558.99763176226656
 21
204.37951144231289
 31
0.0
  0
LINE
  5
173D5
  8
AM_0
 10
566.99763176226668
 20
214.37951144231289
 30
0.0
 11
558.99763176226656
 21
214.37951144231289
 31
0.0
  0
LINE
  5
173D6
  8
AM_0
 10
584.49763176226668
 20
190.87951144231289
 30
0.0
 11
584.49763176226668
 21
193.37951144231289
 31
0.0
  0
LINE
  5
173D7
  8
AM_0
 10
580.22034306484079
 20
173.87951144231289
 30
0.0
 11
580.22034306484079
 21
189.87951144231289
 31
0.0
  0
LINE
  5
173D8
  8
AM_0
 10
580.22034306484079
 20
173.87951144231289
 30
0.0
 11
580.22034306484079
 21
170.37951144231289
 31
0.0
  0
ARC
  5
173D9
  8
AM_0
 10
581.22034306484068
 20
189.87951144231289
 30
0.0
 40
1.0
 50
90.0
 51
180.0
  0
ARC
  5
173DA
  8
AM_0
 10
574.87245176226679
 20
206.1042414423128
 30
0.0
 40
2.0047290000000002
 50
195.17349999999811
 51
269.86167999998918
  0
LINE
  5
173DB
  8
AM_0
 10
567.99763176226668
 20
207.37948144231271
 30
0.0
 11
573.72343176226673
 21
198.5625214423128
 31
0.0
  0
ARC
  5
173DC
  8
AM_0
 10
574.98145176226672
 20
199.37951144231289
 30
0.0
 40
1.5
 50
213.0000000000019
 51
270.000010000001
  0
LINE
  5
173DD
  8
AM_0
 10
572.45558176226666
 20
207.37951144231289
 30
0.0
 11
566.99763176226668
 21
207.37951144231289
 31
0.0
  0
LINE
  5
173DE
  8
AM_0
 10
566.99763176226668
 20
228.43957144231291
 30
0.0
 11
558.99763176226656
 21
228.43957144231291
 31
0.0
  0
ARC
  5
173DF
  8
AM_0
 10
573.6576617622668
 20
235.37951144231289
 30
0.0
 40
1.0000255999999981
 50
89.589469000002197
 51
270.41052999999027
  0
ARC
  5
173E0
  8
AM_0
 10
573.65760176226672
 20
225.37951144231289
 30
0.0
 40
1.0
 50
89.999997000002296
 51
270.000010000001
  0
ARC
  5
173E1
  8
AM_0
 10
570.17762176226677
 20
225.33446144231289
 30
0.0
 40
1.6750020000000001
 50
89.999997000002296
 51
270.000010000001
  0
ARC
  5
173E2
  8
AM_0
 10
567.34443176226682
 20
220.65673144231289
 30
0.0
 40
1.5027759999999999
 50
14.756429999996151
 51
89.877586999998385
  0
ARC
  5
173E3
  8
AM_0
 10
569.95765176226666
 20
235.34948144231279
 30
0.0
 40
1.460011199999999
 50
89.775250000003169
 51
270.22475000000981
  0
LINE
  5
173E4
  8
AM_0
 10
682.99763176226668
 20
313.37951144231289
 30
0.0
 11
674.99763176226668
 21
313.37951144231289
 31
0.0
  0
LINE
  5
173E5
  8
AM_0
 10
682.29762176226677
 20
303.56945144231292
 30
0.0
 11
676.06764176226682
 21
303.56945144231292
 31
0.0
  0
ARC
  5
173E6
  8
AM_0
 10
728.4990618622669
 20
315.37951144231289
 30
0.0
 40
5.0
 50
0.0
 51
90.000011000008925
  0
ARC
  5
173E7
  8
AM_0
 10
729.49906186226667
 20
316.37951144231289
 30
0.0
 40
9.0
 50
0.0000200000020129
 51
90.000011000008925
  0
LINE
  5
173E8
  8
AM_0
 10
730.99763176226656
 20
313.12951144231272
 30
0.0
 11
682.99763176226668
 21
313.12951144231272
 31
0.0
  0
LINE
  5
173E9
  8
AM_0
 10
730.49763176226656
 20
304.27050144231282
 30
0.0
 11
687.99763176226656
 21
304.27050144231282
 31
0.0
  0
LINE
  5
173EA
  8
AM_0
 10
730.49763176226656
 20
294.02050144231282
 30
0.0
 11
687.99763176226656
 21
294.02050144231282
 31
0.0
  0
LINE
  5
173EB
  8
AM_0
 10
732.99763176226668
 20
303.63244144231282
 30
0.0
 11
732.99763176226668
 21
311.12951144231272
 31
0.0
  0
LINE
  5
173EC
  8
AM_0
 10
733.49906186226667
 20
205.37951144231289
 30
0.0
 11
733.49906186226667
 21
255.37951144231289
 31
0.0
  0
LINE
  5
173ED
  8
AM_0
 10
733.49906186226667
 20
265.37951144231289
 30
0.0
 11
733.49906186226667
 21
315.37951144231272
 31
0.0
  0
LINE
  5
173EE
  8
AM_0
 10
732.99763176226668
 20
265.37951144231289
 30
0.0
 11
739.49760176226664
 21
265.37951144231289
 31
0.0
  0
ARC
  5
173EF
  8
AM_0
 10
732.09760176226655
 20
297.77050144231282
 30
0.0
 40
3.0
 50
269.99998900000412
 51
297.84967349720222
  0
ARC
  5
173F0
  8
AM_0
 10
732.09760176226655
 20
300.77050144231282
 30
0.0
 40
3.0
 50
62.150326502797853
 51
89.999950000007985
  0
LINE
  5
173F1
  8
AM_0
 10
731.79762176226654
 20
303.87048144231272
 30
0.0
 11
730.49763176226656
 21
303.87048144231272
 31
0.0
  0
LINE
  5
173F2
  8
AM_0
 10
732.09760176226655
 20
303.77050144231282
 30
0.0
 11
731.79762176226654
 21
303.77050144231282
 31
0.0
  0
LINE
  5
173F3
  8
AM_0
 10
731.79762176226654
 20
294.67053144231278
 30
0.0
 11
730.49763176226656
 21
294.67053144231278
 31
0.0
  0
LINE
  5
173F4
  8
AM_0
 10
732.09760176226655
 20
294.77050144231282
 30
0.0
 11
731.79762176226654
 21
294.77050144231282
 31
0.0
  0
LINE
  5
173F5
  8
AM_0
 10
731.79762176226654
 20
294.67053144231278
 30
0.0
 11
731.79762176226654
 21
303.87048144231272
 31
0.0
  0
ARC
  5
173F6
  8
AM_0
 10
730.99763176226656
 20
311.12951144231272
 30
0.0
 40
2.0
 50
359.999979999998
 51
89.999950000007985
  0
LINE
  5
173F7
  8
AM_0
 10
687.99763176226656
 20
304.27050144231282
 30
0.0
 11
687.99763176226656
 21
313.12951144231272
 31
0.0
  0
LINE
  5
173F8
  8
AM_0
 10
707.99763176226668
 20
319.12951144231272
 30
0.0
 11
682.99763176226668
 21
319.12951144231272
 31
0.0
  0
LINE
  5
173F9
  8
AM_0
 10
729.49906186226667
 20
325.37951144231289
 30
0.0
 11
691.99763176226656
 21
325.37951144231289
 31
0.0
  0
LINE
  5
173FA
  8
AM_0
 10
728.4990618622669
 20
320.37951144231289
 30
0.0
 11
704.99763176226656
 21
320.37951144231289
 31
0.0
  0
LINE
  5
173FB
  8
AM_0
 10
707.99763176226668
 20
319.12951144231272
 30
0.0
 11
707.99763176226668
 21
313.12951144231272
 31
0.0
  0
LINE
  5
173FC
  8
AM_0
 10
694.99763176226668
 20
320.37951144231289
 30
0.0
 11
691.99763176226656
 21
320.37951144231289
 31
0.0
  0
LINE
  5
173FD
  8
AM_0
 10
704.99763176226656
 20
319.12951144231289
 30
0.0
 11
704.99763176226656
 21
325.37951144231289
 31
0.0
  0
LINE
  5
173FE
  8
AM_0
 10
694.99763176226668
 20
319.12951144231289
 30
0.0
 11
694.99763176226668
 21
325.37951144231289
 31
0.0
  0
LINE
  5
173FF
  8
AM_0
 10
691.99763176226656
 20
320.37951144231289
 30
0.0
 11
691.99763176226656
 21
325.37951144231289
 31
0.0
  0
LINE
  5
17400
  8
AM_0
 10
573.65046176226667
 20
286.37951144231289
 30
0.0
 11
587.99763176226668
 21
286.37951144231289
 31
0.0
  0
LINE
  5
17401
  8
AM_0
 10
588.01765176226672
 20
293.73949144231278
 30
0.0
 11
570.17762176226677
 21
293.73949144231278
 31
0.0
  0
LINE
  5
17402
  8
AM_0
 10
587.99763176226668
 20
286.86950144231292
 30
0.0
 11
569.95197176226679
 21
286.86950144231292
 31
0.0
  0
LINE
  5
17403
  8
AM_0
 10
671.78761176226681
 20
316.65954144231279
 30
0.0
 11
574.86762176226682
 21
316.65954144231279
 31
0.0
  0
LINE
  5
17404
  8
AM_0
 10
671.74763176226679
 20
319.50951144231283
 30
0.0
 11
574.86762176226682
 21
319.50951144231283
 31
0.0
  0
LINE
  5
17405
  8
AM_0
 10
671.72761176226675
 20
321.35949144231301
 30
0.0
 11
574.86762176226682
 21
321.35949144231301
 31
0.0
  0
LINE
  5
17406
  8
AM_0
 10
671.70765176226666
 20
322.26952144231279
 30
0.0
 11
574.86756176226663
 21
322.26952144231279
 31
0.0
  0
LINE
  5
17407
  8
AM_0
 10
573.65760176226672
 20
296.37951144231289
 30
0.0
 11
672.63764176226664
 21
296.37951144231289
 31
0.0
  0
LINE
  5
17408
  8
AM_0
 10
573.65760176226672
 20
294.37951144231289
 30
0.0
 11
672.63764176226664
 21
294.37951144231289
 31
0.0
  0
LINE
  5
17409
  8
AM_0
 10
573.66480176226673
 20
284.37951144231289
 30
0.0
 11
672.63764176226664
 21
284.37951144231289
 31
0.0
  0
LINE
  5
1740A
  8
AM_0
 10
673.31764176226682
 20
297.09948144231299
 30
0.0
 11
570.17762176226677
 21
297.09948144231299
 31
0.0
  0
LINE
  5
1740B
  8
AM_0
 10
673.53761176226681
 20
283.93957144231291
 30
0.0
 11
569.96339176226672
 21
283.93957144231291
 31
0.0
  0
LINE
  5
1740C
  8
AM_0
 10
605.99763176226679
 20
286.37951144231289
 30
0.0
 11
672.63764176226664
 21
286.37951144231289
 31
0.0
  0
LINE
  5
1740D
  8
AM_0
 10
673.31764176226682
 20
293.74950144231281
 30
0.0
 11
605.97761176226675
 21
293.74950144231281
 31
0.0
  0
LINE
  5
1740E
  8
AM_0
 10
673.53761176226681
 20
286.86950144231292
 30
0.0
 11
605.99763176226679
 21
286.86950144231292
 31
0.0
  0
LINE
  5
1740F
  8
AM_0
 10
669.63764176226664
 20
297.02950144231289
 30
0.0
 11
674.99763176226668
 21
308.47948144231287
 31
0.0
  0
LINE
  5
17410
  8
AM_0
 10
638.55891176226646
 20
266.37951144231289
 30
0.0
 11
672.63764176226664
 21
266.37951144231289
 31
0.0
  0
LINE
  5
17411
  8
AM_0
 10
638.55891176226646
 20
276.37951144231289
 30
0.0
 11
672.63764176226664
 21
276.37951144231289
 31
0.0
  0
LINE
  5
17412
  8
AM_0
 10
638.55891176226646
 20
274.37951144231289
 30
0.0
 11
672.63764176226664
 21
274.37951144231289
 31
0.0
  0
LINE
  5
17413
  8
AM_0
 10
638.55891176226646
 20
264.37951144231289
 30
0.0
 11
672.63764176226664
 21
264.37951144231289
 31
0.0
  0
LINE
  5
17414
  8
AM_0
 10
673.72761176226675
 20
266.64953144231282
 30
0.0
 11
637.27894176226664
 21
266.64953144231282
 31
0.0
  0
LINE
  5
17415
  8
AM_0
 10
673.72761176226675
 20
264.11950144231292
 30
0.0
 11
637.27894176226664
 21
264.11950144231292
 31
0.0
  0
LINE
  5
17416
  8
AM_0
 10
673.6676117622668
 20
276.71947144231291
 30
0.0
 11
637.33894176226681
 21
276.71947144231291
 31
0.0
  0
LINE
  5
17417
  8
AM_0
 10
673.6676117622668
 20
274.05956144231283
 30
0.0
 11
637.33894176226681
 21
274.05956144231283
 31
0.0
  0
POLYLINE
  5
17418
  8
AM_0
 66
     1
 10
0.0
 20
0.0
 30
0.0
  0
VERTEX
  5
17419
  8
AM_0
 10
672.11939176226679
 20
276.72008144231302
 30
0.0
 42
0.0007337051
  0
VERTEX
  5
1741A
  8
AM_0
 10
672.07525176226682
 20
277.3225014423129
 30
0.0
 42
0.00075211323
  0
VERTEX
  5
1741B
  8
AM_0
 10
672.02931176226673
 20
277.92489144231291
 30
0.0
 42
0.0007297491
  0
VERTEX
  5
1741C
  8
AM_0
 10
671.98158176226661
 20
278.52709144231289
 30
0.0
 42
0.00073593041
  0
VERTEX
  5
1741D
  8
AM_0
 10
671.93210176226683
 20
279.12908144231278
 30
0.0
 42
0.00074742739
  0
VERTEX
  5
1741E
  8
AM_0
 10
671.88083176226667
 20
279.7309514423128
 30
0.0
 42
0.00073217363
  0
VERTEX
  5
1741F
  8
AM_0
 10
671.82777176226682
 20
280.33275144231271
 30
0.0
 42
0.00073754168
  0
VERTEX
  5
17420
  8
AM_0
 10
671.77295176226664
 20
280.93429144231283
 30
0.0
 42
0.00073075073
  0
VERTEX
  5
17421
  8
AM_0
 10
671.71637176226682
 20
281.53565144231271
 30
0.0
 42
0.00074550816
  0
VERTEX
  5
17422
  8
AM_0
 10
671.65803176226677
 20
282.1367114423129
 30
0.0
 42
0.00074288416
  0
VERTEX
  5
17423
  8
AM_0
 10
671.59788176226675
 20
282.73773144231291
 30
0.0
 42
0.00072504001
  0
VERTEX
  5
17424
  8
AM_0
 10
671.53597176226674
 20
283.3384814423128
 30
0.0
 42
0.00074640667
  0
VERTEX
  5
17425
  8
AM_0
 10
671.47230176226674
 20
283.93908144231278
 30
0.0
  0
SEQEND
  5
17426
  8
AM_0
  0
POLYLINE
  5
17427
  8
AM_0
 66
     1
 10
0.0
 20
0.0
 30
0.0
  0
VERTEX
  5
17428
  8
AM_0
 10
672.59358176226681
 20
266.64989144231282
 30
0.0
 42
0.00076691992
  0
VERTEX
  5
17429
  8
AM_0
 10
672.57878176226666
 20
267.26766144231289
 30
0.0
 42
0.00073262792
  0
VERTEX
  5
1742A
  8
AM_0
 10
672.56214176226672
 20
267.88525144231289
 30
0.0
 42
0.00076529537
  0
VERTEX
  5
1742B
  8
AM_0
 10
672.54365176226679
 20
268.50292144231281
 30
0.0
 42
0.00075141097
  0
VERTEX
  5
1742C
  8
AM_0
 10
672.52328176226672
 20
269.12052144231291
 30
0.0
 42
0.00075841687
  0
VERTEX
  5
1742D
  8
AM_0
 10
672.5010517622668
 20
269.73795144231292
 30
0.0
 42
0.00075711788
  0
VERTEX
  5
1742E
  8
AM_0
 10
672.47694176226673
 20
270.3554614423129
 30
0.0
 42
0.00075976003
  0
VERTEX
  5
1742F
  8
AM_0
 10
672.45095176226675
 20
270.97285144231279
 30
0.0
 42
0.00075797311
  0
VERTEX
  5
17430
  8
AM_0
 10
672.42311176226656
 20
271.5901314423129
 30
0.0
 42
0.0007482613
  0
VERTEX
  5
17431
  8
AM_0
 10
672.3933817622667
 20
272.20751144231281
 30
0.0
 42
0.00074893561
  0
VERTEX
  5
17432
  8
AM_0
 10
672.3618217622668
 20
272.8246414423129
 30
0.0
 42
0.00076039839
  0
VERTEX
  5
17433
  8
AM_0
 10
672.32840176226682
 20
273.4416714423129
 30
0.0
 42
0.00075618786
  0
VERTEX
  5
17434
  8
AM_0
 10
672.29310176226682
 20
274.05871144231293
 30
0.0
  0
SEQEND
  5
17435
  8
AM_0
  0
ARC
  5
17436
  8
AM_0
 10
672.45301176226656
 20
265.37951144231289
 30
0.0
 40
1.0000138999999999
 50
269.69165999999939
 51
90.308340000000754
  0
ARC
  5
17437
  8
AM_0
 10
673.73347176226673
 20
265.38451144231283
 30
0.0
 40
1.2650129999999991
 50
269.73558999999102
 51
90.264420999991756
  0
ARC
  5
17438
  8
AM_0
 10
673.6676117622668
 20
275.38952144231291
 30
0.0
 40
1.3300049999999981
 50
270.0
 51
89.999997000002296
  0
ARC
  5
17439
  8
AM_0
 10
672.45301176226656
 20
275.37951144231289
 30
0.0
 40
1.0000138999999999
 50
269.69165999999939
 51
90.308340000000754
  0
ARC
  5
1743A
  8
AM_0
 10
673.32502176226672
 20
295.42455144231292
 30
0.0
 40
1.6750160000000001
 50
269.74612999999908
 51
90.253854999995511
  0
POLYLINE
  5
1743B
  8
AM_0
 66
     1
 10
0.0
 20
0.0
 30
0.0
  0
VERTEX
  5
1743C
  8
AM_0
 10
671.13673176226655
 20
286.86254144231282
 30
0.0
 42
0.00068898288
  0
VERTEX
  5
1743D
  8
AM_0
 10
671.06585176226667
 20
287.43729144231281
 30
0.0
 42
0.00070644354
  0
VERTEX
  5
1743E
  8
AM_0
 10
670.99335176226646
 20
288.0119814423129
 30
0.0
 42
0.00069248071
  0
VERTEX
  5
1743F
  8
AM_0
 10
670.91926176226673
 20
288.58629144231293
 30
0.0
 42
0.00069585665
  0
VERTEX
  5
17440
  8
AM_0
 10
670.84358176226669
 20
289.16043144231281
 30
0.0
 42
0.00068980191
  0
VERTEX
  5
17441
  8
AM_0
 10
670.76628176226677
 20
289.73443144231288
 30
0.0
 42
0.00072080104
  0
VERTEX
  5
17442
  8
AM_0
 10
670.68739176226666
 20
290.3082214423128
 30
0.0
 42
0.00071002307
  0
VERTEX
  5
17443
  8
AM_0
 10
670.60685176226673
 20
290.8816914423129
 30
0.0
 42
0.00072659056
  0
VERTEX
  5
17444
  8
AM_0
 10
670.52469176226646
 20
291.45479144231291
 30
0.0
 42
0.00069570481
  0
VERTEX
  5
17445
  8
AM_0
 10
670.44087176226674
 20
292.02782144231293
 30
0.0
 42
0.00071266935
  0
VERTEX
  5
17446
  8
AM_0
 10
670.35544176226665
 20
292.60059144231292
 30
0.0
 42
0.00071614426
  0
VERTEX
  5
17447
  8
AM_0
 10
670.26841176226674
 20
293.17293144231292
 30
0.0
 42
0.00072288975
  0
VERTEX
  5
17448
  8
AM_0
 10
670.17970176226675
 20
293.7452314423129
 30
0.0
  0
SEQEND
  5
17449
  8
AM_0
  0
ARC
  5
1744A
  8
AM_0
 10
673.53761176226681
 20
285.40453144231299
 30
0.0
 40
1.465004
 50
270.0
 51
89.999997000002296
  0
ARC
  5
1744B
  8
AM_0
 10
672.45301176226656
 20
285.37951144231289
 30
0.0
 40
1.0000138999999999
 50
269.69165999999939
 51
90.308340000000754
  0
ARC
  5
1744C
  8
AM_0
 10
672.45301176226656
 20
295.37951144231289
 30
0.0
 40
1.0000138999999999
 50
269.69165999999939
 51
90.308340000000754
  0
ARC
  5
1744D
  8
AM_0
 10
638.55891176226646
 20
265.37951144231289
 30
0.0
 40
1.000005699999998
 50
89.999997000002296
 51
270.000010000001
  0
ARC
  5
1744E
  8
AM_0
 10
637.27070176226675
 20
265.3895214423128
 30
0.0
 40
1.2700266
 50
89.629329999988755
 51
270.37067999999999
  0
ARC
  5
1744F
  8
AM_0
 10
638.55891176226646
 20
275.37951144231289
 30
0.0
 40
1.000005699999998
 50
89.999997000002296
 51
270.000010000001
  0
ARC
  5
17450
  8
AM_0
 10
637.33265176226666
 20
275.39452144231279
 30
0.0
 40
1.3350147999999999
 50
89.730444000005164
 51
270.2695700000001
  0
LINE
  5
17451
  8
AM_0
 10
674.99763176226668
 20
311.16952144231283
 30
0.0
 11
673.70765176226678
 21
319.65948144231288
 31
0.0
  0
LINE
  5
17452
  8
AM_0
 10
674.99763176226668
 20
311.16952144231283
 30
0.0
 11
673.68763176226673
 21
320.5495514423128
 31
0.0
  0
LINE
  5
17453
  8
AM_0
 10
674.99763176226668
 20
309.81954144231293
 30
0.0
 11
673.71766176226674
 21
317.82949144231281
 31
0.0
  0
ARC
  5
17454
  8
AM_0
 10
671.79890176226672
 20
314.66540144231283
 30
0.0
 40
1.994108999999999
 50
10.812230000001239
 51
90.324451999997237
  0
LINE
  5
17455
  8
AM_0
 10
674.99763176226668
 20
308.47954144231301
 30
0.0
 11
673.75764176226664
 21
315.03951144231303
 31
0.0
  0
ARC
  5
17456
  8
AM_0
 10
671.71113176226675
 20
320.27392144231283
 30
0.0
 40
1.995633
 50
7.938870000000315
 51
90.100291999991185
  0
ARC
  5
17457
  8
AM_0
 10
671.74738176226674
 20
317.5142714423128
 30
0.0
 40
1.9952829999999999
 50
9.0916499999993068
 51
89.993796000009652
  0
ARC
  5
17458
  8
AM_0
 10
671.73304176226679
 20
319.36278144231278
 30
0.0
 40
1.9967330000000001
 50
8.5461200000027322
 51
90.156032999994579
  0
ARC
  5
17459
  8
AM_0
 10
605.99763176226679
 20
292.87951144231289
 30
0.0
 40
1.5
 50
89.999997000002296
 51
180.0
  0
LINE
  5
1745A
  8
AM_0
 10
604.49763176226668
 20
287.87951144231289
 30
0.0
 11
604.49763176226668
 21
292.87951144231289
 31
0.0
  0
LINE
  5
1745B
  8
AM_0
 10
604.97761176226675
 20
287.87951144231289
 30
0.0
 11
604.97761176226675
 21
292.73949144231278
 31
0.0
  0
ARC
  5
1745C
  8
AM_0
 10
605.97761176226675
 20
292.73949144231278
 30
0.0
 40
1.0
 50
89.999997000002296
 51
180.0
  0
ARC
  5
1745D
  8
AM_0
 10
605.99763176226679
 20
287.87951144231289
 30
0.0
 40
1.5
 50
179.99999931675049
 51
270.000010000001
  0
ARC
  5
1745E
  8
AM_0
 10
605.99763176226679
 20
287.87951144231289
 30
0.0
 40
1.02
 50
179.999999316757
 51
270.000010000001
  0
CIRCLE
  5
1745F
  8
AM_0
 10
599.49763176226679
 20
288.87951144231289
 30
0.0
 40
1.1000000000000001
  0
CIRCLE
  5
17460
  8
AM_0
 10
599.49763176226679
 20
288.87951144231289
 30
0.0
 40
1.149999999999999
  0
ARC
  5
17461
  8
AM_0
 10
587.99763176226668
 20
292.87951144231289
 30
0.0
 40
1.5
 50
359.999989999999
 51
89.999997000002296
  0
CIRCLE
  5
17462
  8
AM_0
 10
594.49763176226679
 20
288.87951144231289
 30
0.0
 40
1.0
  0
LINE
  5
17463
  8
AM_0
 10
589.01765176226672
 20
287.87951144231289
 30
0.0
 11
589.01765176226672
 21
292.73949144231278
 31
0.0
  0
LINE
  5
17464
  8
AM_0
 10
589.49763176226679
 20
287.87951144231289
 30
0.0
 11
589.49763176226679
 21
292.87951144231289
 31
0.0
  0
ARC
  5
17465
  8
AM_0
 10
588.01765176226672
 20
292.73949144231278
 30
0.0
 40
1.0
 50
359.999989999999
 51
89.999997000002296
  0
ARC
  5
17466
  8
AM_0
 10
587.99763176226668
 20
287.87951144231289
 30
0.0
 40
1.5
 50
270.0
 51
0.0000100000010064
  0
ARC
  5
17467
  8
AM_0
 10
587.99763176226668
 20
287.87951144231289
 30
0.0
 40
1.02
 50
270.0
 51
0.0000100000010064
  0
LINE
  5
17468
  8
AM_0
 10
568.79191176226675
 20
302.54836144231291
 30
0.0
 11
572.93763176226673
 21
318.02950144231289
 31
0.0
  0
LINE
  5
17469
  8
AM_0
 10
568.79188176226683
 20
305.30834144231301
 30
0.0
 11
572.93760176226681
 21
320.7894514423129
 31
0.0
  0
LINE
  5
1746A
  8
AM_0
 10
568.79191176226675
 20
304.39834144231293
 30
0.0
 11
572.93763176226673
 21
319.87945144231281
 31
0.0
  0
LINE
  5
1746B
  8
AM_0
 10
568.79762176226677
 20
299.71944144231281
 30
0.0
 11
572.93763176226673
 21
315.17946144231303
 31
0.0
  0
LINE
  5
1746C
  8
AM_0
 10
566.99763176226668
 20
292.31945144231281
 30
0.0
 11
558.99763176226656
 21
292.31945144231281
 31
0.0
  0
ARC
  5
1746D
  8
AM_0
 10
573.65760176226672
 20
295.37951144231289
 30
0.0
 40
1.0
 50
89.999997000002296
 51
270.000010000001
  0
ARC
  5
1746E
  8
AM_0
 10
573.6576617622668
 20
285.37951144231289
 30
0.0
 40
1.0000255999999981
 50
89.589469000002197
 51
270.41052999999027
  0
ARC
  5
1746F
  8
AM_0
 10
570.17762176226677
 20
295.42455144231292
 30
0.0
 40
1.6750020000000001
 50
89.999997000002296
 51
270.000010000001
  0
ARC
  5
17470
  8
AM_0
 10
569.95765176226666
 20
285.40954144231279
 30
0.0
 40
1.460011199999999
 50
89.775250000003169
 51
270.22475000000981
  0
ARC
  5
17471
  8
AM_0
 10
567.34443176226682
 20
305.7122714423129
 30
0.0
 40
1.5027759999999999
 50
270.12242000000788
 51
345.24357000000072
  0
ARC
  5
17472
  8
AM_0
 10
567.34443176226682
 20
302.95226144231287
 30
0.0
 40
1.5027759999999999
 50
270.12242000000788
 51
345.24357000000072
  0
ARC
  5
17473
  8
AM_0
 10
567.34443176226682
 20
304.80224144231289
 30
0.0
 40
1.5027759999999999
 50
270.12242000000788
 51
345.24357000000072
  0
ARC
  5
17474
  8
AM_0
 10
567.34443176226682
 20
300.10229144231289
 30
0.0
 40
1.5027759999999999
 50
270.12242000000788
 51
345.24357000000072
  0
LINE
  5
17475
  8
AM_0
 10
566.99763176226668
 20
316.37951144231289
 30
0.0
 11
558.99763176226656
 21
316.37951144231289
 31
0.0
  0
LINE
  5
17476
  8
AM_0
 10
566.99763176226668
 20
306.37951144231289
 30
0.0
 11
558.99763176226656
 21
306.37951144231289
 31
0.0
  0
ARC
  5
17477
  8
AM_0
 10
574.86756176226663
 20
314.66125144231279
 30
0.0
 40
1.9982919999999991
 50
89.997368000005167
 51
164.96745200000399
  0
ARC
  5
17478
  8
AM_0
 10
574.87245176226679
 20
317.50475144231268
 30
0.0
 40
2.0047290000000002
 50
90.138321999993309
 51
164.82650400000369
  0
ARC
  5
17479
  8
AM_0
 10
574.87245176226679
 20
320.26476144231287
 30
0.0
 40
2.0047290000000002
 50
90.138321999993309
 51
164.82650400000369
  0
ARC
  5
1747A
  8
AM_0
 10
574.87245176226679
 20
319.35473144231293
 30
0.0
 40
2.0047290000000002
 50
90.138321999993309
 51
164.82650400000369
  0
LINE
  5
1747B
  8
AM_0
 10
572.45765176226678
 20
313.37951144231289
 30
0.0
 11
566.99763176226668
 21
313.37951144231289
 31
0.0
  0
LINE
  5
1747C
  8
AM_0
 10
682.30760635182378
 20
498.46273324269032
 30
0.0
 11
676.07762635182394
 21
498.46273324269032
 31
0.0
  0
LINE
  5
1747D
  8
AM_0
 10
682.99760635182372
 20
488.65274424269029
 30
0.0
 11
674.99760635182372
 21
488.65274424269029
 31
0.0
  0
LINE
  5
1747E
  8
AM_0
 10
682.99760635182372
 20
488.6577332426902
 30
0.0
 11
674.99760635182372
 21
488.6577332426902
 31
0.0
  0
LINE
  5
1747F
  8
AM_0
 10
682.30760635182378
 20
584.84272724269044
 30
0.0
 11
676.07762635182394
 21
584.84272724269044
 31
0.0
  0
LINE
  5
17480
  8
AM_0
 10
682.99760635182372
 20
594.65274724269034
 30
0.0
 11
674.99760635182372
 21
594.65274724269034
 31
0.0
  0
LINE
  5
17481
  8
AM_0
 10
682.99760635182372
 20
594.65773724269036
 30
0.0
 11
674.99760635182372
 21
594.65773724269036
 31
0.0
  0
LINE
  5
17482
  8
AM_0
 10
682.99762635182367
 20
598.65778174269064
 30
0.0
 11
682.99762635182367
 21
484.65776374269041
 31
0.0
  0
LINE
  5
17483
  8
AM_0
 10
730.49764635182373
 20
517.67775574269047
 30
0.0
 11
730.49764635182339
 21
598.65778174269064
 31
0.0
  0
LINE
  5
17484
  8
AM_0
 10
687.99763635182364
 20
549.65776774269057
 30
0.0
 11
687.99763635182364
 21
598.65778174269064
 31
0.0
  0
LINE
  5
17485
  8
AM_0
 10
732.99763635182376
 20
584.91775174269071
 30
0.0
 11
732.99763635182376
 21
596.65774174269052
 31
0.0
  0
LINE
  5
17486
  8
AM_0
 10
730.99762635182378
 20
598.65778174269064
 30
0.0
 11
682.99762635182367
 21
598.65778174269064
 31
0.0
  0
ARC
  5
17487
  8
AM_0
 10
730.99813635182386
 20
596.65825174269071
 30
0.0
 40
1.9994960399999999
 50
359.98554000000013
 51
90.014456999995545
  0
LINE
  5
17488
  8
AM_0
 10
719.15767635182408
 20
536.39775574269026
 30
0.0
 11
733.6176163518237
 21
491.88776074269049
 31
0.0
  0
LINE
  5
17489
  8
AM_0
 10
723.91762635182374
 20
537.93776374269055
 30
0.0
 11
738.37762635182389
 21
493.42775374269058
 31
0.0
  0
LINE
  5
1748A
  8
AM_0
 10
730.49764635182373
 20
501.49774774269048
 30
0.0
 11
730.49764635182373
 21
484.65776374269041
 31
0.0
  0
LINE
  5
1748B
  8
AM_0
 10
730.49764635182373
 20
585.54775174269071
 30
0.0
 11
682.99762635182367
 21
585.54775174269071
 31
0.0
  0
LINE
  5
1748C
  8
AM_0
 10
730.49764635182373
 20
575.29775074269071
 30
0.0
 11
687.99763635182364
 21
575.29775074269071
 31
0.0
  0
LINE
  5
1748D
  8
AM_0
 10
732.99763635182376
 20
509.98775074269048
 30
0.0
 11
732.99763635182376
 21
576.1877367426905
 31
0.0
  0
ARC
  5
1748E
  8
AM_0
 10
732.10195635182367
 20
579.04792174269062
 30
0.0
 40
2.9956880400000001
 50
264.16962999999038
 51
359.99636000000248
  0
LINE
  5
1748F
  8
AM_0
 10
731.79763635182371
 20
575.94777574269062
 30
0.0
 11
731.79763635182371
 21
585.14776174269048
 31
0.0
  0
ARC
  5
17490
  8
AM_0
 10
732.09595635182359
 20
582.0509517426907
 30
0.0
 40
3.0016479
 50
359.93865000000221
 51
95.704386999990277
  0
LINE
  5
17491
  8
AM_0
 10
735.09760635182374
 20
579.04774174269062
 30
0.0
 11
735.09760635182374
 21
582.04774174269062
 31
0.0
  0
LINE
  5
17492
  8
AM_0
 10
731.79763635182371
 20
585.14776174269048
 30
0.0
 11
730.49764635182373
 21
585.14776174269048
 31
0.0
  0
LINE
  5
17493
  8
AM_0
 10
731.79763635182371
 20
575.94777574269062
 30
0.0
 11
730.49764635182373
 21
575.94777574269062
 31
0.0
  0
ARC
  5
17494
  8
AM_0
 10
732.94891635182375
 20
504.15767374269058
 30
0.0
 40
4.0507442999999981
 50
315.08765999999849
 51
80.928209000008053
  0
LINE
  5
17495
  8
ﾁｭｳｼﾝｾﾝ1
 10
699.99763635182364
 20
529.44575574269049
 30
0.0
 11
699.99763635182364
 21
553.86575174269035
 31
0.0
  0
ARC
  5
17496
  8
AM_0
 10
715.34986635182383
 20
535.16066674269041
 30
0.0
 40
8.9970875999999969
 50
17.978799999997239
 51
90.014225000001446
  0
LINE
  5
17497
  8
AM_0
 10
705.49762635182378
 20
539.15776774269045
 30
0.0
 11
705.49762635182378
 21
544.15773574269053
 31
0.0
  0
LINE
  5
17498
  8
AM_0
 10
691.99762635182367
 20
539.15776774269045
 30
0.0
 11
691.99762635182367
 21
544.15773574269053
 31
0.0
  0
LINE
  5
17499
  8
AM_0
 10
694.49764635182373
 20
539.15776774269045
 30
0.0
 11
694.49764635182373
 21
544.15773574269053
 31
0.0
  0
ARC
  5
1749A
  8
AM_0
 10
699.99811635182368
 20
541.65755374269054
 30
0.0
 40
8.000195699999999
 50
18.210970000003979
 51
90.003699000002285
  0
LINE
  5
1749B
  8
AM_0
 10
715.34767635182357
 20
544.15773574269053
 30
0.0
 11
705.49762635182378
 21
544.15773574269053
 31
0.0
  0
LINE
  5
1749C
  8
AM_0
 10
699.99763635182364
 20
549.65776774269057
 30
0.0
 11
682.99762635182367
 21
549.65776774269057
 31
0.0
  0
LINE
  5
1749D
  8
AM_0
 10
694.49764635182373
 20
544.15773574269053
 30
0.0
 11
691.99762635182367
 21
544.15773574269053
 31
0.0
  0
ARC
  5
1749E
  8
AM_0
 10
699.99763635182364
 20
541.65575374269031
 30
0.0
 40
4.998440399999998
 50
23.610999999994529
 51
156.38900099999529
  0
LINE
  5
1749F
  8
AM_0
 10
705.49762635182378
 20
543.65776774269045
 30
0.0
 11
694.49764635182373
 21
543.65776774269045
 31
0.0
  0
LINE
  5
174A0
  8
AM_0
 10
715.34767635182357
 20
539.15776774269045
 30
0.0
 11
705.49762635182378
 21
539.15776774269045
 31
0.0
  0
ARC
  5
174A1
  8
AM_0
 10
700.00006635182342
 20
541.65532474269048
 30
0.0
 40
7.9975721999999996
 50
269.98269000000079
 51
341.80265000000122
  0
ARC
  5
174A2
  8
AM_0
 10
715.35439635182365
 20
535.15736974269032
 30
0.0
 40
4.0003919999999971
 50
18.063209999999849
 51
90.096944999995586
  0
LINE
  5
174A3
  8
AM_0
 10
699.99763635182364
 20
533.65773574269053
 30
0.0
 11
682.99762635182367
 21
533.65773574269053
 31
0.0
  0
LINE
  5
174A4
  8
AM_0
 10
694.49764635182373
 20
539.15776774269045
 30
0.0
 11
691.99762635182367
 21
539.15776774269045
 31
0.0
  0
ARC
  5
174A5
  8
AM_0
 10
699.99763635182364
 20
541.65575374269031
 30
0.0
 40
4.9968401999999976
 50
203.56897999999919
 51
336.4310200000009
  0
LINE
  5
174A6
  8
AM_0
 10
705.49762635182378
 20
539.65773574269053
 30
0.0
 11
694.49764635182373
 21
539.65773574269053
 31
0.0
  0
LINE
  5
174A7
  8
AM_0
 10
730.49764635182373
 20
497.76775174269028
 30
0.0
 11
682.99762635182367
 21
497.76775174269028
 31
0.0
  0
LINE
  5
174A8
  8
AM_0
 10
730.99762635182378
 20
484.65776374269041
 30
0.0
 11
682.99762635182367
 21
484.65776374269041
 31
0.0
  0
ARC
  5
174A9
  8
AM_0
 10
730.99990635182371
 20
486.65544574269052
 30
0.0
 40
1.9976960999999991
 50
269.93382999999648
 51
0.066170000003478
  0
ARC
  5
174AA
  8
AM_0
 10
735.99868635182372
 20
492.65622274269049
 30
0.0
 40
3.001016099999998
 50
179.9708539990001
 51
354.86740000000231
  0
ARC
  5
174AB
  8
AM_0
 10
735.99763635182364
 20
492.65776474269029
 30
0.0
 40
2.5014601500000002
 50
197.9279300000012
 51
17.927919999998341
  0
ARC
  5
174AC
  8
AM_0
 10
739.28578635182373
 20
492.35541274269048
 30
0.0
 40
0.8023920299999998
 50
90.582441999999901
 51
174.1091650000001
  0
LINE
  5
174AD
  8
AM_0
 10
739.49764635182339
 20
493.15775074269033
 30
0.0
 11
739.27759635182372
 21
493.15775074269033
 31
0.0
  0
LINE
  5
174AE
  8
AM_0
 10
739.49764635182339
 20
493.15775074269033
 30
0.0
 11
739.49764635182339
 21
492.65776474269029
 31
0.0
  0
ARC
  5
174AF
  8
AM_0
 10
739.28725635182366
 20
492.35670874269027
 30
0.0
 40
0.30119199
 50
91.824012999993229
 51
174.08517019999809
  0
LINE
  5
174B0
  8
AM_0
 10
732.99763635182376
 20
493.80775774269028
 30
0.0
 11
732.99763635182376
 21
486.65776474269029
 31
0.0
  0
LINE
  5
174B1
  8
AM_0
 10
687.99763635182364
 20
497.76775174269028
 30
0.0
 11
687.99763635182364
 21
484.65776374269041
 31
0.0
  0
LINE
  5
174B2
  8
AM_0
 10
568.7975963518237
 20
580.99275724269046
 30
0.0
 11
572.9475863518237
 21
596.45274724269063
 31
0.0
  0
LINE
  5
174B3
  8
AM_0
 10
669.67271913551156
 20
578.37771380502659
 30
0.0
 11
674.99760635182372
 21
589.75273724269061
 31
0.0
  0
LINE
  5
174B4
  8
AM_0
 10
566.99760635182372
 20
597.65773724269059
 30
0.0
 11
566.99760635182372
 21
485.6577332426902
 31
0.0
  0
LINE
  5
174B5
  8
AM_0
 10
674.99760635182372
 20
594.65274724269034
 30
0.0
 11
674.99760635182372
 21
492.21274924269028
 31
0.0
  0
LINE
  5
174B6
  8
AM_0
 10
671.79759635182359
 20
597.94273724269033
 30
0.0
 11
574.87763635182375
 21
597.94273724269033
 31
0.0
  0
LINE
  5
174B7
  8
AM_0
 10
671.70762635182371
 20
603.54274724269055
 30
0.0
 11
637.99760635182361
 21
603.54274724269055
 31
0.0
  0
LINE
  5
174B8
  8
AM_0
 10
671.7275863518239
 20
602.6327372426905
 30
0.0
 11
637.99760635182361
 21
602.6327372426905
 31
0.0
  0
LINE
  5
174B9
  8
AM_0
 10
671.74760635182372
 20
600.78273724269059
 30
0.0
 11
637.99760635182361
 21
600.78273724269059
 31
0.0
  0
ARC
  5
174BA
  8
AM_0
 10
671.74919635182391
 20
598.78959724269055
 30
0.0
 40
1.9931281000000001
 50
9.0388199999997205
 51
90.046626999992995
  0
LINE
  5
174BB
  8
AM_0
 10
674.99760635182372
 20
592.44271724269049
 30
0.0
 11
673.68760635182389
 21
601.82272724269035
 31
0.0
  0
LINE
  5
174BC
  8
AM_0
 10
674.99754635182376
 20
592.44275724269062
 30
0.0
 11
673.70756635182374
 21
600.93274724269031
 31
0.0
  0
ARC
  5
174BD
  8
AM_0
 10
671.73490635182372
 20
600.63816724269032
 30
0.0
 40
1.994588
 50
8.4929100000054056
 51
90.209246999997575
  0
ARC
  5
174BE
  8
AM_0
 10
671.71293635182371
 20
601.54925724269049
 30
0.0
 40
1.9934921000000001
 50
7.8852599999974
 51
90.153909000005129
  0
ARC
  5
174BF
  8
AM_0
 10
671.79472635182378
 20
595.94583724269046
 30
0.0
 40
1.9969039999999989
 50
10.587439999998571
 51
89.916526000000388
  0
LINE
  5
174C0
  8
AM_0
 10
674.99760635182372
 20
591.09274724269028
 30
0.0
 11
673.71763635182367
 21
599.10273724269052
 31
0.0
  0
LINE
  5
174C1
  8
AM_0
 10
674.99760635182372
 20
589.75274724269036
 30
0.0
 11
673.75761635182357
 21
596.31274724269053
 31
0.0
  0
ARC
  5
174C2
  8
AM_0
 10
637.99803635182388
 20
598.78231724269051
 30
0.0
 40
2.000407899999999
 50
90.011650000002106
 51
179.98835099999931
  0
LINE
  5
174C3
  8
AM_0
 10
635.99760635182372
 20
601.54272724269038
 30
0.0
 11
635.99760635182372
 21
597.94273724269033
 31
0.0
  0
ARC
  5
174C4
  8
AM_0
 10
637.99919635182368
 20
600.63118724269054
 30
0.0
 40
2.0015439999999991
 50
90.044216000000915
 51
179.9557860009991
  0
ARC
  5
174C5
  8
AM_0
 10
637.99888635182378
 20
601.54144724269031
 30
0.0
 40
2.001287899999999
 50
90.036873999995521
 51
179.96312800099781
  0
LINE
  5
174C6
  8
AM_0
 10
566.99760635182372
 20
597.65773724269059
 30
0.0
 11
558.99763635182364
 21
597.65773724269059
 31
0.0
  0
ARC
  5
174C7
  8
AM_0
 10
574.88041635182356
 20
595.94413724269054
 30
0.0
 40
1.9986041000000001
 50
90.080483999998876
 51
165.25728400000051
  0
LINE
  5
174C8
  8
AM_0
 10
572.45762635182371
 20
594.65274724269034
 30
0.0
 11
566.99760635182372
 21
594.65274724269034
 31
0.0
  0
LINE
  5
174C9
  8
ｶｸﾚｾﾝ2
 10
581.99760635182372
 20
577.65778647153354
 30
0.0
 11
665.49760635182372
 21
577.65778647153331
 31
0.0
  0
LINE
  5
174CA
  8
ｶｸﾚｾﾝ2
 10
665.49760635182372
 20
505.65778647153331
 30
0.0
 11
581.99760635182372
 21
505.65778647153343
 31
0.0
  0
LINE
  5
174CB
  8
AM_0
 10
573.65761523908304
 20
577.65776750811381
 30
0.0
 11
672.63765523907989
 21
577.65774307307765
 31
0.0
  0
LINE
  5
174CC
  8
AM_0
 10
573.65761474534622
 20
575.65776750811381
 30
0.0
 11
672.63765474534318
 21
575.65774307307777
 31
0.0
  0
LINE
  5
174CD
  8
AM_0
 10
573.66481227666327
 20
565.65776750633654
 30
0.0
 11
672.63765227665988
 21
565.65774307307822
 31
0.0
  0
LINE
  5
174CE
  8
AM_0
 10
673.31765541681773
 20
578.37771290520732
 30
0.0
 11
570.17763541682098
 21
578.37773836721044
 31
0.0
  0
LINE
  5
174CF
  8
AM_0
 10
673.53762216805274
 20
565.21780285090415
 30
0.0
 11
569.96340216805595
 21
565.21782842009736
 31
0.0
  0
LINE
  5
174D0
  8
AM_0
 10
673.53762289135955
 20
568.14773285090382
 30
0.0
 11
569.95198289136272
 21
568.1477584229167
 31
0.0
  0
LINE
  5
174D1
  8
AM_0
 10
573.6504727703998
 20
567.65776750987663
 30
0.0
 11
672.63765277039658
 21
567.65774307307788
 31
0.0
  0
LINE
  5
174D2
  8
AM_0
 10
673.31765458981374
 20
575.02773290520724
 30
0.0
 11
570.17763458981699
 21
575.02775836721037
 31
0.0
  0
LINE
  5
174D3
  8
AM_0
 10
673.66762038563866
 20
557.99770281881149
 30
0.0
 11
569.6690424292417
 21
557.9977284927653
 31
0.0
  0
LINE
  5
174D4
  8
AM_0
 10
673.66761972899144
 20
555.33779281881129
 30
0.0
 11
569.82056727100098
 21
555.33781845535862
 31
0.0
  0
LINE
  5
174D5
  8
AM_0
 10
673.7276178996899
 20
547.92776280399926
 30
0.0
 11
569.61151864618614
 21
547.92778850696573
 31
0.0
  0
LINE
  5
174D6
  8
AM_0
 10
673.72761727510544
 20
545.39773280399959
 30
0.0
 11
569.7748052990994
 21
545.39775846665555
 31
0.0
  0
LINE
  5
174D7
  8
AM_0
 10
573.65427104588548
 20
545.65776750893815
 30
0.0
 11
672.63764733929372
 21
545.65774307307868
 31
0.0
  0
LINE
  5
174D8
  8
AM_0
 10
573.6542715396223
 20
547.65776750893815
 30
0.0
 11
672.63764783303009
 21
547.65774307307845
 31
0.0
  0
LINE
  5
174D9
  8
AM_0
 10
573.65427351457242
 20
555.65776750893804
 30
0.0
 11
672.63764980797669
 21
555.65774307307834
 31
0.0
  0
LINE
  5
174DA
  8
AM_0
 10
573.65427400828412
 20
557.65776750893781
 30
0.0
 11
672.63765030171362
 21
557.65774307307834
 31
0.0
  0
LINE
  5
174DB
  8
AM_0
 10
673.66761635182365
 20
527.97771915225042
 30
0.0
 11
569.82056389383024
 21
527.97771915225042
 31
0.0
  0
LINE
  5
174DC
  8
AM_0
 10
673.66761635182365
 20
525.31780915225033
 30
0.0
 11
569.66903839542329
 21
525.31780915225033
 31
0.0
  0
LINE
  5
174DD
  8
AM_0
 10
573.65427005841605
 20
527.65776915225024
 30
0.0
 11
672.63764635182361
 21
527.65776915225024
 31
0.0
  0
LINE
  5
174DE
  8
AM_0
 10
573.65427005839115
 20
525.65776915225024
 30
0.0
 11
672.63764635182361
 21
525.65776915225024
 31
0.0
  0
LINE
  5
174DF
  8
AM_0
 10
673.72761635182371
 20
537.9177791522502
 30
0.0
 11
569.77480437581426
 21
537.9177791522502
 31
0.0
  0
LINE
  5
174E0
  8
AM_0
 10
673.72761635182371
 20
535.38774915225042
 30
0.0
 11
569.61151709831665
 21
535.38774915225042
 31
0.0
  0
LINE
  5
174E1
  8
AM_0
 10
573.65427005841241
 20
537.65776915225024
 30
0.0
 11
672.63764635182361
 21
537.65776915225024
 31
0.0
  0
LINE
  5
174E2
  8
AM_0
 10
573.65427005841241
 20
535.65776915225024
 30
0.0
 11
672.63764635182361
 21
535.65776915225024
 31
0.0
  0
LINE
  5
174E3
  8
AM_0
 10
673.53761635182366
 20
515.1677791522502
 30
0.0
 11
569.95197635182365
 21
515.1677791522502
 31
0.0
  0
LINE
  5
174E4
  8
AM_0
 10
673.31764635182356
 20
508.28777915225038
 30
0.0
 11
570.17762635182373
 21
508.28777915225038
 31
0.0
  0
LINE
  5
174E5
  8
AM_0
 10
573.65046635182375
 20
515.65776915225024
 30
0.0
 11
672.63764635182361
 21
515.65776915225024
 31
0.0
  0
LINE
  5
174E6
  8
AM_0
 10
673.53761635182366
 20
518.09770915225033
 30
0.0
 11
569.96339635182369
 21
518.09770915225033
 31
0.0
  0
LINE
  5
174E7
  8
AM_0
 10
673.31764635182356
 20
504.93779915225019
 30
0.0
 11
570.17762635182373
 21
504.93779915225019
 31
0.0
  0
LINE
  5
174E8
  8
AM_0
 10
573.6648063518237
 20
517.65776915225024
 30
0.0
 11
672.63764635182361
 21
517.65776915225024
 31
0.0
  0
LINE
  5
174E9
  8
AM_0
 10
573.65760635182369
 20
507.65776915225018
 30
0.0
 11
672.63764635182361
 21
507.65776915225018
 31
0.0
  0
LINE
  5
174EA
  8
AM_0
 10
573.65760635182369
 20
505.65776915225041
 30
0.0
 11
672.63764635182361
 21
505.65776915225041
 31
0.0
  0
LINE
  5
174EB
  8
AM_0
 10
649.49760635182372
 20
579.88272724269052
 30
0.0
 11
566.99760635182372
 21
579.88272724269052
 31
0.0
  0
LINE
  5
174EC
  8
AM_0
 10
649.49760635182372
 20
503.43274224269038
 30
0.0
 11
566.99760635182372
 21
503.43274224269038
 31
0.0
  0
LINE
  5
174ED
  8
AM_0
 10
671.79759635182359
 20
485.3727302426903
 30
0.0
 11
574.87763635182375
 21
485.3727302426903
 31
0.0
  0
LINE
  5
174EE
  8
AM_0
 10
669.66805901253986
 20
504.93779915225019
 30
0.0
 11
674.99766635182357
 21
493.56276224269033
 31
0.0
  0
LINE
  5
174EF
  8
ｶｸﾚｾﾝ2
 10
668.99760635182372
 20
574.15778647153331
 30
0.0
 11
668.99760635182372
 21
509.1577864715332
 31
0.0
  0
POLYLINE
  5
174F0
  8
AM_0
 66
     1
 10
0.0
 20
0.0
 30
0.0
  0
VERTEX
  5
174F1
  8
AM_0
 10
672.63764635182042
 20
541.65774307307879
 30
0.0
 42
0.00039106649
  0
VERTEX
  5
174F2
  8
AM_0
 10
672.64000642862879
 20
541.96887307249619
 30
0.0
 42
0.00035488198
  0
VERTEX
  5
174F3
  8
AM_0
 10
672.64189650543176
 20
542.27998307202927
 30
0.0
 42
0.00039706113
  0
VERTEX
  5
174F4
  8
AM_0
 10
672.64332658223498
 20
542.59109307167648
 30
0.0
 42
0.00038765718
  0
VERTEX
  5
174F5
  8
AM_0
 10
672.6442566590456
 20
542.90223307144674
 30
0.0
 42
0.00040613432
  0
VERTEX
  5
174F6
  8
AM_0
 10
672.64470673584628
 20
543.2133330713358
 30
0.0
 42
0.00035573434
  0
VERTEX
  5
174F7
  8
AM_0
 10
672.64466681264946
 20
543.52444307134544
 30
0.0
 42
0.00038545884
  0
VERTEX
  5
174F8
  8
AM_0
 10
672.64417688945775
 20
543.83557307146668
 30
0.0
 42
0.00035501205
  0
VERTEX
  5
174F9
  8
AM_0
 10
672.64321696626098
 20
544.14668307170371
 30
0.0
 42
0.00040120779
  0
VERTEX
  5
174FA
  8
AM_0
 10
672.64179704309367
 20
544.45791307205411
 30
0.0
 42
0.00038317817
  0
VERTEX
  5
174FB
  8
AM_0
 10
672.63988711990191
 20
544.76904307252573
 30
0.0
 42
0.00035656084
  0
VERTEX
  5
174FC
  8
AM_0
 10
672.63750719673715
 20
545.08028307311338
 30
0.0
 42
0.00040143615
  0
VERTEX
  5
174FD
  8
AM_0
 10
672.63465727353775
 20
545.39138307381677
 30
0.0
  0
SEQEND
  5
174FE
  8
AM_0
  0
LINE
  5
174FF
  8
AM_0
 10
649.49766635182368
 20
579.8827372426905
 30
0.0
 11
669.67509635182387
 21
578.38273724269038
 31
0.0
  0
ARC
  5
17500
  8
AM_0
 10
673.53762252970489
 20
566.68276285090383
 30
0.0
 40
1.465004
 50
269.99998585549179
 51
89.999982855481051
  0
ARC
  5
17501
  8
ｶｸﾚｾﾝ2
 10
665.49760635182372
 20
574.15778647153331
 30
0.0
 40
3.5
 50
0.0
 51
90.0
  0
ARC
  5
17502
  8
AM_0
 10
673.32503500333064
 20
576.70278290338524
 30
0.0
 40
1.6750160000000001
 50
269.74611585548217
 51
90.253840855478728
  0
ARC
  5
17503
  8
AM_0
 10
672.45302499221145
 20
576.65774311865687
 30
0.0
 40
1.0000138999999999
 50
269.69164585549458
 51
90.308325855483133
  0
ARC
  5
17504
  8
AM_0
 10
672.45302252352849
 20
566.65774311865709
 30
0.0
 40
1.0000138999999999
 50
269.69164585549458
 51
90.308325855483133
  0
POLYLINE
  5
17505
  8
AM_0
 66
     1
 10
0.0
 20
0.0
 30
0.0
  0
VERTEX
  5
17506
  8
AM_0
 10
671.13674288964171
 20
568.14077344360487
 30
0.0
 42
0.00068898288
  0
VERTEX
  5
17507
  8
AM_0
 10
671.06586303152915
 20
568.71552346110286
 30
0.0
 42
0.00070644354
  0
VERTEX
  5
17508
  8
AM_0
 10
670.99336317340203
 20
569.29021347900118
 30
0.0
 42
0.00069248071
  0
VERTEX
  5
17509
  8
AM_0
 10
670.91927331518093
 20
569.86452349729154
 30
0.0
 42
0.00069585665
  0
VERTEX
  5
1750A
  8
AM_0
 10
670.84359345691792
 20
570.43866351597455
 30
0.0
 42
0.00068980191
  0
VERTEX
  5
1750B
  8
AM_0
 10
670.76629359862034
 20
571.01266353505741
 30
0.0
 42
0.00072080104
  0
VERTEX
  5
1750C
  8
AM_0
 10
670.68740374027072
 20
571.58645355453268
 30
0.0
 42
0.00071002307
  0
VERTEX
  5
1750D
  8
AM_0
 10
670.6068638818424
 20
572.15992357441553
 30
0.0
 42
0.00072659056
  0
VERTEX
  5
1750E
  8
AM_0
 10
670.52470402332278
 20
572.73302359469824
 30
0.0
 42
0.00069570481
  0
VERTEX
  5
1750F
  8
AM_0
 10
670.44088416478564
 20
573.30605361539074
 30
0.0
 42
0.00071266935
  0
VERTEX
  5
17510
  8
AM_0
 10
670.35545430618424
 20
573.87882363648089
 30
0.0
 42
0.00071614426
  0
VERTEX
  5
17511
  8
AM_0
 10
670.26842444747695
 20
574.45116365796537
 30
0.0
 42
0.00072288975
  0
VERTEX
  5
17512
  8
AM_0
 10
670.17971458875979
 20
575.02346367986524
 30
0.0
  0
SEQEND
  5
17513
  8
AM_0
  0
POLYLINE
  5
17514
  8
AM_0
 66
     1
 10
0.0
 20
0.0
 30
0.0
  0
VERTEX
  5
17515
  8
AM_0
 10
672.59358789977864
 20
547.92812308395537
 30
0.0
 42
0.00076691992
  0
VERTEX
  5
17516
  8
AM_0
 10
672.57878805228665
 20
548.54589308760922
 30
0.0
 42
0.00073262792
  0
VERTEX
  5
17517
  8
AM_0
 10
672.56214820474986
 20
549.16348309171724
 30
0.0
 42
0.00076529537
  0
VERTEX
  5
17518
  8
AM_0
 10
672.54365835723308
 20
549.78115309628163
 30
0.0
 42
0.00075141097
  0
VERTEX
  5
17519
  8
AM_0
 10
672.52328850969911
 20
550.39875310131049
 30
0.0
 42
0.00075841687
  0
VERTEX
  5
1751A
  8
AM_0
 10
672.50105866212289
 20
551.01618310679839
 30
0.0
 42
0.00075711788
  0
VERTEX
  5
1751B
  8
AM_0
 10
672.47694881456664
 20
551.63369311275028
 30
0.0
 42
0.00075976003
  0
VERTEX
  5
1751C
  8
AM_0
 10
672.45095896698035
 20
552.25108311916631
 30
0.0
 42
0.00075797311
  0
VERTEX
  5
1751D
  8
AM_0
 10
672.42311911936724
 20
552.8683631260393
 30
0.0
 42
0.0007482613
  0
VERTEX
  5
1751E
  8
AM_0
 10
672.39338927177891
 20
553.48574313337861
 30
0.0
 42
0.00074893561
  0
VERTEX
  5
1751F
  8
AM_0
 10
672.36182942412893
 20
554.10287314116965
 30
0.0
 42
0.00076039839
  0
VERTEX
  5
17520
  8
AM_0
 10
672.32840957645385
 20
554.71990314942002
 30
0.0
 42
0.00075618786
  0
VERTEX
  5
17521
  8
AM_0
 10
672.29310972878159
 20
555.33694315813432
 30
0.0
  0
SEQEND
  5
17522
  8
AM_0
  0
ARC
  5
17523
  8
AM_0
 10
673.66762005731653
 20
556.66775281881132
 30
0.0
 40
1.3300049999999981
 50
269.99998585549179
 51
89.999982855481051
  0
ARC
  5
17524
  8
AM_0
 10
672.4530200548453
 20
556.65774311865755
 30
0.0
 40
1.0000138999999999
 50
269.69164585549458
 51
90.308325855483133
  0
POLYLINE
  5
17525
  8
AM_0
 66
     1
 10
0.0
 20
0.0
 30
0.0
  0
VERTEX
  5
17526
  8
AM_0
 10
672.1194003857895
 20
557.99831320101794
 30
0.0
 42
0.0007337051
  0
VERTEX
  5
17527
  8
AM_0
 10
672.07526053450795
 20
558.60073321191464
 30
0.0
 42
0.00075211323
  0
VERTEX
  5
17528
  8
AM_0
 10
672.02932068321911
 20
559.20312322325583
 30
0.0
 42
0.0007297491
  0
VERTEX
  5
17529
  8
AM_0
 10
671.98159083188295
 20
559.80532323503871
 30
0.0
 42
0.00073593041
  0
VERTEX
  5
1752A
  8
AM_0
 10
671.93211098049505
 20
560.40731324725357
 30
0.0
 42
0.00074742739
  0
VERTEX
  5
1752B
  8
AM_0
 10
671.88084112907791
 20
561.00918325991063
 30
0.0
 42
0.00073217363
  0
VERTEX
  5
1752C
  8
AM_0
 10
671.82778127764345
 20
561.61098327300954
 30
0.0
 42
0.00073754168
  0
VERTEX
  5
1752D
  8
AM_0
 10
671.77296142614443
 20
562.21252328654259
 30
0.0
 42
0.00073075073
  0
VERTEX
  5
1752E
  8
AM_0
 10
671.71638157460131
 20
562.81388330051061
 30
0.0
 42
0.00074550816
  0
VERTEX
  5
1752F
  8
AM_0
 10
671.65804172298419
 20
563.41494331491265
 30
0.0
 42
0.00074288416
  0
VERTEX
  5
17530
  8
AM_0
 10
671.59789187135675
 20
564.01596332976192
 30
0.0
 42
0.00072504001
  0
VERTEX
  5
17531
  8
AM_0
 10
671.53598201966281
 20
564.6167133450457
 30
0.0
 42
0.00074640667
  0
VERTEX
  5
17532
  8
AM_0
 10
671.47231216793193
 20
565.21731336076346
 30
0.0
  0
SEQEND
  5
17533
  8
AM_0
  0
ARC
  5
17534
  8
AM_0
 10
673.73347758739635
 20
546.66274280255266
 30
0.0
 40
1.2650129999999991
 50
269.73557585548838
 51
90.264406855489256
  0
ARC
  5
17535
  8
AM_0
 10
672.45301758616199
 20
546.65774311865778
 30
0.0
 40
1.0000138999999999
 50
269.69164585549458
 51
90.308325855483133
  0
LINE
  5
17536
  8
AM_0
 10
649.49760635182372
 20
503.43274224269038
 30
0.0
 11
669.67045635182365
 21
504.93274224269038
 31
0.0
  0
POLYLINE
  5
17537
  8
AM_0
 66
     1
 10
0.0
 20
0.0
 30
0.0
  0
VERTEX
  5
17538
  8
AM_0
 10
672.11939635182375
 20
525.31719915225028
 30
0.0
 42
-0.0007337051
  0
VERTEX
  5
17539
  8
AM_0
 10
672.07525635182378
 20
524.71477915225034
 30
0.0
 42
-0.00075211323
  0
VERTEX
  5
1753A
  8
AM_0
 10
672.0293163518237
 20
524.11238915225033
 30
0.0
 42
-0.0007297491
  0
VERTEX
  5
1753B
  8
AM_0
 10
671.98158635182369
 20
523.51018915225029
 30
0.0
 42
-0.00073593041
  0
VERTEX
  5
1753C
  8
AM_0
 10
671.93210635182356
 20
522.90819915225029
 30
0.0
 42
-0.00074742739
  0
VERTEX
  5
1753D
  8
AM_0
 10
671.88083635182375
 20
522.30632915225033
 30
0.0
 42
-0.00073217363
  0
VERTEX
  5
1753E
  8
AM_0
 10
671.82777635182367
 20
521.70452915225042
 30
0.0
 42
-0.00073754168
  0
VERTEX
  5
1753F
  8
AM_0
 10
671.77295635182372
 20
521.10298915225042
 30
0.0
 42
-0.00073075073
  0
VERTEX
  5
17540
  8
AM_0
 10
671.71637635182378
 20
520.50162915225042
 30
0.0
 42
-0.00074550816
  0
VERTEX
  5
17541
  8
AM_0
 10
671.65803635182374
 20
519.90056915225034
 30
0.0
 42
-0.00074288416
  0
VERTEX
  5
17542
  8
AM_0
 10
671.59788635182372
 20
519.29954915225005
 30
0.0
 42
-0.00072504001
  0
VERTEX
  5
17543
  8
AM_0
 10
671.53597635182371
 20
518.69879915225033
 30
0.0
 42
-0.00074640667
  0
VERTEX
  5
17544
  8
AM_0
 10
671.4723063518237
 20
518.09819915225034
 30
0.0
  0
SEQEND
  5
17545
  8
AM_0
  0
POLYLINE
  5
17546
  8
AM_0
 66
     1
 10
0.0
 20
0.0
 30
0.0
  0
VERTEX
  5
17547
  8
AM_0
 10
672.59358635182377
 20
535.38738915225031
 30
0.0
 42
-0.00076691992
  0
VERTEX
  5
17548
  8
AM_0
 10
672.57878635182374
 20
534.76961915225024
 30
0.0
 42
-0.00073262792
  0
VERTEX
  5
17549
  8
AM_0
 10
672.56214635182369
 20
534.15202915225029
 30
0.0
 42
-0.00076529537
  0
VERTEX
  5
1754A
  8
AM_0
 10
672.54365635182376
 20
533.5343591522502
 30
0.0
 42
-0.00075141097
  0
VERTEX
  5
1754B
  8
AM_0
 10
672.52328635182357
 20
532.91675915225017
 30
0.0
 42
-0.00075841687
  0
VERTEX
  5
1754C
  8
AM_0
 10
672.50105635182365
 20
532.29932915225038
 30
0.0
 42
-0.00075711788
  0
VERTEX
  5
1754D
  8
AM_0
 10
672.4769463518237
 20
531.68181915225034
 30
0.0
 42
-0.00075976003
  0
VERTEX
  5
1754E
  8
AM_0
 10
672.45095635182372
 20
531.06442915225034
 30
0.0
 42
-0.00075797311
  0
VERTEX
  5
1754F
  8
AM_0
 10
672.42311635182364
 20
530.44714915225029
 30
0.0
 42
-0.0007482613
  0
VERTEX
  5
17550
  8
AM_0
 10
672.39338635182366
 20
529.82976915225026
 30
0.0
 42
-0.00074893561
  0
VERTEX
  5
17551
  8
AM_0
 10
672.36182635182365
 20
529.21263915225018
 30
0.0
 42
-0.00076039839
  0
VERTEX
  5
17552
  8
AM_0
 10
672.32840635182379
 20
528.59560915225029
 30
0.0
 42
-0.00075618786
  0
VERTEX
  5
17553
  8
AM_0
 10
672.29310635182367
 20
527.97856915225032
 30
0.0
  0
SEQEND
  5
17554
  8
AM_0
  0
ARC
  5
17555
  8
AM_0
 10
672.45301635182363
 20
536.65776915225024
 30
0.0
 40
1.0000138999999999
 50
269.69165999999939
 51
90.308340000000754
  0
ARC
  5
17556
  8
AM_0
 10
673.73347635182358
 20
536.65276915225024
 30
0.0
 40
1.2650129999999991
 50
269.7355789999952
 51
90.264409999995962
  0
POLYLINE
  5
17557
  8
AM_0
 66
     1
 10
0.0
 20
0.0
 30
0.0
  0
VERTEX
  5
17558
  8
AM_0
 10
672.63764635182361
 20
541.65776915225024
 30
0.0
 42
-0.00039106649
  0
VERTEX
  5
17559
  8
AM_0
 10
672.64000635182367
 20
541.34663915225019
 30
0.0
 42
-0.00035488198
  0
VERTEX
  5
1755A
  8
AM_0
 10
672.64189635182356
 20
541.03552915225032
 30
0.0
 42
-0.00039706113
  0
VERTEX
  5
1755B
  8
AM_0
 10
672.6433263518237
 20
540.72441915225033
 30
0.0
 42
-0.00038765718
  0
VERTEX
  5
1755C
  8
AM_0
 10
672.64425635182374
 20
540.41327915225031
 30
0.0
 42
-0.00040613432
  0
VERTEX
  5
1755D
  8
AM_0
 10
672.64470635182374
 20
540.10217915225041
 30
0.0
 42
-0.00035573434
  0
VERTEX
  5
1755E
  8
AM_0
 10
672.64466635182362
 20
539.79106915225032
 30
0.0
 42
-0.00038545884
  0
VERTEX
  5
1755F
  8
AM_0
 10
672.64417635182372
 20
539.47993915225038
 30
0.0
 42
-0.00035501205
  0
VERTEX
  5
17560
  8
AM_0
 10
672.64321635182364
 20
539.1688291522504
 30
0.0
 42
-0.00040120779
  0
VERTEX
  5
17561
  8
AM_0
 10
672.6417963518237
 20
538.85759915225015
 30
0.0
 42
-0.00038317817
  0
VERTEX
  5
17562
  8
AM_0
 10
672.63988635182363
 20
538.54646915225032
 30
0.0
 42
-0.00035656084
  0
VERTEX
  5
17563
  8
AM_0
 10
672.63750635182373
 20
538.23522915225033
 30
0.0
 42
-0.00040143615
  0
VERTEX
  5
17564
  8
AM_0
 10
672.63465635182365
 20
537.92412915225032
 30
0.0
  0
SEQEND
  5
17565
  8
AM_0
  0
ARC
  5
17566
  8
AM_0
 10
672.45301635182363
 20
526.65776915225024
 30
0.0
 40
1.0000138999999999
 50
269.69165999999939
 51
90.308340000000754
  0
ARC
  5
17567
  8
AM_0
 10
673.66761635182365
 20
526.64775915225027
 30
0.0
 40
1.3300049999999981
 50
270.00000299999761
 51
90.0
  0
ARC
  5
17568
  8
ｶｸﾚｾﾝ2
 10
665.49760635182372
 20
509.1577864715332
 30
0.0
 40
3.5
 50
270.0
 51
0.0
  0
POLYLINE
  5
17569
  8
AM_0
 66
     1
 10
0.0
 20
0.0
 30
0.0
  0
VERTEX
  5
1756A
  8
AM_0
 10
671.13673635182363
 20
515.17473915225025
 30
0.0
 42
-0.00068898288
  0
VERTEX
  5
1756B
  8
AM_0
 10
671.06585635182375
 20
514.59998915225015
 30
0.0
 42
-0.00070644354
  0
VERTEX
  5
1756C
  8
AM_0
 10
670.99335635182365
 20
514.02529915225034
 30
0.0
 42
-0.00069248071
  0
VERTEX
  5
1756D
  8
AM_0
 10
670.91926635182369
 20
513.45098915225037
 30
0.0
 42
-0.00069585665
  0
VERTEX
  5
1756E
  8
AM_0
 10
670.84358635182366
 20
512.87684915225032
 30
0.0
 42
-0.00068980191
  0
VERTEX
  5
1756F
  8
AM_0
 10
670.76628635182374
 20
512.30284915225025
 30
0.0
 42
-0.00072080104
  0
VERTEX
  5
17570
  8
AM_0
 10
670.68739635182374
 20
511.72905915225027
 30
0.0
 42
-0.00071002307
  0
VERTEX
  5
17571
  8
AM_0
 10
670.60685635182358
 20
511.15558915225029
 30
0.0
 42
-0.00072659056
  0
VERTEX
  5
17572
  8
AM_0
 10
670.52469635182365
 20
510.58248915225028
 30
0.0
 42
-0.00069570481
  0
VERTEX
  5
17573
  8
AM_0
 10
670.4408763518237
 20
510.00945915225032
 30
0.0
 42
-0.00071266935
  0
VERTEX
  5
17574
  8
AM_0
 10
670.35544635182373
 20
509.43668915225021
 30
0.0
 42
-0.00071614426
  0
VERTEX
  5
17575
  8
AM_0
 10
670.26841635182359
 20
508.86434915225021
 30
0.0
 42
-0.00072288975
  0
VERTEX
  5
17576
  8
AM_0
 10
670.1797063518236
 20
508.29204915225029
 30
0.0
  0
SEQEND
  5
17577
  8
AM_0
  0
ARC
  5
17578
  8
AM_0
 10
673.53761635182366
 20
516.63274915225031
 30
0.0
 40
1.465004
 50
270.00000299999761
 51
90.0
  0
ARC
  5
17579
  8
AM_0
 10
672.45301635182363
 20
516.65776915225024
 30
0.0
 40
1.0000138999999999
 50
269.69165999999939
 51
90.308340000000754
  0
ARC
  5
1757A
  8
AM_0
 10
672.45301635182363
 20
506.65776915225018
 30
0.0
 40
1.0000138999999999
 50
269.69165999999939
 51
90.308340000000754
  0
ARC
  5
1757B
  8
AM_0
 10
673.32502635182357
 20
506.61272915225021
 30
0.0
 40
1.6750160000000001
 50
269.7461450000045
 51
90.253870000000958
  0
LINE
  5
1757C
  8
ﾁｭｳｼﾝｾﾝ1
 10
617.99760635182372
 20
582.28276405738723
 30
0.0
 11
617.99760635182372
 21
501.03276105738712
 31
0.0
  0
LINE
  5
1757D
  8
AM_0
 10
671.70762635182371
 20
479.76274424269047
 30
0.0
 11
637.99760635182361
 21
479.76274424269047
 31
0.0
  0
LINE
  5
1757E
  8
AM_0
 10
671.7275863518239
 20
480.68273524269028
 30
0.0
 11
637.99760635182361
 21
480.68273524269028
 31
0.0
  0
LINE
  5
1757F
  8
AM_0
 10
671.74760635182372
 20
482.52273924269048
 30
0.0
 11
637.99760635182361
 21
482.52273924269048
 31
0.0
  0
ARC
  5
17580
  8
AM_0
 10
671.7929563518237
 20
487.3717382426903
 30
0.0
 40
1.9990078999999989
 50
270.13344999999691
 51
349.36259000000302
  0
LINE
  5
17581
  8
AM_0
 10
674.99760635182372
 20
490.87276024269028
 30
0.0
 11
673.68760635182389
 21
481.49275524269052
 31
0.0
  0
LINE
  5
17582
  8
AM_0
 10
674.99754635182376
 20
490.8727372426905
 30
0.0
 11
673.70756635182374
 21
482.37274524269031
 31
0.0
  0
LINE
  5
17583
  8
AM_0
 10
674.99760635182372
 20
492.21273324269032
 30
0.0
 11
673.71763635182367
 21
484.21274124269019
 31
0.0
  0
LINE
  5
17584
  8
AM_0
 10
674.99760635182372
 20
493.56272424269031
 30
0.0
 11
673.75761635182357
 21
487.0027272426903
 31
0.0
  0
ARC
  5
17585
  8
AM_0
 10
671.73405635182371
 20
482.6800722426903
 30
0.0
 40
1.9973480999999991
 50
269.81532000000249
 51
351.14853000000028
  0
ARC
  5
17586
  8
AM_0
 10
671.70548635182365
 20
481.76321724269047
 30
0.0
 40
2.0004758999999992
 50
270.06030999999751
 51
352.22953999999908
  0
ARC
  5
17587
  8
AM_0
 10
671.74162635182392
 20
484.52291424269032
 30
0.0
 40
2.0001840999999998
 50
270.1714700000008
 51
351.07899999999728
  0
ARC
  5
17588
  8
AM_0
 10
638.00089635182394
 20
482.68602324269028
 30
0.0
 40
2.003279899999999
 50
180.09378999999711
 51
269.90621000000277
  0
ARC
  5
17589
  8
AM_0
 10
638.0055963518239
 20
481.77074724269028
 30
0.0
 40
2.0080360999999991
 50
180.22878999999941
 51
269.77121000000062
  0
LINE
  5
1758A
  8
AM_0
 10
635.99760635182372
 20
481.76273724269038
 30
0.0
 11
635.99760635182372
 21
485.3727302426903
 31
0.0
  0
ARC
  5
1758B
  8
AM_0
 10
638.00480635182373
 20
484.52991824269031
 30
0.0
 40
2.0071799999999991
 50
180.2046199999977
 51
269.79537999999582
  0
LINE
  5
1758C
  8
AM_0
 10
568.49760635182372
 20
503.43275024269019
 30
0.0
 11
572.94761635182374
 21
486.85274824269038
 31
0.0
  0
LINE
  5
1758D
  8
ｶｸﾚｾﾝ2
 10
584.49760635182372
 20
519.15778647153331
 30
0.0
 11
584.49760635182372
 21
564.15778647153354
 31
0.0
  0
LINE
  5
1758E
  8
AM_0
 10
566.99760635182372
 20
587.6577372426907
 30
0.0
 11
558.99763635182364
 21
587.6577372426907
 31
0.0
  0
LINE
  5
1758F
  8
AM_0
 10
566.99760635182372
 20
573.59774724269062
 30
0.0
 11
558.99763635182364
 21
573.59774724269062
 31
0.0
  0
ARC
  5
17590
  8
ｶｸﾚｾﾝ2
 10
582.49760635182372
 20
564.15778647153354
 30
0.0
 40
2.0
 50
0.0
 51
90.0
  0
ARC
  5
17591
  8
AM_0
 10
569.95766253094484
 20
566.68779842151434
 30
0.0
 40
1.460011199999999
 50
89.775235855490308
 51
270.22473585548403
  0
ARC
  5
17592
  8
AM_0
 10
573.65767252353123
 20
566.65776750809925
 30
0.0
 40
1.0000255999999981
 50
89.589454855482614
 51
270.41051585548382
  0
ARC
  5
17593
  8
AM_0
 10
573.65761499221469
 20
576.65776750811381
 30
0.0
 40
1.0
 50
89.999982855481051
 51
269.99999585549278
  0
ARC
  5
17594
  8
ｶｸﾚｾﾝ2
 10
581.99760635182372
 20
575.65778647153331
 30
0.0
 40
2.0
 50
90.0
 51
180.0
  0
ARC
  5
17595
  8
ｶｸﾚｾﾝ2
 10
581.99760635182372
 20
568.15778647153354
 30
0.0
 40
2.0
 50
180.0
 51
270.0
  0
LINE
  5
17596
  8
ｶｸﾚｾﾝ2
 10
581.99760635182372
 20
566.15778647153354
 30
0.0
 11
582.49760635182372
 21
566.15778647153354
 31
0.0
  0
LINE
  5
17597
  8
ｶｸﾚｾﾝ2
 10
579.99760635182361
 20
575.65778647153354
 30
0.0
 11
579.99760635182361
 21
568.15778647153354
 31
0.0
  0
ARC
  5
17598
  8
AM_0
 10
570.17765517109342
 20
576.70278436720503
 30
0.0
 40
1.675026000120903
 50
90.000672712195325
 51
269.99929599881659
  0
ARC
  5
17599
  8
AM_0
 10
567.34440635182375
 20
581.38050724269033
 30
0.0
 40
1.5027759999999999
 50
270.12240999999699
 51
345.24357000000072
  0
ARC
  5
1759A
  8
AM_0
 10
573.65765015484828
 20
556.65776750810437
 30
0.0
 40
1.000005699999998
 50
89.999982855481051
 51
269.99999585549278
  0
ARC
  5
1759B
  8
AM_0
 10
573.65764768616498
 20
546.65776750810471
 30
0.0
 40
1.000005699999998
 50
89.999982855481051
 51
269.99999585549278
  0
ARC
  5
1759C
  8
AM_0
 10
569.83266365855366
 20
556.67277845237231
 30
0.0
 40
1.3350147999999999
 50
89.730429855483649
 51
270.26955585549172
  0
ARC
  5
1759D
  8
AM_0
 10
569.77071118863626
 20
546.66777846766604
 30
0.0
 40
1.2700266
 50
89.629315855484165
 51
270.3706658554824
  0
LINE
  5
1759E
  8
AM_0
 10
566.99760635182372
 20
509.71774624269028
 30
0.0
 11
558.99763635182364
 21
509.71774624269028
 31
0.0
  0
ARC
  5
1759F
  8
AM_0
 10
573.65764645182355
 20
526.65776915225024
 30
0.0
 40
1.000005699999998
 50
89.999989999998988
 51
270.00000299999761
  0
ARC
  5
175A0
  8
AM_0
 10
573.65764645182355
 20
536.65776915225024
 30
0.0
 40
1.000005699999998
 50
89.999989999998988
 51
270.00000299999761
  0
ARC
  5
175A1
  8
AM_0
 10
569.77070995182362
 20
536.64775915225016
 30
0.0
 40
1.2700266
 50
89.629319999999964
 51
270.37066999999809
  0
ARC
  5
175A2
  8
AM_0
 10
569.83265995182364
 20
526.64275915225039
 30
0.0
 40
1.3350147999999999
 50
89.730429999999885
 51
270.26955599999479
  0
ARC
  5
175A3
  8
AM_0
 10
573.65760635182369
 20
506.65776915225018
 30
0.0
 40
1.0
 50
89.999989999998988
 51
270.00000299999761
  0
ARC
  5
175A4
  8
AM_0
 10
573.65766635182376
 20
516.65776915225024
 30
0.0
 40
1.0000255999999981
 50
89.58946999999668
 51
270.41053099999777
  0
LINE
  5
175A5
  8
ｶｸﾚｾﾝ2
 10
579.99760635182361
 20
515.15778647153331
 30
0.0
 11
579.99760635182361
 21
507.6577864715332
 31
0.0
  0
LINE
  5
175A6
  8
ｶｸﾚｾﾝ2
 10
579.99760635182361
 20
515.15778647153331
 30
0.0
 11
579.99760635182361
 21
507.6577864715332
 31
0.0
  0
ARC
  5
175A7
  8
ｶｸﾚｾﾝ2
 10
581.99760635182372
 20
515.15778647153331
 30
0.0
 40
2.0
 50
90.0
 51
180.0
  0
LINE
  5
175A8
  8
ｶｸﾚｾﾝ2
 10
582.49760635182372
 20
517.15778647153331
 30
0.0
 11
581.99760635182372
 21
517.15778647153331
 31
0.0
  0
ARC
  5
175A9
  8
ｶｸﾚｾﾝ2
 10
582.49760635182372
 20
519.15778647153331
 30
0.0
 40
2.0
 50
270.0
 51
0.0
  0
ARC
  5
175AA
  8
ｶｸﾚｾﾝ2
 10
581.99760635182372
 20
507.6577864715332
 30
0.0
 40
2.0
 50
180.0
 51
270.0
  0
ARC
  5
175AB
  8
AM_0
 10
569.95765635182374
 20
516.62773915225046
 30
0.0
 40
1.460011199999999
 50
89.775250000003169
 51
270.22474999999679
  0
ARC
  5
175AC
  8
AM_0
 10
570.17764651958919
 20
506.612753152251
 30
0.0
 40
1.675026000120903
 50
90.000689856662149
 51
269.99931314329649
  0
LINE
  5
175AD
  8
AM_0
 10
566.99760635182372
 20
495.65774124269029
 30
0.0
 11
558.99763635182364
 21
495.65774124269029
 31
0.0
  0
LINE
  5
175AE
  8
AM_0
 10
566.99760635182372
 20
485.6577332426902
 30
0.0
 11
558.99763635182364
 21
485.6577332426902
 31
0.0
  0
ARC
  5
175AF
  8
AM_0
 10
574.88047635182375
 20
487.37487324269028
 30
0.0
 40
2.0021281000000002
 50
195.11669999999501
 51
269.9184800000001
  0
LINE
  5
175B0
  8
AM_0
 10
572.45762635182371
 20
488.65274424269029
 30
0.0
 11
566.99760635182372
 21
488.65274424269029
 31
0.0
  0
TEXT
  5
176D8
  8
AM_0
 10
93.925961538900523
 20
544.69726022700183
 30
0.0
 40
10.0
  1
VC01-080FBR~VC01-240FBR
1001
ACAD
1000
MTEXTBEGIN
1070
    73
1070
     1
1070
    44
1040
1.0
1070
    74
1070
     0
1000
MTEXTEND
  0
VIEWPORT
  5
89
 67
     1
  8
0
 10
210.0
 20
148.5
 30
0.0
 40
420.0
 41
297.0
 68
     1
 69
     1
1001
ACAD
1000
MVIEW
1002
{
1070
    16
1010
0.0
1020
0.0
1030
0.0
1010
0.0
1020
0.0
1030
1.0
1040
0.0
1040
297.0
1040
221.70154043645701
1040
148.5
1040
50.0
1040
0.0
1040
0.0
1070
     0
1070
   100
1070
     1
1070
     1
1070
     0
1070
     0
1070
     0
1070
     0
1040
0.0
1040
0.0
1040
0.0
1040
10.0
1040
10.0
1040
10.0
1040
10.0
1070
     0
1002
{
1002
}
1002
}
1001
GENIUS_GENOREF_13
1005
1B94
1001
GENIUS_GENSCREG_15
1000
PF
1040
1.0
1000
DF
1040
1.0
1000
MIN
1011
0.0
1021
0.0
1031
0.0
1021
0.0
1031
0.0
1000
MAX
1011
420.0
1021
0.0
1031
0.0
1021
297.0
1031
0.0
1000
FLAGS
1070
     4
  0
ENDSEC
  0
EOF
