  0
SECTION
  2
HEADER
  9
$ACADVER
  1
AC1009
  9
$INSBASE
 10
0.0
 20
0.0
 30
0.0
  9
$EXTMIN
 10
54.020967626270021
 20
131.51730449380869
 30
-0.0015258207003583
  9
$EXTMAX
 10
790.62314034174551
 20
614.87951334898344
 30
0.0000000349246037
  9
$LIMMIN
 10
0.0
 20
0.0
  9
$LIMMAX
 10
853.5
 20
555.00000000000011
  9
$ORTHOMODE
 70
     0
  9
$REGENMODE
 70
     1
  9
$FILLMODE
 70
     1
  9
$QTEXTMODE
 70
     0
  9
$MIRRTEXT
 70
     1
  9
$DRAGMODE
 70
     2
  9
$LTSCALE
 40
3.0
  9
$OSMODE
 70
   551
  9
$ATTMODE
 70
     1
  9
$TEXTSIZE
 40
2.5
  9
$TRACEWID
 40
1.0
  9
$TEXTSTYLE
  7
STANDARD
  9
$CLAYER
  8
AM_0
  9
$CELTYPE
  6
BYLAYER
  9
$CECOLOR
 62
   256
  9
$DIMSCALE
 40
3.0
  9
$DIMASZ
 40
2.5
  9
$DIMEXO
 40
1.0
  9
$DIMDLI
 40
7.0
  9
$DIMRND
 40
0.0
  9
$DIMDLE
 40
0.0
  9
$DIMEXE
 40
1.0
  9
$DIMTP
 40
0.1
  9
$DIMTM
 40
0.1000000001
  9
$DIMTXT
 40
2.5
  9
$DIMCEN
 40
0.0
  9
$DIMTSZ
 40
0.0
  9
$DIMTOL
 70
     0
  9
$DIMLIM
 70
     0
  9
$DIMTIH
 70
     0
  9
$DIMTOH
 70
     0
  9
$DIMSE1
 70
     0
  9
$DIMSE2
 70
     0
  9
$DIMTAD
 70
     3
  9
$DIMZIN
 70
     8
  9
$DIMBLK
  1

  9
$DIMASO
 70
     1
  9
$DIMSHO
 70
     1
  9
$DIMPOST
  1

  9
$DIMAPOST
  1
"
  9
$DIMALT
 70
     0
  9
$DIMALTD
 70
     2
  9
$DIMALTF
 40
0.0393701
  9
$DIMLFAC
 40
1.0
  9
$DIMTOFL
 70
     1
  9
$DIMTVP
 40
0.0
  9
$DIMTIX
 70
     0
  9
$DIMSOXD
 70
     0
  9
$DIMSAH
 70
     0
  9
$DIMBLK1
  1

  9
$DIMBLK2
  1

  9
$DIMSTYLE
  2
AM_JIS
  9
$DIMCLRD
 70
   256
  9
$DIMCLRE
 70
   256
  9
$DIMCLRT
 70
     4
  9
$DIMTFAC
 40
0.71
  9
$DIMGAP
 40
1.0
  9
$LUNITS
 70
     2
  9
$LUPREC
 70
     2
  9
$SKETCHINC
 40
1.0
  9
$FILLETRAD
 40
5.0
  9
$AUNITS
 70
     0
  9
$AUPREC
 70
     3
  9
$MENU
  1
.
  9
$ELEVATION
 40
0.0
  9
$PELEVATION
 40
0.0
  9
$THICKNESS
 40
0.0
  9
$LIMCHECK
 70
     0
  9
$BLIPMODE
 70
     0
  9
$CHAMFERA
 40
7.5
  9
$CHAMFERB
 40
7.5
  9
$SKPOLY
 70
     0
  9
$TDCREATE
 40
2452753.643349607
  9
$TDUPDATE
 40
2458543.5405706712
  9
$TDINDWG
 40
0.4225721991
  9
$TDUSRTIMER
 40
0.4225720023
  9
$USRTIMER
 70
     1
  9
$ANGBASE
 50
0.0
  9
$ANGDIR
 70
     0
  9
$PDMODE
 70
     0
  9
$PDSIZE
 40
0.0
  9
$PLINEWID
 40
0.0
  9
$COORDS
 70
     1
  9
$SPLFRAME
 70
     0
  9
$SPLINETYPE
 70
     6
  9
$SPLINESEGS
 70
     8
  9
$ATTDIA
 70
     1
  9
$ATTREQ
 70
     1
  9
$HANDLING
 70
     1
  9
$HANDSEED
  5
179A9
  9
$SURFTAB1
 70
     6
  9
$SURFTAB2
 70
     6
  9
$SURFTYPE
 70
     6
  9
$SURFU
 70
     6
  9
$SURFV
 70
     6
  9
$UCSNAME
  2

  9
$UCSORG
 10
0.0
 20
0.0
 30
0.0
  9
$UCSXDIR
 10
1.0
 20
0.0
 30
0.0
  9
$UCSYDIR
 10
0.0
 20
1.0
 30
0.0
  9
$PUCSNAME
  2

  9
$PUCSORG
 10
0.0
 20
0.0
 30
0.0
  9
$PUCSXDIR
 10
1.0
 20
0.0
 30
0.0
  9
$PUCSYDIR
 10
0.0
 20
1.0
 30
0.0
  9
$USERI1
 70
     0
  9
$USERI2
 70
     0
  9
$USERI3
 70
     0
  9
$USERI4
 70
     0
  9
$USERI5
 70
     0
  9
$USERR1
 40
0.0
  9
$USERR2
 40
0.0
  9
$USERR3
 40
0.0
  9
$USERR4
 40
0.0
  9
$USERR5
 40
0.0
  9
$WORLDVIEW
 70
     1
  9
$SHADEDGE
 70
     3
  9
$SHADEDIF
 70
    70
  9
$TILEMODE
 70
     1
  9
$MAXACTVP
 70
    48
  9
$PLIMCHECK
 70
     0
  9
$PEXTMIN
 10
1.0000000000000000E+020
 20
1.0000000000000000E+020
 30
1.0000000000000000E+020
  9
$PEXTMAX
 10
-1.0000000000000000E+020
 20
-1.0000000000000000E+020
 30
-1.0000000000000000E+020
  9
$PLIMMIN
 10
0.0
 20
0.0
  9
$PLIMMAX
 10
420.0
 20
297.0
  9
$UNITMODE
 70
     0
  9
$VISRETAIN
 70
     1
  9
$PLINEGEN
 70
     0
  9
$PSLTSCALE
 70
     1
  0
ENDSEC
  0
SECTION
  2
TABLES
  0
TABLE
  2
VPORT
 70
     1
  0
VPORT
  2
*ACTIVE
 70
     0
 10
0.0
 20
0.0
 11
1.0
 21
1.0
 12
422.32205398400771
 22
373.19840892139609
 13
0.0
 23
0.0
 14
7.5
 24
7.5
 15
30.0
 25
30.0
 16
0.0
 26
0.0
 36
1.0
 17
0.0
 27
0.0
 37
0.0
 40
486.6804848885053
 41
1.7571592210767459
 42
50.0
 43
0.0
 44
0.0
 50
0.0
 51
0.0
 71
    16
 72
   100
 73
     1
 74
     1
 75
     0
 76
     0
 77
     0
 78
     0
  0
ENDTAB
  0
TABLE
  2
LTYPE
 70
    22
  0
LTYPE
  2
CONTINUOUS
 70
     0
  3
Solid line
 72
    65
 73
     0
 40
0.0
  0
LTYPE
  2
PHANTOM2
 70
     0
  3
Phantom (.5x) ___ _ _ ___ _ _ ___ _ _ ___ _ _
 72
    65
 73
     6
 40
31.75
 49
15.875
 49
-3.174999999999998
 49
3.174999999999998
 49
-3.174999999999998
 49
3.174999999999998
 49
-3.174999999999998
  0
LTYPE
  2
CENTER
 70
     0
  3
Center ____ _ ____ _ ____ _ ____ _ ____ _ ____
 72
    65
 73
     4
 40
50.799999999999997
 49
31.75
 49
-6.3499999999999979
 49
6.3499999999999979
 49
-6.3499999999999979
  0
LTYPE
  2
ACANSTGBM
 70
     0
  3
__ . . __ . .
 72
    65
 73
     6
 40
9.0
 49
4.0
 49
-1.0
 49
1.0
 49
-1.0
 49
1.0
 49
-1.0
  0
LTYPE
  2
ACANSTGLM
 70
     0
  3
_ _ _ _ _
 72
    65
 73
     2
 40
3.0
 49
2.0
 49
-1.0
  0
LTYPE
  2
GEN3B
 70
     0
  3
 - - - - -
 72
    65
 73
     2
 40
1.0
 49
0.5
 49
-0.5
  0
LTYPE
  2
GEN7A
 70
     0
  3
__ . __ . __
 72
    65
 73
     4
 40
7.375
 49
4.75
 49
-0.875
 49
0.875
 49
-0.875
  0
LTYPE
  2
AM_ISO02W050
 70
     0
  3
__ __ __ __ __ __ __ __ __ __ __ __ __ __ __
 72
    65
 73
     2
 40
7.5
 49
6.0
 49
-1.5
  0
LTYPE
  2
AM_ISO08W050
 70
     0
  3
____ . ____ . ____ . ____ . ____ . ____ . ____
 72
    65
 73
     4
 40
18.0
 49
12.0
 49
-1.5
 49
3.0
 49
-1.5
  0
LTYPE
  2
AM_ISO09W050
 70
     0
  3
_____ . . _____ . . _____ . . ____ .. ____
 72
    65
 73
     6
 40
22.5
 49
12.0
 49
-1.5
 49
3.0
 49
-1.5
 49
3.0
 49
-1.5
  0
LTYPE
  2
AMCONSTR
 70
     0
  3
_______________________
 72
    65
 73
     2
 40
9999.0
 49
9999.0
 49
0.0
  0
LTYPE
  2
AM_ISO02W050X2
 70
     0
  3
 _ _ _ _ _ _ _ _ _ _ _ _
 72
    65
 73
     2
 40
3.75
 49
3.0
 49
-0.75
  0
LTYPE
  2
AM_ISO08W050X2
 70
     0
  3
__ . __ . __ . __ . __ . __
 72
    65
 73
     4
 40
9.0
 49
6.0
 49
-0.75
 49
1.5
 49
-0.75
  0
LTYPE
  2
AMZIGZAG
 70
     0
  3
/\/-/\/-/\/-/\/-/\/-/\/
 72
    65
 73
     2
 40
11.0001
 49
0.0001
 49
-11.0
  0
LTYPE
  2
ACJISTGB
 70
     0
  3
__ . . __ . .
 72
    65
 73
     6
 40
9.0
 49
4.0
 49
-1.0
 49
1.0
 49
-1.0
 49
1.0
 49
-1.0
  0
LTYPE
  2
ACJISTGL
 70
     0
  3
_ _ _ _ _
 72
    65
 73
     2
 40
3.0
 49
2.0
 49
-1.0
  0
LTYPE
  2
ACISOWELD
 70
     0
  3
_ _ _ _ _
 72
    65
 73
     2
 40
2.0
 49
2.0
 49
-1.0
  0
LTYPE
  2
ACISOTGB
 70
     0
  3
__ . . __ . .
 72
    65
 73
     6
 40
9.0
 49
4.0
 49
-1.0
 49
1.0
 49
-1.0
 49
1.0
 49
-1.0
  0
LTYPE
  2
ACISOTGL
 70
     0
  3
_ _ _ _ _
 72
    65
 73
     2
 40
3.0
 49
2.0
 49
-1.0
  0
LTYPE
  2
GEN7
 70
     0
  3
____ . ____ . ____ . ____ . ____ . ____ . ____
 72
    65
 73
     4
 40
14.25
 49
9.75
 49
-1.5
 49
1.5
 49
-1.5
  0
LTYPE
  2
HIDDEN
 70
     0
  3
Hidden __ __ __ __ __ __ __ __ __ __ __ __ __ _
 72
    65
 73
     2
 40
9.5249999999999968
 49
6.3499999999999979
 49
-3.174999999999998
  0
ENDTAB
  0
TABLE
  2
LAYER
 70
    12
  0
LAYER
  2
0
 70
     0
 62
     7
  6
CONTINUOUS
  0
LAYER
  2
ｽﾝﾎﾟｳｾﾝ
 70
     0
 62
     2
  6
CONTINUOUS
  0
LAYER
  2
DEFPOINTS
 70
     0
 62
     7
  6
CONTINUOUS
  0
LAYER
  2
ｷｲﾛ
 70
     0
 62
     2
  6
CONTINUOUS
  0
LAYER
  2
ｶｸﾚｾﾝ2
 70
     0
 62
     3
  6
GEN3B
  0
LAYER
  2
ﾁｭｳｼﾝｾﾝ1
 70
     0
 62
     1
  6
GEN7A
  0
LAYER
  2
AM_0
 70
     0
 62
     7
  6
CONTINUOUS
  0
LAYER
  2
AM_0N
 70
     0
 62
     7
  6
CONTINUOUS
  0
LAYER
  2
AM_5
 70
     0
 62
     2
  6
CONTINUOUS
  0
LAYER
  2
ﾁｭｳｼﾝｾﾝ
 70
     0
 62
     1
  6
GEN7
  0
LAYER
  2
AM_7
 70
     0
 62
     1
  6
AM_ISO08W050
  0
LAYER
  2
1
 70
     0
 62
     7
  6
CONTINUOUS
  0
ENDTAB
  0
TABLE
  2
STYLE
 70
     8
  0
STYLE
  2
STANDARD
 70
     0
 40
0.0
 41
0.8299999999999999
 50
0.0
 71
     0
 42
2.5
  3
txt.shx
  4
bigfont.shx
  0
STYLE
  2
ACANSTS
 70
     0
 40
1.0
 41
1.0
 50
0.0
 71
     0
 42
2.5
  3
romans.shx
  4
bigfont.shx
  0
STYLE
  2
ACANSGDT
 70
     0
 40
0.0
 41
1.0
 50
0.0
 71
     0
 42
2.5
  3
amgdtans.shx
  4

  0
STYLE
  2

 70
     1
 40
0.0
 41
1.0
 50
0.0
 71
     0
 42
2.5
  3
ltypeshp.shx
  4

  0
STYLE
  2
ACJISTS
 70
     0
 40
1.0
 41
1.0
 50
0.0
 71
     0
 42
2.5
  3
isocp.shx
  4
bigfont.shx
  0
STYLE
  2
ACJISGDT
 70
     0
 40
0.0
 41
1.0
 50
0.0
 71
     0
 42
2.5
  3
amgdt.shx
  4

  0
STYLE
  2
ACISOTS
 70
     0
 40
3.0
 41
1.0
 50
0.0
 71
     0
 42
2.5
  3
isocp.shx
  4
extfont.shx
  0
STYLE
  2
ACISOGDT
 70
     0
 40
0.0
 41
1.0
 50
0.0
 71
     0
 42
2.5
  3
amgdt.shx
  4

  0
ENDTAB
  0
TABLE
  2
VIEW
 70
    12
  0
VIEW
  2
GEN1
 70
     0
 40
95.824742268041234
 10
71.5
 20
137.08762886597941
 41
143.0
 11
0.0
 21
0.0
 31
1.0
 12
0.0
 22
0.0
 32
0.0
 42
50.0
 43
0.0
 44
0.0
 50
0.0
 71
     0
  0
VIEW
  2
GEN2
 70
     0
 40
95.824742268041234
 10
214.5
 20
137.08762886597941
 41
143.0
 11
0.0
 21
0.0
 31
1.0
 12
0.0
 22
0.0
 32
0.0
 42
50.0
 43
0.0
 44
0.0
 50
0.0
 71
     0
  0
VIEW
  2
GEN3
 70
     0
 40
95.824742268041234
 10
71.5
 20
47.912371134020603
 41
143.0
 11
0.0
 21
0.0
 31
1.0
 12
0.0
 22
0.0
 32
0.0
 42
50.0
 43
0.0
 44
0.0
 50
0.0
 71
     0
  0
VIEW
  2
GEN4
 70
     0
 40
95.824742268041234
 10
214.5
 20
47.912371134020603
 41
143.0
 11
0.0
 21
0.0
 31
1.0
 12
0.0
 22
0.0
 32
0.0
 42
50.0
 43
0.0
 44
0.0
 50
0.0
 71
     0
  0
VIEW
  2
GEN5
 70
     0
 40
95.824742268041234
 10
143.0
 20
92.500000000000057
 41
143.0
 11
0.0
 21
0.0
 31
1.0
 12
0.0
 22
0.0
 32
0.0
 42
50.0
 43
0.0
 44
0.0
 50
0.0
 71
     0
  0
VIEW
  2
GEN6
 70
     0
 40
191.64756804123709
 10
143.0
 20
92.5
 41
285.99714
 11
0.0
 21
0.0
 31
1.0
 12
0.0
 22
0.0
 32
0.0
 42
50.0
 43
0.0
 44
0.0
 50
0.0
 71
     0
  0
VIEW
  2
AM_VIEW1
 70
     0
 40
277.50000000000011
 10
249.64779005524869
 20
416.25000000000011
 41
499.29558011049721
 11
0.0
 21
0.0
 31
1.0
 12
0.0
 22
0.0
 32
0.0
 42
50.0
 43
0.0
 44
0.0
 50
0.0
 71
    16
  0
VIEW
  2
AM_VIEW2
 70
     0
 40
277.50000000000011
 10
603.85220994475117
 20
416.25000000000011
 41
499.29558011049721
 11
0.0
 21
0.0
 31
1.0
 12
0.0
 22
0.0
 32
0.0
 42
50.0
 43
0.0
 44
0.0
 50
0.0
 71
    16
  0
VIEW
  2
AM_VIEW3
 70
     0
 40
277.50000000000011
 10
249.64779005524869
 20
138.75
 41
499.29558011049721
 11
0.0
 21
0.0
 31
1.0
 12
0.0
 22
0.0
 32
0.0
 42
50.0
 43
0.0
 44
0.0
 50
0.0
 71
    16
  0
VIEW
  2
AM_VIEW4
 70
     0
 40
277.50000000000011
 10
603.85220994475117
 20
138.75
 41
499.29558011049721
 11
0.0
 21
0.0
 31
1.0
 12
0.0
 22
0.0
 32
0.0
 42
50.0
 43
0.0
 44
0.0
 50
0.0
 71
    16
  0
VIEW
  2
AM_VIEW5
 70
     0
 40
277.50000000000011
 10
426.75
 20
277.50000000000011
 41
499.2955801104971
 11
0.0
 21
0.0
 31
1.0
 12
0.0
 22
0.0
 32
0.0
 42
50.0
 43
0.0
 44
0.0
 50
0.0
 71
    16
  0
VIEW
  2
AM_VIEW6
 70
     0
 40
554.99445000000014
 10
426.75
 20
277.5
 41
998.5811743093924
 11
0.0
 21
0.0
 31
1.0
 12
0.0
 22
0.0
 32
0.0
 42
50.0
 43
0.0
 44
0.0
 50
0.0
 71
    16
  0
ENDTAB
  0
TABLE
  2
UCS
 70
     0
  0
ENDTAB
  0
TABLE
  2
APPID
 70
    97
  0
APPID
  2
ACAD
 70
     0
  0
APPID
  2
MCAD_NO_VIS
 70
     0
  0
APPID
  2
ACAD_TEMP_GRAPHIC
 70
     0
  0
APPID
  2
AD_DRAW
 70
     0
  0
APPID
  2
DESIGNERASSEMBLIES
 70
     0
  0
APPID
  2
ASURF_PCURVE_APPNAME
 70
     0
  0
APPID
  2
GENIUS_GE3SECT_13
 70
     0
  0
APPID
  2
GENIUS_GENCFG_13
 70
     0
  0
APPID
  2
GENIUS_GE3CFG0_13
 70
     0
  0
APPID
  2
GENIUS_GENCFG0_13
 70
     0
  0
APPID
  2
GENIUS_GENCFG1_13
 70
     0
  0
APPID
  2
GENIUS_GENCFG2_13
 70
     0
  0
APPID
  2
GENIUS_GENCFG3_13
 70
     0
  0
APPID
  2
GENIUS_GENCFG4_13
 70
     0
  0
APPID
  2
GENIUS_GEVCFG0_13
 70
     0
  0
APPID
  2
GENIUS_GENOENT_13
 70
     0
  0
APPID
  2
GENIUS_GENREC_14
 70
     0
  0
APPID
  2
GENIUS_GENODEF_13
 70
     0
  0
APPID
  2
GENIUS_GENOBJ-N-REC_13
 70
     0
  0
APPID
  2
GENIUS_GENHINW_13
 70
     0
  0
APPID
  2
GENIUS_FIRSTVISTXT_14
 70
     0
  0
APPID
  2
GENIUS_GENOBJ-N-LEADER_13
 70
     0
  0
APPID
  2
GENIUS_GENOREF_13
 70
     0
  0
APPID
  2
GENIUS_GENOLIS_13
 70
     0
  0
APPID
  2
GEV_VCCNULL_SWITCH_OFF
 70
     0
  0
APPID
  2
GENIUS_GENDTOL_13
 70
     0
  0
APPID
  2
GENIUS_GEFCFG0_13
 70
     0
  0
APPID
  2
GENIUS_GENOBJ-N-TIT_13
 70
     0
  0
APPID
  2
GENIUS_GENTITLE_13
 70
     0
  0
APPID
  2
GENIUS_GENZVEED_13
 70
     0
  0
APPID
  2
GENIUS_GENOBJ-N-SDF_13
 70
     0
  0
APPID
  2
GENIUS_GENSCREG_13
 70
     0
  0
APPID
  2
GENIUS_DUMCFG0_13
 70
     0
  0
APPID
  2
GEVID936201362
 70
     0
  0
APPID
  2
GEVDC
 70
     0
  0
APPID
  2
GEVCON
 70
     0
  0
APPID
  2
VCC
 70
     0
  0
APPID
  2
GEVPT
 70
     0
  0
APPID
  2
GEVIT
 70
     0
  0
APPID
  2
GENBH
 70
     0
  0
APPID
  2
GEVMK
 70
     0
  0
APPID
  2
GENIUS_GENBH_13
 70
     0
  0
APPID
  2
GENIUS_GENOBJ-NBEHI-BHF_13
 70
     0
  0
APPID
  2
GENIUS_GENOBJ-NBEHI-BHB_13
 70
     0
  0
APPID
  2
GENIUS_GENOBJ-F-DESC_13
 70
     0
  0
APPID
  2
GENIUS_GEFDESC_14
 70
     0
  0
APPID
  2
GENIUS_GENOBJ-F-PART_13
 70
     0
  0
APPID
  2
GENIUS_GEFSTDP_13
 70
     0
  0
APPID
  2
GENIUS_GEFPARTINS_13
 70
     0
  0
APPID
  2
GENIUS_GENTRA_14
 70
     0
  0
APPID
  2
GENIUS_GENINF13_13
 70
     0
  0
APPID
  2
GENIUS_GENOBJ-N-INFOPT_13
 70
     0
  0
APPID
  2
GENIUS_GENOBJ-N-RSSYM_13
 70
     0
  0
APPID
  2
GENIUS_GENSYMENT_13
 70
     0
  0
APPID
  2
GENIUS_GENSCSYM_13
 70
     0
  0
APPID
  2
GENIUS_GEFINFNAM_13
 70
     0
  0
APPID
  2
GENIUS_GENSCREG_15
 70
     0
  0
APPID
  2
GENIUS_GENOBJ-N-CEN_13
 70
     0
  0
APPID
  2
GENIUS_GENOBJ-N-CRS_13
 70
     0
  0
APPID
  2
GENIUS_GENOBJ-N-CRC_13
 70
     0
  0
APPID
  2
GENIUS_GENCRC_14
 70
     0
  0
APPID
  2
GEVID942827039
 70
     0
  0
APPID
  2
GEVID942827040
 70
     0
  0
APPID
  2
GEVID942827041
 70
     0
  0
APPID
  2
GENIUS_GENOBJ-F-SCPASSM_13
 70
     0
  0
APPID
  2
GENIUS_GENDIMSH_14
 70
     0
  0
APPID
  2
GENIUS_GENFIL_13
 70
     0
  0
APPID
  2
GENIUS_GENOBJ-N-CHA_13
 70
     0
  0
APPID
  2
GENIUS_GENOBJ-N-FIL_13
 70
     0
  0
APPID
  2
GEVID942827042
 70
     0
  0
APPID
  2
GEVID946020473
 70
     0
  0
APPID
  2
GEVID946020474
 70
     0
  0
APPID
  2
GEVID946020475
 70
     0
  0
APPID
  2
GENIUS_GENOBJ-N-HTC_13
 70
     0
  0
APPID
  2
GENIUS_GENHATCH_13
 70
     0
  0
APPID
  2
GEVID948854295
 70
     0
  0
APPID
  2
GEVID939402019
 70
     0
  0
APPID
  2
GEVID952919491
 70
     0
  0
APPID
  2
GEVID952919492
 70
     0
  0
APPID
  2
GENIUS_GEFWELD_13
 70
     0
  0
APPID
  2
GENIUS_GENOBJ-F-WELS_13
 70
     0
  0
APPID
  2
GEVID952919493
 70
     0
  0
APPID
  2
GENIUS_GENOBJ-N-RSBK_13
 70
     0
  0
APPID
  2
GENIUS_GENOBJ-N-LIB_13
 70
     0
  0
APPID
  2
GENIUS_GENSCALE_13
 70
     0
  0
APPID
  2
GEVID986376691
 70
     0
  0
APPID
  2
ACATTRIBSERVICES
 70
     0
  0
APPID
  2
DCO15
 70
     0
  0
APPID
  2
GEVID1088155249
 70
     0
  0
APPID
  2
ACADM_DIM_EDIT
 70
     0
  0
APPID
  2
AMDT_DM_ADJ
 70
     0
  0
APPID
  2
ACAD_MLEADERVER
 70
     0
  0
APPID
  2
ACAD_DSTYLE_DIMBREAK
 70
     0
  0
APPID
  2
ACAD_DSTYLE_DIMJAG
 70
     0
  0
APPID
  2
ACAD_NAV_VCDISPLAY
 70
     0
  0
APPID
  2
ACADANNOPO
 70
     0
  0
APPID
  2
ACAD_EXEMPT_FROM_CAD_STANDARDS
 70
     0
  0
ENDTAB
  0
TABLE
  2
DIMSTYLE
 70
    16
  0
DIMSTYLE
  2
STANDARD
 70
     0
  3

  4

  5

  6

  7

 40
1.0
 41
0.18
 42
0.0625
 43
0.38
 44
0.18
 45
0.0
 46
0.0
 47
0.0
 48
0.0
140
0.18
141
0.09
142
0.0
143
25.399999999999999
144
1.0
145
0.0
146
1.0
147
0.09
 71
     0
 72
     0
 73
     1
 74
     1
 75
     0
 76
     0
 77
     0
 78
     0
170
     0
171
     2
172
     0
173
     0
174
     0
175
     0
176
     0
177
     0
178
     0
  0
DIMSTYLE
  2
AM_JIS
 70
     0
  3

  4
"
  5

  6

  7

 40
1.0
 41
2.5
 42
1.0
 43
7.0
 44
1.0
 45
0.0
 46
0.0
 47
0.1
 48
0.1000000001
140
2.5
141
0.0
142
0.0
143
0.0393701
144
1.0
145
0.0
146
0.71
147
1.0
 71
     0
 72
     0
 73
     0
 74
     0
 75
     0
 76
     0
 77
     3
 78
     8
170
     0
171
     2
172
     1
173
     0
174
     0
175
     0
176
   256
177
   256
178
     4
  0
DIMSTYLE
  2
AM_JIS$3
 70
     0
  3

  4
"
  5

  6

  7

 40
1.0
 41
2.5
 42
1.0
 43
7.0
 44
1.0
 45
0.0
 46
0.0
 47
0.1
 48
0.1000000001
140
2.5
141
0.0
142
0.0
143
0.0393701
144
1.0
145
0.0
146
0.71
147
1.0
 71
     0
 72
     0
 73
     0
 74
     1
 75
     0
 76
     0
 77
     3
 78
     8
170
     0
171
     2
172
     0
173
     0
174
     0
175
     0
176
   256
177
   256
178
     4
  0
DIMSTYLE
  2
AM_JIS$4
 70
     0
  3

  4
"
  5

  6

  7

 40
1.0
 41
2.5
 42
1.0
 43
7.0
 44
1.0
 45
0.0
 46
0.0
 47
0.1
 48
0.1000000001
140
2.5
141
0.0
142
0.0
143
0.0393701
144
1.0
145
0.0
146
0.71
147
1.0
 71
     0
 72
     0
 73
     0
 74
     0
 75
     0
 76
     0
 77
     3
 78
     8
170
     0
171
     2
172
     0
173
     0
174
     0
175
     0
176
   256
177
   256
178
     4
  0
DIMSTYLE
  2
AM_JIS$6
 70
     0
  3

  4
"
  5

  6

  7

 40
1.0
 41
2.5
 42
1.0
 43
7.0
 44
1.0
 45
0.0
 46
0.0
 47
0.1
 48
0.1000000001
140
2.5
141
0.0
142
0.0
143
0.0393701
144
1.0
145
0.0
146
0.71
147
1.0
 71
     0
 72
     0
 73
     0
 74
     0
 75
     0
 76
     0
 77
     0
 78
     8
170
     0
171
     2
172
     1
173
     0
174
     0
175
     0
176
   256
177
   256
178
     4
  0
DIMSTYLE
  2
AM_JIS$7
 70
     0
  3

  4
"
  5

  6

  7

 40
1.0
 41
2.5
 42
1.0
 43
7.0
 44
1.0
 45
0.0
 46
0.0
 47
0.1
 48
0.1000000001
140
2.5
141
0.0
142
0.0
143
0.0393701
144
1.0
145
0.0
146
0.71
147
1.0
 71
     0
 72
     0
 73
     0
 74
     0
 75
     0
 76
     0
 77
     3
 78
     8
170
     0
171
     2
172
     1
173
     0
174
     0
175
     0
176
   256
177
   256
178
     4
  0
DIMSTYLE
  2
AM_JIS$SF
 70
     0
  3

  4
"
  5
OPEN30
  6
OPEN30
  7
OPEN30
 40
1.0
 41
2.5
 42
1.0
 43
10.0
 44
1.0
 45
0.0
 46
0.0
 47
0.1
 48
0.1
140
3.5
141
0.0
142
0.0
143
0.0393701
144
1.0
145
0.0
146
0.71
147
1.5
 71
     0
 72
     0
 73
     0
 74
     0
 75
     1
 76
     1
 77
     3
 78
     8
170
     0
171
     2
172
     1
173
     0
174
     0
175
     0
176
   256
177
   256
178
     4
  0
DIMSTYLE
  2
AM_JIS$SH
 70
     0
  3

  4
"
  5

  6
NONE
  7

 40
1.0
 41
2.5
 42
1.0
 43
10.0
 44
1.0
 45
0.0
 46
0.0
 47
0.1
 48
0.1
140
3.5
141
0.0
142
0.0
143
0.0393701
144
1.0
145
0.0
146
0.71
147
1.5
 71
     0
 72
     0
 73
     0
 74
     0
 75
     1
 76
     0
 77
     3
 78
     8
170
     0
171
     2
172
     1
173
     1
174
     0
175
     0
176
   256
177
   256
178
     4
  0
DIMSTYLE
  2
AM_ISO
 70
     0
  3

  4
"
  5

  6

  7

 40
1.0
 41
2.5
 42
1.0
 43
10.0
 44
1.0
 45
0.0
 46
0.0
 47
0.0
 48
0.000000001
140
3.0
141
0.0
142
0.0
143
0.0393701
144
1.0
145
0.0
146
0.71
147
1.299999999999998
 71
     1
 72
     0
 73
     0
 74
     0
 75
     0
 76
     0
 77
     1
 78
     8
170
     0
171
     2
172
     1
173
     0
174
     0
175
     0
176
   256
177
   256
178
     4
  0
DIMSTYLE
  2
AM_ISO$3
 70
     0
  3

  4
"
  5

  6

  7

 40
1.0
 41
2.5
 42
1.0
 43
10.0
 44
1.0
 45
0.0
 46
0.0
 47
0.0
 48
0.000000001
140
2.5
141
0.0
142
0.0
143
0.0393701
144
1.0
145
0.0
146
0.71
147
1.299999999999998
 71
     1
 72
     0
 73
     0
 74
     1
 75
     0
 76
     0
 77
     1
 78
     8
170
     0
171
     2
172
     0
173
     0
174
     0
175
     0
176
   256
177
   256
178
     4
  0
DIMSTYLE
  2
AM_ISO$4
 70
     0
  3

  4
"
  5

  6

  7

 40
1.0
 41
2.5
 42
1.0
 43
10.0
 44
1.0
 45
0.0
 46
0.0
 47
0.0
 48
0.000000001
140
2.5
141
0.0
142
0.0
143
0.0393701
144
1.0
145
0.0
146
0.71
147
1.299999999999998
 71
     1
 72
     0
 73
     0
 74
     1
 75
     0
 76
     0
 77
     1
 78
     8
170
     0
171
     2
172
     0
173
     0
174
     0
175
     0
176
   256
177
   256
178
     4
  0
DIMSTYLE
  2
AM_ISO$6
 70
     0
  3

  4
"
  5

  6

  7

 40
1.0
 41
2.5
 42
1.0
 43
10.0
 44
1.0
 45
0.0
 46
0.0
 47
0.0
 48
0.000000001
140
2.5
141
0.0
142
0.0
143
0.0393701
144
1.0
145
0.0
146
0.71
147
1.299999999999998
 71
     1
 72
     0
 73
     0
 74
     0
 75
     0
 76
     0
 77
     0
 78
     8
170
     0
171
     2
172
     1
173
     0
174
     0
175
     0
176
   256
177
   256
178
     4
  0
DIMSTYLE
  2
AM_ISO$7
 70
     0
  3

  4
"
  5

  6

  7

 40
1.0
 41
2.5
 42
1.0
 43
10.0
 44
1.0
 45
0.0
 46
0.0
 47
0.0
 48
0.000000001
140
2.5
141
0.0
142
0.0
143
0.0393701
144
1.0
145
0.0
146
0.71
147
1.299999999999998
 71
     1
 72
     0
 73
     0
 74
     0
 75
     0
 76
     0
 77
     1
 78
     8
170
     0
171
     2
172
     1
173
     0
174
     0
175
     0
176
   256
177
   256
178
     4
  0
DIMSTYLE
  2
AM_ISO$SF
 70
     0
  3

  4
"
  5

  6

  7

 40
1.0
 41
2.5
 42
1.0
 43
10.0
 44
1.0
 45
0.0
 46
0.0
 47
0.1
 48
0.1
140
3.5
141
0.0
142
0.0
143
0.0393701
144
1.0
145
0.0
146
0.71
147
1.5
 71
     0
 72
     0
 73
     0
 74
     0
 75
     1
 76
     1
 77
     1
 78
     8
170
     0
171
     2
172
     1
173
     0
174
     0
175
     0
176
   256
177
   256
178
     4
  0
DIMSTYLE
  2
AM_ISO$SH
 70
     0
  3

  4
"
  5

  6
GENAXEH
  7

 40
1.0
 41
2.5
 42
1.0
 43
10.0
 44
1.0
 45
0.0
 46
0.0
 47
0.1
 48
0.1
140
3.5
141
0.0
142
0.0
143
0.0393701
144
2.0
145
0.0
146
0.71
147
1.5
 71
     0
 72
     0
 73
     0
 74
     0
 75
     1
 76
     1
 77
     1
 78
     8
170
     0
171
     2
172
     1
173
     1
174
     0
175
     0
176
   256
177
   256
178
     4
  0
DIMSTYLE
  2
AM_JIS$0
 70
     0
  3

  4
"
  5

  6

  7

 40
1.0
 41
2.5
 42
1.0
 43
7.0
 44
1.0
 45
0.0
 46
0.0
 47
0.1
 48
0.1000000001
140
2.5
141
0.0
142
0.0
143
0.0393701
144
1.0
145
0.0
146
0.71
147
1.0
 71
     0
 72
     0
 73
     0
 74
     0
 75
     0
 76
     0
 77
     3
 78
     8
170
     0
171
     2
172
     1
173
     0
174
     0
175
     0
176
   256
177
   256
178
     4
  0
ENDTAB
  0
ENDSEC
  0
SECTION
  2
BLOCKS
  0
BLOCK
  8
0
  2
$MODEL_SPACE
 70
     0
 10
0.0
 20
0.0
 30
0.0
  3
$MODEL_SPACE
  1

  0
ENDBLK
  5
1A
  8
0
  0
BLOCK
 67
     1
  8
0
  2
$PAPER_SPACE
 70
     0
 10
0.0
 20
0.0
 30
0.0
  3
$PAPER_SPACE
  1

  0
ENDBLK
  5
17
 67
     1
  8
0
  0
BLOCK
  8
0
  2
_OPEN30
 70
     0
 10
0.0
 20
0.0
 30
0.0
  3
_OPEN30
  1

  0
LINE
  5
21C5
  8
0
 62
     0
 10
-1.0
 20
0.26794919
 30
0.0
 11
0.0
 21
0.0
 31
0.0
  0
LINE
  5
21C6
  8
0
 62
     0
 10
0.0
 20
0.0
 30
0.0
 11
-1.0
 21
-0.26794919
 31
0.0
  0
LINE
  5
21C7
  8
0
 62
     0
 10
0.0
 20
0.0
 30
0.0
 11
-1.0
 21
0.0
 31
0.0
  0
ENDBLK
  5
21C9
  8
0
  0
BLOCK
  8
0
  2
GENAXEH
 70
     0
 10
0.0
 20
0.0
 30
0.0
  3
GENAXEH
  1

  0
LINE
  5
21D0
  8
0
 10
-1.0
 20
0.0
 30
0.0
 11
1.0
 21
0.0
 31
0.0
  0
ENDBLK
  5
21D2
  8
0
  0
BLOCK
  8
0
  2
_NONE
 70
     0
 10
0.0
 20
0.0
 30
0.0
  3
_NONE
  1

  0
ENDBLK
  5
8193
  8
0
  0
ENDSEC
  0
SECTION
  2
ENTITIES
  0
POINT
  5
1B94
  8
0
 10
0.0
 20
0.0
 30
0.0
1001
GENIUS_GENODEF_13
1002
{
1000
HIER
1070
     1
1002
}
1002
{
1000
MANEDIT
1070
     0
1002
}
1002
{
1000
NOSEL
1070
     0
1002
}
1002
{
1000
BEHIND
1070
     0
1002
}
1002
{
1000
REACTOR
1002
}
1001
GENIUS_GENOBJ-N-SDF_13
1002
{
1000
OWNER
1000
GEN
1002
}
1001
GENIUS_GENOENT_13
1002
{
1000
MYREF
1005
1B94
1002
}
1002
{
1000
GRP
1005
0
1002
}
1001
GENIUS_GENOLIS_13
1002
{
1000
ENT
1005
89
1002
}
  0
ARC
  5
1549D
  8
0
 10
413.50962176026871
 20
308.93641404048702
 30
0.0
 40
2.5
 50
224.9999999999994
 51
44.999999999999417
  0
LINE
  5
1549E
  8
0
 10
403.1452733276729
 20
322.83629637901538
 30
0.0
 11
415.27738871323498
 21
310.70418099345318
 31
0.0
  0
ARC
  5
1549F
  8
0
 10
413.50962176026871
 20
190.93641404048699
 30
0.0
 40
2.5
 50
315.00000000000063
 51
135.0000000000006
  0
LINE
  5
154A0
  8
0
 10
403.1452733276729
 20
177.03653170195849
 30
0.0
 11
415.27738871323498
 21
189.1686470875207
 31
0.0
  0
LINE
  5
154A1
  8
AM_0
 10
408.032338474055
 20
339.93641324266338
 30
0.0
 11
490.98688854441679
 21
339.93641324266338
 31
0.0
  0
LINE
  5
154A2
  8
AM_0
 10
391.5096305427752
 20
344.93641324266332
 30
0.0
 11
507.50959865428808
 21
344.93641324266332
 31
0.0
  0
LINE
  5
154A3
  8
AM_0
 10
408.032338474055
 20
159.9364148383105
 30
0.0
 11
490.98688640566229
 21
159.93641483831061
 31
0.0
  0
LINE
  5
154A4
  8
AM_0
 10
391.5096305427752
 20
154.9364077707063
 30
0.0
 11
507.50959865428769
 21
154.93640777070601
 31
0.0
  0
LINE
  5
154A5
  8
ﾁｭｳｼﾝｾﾝ1
 10
790.56991425543902
 20
249.93641404048699
 30
0.0
 11
354.02505128490861
 21
249.93641404048691
 31
0.0
  0
CIRCLE
  5
154A8
  8
AM_0
 10
426.50965204298882
 20
249.93641404048699
 30
0.0
 40
37.500001117587061
  0
CIRCLE
  5
154A9
  8
AM_0
 10
426.50965204298882
 20
249.93641404048699
 30
0.0
 40
22.50000067055224
  0
LINE
  5
154CE
  8
AM_0
 10
88.928460479848113
 20
284.1962797357055
 30
0.0
 11
88.928460479848113
 21
274.93626973570571
 31
0.0
  0
ARC
  5
154CF
  8
AM_0
 10
86.942690479848125
 20
277.8095297357055
 30
0.0
 40
0.5143923799999997
 50
181.47632999999809
 51
266.1853900000005
  0
LINE
  5
154D0
  8
AM_0
 10
366.50956776876183
 20
301.93641479238443
 30
0.0
 11
366.50956776876183
 21
197.93640622098499
 31
0.0
  0
LINE
  5
154D1
  8
AM_0
 10
361.50956776876183
 20
301.93641479238443
 30
0.0
 11
361.50956776876183
 21
197.93640622098499
 31
0.0
  0
LINE
  5
154D4
  8
AM_0
 10
220.42144439084311
 20
154.93626973570591
 30
0.0
 11
220.42144439084311
 21
344.93626973570548
 31
0.0
  0
LINE
  5
154D7
  8
AM_0
 10
101.4284413901392
 20
187.29777909940219
 30
0.0
 11
101.4284413901392
 21
312.57479088958831
 31
0.0
  0
LINE
  5
154D8
  8
AM_0
 10
179.4284513441151
 20
185.9362678283573
 30
0.0
 11
179.4284513441151
 21
313.9362716430544
 31
0.0
  0
LINE
  5
154D9
  8
ﾁｭｳｼﾝｾﾝ1
 10
150.42144439085311
 20
131.52150094027229
 30
0.0
 11
150.42144439085311
 21
325.5049232938793
 31
0.0
  0
LINE
  5
154DC
  8
AM_0
 10
97.428448900325066
 20
212.43626861811879
 30
0.0
 11
97.428448900325066
 21
287.4362708532928
 31
0.0
  0
LINE
  5
154DD
  8
ｶｸﾚｾﾝ2
 10
203.42845968876551
 20
214.4362686181187
 30
0.0
 11
203.42845968876551
 21
285.4362708532928
 31
0.0
  0
ARC
  5
154DF
  8
AM_0
 10
150.44536047984801
 20
249.92626973570569
 30
0.0
 40
64.014987999999931
 50
145.91379204811599
 51
214.08620795188389
  0
LINE
  5
154E1
  8
AM_0
 10
179.42144439085311
 20
185.93626973570559
 30
0.0
 11
157.33584387120209
 21
186.32177558364981
 31
0.0
  0
LINE
  5
154EA
  8
AM_0
 10
179.4284513441151
 20
185.9362678283573
 30
0.0
 11
101.4284413901392
 21
187.29777909940219
 31
0.0
  0
LINE
  5
154EB
  8
ﾁｭｳｼﾝｾﾝ1
 10
80.173367171920276
 20
249.93626973570571
 30
0.0
 11
266.6135457082587
 21
249.93626973570559
 31
0.0
  0
LINE
  5
154F3
  8
AM_0
 10
89.428441390139255
 20
205.93626818598469
 30
0.0
 11
89.428441390139255
 21
189.93626818598489
 31
0.0
  0
LINE
  5
154F4
  8
AM_0
 10
99.428441390139355
 20
187.4362681859848
 30
0.0
 11
99.428441390139355
 21
208.4362681859848
 31
0.0
  0
LINE
  5
154F5
  8
AM_0
 10
89.428441390139255
 20
189.93626818598489
 30
0.0
 11
99.428441390139355
 21
189.93626818598489
 31
0.0
  0
LINE
  5
154FD
  8
AM_0
 10
99.428441390139355
 20
187.4362681859848
 30
0.0
 11
101.4284413901392
 21
187.4362681859848
 31
0.0
  0
ARC
  5
15500
  8
AM_0
 10
118.25265439085319
 20
184.01391973570571
 30
0.0
 40
2.0097484999999988
 50
10.4268253542712
 51
157.0903460000016
  0
ARC
  5
15501
  8
AM_0
 10
115.42156439085301
 20
185.04349973570581
 30
0.0
 40
1.000226099999999
 50
179.26866700000079
 51
358.43981999999937
  0
LINE
  5
15502
  8
AM_0
 10
114.3482447376757
 20
187.07212741765591
 30
0.0
 11
114.4214443908531
 21
185.01625973570569
 31
0.0
  0
LINE
  5
15503
  8
AM_0
 10
116.4808385431156
 20
187.03490282951049
 30
0.0
 11
116.4014543908531
 21
184.79626973570581
 31
0.0
  0
ARC
  5
15505
  8
AM_0
 10
150.39483439085319
 20
249.9337797357058
 30
0.0
 40
63.989566999999987
 50
261.77281830828667
 51
270.02382639558658
  0
LINE
  5
15506
  8
AM_0
 10
141.23802478393961
 20
186.60276424826691
 30
0.0
 11
157.33584387120251
 21
186.32177558364981
 31
0.0
  0
ARC
  5
15507
  8
AM_0
 10
150.39483439085319
 20
249.9337797357058
 30
0.0
 40
63.989566999999987
 50
270.02382639558658
 51
276.22718035921872
  0
LINE
  5
15508
  8
AM_0
 10
96.029936728184936
 20
216.155305614074
 30
0.0
 11
89.568460479847886
 21
215.93626673570591
 31
0.0
  0
LINE
  5
15509
  8
AM_0
 10
99.428441390139355
 20
205.93626818598469
 30
0.0
 11
89.428441390139255
 21
205.93626818598469
 31
0.0
  0
LINE
  5
1550A
  8
AM_0
 10
97.428450479848294
 20
213.64980585187891
 30
0.0
 11
89.568460479847886
 21
213.93627473570561
 31
0.0
  0
ARC
  5
1550B
  8
AM_0
 10
86.202250479847876
 20
234.9364997357057
 30
0.0
 40
1.0003331999999969
 50
91.936240000000055
 51
269.20963000000029
  0
LINE
  5
1550D
  8
AM_0
 10
88.928460479848113
 20
224.93626673570591
 30
0.0
 11
88.928460479848113
 21
215.67627273570579
 31
0.0
  0
ARC
  5
1550E
  8
AM_0
 10
86.928820479848014
 20
222.05633073570559
 30
0.0
 40
0.5003520299999995
 50
92.33117
 51
180.00710999999771
  0
LINE
  5
1550F
  8
AM_0
 10
86.428460479848013
 20
221.43626673570569
 30
0.0
 11
86.428460479848013
 21
222.0562697357058
 31
0.0
  0
ARC
  5
15510
  8
AM_0
 10
86.942690479848125
 20
220.80951973570589
 30
0.0
 40
0.5143923799999997
 50
181.47632999999809
 51
266.1853900000005
  0
LINE
  5
15511
  8
AM_0
 10
86.428460479848013
 20
221.43626673570569
 30
0.0
 11
86.428460479848013
 21
220.7962677357055
 31
0.0
  0
LINE
  5
15512
  8
AM_0
 10
88.928460479848113
 20
222.6962687357059
 30
0.0
 11
86.908460479847889
 21
222.55626973570571
 31
0.0
  0
LINE
  5
15513
  8
AM_0
 10
88.928450479848152
 20
220.1562677357058
 30
0.0
 11
86.908460479847889
 21
220.29626773570561
 31
0.0
  0
ARC
  5
15514
  8
AM_0
 10
89.614350479847985
 20
214.9367857357058
 30
0.0
 40
1.000534899999999
 50
92.628309999997043
 51
269.66321999999968
  0
LINE
  5
15515
  8
AM_0
 10
88.448669783563119
 20
233.85598032360289
 30
0.0
 11
86.168450479847934
 21
233.93626973570559
 31
0.0
  0
LINE
  5
15516
  8
AM_0
 10
91.983058454736806
 20
223.7749000900566
 30
0.0
 11
89.988460479847845
 21
223.83626873570549
 31
0.0
  0
ARC
  5
15517
  8
AM_0
 10
90.031980479848116
 20
224.9266997357058
 30
0.0
 40
1.090437399999999
 50
92.287669999999167
 51
269.814680000002
  0
ARC
  5
15518
  8
AM_0
 10
87.557630479848044
 20
224.93685473570571
 30
0.0
 40
1.000625599999998
 50
92.817069999998395
 51
269.4744600000011
  0
LINE
  5
15519
  8
AM_0
 10
88.928460479848113
 20
223.87626873570551
 30
0.0
 11
87.508470479848029
 21
223.9362667357058
 31
0.0
  0
LINE
  5
1551A
  8
AM_0
 10
91.014611725637124
 20
226.05657474111979
 30
0.0
 11
87.508450479848079
 21
225.93626673570569
 31
0.0
  0
ARC
  5
1551B
  8
AM_0
 10
85.529190479848012
 20
254.93585973570561
 30
0.0
 40
1.000414699999997
 50
90.041480000001073
 51
267.66698999999528
  0
ARC
  5
1551C
  8
AM_0
 10
85.529360479847924
 20
244.9366897357057
 30
0.0
 40
1.000418199999999
 50
92.342590000002076
 51
269.94893999999681
  0
LINE
  5
1551D
  8
AM_0
 10
86.684851494325684
 20
243.89501463603901
 30
0.0
 11
85.488460479847845
 21
243.93626973570571
 31
0.0
  0
LINE
  5
1551E
  8
AM_0
 10
87.932783923661191
 20
235.9971085577385
 30
0.0
 11
86.168450479847934
 21
235.93626973570579
 31
0.0
  0
LINE
  5
1551F
  8
AM_0
 10
86.525181000013731
 20
253.89690716355059
 30
0.0
 11
85.488460479847845
 21
253.93626973570571
 31
0.0
  0
LINE
  5
15520
  8
AM_0
 10
86.52327196409874
 20
245.96246749480051
 30
0.0
 11
85.488460479847845
 21
245.93626973570551
 31
0.0
  0
LINE
  5
15521
  8
AM_0
 10
88.460171565279197
 20
266.0169635718558
 30
0.0
 11
86.168450479847934
 21
265.93626973570582
 31
0.0
  0
LINE
  5
15522
  8
AM_0
 10
87.942506402542577
 20
263.87509565722507
 30
0.0
 11
86.168450479847934
 21
263.93626973570548
 31
0.0
  0
ARC
  5
15523
  8
AM_0
 10
86.202180479848039
 20
264.93603973570549
 30
0.0
 40
1.0003311999999971
 50
90.785589999996475
 51
268.0685399999997
  0
LINE
  5
15524
  8
AM_0
 10
86.689028022292518
 20
255.9776684854595
 30
0.0
 11
85.488450479847884
 21
255.93626973570571
 31
0.0
  0
LINE
  5
15525
  8
AM_0
 10
92.000945054704744
 20
276.09367328629071
 30
0.0
 11
89.988460479847845
 21
276.01626973570541
 31
0.0
  0
LINE
  5
15526
  8
AM_0
 10
88.928460479848113
 20
275.97627973570548
 30
0.0
 11
87.508470479848029
 21
275.93626973570548
 31
0.0
  0
LINE
  5
15527
  8
AM_0
 10
88.928450479848152
 20
277.15626973570579
 30
0.0
 11
86.908460479847889
 21
277.29626973570572
 31
0.0
  0
LINE
  5
15528
  8
AM_0
 10
91.032026042588086
 20
273.81536282469551
 30
0.0
 11
87.508470479848029
 21
273.93626973570559
 31
0.0
  0
ARC
  5
15529
  8
AM_0
 10
87.557460479848118
 20
274.93568973570552
 30
0.0
 40
1.0006207999999981
 50
90.515970000001047
 51
267.19250000000471
  0
ARC
  5
1552A
  8
AM_0
 10
90.031980479848116
 20
274.9266997357056
 30
0.0
 40
1.090437399999999
 50
92.287669999999167
 51
269.81468999999669
  0
ARC
  5
1552C
  8
AM_0
 10
95.928460479847914
 20
210.95299387865029
 30
0.0
 40
2.999999999999996
 50
0.0
 51
29.631860164016139
1001
GENIUS_GENOBJ-N-FIL_13
1002
{
1000
OWNER
1000
GEN
1002
}
1001
GENIUS_GENODEF_13
1002
{
1000
HIER
1070
     0
1002
}
1002
{
1000
MANEDIT
1070
     0
1002
}
1002
{
1000
NOSEL
1070
     0
1002
}
1002
{
1000
BEHIND
1070
     0
1002
}
1002
{
1000
OTHER
1070
     0
1002
}
1002
{
1000
REACTOR
1002
}
  0
LINE
  5
1552D
  8
AM_0
 10
97.428448900325066
 20
212.43626861811879
 30
0.0
 11
101.4284490195343
 21
212.43626861811879
 31
0.0
  0
LINE
  5
1552E
  8
AM_0
 10
99.428441390139355
 20
208.4362681859848
 30
0.0
 11
101.4284413901392
 21
208.4362681859848
 31
0.0
  0
LINE
  5
1552F
  8
AM_0
 10
98.928460479847885
 20
205.9362681859848
 30
0.0
 11
98.928460479847885
 21
210.95299387865001
 31
0.0
  0
LINE
  5
15540
  8
0
 10
179.4284513441151
 20
185.9362678283569
 30
0.0
 11
201.5261428809506
 21
185.16459943589939
 31
0.0
  0
ARC
  5
1554B
  8
AM_0
 10
185.42129439085301
 20
185.0441797357058
 30
0.0
 40
1.000231299999998
 50
181.598942999999
 51
0.6925799999989853
  0
ARC
  5
1554C
  8
AM_0
 10
182.57980439085301
 20
184.01828973570591
 30
0.0
 40
1.9992131999999989
 50
113.34186017824941
 51
178.3379780000044
  0
ARC
  5
1554D
  8
AM_0
 10
182.57980439085301
 20
184.01828973570591
 30
0.0
 40
1.9992131999999989
 50
22.901329999994228
 51
62.658139821750957
  0
LINE
  5
1554E
  8
AM_0
 10
184.38713024053391
 20
185.76310694563139
 30
0.0
 11
184.42141439085319
 21
184.79626973570581
 31
0.0
  0
LINE
  5
1554F
  8
AM_0
 10
186.44440186057719
 20
185.69126543760609
 30
0.0
 11
186.42141439085299
 21
185.01626973570581
 31
0.0
  0
LINE
  5
15550
  8
AM_0
 10
204.42144439084311
 20
182.16642695484211
 30
0.0
 11
204.42144439084311
 21
157.4263795971878
 31
0.0
  0
LINE
  5
15553
  8
0
 10
206.35164539743801
 20
155.42759794314969
 30
0.0
 11
220.42144439084311
 21
154.93626973570591
 31
0.0
  0
ARC
  5
15554
  8
0
 10
206.42144439084319
 20
157.4263795971878
 30
0.0
 40
1.9999999999999989
 50
180.0
 51
267.99999999999642
1001
GENIUS_GENOBJ-N-FIL_13
1002
{
1000
OWNER
1000
GEN
1002
}
1001
GENIUS_GENODEF_13
1002
{
1000
HIER
1070
     0
1002
}
1002
{
1000
MANEDIT
1070
     0
1002
}
1002
{
1000
NOSEL
1070
     0
1002
}
1002
{
1000
BEHIND
1070
     0
1002
}
1002
{
1000
OTHER
1070
     0
1002
}
1002
{
1000
REACTOR
1002
}
  0
ARC
  5
1555A
  8
0
 10
201.42144439084311
 20
182.16642695484211
 30
0.0
 40
3.0
 50
0.0
 51
88.000000000002856
1001
GENIUS_GENOBJ-N-FIL_13
1002
{
1000
OWNER
1000
GEN
1002
}
1001
GENIUS_GENODEF_13
1002
{
1000
HIER
1070
     0
1002
}
1002
{
1000
MANEDIT
1070
     0
1002
}
1002
{
1000
NOSEL
1070
     0
1002
}
1002
{
1000
BEHIND
1070
     0
1002
}
1002
{
1000
OTHER
1070
     0
1002
}
1002
{
1000
REACTOR
1002
}
  0
ARC
  5
1556C
  8
0
 10
376.5095677687616
 20
200.93641951244459
 30
0.0
 40
10.0
 50
180.0
 51
270.0
1001
GENIUS_GENODEF_13
1002
{
1000
HIER
1070
     0
1002
}
1002
{
1000
MANEDIT
1070
     0
1002
}
1002
{
1000
NOSEL
1070
     0
1002
}
1002
{
1000
BEHIND
1070
     0
1002
}
1002
{
1000
OTHER
1070
     0
1002
}
1002
{
1000
REACTOR
1002
}
1001
GENIUS_GENOBJ-N-FIL_13
1002
{
1000
OWNER
1000
GEN
1002
}
  0
LINE
  5
1556D
  8
0
 10
399.6097400545425
 20
180.57206624069349
 30
0.0
 11
411.74185480730239
 21
192.70418099345341
 31
0.0
  0
LINE
  5
1556F
  8
0
 10
379.25151965734022
 20
162.17331569587759
 30
0.0
 11
363.25148653985588
 21
191.1733118233401
 31
0.0
  0
LINE
  5
15570
  8
0
 10
375.64765197831252
 20
179.0556105317097
 30
0.0
 11
367.62937270892849
 21
193.58870261794129
 31
0.0
  0
ARC
  5
15574
  8
0
 10
380.02553814738508
 20
181.47100132631061
 30
0.0
 40
5.0
 50
208.8866351646578
 51
312.49568953477728
1001
GENIUS_GENOBJ-N-FIL_13
1002
{
1000
OWNER
1000
GEN
1002
}
1001
GENIUS_GENODEF_13
1002
{
1000
HIER
1070
     0
1002
}
1002
{
1000
MANEDIT
1070
     0
1002
}
1002
{
1000
NOSEL
1070
     0
1002
}
1002
{
1000
BEHIND
1070
     0
1002
}
1002
{
1000
OTHER
1070
     0
1002
}
1002
{
1000
REACTOR
1002
}
  0
LINE
  5
15575
  8
ﾁｭｳｼﾝｾﾝ
 10
404.9368704215243
 20
168.93641404048711
 30
0.0
 11
378.37287042152468
 21
168.93641404048711
 31
0.0
1001
GENIUS_GENODEF_13
1002
{
1000
HIER
1070
     0
1002
}
1002
{
1000
MANEDIT
1070
     0
1002
}
1002
{
1000
NOSEL
1070
     0
1002
}
1002
{
1000
BEHIND
1070
     0
1002
}
1002
{
1000
OTHER
1070
     0
1002
}
1002
{
1000
REACTOR
1002
}
1001
GENIUS_GENOBJ-N-CEN_13
1002
{
1000
OWNER
1000
GEN
1002
}
  0
ARC
  5
15576
  8
0
 10
391.5096371433674
 20
168.93641193004709
 30
0.0
 40
14.00000415934085
 50
208.8866351646578
 51
270.0
  0
CIRCLE
  5
15577
  8
0
 10
391.50963410559478
 20
168.93641324266369
 30
0.0
 40
5.4999999999999973
  0
LINE
  5
15578
  8
ﾁｭｳｼﾝｾﾝ
 10
391.50968393147582
 20
182.43641404048711
 30
0.0
 11
391.50968393147582
 21
155.799600530536
 31
0.0
1001
GENIUS_GENODEF_13
1002
{
1000
HIER
1070
     0
1002
}
1002
{
1000
MANEDIT
1070
     0
1002
}
1002
{
1000
NOSEL
1070
     0
1002
}
1002
{
1000
BEHIND
1070
     0
1002
}
1002
{
1000
OTHER
1070
     0
1002
}
1002
{
1000
REACTOR
1002
}
1001
GENIUS_GENOBJ-N-CEN_13
1002
{
1000
OWNER
1000
GEN
1002
}
  0
ARC
  5
15579
  8
0
  6
CONTINUOUS
 62
     7
 10
391.50962871030009
 20
168.93642259614299
 30
0.0
 40
12.0
 50
346.39101246739449
 51
132.4956895347776
  0
ARC
  5
1557A
  8
0
 10
408.032338474055
 20
164.9364148383105
 30
0.0
 40
5.0
 50
166.39101246739449
 51
270.0
1001
GENIUS_GENODEF_13
1002
{
1000
HIER
1070
     0
1002
}
1002
{
1000
MANEDIT
1070
     0
1002
}
1002
{
1000
NOSEL
1070
     0
1002
}
1002
{
1000
BEHIND
1070
     0
1002
}
1002
{
1000
OTHER
1070
     0
1002
}
1002
{
1000
REACTOR
1002
}
1001
GENIUS_GENOBJ-N-FIL_13
1002
{
1000
OWNER
1000
GEN
1002
}
  0
ARC
  5
1557B
  8
0
  6
CONTINUOUS
 62
     7
 10
397.48841971098273
 20
182.69338658425309
 30
0.0
 40
3.0
 50
246.51018360552641
 51
315.00000000000063
1001
GENIUS_GENODEF_13
1002
{
1000
HIER
1070
     0
1002
}
1002
{
1000
MANEDIT
1070
     0
1002
}
1002
{
1000
NOSEL
1070
     0
1002
}
1002
{
1000
BEHIND
1070
     0
1002
}
1002
{
1000
OTHER
1070
     0
1002
}
1002
{
1000
REACTOR
1002
}
1001
GENIUS_GENOBJ-N-FIL_13
1002
{
1000
OWNER
1000
GEN
1002
}
  0
ARC
  5
1557C
  8
0
  6
CONTINUOUS
 62
     7
 10
405.26659367123261
 20
174.91521135839881
 30
0.0
 40
3.0
 50
135.0000000000006
 51
203.48980707174991
1001
GENIUS_GENODEF_13
1002
{
1000
HIER
1070
     0
1002
}
1002
{
1000
MANEDIT
1070
     0
1002
}
1002
{
1000
NOSEL
1070
     0
1002
}
1002
{
1000
BEHIND
1070
     0
1002
}
1002
{
1000
OTHER
1070
     0
1002
}
1002
{
1000
REACTOR
1002
}
1001
GENIUS_GENOBJ-N-FIL_13
1002
{
1000
OWNER
1000
GEN
1002
}
  0
LINE
  5
1557F
  8
0
 10
409.97408785433578
 20
190.9364195124445
 30
0.0
 11
376.50956776876183
 21
190.9364195124445
 31
0.0
  0
ARC
  5
15580
  8
AM_0
 10
375.50956812638992
 20
197.93640622098511
 30
0.0
 40
14.00000035762786
 50
180.0
 51
208.8866351646578
  0
CIRCLE
  5
15581
  8
0
 10
375.50960305471222
 20
197.93641951244459
 30
0.0
 40
4.0
  0
CIRCLE
  5
15582
  8
ｷｲﾛ
 10
375.50956812638992
 20
197.9364187605469
 30
0.0
 40
5.0
  0
ARC
  5
15583
  8
AM_0
 10
375.50956812638992
 20
197.93640622098511
 30
0.0
 40
9.0000003576278651
 50
180.0
 51
208.8866351646578
  0
ARC
  5
15584
  8
0
 10
369.5095677687616
 20
244.43641404048699
 30
0.0
 40
3.0
 50
90.0
 51
180.0
1001
GENIUS_GENOBJ-N-FIL_13
1002
{
1000
OWNER
1000
GEN
1002
}
1001
GENIUS_GENODEF_13
1002
{
1000
HIER
1070
     0
1002
}
1002
{
1000
MANEDIT
1070
     0
1002
}
1002
{
1000
NOSEL
1070
     0
1002
}
1002
{
1000
BEHIND
1070
     0
1002
}
1002
{
1000
OTHER
1070
     0
1002
}
1002
{
1000
REACTOR
1002
}
  0
ARC
  5
15585
  8
0
 10
371.0095677687616
 20
249.93641404048699
 30
0.0
 40
2.5
 50
270.0
 51
90.0
  0
LINE
  5
15586
  8
0
 10
371.00956776876183
 20
252.43641404048699
 30
0.0
 11
369.50956776876183
 21
252.43641404048699
 31
0.0
  0
LINE
  5
15587
  8
0
 10
371.00956776876183
 20
247.43641404048691
 30
0.0
 11
369.50956776876183
 21
247.43641404048691
 31
0.0
  0
ARC
  5
15588
  8
0
 10
369.5095677687616
 20
255.43641404048699
 30
0.0
 40
3.0
 50
180.0
 51
270.0
1001
GENIUS_GENOBJ-N-FIL_13
1002
{
1000
OWNER
1000
GEN
1002
}
1001
GENIUS_GENODEF_13
1002
{
1000
HIER
1070
     0
1002
}
1002
{
1000
MANEDIT
1070
     0
1002
}
1002
{
1000
NOSEL
1070
     0
1002
}
1002
{
1000
BEHIND
1070
     0
1002
}
1002
{
1000
OTHER
1070
     0
1002
}
1002
{
1000
REACTOR
1002
}
  0
LINE
  5
1558A
  8
AM_0
 10
179.4284513441151
 20
313.9362716430544
 30
0.0
 11
101.4284413901392
 21
312.57479088958831
 31
0.0
  0
LINE
  5
1558E
  8
AM_0
 10
96.045516870289021
 20
283.69841139670888
 30
0.0
 11
89.568460479847886
 21
283.93626973570582
 31
0.0
  0
LINE
  5
15590
  8
AM_0
 10
89.428441390139255
 20
293.93627128542659
 30
0.0
 11
99.428441390139355
 21
293.93627128542659
 31
0.0
  0
LINE
  5
15591
  8
AM_0
 10
99.428441390139355
 20
309.93627128542659
 30
0.0
 11
89.428441390139255
 21
309.93627128542659
 31
0.0
  0
LINE
  5
15592
  8
AM_0
 10
97.428450479847925
 20
286.20483373833417
 30
0.0
 11
89.568450479847897
 21
285.93626973570559
 31
0.0
  0
LINE
  5
15593
  8
AM_0
 10
89.428441390139255
 20
309.93627128542659
 30
0.0
 11
89.428441390139255
 21
293.93627128542659
 31
0.0
  0
ARC
  5
15594
  8
AM_0
 10
86.928820479848014
 20
279.05633973570559
 30
0.0
 40
0.5003520299999995
 50
92.33117
 51
180.00710999999771
  0
LINE
  5
15595
  8
AM_0
 10
86.428460479848013
 20
278.43626973570571
 30
0.0
 11
86.428460479848013
 21
279.0562597357054
 31
0.0
  0
LINE
  5
15596
  8
AM_0
 10
86.428460479848013
 20
278.43626973570571
 30
0.0
 11
86.428460479848013
 21
277.79626973570561
 31
0.0
  0
LINE
  5
15597
  8
AM_0
 10
88.928450479848152
 20
279.71626973570551
 30
0.0
 11
86.908460479847889
 21
279.55625973570568
 31
0.0
  0
ARC
  5
15598
  8
AM_0
 10
89.614180479848045
 20
284.93574973570549
 30
0.0
 40
1.000530599999998
 50
90.327200000001014
 51
267.38127000000111
  0
LINE
  5
1559A
  8
AM_0
 10
99.428441390139355
 20
291.43627128542653
 30
0.0
 11
99.428441390139355
 21
312.43627128542653
 31
0.0
  0
ARC
  5
1559B
  8
AM_0
 10
95.928460479847914
 20
288.899545592761
 30
0.0
 40
2.999999999999996
 50
330.80663173194762
 51
0.0
1001
GENIUS_GENOBJ-N-FIL_13
1002
{
1000
OWNER
1000
GEN
1002
}
1001
GENIUS_GENODEF_13
1002
{
1000
HIER
1070
     0
1002
}
1002
{
1000
MANEDIT
1070
     0
1002
}
1002
{
1000
NOSEL
1070
     0
1002
}
1002
{
1000
BEHIND
1070
     0
1002
}
1002
{
1000
OTHER
1070
     0
1002
}
1002
{
1000
REACTOR
1002
}
  0
LINE
  5
1559C
  8
AM_0
 10
97.428448900325066
 20
287.4362708532928
 30
0.0
 11
101.4284490195343
 21
287.4362708532928
 31
0.0
  0
LINE
  5
1559D
  8
AM_0
 10
99.428441390139355
 20
291.43627128542653
 30
0.0
 11
101.4284413901392
 21
291.43627128542653
 31
0.0
  0
LINE
  5
1559E
  8
AM_0
 10
98.928460479847885
 20
288.899545592761
 30
0.0
 11
98.928460479847885
 21
293.93627128542653
 31
0.0
  0
LINE
  5
1559F
  8
AM_0
 10
99.428441390139355
 20
312.43627128542653
 30
0.0
 11
101.4284413901392
 21
312.43627128542653
 31
0.0
  0
ARC
  5
155A0
  8
AM_0
 10
125.4286904798482
 20
312.82005773570529
 30
0.0
 40
1.000393499999997
 50
10.993529635258341
 51
179.0714379999965
  0
ARC
  5
155A1
  8
AM_0
 10
150.41841047984801
 20
249.92991973570531
 30
0.0
 40
64.00635100000008
 50
89.991012616410785
 51
98.280567367617166
  0
ARC
  5
155A2
  8
AM_0
 10
135.42885047984811
 20
314.1755797357057
 30
0.0
 40
1.000413999999999
 50
2.3310499999979508
 51
179.96048300000029
  0
LINE
  5
155A3
  8
AM_0
 10
134.39090638822751
 20
313.15012714502018
 30
0.0
 11
134.42845047984801
 21
314.21627573570549
 31
0.0
  0
LINE
  5
155A4
  8
AM_0
 10
136.4639451298049
 20
313.1863126005054
 30
0.0
 11
136.428420479848
 21
314.2162717357055
 31
0.0
  0
ARC
  5
155A5
  8
AM_0
 10
150.41841047984801
 20
249.92991973570531
 30
0.0
 40
64.00635100000008
 50
83.719456375074628
 51
89.991012616410785
  0
LINE
  5
155A6
  8
AM_0
 10
144.3859562433218
 20
313.66393416820603
 30
0.0
 11
144.4284504798481
 21
314.89626773570558
 31
0.0
  0
LINE
  5
155A7
  8
AM_0
 10
146.4554953509533
 20
313.82746357072028
 30
0.0
 11
146.42845047984801
 21
314.89627173570562
 31
0.0
  0
ARC
  5
155A8
  8
AM_0
 10
145.4290004798481
 20
314.8485267357056
 30
0.0
 40
1.0005847999999991
 50
2.7350400000044188
 51
179.5564910000007
  0
LINE
  5
155A9
  8
AM_0
 10
156.4707309205219
 20
313.67013636551218
 30
0.0
 11
156.4284504798479
 21
314.89626773570558
 31
0.0
  0
LINE
  5
155AA
  8
AM_0
 10
154.3880481307956
 20
313.832340557409
 30
0.0
 11
154.4284504798481
 21
314.89626773570558
 31
0.0
  0
ARC
  5
155AB
  8
AM_0
 10
155.42787047984811
 20
314.84784773570573
 30
0.0
 40
1.000603799999999
 50
0.4821899999981744
 51
177.2262829999969
  0
LINE
  5
155B0
  8
AM_0
 10
204.42144439084311
 20
317.70611251656931
 30
0.0
 11
204.42144439084311
 21
342.44615987422338
 31
0.0
  0
LINE
  5
155B1
  8
0
 10
179.4284513441151
 20
313.9362716430544
 30
0.0
 11
201.5261428809506
 21
314.70794003551208
 31
0.0
  0
ARC
  5
155B2
  8
AM_0
 10
165.4280204798481
 20
314.17490473570558
 30
0.0
 40
1.0004281999999971
 50
0.078219999997982
 51
177.63024800000301
  0
LINE
  5
155B3
  8
AM_0
 10
166.4462906134724
 20
313.70966260168211
 30
0.0
 11
166.4284504798479
 21
314.2162717357055
 31
0.0
  0
LINE
  5
155B4
  8
AM_0
 10
164.40975776726691
 20
313.67411436653703
 30
0.0
 11
164.42845047984801
 21
314.2162717357055
 31
0.0
  0
ARC
  5
155C2
  8
0
 10
201.42144439084311
 20
317.70611251656931
 30
0.0
 40
3.0
 50
271.9999999999971
 51
0.0
1001
GENIUS_GENODEF_13
1002
{
1000
HIER
1070
     0
1002
}
1002
{
1000
MANEDIT
1070
     0
1002
}
1002
{
1000
NOSEL
1070
     0
1002
}
1002
{
1000
BEHIND
1070
     0
1002
}
1002
{
1000
OTHER
1070
     0
1002
}
1002
{
1000
REACTOR
1002
}
1001
GENIUS_GENOBJ-N-FIL_13
1002
{
1000
OWNER
1000
GEN
1002
}
  0
ARC
  5
155C9
  8
0
 10
206.42144439084319
 20
342.44615987422338
 30
0.0
 40
1.9999999999999989
 50
92.000000000003624
 51
180.0
1001
GENIUS_GENOBJ-N-FIL_13
1002
{
1000
OWNER
1000
GEN
1002
}
1001
GENIUS_GENODEF_13
1002
{
1000
HIER
1070
     0
1002
}
1002
{
1000
MANEDIT
1070
     0
1002
}
1002
{
1000
NOSEL
1070
     0
1002
}
1002
{
1000
BEHIND
1070
     0
1002
}
1002
{
1000
OTHER
1070
     0
1002
}
1002
{
1000
REACTOR
1002
}
  0
LINE
  5
155CC
  8
0
 10
206.35164539743801
 20
344.44494152826172
 30
0.0
 11
220.42144439084311
 21
344.93626973570548
 31
0.0
  0
ARC
  5
155CF
  8
0
 10
380.02553814738508
 20
318.40182675466338
 30
0.0
 40
5.0
 50
47.50431046522236
 51
151.11336483534211
1001
GENIUS_GENOBJ-N-FIL_13
1002
{
1000
OWNER
1000
GEN
1002
}
1001
GENIUS_GENODEF_13
1002
{
1000
HIER
1070
     0
1002
}
1002
{
1000
MANEDIT
1070
     0
1002
}
1002
{
1000
NOSEL
1070
     0
1002
}
1002
{
1000
BEHIND
1070
     0
1002
}
1002
{
1000
OTHER
1070
     0
1002
}
1002
{
1000
REACTOR
1002
}
  0
LINE
  5
155D0
  8
ﾁｭｳｼﾝｾﾝ
 10
391.5096864629532
 20
317.43640988114601
 30
0.0
 11
391.50968746192302
 21
344.0732233910968
 31
0.0
1001
GENIUS_GENODEF_13
1002
{
1000
HIER
1070
     0
1002
}
1002
{
1000
MANEDIT
1070
     0
1002
}
1002
{
1000
NOSEL
1070
     0
1002
}
1002
{
1000
BEHIND
1070
     0
1002
}
1002
{
1000
OTHER
1070
     0
1002
}
1002
{
1000
REACTOR
1002
}
1001
GENIUS_GENOBJ-N-CEN_13
1002
{
1000
OWNER
1000
GEN
1002
}
  0
LINE
  5
155D1
  8
0
 10
379.25151965734022
 20
337.69950531749191
 30
0.0
 11
363.25148653985588
 21
308.69950919002952
 31
0.0
  0
ARC
  5
155D2
  8
0
  6
CONTINUOUS
 62
     7
 10
391.50962871030009
 20
330.9364054848308
 30
0.0
 40
12.0
 50
227.5043104652224
 51
13.6089875326055
  0
LINE
  5
155D3
  8
0
 10
409.97408785433578
 20
308.93641404048702
 30
0.0
 11
376.50956776876183
 21
308.93641404048668
 31
0.0
  0
CIRCLE
  5
155D4
  8
0
 10
375.50960305471222
 20
301.93641404048702
 30
0.0
 40
4.0
  0
CIRCLE
  5
155D5
  8
ｷｲﾛ
 10
375.50956812638992
 20
301.93641479238448
 30
0.0
 40
5.0
  0
ARC
  5
155D6
  8
0
 10
376.5095677687616
 20
298.9364140404868
 30
0.0
 40
10.0
 50
90.0
 51
180.0
1001
GENIUS_GENODEF_13
1002
{
1000
HIER
1070
     0
1002
}
1002
{
1000
MANEDIT
1070
     0
1002
}
1002
{
1000
NOSEL
1070
     0
1002
}
1002
{
1000
BEHIND
1070
     0
1002
}
1002
{
1000
OTHER
1070
     0
1002
}
1002
{
1000
REACTOR
1002
}
1001
GENIUS_GENOBJ-N-FIL_13
1002
{
1000
OWNER
1000
GEN
1002
}
  0
ARC
  5
155D7
  8
AM_0
 10
375.50956812638992
 20
301.93641479238448
 30
0.0
 40
14.00000035762786
 50
151.11336483534211
 51
180.0
  0
LINE
  5
155D8
  8
0
 10
375.64765197831252
 20
320.81721754926423
 30
0.0
 11
367.62937270892849
 21
306.28411839542838
 31
0.0
  0
ARC
  5
155D9
  8
AM_0
 10
375.50956812638992
 20
301.93641479238448
 30
0.0
 40
9.0000003576278651
 50
151.11336483534211
 51
180.0
  0
ARC
  5
155DA
  8
0
  6
CONTINUOUS
 62
     7
 10
397.48841971098273
 20
317.17944149672093
 30
0.0
 40
3.0
 50
44.999999999999417
 51
113.48981639447349
1001
GENIUS_GENODEF_13
1002
{
1000
HIER
1070
     0
1002
}
1002
{
1000
MANEDIT
1070
     0
1002
}
1002
{
1000
NOSEL
1070
     0
1002
}
1002
{
1000
BEHIND
1070
     0
1002
}
1002
{
1000
OTHER
1070
     0
1002
}
1002
{
1000
REACTOR
1002
}
1001
GENIUS_GENOBJ-N-FIL_13
1002
{
1000
OWNER
1000
GEN
1002
}
  0
LINE
  5
155DB
  8
0
 10
399.6097400545425
 20
319.30076184028042
 30
0.0
 11
411.74185480730239
 21
307.16864708752053
 31
0.0
  0
ARC
  5
155DC
  8
0
 10
391.5096371433674
 20
330.93640908332281
 30
0.0
 40
14.00000415934085
 50
90.0
 51
151.11336483534211
  0
LINE
  5
155DD
  8
ﾁｭｳｼﾝｾﾝ
 10
404.93687345929681
 20
330.93640937758113
 30
0.0
 11
378.37287345929713
 21
330.93641037382059
 31
0.0
1001
GENIUS_GENODEF_13
1002
{
1000
HIER
1070
     0
1002
}
1002
{
1000
MANEDIT
1070
     0
1002
}
1002
{
1000
NOSEL
1070
     0
1002
}
1002
{
1000
BEHIND
1070
     0
1002
}
1002
{
1000
OTHER
1070
     0
1002
}
1002
{
1000
REACTOR
1002
}
1001
GENIUS_GENOBJ-N-CEN_13
1002
{
1000
OWNER
1000
GEN
1002
}
  0
CIRCLE
  5
155DE
  8
0
 10
391.50963106782228
 20
330.93640473293328
 30
0.0
 40
5.4999999999999973
  0
LINE
  5
155DF
  8
AM_7
  6
AM_ISO08W050X2
 10
391.50968696924821
 20
330.93640988114578
 30
0.0
 11
391.50968696924821
 21
330.93640988114578
 31
0.0
1001
GENIUS_GENODEF_13
1002
{
1000
HIER
1070
     0
1002
}
1002
{
1000
MANEDIT
1070
     0
1002
}
1002
{
1000
NOSEL
1070
     0
1002
}
1002
{
1000
BEHIND
1070
     0
1002
}
1002
{
1000
OTHER
1070
     0
1002
}
1002
{
1000
REACTOR
1002
}
1001
GENIUS_GENOBJ-N-CEN_13
1002
{
1000
OWNER
1000
GEN
1002
}
  0
ARC
  5
155E0
  8
0
  6
CONTINUOUS
 62
     7
 10
405.26659367123261
 20
324.95761672257498
 30
0.0
 40
3.0
 50
156.51019292825009
 51
224.9999999999994
1001
GENIUS_GENODEF_13
1002
{
1000
HIER
1070
     0
1002
}
1002
{
1000
MANEDIT
1070
     0
1002
}
1002
{
1000
NOSEL
1070
     0
1002
}
1002
{
1000
BEHIND
1070
     0
1002
}
1002
{
1000
OTHER
1070
     0
1002
}
1002
{
1000
REACTOR
1002
}
1001
GENIUS_GENOBJ-N-FIL_13
1002
{
1000
OWNER
1000
GEN
1002
}
  0
ARC
  5
155E1
  8
0
 10
408.032338474055
 20
334.93641324266349
 30
0.0
 40
5.0
 50
90.0
 51
193.60898753260551
1001
GENIUS_GENODEF_13
1002
{
1000
HIER
1070
     0
1002
}
1002
{
1000
MANEDIT
1070
     0
1002
}
1002
{
1000
NOSEL
1070
     0
1002
}
1002
{
1000
BEHIND
1070
     0
1002
}
1002
{
1000
OTHER
1070
     0
1002
}
1002
{
1000
REACTOR
1002
}
1001
GENIUS_GENOBJ-N-FIL_13
1002
{
1000
OWNER
1000
GEN
1002
}
  0
LINE
  5
15600
  8
AM_0
 10
532.50963598314092
 20
301.93641479238443
 30
0.0
 11
532.50963598314047
 21
197.93640622098499
 31
0.0
  0
LINE
  5
15601
  8
AM_0
 10
537.50963598314092
 20
301.93641479238443
 30
0.0
 11
537.50963598314092
 21
197.93640622098499
 31
0.0
  0
LINE
  5
15602
  8
ﾁｭｳｼﾝｾﾝ1
 10
426.50965204298882
 20
354.46336540522373
 30
0.0
 11
426.50965204298882
 21
145.40946267575021
 31
0.0
  0
ARC
  5
15603
  8
AM_0
 10
321.88820157343889
 20
249.93641404048699
 30
0.0
 40
224.82253876479601
 50
350.95944604092699
 51
9.0405539590730442
  0
LINE
  5
15604
  8
AM_0
 10
543.59911280889025
 20
283.53031309067779
 30
0.0
 11
543.59911280888912
 21
216.7619929400025
 31
0.0
  0
LINE
  5
15605
  8
AM_0
 10
562.00963598314013
 20
311.43640858837023
 30
0.0
 11
562.00963598314013
 21
188.43642858837021
 31
0.0
  0
LINE
  5
15606
  8
AM_0
 10
573.00963598314024
 20
185.93641858837009
 30
0.0
 11
573.00963598314024
 21
313.93640858836972
 31
0.0
  0
LINE
  5
15635
  8
AM_0
 10
559.00963598314036
 20
188.43642858837021
 30
0.0
 11
534.25770934150285
 21
188.43642858837049
 31
0.0
  0
ARC
  5
15636
  8
0
 10
522.5096359831407
 20
200.93641951244459
 30
0.0
 40
10.0
 50
270.0
 51
0.0
1001
GENIUS_GENODEF_13
1002
{
1000
HIER
1070
     0
1002
}
1002
{
1000
MANEDIT
1070
     0
1002
}
1002
{
1000
NOSEL
1070
     0
1002
}
1002
{
1000
BEHIND
1070
     0
1002
}
1002
{
1000
OTHER
1070
     0
1002
}
1002
{
1000
REACTOR
1002
}
1001
GENIUS_GENOBJ-N-FIL_13
1002
{
1000
OWNER
1000
GEN
1002
}
  0
POLYLINE
  5
15637
  8
AM_0
 66
     1
 10
0.0
 20
0.0
 30
0.0
 70
     1
  0
VERTEX
  5
15638
  8
AM_0
 10
458.06622738173809
 20
195.43641404048699
 30
0.0
  0
VERTEX
  5
15639
  8
AM_0
 10
456.6228517087639
 20
192.93641404048699
 30
0.0
  0
VERTEX
  5
1563A
  8
AM_0
 10
458.06622738173809
 20
190.43641404048699
 30
0.0
  0
VERTEX
  5
1563B
  8
AM_0
 10
460.95297872768612
 20
190.43641404048699
 30
0.0
  0
VERTEX
  5
1563C
  8
AM_0
 10
462.39635440066041
 20
192.93641404048699
 30
0.0
  0
VERTEX
  5
1563D
  8
AM_0
 10
460.95297872768612
 20
195.43641404048699
 30
0.0
  0
SEQEND
  5
1563E
  8
AM_0
  0
CIRCLE
  5
1563F
  8
AM_0
 10
459.50960305471222
 20
192.93641404048699
 30
0.0
 40
5.0
  0
ARC
  5
15640
  8
0
 10
473.18439738588972
 20
195.93641404048699
 30
0.0
 40
5.0
 50
192.37362511619239
 51
270.0
1001
GENIUS_GENODEF_13
1002
{
1000
HIER
1070
     0
1002
}
1002
{
1000
MANEDIT
1070
     0
1002
}
1002
{
1000
NOSEL
1070
     0
1002
}
1002
{
1000
BEHIND
1070
     0
1002
}
1002
{
1000
OTHER
1070
     0
1002
}
1002
{
1000
REACTOR
1002
}
1001
GENIUS_GENOBJ-N-FIL_13
1002
{
1000
OWNER
1000
GEN
1002
}
  0
ARC
  5
15641
  8
0
 10
445.83480872353482
 20
195.93641404048699
 30
0.0
 40
5.0
 50
270.0
 51
347.62637488380761
1001
GENIUS_GENOBJ-N-FIL_13
1002
{
1000
OWNER
1000
GEN
1002
}
1001
GENIUS_GENODEF_13
1002
{
1000
HIER
1070
     0
1002
}
1002
{
1000
MANEDIT
1070
     0
1002
}
1002
{
1000
NOSEL
1070
     0
1002
}
1002
{
1000
BEHIND
1070
     0
1002
}
1002
{
1000
OTHER
1070
     0
1002
}
1002
{
1000
REACTOR
1002
}
  0
ARC
  5
15642
  8
0
 10
485.50958199163392
 20
190.93641404048699
 30
0.0
 40
2.5
 50
44.999999999999417
 51
224.9999999999994
  0
CIRCLE
  5
15643
  8
AM_0
 10
459.50960305471222
 20
192.93641404048699
 30
0.0
 40
6.0
  0
LINE
  5
15644
  8
0
 10
519.76768409456247
 20
162.17331569587739
 30
0.0
 11
535.7677172120467
 21
191.1733118233401
 31
0.0
  0
LINE
  5
15645
  8
0
 10
499.40946369736008
 20
180.57206624069349
 30
0.0
 11
487.27734894460031
 21
192.70418099345341
 31
0.0
  0
LINE
  5
15646
  8
0
 10
523.37155855937749
 20
179.05561576331809
 30
0.0
 11
531.38983104297404
 21
193.58870261794129
 31
0.0
  0
ARC
  5
1564C
  8
0
 10
507.50959917933528
 20
168.9364189976512
 30
0.0
 40
12.0
 50
47.504389781222649
 51
193.60897505411901
  0
ARC
  5
1564D
  8
0
 10
507.50959917933488
 20
168.936411930047
 30
0.0
 40
14.00000415934085
 50
270.0
 51
331.11336483534222
  0
LINE
  5
1564E
  8
ﾁｭｳｼﾝｾﾝ
 10
494.08246555293988
 20
168.93641404048711
 30
0.0
 11
520.64646555293984
 21
168.93641404048711
 31
0.0
1001
GENIUS_GENODEF_13
1002
{
1000
HIER
1070
     0
1002
}
1002
{
1000
MANEDIT
1070
     0
1002
}
1002
{
1000
NOSEL
1070
     0
1002
}
1002
{
1000
BEHIND
1070
     0
1002
}
1002
{
1000
OTHER
1070
     0
1002
}
1002
{
1000
REACTOR
1002
}
1001
GENIUS_GENOBJ-N-CEN_13
1002
{
1000
OWNER
1000
GEN
1002
}
  0
CIRCLE
  5
1564F
  8
0
 10
507.50960221710801
 20
168.9364132426636
 30
0.0
 40
5.4999999999999973
  0
LINE
  5
15650
  8
ﾁｭｳｼﾝｾﾝ
 10
507.50965204298831
 20
182.43641404048711
 30
0.0
 11
507.50965204298831
 21
155.799600530536
 31
0.0
1001
GENIUS_GENODEF_13
1002
{
1000
HIER
1070
     0
1002
}
1002
{
1000
MANEDIT
1070
     0
1002
}
1002
{
1000
NOSEL
1070
     0
1002
}
1002
{
1000
BEHIND
1070
     0
1002
}
1002
{
1000
OTHER
1070
     0
1002
}
1002
{
1000
REACTOR
1002
}
1001
GENIUS_GENOBJ-N-CEN_13
1002
{
1000
OWNER
1000
GEN
1002
}
  0
ARC
  5
15651
  8
0
 10
490.98688854441667
 20
164.93641483831021
 30
0.0
 40
5.0
 50
270.0
 51
13.60897505411906
1001
GENIUS_GENOBJ-N-FIL_13
1002
{
1000
OWNER
1000
GEN
1002
}
1001
GENIUS_GENODEF_13
1002
{
1000
HIER
1070
     0
1002
}
1002
{
1000
MANEDIT
1070
     0
1002
}
1002
{
1000
NOSEL
1070
     0
1002
}
1002
{
1000
BEHIND
1070
     0
1002
}
1002
{
1000
OTHER
1070
     0
1002
}
1002
{
1000
REACTOR
1002
}
  0
LINE
  5
15652
  8
AM_7
  6
AM_ISO08W050X2
 10
507.50960221710801
 20
168.9364132426636
 30
0.0
 11
507.50960221710801
 21
168.9364132426636
 31
0.0
1001
GENIUS_GENODEF_13
1002
{
1000
HIER
1070
     0
1002
}
1002
{
1000
MANEDIT
1070
     0
1002
}
1002
{
1000
NOSEL
1070
     0
1002
}
1002
{
1000
BEHIND
1070
     0
1002
}
1002
{
1000
OTHER
1070
     0
1002
}
1002
{
1000
REACTOR
1002
}
1001
GENIUS_GENOBJ-N-CEN_13
1002
{
1000
OWNER
1000
GEN
1002
}
  0
LINE
  5
15653
  8
AM_7
  6
AM_ISO08W050X2
 10
507.50965204298871
 20
168.93641404048711
 30
0.0
 11
507.50965204298871
 21
168.93641404048711
 31
0.0
1001
GENIUS_GENODEF_13
1002
{
1000
HIER
1070
     0
1002
}
1002
{
1000
MANEDIT
1070
     0
1002
}
1002
{
1000
NOSEL
1070
     0
1002
}
1002
{
1000
BEHIND
1070
     0
1002
}
1002
{
1000
OTHER
1070
     0
1002
}
1002
{
1000
REACTOR
1002
}
1001
GENIUS_GENOBJ-N-CEN_13
1002
{
1000
OWNER
1000
GEN
1002
}
  0
LINE
  5
15654
  8
0
 10
495.87393042422963
 20
177.03653170195849
 30
0.0
 11
483.74181503866748
 21
189.1686470875205
 31
0.0
  0
ARC
  5
15655
  8
0
  6
CONTINUOUS
 62
     7
 10
493.75261008066991
 20
174.91521135839881
 30
0.0
 40
3.0
 50
336.51019292825021
 51
44.999999999999417
1001
GENIUS_GENODEF_13
1002
{
1000
HIER
1070
     0
1002
}
1002
{
1000
MANEDIT
1070
     0
1002
}
1002
{
1000
NOSEL
1070
     0
1002
}
1002
{
1000
BEHIND
1070
     0
1002
}
1002
{
1000
OTHER
1070
     0
1002
}
1002
{
1000
REACTOR
1002
}
1001
GENIUS_GENOBJ-N-FIL_13
1002
{
1000
OWNER
1000
GEN
1002
}
  0
ARC
  5
15656
  8
0
  6
CONTINUOUS
 62
     7
 10
501.5307840409198
 20
182.69338658425309
 30
0.0
 40
3.0
 50
224.9999999999994
 51
293.48981639447351
1001
GENIUS_GENODEF_13
1002
{
1000
HIER
1070
     0
1002
}
1002
{
1000
MANEDIT
1070
     0
1002
}
1002
{
1000
NOSEL
1070
     0
1002
}
1002
{
1000
BEHIND
1070
     0
1002
}
1002
{
1000
OTHER
1070
     0
1002
}
1002
{
1000
REACTOR
1002
}
1001
GENIUS_GENOBJ-N-FIL_13
1002
{
1000
OWNER
1000
GEN
1002
}
  0
ARC
  5
15657
  8
0
 10
518.99367239030482
 20
181.4710136255236
 30
0.0
 40
5.0
 50
227.50438978122301
 51
331.11336483534222
1001
GENIUS_GENOBJ-N-FIL_13
1002
{
1000
OWNER
1000
GEN
1002
}
1001
GENIUS_GENODEF_13
1002
{
1000
HIER
1070
     0
1002
}
1002
{
1000
MANEDIT
1070
     0
1002
}
1002
{
1000
NOSEL
1070
     0
1002
}
1002
{
1000
BEHIND
1070
     0
1002
}
1002
{
1000
OTHER
1070
     0
1002
}
1002
{
1000
REACTOR
1002
}
  0
LINE
  5
15658
  8
0
 10
483.00958199163392
 20
190.93641404048699
 30
0.0
 11
473.18439738588972
 21
190.93641404048699
 31
0.0
  0
LINE
  5
15659
  8
0
 10
445.83480872353482
 20
190.93641404048699
 30
0.0
 11
416.00962176026877
 21
190.93641404048699
 31
0.0
  0
ARC
  5
1565A
  8
0
 10
459.50960305471222
 20
192.93641404048699
 30
0.0
 40
9.0
 50
12.373625116192381
 51
90.0
  0
ARC
  5
1565B
  8
0
 10
459.50960305471222
 20
192.93641404048699
 30
0.0
 40
9.0
 50
90.0
 51
167.62637488380761
  0
LINE
  5
1565F
  8
0
 10
522.5096359831407
 20
190.9364195124445
 30
0.0
 11
489.04511589756657
 21
190.9364195124445
 31
0.0
  0
ARC
  5
15660
  8
AM_0
 10
540.9381016294526
 20
214.9572281958356
 30
0.0
 40
2.999999999999996
 50
270.0
 51
353.33928567968309
1001
GENIUS_GENODEF_13
1002
{
1000
HIER
1070
     0
1002
}
1002
{
1000
MANEDIT
1070
     0
1002
}
1002
{
1000
NOSEL
1070
     0
1002
}
1002
{
1000
BEHIND
1070
     0
1002
}
1002
{
1000
OTHER
1070
     0
1002
}
1002
{
1000
REACTOR
1002
}
1001
GENIUS_GENOBJ-N-FIL_13
1002
{
1000
OWNER
1000
GEN
1002
}
  0
ARC
  5
15661
  8
AM_0
 10
523.5096356255126
 20
197.93640622098511
 30
0.0
 40
9.0000003576278651
 50
331.11336483534222
 51
0.0
  0
CIRCLE
  5
15662
  8
0
 10
523.50960305471222
 20
197.93641404048699
 30
0.0
 40
4.0
  0
CIRCLE
  5
15663
  8
ｷｲﾛ
 10
523.50956812638981
 20
197.9364147923844
 30
0.0
 40
5.0
  0
ARC
  5
15664
  8
AM_0
 10
523.5096356255126
 20
197.93640622098511
 30
0.0
 40
14.00000035762786
 50
331.11336483534222
 51
0.0
  0
LINE
  5
15665
  8
AM_0
 10
540.9381016294526
 20
211.9572281958356
 30
0.0
 11
537.50963598314092
 21
211.9572281958358
 31
0.0
  0
ARC
  5
15666
  8
0
 10
529.5096359831407
 20
244.43641404048699
 30
0.0
 40
3.0
 50
0.0
 51
90.0
1001
GENIUS_GENOBJ-N-FIL_13
1002
{
1000
OWNER
1000
GEN
1002
}
1001
GENIUS_GENODEF_13
1002
{
1000
HIER
1070
     0
1002
}
1002
{
1000
MANEDIT
1070
     0
1002
}
1002
{
1000
NOSEL
1070
     0
1002
}
1002
{
1000
BEHIND
1070
     0
1002
}
1002
{
1000
OTHER
1070
     0
1002
}
1002
{
1000
REACTOR
1002
}
  0
ARC
  5
15667
  8
0
 10
529.5096359831407
 20
255.43641404048699
 30
0.0
 40
3.0
 50
270.0
 51
0.0
1001
GENIUS_GENOBJ-N-FIL_13
1002
{
1000
OWNER
1000
GEN
1002
}
1001
GENIUS_GENODEF_13
1002
{
1000
HIER
1070
     0
1002
}
1002
{
1000
MANEDIT
1070
     0
1002
}
1002
{
1000
NOSEL
1070
     0
1002
}
1002
{
1000
BEHIND
1070
     0
1002
}
1002
{
1000
OTHER
1070
     0
1002
}
1002
{
1000
REACTOR
1002
}
  0
LINE
  5
15668
  8
0
 10
528.00963598314092
 20
252.43641404048699
 30
0.0
 11
529.50963598314092
 21
252.43641404048699
 31
0.0
  0
LINE
  5
15669
  8
0
 10
528.00963598314092
 20
247.43641404048691
 30
0.0
 11
529.50963598314092
 21
247.43641404048691
 31
0.0
  0
ARC
  5
1566A
  8
0
 10
528.00963598314047
 20
249.93641404048699
 30
0.0
 40
2.5
 50
90.0
 51
270.0
  0
LINE
  5
15674
  8
AM_0
 10
573.00963598314024
 20
185.93642858837001
 30
0.0
 11
563.88303315554458
 21
185.93642858837001
 31
0.0
  0
ARC
  5
15675
  8
AM_0
 10
563.88303315554458
 20
188.93642858837009
 30
0.0
 40
2.999999999999996
 50
215.68533471265459
 51
270.0
1001
GENIUS_GENOBJ-N-FIL_13
1002
{
1000
OWNER
1000
GEN
1002
}
1001
GENIUS_GENODEF_13
1002
{
1000
HIER
1070
     0
1002
}
1002
{
1000
MANEDIT
1070
     0
1002
}
1002
{
1000
NOSEL
1070
     0
1002
}
1002
{
1000
BEHIND
1070
     0
1002
}
1002
{
1000
OTHER
1070
     0
1002
}
1002
{
1000
REACTOR
1002
}
  0
ARC
  5
15676
  8
AM_0
 10
559.00963598314036
 20
185.43642858837009
 30
0.0
 40
2.999999999999996
 50
35.68533471265463
 51
90.0
1001
GENIUS_GENOBJ-N-FIL_13
1002
{
1000
OWNER
1000
GEN
1002
}
1001
GENIUS_GENODEF_13
1002
{
1000
HIER
1070
     0
1002
}
1002
{
1000
MANEDIT
1070
     0
1002
}
1002
{
1000
NOSEL
1070
     0
1002
}
1002
{
1000
BEHIND
1070
     0
1002
}
1002
{
1000
OTHER
1070
     0
1002
}
1002
{
1000
REACTOR
1002
}
  0
LINE
  5
15677
  8
AM_0
 10
573.00963598314024
 20
185.93638858836979
 30
0.0
 11
573.00963598314024
 21
189.93638858836991
 31
0.0
  0
LINE
  5
1569C
  8
AM_0
 10
573.00963598314024
 20
197.8964285883701
 30
0.0
 11
563.00963598314024
 21
197.8964285883701
 31
0.0
  0
LINE
  5
1569D
  8
AM_0
 10
573.00969380535776
 20
197.89641858840179
 30
0.0
 11
563.0096938053639
 21
197.8964074772905
 31
0.0
  0
LINE
  5
1569F
  8
AM_0
 10
573.00963598314024
 20
212.79643858837019
 30
0.0
 11
563.00963598314024
 21
212.79643858837019
 31
0.0
  0
LINE
  5
156A0
  8
AM_0
 10
573.00967724979068
 20
212.7964285883927
 30
0.0
 11
563.00967724979694
 21
212.7964174772813
 31
0.0
  0
LINE
  5
1577D
  8
AM_0
 10
559.00963598314036
 20
311.43640858837023
 30
0.0
 11
534.25770042376155
 21
311.43640858836989
 31
0.0
  0
LINE
  5
1577F
  8
0
 10
483.00958199163392
 20
308.93641404048668
 30
0.0
 11
473.18439738588972
 21
308.93641404048702
 31
0.0
  0
ARC
  5
15780
  8
0
 10
445.83480872353482
 20
303.93641404048702
 30
0.0
 40
5.0
 50
12.373625116192381
 51
90.0
1001
GENIUS_GENOBJ-N-FIL_13
1002
{
1000
OWNER
1000
GEN
1002
}
1001
GENIUS_GENODEF_13
1002
{
1000
HIER
1070
     0
1002
}
1002
{
1000
MANEDIT
1070
     0
1002
}
1002
{
1000
NOSEL
1070
     0
1002
}
1002
{
1000
BEHIND
1070
     0
1002
}
1002
{
1000
OTHER
1070
     0
1002
}
1002
{
1000
REACTOR
1002
}
  0
LINE
  5
15781
  8
0
 10
445.83480872353482
 20
308.93641404048702
 30
0.0
 11
416.00962176026877
 21
308.93641404048702
 31
0.0
  0
ARC
  5
15782
  8
0
 10
459.50960305471222
 20
306.93641404048702
 30
0.0
 40
9.0
 50
270.0
 51
347.62637488380761
  0
ARC
  5
15783
  8
0
 10
459.50960305471222
 20
306.93641404048702
 30
0.0
 40
9.0
 50
192.37362511619239
 51
270.0
  0
CIRCLE
  5
15784
  8
AM_0
 10
459.50960305471222
 20
306.93641404048708
 30
0.0
 40
6.0
  0
CIRCLE
  5
15785
  8
AM_0
 10
459.50960305471222
 20
306.93641404048708
 30
0.0
 40
5.0
  0
POLYLINE
  5
15786
  8
AM_0
 66
     1
 10
0.0
 20
0.0
 30
0.0
 70
     1
  0
VERTEX
  5
15787
  8
AM_0
 10
458.06622738173809
 20
304.43641404048719
 30
0.0
  0
VERTEX
  5
15788
  8
AM_0
 10
456.6228517087639
 20
306.93641404048708
 30
0.0
  0
VERTEX
  5
15789
  8
AM_0
 10
458.06622738173809
 20
309.43641404048708
 30
0.0
  0
VERTEX
  5
1578A
  8
AM_0
 10
460.95297872768612
 20
309.43641404048708
 30
0.0
  0
VERTEX
  5
1578B
  8
AM_0
 10
462.39635440066041
 20
306.93641404048708
 30
0.0
  0
VERTEX
  5
1578C
  8
AM_0
 10
460.95297872768612
 20
304.43641404048719
 30
0.0
  0
SEQEND
  5
1578D
  8
AM_0
  0
ARC
  5
1578E
  8
0
 10
473.18439738588972
 20
303.93641404048702
 30
0.0
 40
5.0
 50
90.0
 51
167.62637488380761
1001
GENIUS_GENODEF_13
1002
{
1000
HIER
1070
     0
1002
}
1002
{
1000
MANEDIT
1070
     0
1002
}
1002
{
1000
NOSEL
1070
     0
1002
}
1002
{
1000
BEHIND
1070
     0
1002
}
1002
{
1000
OTHER
1070
     0
1002
}
1002
{
1000
REACTOR
1002
}
1001
GENIUS_GENOBJ-N-FIL_13
1002
{
1000
OWNER
1000
GEN
1002
}
  0
ARC
  5
1578F
  8
0
 10
518.99367239030505
 20
318.40181445545028
 30
0.0
 40
5.0
 50
28.886635164657829
 51
132.49561021877699
1001
GENIUS_GENOBJ-N-FIL_13
1002
{
1000
OWNER
1000
GEN
1002
}
1001
GENIUS_GENODEF_13
1002
{
1000
HIER
1070
     0
1002
}
1002
{
1000
MANEDIT
1070
     0
1002
}
1002
{
1000
NOSEL
1070
     0
1002
}
1002
{
1000
BEHIND
1070
     0
1002
}
1002
{
1000
OTHER
1070
     0
1002
}
1002
{
1000
REACTOR
1002
}
  0
LINE
  5
15790
  8
ﾁｭｳｼﾝｾﾝ
 10
507.50965457446551
 20
317.4364055307567
 30
0.0
 11
507.50965557343579
 21
344.07321904070773
 31
0.0
1001
GENIUS_GENODEF_13
1002
{
1000
HIER
1070
     0
1002
}
1002
{
1000
MANEDIT
1070
     0
1002
}
1002
{
1000
NOSEL
1070
     0
1002
}
1002
{
1000
BEHIND
1070
     0
1002
}
1002
{
1000
OTHER
1070
     0
1002
}
1002
{
1000
REACTOR
1002
}
1001
GENIUS_GENOBJ-N-CEN_13
1002
{
1000
OWNER
1000
GEN
1002
}
  0
ARC
  5
15791
  8
0
 10
507.50959917933528
 20
330.93640908332247
 30
0.0
 40
12.0
 50
166.3910249458809
 51
312.4956102187773
  0
LINE
  5
15792
  8
0
 10
519.76768409456247
 20
337.69950531749191
 30
0.0
 11
535.7677172120467
 21
308.69950919002929
 31
0.0
  0
LINE
  5
15793
  8
0
 10
495.87393042422963
 20
322.83629637901538
 30
0.0
 11
483.74181503866748
 21
310.70418099345318
 31
0.0
  0
LINE
  5
15794
  8
0
 10
522.50963598314092
 20
308.93641404048668
 30
0.0
 11
489.04511589756657
 21
308.93641404048668
 31
0.0
  0
LINE
  5
15795
  8
0
 10
499.40946369736008
 20
319.30076184028042
 30
0.0
 11
487.27734894460031
 21
307.16864708752053
 31
0.0
  0
ARC
  5
15796
  8
0
 10
485.50958199163392
 20
308.9364140404868
 30
0.0
 40
2.5
 50
135.0000000000006
 51
315.00000000000063
  0
ARC
  5
15797
  8
0
  6
CONTINUOUS
 62
     7
 10
501.5307840409198
 20
317.1794414967207
 30
0.0
 40
3.0
 50
66.510183605526422
 51
135.0000000000006
1001
GENIUS_GENODEF_13
1002
{
1000
HIER
1070
     0
1002
}
1002
{
1000
MANEDIT
1070
     0
1002
}
1002
{
1000
NOSEL
1070
     0
1002
}
1002
{
1000
BEHIND
1070
     0
1002
}
1002
{
1000
OTHER
1070
     0
1002
}
1002
{
1000
REACTOR
1002
}
1001
GENIUS_GENOBJ-N-FIL_13
1002
{
1000
OWNER
1000
GEN
1002
}
  0
CIRCLE
  5
15798
  8
0
 10
523.50960305471233
 20
301.9364140404868
 30
0.0
 40
4.0
  0
ARC
  5
15799
  8
0
 10
522.50963598314092
 20
298.93641404048702
 30
0.0
 40
10.0
 50
0.0
 51
90.0
1001
GENIUS_GENOBJ-N-FIL_13
1002
{
1000
OWNER
1000
GEN
1002
}
1001
GENIUS_GENODEF_13
1002
{
1000
HIER
1070
     0
1002
}
1002
{
1000
MANEDIT
1070
     0
1002
}
1002
{
1000
NOSEL
1070
     0
1002
}
1002
{
1000
BEHIND
1070
     0
1002
}
1002
{
1000
OTHER
1070
     0
1002
}
1002
{
1000
REACTOR
1002
}
  0
CIRCLE
  5
1579A
  8
ｷｲﾛ
 10
523.50956812638981
 20
301.93641479238448
 30
0.0
 40
5.0
  0
ARC
  5
1579B
  8
AM_0
 10
540.9381016294526
 20
284.91559988513848
 30
0.0
 40
2.999999999999996
 50
6.6607143203167842
 51
90.0
1001
GENIUS_GENODEF_13
1002
{
1000
HIER
1070
     0
1002
}
1002
{
1000
MANEDIT
1070
     0
1002
}
1002
{
1000
NOSEL
1070
     0
1002
}
1002
{
1000
BEHIND
1070
     0
1002
}
1002
{
1000
OTHER
1070
     0
1002
}
1002
{
1000
REACTOR
1002
}
1001
GENIUS_GENOBJ-N-FIL_13
1002
{
1000
OWNER
1000
GEN
1002
}
  0
LINE
  5
1579C
  8
AM_0
 10
540.9381016294526
 20
287.91559988513842
 30
0.0
 11
537.50963598314092
 21
287.91559988513808
 31
0.0
  0
ARC
  5
1579D
  8
AM_0
 10
523.5096356255126
 20
301.93641479238448
 30
0.0
 40
9.0000003576278651
 50
0.0
 51
28.886635164657829
  0
LINE
  5
1579E
  8
0
 10
523.37155855937749
 20
320.81720525005119
 30
0.0
 11
531.38983104297415
 21
306.28411839542838
 31
0.0
  0
ARC
  5
1579F
  8
AM_0
 10
523.5096356255126
 20
301.93641479238448
 30
0.0
 40
14.00000035762786
 50
0.0
 51
28.886635164657829
  0
ARC
  5
157A0
  8
0
 10
507.50959917933488
 20
330.93640908332247
 30
0.0
 40
14.00000415934085
 50
28.886635164657829
 51
90.0
  0
LINE
  5
157A1
  8
ﾁｭｳｼﾝｾﾝ
 10
494.08246859071238
 20
330.93640603432129
 30
0.0
 11
520.64646859071206
 21
330.93640503808177
 31
0.0
1001
GENIUS_GENODEF_13
1002
{
1000
HIER
1070
     0
1002
}
1002
{
1000
MANEDIT
1070
     0
1002
}
1002
{
1000
NOSEL
1070
     0
1002
}
1002
{
1000
BEHIND
1070
     0
1002
}
1002
{
1000
OTHER
1070
     0
1002
}
1002
{
1000
REACTOR
1002
}
1001
GENIUS_GENOBJ-N-CEN_13
1002
{
1000
OWNER
1000
GEN
1002
}
  0
ARC
  5
157A2
  8
0
  6
CONTINUOUS
 62
     7
 10
493.75261008066991
 20
324.95761672257498
 30
0.0
 40
3.0
 50
315.00000000000063
 51
23.489807071749912
1001
GENIUS_GENODEF_13
1002
{
1000
HIER
1070
     0
1002
}
1002
{
1000
MANEDIT
1070
     0
1002
}
1002
{
1000
NOSEL
1070
     0
1002
}
1002
{
1000
BEHIND
1070
     0
1002
}
1002
{
1000
OTHER
1070
     0
1002
}
1002
{
1000
REACTOR
1002
}
1001
GENIUS_GENOBJ-N-FIL_13
1002
{
1000
OWNER
1000
GEN
1002
}
  0
ARC
  5
157A3
  8
0
 10
490.98688854441667
 20
334.93641324266349
 30
0.0
 40
5.0
 50
346.39102494588087
 51
90.0
1001
GENIUS_GENOBJ-N-FIL_13
1002
{
1000
OWNER
1000
GEN
1002
}
1001
GENIUS_GENODEF_13
1002
{
1000
HIER
1070
     0
1002
}
1002
{
1000
MANEDIT
1070
     0
1002
}
1002
{
1000
NOSEL
1070
     0
1002
}
1002
{
1000
BEHIND
1070
     0
1002
}
1002
{
1000
OTHER
1070
     0
1002
}
1002
{
1000
REACTOR
1002
}
  0
CIRCLE
  5
157A4
  8
0
 10
507.50959917933528
 20
330.93640908332247
 30
0.0
 40
5.4999999999999973
  0
LINE
  5
157A5
  8
AM_7
  6
AM_ISO08W050X2
 10
507.50959917933528
 20
330.93640908332247
 30
0.0
 11
507.50959917933528
 21
330.93640908332247
 31
0.0
1001
GENIUS_GENODEF_13
1002
{
1000
HIER
1070
     0
1002
}
1002
{
1000
MANEDIT
1070
     0
1002
}
1002
{
1000
NOSEL
1070
     0
1002
}
1002
{
1000
BEHIND
1070
     0
1002
}
1002
{
1000
OTHER
1070
     0
1002
}
1002
{
1000
REACTOR
1002
}
1001
GENIUS_GENOBJ-N-CEN_13
1002
{
1000
OWNER
1000
GEN
1002
}
  0
LINE
  5
157AF
  8
AM_0
 10
573.00963598314024
 20
287.07639858836978
 30
0.0
 11
563.00963598314024
 21
287.07639858836978
 31
0.0
  0
LINE
  5
157B1
  8
AM_0
 10
573.00963598314024
 20
301.97640858837002
 30
0.0
 11
563.00963598314024
 21
301.97640858837002
 31
0.0
  0
LINE
  5
157B2
  8
AM_0
 10
573.00963598314024
 20
313.93640858837028
 30
0.0
 11
563.88303315554458
 21
313.93640858837028
 31
0.0
  0
ARC
  5
157B3
  8
AM_0
 10
563.88303315554458
 20
310.93640858837028
 30
0.0
 40
2.999999999999996
 50
90.0
 51
144.31466528734541
1001
GENIUS_GENOBJ-N-FIL_13
1002
{
1000
OWNER
1000
GEN
1002
}
1001
GENIUS_GENODEF_13
1002
{
1000
HIER
1070
     0
1002
}
1002
{
1000
MANEDIT
1070
     0
1002
}
1002
{
1000
NOSEL
1070
     0
1002
}
1002
{
1000
BEHIND
1070
     0
1002
}
1002
{
1000
OTHER
1070
     0
1002
}
1002
{
1000
REACTOR
1002
}
  0
ARC
  5
157B4
  8
AM_0
 10
559.00963598314036
 20
314.43640858836989
 30
0.0
 40
2.999999999999996
 50
270.0
 51
324.31466528734541
1001
GENIUS_GENOBJ-N-FIL_13
1002
{
1000
OWNER
1000
GEN
1002
}
1001
GENIUS_GENODEF_13
1002
{
1000
HIER
1070
     0
1002
}
1002
{
1000
MANEDIT
1070
     0
1002
}
1002
{
1000
NOSEL
1070
     0
1002
}
1002
{
1000
BEHIND
1070
     0
1002
}
1002
{
1000
OTHER
1070
     0
1002
}
1002
{
1000
REACTOR
1002
}
  0
LINE
  5
15D2C
  8
ｶｸﾚｾﾝ2
 10
218.42144439084299
 20
267.43626973570559
 30
0.0
 11
218.42144439084299
 21
232.43626973570559
 31
0.0
  0
LINE
  5
15D2D
  8
ｶｸﾚｾﾝ2
 10
207.4284598079748
 20
272.43627040625802
 30
0.0
 11
207.4284598079748
 21
227.43626906515371
 31
0.0
  0
LINE
  5
15D2F
  8
ｶｸﾚｾﾝ2
 10
207.4284598079748
 20
227.43626906515371
 30
0.0
 11
203.42845968876551
 21
227.43626906515371
 31
0.0
  0
LINE
  5
15D30
  8
ｶｸﾚｾﾝ2
 10
207.4284598079748
 20
227.43626906515351
 30
0.0
 11
203.42845968876551
 21
227.43626906515351
 31
0.0
  0
LINE
  5
15D31
  8
ｶｸﾚｾﾝ2
 10
218.42144439084299
 20
232.43626973570559
 30
0.0
 11
207.4284598079748
 21
227.43626906515351
 31
0.0
  0
LINE
  5
15D32
  8
0
 10
260.42144439084302
 20
263.93626973570571
 30
0.0
 11
220.42144439084299
 21
263.93626973570571
 31
0.0
  0
LINE
  5
15D33
  8
0
 10
260.42144439084302
 20
235.93626973570559
 30
0.0
 11
220.42144439084299
 21
235.93626973570559
 31
0.0
  0
LINE
  5
15D36
  8
ｶｸﾚｾﾝ2
 10
207.4284598079748
 20
272.43627040625802
 30
0.0
 11
203.42845968876551
 21
272.43627040625802
 31
0.0
  0
LINE
  5
15D37
  8
ｶｸﾚｾﾝ2
 10
207.4284598079748
 20
272.43627040625802
 30
0.0
 11
203.42845968876551
 21
272.43627040625802
 31
0.0
  0
LINE
  5
15D38
  8
ｶｸﾚｾﾝ2
 10
207.4284598079748
 20
272.43627040625802
 30
0.0
 11
218.42144439084299
 21
267.43626973570559
 31
0.0
  0
LINE
  5
15D39
  8
0
 10
260.42144439084302
 20
266.93626973570571
 30
0.0
 11
228.42144439084299
 21
266.93626973570571
 31
0.0
  0
LINE
  5
15D3A
  8
0
 10
228.42144439084299
 20
266.93626973570571
 30
0.0
 11
228.42144439084299
 21
263.93626973570571
 31
0.0
  0
LINE
  5
15D3B
  8
AM_0
 10
260.42144439084302
 20
235.93626973570559
 30
0.0
 11
260.42144439084302
 21
266.93626973570571
 31
0.0
  0
ARC
  5
15D7B
  8
AM_0
 10
426.50965204298882
 20
249.93641404048699
 30
0.0
 40
14.0
 50
106.6015495990211
 51
73.398450400978902
  0
CIRCLE
  5
15D7C
  8
ｽﾝﾎﾟｳｾﾝ
 10
426.50965204298882
 20
249.93641404048699
 30
0.0
 40
4.0
  0
LINE
  5
15D7D
  8
AM_0
 10
422.50965204298882
 20
266.93641404048702
 30
0.0
 11
430.50965204298882
 21
266.93641404048702
 31
0.0
  0
LINE
  5
15D7E
  8
AM_0
 10
430.50965204298882
 20
259.93641404048691
 30
0.0
 11
422.50965204298882
 21
259.93641404048691
 31
0.0
  0
LINE
  5
15D7F
  8
AM_0
 10
422.50965204298882
 20
259.93641404048691
 30
0.0
 11
422.50965204298882
 21
266.93641404048702
 31
0.0
  0
LINE
  5
15D80
  8
AM_0
 10
430.50965204298882
 20
266.93641404048702
 30
0.0
 11
430.50965204298882
 21
259.93641404048691
 31
0.0
  0
CIRCLE
  5
15E98
  8
AM_0
 10
426.50965204298882
 20
249.93641404048691
 30
0.0
 40
3.399999999999999
  0
LINE
  5
15EA4
  8
ｶｸﾚｾﾝ2
 10
220.42144439084299
 20
263.93626973570571
 30
0.0
 11
218.42144439084299
 21
263.93626973570571
 31
0.0
  0
LINE
  5
15EA6
  8
ｶｸﾚｾﾝ2
 10
220.42144439084299
 20
235.93626973570559
 30
0.0
 11
218.42144439084299
 21
235.93626973570559
 31
0.0
  0
LINE
  5
160AA
  8
AM_0
 10
204.42144439084311
 20
314.8090461921484
 30
0.0
 11
220.42144439084311
 21
314.8090461921484
 31
0.0
  0
LINE
  5
160AB
  8
AM_0
 10
204.42144439084311
 20
185.0634932792631
 30
0.0
 11
220.42144439084311
 21
185.0634932792631
 31
0.0
  0
LINE
  5
160AD
  8
AM_0
 10
464.00965316057602
 20
601.94077813279773
 30
0.0
 11
389.00965092540201
 21
601.94077813279773
 31
0.0
  0
LINE
  5
160AE
  8
AM_0
 10
534.14817453797627
 20
597.94078564298366
 30
0.0
 11
364.87113091890882
 21
597.94078564298343
 31
0.0
  0
LINE
  5
160AF
  8
AM_0
 10
535.50968580902122
 20
519.9407756890073
 30
0.0
 11
363.50965016544279
 21
519.9407756890073
 31
0.0
  0
LINE
  5
160B0
  8
ﾁｭｳｼﾝｾﾝ1
 10
790.09016289258182
 20
548.94077655327465
 30
0.0
 11
357.25965016544268
 21
548.94077655327465
 31
0.0
1001
GENIUS_GENODEF_13
1002
{
1000
HIER
1070
     0
1002
}
1002
{
1000
MANEDIT
1070
     0
1002
}
1002
{
1000
NOSEL
1070
     0
1002
}
1002
{
1000
BEHIND
1070
     0
1002
}
1002
{
1000
REACTOR
1002
}
1001
GENIUS_GENOBJ-N-CEN_13
1002
{
1000
OWNER
1000
GEN
1002
}
  0
LINE
  5
160B1
  8
AM_0
 10
562.00968580902122
 20
610.44077155327523
 30
0.0
 11
562.00968580902122
 21
487.44079155327478
 31
0.0
  0
LINE
  5
160B2
  8
AM_0
 10
535.50968580894505
 20
519.9407756890073
 30
0.0
 11
534.14817453797627
 21
597.94078564298343
 31
0.0
  0
LINE
  5
160B3
  8
AM_0
 10
573.00968580902122
 20
612.94080655327502
 30
0.0
 11
573.00968580902122
 21
484.94079155327478
 31
0.0
  0
LINE
  5
160B4
  8
AM_0
 10
573.00968580902122
 20
511.80080155327482
 30
0.0
 11
563.00968580902122
 21
511.80080155327482
 31
0.0
  0
LINE
  5
160B5
  8
AM_0
 10
573.00972707567155
 20
511.8007915532973
 30
0.0
 11
563.00972707567769
 21
511.80078044218612
 31
0.0
  0
LINE
  5
160B6
  8
AM_0
 10
573.00968580902122
 20
496.90079155327481
 30
0.0
 11
563.00968580902122
 21
496.90079155327481
 31
0.0
  0
LINE
  5
160B7
  8
AM_0
 10
573.00974363123828
 20
496.9007815533065
 30
0.0
 11
563.00974363124465
 21
496.90077044219532
 31
0.0
  0
LINE
  5
160B8
  8
AM_0
 10
573.00968580902122
 20
484.94079155327478
 30
0.0
 11
563.88308298142545
 21
484.94079155327478
 31
0.0
  0
LINE
  5
160B9
  8
AM_0
 10
543.15105535346902
 20
520.11508717450272
 30
0.0
 11
545.84995876087237
 21
489.26648006777958
 31
0.0
  0
LINE
  5
160BA
  8
AM_0
 10
559.00968580902122
 20
487.44079155327478
 30
0.0
 11
547.84234815705577
 21
487.44079155327489
 31
0.0
  0
ARC
  5
160BB
  8
AM_0
 10
559.00968580902133
 20
484.44079155327461
 30
0.0
 40
2.9999999999999978
 50
35.685334712654601
 51
90.0
1001
GENIUS_GENOBJ-N-FIL_13
1002
{
1000
OWNER
1000
GEN
1002
}
1001
GENIUS_GENODEF_13
1002
{
1000
HIER
1070
     0
1002
}
1002
{
1000
MANEDIT
1070
     0
1002
}
1002
{
1000
NOSEL
1070
     0
1002
}
1002
{
1000
BEHIND
1070
     0
1002
}
1002
{
1000
OTHER
1070
     0
1002
}
1002
{
1000
REACTOR
1002
}
  0
ARC
  5
160BC
  8
AM_0
 10
563.88308298142567
 20
487.94079155327461
 30
0.0
 40
2.9999999999999978
 50
215.68533471265459
 51
270.0
1001
GENIUS_GENOBJ-N-FIL_13
1002
{
1000
OWNER
1000
GEN
1002
}
1001
GENIUS_GENODEF_13
1002
{
1000
HIER
1070
     0
1002
}
1002
{
1000
MANEDIT
1070
     0
1002
}
1002
{
1000
NOSEL
1070
     0
1002
}
1002
{
1000
BEHIND
1070
     0
1002
}
1002
{
1000
OTHER
1070
     0
1002
}
1002
{
1000
REACTOR
1002
}
  0
ARC
  5
160BD
  8
AM_0
 10
547.84234815705622
 20
489.44079155327501
 30
0.0
 40
2.0
 50
184.99999999999969
 51
270.0
1001
GENIUS_GENOBJ-N-FIL_13
1002
{
1000
OWNER
1000
GEN
1002
}
1001
GENIUS_GENODEF_13
1002
{
1000
HIER
1070
     0
1002
}
1002
{
1000
MANEDIT
1070
     0
1002
}
1002
{
1000
NOSEL
1070
     0
1002
}
1002
{
1000
BEHIND
1070
     0
1002
}
1002
{
1000
OTHER
1070
     0
1002
}
1002
{
1000
REACTOR
1002
}
  0
ARC
  5
160BE
  8
AM_0
 10
541.15866595728562
 20
519.9407756890073
 30
0.0
 40
2.0
 50
4.9999999999997407
 51
90.0
1001
GENIUS_GENOBJ-N-FIL_13
1002
{
1000
OWNER
1000
GEN
1002
}
1001
GENIUS_GENODEF_13
1002
{
1000
HIER
1070
     0
1002
}
1002
{
1000
MANEDIT
1070
     0
1002
}
1002
{
1000
NOSEL
1070
     0
1002
}
1002
{
1000
BEHIND
1070
     0
1002
}
1002
{
1000
OTHER
1070
     0
1002
}
1002
{
1000
REACTOR
1002
}
  0
ARC
  5
160BF
  8
AM_0
 10
536.49238287009939
 20
520.94077568900718
 30
0.0
 40
1.0
 50
90.0
 51
181.00001177349739
1001
GENIUS_GENOBJ-N-FIL_13
1002
{
1000
OWNER
1000
GEN
1002
}
1001
GENIUS_GENODEF_13
1002
{
1000
HIER
1070
     0
1002
}
1002
{
1000
MANEDIT
1070
     0
1002
}
1002
{
1000
NOSEL
1070
     0
1002
}
1002
{
1000
BEHIND
1070
     0
1002
}
1002
{
1000
OTHER
1070
     0
1002
}
1002
{
1000
REACTOR
1002
}
  0
LINE
  5
160C0
  8
AM_0
 10
541.15866595728562
 20
521.94077568900718
 30
0.0
 11
536.49238287009905
 21
521.94077568900718
 31
0.0
  0
LINE
  5
160C1
  8
AM_0
 10
573.00968580902122
 20
612.94077155327489
 30
0.0
 11
563.88308298142545
 21
612.94077155327489
 31
0.0
  0
LINE
  5
160C2
  8
AM_0
 10
573.00968580902122
 20
600.98077155327485
 30
0.0
 11
563.00968580902122
 21
600.98077155327485
 31
0.0
  0
LINE
  5
160C3
  8
AM_0
 10
573.00968580902122
 20
586.08076155327467
 30
0.0
 11
563.00968580902122
 21
586.08076155327467
 31
0.0
  0
LINE
  5
160C4
  8
AM_0
 10
549.17698969495405
 20
595.94078564298366
 30
0.0
 11
536.14847920123862
 21
595.94078564298366
 31
0.0
  0
LINE
  5
160C5
  8
AM_0
 10
552.1185093832762
 20
608.61508303877008
 30
0.0
 11
551.16937909113744
 21
597.76647415748812
 31
0.0
  0
ARC
  5
160C6
  8
AM_0
 10
549.17698969495416
 20
597.94078564298343
 30
0.0
 40
2.0
 50
270.0
 51
355.00000000000028
1001
GENIUS_GENOBJ-N-FIL_13
1002
{
1000
OWNER
1000
GEN
1002
}
1001
GENIUS_GENODEF_13
1002
{
1000
HIER
1070
     0
1002
}
1002
{
1000
MANEDIT
1070
     0
1002
}
1002
{
1000
NOSEL
1070
     0
1002
}
1002
{
1000
BEHIND
1070
     0
1002
}
1002
{
1000
OTHER
1070
     0
1002
}
1002
{
1000
REACTOR
1002
}
  0
LINE
  5
160C7
  8
AM_0
 10
559.00968580902122
 20
610.440771553275
 30
0.0
 11
554.11089877945983
 21
610.440771553275
 31
0.0
  0
ARC
  5
160C8
  8
AM_0
 10
563.88308298142567
 20
609.94077155327466
 30
0.0
 40
2.9999999999999978
 50
90.0
 51
144.31466528734541
1001
GENIUS_GENOBJ-N-FIL_13
1002
{
1000
OWNER
1000
GEN
1002
}
1001
GENIUS_GENODEF_13
1002
{
1000
HIER
1070
     0
1002
}
1002
{
1000
MANEDIT
1070
     0
1002
}
1002
{
1000
NOSEL
1070
     0
1002
}
1002
{
1000
BEHIND
1070
     0
1002
}
1002
{
1000
OTHER
1070
     0
1002
}
1002
{
1000
REACTOR
1002
}
  0
ARC
  5
160C9
  8
AM_0
 10
559.00968580902133
 20
613.44077155327477
 30
0.0
 40
2.9999999999999978
 50
270.0
 51
324.31466528734541
1001
GENIUS_GENOBJ-N-FIL_13
1002
{
1000
OWNER
1000
GEN
1002
}
1001
GENIUS_GENODEF_13
1002
{
1000
HIER
1070
     0
1002
}
1002
{
1000
MANEDIT
1070
     0
1002
}
1002
{
1000
NOSEL
1070
     0
1002
}
1002
{
1000
BEHIND
1070
     0
1002
}
1002
{
1000
OTHER
1070
     0
1002
}
1002
{
1000
REACTOR
1002
}
  0
ARC
  5
160CA
  8
AM_0
 10
554.11089877945994
 20
608.44077155327489
 30
0.0
 40
2.0
 50
90.0
 51
175.00000000000031
1001
GENIUS_GENOBJ-N-FIL_13
1002
{
1000
OWNER
1000
GEN
1002
}
1001
GENIUS_GENODEF_13
1002
{
1000
HIER
1070
     0
1002
}
1002
{
1000
MANEDIT
1070
     0
1002
}
1002
{
1000
NOSEL
1070
     0
1002
}
1002
{
1000
BEHIND
1070
     0
1002
}
1002
{
1000
OTHER
1070
     0
1002
}
1002
{
1000
REACTOR
1002
}
  0
ARC
  5
160CB
  8
AM_0
 10
536.14847920123873
 20
597.94078564298343
 30
0.0
 40
2.0
 50
181.00001177355611
 51
270.0
1001
GENIUS_GENOBJ-N-FIL_13
1002
{
1000
OWNER
1000
GEN
1002
}
1001
GENIUS_GENODEF_13
1002
{
1000
HIER
1070
     0
1002
}
1002
{
1000
MANEDIT
1070
     0
1002
}
1002
{
1000
NOSEL
1070
     0
1002
}
1002
{
1000
BEHIND
1070
     0
1002
}
1002
{
1000
OTHER
1070
     0
1002
}
1002
{
1000
REACTOR
1002
}
  0
LINE
  5
160CC
  8
AM_0
 10
464.00965316057602
 20
601.94077813279773
 30
0.0
 11
464.00965316057602
 21
597.94077801358844
 31
0.0
  0
LINE
  5
160CD
  8
ﾁｭｳｼﾝｾﾝ1
 10
426.50965204298899
 20
432.59499688362013
 30
0.0
 11
426.50965204298859
 21
609.5893325549996
 31
0.0
  0
LINE
  5
160CE
  8
AM_0
 10
363.50965016544279
 20
519.9407756890073
 30
0.0
 11
364.87113091890882
 21
597.94078564298343
 31
0.0
  0
LINE
  5
160CF
  8
AM_0
 10
389.00965092540201
 20
601.94077813279773
 30
0.0
 11
389.00965092540201
 21
597.94077801358844
 31
0.0
  0
LINE
  5
16225
  8
AM_0
 10
365.00965057407069
 20
599.94078556498312
 30
0.0
 11
386.0096505740708
 21
599.94078556498312
 31
0.0
  0
LINE
  5
16226
  8
AM_0
 10
383.5096505740708
 20
609.94078556498323
 30
0.0
 11
367.50965057407092
 21
609.94078556498323
 31
0.0
  0
LINE
  5
16227
  8
AM_0
 10
365.00965057407069
 20
599.94078556498312
 30
0.0
 11
365.00965057407069
 21
597.94078556498323
 31
0.0
  0
LINE
  5
16228
  8
AM_0
 10
367.50965057407092
 20
609.94078556498323
 30
0.0
 11
367.50965057407092
 21
599.94078556498312
 31
0.0
  0
LINE
  5
16229
  8
AM_0
 10
386.0096505740708
 20
599.94078556498312
 30
0.0
 11
386.0096505740708
 21
597.94078556498323
 31
0.0
  0
LINE
  5
1622A
  8
AM_0
 10
383.5096505740708
 20
599.94078556498312
 30
0.0
 11
383.5096505740708
 21
609.94078556498323
 31
0.0
  0
LINE
  5
1622B
  8
AM_0
 10
513.00968535439347
 20
599.94078556498312
 30
0.0
 11
534.00968535439347
 21
599.94078556498312
 31
0.0
  0
LINE
  5
1622C
  8
AM_0
 10
531.50968535439335
 20
609.94078556498323
 30
0.0
 11
515.50968535439335
 21
609.94078556498323
 31
0.0
  0
LINE
  5
1622D
  8
AM_0
 10
513.00968535439347
 20
599.94078556498312
 30
0.0
 11
513.00968535439347
 21
597.94078556498323
 31
0.0
  0
LINE
  5
1622E
  8
AM_0
 10
515.50968535439335
 20
609.94078556498323
 30
0.0
 11
515.50968535439335
 21
599.94078556498312
 31
0.0
  0
LINE
  5
1622F
  8
AM_0
 10
534.00968535439347
 20
599.94078556498312
 30
0.0
 11
534.00968535439347
 21
597.94078556498323
 31
0.0
  0
LINE
  5
16230
  8
AM_0
 10
531.50968535439335
 20
599.94078556498312
 30
0.0
 11
531.50968535439335
 21
609.94078556498323
 31
0.0
  0
LINE
  5
16231
  8
AM_0
 10
535.50968570002124
 20
519.9407756890073
 30
0.0
 11
537.50963598314115
 21
478.9407756890073
 31
0.0
  0
LINE
  5
16232
  8
AM_0
 10
361.50956776876188
 20
478.94077568900758
 30
0.0
 11
537.50963598314115
 21
478.9407756890073
 31
0.0
  0
LINE
  5
16233
  8
AM_0
 10
363.50965016544279
 20
519.9407756890073
 30
0.0
 11
361.50956776876188
 21
478.94077568900758
 31
0.0
  0
LINE
  5
16234
  8
AM_0
 10
536.729167579972
 20
494.94077568900758
 30
0.0
 11
362.2900877284423
 21
494.94077568900758
 31
0.0
  0
LINE
  5
16235
  8
AM_0
 10
384.39216775273547
 20
478.94077568900758
 30
0.0
 11
384.39216775273559
 21
494.94077568900758
 31
0.0
  0
LINE
  5
16236
  8
ﾁｭｳｼﾝｾﾝ1
 10
391.50968746192331
 20
473.94077568900758
 30
0.0
 11
391.50968746192342
 21
499.94077568900758
 31
0.0
  0
LINE
  5
16237
  8
ﾁｭｳｼﾝｾﾝ1
 10
507.50965557343602
 20
473.94077568900758
 30
0.0
 11
507.50965557343602
 21
499.94077568900758
 31
0.0
  0
LINE
  5
16238
  8
AM_0
 10
514.62706856996715
 20
478.9407756890073
 30
0.0
 11
514.62706856996715
 21
494.94077568900758
 31
0.0
  0
LINE
  5
1623D
  8
0
 10
440.5096520429891
 20
438.93377046428981
 30
0.0
 11
440.5096520429891
 21
478.94077568900741
 31
0.0
  0
LINE
  5
1623E
  8
0
 10
412.50965204298899
 20
438.93377046428981
 30
0.0
 11
412.50965204298882
 21
478.94077568900741
 31
0.0
  0
LINE
  5
1623F
  8
AM_0
 10
412.50965204298899
 20
438.93377046428981
 30
0.0
 11
440.5096520429891
 21
438.93377046428969
 31
0.0
  0
LINE
  5
16242
  8
AM_0
 10
430.50965204298899
 20
438.93377046428969
 30
0.0
 11
430.50965204298899
 21
470.93377046428981
 31
0.0
  0
LINE
  5
16243
  8
AM_0
 10
422.50965204298899
 20
438.93377046428969
 30
0.0
 11
422.50965204298899
 21
470.93377046428981
 31
0.0
  0
LINE
  5
16244
  8
AM_0
 10
430.50965204298899
 20
470.93377046428981
 30
0.0
 11
422.50965204298899
 21
470.93377046428981
 31
0.0
  0
ARC
  5
16245
  8
AM_0
 10
426.50965204298899
 20
470.93377046428981
 30
0.0
 40
4.0
 50
0.0
 51
180.0
  0
LINE
  5
16247
  8
ｶｸﾚｾﾝ2
 10
391.00965092540179
 20
495.93376039108517
 30
0.0
 11
462.00965316057579
 21
495.93376039108517
 31
0.0
  0
LINE
  5
16248
  8
ｶｸﾚｾﾝ2
 10
444.00965204298882
 20
480.94077568900769
 30
0.0
 11
409.00965204298882
 21
480.94077568900769
 31
0.0
  0
LINE
  5
16249
  8
ｶｸﾚｾﾝ2
 10
449.00965271354119
 20
491.93376027187583
 30
0.0
 11
404.00965137243679
 21
491.93376027187583
 31
0.0
  0
LINE
  5
1624A
  8
ｶｸﾚｾﾝ2
 10
404.00965137243679
 20
491.93376027187583
 30
0.0
 11
404.00965137243679
 21
495.93376039108517
 31
0.0
  0
LINE
  5
1624B
  8
ｶｸﾚｾﾝ2
 10
404.00965137243679
 20
491.93376027187583
 30
0.0
 11
404.00965137243679
 21
495.93376039108517
 31
0.0
  0
LINE
  5
1624C
  8
ｶｸﾚｾﾝ2
 10
409.00965204298882
 20
480.94077568900769
 30
0.0
 11
404.00965137243679
 21
491.93376027187583
 31
0.0
  0
LINE
  5
1624D
  8
ｶｸﾚｾﾝ2
 10
449.00965271354119
 20
491.93376027187583
 30
0.0
 11
449.00965271354119
 21
495.93376039108517
 31
0.0
  0
LINE
  5
1624E
  8
ｶｸﾚｾﾝ2
 10
449.00965271354119
 20
491.93376027187583
 30
0.0
 11
449.00965271354119
 21
495.93376039108517
 31
0.0
  0
LINE
  5
1624F
  8
ｶｸﾚｾﾝ2
 10
449.00965271354119
 20
491.93376027187583
 30
0.0
 11
444.00965204298882
 21
480.94077568900769
 31
0.0
  0
LINE
  5
16250
  8
ｶｸﾚｾﾝ2
 10
440.50965204298882
 20
478.94077568900769
 30
0.0
 11
440.50965204298882
 21
480.94077568900769
 31
0.0
  0
LINE
  5
16251
  8
ｶｸﾚｾﾝ2
 10
412.50965204298882
 20
478.94077568900769
 30
0.0
 11
412.50965204298882
 21
480.94077568900769
 31
0.0
  0
LINE
  5
164BD
  8
ﾁｭｳｼﾝｾﾝ1
 10
225.42144439084311
 20
168.93626973570571
 30
0.0
 11
199.42144439084311
 21
168.93626973570571
 31
0.0
1001
GENIUS_GENODEF_13
1002
{
1000
HIER
1070
     0
1002
}
1002
{
1000
MANEDIT
1070
     0
1002
}
1002
{
1000
NOSEL
1070
     0
1002
}
1002
{
1000
BEHIND
1070
     0
1002
}
1002
{
1000
OTHER
1070
     0
1002
}
1002
{
1000
REACTOR
1002
}
1001
GENIUS_GENOBJ-N-CEN_13
1002
{
1000
OWNER
1000
GEN
1002
}
  0
LINE
  5
164BE
  8
ﾁｭｳｼﾝｾﾝ1
 10
225.42144439084311
 20
330.93626557091972
 30
0.0
 11
199.42144439084311
 21
330.93626617097351
 31
0.0
1001
GENIUS_GENODEF_13
1002
{
1000
HIER
1070
     0
1002
}
1002
{
1000
MANEDIT
1070
     0
1002
}
1002
{
1000
NOSEL
1070
     0
1002
}
1002
{
1000
BEHIND
1070
     0
1002
}
1002
{
1000
OTHER
1070
     0
1002
}
1002
{
1000
REACTOR
1002
}
1001
GENIUS_GENOBJ-N-CEN_13
1002
{
1000
OWNER
1000
GEN
1002
}
  0
LINE
  5
16FD4
  8
AM_0
 10
705.00971580902103
 20
612.83073405327423
 30
0.0
 11
652.00971580902115
 21
612.83073405327434
 31
0.0
  0
LINE
  5
16FD5
  8
AM_0
 10
705.00971580902103
 20
614.18074405327422
 30
0.0
 11
652.00971580902115
 21
614.18074405327422
 31
0.0
  0
LINE
  5
16FD6
  8
AM_0
 10
705.00971580902103
 20
614.86073405327409
 30
0.0
 11
652.00971580902115
 21
614.86073405327443
 31
0.0
  0
LINE
  5
16FD7
  8
AM_0
 10
705.00971580902103
 20
485.0507430532744
 30
0.0
 11
652.00971580902115
 21
485.0507430532744
 31
0.0
  0
LINE
  5
16FD8
  8
AM_0
 10
705.00971580902103
 20
483.7007290532743
 30
0.0
 11
652.00971580902115
 21
483.7007290532743
 31
0.0
  0
LINE
  5
16FD9
  8
AM_0
 10
705.00971580902103
 20
483.03074705327418
 30
0.0
 11
652.00971580902115
 21
483.03074705327418
 31
0.0
  0
LINE
  5
16FDA
  8
AM_0
 10
683.00971580902103
 20
502.59073405327439
 30
0.0
 11
581.00971580902115
 21
502.59073405327439
 31
0.0
  0
LINE
  5
16FDB
  8
AM_0
 10
683.00971580902103
 20
595.29074405327424
 30
0.0
 11
581.00971580902115
 21
595.29074405327458
 31
0.0
  0
LINE
  5
16FDC
  8
AM_0
 10
587.65968580902086
 20
512.94075405327442
 30
0.0
 11
722.45966580902086
 21
512.9407540532743
 31
0.0
  0
LINE
  5
16FDD
  8
AM_0
 10
714.32972580902106
 20
585.66073405327415
 30
0.0
 11
584.18971580902121
 21
585.66073405327415
 31
0.0
  0
LINE
  5
16FDE
  8
AM_0
 10
587.65968580902086
 20
584.94075405327419
 30
0.0
 11
713.45966580902098
 21
584.94075405327419
 31
0.0
  0
LINE
  5
16FDF
  8
AM_0
 10
705.00971580902103
 20
610.80073405327425
 30
0.0
 11
588.19972580902106
 21
610.80073405327425
 31
0.0
  0
LINE
  5
16FE0
  8
AM_0
 10
705.00971580902103
 20
487.08074205327421
 30
0.0
 11
588.19972580902106
 21
487.08074205327432
 31
0.0
  0
LINE
  5
16FE1
  8
AM_0
 10
728.00971580902103
 20
606.37074405327439
 30
0.0
 11
728.00971580902103
 21
548.94075405327419
 31
0.0
  0
ARC
  5
16FE2
  8
AM_0
 10
708.51008580902101
 20
494.4603730532744
 30
0.0
 40
1.5003600999999991
 50
90.013814999999994
 51
179.9861839999985
  0
LINE
  5
16FE3
  8
AM_0
 10
723.78968580902085
 20
492.26073505327417
 30
0.0
 11
724.74970580902095
 21
496.72074905327418
 31
0.0
  0
LINE
  5
16FE4
  8
AM_0
 10
728.00971580902103
 20
491.51075005327442
 30
0.0
 11
728.00971580902103
 21
548.94075405327419
 31
0.0
  0
ARC
  5
16FE5
  8
AM_0
 10
705.00861580902085
 20
485.02716805327429
 30
0.0
 40
1.996427999999999
 50
270.0323900000019
 51
345.30536999999958
  0
ARC
  5
16FE6
  8
AM_0
 10
705.00990580902101
 20
485.70056205327438
 30
0.0
 40
1.999824
 50
269.99493999999879
 51
0.005060000001242
  0
ARC
  5
16FE7
  8
AM_0
 10
705.00721580902075
 20
487.05325305327409
 30
0.0
 40
2.0025157999999981
 50
270.0718999999998
 51
359.92810000000009
  0
ARC
  5
16FE8
  8
AM_0
 10
705.00807580902085
 20
489.08238205327427
 30
0.0
 40
2.001640099999999
 50
270.04695999999808
 51
359.95303999999533
  0
LINE
  5
16FE9
  8
AM_0
 10
721.8697058090213
 20
487.27073705327427
 30
0.0
 11
708.50971580902103
 21
487.27073705327427
 31
0.0
  0
LINE
  5
16FEA
  8
AM_0
 10
721.89973580902085
 20
485.64073205327429
 30
0.0
 11
708.39973580902097
 21
485.64073205327429
 31
0.0
  0
LINE
  5
16FEB
  8
AM_0
 10
721.83967580902095
 20
490.68073305327431
 30
0.0
 11
708.50971580902103
 21
490.68073305327431
 31
0.0
  0
LINE
  5
16FEC
  8
AM_0
 10
723.83967580902095
 20
487.15074905327441
 30
0.0
 11
724.71967580902106
 21
490.69075005327431
 31
0.0
  0
ARC
  5
16FED
  8
AM_0
 10
721.87177580902107
 20
489.27267505327438
 30
0.0
 40
2.001947899999998
 50
269.94051999999903
 51
346.6588600000016
  0
ARC
  5
16FEE
  8
AM_0
 10
721.8972958090211
 20
487.6450500532743
 30
0.0
 40
2.0043239999999991
 50
270.0689100000011
 51
345.72195000000022
  0
LINE
  5
16FEF
  8
AM_0
 10
726.19972580902095
 20
493.84074405327431
 30
0.0
 11
724.13972580902112
 21
493.84074405327431
 31
0.0
  0
LINE
  5
16FF0
  8
AM_0
 10
726.17970580902113
 20
491.82074705327437
 30
0.0
 11
724.52967580902111
 21
491.82074705327437
 31
0.0
  0
LINE
  5
16FF1
  8
AM_0
 10
728.00971580902103
 20
491.51073505327429
 30
0.0
 11
725.18971580902087
 21
491.4407350532743
 31
0.0
  0
ARC
  5
16FF2
  8
AM_0
 10
726.17475580902112
 20
490.31896205327428
 30
0.0
 40
1.501779999999999
 50
89.810617000000875
 51
165.6671640000005
  0
ARC
  5
16FF3
  8
AM_0
 10
726.1953858090211
 20
492.34440605327438
 30
0.0
 40
1.4963319999999991
 50
89.835409999999186
 51
166.6175619999986
  0
LINE
  5
16FF4
  8
AM_0
 10
723.81971580902075
 20
488.81073005327443
 30
0.0
 11
724.73975580902106
 21
492.69072705327432
 31
0.0
  0
ARC
  5
16FF5
  8
AM_0
 10
721.83778580902094
 20
492.67644505327428
 30
0.0
 40
1.995695899999999
 50
270.05521999999718
 51
347.9774699999997
  0
ARC
  5
16FF6
  8
AM_0
 10
708.50831580902116
 20
485.77217905327427
 30
0.0
 40
1.498559999999999
 50
89.944884999996873
 51
180.05511999999939
  0
LINE
  5
16FF7
  8
AM_0
 10
707.00971580902103
 20
487.05073605327442
 30
0.0
 11
707.00971580902103
 21
494.46073905327438
 31
0.0
  0
ARC
  5
16FF8
  8
AM_0
 10
708.39100580902118
 20
484.1404570532743
 30
0.0
 40
1.5003120000000001
 50
89.668336999999084
 51
165.31696600000029
  0
ARC
  5
16FF9
  8
AM_0
 10
708.51124580902103
 20
489.1792220532742
 30
0.0
 40
1.5015080999999979
 50
90.057548999996854
 51
179.94245300200021
  0
ARC
  5
16FFA
  8
AM_0
 10
723.54969580902105
 20
523.92073405327415
 30
0.0
 40
1.4599999999999991
 50
270.0
 51
89.999997000002296
  0
LINE
  5
16FFB
  8
AM_0
 10
587.65968580902086
 20
514.94074405327433
 30
0.0
 11
722.45966580902086
 21
514.94074405327433
 31
0.0
  0
LINE
  5
16FFC
  8
AM_0
 10
585.06474580902113
 20
522.94073995327426
 30
0.0
 11
722.45966580902086
 21
522.94073405327435
 31
0.0
  0
LINE
  5
16FFD
  8
AM_0
 10
585.06474575666095
 20
524.9407481532744
 30
0.0
 11
722.45966580902086
 21
524.94075405327408
 31
0.0
  0
LINE
  5
16FFE
  8
AM_0
 10
723.54969580902105
 20
522.46074405327431
 30
0.0
 11
583.97471580902118
 21
522.46073405327434
 31
0.0
  0
LINE
  5
16FFF
  8
AM_0
 10
683.00965580902107
 20
502.59074405327419
 30
0.0
 11
718.00965580902118
 21
504.62074405327422
 31
0.0
  0
LINE
  5
17000
  8
AM_0
 10
718.00971580902103
 20
500.59074405327442
 30
0.0
 11
718.00971580902103
 21
512.28074444114293
 31
0.0
  0
ARC
  5
17001
  8
AM_0
 10
718.83949580902095
 20
507.34786405327429
 30
0.0
 40
5.0021839000000003
 50
99.548574999998365
 51
174.5754740000024
  0
LINE
  5
17002
  8
AM_0
 10
728.00971580902103
 20
506.25074405327427
 30
0.0
 11
718.00971580902103
 21
506.25074405327427
 31
0.0
  0
LINE
  5
17003
  8
AM_0
 10
728.00971580902103
 20
500.59074405327442
 30
0.0
 11
718.00971580902103
 21
500.59074405327442
 31
0.0
  0
LINE
  5
17004
  8
AM_0
 10
721.77973580902108
 20
495.96073905327438
 30
0.0
 11
708.50971580902103
 21
495.96073905327438
 31
0.0
  0
LINE
  5
17005
  8
AM_0
 10
726.21974580902076
 20
497.9107440532743
 30
0.0
 11
723.79969580902105
 21
497.9107440532743
 31
0.0
  0
ARC
  5
17006
  8
AM_0
 10
726.21955580902102
 20
496.4079510532743
 30
0.0
 40
1.5027881000000001
 50
89.995332000003145
 51
167.9866579999975
  0
LINE
  5
17007
  8
AM_0
 10
724.28968580902119
 20
500.59074405327442
 30
0.0
 11
723.74964580902099
 21
497.60072305327441
 31
0.0
  0
ARC
  5
17008
  8
AM_0
 10
721.78272580902114
 20
497.96036505327442
 30
0.0
 40
1.9996280999999989
 50
269.91467
 51
349.63923999999753
  0
ARC
  5
17009
  8
AM_0
 10
718.3794658090211
 20
511.28724405327432
 30
0.0
 40
6.007896399999999
 50
225.38273000000689
 51
266.47155000000168
  0
ARC
  5
1700A
  8
AM_0
 10
714.86317580902107
 20
507.73183405327438
 30
0.0
 40
1.007376
 50
174.93659510000271
 51
225.70967999999641
  0
LINE
  5
1700B
  8
AM_0
 10
728.00971580902103
 20
514.64074405327415
 30
0.0
 11
724.83967580902095
 21
514.64074405327415
 31
0.0
  0
ARC
  5
1700C
  8
AM_0
 10
722.45966317909915
 20
513.94073700327442
 30
0.0
 40
1.000007050003423
 50
270.00015068234609
 51
89.99984931765384
  0
ARC
  5
1700D
  8
AM_0
 10
723.32972580902106
 20
513.89573405327417
 30
0.0
 40
1.6750081000000001
 50
270.0
 51
89.999997000002296
  0
ARC
  5
1700E
  8
AM_0
 10
722.45966580902086
 20
523.94074405327433
 30
0.0
 40
1.0000040999999991
 50
270.0
 51
89.999997000002296
  0
ARC
  5
1700F
  8
AM_0
 10
706.00971580902103
 20
513.94073405327435
 30
0.0
 40
1.0000040999999991
 50
270.0
 51
89.999997000002296
  0
ARC
  5
17010
  8
AM_0
 10
706.00971580902103
 20
523.94074405327433
 30
0.0
 40
1.0000040999999991
 50
270.0
 51
89.999997000002296
  0
LINE
  5
17011
  8
AM_0
 10
585.07474016214258
 20
544.94073208394514
 30
0.0
 11
722.44972580902095
 21
544.94075405327419
 31
0.0
  0
LINE
  5
17012
  8
AM_0
 10
723.7396958090211
 20
545.21074405327431
 30
0.0
 11
583.78471574252387
 21
545.21073805327433
 31
0.0
  0
LINE
  5
17013
  8
AM_0
 10
723.7396958090211
 20
552.68074405327434
 30
0.0
 11
583.78471580902124
 21
552.68072005327429
 31
0.0
  0
LINE
  5
17014
  8
AM_0
 10
723.7396958090211
 20
555.21074405327431
 30
0.0
 11
583.78471574278569
 21
555.21072805327435
 31
0.0
  0
LINE
  5
17015
  8
AM_0
 10
585.07474026686214
 20
552.94073602351614
 30
0.0
 11
722.44972580902095
 21
552.94073405327435
 31
0.0
  0
LINE
  5
17016
  8
AM_0
 10
585.07474016214258
 20
554.94073208394514
 30
0.0
 11
722.44972580902095
 21
554.9407540532743
 31
0.0
  0
LINE
  5
17017
  8
AM_0
 10
723.7396958090211
 20
542.67074405327435
 30
0.0
 11
583.78471580902124
 21
542.67073005327427
 31
0.0
  0
LINE
  5
17018
  8
AM_0
 10
723.54969580902105
 20
525.38075405327436
 30
0.0
 11
583.97471573257565
 21
525.38073405327441
 31
0.0
  0
LINE
  5
17019
  8
AM_0
 10
723.67970580902113
 20
532.60073405327421
 30
0.0
 11
583.84470580902121
 21
532.60075405327416
 31
0.0
  0
LINE
  5
1701A
  8
AM_0
 10
585.07474026686214
 20
532.9407560235162
 30
0.0
 11
722.44972580902095
 21
532.94075405327408
 31
0.0
  0
LINE
  5
1701B
  8
AM_0
 10
723.67970580902113
 20
535.26074405327415
 30
0.0
 11
583.84470573938256
 21
535.26075405327435
 31
0.0
  0
LINE
  5
1701C
  8
AM_0
 10
585.07474026686214
 20
542.94073602351614
 30
0.0
 11
722.44972580902095
 21
542.9407540532743
 31
0.0
  0
LINE
  5
1701D
  8
AM_0
 10
585.07474016214258
 20
534.94075208394509
 30
0.0
 11
722.44972580902095
 21
534.94073405327435
 31
0.0
  0
ARC
  5
1701E
  8
AM_0
 10
722.45838580902102
 20
533.9407540532743
 30
0.0
 40
1.000035999999999
 50
269.50070999999838
 51
90.499283999999861
  0
ARC
  5
1701F
  8
AM_0
 10
723.67970580902113
 20
533.93075405327409
 30
0.0
 40
1.3300000000000001
 50
270.0
 51
89.999997000002296
  0
ARC
  5
17020
  8
AM_0
 10
706.00971580902103
 20
533.9407540532743
 30
0.0
 40
1.0000040999999991
 50
270.0
 51
89.999997000002296
  0
ARC
  5
17021
  8
AM_0
 10
723.7396958090211
 20
543.94073405327435
 30
0.0
 40
1.270003999999999
 50
270.0
 51
89.999997000002296
  0
ARC
  5
17022
  8
AM_0
 10
722.45838580902102
 20
543.94073405327435
 30
0.0
 40
1.000035999999999
 50
269.50070999999838
 51
90.499283999999861
  0
ARC
  5
17023
  8
AM_0
 10
722.45838580902102
 20
553.94073405327435
 30
0.0
 40
1.000035999999999
 50
269.50070999999838
 51
90.499283999999861
  0
ARC
  5
17024
  8
AM_0
 10
723.7396958090211
 20
553.94572405327415
 30
0.0
 40
1.265004
 50
270.0
 51
89.999997000002296
  0
ARC
  5
17025
  8
AM_0
 10
706.00971580902103
 20
543.94073405327435
 30
0.0
 40
1.0000040999999991
 50
270.0
 51
89.999997000002296
  0
ARC
  5
17026
  8
AM_0
 10
706.00971580902103
 20
553.94073405327435
 30
0.0
 40
1.0000040999999991
 50
270.0
 51
89.999997000002296
  0
ARC
  5
17027
  8
AM_0
 10
718.84480580902107
 20
590.53851405327407
 30
0.0
 40
5.0078917000000001
 50
185.4746799999993
 51
260.40127999999891
  0
LINE
  5
17028
  8
AM_0
 10
718.00971580902103
 20
597.29072405327406
 30
0.0
 11
718.00971580902103
 21
583.25073405327419
 31
0.0
  0
LINE
  5
17029
  8
AM_0
 10
723.67970580902113
 20
562.62074405327405
 30
0.0
 11
583.84470580902121
 21
562.62074405327439
 31
0.0
  0
LINE
  5
1702A
  8
AM_0
 10
723.67970580902113
 20
565.28073405327416
 30
0.0
 11
583.84470573938256
 21
565.28074405327425
 31
0.0
  0
LINE
  5
1702B
  8
AM_0
 10
714.54969580902105
 20
572.50074405327416
 30
0.0
 11
583.97970580902108
 21
572.50074405327416
 31
0.0
  0
LINE
  5
1702C
  8
AM_0
 10
714.54969580902105
 20
575.43072405327416
 30
0.0
 11
583.97970573231385
 21
575.43074405327422
 31
0.0
  0
LINE
  5
1702D
  8
AM_0
 10
585.07474026686214
 20
562.94075602351597
 30
0.0
 11
722.44972580902095
 21
562.94073405327435
 31
0.0
  0
LINE
  5
1702E
  8
AM_0
 10
585.07474016214258
 20
564.9407520839452
 30
0.0
 11
722.44972580902095
 21
564.94073405327424
 31
0.0
  0
LINE
  5
1702F
  8
AM_0
 10
585.06973580902115
 20
572.94072995327417
 30
0.0
 11
713.45966580902098
 21
572.94075405327419
 31
0.0
  0
LINE
  5
17030
  8
AM_0
 10
585.0697357566612
 20
574.94073815327442
 30
0.0
 11
713.45966580902098
 21
574.94073405327424
 31
0.0
  0
LINE
  5
17031
  8
AM_0
 10
587.65970480914348
 20
582.94073569900627
 30
0.0
 11
713.45966580902098
 21
582.94073405327435
 31
0.0
  0
ARC
  5
17032
  8
AM_0
 10
723.67970580902113
 20
563.95074405327409
 30
0.0
 40
1.3300000000000001
 50
270.0
 51
89.999997000002296
  0
ARC
  5
17033
  8
AM_0
 10
722.45838580902102
 20
563.94075405327419
 30
0.0
 40
1.000035999999999
 50
269.50070999999838
 51
90.499283999999861
  0
ARC
  5
17034
  8
AM_0
 10
706.00971580902103
 20
563.94075405327419
 30
0.0
 40
1.0000040999999991
 50
270.0
 51
89.999997000002296
  0
LINE
  5
17035
  8
AM_0
 10
728.00971580902103
 20
583.25073405327419
 30
0.0
 11
718.00971580902103
 21
583.25073405327419
 31
0.0
  0
ARC
  5
17036
  8
AM_0
 10
713.45966580902098
 20
573.94073405327424
 30
0.0
 40
1.0000040999999991
 50
270.0
 51
89.999997000002296
  0
ARC
  5
17037
  8
AM_0
 10
714.54969580902105
 20
573.96574405327419
 30
0.0
 40
1.4650000000000001
 50
270.0
 51
89.999997000002296
  0
ARC
  5
17038
  8
AM_0
 10
706.00971580902103
 20
573.94073405327424
 30
0.0
 40
1.0000040999999991
 50
270.0
 51
89.999997000002296
  0
ARC
  5
17039
  8
AM_0
 10
713.45966580902098
 20
583.94073405327424
 30
0.0
 40
1.0000040999999991
 50
270.0
 51
89.999997000002296
  0
ARC
  5
1703A
  8
AM_0
 10
714.32972580902106
 20
583.98573405327409
 30
0.0
 40
1.6750081000000001
 50
270.0
 51
89.999997000002296
  0
ARC
  5
1703B
  8
AM_0
 10
706.00971580902103
 20
583.94073405327424
 30
0.0
 40
1.0000040999999991
 50
270.0
 51
89.999997000002296
  0
LINE
  5
1703C
  8
AM_0
 10
683.00971580902103
 20
595.29072405327406
 30
0.0
 11
718.00971580902103
 21
593.2607240532742
 31
0.0
  0
ARC
  5
1703D
  8
AM_0
 10
705.00721580902075
 20
612.86589405327425
 30
0.0
 40
1.994844099999999
 50
14.36279999999965
 51
89.928342000002118
  0
ARC
  5
1703E
  8
AM_0
 10
705.01515580902105
 20
612.18617405327416
 30
0.0
 40
1.9945760999999991
 50
359.84400999999718
 51
90.155991999999998
  0
ARC
  5
1703F
  8
AM_0
 10
705.01246580902114
 20
610.83352405327423
 30
0.0
 40
1.9972080000000001
 50
359.91986000000099
 51
90.080142999999538
  0
ARC
  5
17040
  8
AM_0
 10
705.01331580902104
 20
608.8043540532741
 30
0.0
 40
1.996383999999999
 50
359.89615999999739
 51
90.103836999999984
  0
ARC
  5
17041
  8
AM_0
 10
708.51539580902079
 20
603.42640405327415
 30
0.0
 40
1.505676
 50
180.21552999999901
 51
269.78448000000111
  0
ARC
  5
17042
  8
AM_0
 10
721.78785580902115
 20
599.92730405327427
 30
0.0
 40
1.993431999999999
 50
10.211969999999811
 51
90.234116000000768
  0
LINE
  5
17043
  8
AM_0
 10
723.78968580902085
 20
605.63073405327407
 30
0.0
 11
724.74970580902095
 21
601.16073405327427
 31
0.0
  0
LINE
  5
17044
  8
AM_0
 10
728.00971580902103
 20
597.29072405327406
 30
0.0
 11
718.00971580902103
 21
597.29072405327406
 31
0.0
  0
LINE
  5
17045
  8
AM_0
 10
728.00971580902103
 20
591.63073405327418
 30
0.0
 11
718.00971580902103
 21
591.63073405327418
 31
0.0
  0
LINE
  5
17046
  8
AM_0
 10
726.21974580902076
 20
599.98072405327423
 30
0.0
 11
723.79969580902105
 21
599.98072405327423
 31
0.0
  0
ARC
  5
17047
  8
AM_0
 10
726.21851580902114
 20
601.48487405327421
 30
0.0
 40
1.50414
 50
192.44475000000341
 51
270.04575000000148
  0
LINE
  5
17048
  8
AM_0
 10
724.28968580902119
 20
597.29074405327424
 30
0.0
 11
723.74964580902099
 21
600.28074405327425
 31
0.0
  0
ARC
  5
17049
  8
AM_0
 10
714.85981580902114
 20
590.15089405327421
 30
0.0
 40
1.004135999999999
 50
134.20256399999931
 51
185.1511600000043
  0
ARC
  5
1704A
  8
AM_0
 10
718.38850580902101
 20
586.60879405327421
 30
0.0
 40
6.0039081999999979
 50
93.617285999997804
 51
134.77630699999949
  0
LINE
  5
1704B
  8
AM_0
 10
721.89973580902085
 20
612.2407340532742
 30
0.0
 11
708.39973580902097
 21
612.2407340532742
 31
0.0
  0
LINE
  5
1704C
  8
AM_0
 10
721.8697058090213
 20
610.6107340532742
 30
0.0
 11
708.50971580902103
 21
610.6107340532742
 31
0.0
  0
LINE
  5
1704D
  8
AM_0
 10
721.83967580902095
 20
607.21074405327408
 30
0.0
 11
708.50971580902103
 21
607.21074405327408
 31
0.0
  0
LINE
  5
1704E
  8
AM_0
 10
721.77973580902108
 20
601.92073405327426
 30
0.0
 11
708.50971580902103
 21
601.92073405327426
 31
0.0
  0
LINE
  5
1704F
  8
AM_0
 10
723.83973580902114
 20
610.73075405327415
 30
0.0
 11
724.71974580902099
 21
607.20076405327416
 31
0.0
  0
ARC
  5
17050
  8
AM_0
 10
721.87690580902085
 20
608.61528405327419
 30
0.0
 40
1.9954841000000001
 50
13.194079999998561
 51
90.206542000000866
  0
LINE
  5
17051
  8
AM_0
 10
726.17970580902113
 20
606.06074405327411
 30
0.0
 11
724.52967580902111
 21
606.06074405327411
 31
0.0
  0
LINE
  5
17052
  8
AM_0
 10
728.00977580902111
 20
606.37074405327439
 30
0.0
 11
725.18971580902087
 21
606.44073405327424
 31
0.0
  0
ARC
  5
17053
  8
AM_0
 10
726.18141580902113
 20
607.56784405327414
 30
0.0
 40
1.5070961
 50
194.09782000000331
 51
269.9351799999983
  0
LINE
  5
17054
  8
AM_0
 10
726.19972580902095
 20
604.04072405327418
 30
0.0
 11
724.13972580902112
 21
604.04072405327418
 31
0.0
  0
ARC
  5
17055
  8
AM_0
 10
726.20051580902111
 20
605.5435440532741
 30
0.0
 40
1.5028081
 50
193.57782000000239
 51
269.96920999999838
  0
ARC
  5
17056
  8
AM_0
 10
721.83802580902113
 20
605.21534405327407
 30
0.0
 40
1.9953879999999991
 50
12.01538000000021
 51
89.951933000002214
  0
LINE
  5
17057
  8
AM_0
 10
723.81971580902075
 20
609.0707440532741
 30
0.0
 11
724.73975580902106
 21
605.19075405327419
 31
0.0
  0
ARC
  5
17058
  8
AM_0
 10
721.90241580902114
 20
610.24296405327436
 30
0.0
 40
1.9977800999999991
 50
14.13223000000311
 51
90.076919000002235
  0
LINE
  5
17059
  8
AM_0
 10
707.00971580902103
 20
610.83073405327423
 30
0.0
 11
707.00971580902103
 21
603.42073405327415
 31
0.0
  0
ARC
  5
1705A
  8
AM_0
 10
708.51148580902111
 20
608.71252405327425
 30
0.0
 40
1.5017959999999979
 50
180.06854999999891
 51
269.93145000000101
  0
ARC
  5
1705B
  8
AM_0
 10
708.396075809021
 20
613.74763405327417
 30
0.0
 40
1.506888
 50
194.87693000000499
 51
270.1377700000005
  0
ARC
  5
1705C
  8
AM_0
 10
708.51356580902097
 20
612.11457405327417
 30
0.0
 40
1.503848099999999
 50
180.14640000000301
 51
269.85359999999702
  0
LINE
  5
1705D
  8
AM_0
 10
581.00971580902115
 20
611.94074905327454
 30
0.0
 11
581.0097157928285
 21
485.94078007743968
 31
0.0
  0
LINE
  5
1705E
  8
ﾁｭｳｼﾝｾﾝ1
 10
632.00971580902115
 20
587.94075405327408
 30
0.0
 11
632.00971580902115
 21
509.94075405327442
 31
0.0
1001
GENIUS_GENODEF_13
1002
{
1000
HIER
1070
     0
1002
}
1002
{
1000
MANEDIT
1070
     0
1002
}
1002
{
1000
NOSEL
1070
     0
1002
}
1002
{
1000
BEHIND
1070
     0
1002
}
1002
{
1000
REACTOR
1002
}
1001
GENIUS_GENOBJ-N-CEN_13
1002
{
1000
OWNER
1000
GEN
1002
}
  0
LINE
  5
1705F
  8
AM_0
 10
584.19969580902125
 20
490.02072905327441
 30
0.0
 11
582.75968580902111
 21
496.72072605327429
 31
0.0
  0
LINE
  5
17060
  8
AM_0
 10
586.26969580902119
 20
488.56073005327431
 30
0.0
 11
582.80970580902112
 21
501.48073605327431
 31
0.0
  0
ARC
  5
17061
  8
AM_0
 10
652.01057580902125
 20
485.03160905327439
 30
0.0
 40
2.0008759
 50
180.0251100000024
 51
269.97488999999757
  0
ARC
  5
17062
  8
AM_0
 10
652.0120358090212
 20
485.70307905327439
 30
0.0
 40
2.002332
 50
180.06674000000129
 51
269.93325999999871
  0
ARC
  5
17063
  8
AM_0
 10
652.01472580902123
 20
487.05574805327439
 30
0.0
 40
2.0050240000000001
 50
180.1434100000013
 51
269.85658999999868
  0
LINE
  5
17064
  8
AM_0
 10
650.00971580902115
 20
485.03073905327409
 30
0.0
 11
650.00971580902115
 21
487.08074205327421
 31
0.0
  0
LINE
  5
17065
  8
AM_0
 10
586.29972580902086
 20
488.44073505327441
 30
0.0
 11
581.00971580902115
 21
488.44073505327441
 31
0.0
  0
ARC
  5
17066
  8
AM_0
 10
588.20429580902123
 20
489.08515205327433
 30
0.0
 40
2.0044159999999991
 50
195.1666599999993
 51
269.86852000000118
  0
ARC
  5
17067
  8
AM_0
 10
586.16038580902114
 20
490.44727305327427
 30
0.0
 40
2.0065319999999991
 50
192.27313000000419
 51
269.98073000000318
  0
LINE
  5
17068
  8
AM_0
 10
580.00971580902115
 20
484.94076905327449
 30
0.0
 11
573.00968580902122
 21
484.94076905327449
 31
0.0
  0
ARC
  5
17069
  8
AM_0
 10
580.00953580902114
 20
485.94096005327469
 30
0.0
 40
1.000179999999999
 50
270.01032000000009
 51
359.98968999999448
  0
LINE
  5
1706A
  8
AM_0
 10
723.32972580902106
 20
512.22073405327433
 30
0.0
 11
584.18971580902121
 21
512.22073405327433
 31
0.0
  0
LINE
  5
1706B
  8
AM_0
 10
581.29969580902105
 20
497.9107440532743
 30
0.0
 11
583.70969580902124
 21
497.9107440532743
 31
0.0
  0
ARC
  5
1706C
  8
AM_0
 10
581.36439580902095
 20
501.09474205327427
 30
0.0
 40
1.495995999999999
 50
14.952339999994789
 51
90.178293000000224
  0
LINE
  5
1706D
  8
AM_0
 10
580.00971580902115
 20
496.90073405327428
 30
0.0
 11
573.00968580902122
 21
496.90073405327428
 31
0.0
  0
ARC
  5
1706E
  8
AM_0
 10
580.0102358090212
 20
497.90021505327428
 30
0.0
 40
0.9994760199999999
 50
269.9700799999996
 51
0.0299099999979628
  0
ARC
  5
1706F
  8
AM_0
 10
581.30262580902127
 20
496.4114080532745
 30
0.0
 40
1.499328
 50
11.9061599999993
 51
90.111848999999921
  0
ARC
  5
17070
  8
AM_0
 10
584.18971580902121
 20
513.89573405327451
 30
0.0
 40
1.675
 50
89.999997000002296
 51
270.0
  0
LINE
  5
17071
  8
AM_0
 10
584.18971580902121
 20
515.57074405327444
 30
0.0
 11
723.32972580902106
 21
515.57074405327432
 31
0.0
  0
ARC
  5
17072
  8
AM_0
 10
587.66789580902116
 20
513.94073405327435
 30
0.0
 40
1.000031899999998
 50
90.469299999997844
 51
269.53070000000201
  0
LINE
  5
17073
  8
AM_0
 10
581.00971580902115
 20
511.79073405327432
 30
0.0
 11
573.00968580902122
 21
511.79073405327432
 31
0.0
  0
ARC
  5
17074
  8
AM_0
 10
652.0103258090212
 20
612.86012405327415
 30
0.0
 40
2.000623899999999
 50
90.017824000002136
 51
179.98217599900121
  0
ARC
  5
17075
  8
AM_0
 10
652.00678580902127
 20
612.18365405327427
 30
0.0
 40
1.9970881
 50
89.916374999999235
 51
180.08362000000139
  0
ARC
  5
17076
  8
AM_0
 10
652.00947580902118
 20
610.83100405327434
 30
0.0
 40
1.9997199999999991
 50
89.991937999999706
 51
180.00806000000401
  0
LINE
  5
17077
  8
AM_0
 10
650.00971580902115
 20
612.86073405327443
 30
0.0
 11
650.00971580902115
 21
610.80073405327425
 31
0.0
  0
ARC
  5
17078
  8
AM_0
 10
584.18971580902121
 20
583.98573405327443
 30
0.0
 40
1.675
 50
89.999997000002296
 51
270.0
  0
LINE
  5
17079
  8
AM_0
 10
584.18971580902121
 20
582.31073405327425
 30
0.0
 11
714.32972580902106
 21
582.31073405327425
 31
0.0
  0
ARC
  5
1707A
  8
AM_0
 10
587.66789580902116
 20
583.94073405327424
 30
0.0
 40
1.000031899999998
 50
90.469299999997844
 51
269.53070000000201
  0
LINE
  5
1707B
  8
AM_0
 10
581.00971580902115
 20
586.09074405327442
 30
0.0
 11
573.00968580902122
 21
586.09074405327442
 31
0.0
  0
LINE
  5
1707C
  8
AM_0
 10
586.26969580902119
 20
609.32074405327444
 30
0.0
 11
582.80970580902112
 21
596.40072405327442
 31
0.0
  0
LINE
  5
1707D
  8
AM_0
 10
584.19972580902106
 20
607.86077405327421
 30
0.0
 11
582.75971580902115
 21
601.16078405327448
 31
0.0
  0
LINE
  5
1707E
  8
AM_0
 10
581.29969580902105
 20
599.98072405327423
 30
0.0
 11
583.70969580902124
 21
599.98072405327423
 31
0.0
  0
LINE
  5
1707F
  8
AM_0
 10
580.00971580902115
 20
600.98074405327418
 30
0.0
 11
573.00968580902122
 21
600.98074405327418
 31
0.0
  0
ARC
  5
17080
  8
AM_0
 10
581.35944580902094
 20
596.79313405327423
 30
0.0
 40
1.502391899999999
 50
270.00936000000007
 51
344.85998999999862
  0
ARC
  5
17081
  8
AM_0
 10
580.01530580902113
 20
599.98635405327434
 30
0.0
 40
0.9944000200000001
 50
359.67649000000222
 51
90.323508999999945
  0
ARC
  5
17082
  8
AM_0
 10
581.30387580902095
 20
601.48121405327424
 30
0.0
 40
1.500475999999999
 50
269.84172000000018
 51
347.66777000000133
  0
LINE
  5
17083
  8
AM_0
 10
586.29972580902086
 20
609.44073405327424
 30
0.0
 11
581.00971580902115
 21
609.44073405327424
 31
0.0
  0
ARC
  5
17084
  8
AM_0
 10
586.15525580902113
 20
607.44056405327422
 30
0.0
 40
2.0001799999999981
 50
89.872485000002015
 51
167.87364800000211
  0
ARC
  5
17085
  8
AM_0
 10
588.19926580902109
 20
608.80293405327427
 30
0.0
 40
1.997795899999999
 50
89.986419000002854
 51
164.9784029999982
  0
LINE
  5
17086
  8
AM_0
 10
580.00971580902115
 20
612.94074905327454
 30
0.0
 11
573.00968580902122
 21
612.94074905327454
 31
0.0
  0
ARC
  5
17087
  8
AM_0
 10
580.01466580902115
 20
611.94570905327464
 30
0.0
 40
0.9950640200000001
 50
359.714940000002
 51
90.285061999999513
  0
ARC
  5
17088
  8
AM_0
 10
583.97970580902108
 20
573.96574405327442
 30
0.0
 40
1.4650000000000001
 50
90.00000299999769
 51
270.0
  0
ARC
  5
17089
  8
AM_0
 10
585.06973580902115
 20
573.94073405327424
 30
0.0
 40
1.0000040999999991
 50
90.00000299999769
 51
270.0
  0
ARC
  5
1708A
  8
AM_0
 10
585.06602580902097
 20
563.94075405327419
 30
0.0
 40
1.000035999999999
 50
89.500716000000125
 51
270.49929000000162
  0
ARC
  5
1708B
  8
AM_0
 10
583.84470580902121
 20
563.95074405327409
 30
0.0
 40
1.3300000000000001
 50
90.00000299999769
 51
270.0
  0
ARC
  5
1708C
  8
AM_0
 10
583.78471580902124
 20
553.94572405327449
 30
0.0
 40
1.265004
 50
90.00000299999769
 51
270.0
  0
ARC
  5
1708D
  8
AM_0
 10
585.06602580902097
 20
553.94073405327435
 30
0.0
 40
1.000035999999999
 50
89.500716000000125
 51
270.49929000000162
  0
ARC
  5
1708E
  8
AM_0
 10
585.06602580902097
 20
543.94073405327435
 30
0.0
 40
1.000035999999999
 50
89.500716000000125
 51
270.49929000000162
  0
ARC
  5
1708F
  8
AM_0
 10
583.78471580902124
 20
543.94073405327435
 30
0.0
 40
1.270003999999999
 50
90.00000299999769
 51
270.0
  0
ARC
  5
17090
  8
AM_0
 10
583.84470580902121
 20
533.93075405327409
 30
0.0
 40
1.3300000000000001
 50
90.00000299999769
 51
270.0
  0
ARC
  5
17091
  8
AM_0
 10
585.06602580902097
 20
533.9407540532743
 30
0.0
 40
1.000035999999999
 50
89.500716000000125
 51
270.49929000000162
  0
ARC
  5
17092
  8
AM_0
 10
585.06474580902113
 20
523.94074405327433
 30
0.0
 40
1.0000040999999991
 50
90.00000299999769
 51
270.0
  0
ARC
  5
17093
  8
AM_0
 10
583.97471580902118
 20
523.92073405327415
 30
0.0
 40
1.4599999999999991
 50
90.00000299999769
 51
270.0
  0
LINE
  5
17094
  8
ｶｸﾚｾﾝ2
 10
679.50971580902103
 20
512.94077736797112
 30
0.0
 11
596.00971580902115
 21
512.94077736797124
 31
0.0
  0
LINE
  5
17095
  8
ｶｸﾚｾﾝ2
 10
596.00971580902115
 20
584.94077736797112
 30
0.0
 11
679.50971580902103
 21
584.94077736797112
 31
0.0
  0
ARC
  5
17096
  8
ｶｸﾚｾﾝ2
 10
679.50971580902103
 20
581.44077736797112
 30
0.0
 40
3.5
 50
0.0
 51
90.0
  0
ARC
  5
17097
  8
ｶｸﾚｾﾝ2
 10
679.50971580902103
 20
516.44077736797101
 30
0.0
 40
3.5
 50
270.0
 51
0.0
  0
LINE
  5
17098
  8
ｶｸﾚｾﾝ2
 10
683.00971580902103
 20
581.44077736797067
 30
0.0
 11
683.00971580902012
 21
516.44077736797101
 31
0.0
  0
ARC
  5
17099
  8
ｶｸﾚｾﾝ2
 10
596.50971580902115
 20
571.44077736797101
 30
0.0
 40
2.0
 50
0.0
 51
90.0
  0
ARC
  5
1709A
  8
ｶｸﾚｾﾝ2
 10
596.00971580902115
 20
582.94077736797112
 30
0.0
 40
2.0
 50
90.0
 51
180.0
  0
LINE
  5
1709B
  8
ｶｸﾚｾﾝ2
 10
596.00971580902115
 20
573.44077736797112
 30
0.0
 11
596.50971580902115
 21
573.44077736797112
 31
0.0
  0
ARC
  5
1709C
  8
ｶｸﾚｾﾝ2
 10
596.00971580902115
 20
575.44077736797112
 30
0.0
 40
2.0
 50
180.0
 51
270.0
  0
LINE
  5
1709D
  8
ｶｸﾚｾﾝ2
 10
594.00971580902115
 20
582.94077736797112
 30
0.0
 11
594.00971580902115
 21
575.44077736797112
 31
0.0
  0
ARC
  5
1709E
  8
ｶｸﾚｾﾝ2
 10
596.50971580902115
 20
526.44077736797112
 30
0.0
 40
2.0
 50
270.0
 51
0.0
  0
LINE
  5
1709F
  8
ｶｸﾚｾﾝ2
 10
598.50971580902115
 20
526.44077736797112
 30
0.0
 11
598.50971580902115
 21
571.44077736797101
 31
0.0
  0
LINE
  5
170A0
  8
ｶｸﾚｾﾝ2
 10
611.45946327732713
 20
512.94077736797124
 30
0.0
 11
610.00971580902115
 21
512.94077736797124
 31
0.0
  0
LINE
  5
170A1
  8
ｶｸﾚｾﾝ2
 10
611.45946327732713
 20
512.94077736797124
 30
0.0
 11
610.00971580902115
 21
512.94077736797124
 31
0.0
  0
ARC
  5
170A2
  8
ｶｸﾚｾﾝ2
 10
596.00971580902115
 20
522.44077736797112
 30
0.0
 40
2.0
 50
90.0
 51
180.0
  0
LINE
  5
170A3
  8
ｶｸﾚｾﾝ2
 10
596.50971580902115
 20
524.44077736797112
 30
0.0
 11
596.00971580902115
 21
524.44077736797112
 31
0.0
  0
ARC
  5
170A4
  8
ｶｸﾚｾﾝ2
 10
596.00971580902115
 20
514.94077736797112
 30
0.0
 40
2.0
 50
180.0
 51
270.0
  0
LINE
  5
170A5
  8
ｶｸﾚｾﾝ2
 10
594.00971580902115
 20
522.44077736797112
 30
0.0
 11
594.00971580902115
 21
514.94077736797112
 31
0.0
  0
LINE
  5
170A6
  8
ｶｸﾚｾﾝ2
 10
594.00971580902115
 20
522.44077736797112
 30
0.0
 11
594.00971580902115
 21
514.94077736797112
 31
0.0
  0
LINE
  5
170A7
  8
AM_0
 10
687.00957598314005
 20
296.28637949260383
 30
0.0
 11
718.00963598314024
 21
294.25637949260391
 31
0.0
  0
LINE
  5
170A8
  8
AM_0
 10
705.00963598314013
 20
186.04638949260359
 30
0.0
 11
663.68321598314037
 21
186.04638949260359
 31
0.0
  0
LINE
  5
170A9
  8
AM_0
 10
687.00957598314005
 20
203.58648949260379
 30
0.0
 11
718.00957598314017
 21
205.6164894926039
 31
0.0
  0
LINE
  5
170AA
  8
AM_0
 10
620.00963598314036
 20
275.93640949260379
 30
0.0
 11
713.45964598314015
 21
275.93640949260379
 31
0.0
  0
LINE
  5
170AB
  8
AM_0
 10
620.00963598314036
 20
283.93640949260379
 30
0.0
 11
713.45964598314015
 21
283.93640949260379
 31
0.0
  0
LINE
  5
170AC
  8
AM_0
 10
620.00963598314036
 20
223.93640949260379
 30
0.0
 11
713.47398598314021
 21
223.93640949260379
 31
0.0
  0
LINE
  5
170AD
  8
AM_0
 10
723.73961598314042
 20
243.66638949260391
 30
0.0
 11
651.27452598314005
 21
243.66638949260391
 31
0.0
  0
LINE
  5
170AE
  8
AM_0
 10
714.54961598314026
 20
226.37634949260391
 30
0.0
 11
583.97539598314052
 21
226.37634949260391
 31
0.0
  0
LINE
  5
170AF
  8
AM_0
 10
587.67680598314041
 20
225.93640949260379
 30
0.0
 11
713.47398598314021
 21
225.93640949260379
 31
0.0
  0
LINE
  5
170B0
  8
AM_0
 10
723.67961598314025
 20
233.59643949260391
 30
0.0
 11
651.33836598314042
 21
233.59643949260391
 31
0.0
  0
LINE
  5
170B1
  8
AM_0
 10
652.56755598314044
 20
233.93640949260379
 30
0.0
 11
722.45964598314015
 21
233.93640949260379
 31
0.0
  0
LINE
  5
170B2
  8
AM_0
 10
723.67961598314025
 20
236.2563494926039
 30
0.0
 11
651.33836598314042
 21
236.2563494926039
 31
0.0
  0
LINE
  5
170B3
  8
AM_0
 10
652.56755598314044
 20
245.93640949260379
 30
0.0
 11
722.45964598314015
 21
245.93640949260379
 31
0.0
  0
LINE
  5
170B4
  8
AM_0
 10
652.56755598314044
 20
243.93640949260379
 30
0.0
 11
722.45964598314015
 21
243.93640949260379
 31
0.0
  0
LINE
  5
170B5
  8
AM_0
 10
723.73961598314042
 20
246.2064294926038
 30
0.0
 11
651.27452598314005
 21
246.2064294926038
 31
0.0
  0
LINE
  5
170B6
  8
AM_0
 10
723.73961598314042
 20
253.67639949260391
 30
0.0
 11
651.27452598314005
 21
253.67639949260391
 31
0.0
  0
LINE
  5
170B7
  8
AM_0
 10
723.73961598314042
 20
256.21643949260391
 30
0.0
 11
651.27452598314005
 21
256.21643949260391
 31
0.0
  0
LINE
  5
170B8
  8
AM_0
 10
723.67961598314025
 20
263.61645949260378
 30
0.0
 11
651.35094598314026
 21
263.61645949260378
 31
0.0
  0
LINE
  5
170B9
  8
AM_0
 10
723.67961598314025
 20
266.28637949260388
 30
0.0
 11
651.33836598314042
 21
266.28637949260388
 31
0.0
  0
LINE
  5
170BA
  8
AM_0
 10
714.54961598314026
 20
273.50634949260387
 30
0.0
 11
583.97539598314052
 21
273.50634949260387
 31
0.0
  0
LINE
  5
170BB
  8
AM_0
 10
714.54961598314026
 20
276.42639949260388
 30
0.0
 11
620.00963598314036
 21
276.42639949260388
 31
0.0
  0
LINE
  5
170BC
  8
AM_0
 10
714.33965598314023
 20
283.30639949260387
 30
0.0
 11
619.98961598314031
 21
283.30639949260387
 31
0.0
  0
LINE
  5
170BD
  8
AM_0
 10
714.33965598314023
 20
286.66638949260391
 30
0.0
 11
584.18962598314044
 21
286.66638949260391
 31
0.0
  0
LINE
  5
170BE
  8
AM_0
 10
620.00963598314036
 20
215.9364094926039
 30
0.0
 11
713.47398598314021
 21
215.9364094926039
 31
0.0
  0
LINE
  5
170BF
  8
AM_0
 10
714.54961598314026
 20
223.4564294926038
 30
0.0
 11
620.00963598314036
 21
223.4564294926038
 31
0.0
  0
LINE
  5
170C0
  8
AM_0
 10
652.56755598314044
 20
253.93640949260379
 30
0.0
 11
722.45964598314015
 21
253.93640949260379
 31
0.0
  0
LINE
  5
170C1
  8
AM_0
 10
652.56755598314044
 20
255.9364094926039
 30
0.0
 11
722.45964598314015
 21
255.9364094926039
 31
0.0
  0
LINE
  5
170C2
  8
AM_0
 10
652.57091598314037
 20
263.9364094926039
 30
0.0
 11
722.45964598314015
 21
263.9364094926039
 31
0.0
  0
LINE
  5
170C3
  8
AM_0
 10
652.57091598314037
 20
265.9364094926039
 30
0.0
 11
722.45964598314015
 21
265.9364094926039
 31
0.0
  0
LINE
  5
170C4
  8
AM_0
 10
587.67680598314041
 20
273.93640949260379
 30
0.0
 11
713.45964598314015
 21
273.93640949260379
 31
0.0
  0
LINE
  5
170C5
  8
AM_0
 10
587.66960598314017
 20
285.93640949260379
 30
0.0
 11
713.45964598314015
 21
285.93640949260379
 31
0.0
  0
LINE
  5
170C6
  8
AM_0
 10
705.00963598314013
 20
313.82641949260392
 30
0.0
 11
586.48967598314027
 21
313.82641949260392
 31
0.0
  0
LINE
  5
170C7
  8
AM_0
 10
705.00963598314013
 20
315.18640949260379
 30
0.0
 11
586.78197598314046
 21
315.18640949260379
 31
0.0
  0
LINE
  5
170C8
  8
AM_0
 10
705.00963598314013
 20
315.85644949260387
 30
0.0
 11
586.92595598314028
 21
315.85644949260387
 31
0.0
  0
LINE
  5
170C9
  8
AM_0
 10
705.00963598314013
 20
311.79638949260391
 30
0.0
 11
588.19963598314052
 21
311.79638949260391
 31
0.0
  0
LINE
  5
170CA
  8
AM_0
 10
652.56755598314044
 20
235.93640949260379
 30
0.0
 11
722.45964598314015
 21
235.93640949260379
 31
0.0
  0
LINE
  5
170CB
  8
AM_0
 10
705.00963598314013
 20
188.07641949260389
 30
0.0
 11
588.19963598314052
 21
188.07641949260389
 31
0.0
  0
LINE
  5
170CC
  8
AM_0
 10
714.33965598314023
 20
213.2164394926038
 30
0.0
 11
632.00963598314047
 21
213.2164394926038
 31
0.0
  0
LINE
  5
170CD
  8
AM_0
 10
632.00963598314047
 20
213.9364094926039
 30
0.0
 11
713.47398598314021
 21
213.9364094926039
 31
0.0
  0
LINE
  5
170CE
  8
AM_0
 10
714.33965598314023
 20
216.57641949260389
 30
0.0
 11
619.98961598314031
 21
216.57641949260389
 31
0.0
  0
LINE
  5
170CF
  8
AM_0
 10
778.00963598314013
 20
215.4073494926038
 30
0.0
 11
778.00963598314013
 21
284.46545949260388
 31
0.0
  0
LINE
  5
170D0
  8
AM_0
 10
733.00963598314013
 20
212.75134949260379
 30
0.0
 11
733.00963598314013
 21
287.12243949260369
 31
0.0
  0
LINE
  5
170D1
  8
AM_0
 10
775.50963598314013
 20
197.15441949260389
 30
0.0
 11
775.50963598314013
 21
302.68640949260362
 31
0.0
  0
LINE
  5
170D2
  8
AM_0
 10
783.51106608314024
 20
305.9364094926039
 30
0.0
 11
783.51106608314035
 21
254.93640949260379
 31
0.0
  0
LINE
  5
170D3
  8
AM_0
 10
783.51106608314035
 20
244.93640949260379
 30
0.0
 11
783.51106608314024
 21
193.93640949260379
 31
0.0
  0
LINE
  5
170D4
  8
AM_0
 10
728.00963598314013
 20
191.1864094926037
 30
0.0
 11
728.00963598314013
 21
249.93640949260379
 31
0.0
  0
LINE
  5
170D5
  8
AM_0
 10
776.00963598314013
 20
197.18640949260379
 30
0.0
 11
728.00963598314013
 21
197.18640949260379
 31
0.0
  0
LINE
  5
170D6
  8
AM_0
 10
775.50963598314013
 20
216.2954194926038
 30
0.0
 11
733.00963598314013
 21
216.2954194926038
 31
0.0
  0
LINE
  5
170D7
  8
AM_0
 10
775.50963598314013
 20
206.04541949260371
 30
0.0
 11
733.00963598314013
 21
206.04541949260371
 31
0.0
  0
LINE
  5
170D8
  8
AM_0
 10
740.00963598314013
 20
189.93640949260379
 30
0.0
 11
737.00963598314013
 21
189.93640949260379
 31
0.0
  0
LINE
  5
170D9
  8
AM_0
 10
753.00963598314013
 20
191.18640949260379
 30
0.0
 11
728.00963598314013
 21
191.18640949260379
 31
0.0
  0
LINE
  5
170DA
  8
AM_0
 10
774.51106608314024
 20
184.93640949260379
 30
0.0
 11
737.00963598314013
 21
184.93640949260379
 31
0.0
  0
LINE
  5
170DB
  8
AM_0
 10
776.80962598314022
 20
215.6453894926039
 30
0.0
 11
776.80962598314022
 21
206.44543949260381
 31
0.0
  0
LINE
  5
170DC
  8
AM_0
 10
773.51106608314024
 20
189.93640949260379
 30
0.0
 11
750.00963598314013
 21
189.93640949260379
 31
0.0
  0
ARC
  5
170DD
  8
AM_0
 10
773.51106608314024
 20
194.93640949260379
 30
0.0
 40
5.0
 50
270.00004999999851
 51
0.0000200000020129
  0
ARC
  5
170DE
  8
AM_0
 10
774.51106608314024
 20
193.93640949260379
 30
0.0
 40
9.0
 50
270.00004999999851
 51
0.0000200000020129
  0
LINE
  5
170DF
  8
AM_0
 10
778.00963598314013
 20
206.68347949260379
 30
0.0
 11
778.00963598314013
 21
199.18640949260379
 31
0.0
  0
ARC
  5
170E0
  8
AM_0
 10
776.00963598314013
 20
199.18640949260379
 30
0.0
 40
2.0
 50
270.00004999999851
 51
0.0000200000020129
  0
ARC
  5
170E1
  8
AM_0
 10
777.10960598314023
 20
209.54541949260371
 30
0.0
 40
3.0
 50
270.00004999999851
 51
297.84967349719989
  0
LINE
  5
170E2
  8
AM_0
 10
777.10960598314023
 20
206.54541949260371
 30
0.0
 11
776.80962598314022
 21
206.54541949260371
 31
0.0
  0
LINE
  5
170E3
  8
AM_0
 10
776.80962598314022
 20
206.44543949260381
 30
0.0
 11
775.50963598314013
 21
206.44543949260381
 31
0.0
  0
LINE
  5
170E4
  8
AM_0
 10
753.00963598314013
 20
191.18640949260379
 30
0.0
 11
753.00963598314013
 21
197.18640949260379
 31
0.0
  0
LINE
  5
170E5
  8
AM_0
 10
740.00963598314013
 20
191.18640949260379
 30
0.0
 11
740.00963598314013
 21
184.93640949260379
 31
0.0
  0
LINE
  5
170E6
  8
AM_0
 10
750.00963598314013
 20
191.18640949260379
 30
0.0
 11
750.00963598314013
 21
184.93640949260379
 31
0.0
  0
ARC
  5
170E7
  8
AM_0
 10
777.10960598314023
 20
212.54541949260371
 30
0.0
 40
3.0
 50
62.150326502800048
 51
90.000011000002416
  0
LINE
  5
170E8
  8
AM_0
 10
777.10960598314023
 20
215.54541949260371
 30
0.0
 11
776.80962598314022
 21
215.54541949260371
 31
0.0
  0
LINE
  5
170E9
  8
AM_0
 10
776.80962598314022
 20
215.6453894926039
 30
0.0
 11
775.50963598314013
 21
215.6453894926039
 31
0.0
  0
LINE
  5
170EA
  8
AM_0
 10
718.00963598314024
 20
201.5864294926038
 30
0.0
 11
718.00963598314024
 21
215.6363594926039
 31
0.0
  0
ARC
  5
170EB
  8
AM_0
 10
718.84679598314017
 20
208.3478994926038
 30
0.0
 40
4.9991421999999961
 50
99.6399350000015
 51
174.62197310000059
  0
ARC
  5
170EC
  8
AM_0
 10
714.86882598314025
 20
208.72607949260379
 30
0.0
 40
1.0032491999999991
 50
174.83235659999909
 51
225.01880999999901
  0
LINE
  5
170ED
  8
AM_0
 10
722.30901598313994
 20
188.26635949260381
 30
0.0
 11
708.26689598313999
 21
188.26635949260381
 31
0.0
  0
LINE
  5
170EE
  8
AM_0
 10
714.24980598314016
 20
196.95642949260369
 30
0.0
 11
708.50963598314013
 21
196.95642949260369
 31
0.0
  0
LINE
  5
170EF
  8
AM_0
 10
714.31200598314024
 20
191.67639949260391
 30
0.0
 11
708.50963598314013
 21
191.67639949260391
 31
0.0
  0
LINE
  5
170F0
  8
AM_0
 10
716.06535598314042
 20
193.24645949260369
 30
0.0
 11
717.02531598314044
 21
197.71643949260371
 31
0.0
  0
ARC
  5
170F1
  8
AM_0
 10
726.19640598314015
 20
193.33874949260391
 30
0.0
 40
1.497715799999999
 50
89.877355000002098
 51
166.5756209999972
  0
LINE
  5
170F2
  8
AM_0
 10
726.17961598314025
 20
192.81640949260381
 30
0.0
 11
724.52965598314029
 21
192.81640949260381
 31
0.0
  0
LINE
  5
170F3
  8
AM_0
 10
728.00963598314013
 20
192.5064394926039
 30
0.0
 11
725.18962598314044
 21
192.44644949260359
 31
0.0
  0
LINE
  5
170F4
  8
AM_0
 10
726.19963598314041
 20
194.8364294926038
 30
0.0
 11
716.40685598314042
 21
194.8364294926038
 31
0.0
  0
ARC
  5
170F5
  8
AM_0
 10
726.18193598314019
 20
191.3181194926037
 30
0.0
 40
1.4982997
 50
90.089049999998792
 51
165.7702599999952
  0
LINE
  5
170F6
  8
AM_0
 10
737.00963598314013
 20
189.93640949260379
 30
0.0
 11
737.00963598314013
 21
184.93640949260379
 31
0.0
  0
LINE
  5
170F7
  8
AM_0
 10
724.24828598314014
 20
189.77743949260369
 30
0.0
 11
724.72960598314023
 21
191.68646949260369
 31
0.0
  0
ARC
  5
170F8
  8
AM_0
 10
722.30901598313994
 20
190.26635949260361
 30
0.0
 40
2.0
 50
270.000010000001
 51
345.84925000000038
  0
ARC
  5
170F9
  8
AM_0
 10
721.87279598314024
 20
190.26696949260381
 30
0.0
 40
2.0005671999999981
 50
270.19569000000058
 51
346.69041000000442
  0
LINE
  5
170FA
  8
AM_0
 10
723.8196359831403
 20
189.80636949260381
 30
0.0
 11
724.73961598314042
 21
193.6864394926038
 31
0.0
  0
ARC
  5
170FB
  8
AM_0
 10
714.11229598314014
 20
193.66345949260369
 30
0.0
 40
1.997119399999999
 50
269.80137000000121
 51
347.94475999999821
  0
LINE
  5
170FC
  8
AM_0
 10
728.00963598314013
 20
207.2464594926038
 30
0.0
 11
718.00963598314024
 21
207.2464594926038
 31
0.0
  0
LINE
  5
170FD
  8
AM_0
 10
728.00963598314013
 20
201.5864294926038
 30
0.0
 11
718.00963598314024
 21
201.5864294926038
 31
0.0
  0
LINE
  5
170FE
  8
AM_0
 10
733.00963598314013
 20
206.04541949260371
 30
0.0
 11
733.00963598314013
 21
197.18640949260379
 31
0.0
  0
ARC
  5
170FF
  8
AM_0
 10
718.27647598314059
 20
202.67639949260391
 30
0.0
 40
1.5
 50
100.24788999999799
 51
169.76262100000099
  0
ARC
  5
17100
  8
AM_0
 10
714.05022598314042
 20
198.94164949260389
 30
0.0
 40
1.9952742999999991
 50
270.14858000000021
 51
350.03521999999941
  0
LINE
  5
17101
  8
AM_0
 10
718.49535598314014
 20
198.89636949260381
 30
0.0
 11
716.07536598314005
 21
198.89636949260381
 31
0.0
  0
ARC
  5
17102
  8
AM_0
 10
718.49278598314038
 20
197.3940494926039
 30
0.0
 40
1.502416299999999
 50
89.901382999997608
 51
167.60811299999961
  0
LINE
  5
17103
  8
AM_0
 10
716.80040598314042
 20
202.94305949260391
 30
0.0
 11
716.01537598314042
 21
198.59637949260369
 31
0.0
  0
ARC
  5
17104
  8
AM_0
 10
718.38994598314014
 20
212.2817394926038
 30
0.0
 40
6.0073843
 50
225.23615000000501
 51
266.37026000000259
  0
LINE
  5
17105
  8
AM_0
 10
707.00963598314013
 20
188.04736949260391
 30
0.0
 11
707.00963598314013
 21
195.45642949260369
 31
0.0
  0
ARC
  5
17106
  8
AM_0
 10
705.00871598314041
 20
188.04736949260391
 30
0.0
 40
2.0009109999999981
 50
270.02609000000348
 51
359.999989999999
  0
ARC
  5
17107
  8
AM_0
 10
708.26689598313999
 20
186.7663594926039
 30
0.0
 40
1.5
 50
89.999997000002296
 51
158.5382910000028
  0
ARC
  5
17108
  8
AM_0
 10
708.51274598314023
 20
190.17321949260381
 30
0.0
 40
1.503128599999999
 50
90.119130000001164
 51
179.8808703500043
  0
ARC
  5
17109
  8
AM_0
 10
705.00957598314017
 20
190.07641949260389
 30
0.0
 40
2.0000371999999991
 50
270.00107000000349
 51
359.99894000000398
  0
ARC
  5
1710A
  8
AM_0
 10
708.51158598314044
 20
195.45446949260381
 30
0.0
 40
1.501982699999999
 50
90.075586999995195
 51
179.92441279799939
  0
ARC
  5
1710B
  8
AM_0
 10
714.55534598314023
 20
224.9063794926038
 30
0.0
 40
1.460011199999999
 50
269.77526000000302
 51
90.224751999995519
  0
ARC
  5
1710C
  8
AM_0
 10
713.4667859831402
 20
224.93640949260379
 30
0.0
 40
1.000025599999997
 50
269.58948000000038
 51
90.410525999999223
  0
ARC
  5
1710D
  8
AM_0
 10
713.4667859831402
 20
214.93640949260379
 30
0.0
 40
1.000025599999997
 50
269.58948000000038
 51
90.410525999999223
  0
LINE
  5
1710E
  8
AM_0
 10
728.00963598314013
 20
215.6363594926039
 30
0.0
 11
718.00963598314024
 21
215.6363594926039
 31
0.0
  0
ARC
  5
1710F
  8
AM_0
 10
714.33965598314023
 20
214.88635949260379
 30
0.0
 40
1.6800002000000001
 50
270.0
 51
89.999997000002296
  0
ARC
  5
17110
  8
AM_0
 10
722.45964598314015
 20
234.9364094926039
 30
0.0
 40
1.000005699999998
 50
270.0
 51
89.999997000002296
  0
ARC
  5
17111
  8
AM_0
 10
723.68590598314017
 20
234.92639949260391
 30
0.0
 40
1.3300148000000001
 50
269.72940999999679
 51
90.270582000000445
  0
ARC
  5
17112
  8
AM_0
 10
706.0168359831398
 20
214.93640949260379
 30
0.0
 40
1.0000259
 50
269.5875400000013
 51
90.412465999999768
  0
ARC
  5
17113
  8
AM_0
 10
706.0168359831398
 20
224.93640949260379
 30
0.0
 40
1.0000259
 50
269.5875400000013
 51
90.412465999999768
  0
ARC
  5
17114
  8
AM_0
 10
706.0168359831398
 20
234.9364094926039
 30
0.0
 40
1.0000259
 50
269.5875400000013
 51
90.412465999999768
  0
LINE
  5
17115
  8
AM_0
 10
753.00963598314013
 20
308.68640949260367
 30
0.0
 11
753.00963598314013
 21
302.68640949260362
 31
0.0
  0
ARC
  5
17116
  8
AM_0
 10
773.51106608314024
 20
304.9364094926039
 30
0.0
 40
5.0
 50
0.0
 51
90.000011000002416
  0
ARC
  5
17117
  8
AM_0
 10
774.51106608314024
 20
305.9364094926039
 30
0.0
 40
9.0
 50
0.0000200000020129
 51
90.000011000002416
  0
ARC
  5
17118
  8
AM_0
 10
714.11229598314014
 20
306.20934949260391
 30
0.0
 40
1.997119399999999
 50
12.05524000000181
 51
90.198633000001507
  0
ARC
  5
17119
  8
AM_0
 10
726.19005598314016
 20
308.5617694926039
 30
0.0
 40
1.505448699999999
 50
194.04752999999951
 51
269.60313000000008
  0
LINE
  5
1711A
  8
AM_0
 10
723.8196359831403
 20
310.0664094926039
 30
0.0
 11
724.73967598314005
 21
306.19641949260381
 31
0.0
  0
LINE
  5
1711B
  8
AM_0
 10
728.00963598314013
 20
308.6864094926039
 30
0.0
 11
728.00963598314013
 21
249.93640949260379
 31
0.0
  0
LINE
  5
1711C
  8
AM_0
 10
707.00963598314013
 20
311.82641949260392
 30
0.0
 11
707.00963598314013
 21
304.42639949260371
 31
0.0
  0
LINE
  5
1711D
  8
AM_0
 10
776.00963598314013
 20
302.68640949260362
 30
0.0
 11
728.00963598314013
 21
302.68640949260362
 31
0.0
  0
LINE
  5
1711E
  8
AM_0
 10
775.50963598314013
 20
283.57739949260372
 30
0.0
 11
733.00963598314013
 21
283.57739949260372
 31
0.0
  0
LINE
  5
1711F
  8
AM_0
 10
775.50963598314013
 20
293.82739949260372
 30
0.0
 11
733.00963598314013
 21
293.82739949260372
 31
0.0
  0
LINE
  5
17120
  8
AM_0
 10
784.50960598314009
 20
244.9364094926039
 30
0.0
 11
784.50960598314009
 21
254.93640949260379
 31
0.0
  0
LINE
  5
17121
  8
AM_0
 10
778.00963598314013
 20
244.9364094926039
 30
0.0
 11
784.50960598314009
 21
244.9364094926039
 31
0.0
  0
LINE
  5
17122
  8
AM_0
 10
778.00963598314013
 20
254.93640949260379
 30
0.0
 11
784.50960598314009
 21
254.93640949260379
 31
0.0
  0
LINE
  5
17123
  8
AM_0
 10
776.80962598314022
 20
284.22742949260379
 30
0.0
 11
776.80962598314022
 21
293.42737949260368
 31
0.0
  0
ARC
  5
17124
  8
AM_0
 10
777.10960598314023
 20
290.32739949260372
 30
0.0
 40
3.0
 50
62.150326502800048
 51
89.999950000001448
  0
ARC
  5
17125
  8
AM_0
 10
777.10960598314023
 20
287.32739949260372
 30
0.0
 40
3.0
 50
269.99998899999758
 51
297.84967349719989
  0
LINE
  5
17126
  8
AM_0
 10
777.10960598314023
 20
284.3273994926036
 30
0.0
 11
776.80962598314022
 21
284.3273994926036
 31
0.0
  0
LINE
  5
17127
  8
AM_0
 10
776.80962598314022
 20
284.22742949260379
 30
0.0
 11
775.50963598314013
 21
284.22742949260379
 31
0.0
  0
LINE
  5
17128
  8
AM_0
 10
778.51106608314024
 20
194.93640949260379
 30
0.0
 11
778.51106608314058
 21
244.9364094926039
 31
0.0
  0
LINE
  5
17129
  8
AM_0
 10
778.51106608314058
 20
254.93640949260379
 30
0.0
 11
778.51106608314024
 21
304.93640949260367
 31
0.0
  0
LINE
  5
1712A
  8
AM_0
 10
778.00963598314013
 20
293.18933949260372
 30
0.0
 11
778.00963598314013
 21
300.68640949260362
 31
0.0
  0
LINE
  5
1712B
  8
AM_0
 10
777.10960598314023
 20
293.3273994926036
 30
0.0
 11
776.80962598314022
 21
293.3273994926036
 31
0.0
  0
LINE
  5
1712C
  8
AM_0
 10
776.80962598314022
 20
293.42737949260368
 30
0.0
 11
775.50963598314013
 21
293.42737949260368
 31
0.0
  0
ARC
  5
1712D
  8
AM_0
 10
776.00963598314013
 20
300.68640949260362
 30
0.0
 40
2.0
 50
359.999979999998
 51
89.999950000001448
  0
ARC
  5
1712E
  8
AM_0
 10
706.0168359831398
 20
274.93640949260379
 30
0.0
 40
1.0000259
 50
269.5875400000013
 51
90.412465999999768
  0
ARC
  5
1712F
  8
AM_0
 10
713.4667859831402
 20
274.93640949260379
 30
0.0
 40
1.000025599999997
 50
269.58948000000038
 51
90.410525999999223
  0
ARC
  5
17130
  8
AM_0
 10
714.55534598314023
 20
274.96643949260391
 30
0.0
 40
1.460011199999999
 50
269.77526000000302
 51
90.224751999995519
  0
ARC
  5
17131
  8
AM_0
 10
722.45964598314015
 20
244.9364094926039
 30
0.0
 40
1.000005699999998
 50
270.0
 51
89.999997000002296
  0
ARC
  5
17132
  8
AM_0
 10
723.7478559831402
 20
244.9364094926039
 30
0.0
 40
1.2700266
 50
269.62931000000458
 51
90.370678999997239
  0
ARC
  5
17133
  8
AM_0
 10
722.45964598314015
 20
254.93640949260379
 30
0.0
 40
1.000005699999998
 50
270.0
 51
89.999997000002296
  0
ARC
  5
17134
  8
AM_0
 10
723.7478559831402
 20
254.94641949260381
 30
0.0
 40
1.2700266
 50
269.62934000000359
 51
90.370672000003751
  0
ARC
  5
17135
  8
AM_0
 10
722.45964598314015
 20
264.93640949260379
 30
0.0
 40
1.000005699999998
 50
270.0
 51
89.999997000002296
  0
ARC
  5
17136
  8
AM_0
 10
723.68590598314017
 20
264.95141949260392
 30
0.0
 40
1.3350147999999991
 50
269.7304299999999
 51
90.269565000002885
  0
ARC
  5
17137
  8
AM_0
 10
706.0168359831398
 20
244.9364094926039
 30
0.0
 40
1.0000259
 50
269.5875400000013
 51
90.412465999999768
  0
ARC
  5
17138
  8
AM_0
 10
706.0168359831398
 20
254.93640949260379
 30
0.0
 40
1.0000259
 50
269.5875400000013
 51
90.412465999999768
  0
ARC
  5
17139
  8
AM_0
 10
706.0168359831398
 20
264.93640949260379
 30
0.0
 40
1.0000259
 50
269.5875400000013
 51
90.412465999999768
  0
ARC
  5
1713A
  8
AM_0
 10
714.86772598314019
 20
291.15710949260381
 30
0.0
 40
1.002184699999999
 50
134.95269300000061
 51
185.1961399999966
  0
ARC
  5
1713B
  8
AM_0
 10
713.4667859831402
 20
284.9364094926039
 30
0.0
 40
1.000025599999997
 50
269.58948000000038
 51
90.410525999999223
  0
ARC
  5
1713C
  8
AM_0
 10
718.85405598314014
 20
291.53063949260388
 30
0.0
 40
5.0059714
 50
185.32112000000191
 51
260.2890200000021
  0
LINE
  5
1713D
  8
AM_0
 10
714.05534598314011
 20
302.92639949260388
 30
0.0
 11
708.50963598314013
 21
302.92639949260388
 31
0.0
  0
LINE
  5
1713E
  8
AM_0
 10
718.00963598314024
 20
298.28637949260383
 30
0.0
 11
718.00963598314024
 21
284.24645949260378
 31
0.0
  0
LINE
  5
1713F
  8
AM_0
 10
728.00963598314013
 20
284.24645949260378
 30
0.0
 11
718.00963598314024
 21
284.24645949260378
 31
0.0
  0
ARC
  5
17140
  8
AM_0
 10
714.33965598314023
 20
284.98644949260381
 30
0.0
 40
1.6800002000000001
 50
270.0
 51
89.999997000002296
  0
LINE
  5
17141
  8
AM_0
 10
726.17961598314025
 20
307.0563994926037
 30
0.0
 11
724.52965598314029
 21
307.0563994926037
 31
0.0
  0
LINE
  5
17142
  8
AM_0
 10
728.00963598314013
 20
307.36639949260359
 30
0.0
 11
725.18962598314044
 21
307.4364094926039
 31
0.0
  0
LINE
  5
17143
  8
AM_0
 10
726.19963598314041
 20
305.03637949260383
 30
0.0
 11
716.40685598314042
 21
305.03637949260383
 31
0.0
  0
LINE
  5
17144
  8
AM_0
 10
728.00963598314013
 20
298.28637949260383
 30
0.0
 11
718.00963598314024
 21
298.28637949260383
 31
0.0
  0
LINE
  5
17145
  8
AM_0
 10
728.00963598314013
 20
292.62634949260388
 30
0.0
 11
718.00963598314024
 21
292.62634949260388
 31
0.0
  0
ARC
  5
17146
  8
AM_0
 10
726.20445598314018
 20
306.54125949260379
 30
0.0
 40
1.5048382
 50
193.2469199999986
 51
269.81735999999921
  0
LINE
  5
17147
  8
AM_0
 10
733.00963598314013
 20
293.82739949260372
 30
0.0
 11
733.00963598314013
 21
302.68640949260362
 31
0.0
  0
LINE
  5
17148
  8
AM_0
 10
716.80034598314023
 20
296.9297794926037
 30
0.0
 11
716.01530598314014
 21
301.27645949260392
 31
0.0
  0
ARC
  5
17149
  8
AM_0
 10
718.3886659831403
 20
287.6038894926038
 30
0.0
 40
6.0044340999999992
 50
93.619178000004084
 51
134.77442200000581
  0
ARC
  5
1714A
  8
AM_0
 10
718.27647598314059
 20
297.19641949260392
 30
0.0
 40
1.5
 50
190.2373800000006
 51
259.75211000000189
  0
ARC
  5
1714B
  8
AM_0
 10
714.05022598314042
 20
300.9311594926038
 30
0.0
 40
1.9952742999999991
 50
9.9647800000006086
 51
89.851419999999905
  0
LINE
  5
1714C
  8
AM_0
 10
718.49535598314014
 20
300.9764394926039
 30
0.0
 11
716.07536598314005
 21
300.9764394926039
 31
0.0
  0
ARC
  5
1714D
  8
AM_0
 10
718.49278598314038
 20
302.47875949260379
 30
0.0
 40
1.502416299999999
 50
192.3918699999991
 51
270.09862000000447
  0
LINE
  5
1714E
  8
AM_0
 10
716.06535598314042
 20
306.62640949260378
 30
0.0
 11
717.02531598314044
 21
302.15643949260379
 31
0.0
  0
ARC
  5
1714F
  8
AM_0
 10
706.0168359831398
 20
284.9364094926039
 30
0.0
 40
1.0000259
 50
269.5875400000013
 51
90.412465999999768
  0
ARC
  5
17150
  8
AM_0
 10
708.51335598314029
 20
304.43017949260383
 30
0.0
 40
1.5037541000000001
 50
180.14286000000141
 51
269.85712999999902
  0
LINE
  5
17151
  8
AM_0
 10
740.00963598314013
 20
309.9364094926039
 30
0.0
 11
737.00963598314013
 21
309.9364094926039
 31
0.0
  0
LINE
  5
17152
  8
AM_0
 10
774.51106608314024
 20
314.9364094926039
 30
0.0
 11
737.00963598314013
 21
314.9364094926039
 31
0.0
  0
LINE
  5
17153
  8
AM_0
 10
753.00963598314013
 20
308.68640949260367
 30
0.0
 11
728.00963598314013
 21
308.68640949260367
 31
0.0
  0
LINE
  5
17154
  8
AM_0
 10
773.51106608314024
 20
309.9364094926039
 30
0.0
 11
750.00963598314013
 21
309.9364094926039
 31
0.0
  0
LINE
  5
17155
  8
AM_0
 10
750.00963598314013
 20
308.6864094926039
 30
0.0
 11
750.00963598314013
 21
314.9364094926039
 31
0.0
  0
LINE
  5
17156
  8
AM_0
 10
740.00963598314013
 20
308.6864094926039
 30
0.0
 11
740.00963598314013
 21
314.9364094926039
 31
0.0
  0
LINE
  5
17157
  8
AM_0
 10
721.8996459831402
 20
313.23644949260392
 30
0.0
 11
708.39964598313975
 21
313.23644949260392
 31
0.0
  0
LINE
  5
17158
  8
AM_0
 10
721.87962598314016
 20
311.60644949260387
 30
0.0
 11
708.50963598314013
 21
311.60644949260387
 31
0.0
  0
LINE
  5
17159
  8
AM_0
 10
714.11919598314023
 20
308.20642949260372
 30
0.0
 11
708.50963598314013
 21
308.20642949260372
 31
0.0
  0
LINE
  5
1715A
  8
AM_0
 10
737.00963598314013
 20
309.9364094926039
 30
0.0
 11
737.00963598314013
 21
314.9364094926039
 31
0.0
  0
LINE
  5
1715B
  8
AM_0
 10
723.83965598314023
 20
311.72643949260379
 30
0.0
 11
724.72966598314031
 21
308.19641949260392
 31
0.0
  0
ARC
  5
1715C
  8
AM_0
 10
721.90477598314044
 20
311.2418294926037
 30
0.0
 40
1.994612099999999
 50
14.061139999996159
 51
90.148008000004197
  0
ARC
  5
1715D
  8
AM_0
 10
721.87938598314042
 20
309.61413949260378
 30
0.0
 40
1.9922863
 50
13.121609999996121
 51
89.992278999999442
  0
ARC
  5
1715E
  8
AM_0
 10
705.01585598314023
 20
313.85986949260388
 30
0.0
 40
1.9964978999999961
 50
14.39939000000026
 51
90.178517999999769
  0
ARC
  5
1715F
  8
AM_0
 10
708.40471598314014
 20
314.74157949260371
 30
0.0
 40
1.505230099999999
 50
194.82822000000129
 51
269.80579
  0
ARC
  5
17160
  8
AM_0
 10
708.51653598314044
 20
313.11328949260388
 30
0.0
 40
1.506942899999999
 50
180.26336999999899
 51
269.73663000000079
  0
ARC
  5
17161
  8
AM_0
 10
708.51451598314031
 20
309.7113094926039
 30
0.0
 40
1.504891299999997
 50
180.18593000000371
 51
269.8140700000028
  0
ARC
  5
17162
  8
AM_0
 10
705.01549598314023
 20
311.83227949260379
 30
0.0
 40
1.994130499999996
 50
359.8311099999994
 51
90.168893999997536
  0
ARC
  5
17163
  8
AM_0
 10
705.01634598314024
 20
309.80309949260379
 30
0.0
 40
1.9933081999999991
 50
359.8073300000014
 51
90.192676999995797
  0
ARC
  5
17164
  8
AM_0
 10
705.01317598314017
 20
313.18994949260389
 30
0.0
 40
1.996488899999999
 50
359.8991500000011
 51
90.100851999998326
  0
LINE
  5
17165
  8
AM_0
 10
581.00963598314036
 20
187.43640949260379
 30
0.0
 11
581.00963598314036
 21
312.4364094926039
 31
0.0
  0
LINE
  5
17166
  8
AM_0
 10
602.0296559831404
 20
216.57641949260389
 30
0.0
 11
584.18962598314044
 21
216.57641949260389
 31
0.0
  0
LINE
  5
17167
  8
AM_0
 10
602.00963598314024
 20
223.4564294926038
 30
0.0
 11
583.97539598314052
 21
223.4564294926038
 31
0.0
  0
LINE
  5
17168
  8
AM_0
 10
587.66960598314017
 20
215.9364094926039
 30
0.0
 11
602.00963598314024
 21
215.9364094926039
 31
0.0
  0
LINE
  5
17169
  8
AM_0
 10
587.67680598314041
 20
223.93640949260379
 30
0.0
 11
602.00963598314024
 21
223.93640949260379
 31
0.0
  0
LINE
  5
1716A
  8
AM_0
 10
600.49602598314038
 20
179.93640949260359
 30
0.0
 11
588.99345598314017
 21
179.93640949260359
 31
0.0
  0
LINE
  5
1716B
  8
AM_0
 10
587.66960598314017
 20
213.9364094926039
 30
0.0
 11
632.00963598314047
 21
213.9364094926039
 31
0.0
  0
LINE
  5
1716C
  8
AM_0
 10
632.00963598314047
 20
213.2164394926038
 30
0.0
 11
584.18962598314044
 21
213.2164394926038
 31
0.0
  0
LINE
  5
1716D
  8
AM_0
 10
687.00963598314013
 20
203.5864294926038
 30
0.0
 11
581.00963598314036
 21
203.5864294926038
 31
0.0
  0
ARC
  5
1716E
  8
AM_0
 10
600.49602598314038
 20
178.4364094926037
 30
0.0
 40
1.5
 50
1.500000000002736
 51
89.999997000002296
  0
LINE
  5
1716F
  8
AM_0
 10
602.07507397300651
 20
175.4364094926041
 30
0.0
 11
601.74406598314044
 21
188.07647949260371
 31
0.0
  0
LINE
  5
17170
  8
AM_0
 10
661.94410248122028
 20
175.4364094926041
 30
0.0
 11
662.27513598314044
 21
188.07638949260371
 31
0.0
  0
LINE
  5
17171
  8
AM_0
 10
598.50963598314024
 20
175.43640949260421
 30
0.0
 11
665.50963598314024
 21
175.43640949260421
 31
0.0
  0
LINE
  5
17172
  8
AM_0
 10
641.08811629446643
 20
167.9364094926039
 30
0.0
 11
642.58811629446643
 21
167.9364094926039
 31
0.0
  0
LINE
  5
17173
  8
AM_0
 10
641.08811629446643
 20
163.93640949260359
 30
0.0
 11
642.58811629446643
 21
163.9364094926041
 31
0.0
  0
LINE
  5
17174
  8
AM_0
 10
602.88476224898716
 20
138.9364094926039
 30
0.0
 11
678.3590671121467
 21
138.93640949260441
 31
0.0
  0
LINE
  5
17175
  8
AM_0
 10
678.68476224898825
 20
142.93640949260441
 30
0.0
 11
602.38476224898773
 21
155.93640949260359
 31
0.0
  0
LINE
  5
17176
  8
AM_0
 10
678.68476224898825
 20
142.93640949260441
 30
0.0
 11
602.38476224898773
 21
155.93640949260359
 31
0.0
  0
LINE
  5
17177
  8
AM_0
 10
602.05906711214607
 20
151.9364094926037
 30
0.0
 11
678.3590671121467
 21
138.93640949260441
 31
0.0
  0
LINE
  5
17178
  8
AM_0
 10
675.48476224898775
 20
172.93640949260441
 30
0.0
 11
595.00963598314047
 21
172.9364094926039
 31
0.0
  0
LINE
  5
17179
  8
ﾁｭｳｼﾝｾﾝ1
 10
666.18476224898791
 20
167.9364094926043
 30
0.0
 11
666.18476224898791
 21
143.9364094926043
 31
0.0
  0
LINE
  5
1717A
  8
AM_0
 10
681.28476224898805
 20
171.9364094926043
 30
0.0
 11
681.28476224898793
 21
143.93640949260441
 31
0.0
  0
LINE
  5
1717B
  8
AM_0
 10
683.28476224898702
 20
147.93640949260441
 30
0.0
 11
683.28476224898702
 21
140.43640949260441
 31
0.0
  0
ARC
  5
1717C
  8
AM_0
 10
666.18476224898791
 20
155.9364094926043
 30
0.0
 40
9.2999999999997076
 50
180.0
 51
0.0
  0
LINE
  5
1717D
  8
AM_0
 10
678.76618603319855
 20
143.93640949260441
 30
0.0
 11
646.78811629446648
 21
149.38483552934741
 31
0.0
  0
ARC
  5
1717E
  8
AM_0
 10
681.2847622489877
 20
140.43640949260441
 30
0.0
 40
1.499999999999998
 50
270.0
 51
0.0
  0
ARC
  5
1717F
  8
AM_0
 10
681.78476224898702
 20
140.43640949260441
 30
0.0
 40
1.5000000000001099
 50
270.00000000000648
 51
0.0
  0
LINE
  5
17180
  8
AM_0
 10
682.78476224898816
 20
142.93640949260441
 30
0.0
 11
678.68476224898825
 21
142.93640949260441
 31
0.0
  0
LINE
  5
17181
  8
AM_0
 10
678.76618603319855
 20
143.93640949260441
 30
0.0
 11
682.78476224898816
 21
143.93640949260441
 31
0.0
  0
LINE
  5
17182
  8
AM_0
 10
682.48476224898752
 20
142.93640949260441
 30
0.0
 11
678.68476224898825
 21
142.93640949260441
 31
0.0
  0
LINE
  5
17183
  8
AM_0
 10
681.78476224898702
 20
138.93640949260441
 30
0.0
 11
681.48627635283015
 21
138.93640949260441
 31
0.0
  0
LINE
  5
17184
  8
AM_0
 10
681.2847622489877
 20
138.93640949260441
 30
0.0
 11
678.3590671121467
 21
138.93640949260441
 31
0.0
  0
LINE
  5
17185
  8
AM_0
 10
682.78476224898816
 20
143.93640949260441
 30
0.0
 11
682.78476224898816
 21
140.43640949260441
 31
0.0
  0
LINE
  5
17186
  8
ﾁｭｳｼﾝｾﾝ1
 10
678.18476224898745
 20
155.9364094926043
 30
0.0
 11
654.18476224898768
 21
155.9364094926043
 31
0.0
  0
CIRCLE
  5
17187
  8
AM_0
 10
666.18476224898791
 20
155.9364094926043
 30
0.0
 40
6.2999999999996117
  0
LINE
  5
17188
  8
AM_0
 10
675.48476224898775
 20
172.93640949260441
 30
0.0
 11
675.48476224898832
 21
155.9364094926043
 31
0.0
  0
LINE
  5
17189
  8
AM_0
 10
681.28476224898793
 20
147.93640949260441
 30
0.0
 11
682.48476224898752
 21
147.93640949260441
 31
0.0
  0
LINE
  5
1718A
  8
AM_0
 10
682.48476224898752
 20
147.93640949260441
 30
0.0
 11
683.28476224898702
 21
147.93640949260441
 31
0.0
  0
LINE
  5
1718B
  8
AM_0
 10
680.28476224898805
 20
172.93640949260441
 30
0.0
 11
675.48476224898775
 21
172.93640949260441
 31
0.0
  0
ARC
  5
1718C
  8
AM_0
 10
680.28476224898805
 20
171.9364094926043
 30
0.0
 40
1.0
 50
0.0
 51
90.0
  0
LINE
  5
1718D
  8
AM_0
 10
644.78811629446625
 20
149.72559568662149
 30
0.0
 11
644.78811629446625
 21
167.93640949260441
 31
0.0
  0
LINE
  5
1718E
  8
AM_0
 10
646.78811629446648
 20
167.9364094926039
 30
0.0
 11
646.78811629446648
 21
149.38483552934741
 31
0.0
  0
LINE
  5
1718F
  8
AM_0
 10
642.58811629446643
 20
167.9364094926039
 30
0.0
 11
642.58811629446643
 21
150.1004318596232
 31
0.0
  0
LINE
  5
17190
  8
AM_0
 10
656.88476224898795
 20
172.9364094926039
 30
0.0
 11
656.88476224898795
 21
155.9364094926039
 31
0.0
  0
LINE
  5
17191
  8
AM_0
 10
644.78811629446625
 20
149.72559568662149
 30
0.0
 11
642.58811629446643
 21
150.1004318596232
 31
0.0
  0
LINE
  5
17192
  8
AM_0
 10
665.50963598314024
 20
175.43640949260421
 30
0.0
 11
665.50963598314024
 21
172.9364094926039
 31
0.0
  0
LINE
  5
17193
  8
AM_0
 10
644.78811629446625
 20
167.93640949260441
 30
0.0
 11
646.78811629446648
 21
167.9364094926039
 31
0.0
  0
LINE
  5
17194
  8
AM_0
 10
644.78811629446625
 20
163.9364094926041
 30
0.0
 11
646.78811629446648
 21
163.9364094926041
 31
0.0
  0
LINE
  5
17195
  8
AM_0
 10
600.38476224898693
 20
151.4364094926039
 30
0.0
 11
600.38476224898693
 21
141.4364094926039
 31
0.0
  0
LINE
  5
17196
  8
AM_0
 10
610.65461072997039
 20
138.9364094926039
 30
0.0
 11
610.65461072997039
 21
150.4719000950721
 31
0.0
  0
ARC
  5
17197
  8
AM_0
 10
602.88476224898716
 20
141.4364094926039
 30
0.0
 40
2.5
 50
180.0
 51
270.0
  0
LINE
  5
17198
  8
AM_0
 10
618.8713460670798
 20
154.14129703597899
 30
0.0
 11
609.00963598314092
 21
155.82153597557561
 31
0.0
  0
LINE
  5
17199
  8
AM_0
 10
624.07470011255714
 20
167.9364094926039
 30
0.0
 11
624.07470011255737
 21
153.2547491645349
 31
0.0
  0
LINE
  5
1719A
  8
AM_0
 10
622.57470011255714
 20
153.51031928249029
 30
0.0
 11
622.57470011255714
 21
167.9364094926039
 31
0.0
  0
LINE
  5
1719B
  8
AM_0
 10
620.37134606707968
 20
167.9364094926039
 30
0.0
 11
620.37134606707968
 21
153.88572691802369
 31
0.0
  0
LINE
  5
1719C
  8
AM_0
 10
618.8713460670798
 20
154.14129703597899
 30
0.0
 11
618.8713460670798
 21
167.9364094926039
 31
0.0
  0
LINE
  5
1719D
  8
AM_0
 10
635.18476224898905
 20
167.9364094926039
 30
0.0
 11
635.18476224898905
 21
151.3618159040681
 31
0.0
  0
LINE
  5
1719E
  8
AM_0
 10
633.18476224898575
 20
151.70257606134251
 30
0.0
 11
633.18476224898563
 21
167.9364094926068
 31
0.0
  0
LINE
  5
1719F
  8
AM_0
 10
631.48140820351136
 20
167.9364094926039
 30
0.0
 11
631.48140820351171
 21
151.99279365755709
 31
0.0
  0
LINE
  5
171A0
  8
AM_0
 10
629.98140820351159
 20
152.2483637755123
 30
0.0
 11
629.98140820351159
 21
167.9364094926039
 31
0.0
  0
LINE
  5
171A1
  8
AM_0
 10
627.77805415803414
 20
167.9364094926039
 30
0.0
 11
627.77805415803437
 21
152.62377141104579
 31
0.0
  0
LINE
  5
171A2
  8
AM_0
 10
626.27805415803425
 20
152.87934152900141
 30
0.0
 11
626.27805415803425
 21
167.9364094926039
 31
0.0
  0
LINE
  5
171A3
  8
AM_0
 10
641.08811629446643
 20
150.3560019775783
 30
0.0
 11
641.08811629446643
 21
167.9364094926039
 31
0.0
  0
LINE
  5
171A4
  8
AM_0
 10
638.8881162944665
 20
167.9364094926039
 30
0.0
 11
638.8881162944665
 21
150.7308381505793
 31
0.0
  0
LINE
  5
171A5
  8
AM_0
 10
637.38811629446627
 20
150.9864082685346
 30
0.0
 11
637.38811629446627
 21
167.9364094926039
 31
0.0
  0
LINE
  5
171A6
  8
AM_0
 10
629.98140820351159
 20
152.2483637755123
 30
0.0
 11
627.77805415803437
 21
152.62377141104579
 31
0.0
  0
LINE
  5
171A7
  8
AM_0
 10
637.38811629446627
 20
150.9864082685346
 30
0.0
 11
635.18476224898905
 21
151.3618159040681
 31
0.0
  0
LINE
  5
171A8
  8
AM_0
 10
641.08811629446643
 20
150.3560019775783
 30
0.0
 11
638.8881162944665
 21
150.7308381505793
 31
0.0
  0
LINE
  5
171A9
  8
AM_0
 10
633.18476224898575
 20
151.70257606134251
 30
0.0
 11
631.48140820351171
 21
151.99279365755709
 31
0.0
  0
LINE
  5
171AA
  8
AM_0
 10
626.27805415803425
 20
152.87934152900141
 30
0.0
 11
624.07470011255737
 21
153.2547491645349
 31
0.0
  0
LINE
  5
171AB
  8
AM_0
 10
622.57470011255714
 20
153.51031928249029
 30
0.0
 11
620.37134606707968
 21
153.88572691802369
 31
0.0
  0
LINE
  5
171AC
  8
AM_0
 10
637.38811629446627
 20
167.9364094926039
 30
0.0
 11
638.8881162944665
 21
167.9364094926039
 31
0.0
  0
LINE
  5
171AD
  8
AM_0
 10
637.38811629446627
 20
163.93640949260359
 30
0.0
 11
638.8881162944665
 21
163.93640949260359
 31
0.0
  0
LINE
  5
171AE
  8
AM_0
 10
633.18476224898563
 20
167.9364094926039
 30
0.0
 11
635.18476224898905
 21
167.9364094926039
 31
0.0
  0
LINE
  5
171AF
  8
AM_0
 10
633.18476224898563
 20
163.93640949260359
 30
0.0
 11
635.18476224898905
 21
163.93640949260359
 31
0.0
  0
LINE
  5
171B0
  8
AM_0
 10
629.98140820351159
 20
167.9364094926039
 30
0.0
 11
631.48140820351136
 21
167.9364094926039
 31
0.0
  0
LINE
  5
171B1
  8
AM_0
 10
629.98140820351125
 20
163.93640949260359
 30
0.0
 11
631.48140820351136
 21
163.93640949260359
 31
0.0
  0
LINE
  5
171B2
  8
AM_0
 10
622.57470011255714
 20
167.9364094926039
 30
0.0
 11
624.07470011255714
 21
167.9364094926039
 31
0.0
  0
LINE
  5
171B3
  8
AM_0
 10
622.57470011255714
 20
163.93640949260359
 30
0.0
 11
624.07470011255714
 21
163.93640949260359
 31
0.0
  0
LINE
  5
171B4
  8
AM_0
 10
626.27805415803425
 20
167.9364094926039
 30
0.0
 11
627.77805415803414
 21
167.9364094926039
 31
0.0
  0
LINE
  5
171B5
  8
AM_0
 10
626.27805415803425
 20
163.93640949260359
 30
0.0
 11
627.77805415803414
 21
163.93640949260359
 31
0.0
  0
LINE
  5
171B6
  8
AM_0
 10
618.8713460670798
 20
167.9364094926039
 30
0.0
 11
620.37134606707968
 21
167.9364094926039
 31
0.0
  0
LINE
  5
171B7
  8
AM_0
 10
618.8713460670798
 20
163.93640949260359
 30
0.0
 11
620.37134606707968
 21
163.93640949260359
 31
0.0
  0
LINE
  5
171B8
  8
AM_0
 10
594.00963598314092
 20
155.9364094926039
 30
0.0
 11
594.00963598314092
 21
171.93640949260359
 31
0.0
  0
LINE
  5
171B9
  8
AM_0
 10
609.00963598314092
 20
155.82153597557561
 30
0.0
 11
609.00963598314092
 21
172.9364094926039
 31
0.0
  0
LINE
  5
171BA
  8
AM_0
 10
609.78476224898691
 20
150.62220426530649
 30
0.0
 11
609.78476224898714
 21
154.6755969106901
 31
0.0
  0
LINE
  5
171BB
  8
AM_0
 10
594.00963598314092
 20
155.9364094926039
 30
0.0
 11
594.00963598314092
 21
152.43640949260379
 31
0.0
  0
LINE
  5
171BC
  8
AM_0
 10
599.88476224898716
 20
151.9364094926037
 30
0.0
 11
594.50963598314047
 21
151.9364094926037
 31
0.0
  0
ARC
  5
171BD
  8
AM_0
 10
599.88476224898716
 20
151.4364094926039
 30
0.0
 40
0.5
 50
0.0
 51
90.0
  0
LINE
  5
171BE
  8
AM_0
 10
599.88476224898716
 20
151.9364094926037
 30
0.0
 11
602.05906711214607
 21
151.9364094926037
 31
0.0
  0
ARC
  5
171BF
  8
AM_0
 10
594.50963598314047
 20
152.43640949260379
 30
0.0
 40
0.5
 50
180.0
 51
270.0
  0
LINE
  5
171C0
  8
AM_0
 10
594.00963598314092
 20
155.9364094926039
 30
0.0
 11
602.38476224898773
 21
155.93640949260359
 31
0.0
  0
ARC
  5
171C1
  8
AM_0
 10
595.00963598314047
 20
171.93640949260359
 30
0.0
 40
1.0
 50
90.0
 51
180.0
  0
LINE
  5
171C2
  8
AM_0
 10
598.50963598314024
 20
175.43640949260421
 30
0.0
 11
598.50963598314024
 21
172.9364094926039
 31
0.0
  0
ARC
  5
171C3
  8
AM_0
 10
663.68321598314037
 20
184.54638949260371
 30
0.0
 40
1.5
 50
89.999997000002296
 51
178.4999972999976
  0
ARC
  5
171C4
  8
AM_0
 10
652.57091598314037
 20
234.9364094926039
 30
0.0
 40
1.000005699999998
 50
89.999997000002296
 51
270.000010000001
  0
ARC
  5
171C5
  8
AM_0
 10
651.34465598314046
 20
234.92639949260391
 30
0.0
 40
1.3300148000000001
 50
89.729432999998977
 51
270.27058000000142
  0
LINE
  5
171C6
  8
AM_0
 10
618.98961598314031
 20
222.4364094926039
 30
0.0
 11
618.98961598314031
 21
217.57641949260389
 31
0.0
  0
LINE
  5
171C7
  8
AM_0
 10
618.50963598314047
 20
222.4364094926039
 30
0.0
 11
618.50963598314047
 21
217.43640949260379
 31
0.0
  0
ARC
  5
171C8
  8
AM_0
 10
619.98961598314031
 20
217.57641949260389
 30
0.0
 40
1.0
 50
179.99999931675049
 51
270.000010000001
  0
ARC
  5
171C9
  8
AM_0
 10
620.00963598314036
 20
217.43640949260379
 30
0.0
 40
1.5
 50
179.99999931675049
 51
270.000010000001
  0
ARC
  5
171CA
  8
AM_0
 10
620.00963598314036
 20
222.4364094926039
 30
0.0
 40
1.02
 50
89.999997000002296
 51
180.0
  0
ARC
  5
171CB
  8
AM_0
 10
620.00963598314036
 20
222.4364094926039
 30
0.0
 40
1.5
 50
89.999997000002296
 51
180.0
  0
CIRCLE
  5
171CC
  8
AM_0
 10
613.50963598314036
 20
221.43640949260379
 30
0.0
 40
1.149999999999999
  0
CIRCLE
  5
171CD
  8
AM_0
 10
613.50963598314036
 20
221.43640949260379
 30
0.0
 40
1.1000000000000001
  0
CIRCLE
  5
171CE
  8
AM_0
 10
608.50963598314036
 20
221.43640949260379
 30
0.0
 40
1.0
  0
LINE
  5
171CF
  8
AM_0
 10
603.0296559831404
 20
222.4364094926039
 30
0.0
 11
603.0296559831404
 21
217.57641949260389
 31
0.0
  0
LINE
  5
171D0
  8
AM_0
 10
603.50963598314036
 20
222.4364094926039
 30
0.0
 11
603.50963598314036
 21
217.43640949260379
 31
0.0
  0
ARC
  5
171D1
  8
AM_0
 10
602.0296559831404
 20
217.57641949260389
 30
0.0
 40
1.0
 50
270.0
 51
0.0000100000010064
  0
ARC
  5
171D2
  8
AM_0
 10
602.00963598314024
 20
217.43640949260379
 30
0.0
 40
1.5
 50
270.0
 51
0.0000100000010064
  0
ARC
  5
171D3
  8
AM_0
 10
602.00963598314024
 20
222.4364094926039
 30
0.0
 40
1.02
 50
359.999989999999
 51
89.999997000002296
  0
ARC
  5
171D4
  8
AM_0
 10
602.00963598314024
 20
222.4364094926039
 30
0.0
 40
1.5
 50
359.999989999999
 51
89.999997000002296
  0
LINE
  5
171D5
  8
AM_0
 10
586.26964598314044
 20
189.56646949260389
 30
0.0
 11
582.80965598314015
 21
202.47643949260379
 31
0.0
  0
ARC
  5
171D6
  8
AM_0
 10
580.01659598314041
 20
187.42944949260371
 30
0.0
 40
0.99304521
 50
269.59731999999991
 51
0.4026900000005563
  0
LINE
  5
171D7
  8
AM_0
 10
586.29961598314026
 20
189.43640949260379
 30
0.0
 11
581.00963598314036
 21
189.43640949260379
 31
0.0
  0
LINE
  5
171D8
  8
AM_0
 10
582.00963598314047
 20
189.43646949260389
 30
0.0
 11
587.73543598313995
 21
180.61953949260371
 31
0.0
  0
ARC
  5
171D9
  8
AM_0
 10
588.99345598314017
 20
181.43640949260379
 30
0.0
 40
1.5
 50
213.0000000000019
 51
270.000010000001
  0
ARC
  5
171DA
  8
AM_0
 10
588.20836598314054
 20
190.08264949260379
 30
0.0
 40
2.0062942999999991
 50
194.91156000000259
 51
269.75067000000109
  0
LINE
  5
171DB
  8
AM_0
 10
580.00963598314036
 20
186.43640949260359
 30
0.0
 11
573.00963598314024
 21
186.43640949260359
 31
0.0
  0
ARC
  5
171DC
  8
AM_0
 10
580.01726598314053
 20
198.88879949260379
 30
0.0
 40
0.99237448
 50
269.5580300000035
 51
0.44198000000195
  0
ARC
  5
171DD
  8
AM_0
 10
581.36595598314022
 20
202.09265949260379
 30
0.0
 40
1.4937901
 50
14.887079999999211
 51
90.243576000004794
  0
LINE
  5
171DE
  8
AM_0
 10
580.00963598314036
 20
197.89636949260381
 30
0.0
 11
573.00963598314024
 21
197.89636949260381
 31
0.0
  0
ARC
  5
171DF
  8
AM_0
 10
587.66960598314017
 20
214.93640949260379
 30
0.0
 40
1.0000040999999991
 50
89.999997000002296
 51
270.000010000001
  0
ARC
  5
171E0
  8
AM_0
 10
584.18962598314044
 20
214.8963694926039
 30
0.0
 40
1.6800077
 50
89.999997000002296
 51
270.000010000001
  0
ARC
  5
171E1
  8
AM_0
 10
587.66966598314025
 20
224.93640949260379
 30
0.0
 40
1.000025599999997
 50
89.589469000002197
 51
270.41052999999681
  0
ARC
  5
171E2
  8
AM_0
 10
583.96965598314046
 20
224.9063794926038
 30
0.0
 40
1.460011199999999
 50
89.775249999996646
 51
270.22475000000333
  0
LINE
  5
171E3
  8
AM_0
 10
581.00963598314036
 20
212.7863794926038
 30
0.0
 11
573.00963598314024
 21
212.7863794926038
 31
0.0
  0
LINE
  5
171E4
  8
AM_0
 10
602.00963598314024
 20
276.42639949260388
 30
0.0
 11
583.9639159831404
 21
276.42639949260388
 31
0.0
  0
LINE
  5
171E5
  8
AM_0
 10
602.0296559831404
 20
283.30639949260387
 30
0.0
 11
584.18962598314044
 21
283.30639949260387
 31
0.0
  0
LINE
  5
171E6
  8
AM_0
 10
587.66246598314024
 20
275.93640949260379
 30
0.0
 11
602.00963598314024
 21
275.93640949260379
 31
0.0
  0
LINE
  5
171E7
  8
AM_0
 10
587.66960598314017
 20
283.93640949260379
 30
0.0
 11
602.00963598314024
 21
283.93640949260379
 31
0.0
  0
LINE
  5
171E8
  8
AM_0
 10
687.00963598314013
 20
296.28637949260383
 30
0.0
 11
581.00963598314036
 21
296.28637949260383
 31
0.0
  0
ARC
  5
171E9
  8
AM_0
 10
652.57091598314037
 20
244.9364094926039
 30
0.0
 40
1.000005699999998
 50
89.999997000002296
 51
270.000010000001
  0
ARC
  5
171EA
  8
AM_0
 10
651.28270598314043
 20
244.9364094926039
 30
0.0
 40
1.2700266
 50
89.629329999995278
 51
270.37067999999999
  0
ARC
  5
171EB
  8
AM_0
 10
652.57091598314037
 20
254.93640949260379
 30
0.0
 40
1.000005699999998
 50
89.999997000002296
 51
270.000010000001
  0
ARC
  5
171EC
  8
AM_0
 10
651.28270598314043
 20
254.94641949260381
 30
0.0
 40
1.2700266
 50
89.629329999995278
 51
270.37067999999999
  0
ARC
  5
171ED
  8
AM_0
 10
652.57091598314037
 20
264.93640949260379
 30
0.0
 40
1.000005699999998
 50
89.999997000002296
 51
270.000010000001
  0
ARC
  5
171EE
  8
AM_0
 10
651.34465598314046
 20
264.95141949260392
 30
0.0
 40
1.3350147999999991
 50
89.730443999998613
 51
270.2695700000001
  0
ARC
  5
171EF
  8
AM_0
 10
619.98961598314031
 20
282.29638949260391
 30
0.0
 40
1.0
 50
89.999997000002296
 51
180.0
  0
ARC
  5
171F0
  8
AM_0
 10
620.00963598314036
 20
282.4364094926039
 30
0.0
 40
1.5
 50
89.999997000002296
 51
180.0
  0
LINE
  5
171F1
  8
AM_0
 10
618.50963598314047
 20
277.43640949260379
 30
0.0
 11
618.50963598314047
 21
282.4364094926039
 31
0.0
  0
LINE
  5
171F2
  8
AM_0
 10
618.98961598314031
 20
277.43640949260379
 30
0.0
 11
618.98961598314031
 21
282.29638949260391
 31
0.0
  0
ARC
  5
171F3
  8
AM_0
 10
620.00963598314036
 20
277.43640949260379
 30
0.0
 40
1.02
 50
179.999999316757
 51
270.000010000001
  0
ARC
  5
171F4
  8
AM_0
 10
620.00963598314036
 20
277.43640949260379
 30
0.0
 40
1.5
 50
179.99999931675049
 51
270.000010000001
  0
CIRCLE
  5
171F5
  8
AM_0
 10
613.50963598314036
 20
278.4364094926039
 30
0.0
 40
1.1000000000000001
  0
CIRCLE
  5
171F6
  8
AM_0
 10
613.50963598314036
 20
278.4364094926039
 30
0.0
 40
1.149999999999999
  0
CIRCLE
  5
171F7
  8
AM_0
 10
608.50963598314036
 20
278.4364094926039
 30
0.0
 40
1.0
  0
ARC
  5
171F8
  8
AM_0
 10
602.0296559831404
 20
282.29638949260391
 30
0.0
 40
1.0
 50
359.999989999999
 51
89.999997000002296
  0
ARC
  5
171F9
  8
AM_0
 10
602.00963598314024
 20
282.4364094926039
 30
0.0
 40
1.5
 50
359.999989999999
 51
89.999997000002296
  0
LINE
  5
171FA
  8
AM_0
 10
603.0296559831404
 20
277.43640949260379
 30
0.0
 11
603.0296559831404
 21
282.29638949260391
 31
0.0
  0
ARC
  5
171FB
  8
AM_0
 10
602.00963598314024
 20
277.43640949260379
 30
0.0
 40
1.02
 50
270.0
 51
0.0000100000010064
  0
LINE
  5
171FC
  8
AM_0
 10
603.50963598314036
 20
277.43640949260379
 30
0.0
 11
603.50963598314036
 21
282.4364094926039
 31
0.0
  0
ARC
  5
171FD
  8
AM_0
 10
602.00963598314024
 20
277.43640949260379
 30
0.0
 40
1.5
 50
270.0
 51
0.0000100000010064
  0
LINE
  5
171FE
  8
AM_0
 10
585.45943598314022
 20
314.67159949260378
 30
0.0
 11
582.76958598314059
 21
302.15637949260378
 31
0.0
  0
LINE
  5
171FF
  8
AM_0
 10
586.26961598314051
 20
310.31634949260371
 30
0.0
 11
582.80962598314045
 21
297.39639949260379
 31
0.0
  0
ARC
  5
17200
  8
AM_0
 10
587.66966598314025
 20
274.93640949260379
 30
0.0
 40
1.000025599999997
 50
89.589469000002197
 51
270.41052999999681
  0
ARC
  5
17201
  8
AM_0
 10
583.96965598314046
 20
274.96643949260391
 30
0.0
 40
1.460011199999999
 50
89.775249999996646
 51
270.22475000000333
  0
ARC
  5
17202
  8
AM_0
 10
584.18962598314044
 20
284.98644949260381
 30
0.0
 40
1.6800077
 50
89.999997000002296
 51
270.000010000001
  0
ARC
  5
17203
  8
AM_0
 10
587.66960598314017
 20
284.9364094926039
 30
0.0
 40
1.0000040999999991
 50
89.999997000002296
 51
270.000010000001
  0
LINE
  5
17204
  8
AM_0
 10
581.00963598314036
 20
287.08642949260383
 30
0.0
 11
573.00963598314024
 21
287.08642949260383
 31
0.0
  0
ARC
  5
17205
  8
AM_0
 10
580.01054598314045
 20
300.97729949260378
 30
0.0
 40
0.9990923399999999
 50
359.94791999999558
 51
90.052078000000705
  0
ARC
  5
17206
  8
AM_0
 10
581.35948598314053
 20
297.78869949260388
 30
0.0
 40
1.5022733999999991
 50
270.00588000000278
 51
344.86349000000382
  0
ARC
  5
17207
  8
AM_0
 10
581.30394598314024
 20
302.4766894926039
 30
0.0
 40
1.500286
 50
269.83583000000482
 51
347.67369000000491
  0
LINE
  5
17208
  8
AM_0
 10
581.29961598314026
 20
300.9764394926039
 30
0.0
 11
583.71959598314038
 21
300.9764394926039
 31
0.0
  0
LINE
  5
17209
  8
AM_0
 10
580.00963598314036
 20
301.97643949260379
 30
0.0
 11
573.00963598314024
 21
301.97643949260379
 31
0.0
  0
ARC
  5
1720A
  8
AM_0
 10
580.00981598314024
 20
312.43664949260392
 30
0.0
 40
0.99980682
 50
359.98893000000248
 51
90.01106900000255
  0
LINE
  5
1720B
  8
AM_0
 10
584.54918598314043
 20
310.43640949260379
 30
0.0
 11
581.00963598314036
 21
310.43640949260379
 31
0.0
  0
ARC
  5
1720C
  8
AM_0
 10
586.92595598314028
 20
314.3564494926037
 30
0.0
 40
1.5
 50
89.999997000002296
 51
167.87020799999789
  0
ARC
  5
1720D
  8
AM_0
 10
588.20018598314027
 20
309.79724949260378
 30
0.0
 40
1.9991226
 50
90.015611000000348
 51
164.94920899999991
  0
ARC
  5
1720E
  8
AM_0
 10
586.48967598314027
 20
312.32641949260392
 30
0.0
 40
1.5
 50
89.999997000002296
 51
167.87020799999789
  0
ARC
  5
1720F
  8
AM_0
 10
586.78197598314046
 20
313.6864094926039
 30
0.0
 40
1.5
 50
89.999997000002296
 51
167.87020799999789
  0
LINE
  5
17210
  8
AM_0
 10
580.00963598314036
 20
313.43640949260379
 30
0.0
 11
573.00963598314024
 21
313.43640949260379
 31
0.0
  0
LINE
  5
17211
  8
AM_0
 10
775.50968580902111
 20
524.96658240734973
 30
0.0
 11
775.50968580902111
 21
605.94074805327409
 31
0.0
  0
LINE
  5
17212
  8
AM_0
 10
778.00964580902075
 20
592.19075805327407
 30
0.0
 11
778.00964580902075
 21
603.9407680532745
 31
0.0
  0
LINE
  5
17213
  8
AM_0
 10
733.00964580902098
 20
556.94075505327419
 30
0.0
 11
733.00964580902098
 21
605.94074805327409
 31
0.0
  0
LINE
  5
17214
  8
AM_0
 10
768.92969580902081
 20
545.22075405327405
 30
0.0
 11
783.38969580902096
 21
500.71075905327439
 31
0.0
  0
LINE
  5
17215
  8
AM_0
 10
764.16968580902096
 20
543.67076505327407
 30
0.0
 11
778.629685809021
 21
499.17076305327453
 31
0.0
  0
LINE
  5
17216
  8
AM_0
 10
775.50968580902111
 20
491.94076905327449
 30
0.0
 11
775.50968580902111
 21
508.77242323584608
 31
0.0
  0
LINE
  5
17217
  8
AM_0
 10
733.00964580902098
 20
505.05076905327439
 30
0.0
 11
733.00964580902098
 21
491.94076905327449
 31
0.0
  0
LINE
  5
17218
  8
AM_0
 10
776.00969580902085
 20
491.94076905327449
 30
0.0
 11
728.00969580902108
 21
491.94076905327449
 31
0.0
  0
ARC
  5
17219
  8
AM_0
 10
781.00964580902087
 20
499.94075505327447
 30
0.0
 40
2.5014680099999991
 50
197.9279300000012
 51
17.927920000001439
  0
ARC
  5
1721A
  8
AM_0
 10
781.01054580902098
 20
499.93533705327428
 30
0.0
 40
3.0008441999999982
 50
179.89645599999849
 51
354.94180999999992
  0
LINE
  5
1721B
  8
AM_0
 10
784.50968580902111
 20
500.44076805327433
 30
0.0
 11
784.29968580902084
 21
500.44076805327433
 31
0.0
  0
LINE
  5
1721C
  8
AM_0
 10
784.50968580902111
 20
500.44076805327433
 30
0.0
 11
784.50968580902111
 21
499.94075505327447
 31
0.0
  0
ARC
  5
1721D
  8
AM_0
 10
784.302055809021
 20
499.63643205327412
 30
0.0
 40
0.304344
 50
90.452182999997504
 51
173.5222409000009
  0
ARC
  5
1721E
  8
AM_0
 10
784.30127580902115
 20
499.6356850532743
 30
0.0
 40
0.8050760400000001
 50
90.111534000001541
 51
174.64936809999929
  0
ARC
  5
1721F
  8
AM_0
 10
776.01494580902101
 20
493.9354750532741
 30
0.0
 40
1.9947200399999989
 50
269.84812000000289
 51
0.1518700000000517
  0
LINE
  5
17220
  8
AM_0
 10
778.00964580902075
 20
501.08076705327409
 30
0.0
 11
778.00964580902075
 21
493.94075205327408
 31
0.0
  0
LINE
  5
17221
  8
AM_0
 10
775.50968580902111
 20
505.05076905327439
 30
0.0
 11
728.00969580902108
 21
505.05076905327439
 31
0.0
  0
LINE
  5
17222
  8
AM_0
 10
775.50968580902111
 20
592.83074805327442
 30
0.0
 11
728.00969580902108
 21
592.83074805327442
 31
0.0
  0
LINE
  5
17223
  8
AM_0
 10
745.00964580902075
 20
540.94075605327407
 30
0.0
 11
728.00969580902108
 21
540.94075605327407
 31
0.0
  0
LINE
  5
17224
  8
AM_0
 10
745.00964580902075
 20
556.94075505327419
 30
0.0
 11
728.00969580902108
 21
556.94075505327419
 31
0.0
  0
LINE
  5
17225
  8
AM_0
 10
778.00964580902075
 20
517.26077805327441
 30
0.0
 11
778.00964580902075
 21
583.4707540532745
 31
0.0
  0
ARC
  5
17226
  8
AM_0
 10
760.36724580902103
 20
542.43724605327429
 30
0.0
 40
9.0035201999999952
 50
18.008550000000159
 51
89.984471999995435
  0
LINE
  5
17227
  8
ﾁｭｳｼﾝｾﾝ1
 10
745.00964580902075
 20
536.13322332095561
 30
0.0
 11
745.00964580902075
 21
561.74828478559255
 31
0.0
  0
LINE
  5
17228
  8
AM_0
 10
750.50969580902085
 20
546.44075505327442
 30
0.0
 11
750.50969580902085
 21
551.4407560532743
 31
0.0
  0
LINE
  5
17229
  8
AM_0
 10
737.00969580902097
 20
546.44075505327442
 30
0.0
 11
737.00969580902097
 21
551.4407560532743
 31
0.0
  0
LINE
  5
1722A
  8
AM_0
 10
739.50968580902111
 20
546.44075505327442
 30
0.0
 11
739.50968580902111
 21
551.4407560532743
 31
0.0
  0
LINE
  5
1722B
  8
AM_0
 10
760.36967580902103
 20
546.44075505327442
 30
0.0
 11
750.50969580902085
 21
546.44075505327442
 31
0.0
  0
ARC
  5
1722C
  8
AM_0
 10
777.96161580902105
 20
511.44087705327439
 30
0.0
 40
4.0504481999999991
 50
315.07940000000309
 51
80.936479999998895
  0
LINE
  5
1722D
  8
AM_0
 10
775.50968580902111
 20
508.78076505327431
 30
0.0
 11
775.50968580902111
 21
505.05076905327439
 31
0.0
  0
ARC
  5
1722E
  8
AM_0
 10
760.36310580902102
 20
542.4402370532739
 30
0.0
 40
4.0005161999999981
 50
17.91392999999978
 51
89.905911999991829
  0
LINE
  5
1722F
  8
AM_0
 10
750.50969580902085
 20
546.9407560532743
 30
0.0
 11
739.50968580902111
 21
546.9407560532743
 31
0.0
  0
ARC
  5
17230
  8
AM_0
 10
745.01471580902114
 20
548.93477505327428
 30
0.0
 40
7.9940046000000002
 50
269.9641800000021
 51
341.82115999999718
  0
ARC
  5
17231
  8
AM_0
 10
745.00964580902075
 20
548.93474205327402
 30
0.0
 40
4.9952319000000003
 50
203.52671000000231
 51
336.47329999999539
  0
LINE
  5
17232
  8
AM_0
 10
739.50968580902111
 20
546.44075505327442
 30
0.0
 11
737.00969580902097
 21
546.44075505327442
 31
0.0
  0
LINE
  5
17233
  8
AM_0
 10
775.50968580902111
 20
582.58077105327425
 30
0.0
 11
733.00964580902098
 21
582.58077105327425
 31
0.0
  0
LINE
  5
17234
  8
AM_0
 10
760.36967580902103
 20
551.4407560532743
 30
0.0
 11
750.50969580902085
 21
551.4407560532743
 31
0.0
  0
LINE
  5
17235
  8
AM_0
 10
780.10967580902104
 20
586.33076805327414
 30
0.0
 11
780.10967580902104
 21
589.33076805327414
 31
0.0
  0
LINE
  5
17236
  8
AM_0
 10
776.80967580902097
 20
583.23076605327424
 30
0.0
 11
776.80967580902097
 21
592.43075805327408
 31
0.0
  0
ARC
  5
17237
  8
AM_0
 10
777.11192580902105
 20
586.32326805327421
 30
0.0
 40
2.9977641899999981
 50
264.21340999999683
 51
0.1435499999983971
  0
LINE
  5
17238
  8
AM_0
 10
776.80967580902097
 20
583.23076605327424
 30
0.0
 11
775.50968580902111
 21
583.23076605327424
 31
0.0
  0
ARC
  5
17239
  8
AM_0
 10
777.11186580902097
 20
589.32824805327414
 30
0.0
 40
2.99777994
 50
0.0478899999999952
 51
95.786117000002065
  0
LINE
  5
1723A
  8
AM_0
 10
776.80967580902097
 20
592.43075805327408
 30
0.0
 11
775.50968580902111
 21
592.43075805327408
 31
0.0
  0
ARC
  5
1723B
  8
AM_0
 10
745.00895580902113
 20
548.9388640532743
 30
0.0
 40
8.0019083999999996
 50
18.219839999997681
 51
89.994827000009096
  0
LINE
  5
1723C
  8
AM_0
 10
750.50969580902085
 20
550.94075505327442
 30
0.0
 11
739.50968580902111
 21
550.94075505327442
 31
0.0
  0
ARC
  5
1723D
  8
AM_0
 10
745.00964580902075
 20
548.93474205327402
 30
0.0
 40
5.0000519999999984
 50
23.653230000000779
 51
156.34676999999911
  0
LINE
  5
1723E
  8
AM_0
 10
739.50968580902111
 20
551.4407560532743
 30
0.0
 11
737.00969580902097
 21
551.4407560532743
 31
0.0
  0
LINE
  5
1723F
  8
AM_0
 10
776.00969580902085
 20
605.94074805327409
 30
0.0
 11
728.00969580902108
 21
605.94074805327409
 31
0.0
  0
ARC
  5
17240
  8
AM_0
 10
776.00915580902085
 20
603.94019805327412
 30
0.0
 40
2.0005360199999989
 50
0.015319999998247
 51
89.984671000001825
  0
LINE
  5
17241
  8
AM_0
 10
156.47958410245889
 20
314.91627022744422
 30
0.0
 11
164.81650189427361
 21
314.91627022744422
 31
0.0
  0
ARC
  5
17242
  8
AM_0
 10
150.48052556877349
 20
312.41627022744439
 30
0.0
 40
2.4999999999999969
 50
36.318373132786803
 51
143.6632170090401
  0
LINE
  5
17243
  8
AM_0
 10
150.48052556877349
 20
314.91627022744422
 30
0.0
 11
154.48221110068121
 21
314.91627022744422
 31
0.0
  0
LINE
  5
17244
  8
AM_0
 10
148.68052556877319
 20
314.91627022744422
 30
0.0
 11
148.68052556877279
 21
314.1512053847336
 31
0.0
  0
LINE
  5
17245
  8
AM_0
 10
148.68052556877339
 20
314.9162702274445
 30
0.0
 11
146.47884003686579
 21
314.91627022744422
 31
0.0
  0
LINE
  5
17246
  8
AM_0
 10
152.28052556877361
 20
314.91627022744422
 30
0.0
 11
152.2805255687739
 21
314.1512053847336
 31
0.0
  0
ARC
  5
17247
  8
AM_0
 10
171.48052556877349
 20
284.92833631192713
 30
0.0
 40
29.999999999999979
 50
75.043338795978215
 51
88.374920016412489
1001
GENIUS_GENOBJ-N-FIL_13
1002
{
1000
OWNER
1000
GEN
1002
}
1001
GENIUS_GENODEF_13
1002
{
1000
HIER
1070
     0
1002
}
1002
{
1000
MANEDIT
1070
     0
1002
}
1002
{
1000
NOSEL
1070
     0
1002
}
1002
{
1000
BEHIND
1070
     0
1002
}
1002
{
1000
OTHER
1070
     0
1002
}
1002
{
1000
REACTOR
1002
}
  0
LINE
  5
17248
  8
AM_0
 10
166.14368924327309
 20
314.91627022744422
 30
0.0
 11
172.33130137859931
 21
314.91627022744422
 31
0.0
  0
LINE
  5
17249
  8
AM_0
 10
120.46361556877351
 20
179.91638973570591
 30
0.0
 11
180.51362556877351
 21
179.91638973570591
 31
0.0
  0
LINE
  5
1724A
  8
1
  6
CONTINUOUS
 62
     7
 10
169.3453604798506
 20
172.92626973570131
 30
0.0
 11
131.54536047985081
 21
172.92626973570131
 31
0.0
  0
LINE
  5
1724B
  8
1
  6
CONTINUOUS
 62
     7
 10
119.0453604798474
 20
138.92626973570151
 30
0.0
 11
181.8453604798471
 21
138.92626973570151
 31
0.0
  0
LINE
  5
1724C
  8
1
  6
CONTINUOUS
 62
     7
 10
186.44536047984931
 20
151.92626973570131
 30
0.0
 11
114.4453604798493
 21
151.92626973570131
 31
0.0
  0
LINE
  5
1724D
  8
0
 10
116.945368109242
 20
175.43896973570611
 30
0.0
 11
183.94535285045251
 21
175.43896973570611
 31
0.0
  0
LINE
  5
1724E
  8
1
  6
CONTINUOUS
 62
     7
 10
114.44536047984801
 20
155.9262697357014
 30
0.0
 11
144.94536047984801
 21
155.9262697357014
 31
0.0
  0
LINE
  5
1724F
  8
1
  6
CONTINUOUS
 62
     7
 10
114.4453604798493
 20
171.9262697357016
 30
0.0
 11
114.4453604798493
 21
139.4262697357014
 31
0.0
  0
LINE
  5
17250
  8
1
  6
CONTINUOUS
 62
     7
 10
125.945360479849
 20
171.9262697357016
 30
0.0
 11
125.945360479849
 21
155.9262697357014
 31
0.0
  0
LINE
  5
17251
  8
1
  6
CONTINUOUS
 62
     7
 10
116.5453604798474
 20
150.46126973570159
 30
0.0
 11
116.5453604798474
 21
141.42626973570131
 31
0.0
  0
LINE
  5
17252
  8
1
  6
CONTINUOUS
 62
     7
 10
126.8152089608303
 20
151.92626973570131
 30
0.0
 11
126.8152089608303
 21
141.42626973569719
 31
0.0
  0
POLYLINE
  5
17253
  8
1
 62
     7
 66
     1
 10
0.0
 20
0.0
 30
0.0
 70
     8
  0
VERTEX
  5
17254
  8
1
 62
     7
 10
126.8149456768049
 20
141.4262226706274
 30
0.0
 70
    32
  0
VERTEX
  5
17255
  8
1
 62
     7
 10
126.8149456768049
 20
141.42222267062729
 30
0.0
 70
    32
  0
VERTEX
  5
17256
  8
1
 62
     7
 10
126.8149456768049
 20
141.4182226706275
 30
0.0
 70
    32
  0
VERTEX
  5
17257
  8
1
 62
     7
 10
126.8149456768049
 20
141.4132226706275
 30
0.0
 70
    32
  0
VERTEX
  5
17258
  8
1
 62
     7
 10
126.8149456768049
 20
141.4092226706274
 30
0.0
 70
    32
  0
VERTEX
  5
17259
  8
1
 62
     7
 10
126.8149456768049
 20
141.40522267062789
 30
0.0
 70
    32
  0
VERTEX
  5
1725A
  8
1
 62
     7
 10
126.8149456768049
 20
141.40022267062761
 30
0.0
 70
    32
  0
VERTEX
  5
1725B
  8
1
 62
     7
 10
126.8159456768048
 20
141.3962226706274
 30
0.0
 70
    32
  0
VERTEX
  5
1725C
  8
1
 62
     7
 10
126.8159456768048
 20
141.39222267062729
 30
0.0
 70
    32
  0
VERTEX
  5
1725D
  8
1
 62
     7
 10
126.8159456768048
 20
141.3882226706275
 30
0.0
 70
    32
  0
VERTEX
  5
1725E
  8
1
 62
     7
 10
126.8159456768048
 20
141.3832226706275
 30
0.0
 70
    32
  0
VERTEX
  5
1725F
  8
1
 62
     7
 10
126.8159456768048
 20
141.3792226706274
 30
0.0
 70
    32
  0
VERTEX
  5
17260
  8
1
 62
     7
 10
126.8159456768048
 20
141.37522267062729
 30
0.0
 70
    32
  0
VERTEX
  5
17261
  8
1
 62
     7
 10
126.8159456768048
 20
141.3712226706275
 30
0.0
 70
    32
  0
VERTEX
  5
17262
  8
1
 62
     7
 10
126.8159456768048
 20
141.36622267062751
 30
0.0
 70
    32
  0
VERTEX
  5
17263
  8
1
 62
     7
 10
126.8159456768048
 20
141.36222267062729
 30
0.0
 70
    32
  0
VERTEX
  5
17264
  8
1
 62
     7
 10
126.8159456768048
 20
141.35822267062761
 30
0.0
 70
    32
  0
VERTEX
  5
17265
  8
1
 62
     7
 10
126.8159456768048
 20
141.35322267062759
 30
0.0
 70
    32
  0
VERTEX
  5
17266
  8
1
 62
     7
 10
126.8159456768048
 20
141.3492226706274
 30
0.0
 70
    32
  0
VERTEX
  5
17267
  8
1
 62
     7
 10
126.8159456768048
 20
141.34522267062729
 30
0.0
 70
    32
  0
VERTEX
  5
17268
  8
1
 62
     7
 10
126.8159456768048
 20
141.3412226706275
 30
0.0
 70
    32
  0
VERTEX
  5
17269
  8
1
 62
     7
 10
126.8159456768048
 20
141.33622267062751
 30
0.0
 70
    32
  0
VERTEX
  5
1726A
  8
1
 62
     7
 10
126.8159456768048
 20
141.3322226706274
 30
0.0
 70
    32
  0
VERTEX
  5
1726B
  8
1
 62
     7
 10
126.8159456768048
 20
141.3282226706273
 30
0.0
 70
    32
  0
VERTEX
  5
1726C
  8
1
 62
     7
 10
126.8159456768048
 20
141.32422267062779
 30
0.0
 70
    32
  0
VERTEX
  5
1726D
  8
1
 62
     7
 10
126.81694567680459
 20
141.31922267062751
 30
0.0
 70
    32
  0
VERTEX
  5
1726E
  8
1
 62
     7
 10
126.81694567680459
 20
141.31522267062729
 30
0.0
 70
    32
  0
VERTEX
  5
1726F
  8
1
 62
     7
 10
126.81694567680459
 20
141.3112226706275
 30
0.0
 70
    32
  0
VERTEX
  5
17270
  8
1
 62
     7
 10
126.81694567680459
 20
141.3072226706276
 30
0.0
 70
    32
  0
VERTEX
  5
17271
  8
1
 62
     7
 10
126.81694567680459
 20
141.3022226706274
 30
0.0
 70
    32
  0
VERTEX
  5
17272
  8
1
 62
     7
 10
126.81694567680459
 20
141.2982226706273
 30
0.0
 70
    32
  0
VERTEX
  5
17273
  8
1
 62
     7
 10
126.81694567680459
 20
141.29422267062751
 30
0.0
 70
    32
  0
VERTEX
  5
17274
  8
1
 62
     7
 10
126.81694567680459
 20
141.28922267062751
 30
0.0
 70
    32
  0
VERTEX
  5
17275
  8
1
 62
     7
 10
126.81694567680459
 20
141.28522267062741
 30
0.0
 70
    32
  0
VERTEX
  5
17276
  8
1
 62
     7
 10
126.81694567680459
 20
141.28122267062719
 30
0.0
 70
    32
  0
VERTEX
  5
17277
  8
1
 62
     7
 10
126.8179456768048
 20
141.27722267062779
 30
0.0
 70
    32
  0
VERTEX
  5
17278
  8
1
 62
     7
 10
126.8179456768048
 20
141.2722226706274
 30
0.0
 70
    32
  0
VERTEX
  5
17279
  8
1
 62
     7
 10
126.8179456768048
 20
141.2682226706273
 30
0.0
 70
    32
  0
VERTEX
  5
1727A
  8
1
 62
     7
 10
126.8179456768048
 20
141.2642226706275
 30
0.0
 70
    32
  0
VERTEX
  5
1727B
  8
1
 62
     7
 10
126.8179456768048
 20
141.2602226706274
 30
0.0
 70
    32
  0
VERTEX
  5
1727C
  8
1
 62
     7
 10
126.8179456768048
 20
141.2552226706274
 30
0.0
 70
    32
  0
VERTEX
  5
1727D
  8
1
 62
     7
 10
126.8179456768048
 20
141.25122267062719
 30
0.0
 70
    32
  0
VERTEX
  5
1727E
  8
1
 62
     7
 10
126.8189456768048
 20
141.24722267062779
 30
0.0
 70
    32
  0
VERTEX
  5
1727F
  8
1
 62
     7
 10
126.8189456768048
 20
141.24322267062729
 30
0.0
 70
    32
  0
VERTEX
  5
17280
  8
1
 62
     7
 10
126.8189456768048
 20
141.23822267062729
 30
0.0
 70
    32
  0
VERTEX
  5
17281
  8
1
 62
     7
 10
126.8189456768048
 20
141.2342226706275
 30
0.0
 70
    32
  0
VERTEX
  5
17282
  8
1
 62
     7
 10
126.8189456768048
 20
141.23022267062771
 30
0.0
 70
    32
  0
VERTEX
  5
17283
  8
1
 62
     7
 10
126.8189456768048
 20
141.2252226706274
 30
0.0
 70
    32
  0
VERTEX
  5
17284
  8
1
 62
     7
 10
126.8189456768048
 20
141.2212226706273
 30
0.0
 70
    32
  0
VERTEX
  5
17285
  8
1
 62
     7
 10
126.81994567680491
 20
141.21722267062751
 30
0.0
 70
    32
  0
VERTEX
  5
17286
  8
1
 62
     7
 10
126.81994567680491
 20
141.21322267062769
 30
0.0
 70
    32
  0
VERTEX
  5
17287
  8
1
 62
     7
 10
126.81994567680491
 20
141.20822267062741
 30
0.0
 70
    32
  0
VERTEX
  5
17288
  8
1
 62
     7
 10
126.81994567680491
 20
141.20422267062759
 30
0.0
 70
    32
  0
VERTEX
  5
17289
  8
1
 62
     7
 10
126.81994567680491
 20
141.2002226706278
 30
0.0
 70
    32
  0
VERTEX
  5
1728A
  8
1
 62
     7
 10
126.8209456768045
 20
141.19622267062761
 30
0.0
 70
    32
  0
VERTEX
  5
1728B
  8
1
 62
     7
 10
126.8209456768045
 20
141.1912226706273
 30
0.0
 70
    32
  0
VERTEX
  5
1728C
  8
1
 62
     7
 10
126.8209456768045
 20
141.18722267062719
 30
0.0
 70
    32
  0
VERTEX
  5
1728D
  8
1
 62
     7
 10
126.8209456768045
 20
141.1832226706274
 30
0.0
 70
    32
  0
VERTEX
  5
1728E
  8
1
 62
     7
 10
126.8209456768045
 20
141.17922267062761
 30
0.0
 70
    32
  0
VERTEX
  5
1728F
  8
1
 62
     7
 10
126.8209456768045
 20
141.1742226706271
 30
0.0
 70
    32
  0
VERTEX
  5
17290
  8
1
 62
     7
 10
126.8219456768046
 20
141.17022267062779
 30
0.0
 70
    32
  0
VERTEX
  5
17291
  8
1
 62
     7
 10
126.8219456768046
 20
141.16622267062769
 30
0.0
 70
    32
  0
VERTEX
  5
17292
  8
1
 62
     7
 10
126.8219456768046
 20
141.1622226706275
 30
0.0
 70
    32
  0
VERTEX
  5
17293
  8
1
 62
     7
 10
126.8219456768046
 20
141.1572226706275
 30
0.0
 70
    32
  0
VERTEX
  5
17294
  8
1
 62
     7
 10
126.82294567680481
 20
141.15322267062771
 30
0.0
 70
    32
  0
VERTEX
  5
17295
  8
1
 62
     7
 10
126.82294567680481
 20
141.14922267062749
 30
0.0
 70
    32
  0
VERTEX
  5
17296
  8
1
 62
     7
 10
126.82294567680481
 20
141.1442226706273
 30
0.0
 70
    32
  0
VERTEX
  5
17297
  8
1
 62
     7
 10
126.82294567680481
 20
141.14022267062751
 30
0.0
 70
    32
  0
VERTEX
  5
17298
  8
1
 62
     7
 10
126.82294567680481
 20
141.13622267062729
 30
0.0
 70
    32
  0
VERTEX
  5
17299
  8
1
 62
     7
 10
126.8239456768048
 20
141.13222267062761
 30
0.0
 70
    32
  0
VERTEX
  5
1729A
  8
1
 62
     7
 10
126.8239456768048
 20
141.12722267062719
 30
0.0
 70
    32
  0
VERTEX
  5
1729B
  8
1
 62
     7
 10
126.8239456768048
 20
141.1232226706278
 30
0.0
 70
    32
  0
VERTEX
  5
1729C
  8
1
 62
     7
 10
126.8239456768048
 20
141.11922267062761
 30
0.0
 70
    32
  0
VERTEX
  5
1729D
  8
1
 62
     7
 10
126.8249456768048
 20
141.1152226706275
 30
0.0
 70
    32
  0
VERTEX
  5
1729E
  8
1
 62
     7
 10
126.8249456768048
 20
141.11022267062751
 30
0.0
 70
    32
  0
VERTEX
  5
1729F
  8
1
 62
     7
 10
126.8249456768048
 20
141.1062226706274
 30
0.0
 70
    32
  0
VERTEX
  5
172A0
  8
1
 62
     7
 10
126.82594567680449
 20
141.1022226706275
 30
0.0
 70
    32
  0
VERTEX
  5
172A1
  8
1
 62
     7
 10
126.82594567680449
 20
141.09822267062751
 30
0.0
 70
    32
  0
VERTEX
  5
172A2
  8
1
 62
     7
 10
126.82594567680449
 20
141.0932226706278
 30
0.0
 70
    32
  0
VERTEX
  5
172A3
  8
1
 62
     7
 10
126.82594567680449
 20
141.08922267062729
 30
0.0
 70
    32
  0
VERTEX
  5
172A4
  8
1
 62
     7
 10
126.8269456768047
 20
141.0852226706275
 30
0.0
 70
    32
  0
VERTEX
  5
172A5
  8
1
 62
     7
 10
126.8269456768047
 20
141.0812226706274
 30
0.0
 70
    32
  0
VERTEX
  5
172A6
  8
1
 62
     7
 10
126.8269456768047
 20
141.07622267062769
 30
0.0
 70
    32
  0
VERTEX
  5
172A7
  8
1
 62
     7
 10
126.8269456768047
 20
141.0722226706275
 30
0.0
 70
    32
  0
VERTEX
  5
172A8
  8
1
 62
     7
 10
126.8279456768048
 20
141.06822267062751
 30
0.0
 70
    32
  0
VERTEX
  5
172A9
  8
1
 62
     7
 10
126.8279456768048
 20
141.06422267062729
 30
0.0
 70
    32
  0
VERTEX
  5
172AA
  8
1
 62
     7
 10
126.8279456768048
 20
141.05922267062741
 30
0.0
 70
    32
  0
VERTEX
  5
172AB
  8
1
 62
     7
 10
126.82894567680481
 20
141.05522267062759
 30
0.0
 70
    32
  0
VERTEX
  5
172AC
  8
1
 62
     7
 10
126.82894567680481
 20
141.0512226706274
 30
0.0
 70
    32
  0
VERTEX
  5
172AD
  8
1
 62
     7
 10
126.82894567680481
 20
141.0462226706278
 30
0.0
 70
    32
  0
VERTEX
  5
172AE
  8
1
 62
     7
 10
126.8299456768049
 20
141.04222267062761
 30
0.0
 70
    32
  0
VERTEX
  5
172AF
  8
1
 62
     7
 10
126.8299456768049
 20
141.0382226706275
 30
0.0
 70
    32
  0
VERTEX
  5
172B0
  8
1
 62
     7
 10
126.8299456768049
 20
141.0342226706274
 30
0.0
 70
    32
  0
VERTEX
  5
172B1
  8
1
 62
     7
 10
126.8309456768045
 20
141.02922267062769
 30
0.0
 70
    32
  0
VERTEX
  5
172B2
  8
1
 62
     7
 10
126.8309456768045
 20
141.0252226706275
 30
0.0
 70
    32
  0
VERTEX
  5
172B3
  8
1
 62
     7
 10
126.8309456768045
 20
141.02122267062751
 30
0.0
 70
    32
  0
VERTEX
  5
172B4
  8
1
 62
     7
 10
126.83194567680469
 20
141.01722267062729
 30
0.0
 70
    32
  0
VERTEX
  5
172B5
  8
1
 62
     7
 10
126.83194567680469
 20
141.01222267062769
 30
0.0
 70
    32
  0
VERTEX
  5
172B6
  8
1
 62
     7
 10
126.83194567680469
 20
141.0082226706275
 30
0.0
 70
    32
  0
VERTEX
  5
172B7
  8
1
 62
     7
 10
126.8329456768048
 20
141.0042226706274
 30
0.0
 70
    32
  0
VERTEX
  5
172B8
  8
1
 62
     7
 10
126.8329456768048
 20
141.00022267062729
 30
0.0
 70
    32
  0
VERTEX
  5
172B9
  8
1
 62
     7
 10
126.8329456768048
 20
140.99522267062761
 30
0.0
 70
    32
  0
VERTEX
  5
172BA
  8
1
 62
     7
 10
126.8339456768047
 20
140.99122267062751
 30
0.0
 70
    32
  0
VERTEX
  5
172BB
  8
1
 62
     7
 10
126.8339456768047
 20
140.9872226706274
 30
0.0
 70
    32
  0
VERTEX
  5
172BC
  8
1
 62
     7
 10
126.83494567680449
 20
140.98322267062721
 30
0.0
 70
    32
  0
VERTEX
  5
172BD
  8
1
 62
     7
 10
126.83494567680449
 20
140.97822267062759
 30
0.0
 70
    32
  0
VERTEX
  5
172BE
  8
1
 62
     7
 10
126.83494567680449
 20
140.9742226706274
 30
0.0
 70
    32
  0
VERTEX
  5
172BF
  8
1
 62
     7
 10
126.8359456768047
 20
140.97022267062729
 30
0.0
 70
    32
  0
VERTEX
  5
172C0
  8
1
 62
     7
 10
126.8359456768047
 20
140.9662226706275
 30
0.0
 70
    32
  0
VERTEX
  5
172C1
  8
1
 62
     7
 10
126.8369456768047
 20
140.96122267062751
 30
0.0
 70
    32
  0
VERTEX
  5
172C2
  8
1
 62
     7
 10
126.8369456768047
 20
140.9572226706274
 30
0.0
 70
    32
  0
VERTEX
  5
172C3
  8
1
 62
     7
 10
126.8369456768047
 20
140.9532226706271
 30
0.0
 70
    32
  0
VERTEX
  5
172C4
  8
1
 62
     7
 10
126.83794567680491
 20
140.94922267062779
 30
0.0
 70
    32
  0
VERTEX
  5
172C5
  8
1
 62
     7
 10
126.83794567680491
 20
140.94422267062751
 30
0.0
 70
    32
  0
VERTEX
  5
172C6
  8
1
 62
     7
 10
126.8389456768046
 20
140.94022267062729
 30
0.0
 70
    32
  0
VERTEX
  5
172C7
  8
1
 62
     7
 10
126.8389456768046
 20
140.9362226706275
 30
0.0
 70
    32
  0
VERTEX
  5
172C8
  8
1
 62
     7
 10
126.8399456768046
 20
140.9322226706274
 30
0.0
 70
    32
  0
VERTEX
  5
172C9
  8
1
 62
     7
 10
126.8399456768046
 20
140.9272226706274
 30
0.0
 70
    32
  0
VERTEX
  5
172CA
  8
1
 62
     7
 10
126.8399456768046
 20
140.9232226706273
 30
0.0
 70
    32
  0
VERTEX
  5
172CB
  8
1
 62
     7
 10
126.84094567680479
 20
140.91922267062751
 30
0.0
 70
    32
  0
VERTEX
  5
172CC
  8
1
 62
     7
 10
126.84094567680479
 20
140.91522267062771
 30
0.0
 70
    32
  0
VERTEX
  5
172CD
  8
1
 62
     7
 10
126.8419456768049
 20
140.91022267062741
 30
0.0
 70
    32
  0
VERTEX
  5
172CE
  8
1
 62
     7
 10
126.8419456768049
 20
140.90622267062719
 30
0.0
 70
    32
  0
VERTEX
  5
172CF
  8
1
 62
     7
 10
126.8429456768049
 20
140.9022226706274
 30
0.0
 70
    32
  0
VERTEX
  5
172D0
  8
1
 62
     7
 10
126.8429456768049
 20
140.8982226706276
 30
0.0
 70
    32
  0
VERTEX
  5
172D1
  8
1
 62
     7
 10
126.84394567680459
 20
140.8942226706275
 30
0.0
 70
    32
  0
VERTEX
  5
172D2
  8
1
 62
     7
 10
126.84394567680459
 20
140.8892226706275
 30
0.0
 70
    32
  0
VERTEX
  5
172D3
  8
1
 62
     7
 10
126.8449456768047
 20
140.88522267062771
 30
0.0
 70
    32
  0
VERTEX
  5
172D4
  8
1
 62
     7
 10
126.8449456768047
 20
140.88122267062761
 30
0.0
 70
    32
  0
VERTEX
  5
172D5
  8
1
 62
     7
 10
126.845945676805
 20
140.87722267062739
 30
0.0
 70
    32
  0
VERTEX
  5
172D6
  8
1
 62
     7
 10
126.845945676805
 20
140.87222267062779
 30
0.0
 70
    32
  0
VERTEX
  5
172D7
  8
1
 62
     7
 10
126.84694567680501
 20
140.86822267062769
 30
0.0
 70
    32
  0
VERTEX
  5
172D8
  8
1
 62
     7
 10
126.84694567680501
 20
140.8642226706275
 30
0.0
 70
    32
  0
VERTEX
  5
172D9
  8
1
 62
     7
 10
126.8479456768045
 20
140.86022267062739
 30
0.0
 70
    32
  0
VERTEX
  5
172DA
  8
1
 62
     7
 10
126.8479456768045
 20
140.8552226706274
 30
0.0
 70
    32
  0
VERTEX
  5
172DB
  8
1
 62
     7
 10
126.8489456768046
 20
140.85122267062761
 30
0.0
 70
    32
  0
VERTEX
  5
172DC
  8
1
 62
     7
 10
126.8489456768046
 20
140.8472226706275
 30
0.0
 70
    32
  0
VERTEX
  5
172DD
  8
1
 62
     7
 10
126.84994567680479
 20
140.84322267062731
 30
0.0
 70
    32
  0
VERTEX
  5
172DE
  8
1
 62
     7
 10
126.84994567680479
 20
140.83822267062769
 30
0.0
 70
    32
  0
VERTEX
  5
172DF
  8
1
 62
     7
 10
126.8509456768048
 20
140.83422267062761
 30
0.0
 70
    32
  0
VERTEX
  5
172E0
  8
1
 62
     7
 10
126.8509456768048
 20
140.83022267062739
 30
0.0
 70
    32
  0
VERTEX
  5
172E1
  8
1
 62
     7
 10
126.8519456768047
 20
140.82622267062729
 30
0.0
 70
    32
  0
VERTEX
  5
172E2
  8
1
 62
     7
 10
126.8519456768047
 20
140.82122267062729
 30
0.0
 70
    32
  0
VERTEX
  5
172E3
  8
1
 62
     7
 10
126.8529456768045
 20
140.8172226706275
 30
0.0
 70
    32
  0
VERTEX
  5
172E4
  8
1
 62
     7
 10
126.8529456768045
 20
140.8132226706274
 30
0.0
 70
    32
  0
VERTEX
  5
172E5
  8
1
 62
     7
 10
126.853945676805
 20
140.80922267062729
 30
0.0
 70
    32
  0
VERTEX
  5
172E6
  8
1
 62
     7
 10
126.853945676805
 20
140.80522267062739
 30
0.0
 70
    32
  0
VERTEX
  5
172E7
  8
1
 62
     7
 10
126.8549456768045
 20
140.80022267062751
 30
0.0
 70
    32
  0
VERTEX
  5
172E8
  8
1
 62
     7
 10
126.85594567680501
 20
140.79622267062729
 30
0.0
 70
    32
  0
VERTEX
  5
172E9
  8
1
 62
     7
 10
126.85594567680501
 20
140.79222267062721
 30
0.0
 70
    32
  0
VERTEX
  5
172EA
  8
1
 62
     7
 10
126.8569456768046
 20
140.78822267062739
 30
0.0
 70
    32
  0
VERTEX
  5
172EB
  8
1
 62
     7
 10
126.8569456768046
 20
140.7832226706274
 30
0.0
 70
    32
  0
VERTEX
  5
172EC
  8
1
 62
     7
 10
126.8579456768045
 20
140.77922267062729
 30
0.0
 70
    32
  0
VERTEX
  5
172ED
  8
1
 62
     7
 10
126.8579456768045
 20
140.77522267062781
 30
0.0
 70
    32
  0
VERTEX
  5
172EE
  8
1
 62
     7
 10
126.85894567680469
 20
140.77122267062759
 30
0.0
 70
    32
  0
VERTEX
  5
172EF
  8
1
 62
     7
 10
126.8599456768048
 20
140.76622267062729
 30
0.0
 70
    32
  0
VERTEX
  5
172F0
  8
1
 62
     7
 10
126.8599456768048
 20
140.76222267062761
 30
0.0
 70
    32
  0
VERTEX
  5
172F1
  8
1
 62
     7
 10
126.8609456768047
 20
140.75822267062739
 30
0.0
 70
    32
  0
VERTEX
  5
172F2
  8
1
 62
     7
 10
126.8609456768047
 20
140.7542226706276
 30
0.0
 70
    32
  0
VERTEX
  5
172F3
  8
1
 62
     7
 10
126.86194567680469
 20
140.75022267062749
 30
0.0
 70
    32
  0
VERTEX
  5
172F4
  8
1
 62
     7
 10
126.8629456768044
 20
140.74522267062781
 30
0.0
 70
    32
  0
VERTEX
  5
172F5
  8
1
 62
     7
 10
126.8629456768044
 20
140.74122267062759
 30
0.0
 70
    32
  0
VERTEX
  5
172F6
  8
1
 62
     7
 10
126.8639456768047
 20
140.7372226706276
 30
0.0
 70
    32
  0
VERTEX
  5
172F7
  8
1
 62
     7
 10
126.8639456768047
 20
140.73322267062741
 30
0.0
 70
    32
  0
VERTEX
  5
172F8
  8
1
 62
     7
 10
126.86494567680489
 20
140.7282226706275
 30
0.0
 70
    32
  0
VERTEX
  5
172F9
  8
1
 62
     7
 10
126.8659456768048
 20
140.7242226706276
 30
0.0
 70
    32
  0
VERTEX
  5
172FA
  8
1
 62
     7
 10
126.8659456768048
 20
140.72022267062749
 30
0.0
 70
    32
  0
VERTEX
  5
172FB
  8
1
 62
     7
 10
126.8669456768046
 20
140.71622267062739
 30
0.0
 70
    32
  0
VERTEX
  5
172FC
  8
1
 62
     7
 10
126.86794567680489
 20
140.71222267062731
 30
0.0
 70
    32
  0
VERTEX
  5
172FD
  8
1
 62
     7
 10
126.86794567680489
 20
140.7072226706276
 30
0.0
 70
    32
  0
VERTEX
  5
172FE
  8
1
 62
     7
 10
126.868945676805
 20
140.7032226706275
 30
0.0
 70
    32
  0
VERTEX
  5
172FF
  8
1
 62
     7
 10
126.868945676805
 20
140.69922267062731
 30
0.0
 70
    32
  0
VERTEX
  5
17300
  8
1
 62
     7
 10
126.8699456768048
 20
140.69522267062791
 30
0.0
 70
    32
  0
VERTEX
  5
17301
  8
1
 62
     7
 10
126.87094567680469
 20
140.69022267062761
 30
0.0
 70
    32
  0
VERTEX
  5
17302
  8
1
 62
     7
 10
126.87094567680469
 20
140.68622267062739
 30
0.0
 70
    32
  0
VERTEX
  5
17303
  8
1
 62
     7
 10
126.8719456768043
 20
140.6822226706276
 30
0.0
 70
    32
  0
VERTEX
  5
17304
  8
1
 62
     7
 10
126.8729456768048
 20
140.67822267062749
 30
0.0
 70
    32
  0
VERTEX
  5
17305
  8
1
 62
     7
 10
126.8729456768048
 20
140.6742226706277
 30
0.0
 70
    32
  0
VERTEX
  5
17306
  8
1
 62
     7
 10
126.87394567680499
 20
140.66922267062739
 30
0.0
 70
    32
  0
VERTEX
  5
17307
  8
1
 62
     7
 10
126.8749456768048
 20
140.6652226706272
 30
0.0
 70
    32
  0
VERTEX
  5
17308
  8
1
 62
     7
 10
126.8749456768048
 20
140.66122267062781
 30
0.0
 70
    32
  0
VERTEX
  5
17309
  8
1
 62
     7
 10
126.8759456768047
 20
140.6572226706277
 30
0.0
 70
    32
  0
VERTEX
  5
1730A
  8
1
 62
     7
 10
126.87694567680489
 20
140.65222267062731
 30
0.0
 70
    32
  0
VERTEX
  5
1730B
  8
1
 62
     7
 10
126.87694567680489
 20
140.64822267062749
 30
0.0
 70
    32
  0
VERTEX
  5
1730C
  8
1
 62
     7
 10
126.8779456768047
 20
140.64422267062741
 30
0.0
 70
    32
  0
VERTEX
  5
1730D
  8
1
 62
     7
 10
126.8789456768047
 20
140.64022267062759
 30
0.0
 70
    32
  0
VERTEX
  5
1730E
  8
1
 62
     7
 10
126.8799456768046
 20
140.63622267062749
 30
0.0
 70
    32
  0
VERTEX
  5
1730F
  8
1
 62
     7
 10
126.8799456768046
 20
140.63122267062749
 30
0.0
 70
    32
  0
VERTEX
  5
17310
  8
1
 62
     7
 10
126.8809456768044
 20
140.6272226706273
 30
0.0
 70
    32
  0
VERTEX
  5
17311
  8
1
 62
     7
 10
126.88194567680451
 20
140.62322267062751
 30
0.0
 70
    32
  0
VERTEX
  5
17312
  8
1
 62
     7
 10
126.88194567680451
 20
140.61922267062741
 30
0.0
 70
    32
  0
VERTEX
  5
17313
  8
1
 62
     7
 10
126.88294567680509
 20
140.61522267062719
 30
0.0
 70
    32
  0
VERTEX
  5
17314
  8
1
 62
     7
 10
126.8839456768047
 20
140.61022267062759
 30
0.0
 70
    32
  0
VERTEX
  5
17315
  8
1
 62
     7
 10
126.88494567680461
 20
140.60622267062749
 30
0.0
 70
    32
  0
VERTEX
  5
17316
  8
1
 62
     7
 10
126.88494567680461
 20
140.60222267062741
 30
0.0
 70
    32
  0
VERTEX
  5
17317
  8
1
 62
     7
 10
126.88594567680479
 20
140.59822267062719
 30
0.0
 70
    32
  0
VERTEX
  5
17318
  8
1
 62
     7
 10
126.8869456768046
 20
140.5942226706274
 30
0.0
 70
    32
  0
VERTEX
  5
17319
  8
1
 62
     7
 10
126.8879456768048
 20
140.58922267062741
 30
0.0
 70
    32
  0
VERTEX
  5
1731A
  8
1
 62
     7
 10
126.8879456768048
 20
140.5852226706273
 30
0.0
 70
    32
  0
VERTEX
  5
1731B
  8
1
 62
     7
 10
126.8889456768046
 20
140.58122267062751
 30
0.0
 70
    32
  0
VERTEX
  5
1731C
  8
1
 62
     7
 10
126.8899456768044
 20
140.57722267062769
 30
0.0
 70
    32
  0
VERTEX
  5
1731D
  8
1
 62
     7
 10
126.8909456768048
 20
140.57322267062759
 30
0.0
 70
    32
  0
VERTEX
  5
1731E
  8
1
 62
     7
 10
126.8909456768048
 20
140.56822267062719
 30
0.0
 70
    32
  0
VERTEX
  5
1731F
  8
1
 62
     7
 10
126.89194567680489
 20
140.5642226706278
 30
0.0
 70
    32
  0
VERTEX
  5
17320
  8
1
 62
     7
 10
126.8929456768048
 20
140.5602226706277
 30
0.0
 70
    32
  0
VERTEX
  5
17321
  8
1
 62
     7
 10
126.89394567680461
 20
140.55622267062751
 30
0.0
 70
    32
  0
VERTEX
  5
17322
  8
1
 62
     7
 10
126.89394567680461
 20
140.5522226706274
 30
0.0
 70
    32
  0
VERTEX
  5
17323
  8
1
 62
     7
 10
126.8949456768048
 20
140.5472226706278
 30
0.0
 70
    32
  0
VERTEX
  5
17324
  8
1
 62
     7
 10
126.8959456768047
 20
140.54322267062761
 30
0.0
 70
    32
  0
VERTEX
  5
17325
  8
1
 62
     7
 10
126.8969456768048
 20
140.53922267062751
 30
0.0
 70
    32
  0
VERTEX
  5
17326
  8
1
 62
     7
 10
126.8979456768045
 20
140.53522267062729
 30
0.0
 70
    32
  0
VERTEX
  5
17327
  8
1
 62
     7
 10
126.8979456768045
 20
140.53122267062719
 30
0.0
 70
    32
  0
VERTEX
  5
17328
  8
1
 62
     7
 10
126.8989456768046
 20
140.52622267062759
 30
0.0
 70
    32
  0
VERTEX
  5
17329
  8
1
 62
     7
 10
126.8999456768048
 20
140.5222226706274
 30
0.0
 70
    32
  0
VERTEX
  5
1732A
  8
1
 62
     7
 10
126.9009456768048
 20
140.5182226706273
 30
0.0
 70
    32
  0
VERTEX
  5
1732B
  8
1
 62
     7
 10
126.9019456768049
 20
140.5142226706275
 30
0.0
 70
    32
  0
VERTEX
  5
1732C
  8
1
 62
     7
 10
126.9019456768049
 20
140.51022267062771
 30
0.0
 70
    32
  0
VERTEX
  5
1732D
  8
1
 62
     7
 10
126.9029456768048
 20
140.50522267062769
 30
0.0
 70
    32
  0
VERTEX
  5
1732E
  8
1
 62
     7
 10
126.9039456768047
 20
140.50122267062761
 30
0.0
 70
    32
  0
VERTEX
  5
1732F
  8
1
 62
     7
 10
126.9049456768048
 20
140.49722267062779
 30
0.0
 70
    32
  0
VERTEX
  5
17330
  8
1
 62
     7
 10
126.90594567680471
 20
140.49322267062769
 30
0.0
 70
    32
  0
VERTEX
  5
17331
  8
1
 62
     7
 10
126.9069456768048
 20
140.4892226706275
 30
0.0
 70
    32
  0
VERTEX
  5
17332
  8
1
 62
     7
 10
126.9069456768048
 20
140.48522267062739
 30
0.0
 70
    32
  0
VERTEX
  5
17333
  8
1
 62
     7
 10
126.9079456768045
 20
140.4802226706274
 30
0.0
 70
    32
  0
VERTEX
  5
17334
  8
1
 62
     7
 10
126.90894567680471
 20
140.47622267062761
 30
0.0
 70
    32
  0
VERTEX
  5
17335
  8
1
 62
     7
 10
126.9099456768048
 20
140.4722226706275
 30
0.0
 70
    32
  0
VERTEX
  5
17336
  8
1
 62
     7
 10
126.9109456768047
 20
140.46822267062731
 30
0.0
 70
    32
  0
VERTEX
  5
17337
  8
1
 62
     7
 10
126.91194567680461
 20
140.46422267062721
 30
0.0
 70
    32
  0
VERTEX
  5
17338
  8
1
 62
     7
 10
126.9129456768047
 20
140.45922267062761
 30
0.0
 70
    32
  0
VERTEX
  5
17339
  8
1
 62
     7
 10
126.9129456768047
 20
140.45522267062739
 30
0.0
 70
    32
  0
VERTEX
  5
1733A
  8
1
 62
     7
 10
126.9139456768047
 20
140.4512226706276
 30
0.0
 70
    32
  0
VERTEX
  5
1733B
  8
1
 62
     7
 10
126.9149456768049
 20
140.44722267062781
 30
0.0
 70
    32
  0
VERTEX
  5
1733C
  8
1
 62
     7
 10
126.9159456768047
 20
140.4432226706277
 30
0.0
 70
    32
  0
VERTEX
  5
1733D
  8
1
 62
     7
 10
126.9169456768045
 20
140.4392226706276
 30
0.0
 70
    32
  0
VERTEX
  5
1733E
  8
1
 62
     7
 10
126.91794567680481
 20
140.43422267062721
 30
0.0
 70
    32
  0
VERTEX
  5
1733F
  8
1
 62
     7
 10
126.9189456768049
 20
140.4302226706275
 30
0.0
 70
    32
  0
VERTEX
  5
17340
  8
1
 62
     7
 10
126.9199456768049
 20
140.4262226706272
 30
0.0
 70
    32
  0
VERTEX
  5
17341
  8
1
 62
     7
 10
126.92094567680461
 20
140.42222267062749
 30
0.0
 70
    32
  0
VERTEX
  5
17342
  8
1
 62
     7
 10
126.92094567680461
 20
140.41822267062739
 30
0.0
 70
    32
  0
VERTEX
  5
17343
  8
1
 62
     7
 10
126.9219456768043
 20
140.41422267062731
 30
0.0
 70
    32
  0
VERTEX
  5
17344
  8
1
 62
     7
 10
126.922945676805
 20
140.4092226706276
 30
0.0
 70
    32
  0
VERTEX
  5
17345
  8
1
 62
     7
 10
126.923945676805
 20
140.4052226706275
 30
0.0
 70
    32
  0
VERTEX
  5
17346
  8
1
 62
     7
 10
126.9249456768045
 20
140.40122267062731
 30
0.0
 70
    32
  0
VERTEX
  5
17347
  8
1
 62
     7
 10
126.9259456768046
 20
140.39722267062751
 30
0.0
 70
    32
  0
VERTEX
  5
17348
  8
1
 62
     7
 10
126.92694567680481
 20
140.39322267062769
 30
0.0
 70
    32
  0
VERTEX
  5
17349
  8
1
 62
     7
 10
126.9279456768048
 20
140.38922267062759
 30
0.0
 70
    32
  0
VERTEX
  5
1734A
  8
1
 62
     7
 10
126.9289456768047
 20
140.38422267062731
 30
0.0
 70
    32
  0
VERTEX
  5
1734B
  8
1
 62
     7
 10
126.92994567680449
 20
140.38022267062749
 30
0.0
 70
    32
  0
VERTEX
  5
1734C
  8
1
 62
     7
 10
126.9309456768044
 20
140.3762226706277
 30
0.0
 70
    32
  0
VERTEX
  5
1734D
  8
1
 62
     7
 10
126.9319456768049
 20
140.37222267062759
 30
0.0
 70
    32
  0
VERTEX
  5
1734E
  8
1
 62
     7
 10
126.93294567680501
 20
140.3682226706274
 30
0.0
 70
    32
  0
VERTEX
  5
1734F
  8
1
 62
     7
 10
126.9339456768047
 20
140.3642226706273
 30
0.0
 70
    32
  0
VERTEX
  5
17350
  8
1
 62
     7
 10
126.9349456768045
 20
140.3592226706273
 30
0.0
 70
    32
  0
VERTEX
  5
17351
  8
1
 62
     7
 10
126.93594567680471
 20
140.35522267062751
 30
0.0
 70
    32
  0
VERTEX
  5
17352
  8
1
 62
     7
 10
126.9369456768048
 20
140.35122267062769
 30
0.0
 70
    32
  0
VERTEX
  5
17353
  8
1
 62
     7
 10
126.9379456768047
 20
140.34722267062719
 30
0.0
 70
    32
  0
VERTEX
  5
17354
  8
1
 62
     7
 10
126.93894567680471
 20
140.3432226706278
 30
0.0
 70
    32
  0
VERTEX
  5
17355
  8
1
 62
     7
 10
126.9399456768044
 20
140.33922267062769
 30
0.0
 70
    32
  0
VERTEX
  5
17356
  8
1
 62
     7
 10
126.9409456768047
 20
140.3352226706275
 30
0.0
 70
    32
  0
VERTEX
  5
17357
  8
1
 62
     7
 10
126.94194567680491
 20
140.33022267062719
 30
0.0
 70
    32
  0
VERTEX
  5
17358
  8
1
 62
     7
 10
126.9429456768048
 20
140.3262226706274
 30
0.0
 70
    32
  0
VERTEX
  5
17359
  8
1
 62
     7
 10
126.9439456768046
 20
140.32222267062761
 30
0.0
 70
    32
  0
VERTEX
  5
1735A
  8
1
 62
     7
 10
126.94494567680481
 20
140.31822267062751
 30
0.0
 70
    32
  0
VERTEX
  5
1735B
  8
1
 62
     7
 10
126.9459456768049
 20
140.3142226706274
 30
0.0
 70
    32
  0
VERTEX
  5
1735C
  8
1
 62
     7
 10
126.9469456768048
 20
140.31022267062721
 30
0.0
 70
    32
  0
VERTEX
  5
1735D
  8
1
 62
     7
 10
126.94794567680469
 20
140.30522267062759
 30
0.0
 70
    32
  0
VERTEX
  5
1735E
  8
1
 62
     7
 10
126.9489456768043
 20
140.3012226706274
 30
0.0
 70
    32
  0
VERTEX
  5
1735F
  8
1
 62
     7
 10
126.9499456768048
 20
140.2972226706276
 30
0.0
 70
    32
  0
VERTEX
  5
17360
  8
1
 62
     7
 10
126.95094567680469
 20
140.29322267062781
 30
0.0
 70
    32
  0
VERTEX
  5
17361
  8
1
 62
     7
 10
126.9519456768048
 20
140.28922267062771
 30
0.0
 70
    32
  0
VERTEX
  5
17362
  8
1
 62
     7
 10
126.9529456768047
 20
140.2852226706276
 30
0.0
 70
    32
  0
VERTEX
  5
17363
  8
1
 62
     7
 10
126.95394567680491
 20
140.2812226706275
 30
0.0
 70
    32
  0
VERTEX
  5
17364
  8
1
 62
     7
 10
126.9549456768047
 20
140.2772226706272
 30
0.0
 70
    32
  0
VERTEX
  5
17365
  8
1
 62
     7
 10
126.9559456768047
 20
140.27222267062729
 30
0.0
 70
    32
  0
VERTEX
  5
17366
  8
1
 62
     7
 10
126.95694567680459
 20
140.26822267062749
 30
0.0
 70
    32
  0
VERTEX
  5
17367
  8
1
 62
     7
 10
126.9579456768044
 20
140.26422267062739
 30
0.0
 70
    32
  0
VERTEX
  5
17368
  8
1
 62
     7
 10
126.95994567680449
 20
140.26022267062729
 30
0.0
 70
    32
  0
VERTEX
  5
17369
  8
1
 62
     7
 10
126.9609456768047
 20
140.25622267062781
 30
0.0
 70
    32
  0
VERTEX
  5
1736A
  8
1
 62
     7
 10
126.9619456768046
 20
140.2522226706277
 30
0.0
 70
    32
  0
VERTEX
  5
1736B
  8
1
 62
     7
 10
126.96294567680479
 20
140.24822267062751
 30
0.0
 70
    32
  0
VERTEX
  5
1736C
  8
1
 62
     7
 10
126.9639456768046
 20
140.24422267062741
 30
0.0
 70
    32
  0
VERTEX
  5
1736D
  8
1
 62
     7
 10
126.9649456768048
 20
140.23922267062781
 30
0.0
 70
    32
  0
VERTEX
  5
1736E
  8
1
 62
     7
 10
126.96594567680469
 20
140.23522267062759
 30
0.0
 70
    32
  0
VERTEX
  5
1736F
  8
1
 62
     7
 10
126.9669456768044
 20
140.23122267062749
 30
0.0
 70
    32
  0
VERTEX
  5
17370
  8
1
 62
     7
 10
126.9679456768048
 20
140.22722267062741
 30
0.0
 70
    32
  0
VERTEX
  5
17371
  8
1
 62
     7
 10
126.9699456768048
 20
140.22322267062719
 30
0.0
 70
    32
  0
VERTEX
  5
17372
  8
1
 62
     7
 10
126.9709456768046
 20
140.2192226706278
 30
0.0
 70
    32
  0
VERTEX
  5
17373
  8
1
 62
     7
 10
126.97194567680479
 20
140.21522267062761
 30
0.0
 70
    32
  0
VERTEX
  5
17374
  8
1
 62
     7
 10
126.9729456768048
 20
140.21122267062751
 30
0.0
 70
    32
  0
VERTEX
  5
17375
  8
1
 62
     7
 10
126.9739456768048
 20
140.20622267062751
 30
0.0
 70
    32
  0
VERTEX
  5
17376
  8
1
 62
     7
 10
126.9749456768045
 20
140.20222267062769
 30
0.0
 70
    32
  0
VERTEX
  5
17377
  8
1
 62
     7
 10
126.9759456768046
 20
140.19822267062759
 30
0.0
 70
    32
  0
VERTEX
  5
17378
  8
1
 62
     7
 10
126.97794567680479
 20
140.19422267062751
 30
0.0
 70
    32
  0
VERTEX
  5
17379
  8
1
 62
     7
 10
126.9789456768048
 20
140.19022267062729
 30
0.0
 70
    32
  0
VERTEX
  5
1737A
  8
1
 62
     7
 10
126.9799456768045
 20
140.1862226706275
 30
0.0
 70
    32
  0
VERTEX
  5
1737B
  8
1
 62
     7
 10
126.98094567680469
 20
140.1822226706274
 30
0.0
 70
    32
  0
VERTEX
  5
1737C
  8
1
 62
     7
 10
126.9819456768048
 20
140.1782226706276
 30
0.0
 70
    32
  0
VERTEX
  5
1737D
  8
1
 62
     7
 10
126.9829456768047
 20
140.1742226706275
 30
0.0
 70
    32
  0
VERTEX
  5
1737E
  8
1
 62
     7
 10
126.9849456768045
 20
140.17022267062731
 30
0.0
 70
    32
  0
VERTEX
  5
1737F
  8
1
 62
     7
 10
126.9859456768047
 20
140.16522267062771
 30
0.0
 70
    32
  0
VERTEX
  5
17380
  8
1
 62
     7
 10
126.98694567680479
 20
140.16122267062761
 30
0.0
 70
    32
  0
VERTEX
  5
17381
  8
1
 62
     7
 10
126.9879456768048
 20
140.15722267062739
 30
0.0
 70
    32
  0
VERTEX
  5
17382
  8
1
 62
     7
 10
126.98894567680451
 20
140.15322267062729
 30
0.0
 70
    32
  0
VERTEX
  5
17383
  8
1
 62
     7
 10
126.9909456768047
 20
140.14922267062749
 30
0.0
 70
    32
  0
VERTEX
  5
17384
  8
1
 62
     7
 10
126.9919456768049
 20
140.1452226706277
 30
0.0
 70
    32
  0
VERTEX
  5
17385
  8
1
 62
     7
 10
126.99294567680469
 20
140.1412226706276
 30
0.0
 70
    32
  0
VERTEX
  5
17386
  8
1
 62
     7
 10
126.9939456768045
 20
140.13722267062741
 30
0.0
 70
    32
  0
VERTEX
  5
17387
  8
1
 62
     7
 10
126.99594567680489
 20
140.1332226706273
 30
0.0
 70
    32
  0
VERTEX
  5
17388
  8
1
 62
     7
 10
126.9969456768049
 20
140.1292226706272
 30
0.0
 70
    32
  0
VERTEX
  5
17389
  8
1
 62
     7
 10
126.99794567680441
 20
140.12522267062769
 30
0.0
 70
    32
  0
VERTEX
  5
1738A
  8
1
 62
     7
 10
126.99894567680479
 20
140.12022267062741
 30
0.0
 70
    32
  0
VERTEX
  5
1738B
  8
1
 62
     7
 10
127.000945676805
 20
140.11622267062731
 30
0.0
 70
    32
  0
VERTEX
  5
1738C
  8
1
 62
     7
 10
127.0019456768045
 20
140.11222267062749
 30
0.0
 70
    32
  0
VERTEX
  5
1738D
  8
1
 62
     7
 10
127.0029456768046
 20
140.1082226706277
 30
0.0
 70
    32
  0
VERTEX
  5
1738E
  8
1
 62
     7
 10
127.0039456768048
 20
140.10422267062751
 30
0.0
 70
    32
  0
VERTEX
  5
1738F
  8
1
 62
     7
 10
127.0059456768049
 20
140.1002226706274
 30
0.0
 70
    32
  0
VERTEX
  5
17390
  8
1
 62
     7
 10
127.00694567680451
 20
140.0962226706273
 30
0.0
 70
    32
  0
VERTEX
  5
17391
  8
1
 62
     7
 10
127.00794567680499
 20
140.09222267062779
 30
0.0
 70
    32
  0
VERTEX
  5
17392
  8
1
 62
     7
 10
127.0089456768049
 20
140.08822267062769
 30
0.0
 70
    32
  0
VERTEX
  5
17393
  8
1
 62
     7
 10
127.0109456768047
 20
140.08422267062761
 30
0.0
 70
    32
  0
VERTEX
  5
17394
  8
1
 62
     7
 10
127.0119456768045
 20
140.08022267062739
 30
0.0
 70
    32
  0
VERTEX
  5
17395
  8
1
 62
     7
 10
127.0129456768047
 20
140.07622267062729
 30
0.0
 70
    32
  0
VERTEX
  5
17396
  8
1
 62
     7
 10
127.0149456768047
 20
140.0722226706275
 30
0.0
 70
    32
  0
VERTEX
  5
17397
  8
1
 62
     7
 10
127.01594567680461
 20
140.0672226706275
 30
0.0
 70
    32
  0
VERTEX
  5
17398
  8
1
 62
     7
 10
127.0169456768044
 20
140.0632226706274
 30
0.0
 70
    32
  0
VERTEX
  5
17399
  8
1
 62
     7
 10
127.0189456768049
 20
140.05922267062721
 30
0.0
 70
    32
  0
VERTEX
  5
1739A
  8
1
 62
     7
 10
127.0199456768048
 20
140.05522267062739
 30
0.0
 70
    32
  0
VERTEX
  5
1739B
  8
1
 62
     7
 10
127.0209456768046
 20
140.05122267062731
 30
0.0
 70
    32
  0
VERTEX
  5
1739C
  8
1
 62
     7
 10
127.02294567680489
 20
140.04722267062749
 30
0.0
 70
    32
  0
VERTEX
  5
1739D
  8
1
 62
     7
 10
127.0239456768048
 20
140.04322267062739
 30
0.0
 70
    32
  0
VERTEX
  5
1739E
  8
1
 62
     7
 10
127.02494567680471
 20
140.03922267062731
 30
0.0
 70
    32
  0
VERTEX
  5
1739F
  8
1
 62
     7
 10
127.0269456768049
 20
140.03522267062749
 30
0.0
 70
    32
  0
VERTEX
  5
173A0
  8
1
 62
     7
 10
127.0279456768051
 20
140.0312226706273
 30
0.0
 70
    32
  0
VERTEX
  5
173A1
  8
1
 62
     7
 10
127.0289456768048
 20
140.02722267062751
 30
0.0
 70
    32
  0
VERTEX
  5
173A2
  8
1
 62
     7
 10
127.0309456768049
 20
140.0232226706274
 30
0.0
 70
    32
  0
VERTEX
  5
173A3
  8
1
 62
     7
 10
127.0319456768047
 20
140.0192226706273
 30
0.0
 70
    32
  0
VERTEX
  5
173A4
  8
1
 62
     7
 10
127.0329456768047
 20
140.01522267062779
 30
0.0
 70
    32
  0
VERTEX
  5
173A5
  8
1
 62
     7
 10
127.0349456768044
 20
140.01122267062769
 30
0.0
 70
    32
  0
VERTEX
  5
173A6
  8
1
 62
     7
 10
127.0359456768045
 20
140.00722267062761
 30
0.0
 70
    32
  0
VERTEX
  5
173A7
  8
1
 62
     7
 10
127.0379456768047
 20
140.00322267062739
 30
0.0
 70
    32
  0
VERTEX
  5
173A8
  8
1
 62
     7
 10
127.0389456768046
 20
139.99922267062729
 30
0.0
 70
    32
  0
VERTEX
  5
173A9
  8
1
 62
     7
 10
127.03994567680481
 20
139.9952226706275
 30
0.0
 70
    32
  0
VERTEX
  5
173AA
  8
1
 62
     7
 10
127.0419456768047
 20
139.99122267062739
 30
0.0
 70
    32
  0
VERTEX
  5
173AB
  8
1
 62
     7
 10
127.04294567680471
 20
139.9872226706276
 30
0.0
 70
    32
  0
VERTEX
  5
173AC
  8
1
 62
     7
 10
127.0449456768048
 20
139.9832226706275
 30
0.0
 70
    32
  0
VERTEX
  5
173AD
  8
1
 62
     7
 10
127.04594567680481
 20
139.97922267062731
 30
0.0
 70
    32
  0
VERTEX
  5
173AE
  8
1
 62
     7
 10
127.0469456768048
 20
139.97522267062749
 30
0.0
 70
    32
  0
VERTEX
  5
173AF
  8
1
 62
     7
 10
127.04894567680481
 20
139.9712226706277
 30
0.0
 70
    32
  0
VERTEX
  5
173B0
  8
1
 62
     7
 10
127.0499456768048
 20
139.96722267062759
 30
0.0
 70
    32
  0
VERTEX
  5
173B1
  8
1
 62
     7
 10
127.05194567680449
 20
139.96222267062731
 30
0.0
 70
    32
  0
VERTEX
  5
173B2
  8
1
 62
     7
 10
127.0529456768046
 20
139.95822267062749
 30
0.0
 70
    32
  0
VERTEX
  5
173B3
  8
1
 62
     7
 10
127.05494567680471
 20
139.9542226706277
 30
0.0
 70
    32
  0
VERTEX
  5
173B4
  8
1
 62
     7
 10
127.0559456768048
 20
139.95022267062751
 30
0.0
 70
    32
  0
VERTEX
  5
173B5
  8
1
 62
     7
 10
127.05794567680471
 20
139.94622267062741
 30
0.0
 70
    32
  0
VERTEX
  5
173B6
  8
1
 62
     7
 10
127.0589456768048
 20
139.9422226706273
 30
0.0
 70
    32
  0
VERTEX
  5
173B7
  8
1
 62
     7
 10
127.06094567680481
 20
139.93822267062779
 30
0.0
 70
    32
  0
VERTEX
  5
173B8
  8
1
 62
     7
 10
127.0619456768045
 20
139.93422267062769
 30
0.0
 70
    32
  0
VERTEX
  5
173B9
  8
1
 62
     7
 10
127.06394567680481
 20
139.93022267062759
 30
0.0
 70
    32
  0
VERTEX
  5
173BA
  8
1
 62
     7
 10
127.0649456768047
 20
139.9262226706274
 30
0.0
 70
    32
  0
VERTEX
  5
173BB
  8
1
 62
     7
 10
127.06694567680471
 20
139.92222267062729
 30
0.0
 70
    32
  0
VERTEX
  5
173BC
  8
1
 62
     7
 10
127.0679456768047
 20
139.9182226706279
 30
0.0
 70
    32
  0
VERTEX
  5
173BD
  8
1
 62
     7
 10
127.06994567680471
 20
139.9142226706274
 30
0.0
 70
    32
  0
VERTEX
  5
173BE
  8
1
 62
     7
 10
127.0709456768045
 20
139.9102226706276
 30
0.0
 70
    32
  0
VERTEX
  5
173BF
  8
1
 62
     7
 10
127.07294567680491
 20
139.90622267062739
 30
0.0
 70
    32
  0
VERTEX
  5
173C0
  8
1
 62
     7
 10
127.0739456768049
 20
139.90222267062731
 30
0.0
 70
    32
  0
VERTEX
  5
173C1
  8
1
 62
     7
 10
127.0759456768043
 20
139.89922267062741
 30
0.0
 70
    32
  0
VERTEX
  5
173C2
  8
1
 62
     7
 10
127.076945676805
 20
139.89522267062731
 30
0.0
 70
    32
  0
VERTEX
  5
173C3
  8
1
 62
     7
 10
127.07894567680449
 20
139.8912226706278
 30
0.0
 70
    32
  0
VERTEX
  5
173C4
  8
1
 62
     7
 10
127.0799456768046
 20
139.88722267062769
 30
0.0
 70
    32
  0
VERTEX
  5
173C5
  8
1
 62
     7
 10
127.08194567680481
 20
139.8832226706275
 30
0.0
 70
    32
  0
VERTEX
  5
173C6
  8
1
 62
     7
 10
127.0829456768049
 20
139.8792226706274
 30
0.0
 70
    32
  0
VERTEX
  5
173C7
  8
1
 62
     7
 10
127.0849456768044
 20
139.87522267062729
 30
0.0
 70
    32
  0
VERTEX
  5
173C8
  8
1
 62
     7
 10
127.086945676805
 20
139.87122267062779
 30
0.0
 70
    32
  0
VERTEX
  5
173C9
  8
1
 62
     7
 10
127.08794567680469
 20
139.86722267062771
 30
0.0
 70
    32
  0
VERTEX
  5
173CA
  8
1
 62
     7
 10
127.0899456768047
 20
139.86322267062761
 30
0.0
 70
    32
  0
VERTEX
  5
173CB
  8
1
 62
     7
 10
127.09094567680479
 20
139.85922267062739
 30
0.0
 70
    32
  0
VERTEX
  5
173CC
  8
1
 62
     7
 10
127.0929456768046
 20
139.85522267062731
 30
0.0
 70
    32
  0
VERTEX
  5
173CD
  8
1
 62
     7
 10
127.0949456768047
 20
139.85122267062749
 30
0.0
 70
    32
  0
VERTEX
  5
173CE
  8
1
 62
     7
 10
127.0959456768049
 20
139.84722267062739
 30
0.0
 70
    32
  0
VERTEX
  5
173CF
  8
1
 62
     7
 10
127.0979456768047
 20
139.8432226706276
 30
0.0
 70
    32
  0
VERTEX
  5
173D0
  8
1
 62
     7
 10
127.0989456768049
 20
139.83922267062741
 30
0.0
 70
    32
  0
VERTEX
  5
173D1
  8
1
 62
     7
 10
127.1009456768048
 20
139.83522267062759
 30
0.0
 70
    32
  0
VERTEX
  5
173D2
  8
1
 62
     7
 10
127.1029456768043
 20
139.83122267062791
 30
0.0
 70
    32
  0
VERTEX
  5
173D3
  8
1
 62
     7
 10
127.1039456768051
 20
139.82722267062769
 30
0.0
 70
    32
  0
VERTEX
  5
173D4
  8
1
 62
     7
 10
127.10594567680479
 20
139.82322267062759
 30
0.0
 70
    32
  0
VERTEX
  5
173D5
  8
1
 62
     7
 10
127.1079456768049
 20
139.8192226706274
 30
0.0
 70
    32
  0
VERTEX
  5
173D6
  8
1
 62
     7
 10
127.10894567680469
 20
139.81522267062729
 30
0.0
 70
    32
  0
VERTEX
  5
173D7
  8
1
 62
     7
 10
127.1109456768046
 20
139.8112226706275
 30
0.0
 70
    32
  0
VERTEX
  5
173D8
  8
1
 62
     7
 10
127.1129456768049
 20
139.80822267062729
 30
0.0
 70
    32
  0
VERTEX
  5
173D9
  8
1
 62
     7
 10
127.1139456768047
 20
139.8042226706275
 30
0.0
 70
    32
  0
VERTEX
  5
173DA
  8
1
 62
     7
 10
127.1159456768046
 20
139.8002226706277
 30
0.0
 70
    32
  0
VERTEX
  5
173DB
  8
1
 62
     7
 10
127.1179456768046
 20
139.79622267062749
 30
0.0
 70
    32
  0
VERTEX
  5
173DC
  8
1
 62
     7
 10
127.1189456768047
 20
139.79222267062741
 30
0.0
 70
    32
  0
VERTEX
  5
173DD
  8
1
 62
     7
 10
127.1209456768044
 20
139.78822267062719
 30
0.0
 70
    32
  0
VERTEX
  5
173DE
  8
1
 62
     7
 10
127.1229456768049
 20
139.7842226706278
 30
0.0
 70
    32
  0
VERTEX
  5
173DF
  8
1
 62
     7
 10
127.12394567680479
 20
139.78022267062769
 30
0.0
 70
    32
  0
VERTEX
  5
173E0
  8
1
 62
     7
 10
127.1259456768048
 20
139.77622267062759
 30
0.0
 70
    32
  0
VERTEX
  5
173E1
  8
1
 62
     7
 10
127.127945676805
 20
139.7722226706274
 30
0.0
 70
    32
  0
VERTEX
  5
173E2
  8
1
 62
     7
 10
127.1299456768046
 20
139.7682226706273
 30
0.0
 70
    32
  0
VERTEX
  5
173E3
  8
1
 62
     7
 10
127.1309456768048
 20
139.7642226706275
 30
0.0
 70
    32
  0
VERTEX
  5
173E4
  8
1
 62
     7
 10
127.13294567680479
 20
139.76122267062721
 30
0.0
 70
    32
  0
VERTEX
  5
173E5
  8
1
 62
     7
 10
127.1349456768047
 20
139.75722267062741
 30
0.0
 70
    32
  0
VERTEX
  5
173E6
  8
1
 62
     7
 10
127.1369456768048
 20
139.75322267062771
 30
0.0
 70
    32
  0
VERTEX
  5
173E7
  8
1
 62
     7
 10
127.1379456768048
 20
139.74922267062749
 30
0.0
 70
    32
  0
VERTEX
  5
173E8
  8
1
 62
     7
 10
127.1399456768047
 20
139.74522267062741
 30
0.0
 70
    32
  0
VERTEX
  5
173E9
  8
1
 62
     7
 10
127.1419456768047
 20
139.7412226706272
 30
0.0
 70
    32
  0
VERTEX
  5
173EA
  8
1
 62
     7
 10
127.14394567680471
 20
139.7372226706278
 30
0.0
 70
    32
  0
VERTEX
  5
173EB
  8
1
 62
     7
 10
127.1449456768047
 20
139.7332226706277
 30
0.0
 70
    32
  0
VERTEX
  5
173EC
  8
1
 62
     7
 10
127.14694567680471
 20
139.72922267062751
 30
0.0
 70
    32
  0
VERTEX
  5
173ED
  8
1
 62
     7
 10
127.1489456768048
 20
139.72622267062761
 30
0.0
 70
    32
  0
VERTEX
  5
173EE
  8
1
 62
     7
 10
127.15094567680489
 20
139.7222226706275
 30
0.0
 70
    32
  0
VERTEX
  5
173EF
  8
1
 62
     7
 10
127.1529456768048
 20
139.71822267062731
 30
0.0
 70
    32
  0
VERTEX
  5
173F0
  8
1
 62
     7
 10
127.1539456768048
 20
139.71422267062721
 30
0.0
 70
    32
  0
VERTEX
  5
173F1
  8
1
 62
     7
 10
127.15594567680451
 20
139.71022267062779
 30
0.0
 70
    32
  0
VERTEX
  5
173F2
  8
1
 62
     7
 10
127.1579456768048
 20
139.7062226706276
 30
0.0
 70
    32
  0
VERTEX
  5
173F3
  8
1
 62
     7
 10
127.1599456768049
 20
139.70222267062749
 30
0.0
 70
    32
  0
VERTEX
  5
173F4
  8
1
 62
     7
 10
127.161945676805
 20
139.69922267062759
 30
0.0
 70
    32
  0
VERTEX
  5
173F5
  8
1
 62
     7
 10
127.1629456768049
 20
139.6952226706274
 30
0.0
 70
    32
  0
VERTEX
  5
173F6
  8
1
 62
     7
 10
127.16494567680461
 20
139.6912226706273
 30
0.0
 70
    32
  0
VERTEX
  5
173F7
  8
1
 62
     7
 10
127.1669456768047
 20
139.68722267062719
 30
0.0
 70
    32
  0
VERTEX
  5
173F8
  8
1
 62
     7
 10
127.1689456768047
 20
139.6832226706274
 30
0.0
 70
    32
  0
VERTEX
  5
173F9
  8
1
 62
     7
 10
127.17094567680439
 20
139.67922267062761
 30
0.0
 70
    32
  0
VERTEX
  5
173FA
  8
1
 62
     7
 10
127.1729456768049
 20
139.67522267062751
 30
0.0
 70
    32
  0
VERTEX
  5
173FB
  8
1
 62
     7
 10
127.1749456768046
 20
139.67222267062749
 30
0.0
 70
    32
  0
VERTEX
  5
173FC
  8
1
 62
     7
 10
127.17694567680491
 20
139.66822267062739
 30
0.0
 70
    32
  0
VERTEX
  5
173FD
  8
1
 62
     7
 10
127.1779456768048
 20
139.66422267062731
 30
0.0
 70
    32
  0
VERTEX
  5
173FE
  8
1
 62
     7
 10
127.17994567680429
 20
139.66022267062749
 30
0.0
 70
    32
  0
VERTEX
  5
173FF
  8
1
 62
     7
 10
127.181945676805
 20
139.6562226706277
 30
0.0
 70
    32
  0
VERTEX
  5
17400
  8
1
 62
     7
 10
127.1839456768048
 20
139.6532226706274
 30
0.0
 70
    32
  0
VERTEX
  5
17401
  8
1
 62
     7
 10
127.18594567680471
 20
139.64922267062761
 30
0.0
 70
    32
  0
VERTEX
  5
17402
  8
1
 62
     7
 10
127.1879456768046
 20
139.6452226706275
 30
0.0
 70
    32
  0
VERTEX
  5
17403
  8
1
 62
     7
 10
127.1899456768049
 20
139.64122267062729
 30
0.0
 70
    32
  0
VERTEX
  5
17404
  8
1
 62
     7
 10
127.19194567680471
 20
139.63722267062789
 30
0.0
 70
    32
  0
VERTEX
  5
17405
  8
1
 62
     7
 10
127.1939456768048
 20
139.63422267062731
 30
0.0
 70
    32
  0
VERTEX
  5
17406
  8
1
 62
     7
 10
127.1959456768047
 20
139.63022267062749
 30
0.0
 70
    32
  0
VERTEX
  5
17407
  8
1
 62
     7
 10
127.19794567680439
 20
139.6262226706277
 30
0.0
 70
    32
  0
VERTEX
  5
17408
  8
1
 62
     7
 10
127.1999456768049
 20
139.62222267062759
 30
0.0
 70
    32
  0
VERTEX
  5
17409
  8
1
 62
     7
 10
127.2019456768046
 20
139.6182226706274
 30
0.0
 70
    32
  0
VERTEX
  5
1740A
  8
1
 62
     7
 10
127.20394567680469
 20
139.6152226706275
 30
0.0
 70
    32
  0
VERTEX
  5
1740B
  8
1
 62
     7
 10
127.2059456768045
 20
139.6112226706274
 30
0.0
 70
    32
  0
VERTEX
  5
1740C
  8
1
 62
     7
 10
127.2079456768048
 20
139.60722267062721
 30
0.0
 70
    32
  0
VERTEX
  5
1740D
  8
1
 62
     7
 10
127.20994567680479
 20
139.6032226706275
 30
0.0
 70
    32
  0
VERTEX
  5
1740E
  8
1
 62
     7
 10
127.2119456768047
 20
139.5992226706276
 30
0.0
 70
    32
  0
VERTEX
  5
1740F
  8
1
 62
     7
 10
127.2139456768047
 20
139.59622267062741
 30
0.0
 70
    32
  0
VERTEX
  5
17410
  8
1
 62
     7
 10
127.21594567680449
 20
139.59222267062759
 30
0.0
 70
    32
  0
VERTEX
  5
17411
  8
1
 62
     7
 10
127.2179456768048
 20
139.58822267062749
 30
0.0
 70
    32
  0
VERTEX
  5
17412
  8
1
 62
     7
 10
127.2199456768048
 20
139.5842226706273
 30
0.0
 70
    32
  0
VERTEX
  5
17413
  8
1
 62
     7
 10
127.22194567680469
 20
139.5812226706274
 30
0.0
 70
    32
  0
VERTEX
  5
17414
  8
1
 62
     7
 10
127.2239456768047
 20
139.57722267062729
 30
0.0
 70
    32
  0
VERTEX
  5
17415
  8
1
 62
     7
 10
127.2259456768048
 20
139.5732226706275
 30
0.0
 70
    32
  0
VERTEX
  5
17416
  8
1
 62
     7
 10
127.22794567680489
 20
139.56922267062731
 30
0.0
 70
    32
  0
VERTEX
  5
17417
  8
1
 62
     7
 10
127.22994567680431
 20
139.56622267062741
 30
0.0
 70
    32
  0
VERTEX
  5
17418
  8
1
 62
     7
 10
127.231945676805
 20
139.56222267062759
 30
0.0
 70
    32
  0
VERTEX
  5
17419
  8
1
 62
     7
 10
127.23394567680459
 20
139.55822267062749
 30
0.0
 70
    32
  0
VERTEX
  5
1741A
  8
1
 62
     7
 10
127.2359456768048
 20
139.55522267062759
 30
0.0
 70
    32
  0
VERTEX
  5
1741B
  8
1
 62
     7
 10
127.23894567680441
 20
139.5512226706274
 30
0.0
 70
    32
  0
VERTEX
  5
1741C
  8
1
 62
     7
 10
127.240945676805
 20
139.54722267062729
 30
0.0
 70
    32
  0
VERTEX
  5
1741D
  8
1
 62
     7
 10
127.2429456768045
 20
139.5432226706275
 30
0.0
 70
    32
  0
VERTEX
  5
1741E
  8
1
 62
     7
 10
127.2449456768048
 20
139.5402226706272
 30
0.0
 70
    32
  0
VERTEX
  5
1741F
  8
1
 62
     7
 10
127.2469456768047
 20
139.53622267062781
 30
0.0
 70
    32
  0
VERTEX
  5
17420
  8
1
 62
     7
 10
127.24894567680489
 20
139.5322226706277
 30
0.0
 70
    32
  0
VERTEX
  5
17421
  8
1
 62
     7
 10
127.2509456768048
 20
139.52922267062741
 30
0.0
 70
    32
  0
VERTEX
  5
17422
  8
1
 62
     7
 10
127.2529456768048
 20
139.52522267062761
 30
0.0
 70
    32
  0
VERTEX
  5
17423
  8
1
 62
     7
 10
127.2559456768047
 20
139.5212226706274
 30
0.0
 70
    32
  0
VERTEX
  5
17424
  8
1
 62
     7
 10
127.25794567680479
 20
139.51822267062749
 30
0.0
 70
    32
  0
VERTEX
  5
17425
  8
1
 62
     7
 10
127.2599456768048
 20
139.51422267062739
 30
0.0
 70
    32
  0
VERTEX
  5
17426
  8
1
 62
     7
 10
127.2619456768049
 20
139.51022267062729
 30
0.0
 70
    32
  0
VERTEX
  5
17427
  8
1
 62
     7
 10
127.2639456768047
 20
139.5072226706273
 30
0.0
 70
    32
  0
VERTEX
  5
17428
  8
1
 62
     7
 10
127.2669456768048
 20
139.50322267062751
 30
0.0
 70
    32
  0
VERTEX
  5
17429
  8
1
 62
     7
 10
127.26894567680471
 20
139.4992226706274
 30
0.0
 70
    32
  0
VERTEX
  5
1742A
  8
1
 62
     7
 10
127.2709456768048
 20
139.4962226706275
 30
0.0
 70
    32
  0
VERTEX
  5
1742B
  8
1
 62
     7
 10
127.2729456768047
 20
139.49222267062731
 30
0.0
 70
    32
  0
VERTEX
  5
1742C
  8
1
 62
     7
 10
127.27494567680441
 20
139.48822267062749
 30
0.0
 70
    32
  0
VERTEX
  5
1742D
  8
1
 62
     7
 10
127.2779456768048
 20
139.48522267062759
 30
0.0
 70
    32
  0
VERTEX
  5
1742E
  8
1
 62
     7
 10
127.2799456768049
 20
139.48122267062749
 30
0.0
 70
    32
  0
VERTEX
  5
1742F
  8
1
 62
     7
 10
127.2819456768049
 20
139.47722267062741
 30
0.0
 70
    32
  0
VERTEX
  5
17430
  8
1
 62
     7
 10
127.28394567680461
 20
139.4742226706274
 30
0.0
 70
    32
  0
VERTEX
  5
17431
  8
1
 62
     7
 10
127.28694567680481
 20
139.47022267062729
 30
0.0
 70
    32
  0
VERTEX
  5
17432
  8
1
 62
     7
 10
127.2889456768047
 20
139.46722267062739
 30
0.0
 70
    32
  0
VERTEX
  5
17433
  8
1
 62
     7
 10
127.2909456768047
 20
139.46322267062791
 30
0.0
 70
    32
  0
VERTEX
  5
17434
  8
1
 62
     7
 10
127.29294567680449
 20
139.45922267062781
 30
0.0
 70
    32
  0
VERTEX
  5
17435
  8
1
 62
     7
 10
127.29594567680471
 20
139.45622267062751
 30
0.0
 70
    32
  0
VERTEX
  5
17436
  8
1
 62
     7
 10
127.2979456768047
 20
139.45222267062741
 30
0.0
 70
    32
  0
VERTEX
  5
17437
  8
1
 62
     7
 10
127.2999456768048
 20
139.44922267062739
 30
0.0
 70
    32
  0
VERTEX
  5
17438
  8
1
 62
     7
 10
127.3029456768048
 20
139.44522267062769
 30
0.0
 70
    32
  0
VERTEX
  5
17439
  8
1
 62
     7
 10
127.30494567680491
 20
139.4412226706275
 30
0.0
 70
    32
  0
VERTEX
  5
1743A
  8
1
 62
     7
 10
127.3069456768048
 20
139.4382226706276
 30
0.0
 70
    32
  0
VERTEX
  5
1743B
  8
1
 62
     7
 10
127.3099456768048
 20
139.43422267062749
 30
0.0
 70
    32
  0
VERTEX
  5
1743C
  8
1
 62
     7
 10
127.3119456768048
 20
139.43122267062751
 30
0.0
 70
    32
  0
VERTEX
  5
1743D
  8
1
 62
     7
 10
127.31394567680491
 20
139.4272226706274
 30
0.0
 70
    32
  0
VERTEX
  5
1743E
  8
1
 62
     7
 10
127.31694567680491
 20
139.4242226706275
 30
0.0
 70
    32
  0
VERTEX
  5
1743F
  8
1
 62
     7
 10
127.3189456768045
 20
139.42022267062731
 30
0.0
 70
    32
  0
VERTEX
  5
17440
  8
1
 62
     7
 10
127.3219456768048
 20
139.41722267062741
 30
0.0
 70
    32
  0
VERTEX
  5
17441
  8
1
 62
     7
 10
127.3239456768046
 20
139.41322267062731
 30
0.0
 70
    32
  0
VERTEX
  5
17442
  8
1
 62
     7
 10
127.32594567680459
 20
139.4092226706278
 30
0.0
 70
    32
  0
VERTEX
  5
17443
  8
1
 62
     7
 10
127.32894567680459
 20
139.40622267062719
 30
0.0
 70
    32
  0
VERTEX
  5
17444
  8
1
 62
     7
 10
127.3309456768049
 20
139.40222267062779
 30
0.0
 70
    32
  0
VERTEX
  5
17445
  8
1
 62
     7
 10
127.3339456768043
 20
139.39922267062749
 30
0.0
 70
    32
  0
VERTEX
  5
17446
  8
1
 62
     7
 10
127.335945676805
 20
139.3952226706277
 30
0.0
 70
    32
  0
VERTEX
  5
17447
  8
1
 62
     7
 10
127.3389456768049
 20
139.3922226706274
 30
0.0
 70
    32
  0
VERTEX
  5
17448
  8
1
 62
     7
 10
127.34094567680469
 20
139.38822267062761
 30
0.0
 70
    32
  0
VERTEX
  5
17449
  8
1
 62
     7
 10
127.3429456768044
 20
139.38522267062771
 30
0.0
 70
    32
  0
VERTEX
  5
1744A
  8
1
 62
     7
 10
127.3459456768047
 20
139.38122267062761
 30
0.0
 70
    32
  0
VERTEX
  5
1744B
  8
1
 62
     7
 10
127.3479456768048
 20
139.37822267062759
 30
0.0
 70
    32
  0
VERTEX
  5
1744C
  8
1
 62
     7
 10
127.3509456768047
 20
139.37422267062749
 30
0.0
 70
    32
  0
VERTEX
  5
1744D
  8
1
 62
     7
 10
127.35294567680459
 20
139.37122267062759
 30
0.0
 70
    32
  0
VERTEX
  5
1744E
  8
1
 62
     7
 10
127.35594567680459
 20
139.36822267062729
 30
0.0
 70
    32
  0
VERTEX
  5
1744F
  8
1
 62
     7
 10
127.3579456768048
 20
139.3642226706275
 30
0.0
 70
    32
  0
VERTEX
  5
17450
  8
1
 62
     7
 10
127.36094567680431
 20
139.3612226706276
 30
0.0
 70
    32
  0
VERTEX
  5
17451
  8
1
 62
     7
 10
127.3629456768047
 20
139.35722267062749
 30
0.0
 70
    32
  0
VERTEX
  5
17452
  8
1
 62
     7
 10
127.3659456768047
 20
139.35422267062751
 30
0.0
 70
    32
  0
VERTEX
  5
17453
  8
1
 62
     7
 10
127.36794567680469
 20
139.3502226706274
 30
0.0
 70
    32
  0
VERTEX
  5
17454
  8
1
 62
     7
 10
127.37094567680469
 20
139.3472226706275
 30
0.0
 70
    32
  0
VERTEX
  5
17455
  8
1
 62
     7
 10
127.37394567680479
 20
139.3442226706276
 30
0.0
 70
    32
  0
VERTEX
  5
17456
  8
1
 62
     7
 10
127.3759456768047
 20
139.34022267062741
 30
0.0
 70
    32
  0
VERTEX
  5
17457
  8
1
 62
     7
 10
127.37894567680461
 20
139.33722267062751
 30
0.0
 70
    32
  0
VERTEX
  5
17458
  8
1
 62
     7
 10
127.3809456768049
 20
139.33322267062729
 30
0.0
 70
    32
  0
VERTEX
  5
17459
  8
1
 62
     7
 10
127.3839456768047
 20
139.33022267062739
 30
0.0
 70
    32
  0
VERTEX
  5
1745A
  8
1
 62
     7
 10
127.3869456768049
 20
139.32722267062749
 30
0.0
 70
    32
  0
VERTEX
  5
1745B
  8
1
 62
     7
 10
127.38894567680479
 20
139.32322267062739
 30
0.0
 70
    32
  0
VERTEX
  5
1745C
  8
1
 62
     7
 10
127.3919456768045
 20
139.3202226706274
 30
0.0
 70
    32
  0
VERTEX
  5
1745D
  8
1
 62
     7
 10
127.3939456768049
 20
139.3162226706273
 30
0.0
 70
    32
  0
VERTEX
  5
1745E
  8
1
 62
     7
 10
127.39694567680451
 20
139.3132226706274
 30
0.0
 70
    32
  0
VERTEX
  5
1745F
  8
1
 62
     7
 10
127.39994567680471
 20
139.31022267062741
 30
0.0
 70
    32
  0
VERTEX
  5
17460
  8
1
 62
     7
 10
127.4019456768044
 20
139.30622267062731
 30
0.0
 70
    32
  0
VERTEX
  5
17461
  8
1
 62
     7
 10
127.4049456768048
 20
139.30322267062741
 30
0.0
 70
    32
  0
VERTEX
  5
17462
  8
1
 62
     7
 10
127.4079456768049
 20
139.30022267062739
 30
0.0
 70
    32
  0
VERTEX
  5
17463
  8
1
 62
     7
 10
127.4099456768047
 20
139.29622267062771
 30
0.0
 70
    32
  0
VERTEX
  5
17464
  8
1
 62
     7
 10
127.41294567680509
 20
139.29322267062739
 30
0.0
 70
    32
  0
VERTEX
  5
17465
  8
1
 62
     7
 10
127.4159456768048
 20
139.29022267062749
 30
0.0
 70
    32
  0
VERTEX
  5
17466
  8
1
 62
     7
 10
127.4189456768046
 20
139.2872226706275
 30
0.0
 70
    32
  0
VERTEX
  5
17467
  8
1
 62
     7
 10
127.42094567680491
 20
139.2832226706274
 30
0.0
 70
    32
  0
VERTEX
  5
17468
  8
1
 62
     7
 10
127.42394567680481
 20
139.2802226706275
 30
0.0
 70
    32
  0
VERTEX
  5
17469
  8
1
 62
     7
 10
127.42694567680471
 20
139.27722267062751
 30
0.0
 70
    32
  0
VERTEX
  5
1746A
  8
1
 62
     7
 10
127.42994567680461
 20
139.2732226706274
 30
0.0
 70
    32
  0
VERTEX
  5
1746B
  8
1
 62
     7
 10
127.4319456768048
 20
139.2702226706275
 30
0.0
 70
    32
  0
VERTEX
  5
1746C
  8
1
 62
     7
 10
127.4349456768048
 20
139.2672226706276
 30
0.0
 70
    32
  0
VERTEX
  5
1746D
  8
1
 62
     7
 10
127.4379456768043
 20
139.26422267062759
 30
0.0
 70
    32
  0
VERTEX
  5
1746E
  8
1
 62
     7
 10
127.4409456768048
 20
139.26022267062751
 30
0.0
 70
    32
  0
VERTEX
  5
1746F
  8
1
 62
     7
 10
127.4429456768047
 20
139.25722267062761
 30
0.0
 70
    32
  0
VERTEX
  5
17470
  8
1
 62
     7
 10
127.4459456768045
 20
139.25422267062731
 30
0.0
 70
    32
  0
VERTEX
  5
17471
  8
1
 62
     7
 10
127.4489456768048
 20
139.2512226706277
 30
0.0
 70
    32
  0
VERTEX
  5
17472
  8
1
 62
     7
 10
127.4519456768047
 20
139.2482226706274
 30
0.0
 70
    32
  0
VERTEX
  5
17473
  8
1
 62
     7
 10
127.4549456768047
 20
139.24422267062761
 30
0.0
 70
    32
  0
VERTEX
  5
17474
  8
1
 62
     7
 10
127.4579456768049
 20
139.24122267062739
 30
0.0
 70
    32
  0
VERTEX
  5
17475
  8
1
 62
     7
 10
127.4599456768044
 20
139.23822267062781
 30
0.0
 70
    32
  0
VERTEX
  5
17476
  8
1
 62
     7
 10
127.46294567680501
 20
139.23522267062751
 30
0.0
 70
    32
  0
VERTEX
  5
17477
  8
1
 62
     7
 10
127.46594567680479
 20
139.23222267062721
 30
0.0
 70
    32
  0
VERTEX
  5
17478
  8
1
 62
     7
 10
127.4689456768044
 20
139.22922267062719
 30
0.0
 70
    32
  0
VERTEX
  5
17479
  8
1
 62
     7
 10
127.47194567680501
 20
139.22622267062741
 30
0.0
 70
    32
  0
VERTEX
  5
1747A
  8
1
 62
     7
 10
127.47494567680469
 20
139.22222267062719
 30
0.0
 70
    32
  0
VERTEX
  5
1747B
  8
1
 62
     7
 10
127.47794567680459
 20
139.21922267062769
 30
0.0
 70
    32
  0
VERTEX
  5
1747C
  8
1
 62
     7
 10
127.48094567680489
 20
139.21622267062739
 30
0.0
 70
    32
  0
VERTEX
  5
1747D
  8
1
 62
     7
 10
127.48394567680479
 20
139.21322267062749
 30
0.0
 70
    32
  0
VERTEX
  5
1747E
  8
1
 62
     7
 10
127.48694567680459
 20
139.2102226706275
 30
0.0
 70
    32
  0
VERTEX
  5
1747F
  8
1
 62
     7
 10
127.48994567680499
 20
139.2072226706276
 30
0.0
 70
    32
  0
VERTEX
  5
17480
  8
1
 62
     7
 10
127.49294567680489
 20
139.2042226706277
 30
0.0
 70
    32
  0
VERTEX
  5
17481
  8
1
 62
     7
 10
127.4959456768046
 20
139.20122267062769
 30
0.0
 70
    32
  0
VERTEX
  5
17482
  8
1
 62
     7
 10
127.49894567680511
 20
139.1982226706275
 30
0.0
 70
    32
  0
VERTEX
  5
17483
  8
1
 62
     7
 10
127.5019456768047
 20
139.1952226706276
 30
0.0
 70
    32
  0
VERTEX
  5
17484
  8
1
 62
     7
 10
127.5049456768047
 20
139.19222267062759
 30
0.0
 70
    32
  0
VERTEX
  5
17485
  8
1
 62
     7
 10
127.50794567680499
 20
139.18922267062769
 30
0.0
 70
    32
  0
VERTEX
  5
17486
  8
1
 62
     7
 10
127.51094567680489
 20
139.18622267062739
 30
0.0
 70
    32
  0
VERTEX
  5
17487
  8
1
 62
     7
 10
127.5139456768045
 20
139.18322267062749
 30
0.0
 70
    32
  0
VERTEX
  5
17488
  8
1
 62
     7
 10
127.5169456768047
 20
139.18022267062759
 30
0.0
 70
    32
  0
VERTEX
  5
17489
  8
1
 62
     7
 10
127.5199456768047
 20
139.1772226706276
 30
0.0
 70
    32
  0
VERTEX
  5
1748A
  8
1
 62
     7
 10
127.5229456768045
 20
139.1742226706277
 30
0.0
 70
    32
  0
VERTEX
  5
1748B
  8
1
 62
     7
 10
127.5259456768047
 20
139.1712226706274
 30
0.0
 70
    32
  0
VERTEX
  5
1748C
  8
1
 62
     7
 10
127.5289456768047
 20
139.1682226706275
 30
0.0
 70
    32
  0
VERTEX
  5
1748D
  8
1
 62
     7
 10
127.5319456768047
 20
139.1652226706272
 30
0.0
 70
    32
  0
VERTEX
  5
1748E
  8
1
 62
     7
 10
127.5349456768049
 20
139.16222267062761
 30
0.0
 70
    32
  0
VERTEX
  5
1748F
  8
1
 62
     7
 10
127.5379456768048
 20
139.1592226706274
 30
0.0
 70
    32
  0
VERTEX
  5
17490
  8
1
 62
     7
 10
127.5409456768048
 20
139.1562226706275
 30
0.0
 70
    32
  0
VERTEX
  5
17491
  8
1
 62
     7
 10
127.5449456768049
 20
139.15322267062751
 30
0.0
 70
    32
  0
VERTEX
  5
17492
  8
1
 62
     7
 10
127.5479456768049
 20
139.1502226706275
 30
0.0
 70
    32
  0
VERTEX
  5
17493
  8
1
 62
     7
 10
127.5509456768045
 20
139.14722267062771
 30
0.0
 70
    32
  0
VERTEX
  5
17494
  8
1
 62
     7
 10
127.5539456768047
 20
139.14522267062719
 30
0.0
 70
    32
  0
VERTEX
  5
17495
  8
1
 62
     7
 10
127.5569456768049
 20
139.14222267062729
 30
0.0
 70
    32
  0
VERTEX
  5
17496
  8
1
 62
     7
 10
127.5599456768046
 20
139.13922267062739
 30
0.0
 70
    32
  0
VERTEX
  5
17497
  8
1
 62
     7
 10
127.56394567680471
 20
139.13622267062749
 30
0.0
 70
    32
  0
VERTEX
  5
17498
  8
1
 62
     7
 10
127.56694567680501
 20
139.1332226706275
 30
0.0
 70
    32
  0
VERTEX
  5
17499
  8
1
 62
     7
 10
127.56994567680491
 20
139.1302226706276
 30
0.0
 70
    32
  0
VERTEX
  5
1749A
  8
1
 62
     7
 10
127.57294567680449
 20
139.12822267062791
 30
0.0
 70
    32
  0
VERTEX
  5
1749B
  8
1
 62
     7
 10
127.5769456768047
 20
139.12522267062729
 30
0.0
 70
    32
  0
VERTEX
  5
1749C
  8
1
 62
     7
 10
127.5799456768046
 20
139.12222267062731
 30
0.0
 70
    32
  0
VERTEX
  5
1749D
  8
1
 62
     7
 10
127.5829456768044
 20
139.11922267062769
 30
0.0
 70
    32
  0
VERTEX
  5
1749E
  8
1
 62
     7
 10
127.5859456768048
 20
139.11722267062771
 30
0.0
 70
    32
  0
VERTEX
  5
1749F
  8
1
 62
     7
 10
127.5899456768048
 20
139.11422267062741
 30
0.0
 70
    32
  0
VERTEX
  5
174A0
  8
1
 62
     7
 10
127.5929456768045
 20
139.1112226706278
 30
0.0
 70
    32
  0
VERTEX
  5
174A1
  8
1
 62
     7
 10
127.5959456768045
 20
139.10922267062739
 30
0.0
 70
    32
  0
VERTEX
  5
174A2
  8
1
 62
     7
 10
127.5999456768045
 20
139.10622267062749
 30
0.0
 70
    32
  0
VERTEX
  5
174A3
  8
1
 62
     7
 10
127.60294567680479
 20
139.10322267062759
 30
0.0
 70
    32
  0
VERTEX
  5
174A4
  8
1
 62
     7
 10
127.60594567680469
 20
139.10122267062781
 30
0.0
 70
    32
  0
VERTEX
  5
174A5
  8
1
 62
     7
 10
127.6099456768046
 20
139.09822267062719
 30
0.0
 70
    32
  0
VERTEX
  5
174A6
  8
1
 62
     7
 10
127.6129456768049
 20
139.09522267062729
 30
0.0
 70
    32
  0
VERTEX
  5
174A7
  8
1
 62
     7
 10
127.6159456768048
 20
139.0932226706276
 30
0.0
 70
    32
  0
VERTEX
  5
174A8
  8
1
 62
     7
 10
127.6199456768048
 20
139.09022267062761
 30
0.0
 70
    32
  0
VERTEX
  5
174A9
  8
1
 62
     7
 10
127.62294567680441
 20
139.08822267062791
 30
0.0
 70
    32
  0
VERTEX
  5
174AA
  8
1
 62
     7
 10
127.6269456768045
 20
139.0852226706277
 30
0.0
 70
    32
  0
VERTEX
  5
174AB
  8
1
 62
     7
 10
127.62994567680479
 20
139.0822226706274
 30
0.0
 70
    32
  0
VERTEX
  5
174AC
  8
1
 62
     7
 10
127.6329456768044
 20
139.08022267062759
 30
0.0
 70
    32
  0
VERTEX
  5
174AD
  8
1
 62
     7
 10
127.6369456768046
 20
139.07722267062769
 30
0.0
 70
    32
  0
VERTEX
  5
174AE
  8
1
 62
     7
 10
127.6399456768048
 20
139.07522267062731
 30
0.0
 70
    32
  0
VERTEX
  5
174AF
  8
1
 62
     7
 10
127.643945676805
 20
139.07222267062741
 30
0.0
 70
    32
  0
VERTEX
  5
174B0
  8
1
 62
     7
 10
127.6469456768049
 20
139.07022267062769
 30
0.0
 70
    32
  0
VERTEX
  5
174B1
  8
1
 62
     7
 10
127.6509456768044
 20
139.06722267062739
 30
0.0
 70
    32
  0
VERTEX
  5
174B2
  8
1
 62
     7
 10
127.6539456768047
 20
139.06522267062729
 30
0.0
 70
    32
  0
VERTEX
  5
174B3
  8
1
 62
     7
 10
127.6579456768047
 20
139.0632226706276
 30
0.0
 70
    32
  0
VERTEX
  5
174B4
  8
1
 62
     7
 10
127.6609456768047
 20
139.0602226706277
 30
0.0
 70
    32
  0
VERTEX
  5
174B5
  8
1
 62
     7
 10
127.6649456768049
 20
139.05822267062729
 30
0.0
 70
    32
  0
VERTEX
  5
174B6
  8
1
 62
     7
 10
127.66794567680471
 20
139.0552226706273
 30
0.0
 70
    32
  0
VERTEX
  5
174B7
  8
1
 62
     7
 10
127.6719456768048
 20
139.0532226706276
 30
0.0
 70
    32
  0
VERTEX
  5
174B8
  8
1
 62
     7
 10
127.675945676805
 20
139.0512226706272
 30
0.0
 70
    32
  0
VERTEX
  5
174B9
  8
1
 62
     7
 10
127.6789456768047
 20
139.0482226706273
 30
0.0
 70
    32
  0
VERTEX
  5
174BA
  8
1
 62
     7
 10
127.68294567680471
 20
139.0462226706276
 30
0.0
 70
    32
  0
VERTEX
  5
174BB
  8
1
 62
     7
 10
127.68594567680471
 20
139.04422267062751
 30
0.0
 70
    32
  0
VERTEX
  5
174BC
  8
1
 62
     7
 10
127.6899456768049
 20
139.04122267062749
 30
0.0
 70
    32
  0
VERTEX
  5
174BD
  8
1
 62
     7
 10
127.6939456768049
 20
139.03922267062751
 30
0.0
 70
    32
  0
VERTEX
  5
174BE
  8
1
 62
     7
 10
127.6969456768048
 20
139.03722267062739
 30
0.0
 70
    32
  0
VERTEX
  5
174BF
  8
1
 62
     7
 10
127.70094567680439
 20
139.03522267062741
 30
0.0
 70
    32
  0
VERTEX
  5
174C0
  8
1
 62
     7
 10
127.7049456768045
 20
139.03222267062739
 30
0.0
 70
    32
  0
VERTEX
  5
174C1
  8
1
 62
     7
 10
127.7079456768048
 20
139.03022267062769
 30
0.0
 70
    32
  0
VERTEX
  5
174C2
  8
1
 62
     7
 10
127.7119456768049
 20
139.02822267062729
 30
0.0
 70
    32
  0
VERTEX
  5
174C3
  8
1
 62
     7
 10
127.71594567680491
 20
139.02622267062759
 30
0.0
 70
    32
  0
VERTEX
  5
174C4
  8
1
 62
     7
 10
127.7189456768043
 20
139.02422267062781
 30
0.0
 70
    32
  0
VERTEX
  5
174C5
  8
1
 62
     7
 10
127.7229456768046
 20
139.0222226706274
 30
0.0
 70
    32
  0
VERTEX
  5
174C6
  8
1
 62
     7
 10
127.7269456768046
 20
139.0202226706277
 30
0.0
 70
    32
  0
VERTEX
  5
174C7
  8
1
 62
     7
 10
127.7299456768047
 20
139.0172226706274
 30
0.0
 70
    32
  0
VERTEX
  5
174C8
  8
1
 62
     7
 10
127.73394567680459
 20
139.01522267062771
 30
0.0
 70
    32
  0
VERTEX
  5
174C9
  8
1
 62
     7
 10
127.7379456768047
 20
139.0132226706273
 30
0.0
 70
    32
  0
VERTEX
  5
174CA
  8
1
 62
     7
 10
127.7419456768049
 20
139.01122267062721
 30
0.0
 70
    32
  0
VERTEX
  5
174CB
  8
1
 62
     7
 10
127.7449456768047
 20
139.00922267062751
 30
0.0
 70
    32
  0
VERTEX
  5
174CC
  8
1
 62
     7
 10
127.74894567680479
 20
139.0072226706275
 30
0.0
 70
    32
  0
VERTEX
  5
174CD
  8
1
 62
     7
 10
127.752945676805
 20
139.0052226706274
 30
0.0
 70
    32
  0
VERTEX
  5
174CE
  8
1
 62
     7
 10
127.7569456768048
 20
139.00322267062771
 30
0.0
 70
    32
  0
VERTEX
  5
174CF
  8
1
 62
     7
 10
127.7609456768047
 20
139.00122267062719
 30
0.0
 70
    32
  0
VERTEX
  5
174D0
  8
1
 62
     7
 10
127.7639456768046
 20
139.00022267062741
 30
0.0
 70
    32
  0
VERTEX
  5
174D1
  8
1
 62
     7
 10
127.7679456768046
 20
138.99822267062731
 30
0.0
 70
    32
  0
VERTEX
  5
174D2
  8
1
 62
     7
 10
127.7719456768048
 20
138.99622267062759
 30
0.0
 70
    32
  0
VERTEX
  5
174D3
  8
1
 62
     7
 10
127.77594567680489
 20
138.99422267062749
 30
0.0
 70
    32
  0
VERTEX
  5
174D4
  8
1
 62
     7
 10
127.779945676805
 20
138.99222267062751
 30
0.0
 70
    32
  0
VERTEX
  5
174D5
  8
1
 62
     7
 10
127.78394567680481
 20
138.99022267062739
 30
0.0
 70
    32
  0
VERTEX
  5
174D6
  8
1
 62
     7
 10
127.7879456768049
 20
138.9892226706275
 30
0.0
 70
    32
  0
VERTEX
  5
174D7
  8
1
 62
     7
 10
127.7909456768046
 20
138.9872226706278
 30
0.0
 70
    32
  0
VERTEX
  5
174D8
  8
1
 62
     7
 10
127.7949456768046
 20
138.98522267062739
 30
0.0
 70
    32
  0
VERTEX
  5
174D9
  8
1
 62
     7
 10
127.79894567680481
 20
138.9832226706277
 30
0.0
 70
    32
  0
VERTEX
  5
174DA
  8
1
 62
     7
 10
127.8029456768047
 20
138.98222267062749
 30
0.0
 70
    32
  0
VERTEX
  5
174DB
  8
1
 62
     7
 10
127.8069456768051
 20
138.98022267062771
 30
0.0
 70
    32
  0
VERTEX
  5
174DC
  8
1
 62
     7
 10
127.81094567680459
 20
138.97822267062719
 30
0.0
 70
    32
  0
VERTEX
  5
174DD
  8
1
 62
     7
 10
127.8149456768048
 20
138.9772226706275
 30
0.0
 70
    32
  0
VERTEX
  5
174DE
  8
1
 62
     7
 10
127.8189456768049
 20
138.9752226706274
 30
0.0
 70
    32
  0
VERTEX
  5
174DF
  8
1
 62
     7
 10
127.8229456768043
 20
138.97322267062731
 30
0.0
 70
    32
  0
VERTEX
  5
174E0
  8
1
 62
     7
 10
127.8269456768045
 20
138.9722226706275
 30
0.0
 70
    32
  0
VERTEX
  5
174E1
  8
1
 62
     7
 10
127.8309456768045
 20
138.97022267062769
 30
0.0
 70
    32
  0
VERTEX
  5
174E2
  8
1
 62
     7
 10
127.83494567680469
 20
138.96922267062749
 30
0.0
 70
    32
  0
VERTEX
  5
174E3
  8
1
 62
     7
 10
127.8389456768049
 20
138.96722267062751
 30
0.0
 70
    32
  0
VERTEX
  5
174E4
  8
1
 62
     7
 10
127.8429456768049
 20
138.96622267062759
 30
0.0
 70
    32
  0
VERTEX
  5
174E5
  8
1
 62
     7
 10
127.84694567680479
 20
138.96422267062721
 30
0.0
 70
    32
  0
VERTEX
  5
174E6
  8
1
 62
     7
 10
127.8509456768048
 20
138.96322267062769
 30
0.0
 70
    32
  0
VERTEX
  5
174E7
  8
1
 62
     7
 10
127.85494567680441
 20
138.96222267062751
 30
0.0
 70
    32
  0
VERTEX
  5
174E8
  8
1
 62
     7
 10
127.8589456768045
 20
138.96022267062779
 30
0.0
 70
    32
  0
VERTEX
  5
174E9
  8
1
 62
     7
 10
127.8629456768046
 20
138.95922267062761
 30
0.0
 70
    32
  0
VERTEX
  5
174EA
  8
1
 62
     7
 10
127.8669456768046
 20
138.95822267062741
 30
0.0
 70
    32
  0
VERTEX
  5
174EB
  8
1
 62
     7
 10
127.87094567680479
 20
138.9562226706276
 30
0.0
 70
    32
  0
VERTEX
  5
174EC
  8
1
 62
     7
 10
127.874945676805
 20
138.95522267062711
 30
0.0
 70
    32
  0
VERTEX
  5
174ED
  8
1
 62
     7
 10
127.8789456768048
 20
138.95422267062759
 30
0.0
 70
    32
  0
VERTEX
  5
174EE
  8
1
 62
     7
 10
127.883945676805
 20
138.9532226706277
 30
0.0
 70
    32
  0
VERTEX
  5
174EF
  8
1
 62
     7
 10
127.88794567680461
 20
138.95222267062749
 30
0.0
 70
    32
  0
VERTEX
  5
174F0
  8
1
 62
     7
 10
127.8919456768047
 20
138.9502226706274
 30
0.0
 70
    32
  0
VERTEX
  5
174F1
  8
1
 62
     7
 10
127.8959456768049
 20
138.94922267062759
 30
0.0
 70
    32
  0
VERTEX
  5
174F2
  8
1
 62
     7
 10
127.89994567680429
 20
138.94822267062739
 30
0.0
 70
    32
  0
VERTEX
  5
174F3
  8
1
 62
     7
 10
127.9039456768044
 20
138.94722267062781
 30
0.0
 70
    32
  0
VERTEX
  5
174F4
  8
1
 62
     7
 10
127.9079456768045
 20
138.94622267062729
 30
0.0
 70
    32
  0
VERTEX
  5
174F5
  8
1
 62
     7
 10
127.91194567680471
 20
138.9452226706274
 30
0.0
 70
    32
  0
VERTEX
  5
174F6
  8
1
 62
     7
 10
127.9169456768046
 20
138.9442226706272
 30
0.0
 70
    32
  0
VERTEX
  5
174F7
  8
1
 62
     7
 10
127.92094567680481
 20
138.9432226706277
 30
0.0
 70
    32
  0
VERTEX
  5
174F8
  8
1
 62
     7
 10
127.9249456768049
 20
138.9422226706275
 30
0.0
 70
    32
  0
VERTEX
  5
174F9
  8
1
 62
     7
 10
127.9289456768048
 20
138.9412226706273
 30
0.0
 70
    32
  0
VERTEX
  5
174FA
  8
1
 62
     7
 10
127.93294567680481
 20
138.94022267062741
 30
0.0
 70
    32
  0
VERTEX
  5
174FB
  8
1
 62
     7
 10
127.9369456768047
 20
138.9392226706276
 30
0.0
 70
    32
  0
VERTEX
  5
174FC
  8
1
 62
     7
 10
127.94194567680491
 20
138.9392226706276
 30
0.0
 70
    32
  0
VERTEX
  5
174FD
  8
1
 62
     7
 10
127.9459456768048
 20
138.9382226706274
 30
0.0
 70
    32
  0
VERTEX
  5
174FE
  8
1
 62
     7
 10
127.9499456768043
 20
138.93722267062719
 30
0.0
 70
    32
  0
VERTEX
  5
174FF
  8
1
 62
     7
 10
127.95394567680459
 20
138.9362226706277
 30
0.0
 70
    32
  0
VERTEX
  5
17500
  8
1
 62
     7
 10
127.9579456768045
 20
138.93522267062741
 30
0.0
 70
    32
  0
VERTEX
  5
17501
  8
1
 62
     7
 10
127.96294567680449
 20
138.93522267062741
 30
0.0
 70
    32
  0
VERTEX
  5
17502
  8
1
 62
     7
 10
127.9669456768047
 20
138.93422267062721
 30
0.0
 70
    32
  0
VERTEX
  5
17503
  8
1
 62
     7
 10
127.9709456768048
 20
138.93322267062771
 30
0.0
 70
    32
  0
VERTEX
  5
17504
  8
1
 62
     7
 10
127.97494567680479
 20
138.93322267062771
 30
0.0
 70
    32
  0
VERTEX
  5
17505
  8
1
 62
     7
 10
127.9799456768048
 20
138.93222267062751
 30
0.0
 70
    32
  0
VERTEX
  5
17506
  8
1
 62
     7
 10
127.98394567680469
 20
138.93122267062719
 30
0.0
 70
    32
  0
VERTEX
  5
17507
  8
1
 62
     7
 10
127.9879456768048
 20
138.93122267062719
 30
0.0
 70
    32
  0
VERTEX
  5
17508
  8
1
 62
     7
 10
127.991945676805
 20
138.93022267062739
 30
0.0
 70
    32
  0
VERTEX
  5
17509
  8
1
 62
     7
 10
127.9969456768049
 20
138.93022267062739
 30
0.0
 70
    32
  0
VERTEX
  5
1750A
  8
1
 62
     7
 10
128.0009456768048
 20
138.92922267062761
 30
0.0
 70
    32
  0
VERTEX
  5
1750B
  8
1
 62
     7
 10
128.00494567680479
 20
138.92922267062761
 30
0.0
 70
    32
  0
VERTEX
  5
1750C
  8
1
 62
     7
 10
128.0089456768047
 20
138.92822267062741
 30
0.0
 70
    32
  0
VERTEX
  5
1750D
  8
1
 62
     7
 10
128.0139456768047
 20
138.92822267062741
 30
0.0
 70
    32
  0
VERTEX
  5
1750E
  8
1
 62
     7
 10
128.0179456768044
 20
138.92822267062741
 30
0.0
 70
    32
  0
VERTEX
  5
1750F
  8
1
 62
     7
 10
128.02194567680459
 20
138.92722267062749
 30
0.0
 70
    32
  0
VERTEX
  5
17510
  8
1
 62
     7
 10
128.02594567680461
 20
138.92722267062749
 30
0.0
 70
    32
  0
VERTEX
  5
17511
  8
1
 62
     7
 10
128.03094567680461
 20
138.92722267062749
 30
0.0
 70
    32
  0
VERTEX
  5
17512
  8
1
 62
     7
 10
128.0349456768046
 20
138.92722267062749
 30
0.0
 70
    32
  0
VERTEX
  5
17513
  8
1
 62
     7
 10
128.0389456768047
 20
138.92622267062771
 30
0.0
 70
    32
  0
VERTEX
  5
17514
  8
1
 62
     7
 10
128.04294567680469
 20
138.92622267062771
 30
0.0
 70
    32
  0
VERTEX
  5
17515
  8
1
 62
     7
 10
128.0479456768048
 20
138.92622267062771
 30
0.0
 70
    32
  0
VERTEX
  5
17516
  8
1
 62
     7
 10
128.05194567680479
 20
138.92622267062771
 30
0.0
 70
    32
  0
VERTEX
  5
17517
  8
1
 62
     7
 10
128.0559456768047
 20
138.92622267062771
 30
0.0
 70
    32
  0
VERTEX
  5
17518
  8
1
 62
     7
 10
128.06094567680469
 20
138.92622267062771
 30
0.0
 70
    32
  0
VERTEX
  5
17519
  8
1
 62
     7
 10
128.06494567680471
 20
138.92622267062771
 30
0.0
 70
    32
  0
VERTEX
  5
1751A
  8
1
 62
     7
 10
128.06894567680459
 20
138.92622267062771
 30
0.0
 70
    32
  0
VERTEX
  5
1751B
  8
1
 62
     7
 10
128.07294567680481
 20
138.92622267062771
 30
0.0
 70
    32
  0
VERTEX
  5
1751C
  8
1
 62
     7
 10
128.0779456768048
 20
138.92622267062771
 30
0.0
 70
    32
  0
VERTEX
  5
1751D
  8
1
 62
     7
 10
128.08194567680479
 20
138.92722267062749
 30
0.0
 70
    32
  0
VERTEX
  5
1751E
  8
1
 62
     7
 10
128.0859456768047
 20
138.92722267062749
 30
0.0
 70
    32
  0
VERTEX
  5
1751F
  8
1
 62
     7
 10
128.08994567680449
 20
138.92722267062749
 30
0.0
 70
    32
  0
VERTEX
  5
17520
  8
1
 62
     7
 10
128.0949456768044
 20
138.92722267062749
 30
0.0
 70
    32
  0
VERTEX
  5
17521
  8
1
 62
     7
 10
128.09894567680459
 20
138.92822267062741
 30
0.0
 70
    32
  0
VERTEX
  5
17522
  8
1
 62
     7
 10
128.10294567680461
 20
138.92822267062741
 30
0.0
 70
    32
  0
VERTEX
  5
17523
  8
1
 62
     7
 10
128.1069456768048
 20
138.92822267062741
 30
0.0
 70
    32
  0
VERTEX
  5
17524
  8
1
 62
     7
 10
128.11194567680451
 20
138.92922267062761
 30
0.0
 70
    32
  0
VERTEX
  5
17525
  8
1
 62
     7
 10
128.1159456768047
 20
138.92922267062761
 30
0.0
 70
    32
  0
VERTEX
  5
17526
  8
1
 62
     7
 10
128.11994567680469
 20
138.92922267062761
 30
0.0
 70
    32
  0
VERTEX
  5
17527
  8
1
 62
     7
 10
128.12394567680491
 20
138.93022267062739
 30
0.0
 70
    32
  0
VERTEX
  5
17528
  8
1
 62
     7
 10
128.12894567680479
 20
138.93022267062739
 30
0.0
 70
    32
  0
VERTEX
  5
17529
  8
1
 62
     7
 10
128.1329456768047
 20
138.93122267062719
 30
0.0
 70
    32
  0
VERTEX
  5
1752A
  8
1
 62
     7
 10
128.1369456768048
 20
138.93122267062719
 30
0.0
 70
    32
  0
VERTEX
  5
1752B
  8
1
 62
     7
 10
128.14094567680451
 20
138.93222267062751
 30
0.0
 70
    32
  0
VERTEX
  5
1752C
  8
1
 62
     7
 10
128.1459456768047
 20
138.93222267062751
 30
0.0
 70
    32
  0
VERTEX
  5
1752D
  8
1
 62
     7
 10
128.14994567680469
 20
138.93322267062771
 30
0.0
 70
    32
  0
VERTEX
  5
1752E
  8
1
 62
     7
 10
128.1539456768048
 20
138.93322267062771
 30
0.0
 70
    32
  0
VERTEX
  5
1752F
  8
1
 62
     7
 10
128.15794567680459
 20
138.93422267062721
 30
0.0
 70
    32
  0
VERTEX
  5
17530
  8
1
 62
     7
 10
128.1629456768047
 20
138.93422267062721
 30
0.0
 70
    32
  0
VERTEX
  5
17531
  8
1
 62
     7
 10
128.16694567680449
 20
138.93522267062741
 30
0.0
 70
    32
  0
VERTEX
  5
17532
  8
1
 62
     7
 10
128.17094567680451
 20
138.93522267062741
 30
0.0
 70
    32
  0
VERTEX
  5
17533
  8
1
 62
     7
 10
128.17494567680481
 20
138.9362226706277
 30
0.0
 70
    32
  0
SEQEND
  5
17534
  8
1
 62
     7
  0
ARC
  5
17535
  8
1
  6
CONTINUOUS
 62
     7
 10
119.0453604798474
 20
141.42626973570131
 30
0.0
 40
2.4999999999999991
 50
180.0
 51
270.0
  0
LINE
  5
17536
  8
1
  6
CONTINUOUS
 62
     7
 10
114.94536047984781
 20
138.92626973570151
 30
0.0
 11
119.0453604798474
 21
138.92626973570151
 31
0.0
  0
ARC
  5
17537
  8
1
  6
CONTINUOUS
 62
     7
 10
114.94536047984781
 20
139.4262697357014
 30
0.0
 40
0.5
 50
180.0
 51
270.0
  0
LINE
  5
17538
  8
1
  6
CONTINUOUS
 62
     7
 10
125.36536047984789
 20
151.92626973570131
 30
0.0
 11
116.5453604798474
 21
150.46126973570159
 31
0.0
  0
LINE
  5
17539
  8
1
  6
CONTINUOUS
 62
     7
 10
125.945360479849
 20
155.9262697357014
 30
0.0
 11
114.4453604798493
 21
155.9262697357014
 31
0.0
  0
LINE
  5
1753A
  8
AM_0
 10
120.46361556877351
 20
179.91638973570591
 30
0.0
 11
137.3124655687736
 21
179.91638973570591
 31
0.0
  0
LINE
  5
1753B
  8
1
  6
CONTINUOUS
 62
     7
 10
131.54536047985081
 20
172.92626973570131
 30
0.0
 11
125.945360479849
 21
172.92626973570131
 31
0.0
  0
LINE
  5
1753C
  8
AM_0
 10
116.945368109242
 20
172.93896973570611
 30
0.0
 11
116.945368109242
 21
175.43896973570611
 31
0.0
  0
LINE
  5
1753D
  8
1
  6
CONTINUOUS
 62
     7
 10
124.3453604798504
 20
172.92626973570131
 30
0.0
 11
115.4453604798494
 21
172.92626973570131
 31
0.0
  0
ARC
  5
1753E
  8
1
  6
CONTINUOUS
 62
     7
 10
115.4453604798494
 20
171.9262697357016
 30
0.0
 40
0.9999999999998864
 50
90.0
 51
180.0
  0
ARC
  5
1753F
  8
1
  6
CONTINUOUS
 62
     7
 10
124.9453604798492
 20
171.9262697357016
 30
0.0
 40
0.9999999999999998
 50
0.0
 51
90.0
  0
LINE
  5
17540
  8
1
  6
CONTINUOUS
 62
     7
 10
125.945360479849
 20
172.92626973570131
 30
0.0
 11
124.9453604798492
 21
172.92626973570131
 31
0.0
  0
LINE
  5
17541
  8
1
  6
CONTINUOUS
 62
     7
 10
124.9453604798492
 20
172.92626973570131
 30
0.0
 11
124.3453604798504
 21
172.92626973570131
 31
0.0
  0
LINE
  5
17542
  8
1
  6
CONTINUOUS
 62
     7
 10
174.94536047984931
 20
171.9262697357016
 30
0.0
 11
174.94536047984931
 21
155.9262697357014
 31
0.0
  0
LINE
  5
17543
  8
1
  6
CONTINUOUS
 62
     7
 10
186.44536047984931
 20
139.4262697357014
 30
0.0
 11
186.44536047984931
 21
171.9262697357016
 31
0.0
  0
LINE
  5
17544
  8
1
  6
CONTINUOUS
 62
     7
 10
155.94536047984789
 20
166.2094832954734
 30
0.0
 11
155.94536047984789
 21
151.92626973570171
 31
0.0
  0
LINE
  5
17545
  8
1
  6
CONTINUOUS
 62
     7
 10
144.94536047984749
 20
151.92626973570171
 30
0.0
 11
144.94536047984749
 21
166.2094832954734
 31
0.0
  0
LINE
  5
17546
  8
1
  6
CONTINUOUS
 62
     7
 10
155.94536047984789
 20
155.9262697357014
 30
0.0
 11
186.44536047984769
 21
155.9262697357014
 31
0.0
  0
LINE
  5
17547
  8
1
  6
CONTINUOUS
 62
     7
 10
175.5253604798479
 20
151.92626973570131
 30
0.0
 11
184.3453604798471
 21
150.46126973570159
 31
0.0
  0
LINE
  5
17548
  8
1
  6
CONTINUOUS
 62
     7
 10
186.44536047984931
 20
155.9262697357014
 30
0.0
 11
174.94536047984931
 21
155.9262697357014
 31
0.0
  0
LINE
  5
17549
  8
1
  6
CONTINUOUS
 62
     7
 10
174.07551199886441
 20
151.92626973570131
 30
0.0
 11
174.07551199886441
 21
141.42626973570131
 31
0.0
  0
POLYLINE
  5
1754A
  8
1
 62
     7
 66
     1
 10
0.0
 20
0.0
 30
0.0
 70
     8
  0
VERTEX
  5
1754B
  8
1
 62
     7
 10
172.93554567680459
 20
138.9362226706277
 30
0.0
 70
    32
  0
VERTEX
  5
1754C
  8
1
 62
     7
 10
172.9397456768049
 20
138.93722267062719
 30
0.0
 70
    32
  0
VERTEX
  5
1754D
  8
1
 62
     7
 10
172.94404567680451
 20
138.9382226706274
 30
0.0
 70
    32
  0
VERTEX
  5
1754E
  8
1
 62
     7
 10
172.94824567680439
 20
138.9392226706276
 30
0.0
 70
    32
  0
VERTEX
  5
1754F
  8
1
 62
     7
 10
172.95254567680439
 20
138.94022267062741
 30
0.0
 70
    32
  0
VERTEX
  5
17550
  8
1
 62
     7
 10
172.9567456768047
 20
138.9412226706273
 30
0.0
 70
    32
  0
VERTEX
  5
17551
  8
1
 62
     7
 10
172.96104567680479
 20
138.9422226706275
 30
0.0
 70
    32
  0
VERTEX
  5
17552
  8
1
 62
     7
 10
172.96524567680461
 20
138.9432226706277
 30
0.0
 70
    32
  0
VERTEX
  5
17553
  8
1
 62
     7
 10
172.9694456768047
 20
138.9442226706272
 30
0.0
 70
    32
  0
VERTEX
  5
17554
  8
1
 62
     7
 10
172.97374567680461
 20
138.9452226706274
 30
0.0
 70
    32
  0
VERTEX
  5
17555
  8
1
 62
     7
 10
172.97794567680489
 20
138.94622267062729
 30
0.0
 70
    32
  0
VERTEX
  5
17556
  8
1
 62
     7
 10
172.98214567680469
 20
138.94722267062781
 30
0.0
 70
    32
  0
VERTEX
  5
17557
  8
1
 62
     7
 10
172.98644567680481
 20
138.94822267062739
 30
0.0
 70
    32
  0
VERTEX
  5
17558
  8
1
 62
     7
 10
172.99064567680489
 20
138.94922267062759
 30
0.0
 70
    32
  0
VERTEX
  5
17559
  8
1
 62
     7
 10
172.99484567680449
 20
138.9502226706274
 30
0.0
 70
    32
  0
VERTEX
  5
1755A
  8
1
 62
     7
 10
172.99904567680429
 20
138.95122267062729
 30
0.0
 70
    32
  0
VERTEX
  5
1755B
  8
1
 62
     7
 10
173.00324567680471
 20
138.95222267062749
 30
0.0
 70
    32
  0
VERTEX
  5
1755C
  8
1
 62
     7
 10
173.00744567680451
 20
138.95422267062759
 30
0.0
 70
    32
  0
VERTEX
  5
1755D
  8
1
 62
     7
 10
173.01164567680439
 20
138.95522267062711
 30
0.0
 70
    32
  0
VERTEX
  5
1755E
  8
1
 62
     7
 10
173.0157456768049
 20
138.9562226706276
 30
0.0
 70
    32
  0
VERTEX
  5
1755F
  8
1
 62
     7
 10
173.01994567680481
 20
138.9572226706278
 30
0.0
 70
    32
  0
VERTEX
  5
17560
  8
1
 62
     7
 10
173.02414567680449
 20
138.95822267062741
 30
0.0
 70
    32
  0
VERTEX
  5
17561
  8
1
 62
     7
 10
173.02824567680429
 20
138.96022267062779
 30
0.0
 70
    32
  0
VERTEX
  5
17562
  8
1
 62
     7
 10
173.03244567680511
 20
138.96122267062759
 30
0.0
 70
    32
  0
VERTEX
  5
17563
  8
1
 62
     7
 10
173.03654567680471
 20
138.96222267062751
 30
0.0
 70
    32
  0
VERTEX
  5
17564
  8
1
 62
     7
 10
173.04064567680439
 20
138.96422267062721
 30
0.0
 70
    32
  0
VERTEX
  5
17565
  8
1
 62
     7
 10
173.04474567680469
 20
138.96522267062781
 30
0.0
 70
    32
  0
VERTEX
  5
17566
  8
1
 62
     7
 10
173.04894567680481
 20
138.96622267062759
 30
0.0
 70
    32
  0
VERTEX
  5
17567
  8
1
 62
     7
 10
173.05294567680471
 20
138.96822267062731
 30
0.0
 70
    32
  0
VERTEX
  5
17568
  8
1
 62
     7
 10
173.05704567680431
 20
138.96922267062749
 30
0.0
 70
    32
  0
VERTEX
  5
17569
  8
1
 62
     7
 10
173.0611456768045
 20
138.9712226706273
 30
0.0
 70
    32
  0
VERTEX
  5
1756A
  8
1
 62
     7
 10
173.06524567680461
 20
138.9722226706275
 30
0.0
 70
    32
  0
VERTEX
  5
1756B
  8
1
 62
     7
 10
173.06924567680451
 20
138.97422267062791
 30
0.0
 70
    32
  0
VERTEX
  5
1756C
  8
1
 62
     7
 10
173.07334567680459
 20
138.9752226706274
 30
0.0
 70
    32
  0
VERTEX
  5
1756D
  8
1
 62
     7
 10
173.0773456768045
 20
138.9772226706275
 30
0.0
 70
    32
  0
VERTEX
  5
1756E
  8
1
 62
     7
 10
173.08134567680449
 20
138.97922267062751
 30
0.0
 70
    32
  0
VERTEX
  5
1756F
  8
1
 62
     7
 10
173.08534567680471
 20
138.98022267062771
 30
0.0
 70
    32
  0
VERTEX
  5
17570
  8
1
 62
     7
 10
173.0893456768049
 20
138.98222267062749
 30
0.0
 70
    32
  0
VERTEX
  5
17571
  8
1
 62
     7
 10
173.093345676805
 20
138.9842226706275
 30
0.0
 70
    32
  0
VERTEX
  5
17572
  8
1
 62
     7
 10
173.09734567680491
 20
138.9862226706276
 30
0.0
 70
    32
  0
VERTEX
  5
17573
  8
1
 62
     7
 10
173.10124567680501
 20
138.9872226706278
 30
0.0
 70
    32
  0
VERTEX
  5
17574
  8
1
 62
     7
 10
173.10524567680449
 20
138.9892226706275
 30
0.0
 70
    32
  0
VERTEX
  5
17575
  8
1
 62
     7
 10
173.1091456768047
 20
138.99122267062731
 30
0.0
 70
    32
  0
VERTEX
  5
17576
  8
1
 62
     7
 10
173.113145676805
 20
138.99322267062769
 30
0.0
 70
    32
  0
VERTEX
  5
17577
  8
1
 62
     7
 10
173.11704567680471
 20
138.99522267062741
 30
0.0
 70
    32
  0
VERTEX
  5
17578
  8
1
 62
     7
 10
173.12094567680469
 20
138.99722267062779
 30
0.0
 70
    32
  0
VERTEX
  5
17579
  8
1
 62
     7
 10
173.12484567680511
 20
138.99922267062749
 30
0.0
 70
    32
  0
VERTEX
  5
1757A
  8
1
 62
     7
 10
173.12874567680481
 20
139.00122267062719
 30
0.0
 70
    32
  0
VERTEX
  5
1757B
  8
1
 62
     7
 10
173.13264567680471
 20
139.00322267062771
 30
0.0
 70
    32
  0
VERTEX
  5
1757C
  8
1
 62
     7
 10
173.13654567680459
 20
139.0052226706274
 30
0.0
 70
    32
  0
VERTEX
  5
1757D
  8
1
 62
     7
 10
173.1403456768048
 20
139.0072226706275
 30
0.0
 70
    32
  0
VERTEX
  5
1757E
  8
1
 62
     7
 10
173.1442456768047
 20
139.00922267062751
 30
0.0
 70
    32
  0
VERTEX
  5
1757F
  8
1
 62
     7
 10
173.14804567680449
 20
139.01122267062721
 30
0.0
 70
    32
  0
VERTEX
  5
17580
  8
1
 62
     7
 10
173.1518456768047
 20
139.0132226706273
 30
0.0
 70
    32
  0
VERTEX
  5
17581
  8
1
 62
     7
 10
173.1557456768044
 20
139.01522267062771
 30
0.0
 70
    32
  0
VERTEX
  5
17582
  8
1
 62
     7
 10
173.15954567680501
 20
139.0172226706274
 30
0.0
 70
    32
  0
VERTEX
  5
17583
  8
1
 62
     7
 10
173.16334567680471
 20
139.0192226706275
 30
0.0
 70
    32
  0
VERTEX
  5
17584
  8
1
 62
     7
 10
173.16704567680489
 20
139.02122267062759
 30
0.0
 70
    32
  0
VERTEX
  5
17585
  8
1
 62
     7
 10
173.1708456768049
 20
139.0232226706276
 30
0.0
 70
    32
  0
VERTEX
  5
17586
  8
1
 62
     7
 10
173.1746456768044
 20
139.02622267062759
 30
0.0
 70
    32
  0
VERTEX
  5
17587
  8
1
 62
     7
 10
173.17834567680461
 20
139.02822267062729
 30
0.0
 70
    32
  0
VERTEX
  5
17588
  8
1
 62
     7
 10
173.18214567680451
 20
139.03022267062769
 30
0.0
 70
    32
  0
VERTEX
  5
17589
  8
1
 62
     7
 10
173.18584567680449
 20
139.03222267062739
 30
0.0
 70
    32
  0
VERTEX
  5
1758A
  8
1
 62
     7
 10
173.1895456768047
 20
139.03522267062741
 30
0.0
 70
    32
  0
VERTEX
  5
1758B
  8
1
 62
     7
 10
173.19334567680471
 20
139.03722267062739
 30
0.0
 70
    32
  0
VERTEX
  5
1758C
  8
1
 62
     7
 10
173.19704567680469
 20
139.03922267062751
 30
0.0
 70
    32
  0
VERTEX
  5
1758D
  8
1
 62
     7
 10
173.2006456768047
 20
139.04122267062749
 30
0.0
 70
    32
  0
VERTEX
  5
1758E
  8
1
 62
     7
 10
173.20434567680439
 20
139.04422267062751
 30
0.0
 70
    32
  0
VERTEX
  5
1758F
  8
1
 62
     7
 10
173.20804567680449
 20
139.0462226706276
 30
0.0
 70
    32
  0
VERTEX
  5
17590
  8
1
 62
     7
 10
173.21164567680461
 20
139.0482226706273
 30
0.0
 70
    32
  0
VERTEX
  5
17591
  8
1
 62
     7
 10
173.21534567680479
 20
139.0512226706272
 30
0.0
 70
    32
  0
VERTEX
  5
17592
  8
1
 62
     7
 10
173.21894567680491
 20
139.0532226706276
 30
0.0
 70
    32
  0
VERTEX
  5
17593
  8
1
 62
     7
 10
173.2226456768046
 20
139.05622267062751
 30
0.0
 70
    32
  0
VERTEX
  5
17594
  8
1
 62
     7
 10
173.22624567680481
 20
139.05822267062729
 30
0.0
 70
    32
  0
VERTEX
  5
17595
  8
1
 62
     7
 10
173.2298456768049
 20
139.0602226706277
 30
0.0
 70
    32
  0
VERTEX
  5
17596
  8
1
 62
     7
 10
173.23344567680459
 20
139.0632226706276
 30
0.0
 70
    32
  0
VERTEX
  5
17597
  8
1
 62
     7
 10
173.23694567680491
 20
139.06522267062729
 30
0.0
 70
    32
  0
VERTEX
  5
17598
  8
1
 62
     7
 10
173.24054567680491
 20
139.06822267062731
 30
0.0
 70
    32
  0
VERTEX
  5
17599
  8
1
 62
     7
 10
173.24414567680469
 20
139.07022267062769
 30
0.0
 70
    32
  0
VERTEX
  5
1759A
  8
1
 62
     7
 10
173.24764567680469
 20
139.07322267062759
 30
0.0
 70
    32
  0
VERTEX
  5
1759B
  8
1
 62
     7
 10
173.2511456768045
 20
139.07522267062731
 30
0.0
 70
    32
  0
VERTEX
  5
1759C
  8
1
 62
     7
 10
173.25464567680481
 20
139.0782226706273
 30
0.0
 70
    32
  0
VERTEX
  5
1759D
  8
1
 62
     7
 10
173.25824567680479
 20
139.08122267062751
 30
0.0
 70
    32
  0
VERTEX
  5
1759E
  8
1
 62
     7
 10
173.26164567680479
 20
139.08322267062761
 30
0.0
 70
    32
  0
VERTEX
  5
1759F
  8
1
 62
     7
 10
173.26514567680491
 20
139.08622267062751
 30
0.0
 70
    32
  0
VERTEX
  5
175A0
  8
1
 62
     7
 10
173.2686456768044
 20
139.08822267062791
 30
0.0
 70
    32
  0
VERTEX
  5
175A1
  8
1
 62
     7
 10
173.27214567680471
 20
139.0912226706275
 30
0.0
 70
    32
  0
VERTEX
  5
175A2
  8
1
 62
     7
 10
173.2755456768046
 20
139.0942226706274
 30
0.0
 70
    32
  0
VERTEX
  5
175A3
  8
1
 62
     7
 10
173.27904567680449
 20
139.0962226706275
 30
0.0
 70
    32
  0
VERTEX
  5
175A4
  8
1
 62
     7
 10
173.28244567680511
 20
139.0992226706274
 30
0.0
 70
    32
  0
VERTEX
  5
175A5
  8
1
 62
     7
 10
173.2858456768044
 20
139.10222267062741
 30
0.0
 70
    32
  0
VERTEX
  5
175A6
  8
1
 62
     7
 10
173.28924567680471
 20
139.10422267062739
 30
0.0
 70
    32
  0
VERTEX
  5
175A7
  8
1
 62
     7
 10
173.2926456768048
 20
139.10722267062769
 30
0.0
 70
    32
  0
VERTEX
  5
175A8
  8
1
 62
     7
 10
173.29604567680479
 20
139.11022267062759
 30
0.0
 70
    32
  0
VERTEX
  5
175A9
  8
1
 62
     7
 10
173.29934567680439
 20
139.11322267062761
 30
0.0
 70
    32
  0
VERTEX
  5
175AA
  8
1
 62
     7
 10
173.3027456768047
 20
139.11522267062759
 30
0.0
 70
    32
  0
VERTEX
  5
175AB
  8
1
 62
     7
 10
173.30604567680459
 20
139.1182226706272
 30
0.0
 70
    32
  0
VERTEX
  5
175AC
  8
1
 62
     7
 10
173.3094456768047
 20
139.1212226706275
 30
0.0
 70
    32
  0
VERTEX
  5
175AD
  8
1
 62
     7
 10
173.3127456768047
 20
139.1242226706278
 30
0.0
 70
    32
  0
VERTEX
  5
175AE
  8
1
 62
     7
 10
173.31604567680441
 20
139.1262226706275
 30
0.0
 70
    32
  0
VERTEX
  5
175AF
  8
1
 62
     7
 10
173.31934567680469
 20
139.1292226706274
 30
0.0
 70
    32
  0
VERTEX
  5
175B0
  8
1
 62
     7
 10
173.322645676805
 20
139.1322226706273
 30
0.0
 70
    32
  0
VERTEX
  5
175B1
  8
1
 62
     7
 10
173.32594567680439
 20
139.13522267062729
 30
0.0
 70
    32
  0
VERTEX
  5
175B2
  8
1
 62
     7
 10
173.3292456768049
 20
139.1382226706275
 30
0.0
 70
    32
  0
VERTEX
  5
175B3
  8
1
 62
     7
 10
173.33244567680501
 20
139.14122267062751
 30
0.0
 70
    32
  0
VERTEX
  5
175B4
  8
1
 62
     7
 10
173.33574567680469
 20
139.14422267062741
 30
0.0
 70
    32
  0
VERTEX
  5
175B5
  8
1
 62
     7
 10
173.33894567680429
 20
139.14722267062771
 30
0.0
 70
    32
  0
VERTEX
  5
175B6
  8
1
 62
     7
 10
173.34214567680439
 20
139.1502226706275
 30
0.0
 70
    32
  0
VERTEX
  5
175B7
  8
1
 62
     7
 10
173.34534567680501
 20
139.15222267062731
 30
0.0
 70
    32
  0
VERTEX
  5
175B8
  8
1
 62
     7
 10
173.34854567680509
 20
139.15522267062789
 30
0.0
 70
    32
  0
VERTEX
  5
175B9
  8
1
 62
     7
 10
173.35174567680471
 20
139.15822267062751
 30
0.0
 70
    32
  0
VERTEX
  5
175BA
  8
1
 62
     7
 10
173.35494567680479
 20
139.16122267062781
 30
0.0
 70
    32
  0
VERTEX
  5
175BB
  8
1
 62
     7
 10
173.3581456768047
 20
139.1642226706274
 30
0.0
 70
    32
  0
VERTEX
  5
175BC
  8
1
 62
     7
 10
173.36124567680449
 20
139.1672226706273
 30
0.0
 70
    32
  0
VERTEX
  5
175BD
  8
1
 62
     7
 10
173.36444567680491
 20
139.1702226706276
 30
0.0
 70
    32
  0
VERTEX
  5
175BE
  8
1
 62
     7
 10
173.36754567680489
 20
139.1732226706275
 30
0.0
 70
    32
  0
VERTEX
  5
175BF
  8
1
 62
     7
 10
173.3706456768048
 20
139.1762226706274
 30
0.0
 70
    32
  0
VERTEX
  5
175C0
  8
1
 62
     7
 10
173.37384567680479
 20
139.17922267062741
 30
0.0
 70
    32
  0
VERTEX
  5
175C1
  8
1
 62
     7
 10
173.37694567680501
 20
139.1822226706272
 30
0.0
 70
    32
  0
VERTEX
  5
175C2
  8
1
 62
     7
 10
173.38004567680471
 20
139.18522267062761
 30
0.0
 70
    32
  0
VERTEX
  5
175C3
  8
1
 62
     7
 10
173.38304567680439
 20
139.18822267062779
 30
0.0
 70
    32
  0
VERTEX
  5
175C4
  8
1
 62
     7
 10
173.38614567680469
 20
139.19222267062759
 30
0.0
 70
    32
  0
VERTEX
  5
175C5
  8
1
 62
     7
 10
173.38924567680479
 20
139.1952226706276
 30
0.0
 70
    32
  0
VERTEX
  5
175C6
  8
1
 62
     7
 10
173.39224567680481
 20
139.1982226706275
 30
0.0
 70
    32
  0
VERTEX
  5
175C7
  8
1
 62
     7
 10
173.39534567680471
 20
139.20122267062769
 30
0.0
 70
    32
  0
VERTEX
  5
175C8
  8
1
 62
     7
 10
173.39834567680441
 20
139.2042226706277
 30
0.0
 70
    32
  0
VERTEX
  5
175C9
  8
1
 62
     7
 10
173.40134567680499
 20
139.2072226706276
 30
0.0
 70
    32
  0
VERTEX
  5
175CA
  8
1
 62
     7
 10
173.4043456768047
 20
139.2102226706275
 30
0.0
 70
    32
  0
VERTEX
  5
175CB
  8
1
 62
     7
 10
173.4073456768044
 20
139.21322267062749
 30
0.0
 70
    32
  0
VERTEX
  5
175CC
  8
1
 62
     7
 10
173.41034567680481
 20
139.21722267062759
 30
0.0
 70
    32
  0
VERTEX
  5
175CD
  8
1
 62
     7
 10
173.41334567680471
 20
139.22022267062749
 30
0.0
 70
    32
  0
VERTEX
  5
175CE
  8
1
 62
     7
 10
173.41634567680461
 20
139.22322267062751
 30
0.0
 70
    32
  0
VERTEX
  5
175CF
  8
1
 62
     7
 10
173.41924567680439
 20
139.22622267062741
 30
0.0
 70
    32
  0
VERTEX
  5
175D0
  8
1
 62
     7
 10
173.42224567680449
 20
139.22922267062719
 30
0.0
 70
    32
  0
VERTEX
  5
175D1
  8
1
 62
     7
 10
173.4251456768049
 20
139.23222267062721
 30
0.0
 70
    32
  0
VERTEX
  5
175D2
  8
1
 62
     7
 10
173.42814567680489
 20
139.2362226706274
 30
0.0
 70
    32
  0
VERTEX
  5
175D3
  8
1
 62
     7
 10
173.43104567680501
 20
139.2392226706273
 30
0.0
 70
    32
  0
VERTEX
  5
175D4
  8
1
 62
     7
 10
173.433945676805
 20
139.2422226706272
 30
0.0
 70
    32
  0
VERTEX
  5
175D5
  8
1
 62
     7
 10
173.43684567680469
 20
139.2452226706275
 30
0.0
 70
    32
  0
VERTEX
  5
175D6
  8
1
 62
     7
 10
173.43974567680451
 20
139.24922267062729
 30
0.0
 70
    32
  0
VERTEX
  5
175D7
  8
1
 62
     7
 10
173.4426456768044
 20
139.25222267062719
 30
0.0
 70
    32
  0
VERTEX
  5
175D8
  8
1
 62
     7
 10
173.44544567680501
 20
139.2552226706278
 30
0.0
 70
    32
  0
VERTEX
  5
175D9
  8
1
 62
     7
 10
173.44834567680459
 20
139.25822267062739
 30
0.0
 70
    32
  0
VERTEX
  5
175DA
  8
1
 62
     7
 10
173.4511456768048
 20
139.26222267062761
 30
0.0
 70
    32
  0
VERTEX
  5
175DB
  8
1
 62
     7
 10
173.4540456768047
 20
139.26522267062779
 30
0.0
 70
    32
  0
VERTEX
  5
175DC
  8
1
 62
     7
 10
173.4568456768049
 20
139.26822267062741
 30
0.0
 70
    32
  0
VERTEX
  5
175DD
  8
1
 62
     7
 10
173.45964567680471
 20
139.2722226706272
 30
0.0
 70
    32
  0
VERTEX
  5
175DE
  8
1
 62
     7
 10
173.46244567680469
 20
139.2752226706275
 30
0.0
 70
    32
  0
VERTEX
  5
175DF
  8
1
 62
     7
 10
173.4652456768047
 20
139.27822267062771
 30
0.0
 70
    32
  0
VERTEX
  5
175E0
  8
1
 62
     7
 10
173.46804567680479
 20
139.2822226706279
 30
0.0
 70
    32
  0
VERTEX
  5
175E1
  8
1
 62
     7
 10
173.4708456768048
 20
139.28522267062749
 30
0.0
 70
    32
  0
VERTEX
  5
175E2
  8
1
 62
     7
 10
173.47364567680441
 20
139.2882226706277
 30
0.0
 70
    32
  0
VERTEX
  5
175E3
  8
1
 62
     7
 10
173.47634567680441
 20
139.2922226706275
 30
0.0
 70
    32
  0
VERTEX
  5
175E4
  8
1
 62
     7
 10
173.47914567680479
 20
139.29522267062751
 30
0.0
 70
    32
  0
VERTEX
  5
175E5
  8
1
 62
     7
 10
173.4818456768048
 20
139.29822267062741
 30
0.0
 70
    32
  0
VERTEX
  5
175E6
  8
1
 62
     7
 10
173.4846456768048
 20
139.30222267062749
 30
0.0
 70
    32
  0
VERTEX
  5
175E7
  8
1
 62
     7
 10
173.48734567680481
 20
139.30522267062781
 30
0.0
 70
    32
  0
VERTEX
  5
175E8
  8
1
 62
     7
 10
173.49004567680481
 20
139.30922267062721
 30
0.0
 70
    32
  0
VERTEX
  5
175E9
  8
1
 62
     7
 10
173.49274567680479
 20
139.31222267062751
 30
0.0
 70
    32
  0
VERTEX
  5
175EA
  8
1
 62
     7
 10
173.49544567680459
 20
139.31522267062741
 30
0.0
 70
    32
  0
VERTEX
  5
175EB
  8
1
 62
     7
 10
173.49814567680451
 20
139.3192226706276
 30
0.0
 70
    32
  0
VERTEX
  5
175EC
  8
1
 62
     7
 10
173.50084567680449
 20
139.3222226706275
 30
0.0
 70
    32
  0
VERTEX
  5
175ED
  8
1
 62
     7
 10
173.5034456768048
 20
139.32622267062729
 30
0.0
 70
    32
  0
VERTEX
  5
175EE
  8
1
 62
     7
 10
173.50614567680481
 20
139.32922267062759
 30
0.0
 70
    32
  0
VERTEX
  5
175EF
  8
1
 62
     7
 10
173.50884567680481
 20
139.33322267062729
 30
0.0
 70
    32
  0
VERTEX
  5
175F0
  8
1
 62
     7
 10
173.51144567680441
 20
139.33622267062731
 30
0.0
 70
    32
  0
VERTEX
  5
175F1
  8
1
 62
     7
 10
173.5140456768047
 20
139.33922267062721
 30
0.0
 70
    32
  0
VERTEX
  5
175F2
  8
1
 62
     7
 10
173.5166456768049
 20
139.34322267062731
 30
0.0
 70
    32
  0
VERTEX
  5
175F3
  8
1
 62
     7
 10
173.5193456768049
 20
139.3462226706273
 30
0.0
 70
    32
  0
VERTEX
  5
175F4
  8
1
 62
     7
 10
173.52194567680471
 20
139.3502226706274
 30
0.0
 70
    32
  0
VERTEX
  5
175F5
  8
1
 62
     7
 10
173.52454567680479
 20
139.3532226706273
 30
0.0
 70
    32
  0
VERTEX
  5
175F6
  8
1
 62
     7
 10
173.52704567680479
 20
139.35722267062749
 30
0.0
 70
    32
  0
VERTEX
  5
175F7
  8
1
 62
     7
 10
173.5296456768049
 20
139.36022267062739
 30
0.0
 70
    32
  0
VERTEX
  5
175F8
  8
1
 62
     7
 10
173.53224567680459
 20
139.3642226706275
 30
0.0
 70
    32
  0
VERTEX
  5
175F9
  8
1
 62
     7
 10
173.5347456768047
 20
139.36722267062751
 30
0.0
 70
    32
  0
VERTEX
  5
175FA
  8
1
 62
     7
 10
173.5373456768047
 20
139.37122267062759
 30
0.0
 70
    32
  0
VERTEX
  5
175FB
  8
1
 62
     7
 10
173.53984567680459
 20
139.37422267062749
 30
0.0
 70
    32
  0
VERTEX
  5
175FC
  8
1
 62
     7
 10
173.54244567680439
 20
139.37822267062759
 30
0.0
 70
    32
  0
VERTEX
  5
175FD
  8
1
 62
     7
 10
173.54494567680459
 20
139.38122267062761
 30
0.0
 70
    32
  0
VERTEX
  5
175FE
  8
1
 62
     7
 10
173.5474456768045
 20
139.38522267062771
 30
0.0
 70
    32
  0
VERTEX
  5
175FF
  8
1
 62
     7
 10
173.54994567680481
 20
139.3892226706275
 30
0.0
 70
    32
  0
VERTEX
  5
17600
  8
1
 62
     7
 10
173.55244567680481
 20
139.3922226706274
 30
0.0
 70
    32
  0
VERTEX
  5
17601
  8
1
 62
     7
 10
173.55494567680461
 20
139.39622267062759
 30
0.0
 70
    32
  0
VERTEX
  5
17602
  8
1
 62
     7
 10
173.55744567680469
 20
139.39922267062749
 30
0.0
 70
    32
  0
VERTEX
  5
17603
  8
1
 62
     7
 10
173.559845676805
 20
139.40322267062729
 30
0.0
 70
    32
  0
VERTEX
  5
17604
  8
1
 62
     7
 10
173.56234567680451
 20
139.40622267062719
 30
0.0
 70
    32
  0
VERTEX
  5
17605
  8
1
 62
     7
 10
173.5647456768049
 20
139.41022267062729
 30
0.0
 70
    32
  0
VERTEX
  5
17606
  8
1
 62
     7
 10
173.5672456768045
 20
139.41422267062751
 30
0.0
 70
    32
  0
VERTEX
  5
17607
  8
1
 62
     7
 10
173.56964567680441
 20
139.41722267062741
 30
0.0
 70
    32
  0
VERTEX
  5
17608
  8
1
 62
     7
 10
173.57204567680489
 20
139.42122267062749
 30
0.0
 70
    32
  0
VERTEX
  5
17609
  8
1
 62
     7
 10
173.57454567680469
 20
139.4242226706275
 30
0.0
 70
    32
  0
VERTEX
  5
1760A
  8
1
 62
     7
 10
173.5769456768048
 20
139.4282226706276
 30
0.0
 70
    32
  0
VERTEX
  5
1760B
  8
1
 62
     7
 10
173.57934567680439
 20
139.43222267062771
 30
0.0
 70
    32
  0
VERTEX
  5
1760C
  8
1
 62
     7
 10
173.5817456768047
 20
139.4352226706273
 30
0.0
 70
    32
  0
VERTEX
  5
1760D
  8
1
 62
     7
 10
173.58414567680461
 20
139.43922267062749
 30
0.0
 70
    32
  0
VERTEX
  5
1760E
  8
1
 62
     7
 10
173.5864456768046
 20
139.44322267062719
 30
0.0
 70
    32
  0
VERTEX
  5
1760F
  8
1
 62
     7
 10
173.58884567680431
 20
139.44622267062749
 30
0.0
 70
    32
  0
VERTEX
  5
17610
  8
1
 62
     7
 10
173.59124567680439
 20
139.4502226706272
 30
0.0
 70
    32
  0
VERTEX
  5
17611
  8
1
 62
     7
 10
173.59354567680469
 20
139.4542226706275
 30
0.0
 70
    32
  0
VERTEX
  5
17612
  8
1
 62
     7
 10
173.5959456768048
 20
139.4572226706274
 30
0.0
 70
    32
  0
VERTEX
  5
17613
  8
1
 62
     7
 10
173.59824567680491
 20
139.46122267062751
 30
0.0
 70
    32
  0
VERTEX
  5
17614
  8
1
 62
     7
 10
173.60054567680481
 20
139.4652226706275
 30
0.0
 70
    32
  0
VERTEX
  5
17615
  8
1
 62
     7
 10
173.60284567680429
 20
139.4682226706276
 30
0.0
 70
    32
  0
VERTEX
  5
17616
  8
1
 62
     7
 10
173.6051456768048
 20
139.4722226706277
 30
0.0
 70
    32
  0
VERTEX
  5
17617
  8
1
 62
     7
 10
173.60754567680499
 20
139.47622267062749
 30
0.0
 70
    32
  0
VERTEX
  5
17618
  8
1
 62
     7
 10
173.60974567680501
 20
139.47922267062779
 30
0.0
 70
    32
  0
VERTEX
  5
17619
  8
1
 62
     7
 10
173.61204567680491
 20
139.4832226706279
 30
0.0
 70
    32
  0
VERTEX
  5
1761A
  8
1
 62
     7
 10
173.6143456768047
 20
139.4872226706274
 30
0.0
 70
    32
  0
VERTEX
  5
1761B
  8
1
 62
     7
 10
173.61664567680481
 20
139.49022267062719
 30
0.0
 70
    32
  0
VERTEX
  5
1761C
  8
1
 62
     7
 10
173.61894567680449
 20
139.49422267062741
 30
0.0
 70
    32
  0
VERTEX
  5
1761D
  8
1
 62
     7
 10
173.62114567680479
 20
139.49822267062751
 30
0.0
 70
    32
  0
VERTEX
  5
1761E
  8
1
 62
     7
 10
173.62344567680469
 20
139.5022226706277
 30
0.0
 70
    32
  0
VERTEX
  5
1761F
  8
1
 62
     7
 10
173.62564567680491
 20
139.5052226706276
 30
0.0
 70
    32
  0
VERTEX
  5
17620
  8
1
 62
     7
 10
173.6278456768047
 20
139.50922267062771
 30
0.0
 70
    32
  0
VERTEX
  5
17621
  8
1
 62
     7
 10
173.63014567680489
 20
139.51322267062719
 30
0.0
 70
    32
  0
VERTEX
  5
17622
  8
1
 62
     7
 10
173.63234567680479
 20
139.5162226706278
 30
0.0
 70
    32
  0
VERTEX
  5
17623
  8
1
 62
     7
 10
173.63454567680469
 20
139.52022267062719
 30
0.0
 70
    32
  0
VERTEX
  5
17624
  8
1
 62
     7
 10
173.63674567680499
 20
139.52422267062741
 30
0.0
 70
    32
  0
VERTEX
  5
17625
  8
1
 62
     7
 10
173.63894567680489
 20
139.5282226706274
 30
0.0
 70
    32
  0
VERTEX
  5
17626
  8
1
 62
     7
 10
173.6411456768044
 20
139.53122267062739
 30
0.0
 70
    32
  0
VERTEX
  5
17627
  8
1
 62
     7
 10
173.6432456768045
 20
139.5352226706276
 30
0.0
 70
    32
  0
VERTEX
  5
17628
  8
1
 62
     7
 10
173.64544567680491
 20
139.53922267062771
 30
0.0
 70
    32
  0
VERTEX
  5
17629
  8
1
 62
     7
 10
173.64764567680481
 20
139.5432226706275
 30
0.0
 70
    32
  0
VERTEX
  5
1762A
  8
1
 62
     7
 10
173.649745676805
 20
139.54722267062729
 30
0.0
 70
    32
  0
VERTEX
  5
1762B
  8
1
 62
     7
 10
173.65194567680439
 20
139.55022267062759
 30
0.0
 70
    32
  0
VERTEX
  5
1762C
  8
1
 62
     7
 10
173.6540456768046
 20
139.55422267062741
 30
0.0
 70
    32
  0
VERTEX
  5
1762D
  8
1
 62
     7
 10
173.6562456768045
 20
139.55822267062749
 30
0.0
 70
    32
  0
VERTEX
  5
1762E
  8
1
 62
     7
 10
173.6583456768046
 20
139.56222267062759
 30
0.0
 70
    32
  0
VERTEX
  5
1762F
  8
1
 62
     7
 10
173.6604456768045
 20
139.56522267062761
 30
0.0
 70
    32
  0
VERTEX
  5
17630
  8
1
 62
     7
 10
173.66254567680491
 20
139.56922267062731
 30
0.0
 70
    32
  0
VERTEX
  5
17631
  8
1
 62
     7
 10
173.66464567680501
 20
139.5732226706275
 30
0.0
 70
    32
  0
VERTEX
  5
17632
  8
1
 62
     7
 10
173.66674567680479
 20
139.57722267062729
 30
0.0
 70
    32
  0
VERTEX
  5
17633
  8
1
 62
     7
 10
173.66884567680489
 20
139.5812226706274
 30
0.0
 70
    32
  0
VERTEX
  5
17634
  8
1
 62
     7
 10
173.6709456768051
 20
139.5852226706275
 30
0.0
 70
    32
  0
VERTEX
  5
17635
  8
1
 62
     7
 10
173.6730456768048
 20
139.58822267062749
 30
0.0
 70
    32
  0
VERTEX
  5
17636
  8
1
 62
     7
 10
173.6750456768047
 20
139.59222267062759
 30
0.0
 70
    32
  0
VERTEX
  5
17637
  8
1
 62
     7
 10
173.67714567680471
 20
139.59622267062741
 30
0.0
 70
    32
  0
VERTEX
  5
17638
  8
1
 62
     7
 10
173.67924567680481
 20
139.60022267062789
 30
0.0
 70
    32
  0
VERTEX
  5
17639
  8
1
 62
     7
 10
173.68124567680499
 20
139.60422267062731
 30
0.0
 70
    32
  0
VERTEX
  5
1763A
  8
1
 62
     7
 10
173.68334567680469
 20
139.60722267062721
 30
0.0
 70
    32
  0
VERTEX
  5
1763B
  8
1
 62
     7
 10
173.68534567680459
 20
139.6112226706274
 30
0.0
 70
    32
  0
VERTEX
  5
1763C
  8
1
 62
     7
 10
173.6873456768048
 20
139.6152226706275
 30
0.0
 70
    32
  0
VERTEX
  5
1763D
  8
1
 62
     7
 10
173.68934567680461
 20
139.61922267062761
 30
0.0
 70
    32
  0
VERTEX
  5
1763E
  8
1
 62
     7
 10
173.6913456768045
 20
139.6232226706274
 30
0.0
 70
    32
  0
VERTEX
  5
1763F
  8
1
 62
     7
 10
173.69334567680451
 20
139.62722267062759
 30
0.0
 70
    32
  0
VERTEX
  5
17640
  8
1
 62
     7
 10
173.69534567680489
 20
139.6312226706273
 30
0.0
 70
    32
  0
VERTEX
  5
17641
  8
1
 62
     7
 10
173.69734567680439
 20
139.63422267062731
 30
0.0
 70
    32
  0
VERTEX
  5
17642
  8
1
 62
     7
 10
173.6993456768048
 20
139.63822267062741
 30
0.0
 70
    32
  0
VERTEX
  5
17643
  8
1
 62
     7
 10
173.701345676805
 20
139.6422226706276
 30
0.0
 70
    32
  0
VERTEX
  5
17644
  8
1
 62
     7
 10
173.7033456768047
 20
139.64622267062771
 30
0.0
 70
    32
  0
VERTEX
  5
17645
  8
1
 62
     7
 10
173.70524567680459
 20
139.6502226706275
 30
0.0
 70
    32
  0
VERTEX
  5
17646
  8
1
 62
     7
 10
173.7072456768048
 20
139.65422267062729
 30
0.0
 70
    32
  0
VERTEX
  5
17647
  8
1
 62
     7
 10
173.7091456768045
 20
139.6582226706274
 30
0.0
 70
    32
  0
VERTEX
  5
17648
  8
1
 62
     7
 10
173.71114567680479
 20
139.6622226706275
 30
0.0
 70
    32
  0
VERTEX
  5
17649
  8
1
 62
     7
 10
173.71304567680431
 20
139.66622267062769
 30
0.0
 70
    32
  0
VERTEX
  5
1764A
  8
1
 62
     7
 10
173.71494567680469
 20
139.66922267062759
 30
0.0
 70
    32
  0
VERTEX
  5
1764B
  8
1
 62
     7
 10
173.7169456768049
 20
139.67322267062741
 30
0.0
 70
    32
  0
VERTEX
  5
1764C
  8
1
 62
     7
 10
173.7188456768047
 20
139.6772226706278
 30
0.0
 70
    32
  0
VERTEX
  5
1764D
  8
1
 62
     7
 10
173.7207456768044
 20
139.68122267062731
 30
0.0
 70
    32
  0
VERTEX
  5
1764E
  8
1
 62
     7
 10
173.72264567680509
 20
139.68522267062741
 30
0.0
 70
    32
  0
VERTEX
  5
1764F
  8
1
 62
     7
 10
173.72454567680481
 20
139.6892226706276
 30
0.0
 70
    32
  0
VERTEX
  5
17650
  8
1
 62
     7
 10
173.72644567680501
 20
139.69322267062739
 30
0.0
 70
    32
  0
VERTEX
  5
17651
  8
1
 62
     7
 10
173.72824567680499
 20
139.6972226706275
 30
0.0
 70
    32
  0
VERTEX
  5
17652
  8
1
 62
     7
 10
173.7301456768046
 20
139.70122267062729
 30
0.0
 70
    32
  0
VERTEX
  5
17653
  8
1
 62
     7
 10
173.73204567680449
 20
139.70522267062739
 30
0.0
 70
    32
  0
VERTEX
  5
17654
  8
1
 62
     7
 10
173.7338456768048
 20
139.7092226706275
 30
0.0
 70
    32
  0
VERTEX
  5
17655
  8
1
 62
     7
 10
173.7357456768047
 20
139.71222267062751
 30
0.0
 70
    32
  0
VERTEX
  5
17656
  8
1
 62
     7
 10
173.73754567680501
 20
139.71622267062759
 30
0.0
 70
    32
  0
VERTEX
  5
17657
  8
1
 62
     7
 10
173.73944567680491
 20
139.72022267062741
 30
0.0
 70
    32
  0
VERTEX
  5
17658
  8
1
 62
     7
 10
173.74124567680499
 20
139.7242226706272
 30
0.0
 70
    32
  0
VERTEX
  5
17659
  8
1
 62
     7
 10
173.74304567680471
 20
139.7282226706273
 30
0.0
 70
    32
  0
VERTEX
  5
1765A
  8
1
 62
     7
 10
173.74494567680469
 20
139.73222267062749
 30
0.0
 70
    32
  0
VERTEX
  5
1765B
  8
1
 62
     7
 10
173.74674567680469
 20
139.7362226706276
 30
0.0
 70
    32
  0
VERTEX
  5
1765C
  8
1
 62
     7
 10
173.74854567680521
 20
139.7402226706277
 30
0.0
 70
    32
  0
VERTEX
  5
1765D
  8
1
 62
     7
 10
173.7503456768047
 20
139.74422267062749
 30
0.0
 70
    32
  0
VERTEX
  5
1765E
  8
1
 62
     7
 10
173.7521456768047
 20
139.74822267062731
 30
0.0
 70
    32
  0
VERTEX
  5
1765F
  8
1
 62
     7
 10
173.7539456768047
 20
139.7522226706275
 30
0.0
 70
    32
  0
VERTEX
  5
17660
  8
1
 62
     7
 10
173.75564567680451
 20
139.75622267062761
 30
0.0
 70
    32
  0
VERTEX
  5
17661
  8
1
 62
     7
 10
173.75744567680499
 20
139.7602226706274
 30
0.0
 70
    32
  0
VERTEX
  5
17662
  8
1
 62
     7
 10
173.7592456768046
 20
139.7642226706275
 30
0.0
 70
    32
  0
VERTEX
  5
17663
  8
1
 62
     7
 10
173.761045676805
 20
139.7682226706273
 30
0.0
 70
    32
  0
VERTEX
  5
17664
  8
1
 62
     7
 10
173.7627456768048
 20
139.7722226706274
 30
0.0
 70
    32
  0
VERTEX
  5
17665
  8
1
 62
     7
 10
173.7645456768048
 20
139.77622267062759
 30
0.0
 70
    32
  0
VERTEX
  5
17666
  8
1
 62
     7
 10
173.7662456768046
 20
139.78022267062769
 30
0.0
 70
    32
  0
VERTEX
  5
17667
  8
1
 62
     7
 10
173.7679456768048
 20
139.7842226706278
 30
0.0
 70
    32
  0
VERTEX
  5
17668
  8
1
 62
     7
 10
173.7697456768048
 20
139.78822267062719
 30
0.0
 70
    32
  0
VERTEX
  5
17669
  8
1
 62
     7
 10
173.77144567680509
 20
139.79222267062741
 30
0.0
 70
    32
  0
VERTEX
  5
1766A
  8
1
 62
     7
 10
173.7731456768044
 20
139.79622267062749
 30
0.0
 70
    32
  0
VERTEX
  5
1766B
  8
1
 62
     7
 10
173.77484567680469
 20
139.8002226706277
 30
0.0
 70
    32
  0
VERTEX
  5
1766C
  8
1
 62
     7
 10
173.77654567680449
 20
139.8042226706275
 30
0.0
 70
    32
  0
VERTEX
  5
1766D
  8
1
 62
     7
 10
173.77824567680469
 20
139.80822267062729
 30
0.0
 70
    32
  0
VERTEX
  5
1766E
  8
1
 62
     7
 10
173.77994567680449
 20
139.81222267062739
 30
0.0
 70
    32
  0
VERTEX
  5
1766F
  8
1
 62
     7
 10
173.7816456768044
 20
139.8162226706275
 30
0.0
 70
    32
  0
VERTEX
  5
17670
  8
1
 62
     7
 10
173.78334567680449
 20
139.82022267062769
 30
0.0
 70
    32
  0
VERTEX
  5
17671
  8
1
 62
     7
 10
173.78504567680491
 20
139.82422267062751
 30
0.0
 70
    32
  0
VERTEX
  5
17672
  8
1
 62
     7
 10
173.78674567680491
 20
139.82822267062721
 30
0.0
 70
    32
  0
VERTEX
  5
17673
  8
1
 62
     7
 10
173.78834567680471
 20
139.8322226706274
 30
0.0
 70
    32
  0
VERTEX
  5
17674
  8
1
 62
     7
 10
173.79004567680471
 20
139.83622267062751
 30
0.0
 70
    32
  0
VERTEX
  5
17675
  8
1
 62
     7
 10
173.79164567680479
 20
139.84022267062761
 30
0.0
 70
    32
  0
VERTEX
  5
17676
  8
1
 62
     7
 10
173.79334567680439
 20
139.8442226706274
 30
0.0
 70
    32
  0
VERTEX
  5
17677
  8
1
 62
     7
 10
173.7949456768049
 20
139.84822267062719
 30
0.0
 70
    32
  0
VERTEX
  5
17678
  8
1
 62
     7
 10
173.7966456768047
 20
139.85222267062741
 30
0.0
 70
    32
  0
VERTEX
  5
17679
  8
1
 62
     7
 10
173.7982456768045
 20
139.85622267062749
 30
0.0
 70
    32
  0
VERTEX
  5
1767A
  8
1
 62
     7
 10
173.79984567680481
 20
139.86022267062759
 30
0.0
 70
    32
  0
VERTEX
  5
1767B
  8
1
 62
     7
 10
173.80144567680441
 20
139.86422267062781
 30
0.0
 70
    32
  0
VERTEX
  5
1767C
  8
1
 62
     7
 10
173.80314567680449
 20
139.8682226706272
 30
0.0
 70
    32
  0
VERTEX
  5
1767D
  8
1
 62
     7
 10
173.80474567680471
 20
139.87222267062731
 30
0.0
 70
    32
  0
VERTEX
  5
1767E
  8
1
 62
     7
 10
173.80634567680431
 20
139.8762226706275
 30
0.0
 70
    32
  0
VERTEX
  5
1767F
  8
1
 62
     7
 10
173.80794567680479
 20
139.8802226706276
 30
0.0
 70
    32
  0
VERTEX
  5
17680
  8
1
 62
     7
 10
173.80944567680459
 20
139.88422267062739
 30
0.0
 70
    32
  0
VERTEX
  5
17681
  8
1
 62
     7
 10
173.81104567680489
 20
139.88822267062719
 30
0.0
 70
    32
  0
VERTEX
  5
17682
  8
1
 62
     7
 10
173.81264567680481
 20
139.89222267062729
 30
0.0
 70
    32
  0
VERTEX
  5
17683
  8
1
 62
     7
 10
173.8142456768048
 20
139.89622267062751
 30
0.0
 70
    32
  0
VERTEX
  5
17684
  8
1
 62
     7
 10
173.81574567680471
 20
139.90022267062761
 30
0.0
 70
    32
  0
VERTEX
  5
17685
  8
1
 62
     7
 10
173.81734567680471
 20
139.90422267062769
 30
0.0
 70
    32
  0
VERTEX
  5
17686
  8
1
 62
     7
 10
173.8189456768043
 20
139.9092226706274
 30
0.0
 70
    32
  0
VERTEX
  5
17687
  8
1
 62
     7
 10
173.82044567680501
 20
139.9132226706275
 30
0.0
 70
    32
  0
VERTEX
  5
17688
  8
1
 62
     7
 10
173.82194567680489
 20
139.91722267062761
 30
0.0
 70
    32
  0
VERTEX
  5
17689
  8
1
 62
     7
 10
173.82354567680471
 20
139.9212226706274
 30
0.0
 70
    32
  0
VERTEX
  5
1768A
  8
1
 62
     7
 10
173.82504567680479
 20
139.9252226706279
 30
0.0
 70
    32
  0
VERTEX
  5
1768B
  8
1
 62
     7
 10
173.82654567680419
 20
139.92922267062741
 30
0.0
 70
    32
  0
VERTEX
  5
1768C
  8
1
 62
     7
 10
173.8281456768047
 20
139.93322267062749
 30
0.0
 70
    32
  0
VERTEX
  5
1768D
  8
1
 62
     7
 10
173.82964567680449
 20
139.93722267062759
 30
0.0
 70
    32
  0
VERTEX
  5
1768E
  8
1
 62
     7
 10
173.83114567680471
 20
139.94122267062781
 30
0.0
 70
    32
  0
VERTEX
  5
1768F
  8
1
 62
     7
 10
173.8326456768047
 20
139.9452226706278
 30
0.0
 70
    32
  0
VERTEX
  5
17690
  8
1
 62
     7
 10
173.83414567680501
 20
139.94922267062731
 30
0.0
 70
    32
  0
VERTEX
  5
17691
  8
1
 62
     7
 10
173.8356456768044
 20
139.9532226706275
 30
0.0
 70
    32
  0
VERTEX
  5
17692
  8
1
 62
     7
 10
173.83714567680471
 20
139.9572226706276
 30
0.0
 70
    32
  0
VERTEX
  5
17693
  8
1
 62
     7
 10
173.8385456768049
 20
139.96122267062771
 30
0.0
 70
    32
  0
VERTEX
  5
17694
  8
1
 62
     7
 10
173.84004567680469
 20
139.96622267062739
 30
0.0
 70
    32
  0
VERTEX
  5
17695
  8
1
 62
     7
 10
173.841545676805
 20
139.97022267062749
 30
0.0
 70
    32
  0
VERTEX
  5
17696
  8
1
 62
     7
 10
173.84304567680459
 20
139.97422267062771
 30
0.0
 70
    32
  0
VERTEX
  5
17697
  8
1
 62
     7
 10
173.84444567680501
 20
139.97822267062739
 30
0.0
 70
    32
  0
VERTEX
  5
17698
  8
1
 62
     7
 10
173.8459456768044
 20
139.98222267062721
 30
0.0
 70
    32
  0
VERTEX
  5
17699
  8
1
 62
     7
 10
173.84734567680451
 20
139.9862226706274
 30
0.0
 70
    32
  0
VERTEX
  5
1769A
  8
1
 62
     7
 10
173.84884567680481
 20
139.9902226706275
 30
0.0
 70
    32
  0
VERTEX
  5
1769B
  8
1
 62
     7
 10
173.85024567680489
 20
139.99422267062761
 30
0.0
 70
    32
  0
VERTEX
  5
1769C
  8
1
 62
     7
 10
173.85164567680499
 20
139.9982226706274
 30
0.0
 70
    32
  0
VERTEX
  5
1769D
  8
1
 62
     7
 10
173.85304567680501
 20
140.00222267062719
 30
0.0
 70
    32
  0
VERTEX
  5
1769E
  8
1
 62
     7
 10
173.85454567680449
 20
140.00722267062761
 30
0.0
 70
    32
  0
VERTEX
  5
1769F
  8
1
 62
     7
 10
173.85594567680479
 20
140.01122267062769
 30
0.0
 70
    32
  0
VERTEX
  5
176A0
  8
1
 62
     7
 10
173.8573456768047
 20
140.01522267062779
 30
0.0
 70
    32
  0
VERTEX
  5
176A1
  8
1
 62
     7
 10
173.8587456768048
 20
140.0192226706273
 30
0.0
 70
    32
  0
VERTEX
  5
176A2
  8
1
 62
     7
 10
173.8601456768049
 20
140.0232226706274
 30
0.0
 70
    32
  0
VERTEX
  5
176A3
  8
1
 62
     7
 10
173.86154567680501
 20
140.02722267062751
 30
0.0
 70
    32
  0
VERTEX
  5
176A4
  8
1
 62
     7
 10
173.86294567680491
 20
140.0312226706273
 30
0.0
 70
    32
  0
VERTEX
  5
176A5
  8
1
 62
     7
 10
173.86434567680431
 20
140.03522267062749
 30
0.0
 70
    32
  0
VERTEX
  5
176A6
  8
1
 62
     7
 10
173.86564567680489
 20
140.03922267062731
 30
0.0
 70
    32
  0
VERTEX
  5
176A7
  8
1
 62
     7
 10
173.86704567680431
 20
140.04422267062759
 30
0.0
 70
    32
  0
VERTEX
  5
176A8
  8
1
 62
     7
 10
173.86844567680461
 20
140.04822267062769
 30
0.0
 70
    32
  0
VERTEX
  5
176A9
  8
1
 62
     7
 10
173.86974567680471
 20
140.05222267062749
 30
0.0
 70
    32
  0
VERTEX
  5
176AA
  8
1
 62
     7
 10
173.87114567680459
 20
140.05622267062719
 30
0.0
 70
    32
  0
VERTEX
  5
176AB
  8
1
 62
     7
 10
173.87244567680469
 20
140.0602226706275
 30
0.0
 70
    32
  0
VERTEX
  5
176AC
  8
1
 62
     7
 10
173.87384567680459
 20
140.0642226706276
 30
0.0
 70
    32
  0
VERTEX
  5
176AD
  8
1
 62
     7
 10
173.87514567680469
 20
140.0682226706277
 30
0.0
 70
    32
  0
VERTEX
  5
176AE
  8
1
 62
     7
 10
173.87644567680491
 20
140.07322267062739
 30
0.0
 70
    32
  0
VERTEX
  5
176AF
  8
1
 62
     7
 10
173.87784567680481
 20
140.07722267062749
 30
0.0
 70
    32
  0
VERTEX
  5
176B0
  8
1
 62
     7
 10
173.87914567680491
 20
140.0812226706276
 30
0.0
 70
    32
  0
VERTEX
  5
176B1
  8
1
 62
     7
 10
173.88044567680501
 20
140.08522267062779
 30
0.0
 70
    32
  0
VERTEX
  5
176B2
  8
1
 62
     7
 10
173.88174567680491
 20
140.08922267062749
 30
0.0
 70
    32
  0
VERTEX
  5
176B3
  8
1
 62
     7
 10
173.88304567680461
 20
140.0932226706274
 30
0.0
 70
    32
  0
VERTEX
  5
176B4
  8
1
 62
     7
 10
173.88434567680471
 20
140.0972226706275
 30
0.0
 70
    32
  0
VERTEX
  5
176B5
  8
1
 62
     7
 10
173.88564567680481
 20
140.10222267062781
 30
0.0
 70
    32
  0
VERTEX
  5
176B6
  8
1
 62
     7
 10
173.88694567680429
 20
140.10622267062729
 30
0.0
 70
    32
  0
VERTEX
  5
176B7
  8
1
 62
     7
 10
173.8882456768049
 20
140.11022267062739
 30
0.0
 70
    32
  0
VERTEX
  5
176B8
  8
1
 62
     7
 10
173.8895456768048
 20
140.1142226706275
 30
0.0
 70
    32
  0
VERTEX
  5
176B9
  8
1
 62
     7
 10
173.8908456768047
 20
140.11822267062769
 30
0.0
 70
    32
  0
VERTEX
  5
176BA
  8
1
 62
     7
 10
173.8920456768044
 20
140.12222267062751
 30
0.0
 70
    32
  0
VERTEX
  5
176BB
  8
1
 62
     7
 10
173.8933456768047
 20
140.12622267062719
 30
0.0
 70
    32
  0
VERTEX
  5
176BC
  8
1
 62
     7
 10
173.89464567680511
 20
140.13122267062761
 30
0.0
 70
    32
  0
VERTEX
  5
176BD
  8
1
 62
     7
 10
173.89584567680481
 20
140.13522267062771
 30
0.0
 70
    32
  0
VERTEX
  5
176BE
  8
1
 62
     7
 10
173.8971456768046
 20
140.1392226706279
 30
0.0
 70
    32
  0
VERTEX
  5
176BF
  8
1
 62
     7
 10
173.89834567680481
 20
140.14322267062749
 30
0.0
 70
    32
  0
VERTEX
  5
176C0
  8
1
 62
     7
 10
173.89964567680499
 20
140.1472226706274
 30
0.0
 70
    32
  0
VERTEX
  5
176C1
  8
1
 62
     7
 10
173.90084567680469
 20
140.15122267062759
 30
0.0
 70
    32
  0
VERTEX
  5
176C2
  8
1
 62
     7
 10
173.90204567680459
 20
140.15622267062719
 30
0.0
 70
    32
  0
VERTEX
  5
176C3
  8
1
 62
     7
 10
173.903345676805
 20
140.16022267062729
 30
0.0
 70
    32
  0
VERTEX
  5
176C4
  8
1
 62
     7
 10
173.90454567680459
 20
140.16422267062751
 30
0.0
 70
    32
  0
VERTEX
  5
176C5
  8
1
 62
     7
 10
173.9057456768048
 20
140.16822267062761
 30
0.0
 70
    32
  0
VERTEX
  5
176C6
  8
1
 62
     7
 10
173.9069456768045
 20
140.17222267062741
 30
0.0
 70
    32
  0
VERTEX
  5
176C7
  8
1
 62
     7
 10
173.9081456768042
 20
140.17622267062751
 30
0.0
 70
    32
  0
VERTEX
  5
176C8
  8
1
 62
     7
 10
173.9093456768048
 20
140.18122267062751
 30
0.0
 70
    32
  0
VERTEX
  5
176C9
  8
1
 62
     7
 10
173.9105456768047
 20
140.1852226706277
 30
0.0
 70
    32
  0
VERTEX
  5
176CA
  8
1
 62
     7
 10
173.9117456768044
 20
140.18922267062749
 30
0.0
 70
    32
  0
VERTEX
  5
176CB
  8
1
 62
     7
 10
173.91294567680481
 20
140.19322267062719
 30
0.0
 70
    32
  0
VERTEX
  5
176CC
  8
1
 62
     7
 10
173.91414567680499
 20
140.1972226706277
 30
0.0
 70
    32
  0
VERTEX
  5
176CD
  8
1
 62
     7
 10
173.91534567680469
 20
140.20222267062769
 30
0.0
 70
    32
  0
VERTEX
  5
176CE
  8
1
 62
     7
 10
173.91644567680501
 20
140.20622267062751
 30
0.0
 70
    32
  0
VERTEX
  5
176CF
  8
1
 62
     7
 10
173.9176456768048
 20
140.2102226706273
 30
0.0
 70
    32
  0
VERTEX
  5
176D0
  8
1
 62
     7
 10
173.91884567680489
 20
140.21422267062741
 30
0.0
 70
    32
  0
VERTEX
  5
176D1
  8
1
 62
     7
 10
173.9199456768049
 20
140.2182226706276
 30
0.0
 70
    32
  0
VERTEX
  5
176D2
  8
1
 62
     7
 10
173.921145676805
 20
140.2222226706277
 30
0.0
 70
    32
  0
VERTEX
  5
176D3
  8
1
 62
     7
 10
173.92224567680501
 20
140.22722267062741
 30
0.0
 70
    32
  0
VERTEX
  5
176D4
  8
1
 62
     7
 10
173.9234456768047
 20
140.23122267062749
 30
0.0
 70
    32
  0
VERTEX
  5
176D5
  8
1
 62
     7
 10
173.92454567680491
 20
140.23522267062759
 30
0.0
 70
    32
  0
VERTEX
  5
176D6
  8
1
 62
     7
 10
173.92574567680461
 20
140.23922267062781
 30
0.0
 70
    32
  0
VERTEX
  5
176D7
  8
1
 62
     7
 10
173.9268456768047
 20
140.2432226706276
 30
0.0
 70
    32
  0
VERTEX
  5
176D8
  8
1
 62
     7
 10
173.92794567680451
 20
140.24822267062751
 30
0.0
 70
    32
  0
VERTEX
  5
176D9
  8
1
 62
     7
 10
173.92904567680461
 20
140.2522226706277
 30
0.0
 70
    32
  0
VERTEX
  5
176DA
  8
1
 62
     7
 10
173.93024567680479
 20
140.25622267062781
 30
0.0
 70
    32
  0
VERTEX
  5
176DB
  8
1
 62
     7
 10
173.93134567680471
 20
140.26022267062729
 30
0.0
 70
    32
  0
VERTEX
  5
176DC
  8
1
 62
     7
 10
173.93244567680469
 20
140.26422267062739
 30
0.0
 70
    32
  0
VERTEX
  5
176DD
  8
1
 62
     7
 10
173.9335456768047
 20
140.2692226706277
 30
0.0
 70
    32
  0
VERTEX
  5
176DE
  8
1
 62
     7
 10
173.93464567680459
 20
140.27322267062749
 30
0.0
 70
    32
  0
VERTEX
  5
176DF
  8
1
 62
     7
 10
173.935745676805
 20
140.2772226706272
 30
0.0
 70
    32
  0
VERTEX
  5
176E0
  8
1
 62
     7
 10
173.93684567680501
 20
140.2812226706275
 30
0.0
 70
    32
  0
VERTEX
  5
176E1
  8
1
 62
     7
 10
173.9378456768043
 20
140.28622267062741
 30
0.0
 70
    32
  0
VERTEX
  5
176E2
  8
1
 62
     7
 10
173.93894567680471
 20
140.2902226706272
 30
0.0
 70
    32
  0
VERTEX
  5
176E3
  8
1
 62
     7
 10
173.94004567680449
 20
140.29422267062739
 30
0.0
 70
    32
  0
VERTEX
  5
176E4
  8
1
 62
     7
 10
173.94114567680501
 20
140.2982226706275
 30
0.0
 70
    32
  0
VERTEX
  5
176E5
  8
1
 62
     7
 10
173.94214567680521
 20
140.3022226706276
 30
0.0
 70
    32
  0
VERTEX
  5
176E6
  8
1
 62
     7
 10
173.9432456768042
 20
140.30722267062731
 30
0.0
 70
    32
  0
VERTEX
  5
176E7
  8
1
 62
     7
 10
173.94424567680451
 20
140.31122267062739
 30
0.0
 70
    32
  0
VERTEX
  5
176E8
  8
1
 62
     7
 10
173.94534567680489
 20
140.31522267062749
 30
0.0
 70
    32
  0
VERTEX
  5
176E9
  8
1
 62
     7
 10
173.94634567680461
 20
140.31922267062771
 30
0.0
 70
    32
  0
VERTEX
  5
176EA
  8
1
 62
     7
 10
173.94744567680499
 20
140.32322267062781
 30
0.0
 70
    32
  0
VERTEX
  5
176EB
  8
1
 62
     7
 10
173.94844567680479
 20
140.3282226706275
 30
0.0
 70
    32
  0
VERTEX
  5
176EC
  8
1
 62
     7
 10
173.94944567680449
 20
140.3322226706276
 30
0.0
 70
    32
  0
VERTEX
  5
176ED
  8
1
 62
     7
 10
173.95054567680469
 20
140.33622267062739
 30
0.0
 70
    32
  0
VERTEX
  5
176EE
  8
1
 62
     7
 10
173.9515456768049
 20
140.3402226706275
 30
0.0
 70
    32
  0
VERTEX
  5
176EF
  8
1
 62
     7
 10
173.9525456768049
 20
140.34522267062749
 30
0.0
 70
    32
  0
VERTEX
  5
176F0
  8
1
 62
     7
 10
173.95354567680459
 20
140.34922267062771
 30
0.0
 70
    32
  0
VERTEX
  5
176F1
  8
1
 62
     7
 10
173.9545456768044
 20
140.3532226706275
 30
0.0
 70
    32
  0
VERTEX
  5
176F2
  8
1
 62
     7
 10
173.95554567680449
 20
140.35722267062721
 30
0.0
 70
    32
  0
VERTEX
  5
176F3
  8
1
 62
     7
 10
173.95654567680481
 20
140.3612226706274
 30
0.0
 70
    32
  0
VERTEX
  5
176F4
  8
1
 62
     7
 10
173.9575456768045
 20
140.36622267062771
 30
0.0
 70
    32
  0
VERTEX
  5
176F5
  8
1
 62
     7
 10
173.9585456768047
 20
140.37022267062781
 30
0.0
 70
    32
  0
VERTEX
  5
176F6
  8
1
 62
     7
 10
173.95954567680491
 20
140.3742226706276
 30
0.0
 70
    32
  0
VERTEX
  5
176F7
  8
1
 62
     7
 10
173.96044567680491
 20
140.37822267062739
 30
0.0
 70
    32
  0
VERTEX
  5
176F8
  8
1
 62
     7
 10
173.96144567680469
 20
140.38322267062779
 30
0.0
 70
    32
  0
VERTEX
  5
176F9
  8
1
 62
     7
 10
173.96244567680469
 20
140.38722267062789
 30
0.0
 70
    32
  0
VERTEX
  5
176FA
  8
1
 62
     7
 10
173.96334567680489
 20
140.3912226706274
 30
0.0
 70
    32
  0
VERTEX
  5
176FB
  8
1
 62
     7
 10
173.96434567680461
 20
140.3952226706275
 30
0.0
 70
    32
  0
VERTEX
  5
176FC
  8
1
 62
     7
 10
173.96534567680439
 20
140.4002226706275
 30
0.0
 70
    32
  0
VERTEX
  5
176FD
  8
1
 62
     7
 10
173.96624567680439
 20
140.40422267062729
 30
0.0
 70
    32
  0
VERTEX
  5
176FE
  8
1
 62
     7
 10
173.96724567680479
 20
140.4082226706274
 30
0.0
 70
    32
  0
VERTEX
  5
176FF
  8
1
 62
     7
 10
173.96814567680499
 20
140.4122226706275
 30
0.0
 70
    32
  0
VERTEX
  5
17700
  8
1
 62
     7
 10
173.9690456768046
 20
140.41722267062721
 30
0.0
 70
    32
  0
VERTEX
  5
17701
  8
1
 62
     7
 10
173.9700456768046
 20
140.42122267062729
 30
0.0
 70
    32
  0
VERTEX
  5
17702
  8
1
 62
     7
 10
173.9709456768048
 20
140.42522267062739
 30
0.0
 70
    32
  0
VERTEX
  5
17703
  8
1
 62
     7
 10
173.9718456768048
 20
140.42922267062761
 30
0.0
 70
    32
  0
VERTEX
  5
17704
  8
1
 62
     7
 10
173.97274567680461
 20
140.43422267062721
 30
0.0
 70
    32
  0
VERTEX
  5
17705
  8
1
 62
     7
 10
173.97364567680481
 20
140.4382226706274
 30
0.0
 70
    32
  0
VERTEX
  5
17706
  8
1
 62
     7
 10
173.97454567680481
 20
140.4422226706275
 30
0.0
 70
    32
  0
VERTEX
  5
17707
  8
1
 62
     7
 10
173.97544567680461
 20
140.44622267062761
 30
0.0
 70
    32
  0
VERTEX
  5
17708
  8
1
 62
     7
 10
173.97634567680481
 20
140.4512226706276
 30
0.0
 70
    32
  0
VERTEX
  5
17709
  8
1
 62
     7
 10
173.97724567680439
 20
140.45522267062739
 30
0.0
 70
    32
  0
VERTEX
  5
1770A
  8
1
 62
     7
 10
173.97814567680459
 20
140.45922267062761
 30
0.0
 70
    32
  0
VERTEX
  5
1770B
  8
1
 62
     7
 10
173.97904567680479
 20
140.46322267062769
 30
0.0
 70
    32
  0
VERTEX
  5
1770C
  8
1
 62
     7
 10
173.97994567680439
 20
140.46822267062731
 30
0.0
 70
    32
  0
VERTEX
  5
1770D
  8
1
 62
     7
 10
173.98084567680459
 20
140.4722226706275
 30
0.0
 70
    32
  0
VERTEX
  5
1770E
  8
1
 62
     7
 10
173.9816456768051
 20
140.47622267062761
 30
0.0
 70
    32
  0
VERTEX
  5
1770F
  8
1
 62
     7
 10
173.98254567680499
 20
140.4802226706274
 30
0.0
 70
    32
  0
VERTEX
  5
17710
  8
1
 62
     7
 10
173.98344567680491
 20
140.48522267062739
 30
0.0
 70
    32
  0
VERTEX
  5
17711
  8
1
 62
     7
 10
173.98424567680439
 20
140.4892226706275
 30
0.0
 70
    32
  0
VERTEX
  5
17712
  8
1
 62
     7
 10
173.98514567680471
 20
140.49322267062769
 30
0.0
 70
    32
  0
VERTEX
  5
17713
  8
1
 62
     7
 10
173.9859456768047
 20
140.49722267062779
 30
0.0
 70
    32
  0
VERTEX
  5
17714
  8
1
 62
     7
 10
173.98684567680471
 20
140.5022226706275
 30
0.0
 70
    32
  0
VERTEX
  5
17715
  8
1
 62
     7
 10
173.9876456768049
 20
140.50622267062761
 30
0.0
 70
    32
  0
VERTEX
  5
17716
  8
1
 62
     7
 10
173.9885456768049
 20
140.51022267062771
 30
0.0
 70
    32
  0
VERTEX
  5
17717
  8
1
 62
     7
 10
173.9893456768047
 20
140.5142226706275
 30
0.0
 70
    32
  0
VERTEX
  5
17718
  8
1
 62
     7
 10
173.99014567680501
 20
140.5192226706275
 30
0.0
 70
    32
  0
VERTEX
  5
17719
  8
1
 62
     7
 10
173.99094567680481
 20
140.5232226706276
 30
0.0
 70
    32
  0
VERTEX
  5
1771A
  8
1
 62
     7
 10
173.99184567680479
 20
140.5272226706274
 30
0.0
 70
    32
  0
VERTEX
  5
1771B
  8
1
 62
     7
 10
173.99264567680481
 20
140.53222267062739
 30
0.0
 70
    32
  0
VERTEX
  5
1771C
  8
1
 62
     7
 10
173.9934456768049
 20
140.53622267062761
 30
0.0
 70
    32
  0
VERTEX
  5
1771D
  8
1
 62
     7
 10
173.99424567680489
 20
140.54022267062729
 30
0.0
 70
    32
  0
VERTEX
  5
1771E
  8
1
 62
     7
 10
173.99504567680441
 20
140.54422267062751
 30
0.0
 70
    32
  0
VERTEX
  5
1771F
  8
1
 62
     7
 10
173.99584567680469
 20
140.5492226706275
 30
0.0
 70
    32
  0
VERTEX
  5
17720
  8
1
 62
     7
 10
173.99664567680449
 20
140.5532226706276
 30
0.0
 70
    32
  0
VERTEX
  5
17721
  8
1
 62
     7
 10
173.99744567680469
 20
140.5572226706274
 30
0.0
 70
    32
  0
VERTEX
  5
17722
  8
1
 62
     7
 10
173.998245676805
 20
140.5612226706275
 30
0.0
 70
    32
  0
VERTEX
  5
17723
  8
1
 62
     7
 10
173.99904567680429
 20
140.5662226706275
 30
0.0
 70
    32
  0
VERTEX
  5
17724
  8
1
 62
     7
 10
173.99974567680459
 20
140.57022267062769
 30
0.0
 70
    32
  0
VERTEX
  5
17725
  8
1
 62
     7
 10
174.00054567680459
 20
140.57422267062779
 30
0.0
 70
    32
  0
VERTEX
  5
17726
  8
1
 62
     7
 10
174.00134567680439
 20
140.5792226706275
 30
0.0
 70
    32
  0
VERTEX
  5
17727
  8
1
 62
     7
 10
174.0021456768047
 20
140.58322267062761
 30
0.0
 70
    32
  0
VERTEX
  5
17728
  8
1
 62
     7
 10
174.00284567680481
 20
140.58722267062771
 30
0.0
 70
    32
  0
VERTEX
  5
17729
  8
1
 62
     7
 10
174.0036456768045
 20
140.59122267062779
 30
0.0
 70
    32
  0
VERTEX
  5
1772A
  8
1
 62
     7
 10
174.00434567680509
 20
140.5962226706275
 30
0.0
 70
    32
  0
VERTEX
  5
1772B
  8
1
 62
     7
 10
174.0051456768046
 20
140.6002226706276
 30
0.0
 70
    32
  0
VERTEX
  5
1772C
  8
1
 62
     7
 10
174.00584567680451
 20
140.60422267062739
 30
0.0
 70
    32
  0
VERTEX
  5
1772D
  8
1
 62
     7
 10
174.00664567680471
 20
140.60922267062739
 30
0.0
 70
    32
  0
VERTEX
  5
1772E
  8
1
 62
     7
 10
174.00734567680479
 20
140.61322267062761
 30
0.0
 70
    32
  0
VERTEX
  5
1772F
  8
1
 62
     7
 10
174.00804567680439
 20
140.61722267062731
 30
0.0
 70
    32
  0
VERTEX
  5
17730
  8
1
 62
     7
 10
174.0088456768049
 20
140.6212226706275
 30
0.0
 70
    32
  0
VERTEX
  5
17731
  8
1
 62
     7
 10
174.00954567680469
 20
140.6262226706275
 30
0.0
 70
    32
  0
VERTEX
  5
17732
  8
1
 62
     7
 10
174.01024567680429
 20
140.6302226706276
 30
0.0
 70
    32
  0
VERTEX
  5
17733
  8
1
 62
     7
 10
174.01094567680499
 20
140.63422267062739
 30
0.0
 70
    32
  0
VERTEX
  5
17734
  8
1
 62
     7
 10
174.01174567680459
 20
140.63922267062739
 30
0.0
 70
    32
  0
VERTEX
  5
17735
  8
1
 62
     7
 10
174.01244567680499
 20
140.64322267062749
 30
0.0
 70
    32
  0
VERTEX
  5
17736
  8
1
 62
     7
 10
174.0131456768049
 20
140.6472226706276
 30
0.0
 70
    32
  0
VERTEX
  5
17737
  8
1
 62
     7
 10
174.01384567680449
 20
140.65122267062779
 30
0.0
 70
    32
  0
VERTEX
  5
17738
  8
1
 62
     7
 10
174.0145456768048
 20
140.65622267062739
 30
0.0
 70
    32
  0
VERTEX
  5
17739
  8
1
 62
     7
 10
174.0152456768048
 20
140.6602226706276
 30
0.0
 70
    32
  0
VERTEX
  5
1773A
  8
1
 62
     7
 10
174.01594567680459
 20
140.66422267062771
 30
0.0
 70
    32
  0
VERTEX
  5
1773B
  8
1
 62
     7
 10
174.0165456768047
 20
140.66922267062739
 30
0.0
 70
    32
  0
VERTEX
  5
1773C
  8
1
 62
     7
 10
174.01724567680481
 20
140.6732226706275
 30
0.0
 70
    32
  0
VERTEX
  5
1773D
  8
1
 62
     7
 10
174.0179456768048
 20
140.6772226706276
 30
0.0
 70
    32
  0
VERTEX
  5
1773E
  8
1
 62
     7
 10
174.01864567680471
 20
140.68122267062739
 30
0.0
 70
    32
  0
VERTEX
  5
1773F
  8
1
 62
     7
 10
174.01934567680451
 20
140.68622267062739
 30
0.0
 70
    32
  0
VERTEX
  5
17740
  8
1
 62
     7
 10
174.01994567680481
 20
140.69022267062761
 30
0.0
 70
    32
  0
VERTEX
  5
17741
  8
1
 62
     7
 10
174.0206456768048
 20
140.69422267062731
 30
0.0
 70
    32
  0
VERTEX
  5
17742
  8
1
 62
     7
 10
174.02124567680491
 20
140.69922267062731
 30
0.0
 70
    32
  0
VERTEX
  5
17743
  8
1
 62
     7
 10
174.02194567680471
 20
140.7032226706275
 30
0.0
 70
    32
  0
VERTEX
  5
17744
  8
1
 62
     7
 10
174.02264567680481
 20
140.7072226706276
 30
0.0
 70
    32
  0
VERTEX
  5
17745
  8
1
 62
     7
 10
174.02324567680509
 20
140.71122267062739
 30
0.0
 70
    32
  0
VERTEX
  5
17746
  8
1
 62
     7
 10
174.02384567680451
 20
140.71622267062739
 30
0.0
 70
    32
  0
VERTEX
  5
17747
  8
1
 62
     7
 10
174.02454567680479
 20
140.72022267062749
 30
0.0
 70
    32
  0
VERTEX
  5
17748
  8
1
 62
     7
 10
174.02514567680461
 20
140.7242226706276
 30
0.0
 70
    32
  0
VERTEX
  5
17749
  8
1
 62
     7
 10
174.02584567680489
 20
140.72922267062731
 30
0.0
 70
    32
  0
VERTEX
  5
1774A
  8
1
 62
     7
 10
174.02644567680471
 20
140.73322267062741
 30
0.0
 70
    32
  0
VERTEX
  5
1774B
  8
1
 62
     7
 10
174.02704567680459
 20
140.7372226706276
 30
0.0
 70
    32
  0
VERTEX
  5
1774C
  8
1
 62
     7
 10
174.02764567680489
 20
140.7422226706272
 30
0.0
 70
    32
  0
VERTEX
  5
1774D
  8
1
 62
     7
 10
174.02824567680469
 20
140.74622267062739
 30
0.0
 70
    32
  0
VERTEX
  5
1774E
  8
1
 62
     7
 10
174.0289456768046
 20
140.75022267062749
 30
0.0
 70
    32
  0
VERTEX
  5
1774F
  8
1
 62
     7
 10
174.0295456768047
 20
140.75522267062749
 30
0.0
 70
    32
  0
VERTEX
  5
17750
  8
1
 62
     7
 10
174.03014567680449
 20
140.75922267062731
 30
0.0
 70
    32
  0
VERTEX
  5
17751
  8
1
 62
     7
 10
174.03074567680429
 20
140.76322267062741
 30
0.0
 70
    32
  0
VERTEX
  5
17752
  8
1
 62
     7
 10
174.03134567680499
 20
140.76722267062749
 30
0.0
 70
    32
  0
VERTEX
  5
17753
  8
1
 62
     7
 10
174.0319456768045
 20
140.7722226706272
 30
0.0
 70
    32
  0
VERTEX
  5
17754
  8
1
 62
     7
 10
174.0325456768048
 20
140.77622267062731
 30
0.0
 70
    32
  0
VERTEX
  5
17755
  8
1
 62
     7
 10
174.03314567680491
 20
140.7802226706275
 30
0.0
 70
    32
  0
VERTEX
  5
17756
  8
1
 62
     7
 10
174.03364567680481
 20
140.78522267062749
 30
0.0
 70
    32
  0
VERTEX
  5
17757
  8
1
 62
     7
 10
174.0342456768048
 20
140.7892226706272
 30
0.0
 70
    32
  0
VERTEX
  5
17758
  8
1
 62
     7
 10
174.03484567680471
 20
140.79322267062739
 30
0.0
 70
    32
  0
VERTEX
  5
17759
  8
1
 62
     7
 10
174.0354456768045
 20
140.79822267062741
 30
0.0
 70
    32
  0
VERTEX
  5
1775A
  8
1
 62
     7
 10
174.0359456768046
 20
140.80222267062749
 30
0.0
 70
    32
  0
VERTEX
  5
1775B
  8
1
 62
     7
 10
174.03654567680471
 20
140.80622267062731
 30
0.0
 70
    32
  0
VERTEX
  5
1775C
  8
1
 62
     7
 10
174.03714567680501
 20
140.81022267062741
 30
0.0
 70
    32
  0
VERTEX
  5
1775D
  8
1
 62
     7
 10
174.03764567680469
 20
140.8152226706278
 30
0.0
 70
    32
  0
VERTEX
  5
1775E
  8
1
 62
     7
 10
174.03824567680451
 20
140.8192226706272
 30
0.0
 70
    32
  0
VERTEX
  5
1775F
  8
1
 62
     7
 10
174.03874567680501
 20
140.82322267062739
 30
0.0
 70
    32
  0
VERTEX
  5
17760
  8
1
 62
     7
 10
174.03934567680491
 20
140.82822267062741
 30
0.0
 70
    32
  0
VERTEX
  5
17761
  8
1
 62
     7
 10
174.03984567680499
 20
140.83222267062749
 30
0.0
 70
    32
  0
VERTEX
  5
17762
  8
1
 62
     7
 10
174.04034567680469
 20
140.83622267062731
 30
0.0
 70
    32
  0
VERTEX
  5
17763
  8
1
 62
     7
 10
174.04094567680431
 20
140.84122267062759
 30
0.0
 70
    32
  0
VERTEX
  5
17764
  8
1
 62
     7
 10
174.04144567680501
 20
140.84522267062781
 30
0.0
 70
    32
  0
VERTEX
  5
17765
  8
1
 62
     7
 10
174.04194567680469
 20
140.84922267062791
 30
0.0
 70
    32
  0
VERTEX
  5
17766
  8
1
 62
     7
 10
174.04254567680499
 20
140.85422267062751
 30
0.0
 70
    32
  0
VERTEX
  5
17767
  8
1
 62
     7
 10
174.0430456768047
 20
140.8582226706277
 30
0.0
 70
    32
  0
VERTEX
  5
17768
  8
1
 62
     7
 10
174.0435456768048
 20
140.86222267062749
 30
0.0
 70
    32
  0
VERTEX
  5
17769
  8
1
 62
     7
 10
174.04404567680439
 20
140.86722267062751
 30
0.0
 70
    32
  0
VERTEX
  5
1776A
  8
1
 62
     7
 10
174.0445456768048
 20
140.87122267062759
 30
0.0
 70
    32
  0
VERTEX
  5
1776B
  8
1
 62
     7
 10
174.0450456768049
 20
140.87522267062741
 30
0.0
 70
    32
  0
VERTEX
  5
1776C
  8
1
 62
     7
 10
174.04554567680501
 20
140.8802226706274
 30
0.0
 70
    32
  0
VERTEX
  5
1776D
  8
1
 62
     7
 10
174.0460456768044
 20
140.88422267062751
 30
0.0
 70
    32
  0
VERTEX
  5
1776E
  8
1
 62
     7
 10
174.0465456768049
 20
140.8882226706277
 30
0.0
 70
    32
  0
VERTEX
  5
1776F
  8
1
 62
     7
 10
174.047045676805
 20
140.8922226706278
 30
0.0
 70
    32
  0
VERTEX
  5
17770
  8
1
 62
     7
 10
174.0475456768047
 20
140.8972226706274
 30
0.0
 70
    32
  0
VERTEX
  5
17771
  8
1
 62
     7
 10
174.047945676805
 20
140.90122267062759
 30
0.0
 70
    32
  0
VERTEX
  5
17772
  8
1
 62
     7
 10
174.0484456768047
 20
140.90522267062769
 30
0.0
 70
    32
  0
VERTEX
  5
17773
  8
1
 62
     7
 10
174.04894567680481
 20
140.91022267062741
 30
0.0
 70
    32
  0
VERTEX
  5
17774
  8
1
 62
     7
 10
174.0493456768049
 20
140.91422267062751
 30
0.0
 70
    32
  0
VERTEX
  5
17775
  8
1
 62
     7
 10
174.04984567680481
 20
140.91822267062761
 30
0.0
 70
    32
  0
VERTEX
  5
17776
  8
1
 62
     7
 10
174.05034567680491
 20
140.9232226706273
 30
0.0
 70
    32
  0
VERTEX
  5
17777
  8
1
 62
     7
 10
174.0507456768043
 20
140.9272226706274
 30
0.0
 70
    32
  0
VERTEX
  5
17778
  8
1
 62
     7
 10
174.05114567680471
 20
140.93122267062751
 30
0.0
 70
    32
  0
VERTEX
  5
17779
  8
1
 62
     7
 10
174.05164567680481
 20
140.9362226706275
 30
0.0
 70
    32
  0
VERTEX
  5
1777A
  8
1
 62
     7
 10
174.05204567680471
 20
140.94022267062729
 30
0.0
 70
    32
  0
VERTEX
  5
1777B
  8
1
 62
     7
 10
174.05254567680481
 20
140.94422267062751
 30
0.0
 70
    32
  0
VERTEX
  5
1777C
  8
1
 62
     7
 10
174.05294567680471
 20
140.94922267062779
 30
0.0
 70
    32
  0
VERTEX
  5
1777D
  8
1
 62
     7
 10
174.05334567680501
 20
140.9532226706271
 30
0.0
 70
    32
  0
VERTEX
  5
1777E
  8
1
 62
     7
 10
174.05374567680471
 20
140.9572226706274
 30
0.0
 70
    32
  0
VERTEX
  5
1777F
  8
1
 62
     7
 10
174.05424567680501
 20
140.96222267062771
 30
0.0
 70
    32
  0
VERTEX
  5
17780
  8
1
 62
     7
 10
174.05464567680499
 20
140.9662226706275
 30
0.0
 70
    32
  0
VERTEX
  5
17781
  8
1
 62
     7
 10
174.05504567680481
 20
140.97022267062729
 30
0.0
 70
    32
  0
VERTEX
  5
17782
  8
1
 62
     7
 10
174.05544567680471
 20
140.9752226706276
 30
0.0
 70
    32
  0
VERTEX
  5
17783
  8
1
 62
     7
 10
174.05584567680461
 20
140.97922267062739
 30
0.0
 70
    32
  0
VERTEX
  5
17784
  8
1
 62
     7
 10
174.05624567680411
 20
140.98322267062721
 30
0.0
 70
    32
  0
VERTEX
  5
17785
  8
1
 62
     7
 10
174.05664567680449
 20
140.98822267062761
 30
0.0
 70
    32
  0
VERTEX
  5
17786
  8
1
 62
     7
 10
174.05694567680499
 20
140.9922226706276
 30
0.0
 70
    32
  0
VERTEX
  5
17787
  8
1
 62
     7
 10
174.05734567680491
 20
140.9962226706275
 30
0.0
 70
    32
  0
VERTEX
  5
17788
  8
1
 62
     7
 10
174.0577456768049
 20
141.0012226706275
 30
0.0
 70
    32
  0
VERTEX
  5
17789
  8
1
 62
     7
 10
174.05814567680471
 20
141.0052226706276
 30
0.0
 70
    32
  0
VERTEX
  5
1778A
  8
1
 62
     7
 10
174.05844567680489
 20
141.00922267062759
 30
0.0
 70
    32
  0
VERTEX
  5
1778B
  8
1
 62
     7
 10
174.05884567680479
 20
141.01422267062739
 30
0.0
 70
    32
  0
VERTEX
  5
1778C
  8
1
 62
     7
 10
174.0592456768052
 20
141.01822267062749
 30
0.0
 70
    32
  0
VERTEX
  5
1778D
  8
1
 62
     7
 10
174.0595456768049
 20
141.02222267062771
 30
0.0
 70
    32
  0
VERTEX
  5
1778E
  8
1
 62
     7
 10
174.0599456768048
 20
141.02722267062731
 30
0.0
 70
    32
  0
VERTEX
  5
1778F
  8
1
 62
     7
 10
174.0602456768047
 20
141.03122267062739
 30
0.0
 70
    32
  0
VERTEX
  5
17790
  8
1
 62
     7
 10
174.0605456768053
 20
141.0352226706276
 30
0.0
 70
    32
  0
VERTEX
  5
17791
  8
1
 62
     7
 10
174.06094567680449
 20
141.0402226706272
 30
0.0
 70
    32
  0
VERTEX
  5
17792
  8
1
 62
     7
 10
174.06124567680459
 20
141.04422267062739
 30
0.0
 70
    32
  0
VERTEX
  5
17793
  8
1
 62
     7
 10
174.0615456768048
 20
141.0482226706275
 30
0.0
 70
    32
  0
VERTEX
  5
17794
  8
1
 62
     7
 10
174.06184567680501
 20
141.0532226706278
 30
0.0
 70
    32
  0
VERTEX
  5
17795
  8
1
 62
     7
 10
174.06224567680491
 20
141.05722267062731
 30
0.0
 70
    32
  0
VERTEX
  5
17796
  8
1
 62
     7
 10
174.06254567680449
 20
141.06122267062739
 30
0.0
 70
    32
  0
VERTEX
  5
17797
  8
1
 62
     7
 10
174.0628456768047
 20
141.06622267062741
 30
0.0
 70
    32
  0
VERTEX
  5
17798
  8
1
 62
     7
 10
174.0631456768044
 20
141.07022267062749
 30
0.0
 70
    32
  0
VERTEX
  5
17799
  8
1
 62
     7
 10
174.06344567680461
 20
141.07422267062731
 30
0.0
 70
    32
  0
VERTEX
  5
1779A
  8
1
 62
     7
 10
174.0637456768047
 20
141.0792226706277
 30
0.0
 70
    32
  0
VERTEX
  5
1779B
  8
1
 62
     7
 10
174.0640456768046
 20
141.08322267062749
 30
0.0
 70
    32
  0
VERTEX
  5
1779C
  8
1
 62
     7
 10
174.06434567680449
 20
141.0872226706272
 30
0.0
 70
    32
  0
VERTEX
  5
1779D
  8
1
 62
     7
 10
174.0646456768047
 20
141.09222267062759
 30
0.0
 70
    32
  0
VERTEX
  5
1779E
  8
1
 62
     7
 10
174.0648456768042
 20
141.09622267062741
 30
0.0
 70
    32
  0
VERTEX
  5
1779F
  8
1
 62
     7
 10
174.0651456768048
 20
141.10022267062789
 30
0.0
 70
    32
  0
VERTEX
  5
177A0
  8
1
 62
     7
 10
174.06544567680501
 20
141.10522267062751
 30
0.0
 70
    32
  0
VERTEX
  5
177A1
  8
1
 62
     7
 10
174.0657456768044
 20
141.10922267062759
 30
0.0
 70
    32
  0
VERTEX
  5
177A2
  8
1
 62
     7
 10
174.06594567680531
 20
141.11322267062741
 30
0.0
 70
    32
  0
VERTEX
  5
177A3
  8
1
 62
     7
 10
174.0662456768047
 20
141.1182226706274
 30
0.0
 70
    32
  0
VERTEX
  5
177A4
  8
1
 62
     7
 10
174.06644567680519
 20
141.12222267062759
 30
0.0
 70
    32
  0
VERTEX
  5
177A5
  8
1
 62
     7
 10
174.06674567680491
 20
141.1262226706277
 30
0.0
 70
    32
  0
VERTEX
  5
177A6
  8
1
 62
     7
 10
174.06694567680481
 20
141.13122267062741
 30
0.0
 70
    32
  0
VERTEX
  5
177A7
  8
1
 62
     7
 10
174.0672456768047
 20
141.13522267062751
 30
0.0
 70
    32
  0
VERTEX
  5
177A8
  8
1
 62
     7
 10
174.0674456768044
 20
141.13922267062759
 30
0.0
 70
    32
  0
VERTEX
  5
177A9
  8
1
 62
     7
 10
174.06774567680509
 20
141.1442226706273
 30
0.0
 70
    32
  0
VERTEX
  5
177AA
  8
1
 62
     7
 10
174.06794567680461
 20
141.1482226706274
 30
0.0
 70
    32
  0
VERTEX
  5
177AB
  8
1
 62
     7
 10
174.06814567680499
 20
141.15222267062751
 30
0.0
 70
    32
  0
VERTEX
  5
177AC
  8
1
 62
     7
 10
174.06834567680471
 20
141.1572226706275
 30
0.0
 70
    32
  0
VERTEX
  5
177AD
  8
1
 62
     7
 10
174.06864567680449
 20
141.1612226706273
 30
0.0
 70
    32
  0
VERTEX
  5
177AE
  8
1
 62
     7
 10
174.06884567680461
 20
141.16522267062749
 30
0.0
 70
    32
  0
VERTEX
  5
177AF
  8
1
 62
     7
 10
174.06904567680451
 20
141.17022267062779
 30
0.0
 70
    32
  0
VERTEX
  5
177B0
  8
1
 62
     7
 10
174.06924567680491
 20
141.1742226706271
 30
0.0
 70
    32
  0
VERTEX
  5
177B1
  8
1
 62
     7
 10
174.06944567680461
 20
141.17822267062741
 30
0.0
 70
    32
  0
VERTEX
  5
177B2
  8
1
 62
     7
 10
174.06964567680481
 20
141.1832226706274
 30
0.0
 70
    32
  0
VERTEX
  5
177B3
  8
1
 62
     7
 10
174.06984567680499
 20
141.18722267062719
 30
0.0
 70
    32
  0
VERTEX
  5
177B4
  8
1
 62
     7
 10
174.07004567680471
 20
141.1912226706273
 30
0.0
 70
    32
  0
VERTEX
  5
177B5
  8
1
 62
     7
 10
174.07024567680421
 20
141.19622267062761
 30
0.0
 70
    32
  0
VERTEX
  5
177B6
  8
1
 62
     7
 10
174.07044567680501
 20
141.2002226706278
 30
0.0
 70
    32
  0
VERTEX
  5
177B7
  8
1
 62
     7
 10
174.07064567680459
 20
141.20422267062759
 30
0.0
 70
    32
  0
VERTEX
  5
177B8
  8
1
 62
     7
 10
174.07084567680499
 20
141.20922267062761
 30
0.0
 70
    32
  0
VERTEX
  5
177B9
  8
1
 62
     7
 10
174.07104567680449
 20
141.21322267062769
 30
0.0
 70
    32
  0
VERTEX
  5
177BA
  8
1
 62
     7
 10
174.07114567680429
 20
141.21722267062751
 30
0.0
 70
    32
  0
VERTEX
  5
177BB
  8
1
 62
     7
 10
174.07134567680461
 20
141.2222226706275
 30
0.0
 70
    32
  0
VERTEX
  5
177BC
  8
1
 62
     7
 10
174.07154567680459
 20
141.22622267062761
 30
0.0
 70
    32
  0
VERTEX
  5
177BD
  8
1
 62
     7
 10
174.07164567680479
 20
141.23122267062729
 30
0.0
 70
    32
  0
VERTEX
  5
177BE
  8
1
 62
     7
 10
174.0718456768052
 20
141.23522267062739
 30
0.0
 70
    32
  0
VERTEX
  5
177BF
  8
1
 62
     7
 10
174.07204567680469
 20
141.2392226706275
 30
0.0
 70
    32
  0
VERTEX
  5
177C0
  8
1
 62
     7
 10
174.07214567680461
 20
141.24422267062749
 30
0.0
 70
    32
  0
VERTEX
  5
177C1
  8
1
 62
     7
 10
174.07234567680479
 20
141.24822267062771
 30
0.0
 70
    32
  0
VERTEX
  5
177C2
  8
1
 62
     7
 10
174.07244567680499
 20
141.25222267062739
 30
0.0
 70
    32
  0
VERTEX
  5
177C3
  8
1
 62
     7
 10
174.0726456768048
 20
141.2572226706275
 30
0.0
 70
    32
  0
VERTEX
  5
177C4
  8
1
 62
     7
 10
174.07274567680469
 20
141.26122267062721
 30
0.0
 70
    32
  0
VERTEX
  5
177C5
  8
1
 62
     7
 10
174.07284567680489
 20
141.2652226706274
 30
0.0
 70
    32
  0
VERTEX
  5
177C6
  8
1
 62
     7
 10
174.0730456768049
 20
141.2702226706277
 30
0.0
 70
    32
  0
VERTEX
  5
177C7
  8
1
 62
     7
 10
174.0731456768051
 20
141.27422267062749
 30
0.0
 70
    32
  0
VERTEX
  5
177C8
  8
1
 62
     7
 10
174.07324567680479
 20
141.27822267062729
 30
0.0
 70
    32
  0
VERTEX
  5
177C9
  8
1
 62
     7
 10
174.07334567680459
 20
141.28322267062759
 30
0.0
 70
    32
  0
VERTEX
  5
177CA
  8
1
 62
     7
 10
174.07344567680479
 20
141.28722267062739
 30
0.0
 70
    32
  0
VERTEX
  5
177CB
  8
1
 62
     7
 10
174.073545676805
 20
141.29122267062749
 30
0.0
 70
    32
  0
VERTEX
  5
177CC
  8
1
 62
     7
 10
174.07374567680449
 20
141.2962226706276
 30
0.0
 70
    32
  0
VERTEX
  5
177CD
  8
1
 62
     7
 10
174.07384567680441
 20
141.30022267062759
 30
0.0
 70
    32
  0
VERTEX
  5
177CE
  8
1
 62
     7
 10
174.07394567680441
 20
141.3042226706275
 30
0.0
 70
    32
  0
VERTEX
  5
177CF
  8
1
 62
     7
 10
174.07404567680501
 20
141.30922267062749
 30
0.0
 70
    32
  0
VERTEX
  5
177D0
  8
1
 62
     7
 10
174.07404567680501
 20
141.3132226706276
 30
0.0
 70
    32
  0
VERTEX
  5
177D1
  8
1
 62
     7
 10
174.07414567680479
 20
141.3172226706277
 30
0.0
 70
    32
  0
VERTEX
  5
177D2
  8
1
 62
     7
 10
174.07424567680459
 20
141.32222267062741
 30
0.0
 70
    32
  0
VERTEX
  5
177D3
  8
1
 62
     7
 10
174.0743456768048
 20
141.32622267062749
 30
0.0
 70
    32
  0
VERTEX
  5
177D4
  8
1
 62
     7
 10
174.074445676805
 20
141.33022267062759
 30
0.0
 70
    32
  0
VERTEX
  5
177D5
  8
1
 62
     7
 10
174.074445676805
 20
141.3352226706273
 30
0.0
 70
    32
  0
VERTEX
  5
177D6
  8
1
 62
     7
 10
174.07454567680469
 20
141.33922267062741
 30
0.0
 70
    32
  0
VERTEX
  5
177D7
  8
1
 62
     7
 10
174.07464567680489
 20
141.3432226706276
 30
0.0
 70
    32
  0
VERTEX
  5
177D8
  8
1
 62
     7
 10
174.07464567680489
 20
141.34822267062759
 30
0.0
 70
    32
  0
VERTEX
  5
177D9
  8
1
 62
     7
 10
174.0747456768047
 20
141.35222267062741
 30
0.0
 70
    32
  0
VERTEX
  5
177DA
  8
1
 62
     7
 10
174.07484567680461
 20
141.35722267062769
 30
0.0
 70
    32
  0
VERTEX
  5
177DB
  8
1
 62
     7
 10
174.07484567680461
 20
141.3612226706278
 30
0.0
 70
    32
  0
VERTEX
  5
177DC
  8
1
 62
     7
 10
174.0749456768051
 20
141.3652226706273
 30
0.0
 70
    32
  0
VERTEX
  5
177DD
  8
1
 62
     7
 10
174.0749456768051
 20
141.3702226706275
 30
0.0
 70
    32
  0
VERTEX
  5
177DE
  8
1
 62
     7
 10
174.07504567680479
 20
141.3742226706274
 30
0.0
 70
    32
  0
VERTEX
  5
177DF
  8
1
 62
     7
 10
174.07504567680479
 20
141.37822267062751
 30
0.0
 70
    32
  0
VERTEX
  5
177E0
  8
1
 62
     7
 10
174.07514567680499
 20
141.3832226706275
 30
0.0
 70
    32
  0
VERTEX
  5
177E1
  8
1
 62
     7
 10
174.07514567680499
 20
141.38722267062769
 30
0.0
 70
    32
  0
VERTEX
  5
177E2
  8
1
 62
     7
 10
174.075245676805
 20
141.39122267062751
 30
0.0
 70
    32
  0
VERTEX
  5
177E3
  8
1
 62
     7
 10
174.075245676805
 20
141.3962226706274
 30
0.0
 70
    32
  0
VERTEX
  5
177E4
  8
1
 62
     7
 10
174.075245676805
 20
141.40022267062761
 30
0.0
 70
    32
  0
VERTEX
  5
177E5
  8
1
 62
     7
 10
174.0753456768048
 20
141.40422267062769
 30
0.0
 70
    32
  0
VERTEX
  5
177E6
  8
1
 62
     7
 10
174.0753456768048
 20
141.4092226706274
 30
0.0
 70
    32
  0
VERTEX
  5
177E7
  8
1
 62
     7
 10
174.07544567680469
 20
141.4132226706275
 30
0.0
 70
    32
  0
VERTEX
  5
177E8
  8
1
 62
     7
 10
174.07544567680469
 20
141.4172226706275
 30
0.0
 70
    32
  0
VERTEX
  5
177E9
  8
1
 62
     7
 10
174.07544567680469
 20
141.42222267062729
 30
0.0
 70
    32
  0
VERTEX
  5
177EA
  8
1
 62
     7
 10
174.07554567680489
 20
141.4262226706274
 30
0.0
 70
    32
  0
SEQEND
  5
177EB
  8
1
 62
     7
  0
LINE
  5
177EC
  8
1
  6
CONTINUOUS
 62
     7
 10
184.3453604798471
 20
141.42626973570131
 30
0.0
 11
184.3453604798471
 21
150.46126973570159
 31
0.0
  0
ARC
  5
177ED
  8
1
  6
CONTINUOUS
 62
     7
 10
185.94536047984789
 20
139.4262697357014
 30
0.0
 40
0.5
 50
270.0
 51
0.0
  0
ARC
  5
177EE
  8
1
  6
CONTINUOUS
 62
     7
 10
181.8453604798471
 20
141.42626973570131
 30
0.0
 40
2.4999999999999991
 50
270.0
 51
0.0
  0
LINE
  5
177EF
  8
1
  6
CONTINUOUS
 62
     7
 10
185.94536047984789
 20
138.92626973570151
 30
0.0
 11
181.8453604798471
 21
138.92626973570151
 31
0.0
  0
LINE
  5
177F0
  8
1
  6
CONTINUOUS
 62
     7
 10
185.4453604798498
 20
172.92626973570131
 30
0.0
 11
176.54536047984851
 21
172.92626973570131
 31
0.0
  0
LINE
  5
177F1
  8
1
  6
CONTINUOUS
 62
     7
 10
144.94536047984749
 20
166.2094832954734
 30
0.0
 11
155.94536047984789
 21
166.2094832954734
 31
0.0
  0
LINE
  5
177F2
  8
1
  6
CONTINUOUS
 62
     7
 10
174.94536047984931
 20
172.92626973570131
 30
0.0
 11
169.3453604798506
 21
172.92626973570131
 31
0.0
  0
ARC
  5
177F3
  8
1
  6
CONTINUOUS
 62
     7
 10
175.94536047984911
 20
171.9262697357016
 30
0.0
 40
0.9999999999998864
 50
90.0
 51
180.0
  0
LINE
  5
177F4
  8
1
  6
CONTINUOUS
 62
     7
 10
174.94536047984931
 20
172.92626973570131
 30
0.0
 11
175.94536047984911
 21
172.92626973570131
 31
0.0
  0
LINE
  5
177F5
  8
1
  6
CONTINUOUS
 62
     7
 10
176.54536047984851
 20
172.92626973570131
 30
0.0
 11
175.94536047984911
 21
172.92626973570131
 31
0.0
  0
LINE
  5
177F6
  8
AM_0
 10
183.94535285045251
 20
172.93896973570611
 30
0.0
 11
183.94535285045251
 21
175.43896973570611
 31
0.0
  0
ARC
  5
177F7
  8
1
  6
CONTINUOUS
 62
     7
 10
185.4453604798498
 20
171.9262697357016
 30
0.0
 40
0.9999999999999998
 50
0.0
 51
90.0
  0
LINE
  5
177F8
  8
AM_0
 10
180.46361556877349
 20
175.42626973571231
 30
0.0
 11
180.73763239677621
 21
185.890550218594
 31
0.0
  0
LINE
  5
177F9
  8
AM_0
 10
120.463615568774
 20
175.42626973569969
 30
0.0
 11
120.161562662238
 21
186.96120486249981
 31
0.0
  0
TEXT
  5
1794C
  8
AM_0
 10
54.06883956647971
 20
545.48296112365006
 30
0.0
 40
10.0
  1
VC04-007FBR~VC04-060FBR
1001
ACAD
1000
MTEXTBEGIN
1070
    73
1070
     1
1070
    44
1040
1.0
1070
    74
1070
     0
1000
MTEXTEND
  0
VIEWPORT
  5
89
 67
     1
  8
0
 10
210.0
 20
148.5
 30
0.0
 40
420.0
 41
297.0
 68
     1
 69
     1
1001
ACAD
1000
MVIEW
1002
{
1070
    16
1010
0.0
1020
0.0
1030
0.0
1010
0.0
1020
0.0
1030
1.0
1040
0.0
1040
297.0
1040
221.70154043645701
1040
148.5
1040
50.0
1040
0.0
1040
0.0
1070
     0
1070
   100
1070
     1
1070
     1
1070
     0
1070
     0
1070
     0
1070
     0
1040
0.0
1040
0.0
1040
0.0
1040
10.0
1040
10.0
1040
10.0
1040
10.0
1070
     0
1002
{
1002
}
1002
}
1001
GENIUS_GENOREF_13
1005
1B94
1001
GENIUS_GENSCREG_15
1000
PF
1040
1.0
1000
DF
1040
1.0
1000
MIN
1011
0.0
1021
0.0
1031
0.0
1021
0.0
1031
0.0
1000
MAX
1011
420.0
1021
0.0
1031
0.0
1021
297.0
1031
0.0
1000
FLAGS
1070
     4
  0
ENDSEC
  0
EOF
