  0
SECTION
  2
HEADER
  9
$ACADVER
  1
AC1009
  9
$INSBASE
 10
0.0
 20
0.0
 30
0.0
  9
$EXTMIN
 10
138.70764441265189
 20
189.4469799193202
 30
-0.0015258207003583
  9
$EXTMAX
 10
971.94327027856241
 20
769.36275046540027
 30
0.0000000349246037
  9
$LIMMIN
 10
0.0
 20
0.0
  9
$LIMMAX
 10
1138.0
 20
740.00000000000011
  9
$ORTHOMODE
 70
     0
  9
$REGENMODE
 70
     1
  9
$FILLMODE
 70
     1
  9
$QTEXTMODE
 70
     0
  9
$MIRRTEXT
 70
     1
  9
$DRAGMODE
 70
     2
  9
$LTSCALE
 40
4.0
  9
$OSMODE
 70
   551
  9
$ATTMODE
 70
     1
  9
$TEXTSIZE
 40
2.5
  9
$TRACEWID
 40
1.0
  9
$TEXTSTYLE
  7
STANDARD
  9
$CLAYER
  8
AM_0
  9
$CELTYPE
  6
BYLAYER
  9
$CECOLOR
 62
   256
  9
$DIMSCALE
 40
4.0
  9
$DIMASZ
 40
2.5
  9
$DIMEXO
 40
1.0
  9
$DIMDLI
 40
7.0
  9
$DIMRND
 40
0.0
  9
$DIMDLE
 40
0.0
  9
$DIMEXE
 40
1.0
  9
$DIMTP
 40
0.1
  9
$DIMTM
 40
0.1000000001
  9
$DIMTXT
 40
2.5
  9
$DIMCEN
 40
0.0
  9
$DIMTSZ
 40
0.0
  9
$DIMTOL
 70
     0
  9
$DIMLIM
 70
     0
  9
$DIMTIH
 70
     0
  9
$DIMTOH
 70
     0
  9
$DIMSE1
 70
     0
  9
$DIMSE2
 70
     0
  9
$DIMTAD
 70
     3
  9
$DIMZIN
 70
     8
  9
$DIMBLK
  1

  9
$DIMASO
 70
     1
  9
$DIMSHO
 70
     1
  9
$DIMPOST
  1

  9
$DIMAPOST
  1
"
  9
$DIMALT
 70
     0
  9
$DIMALTD
 70
     2
  9
$DIMALTF
 40
0.0393701
  9
$DIMLFAC
 40
1.0
  9
$DIMTOFL
 70
     1
  9
$DIMTVP
 40
0.0
  9
$DIMTIX
 70
     0
  9
$DIMSOXD
 70
     0
  9
$DIMSAH
 70
     0
  9
$DIMBLK1
  1

  9
$DIMBLK2
  1

  9
$DIMSTYLE
  2
AM_JIS
  9
$DIMCLRD
 70
   256
  9
$DIMCLRE
 70
   256
  9
$DIMCLRT
 70
     4
  9
$DIMTFAC
 40
0.71
  9
$DIMGAP
 40
1.0
  9
$LUNITS
 70
     2
  9
$LUPREC
 70
     2
  9
$SKETCHINC
 40
1.0
  9
$FILLETRAD
 40
10.0
  9
$AUNITS
 70
     0
  9
$AUPREC
 70
     3
  9
$MENU
  1
.
  9
$ELEVATION
 40
0.0
  9
$PELEVATION
 40
0.0
  9
$THICKNESS
 40
0.0
  9
$LIMCHECK
 70
     0
  9
$BLIPMODE
 70
     0
  9
$CHAMFERA
 40
10.0
  9
$CHAMFERB
 40
10.0
  9
$SKPOLY
 70
     0
  9
$TDCREATE
 40
2452753.643349607
  9
$TDUPDATE
 40
2458543.5411071759
  9
$TDINDWG
 40
0.6225548264
  9
$TDUSRTIMER
 40
0.6225546412
  9
$USRTIMER
 70
     1
  9
$ANGBASE
 50
0.0
  9
$ANGDIR
 70
     0
  9
$PDMODE
 70
     0
  9
$PDSIZE
 40
0.0
  9
$PLINEWID
 40
0.0
  9
$COORDS
 70
     1
  9
$SPLFRAME
 70
     0
  9
$SPLINETYPE
 70
     6
  9
$SPLINESEGS
 70
     8
  9
$ATTDIA
 70
     1
  9
$ATTREQ
 70
     1
  9
$HANDLING
 70
     1
  9
$HANDSEED
  5
1B1B7
  9
$SURFTAB1
 70
     6
  9
$SURFTAB2
 70
     6
  9
$SURFTYPE
 70
     6
  9
$SURFU
 70
     6
  9
$SURFV
 70
     6
  9
$UCSNAME
  2

  9
$UCSORG
 10
0.0
 20
0.0
 30
0.0
  9
$UCSXDIR
 10
1.0
 20
0.0
 30
0.0
  9
$UCSYDIR
 10
0.0
 20
1.0
 30
0.0
  9
$PUCSNAME
  2

  9
$PUCSORG
 10
0.0
 20
0.0
 30
0.0
  9
$PUCSXDIR
 10
1.0
 20
0.0
 30
0.0
  9
$PUCSYDIR
 10
0.0
 20
1.0
 30
0.0
  9
$USERI1
 70
     0
  9
$USERI2
 70
     0
  9
$USERI3
 70
     0
  9
$USERI4
 70
     0
  9
$USERI5
 70
     0
  9
$USERR1
 40
0.0
  9
$USERR2
 40
0.0
  9
$USERR3
 40
0.0
  9
$USERR4
 40
0.0
  9
$USERR5
 40
0.0
  9
$WORLDVIEW
 70
     1
  9
$SHADEDGE
 70
     3
  9
$SHADEDIF
 70
    70
  9
$TILEMODE
 70
     1
  9
$MAXACTVP
 70
    48
  9
$PLIMCHECK
 70
     0
  9
$PEXTMIN
 10
1.0000000000000000E+020
 20
1.0000000000000000E+020
 30
1.0000000000000000E+020
  9
$PEXTMAX
 10
-1.0000000000000000E+020
 20
-1.0000000000000000E+020
 30
-1.0000000000000000E+020
  9
$PLIMMIN
 10
0.0
 20
0.0
  9
$PLIMMAX
 10
420.0
 20
297.0
  9
$UNITMODE
 70
     0
  9
$VISRETAIN
 70
     1
  9
$PLINEGEN
 70
     0
  9
$PSLTSCALE
 70
     1
  0
ENDSEC
  0
SECTION
  2
TABLES
  0
TABLE
  2
VPORT
 70
     1
  0
VPORT
  2
*ACTIVE
 70
     0
 10
0.0
 20
0.0
 11
1.0
 21
1.0
 12
555.32545734560711
 22
479.40486519236021
 13
0.0
 23
0.0
 14
10.0
 24
10.0
 15
40.0
 25
40.0
 16
0.0
 26
0.0
 36
1.0
 17
0.0
 27
0.0
 37
0.0
 40
583.89688567568692
 41
1.757159221076747
 42
50.0
 43
0.0
 44
0.0
 50
0.0
 51
0.0
 71
     0
 72
   100
 73
     1
 74
     1
 75
     0
 76
     0
 77
     0
 78
     0
  0
ENDTAB
  0
TABLE
  2
LTYPE
 70
    21
  0
LTYPE
  2
CONTINUOUS
 70
     0
  3
Solid line
 72
    65
 73
     0
 40
0.0
  0
LTYPE
  2
PHANTOM2
 70
     0
  3
Phantom (.5x) ___ _ _ ___ _ _ ___ _ _ ___ _ _
 72
    65
 73
     6
 40
31.75
 49
15.875
 49
-3.174999999999998
 49
3.174999999999998
 49
-3.174999999999998
 49
3.174999999999998
 49
-3.174999999999998
  0
LTYPE
  2
CENTER
 70
     0
  3
Center ____ _ ____ _ ____ _ ____ _ ____ _ ____
 72
    65
 73
     4
 40
50.799999999999997
 49
31.75
 49
-6.3499999999999979
 49
6.3499999999999979
 49
-6.3499999999999979
  0
LTYPE
  2
ACANSTGBM
 70
     0
  3
__ . . __ . .
 72
    65
 73
     6
 40
9.0
 49
4.0
 49
-1.0
 49
1.0
 49
-1.0
 49
1.0
 49
-1.0
  0
LTYPE
  2
ACANSTGLM
 70
     0
  3
_ _ _ _ _
 72
    65
 73
     2
 40
3.0
 49
2.0
 49
-1.0
  0
LTYPE
  2
GEN3B
 70
     0
  3
 - - - - -
 72
    65
 73
     2
 40
1.0
 49
0.5
 49
-0.5
  0
LTYPE
  2
GEN7A
 70
     0
  3
__ . __ . __
 72
    65
 73
     4
 40
7.375
 49
4.75
 49
-0.875
 49
0.875
 49
-0.875
  0
LTYPE
  2
AM_ISO02W050
 70
     0
  3
__ __ __ __ __ __ __ __ __ __ __ __ __ __ __
 72
    65
 73
     2
 40
7.5
 49
6.0
 49
-1.5
  0
LTYPE
  2
AM_ISO08W050
 70
     0
  3
____ . ____ . ____ . ____ . ____ . ____ . ____
 72
    65
 73
     4
 40
18.0
 49
12.0
 49
-1.5
 49
3.0
 49
-1.5
  0
LTYPE
  2
AM_ISO09W050
 70
     0
  3
_____ . . _____ . . _____ . . ____ .. ____
 72
    65
 73
     6
 40
22.5
 49
12.0
 49
-1.5
 49
3.0
 49
-1.5
 49
3.0
 49
-1.5
  0
LTYPE
  2
AMCONSTR
 70
     0
  3
_______________________
 72
    65
 73
     2
 40
9999.0
 49
9999.0
 49
0.0
  0
LTYPE
  2
AM_ISO02W050X2
 70
     0
  3
 _ _ _ _ _ _ _ _ _ _ _ _
 72
    65
 73
     2
 40
3.75
 49
3.0
 49
-0.75
  0
LTYPE
  2
AM_ISO08W050X2
 70
     0
  3
__ . __ . __ . __ . __ . __
 72
    65
 73
     4
 40
9.0
 49
6.0
 49
-0.75
 49
1.5
 49
-0.75
  0
LTYPE
  2
AMZIGZAG
 70
     0
  3
/\/-/\/-/\/-/\/-/\/-/\/
 72
    65
 73
     2
 40
11.0001
 49
0.0001
 49
-11.0
  0
LTYPE
  2
ACJISTGB
 70
     0
  3
__ . . __ . .
 72
    65
 73
     6
 40
9.0
 49
4.0
 49
-1.0
 49
1.0
 49
-1.0
 49
1.0
 49
-1.0
  0
LTYPE
  2
ACJISTGL
 70
     0
  3
_ _ _ _ _
 72
    65
 73
     2
 40
3.0
 49
2.0
 49
-1.0
  0
LTYPE
  2
ACISOWELD
 70
     0
  3
_ _ _ _ _
 72
    65
 73
     2
 40
2.0
 49
2.0
 49
-1.0
  0
LTYPE
  2
ACISOTGB
 70
     0
  3
__ . . __ . .
 72
    65
 73
     6
 40
9.0
 49
4.0
 49
-1.0
 49
1.0
 49
-1.0
 49
1.0
 49
-1.0
  0
LTYPE
  2
ACISOTGL
 70
     0
  3
_ _ _ _ _
 72
    65
 73
     2
 40
3.0
 49
2.0
 49
-1.0
  0
LTYPE
  2
HIDDEN
 70
     0
  3
Hidden __ __ __ __ __ __ __ __ __ __ __ __ __ _
 72
    65
 73
     2
 40
9.5249999999999968
 49
6.3499999999999979
 49
-3.174999999999998
  0
ENDTAB
  0
TABLE
  2
LAYER
 70
    10
  0
LAYER
  2
0
 70
     0
 62
     7
  6
CONTINUOUS
  0
LAYER
  2
ｽﾝﾎﾟｳｾﾝ
 70
     0
 62
     2
  6
CONTINUOUS
  0
LAYER
  2
DEFPOINTS
 70
     0
 62
     7
  6
CONTINUOUS
  0
LAYER
  2
ｷｲﾛ
 70
     0
 62
     2
  6
CONTINUOUS
  0
LAYER
  2
ｶｸﾚｾﾝ2
 70
     0
 62
     3
  6
GEN3B
  0
LAYER
  2
ﾁｭｳｼﾝｾﾝ1
 70
     0
 62
     1
  6
GEN7A
  0
LAYER
  2
AM_0
 70
     0
 62
     7
  6
CONTINUOUS
  0
LAYER
  2
AM_0N
 70
     0
 62
     7
  6
CONTINUOUS
  0
LAYER
  2
AM_5
 70
     0
 62
     2
  6
CONTINUOUS
  0
LAYER
  2
1
 70
     0
 62
     7
  6
CONTINUOUS
  0
ENDTAB
  0
TABLE
  2
STYLE
 70
     8
  0
STYLE
  2
STANDARD
 70
     0
 40
0.0
 41
0.8299999999999999
 50
0.0
 71
     0
 42
2.5
  3
txt.shx
  4
bigfont.shx
  0
STYLE
  2
ACANSTS
 70
     0
 40
1.0
 41
1.0
 50
0.0
 71
     0
 42
2.5
  3
romans.shx
  4
bigfont.shx
  0
STYLE
  2
ACANSGDT
 70
     0
 40
0.0
 41
1.0
 50
0.0
 71
     0
 42
2.5
  3
amgdtans.shx
  4

  0
STYLE
  2

 70
     1
 40
0.0
 41
1.0
 50
0.0
 71
     0
 42
2.5
  3
ltypeshp.shx
  4

  0
STYLE
  2
ACJISTS
 70
     0
 40
1.0
 41
1.0
 50
0.0
 71
     0
 42
2.5
  3
isocp.shx
  4
bigfont.shx
  0
STYLE
  2
ACJISGDT
 70
     0
 40
0.0
 41
1.0
 50
0.0
 71
     0
 42
2.5
  3
amgdt.shx
  4

  0
STYLE
  2
ACISOTS
 70
     0
 40
3.0
 41
1.0
 50
0.0
 71
     0
 42
2.5
  3
isocp.shx
  4
extfont.shx
  0
STYLE
  2
ACISOGDT
 70
     0
 40
0.0
 41
1.0
 50
0.0
 71
     0
 42
2.5
  3
amgdt.shx
  4

  0
ENDTAB
  0
TABLE
  2
VIEW
 70
    12
  0
VIEW
  2
GEN1
 70
     0
 40
95.824742268041234
 10
71.5
 20
137.08762886597941
 41
143.0
 11
0.0
 21
0.0
 31
1.0
 12
0.0
 22
0.0
 32
0.0
 42
50.0
 43
0.0
 44
0.0
 50
0.0
 71
     0
  0
VIEW
  2
GEN2
 70
     0
 40
95.824742268041234
 10
214.5
 20
137.08762886597941
 41
143.0
 11
0.0
 21
0.0
 31
1.0
 12
0.0
 22
0.0
 32
0.0
 42
50.0
 43
0.0
 44
0.0
 50
0.0
 71
     0
  0
VIEW
  2
GEN3
 70
     0
 40
95.824742268041234
 10
71.5
 20
47.912371134020603
 41
143.0
 11
0.0
 21
0.0
 31
1.0
 12
0.0
 22
0.0
 32
0.0
 42
50.0
 43
0.0
 44
0.0
 50
0.0
 71
     0
  0
VIEW
  2
GEN4
 70
     0
 40
95.824742268041234
 10
214.5
 20
47.912371134020603
 41
143.0
 11
0.0
 21
0.0
 31
1.0
 12
0.0
 22
0.0
 32
0.0
 42
50.0
 43
0.0
 44
0.0
 50
0.0
 71
     0
  0
VIEW
  2
GEN5
 70
     0
 40
95.824742268041234
 10
143.0
 20
92.500000000000057
 41
143.0
 11
0.0
 21
0.0
 31
1.0
 12
0.0
 22
0.0
 32
0.0
 42
50.0
 43
0.0
 44
0.0
 50
0.0
 71
     0
  0
VIEW
  2
GEN6
 70
     0
 40
191.64756804123709
 10
143.0
 20
92.5
 41
285.99714
 11
0.0
 21
0.0
 31
1.0
 12
0.0
 22
0.0
 32
0.0
 42
50.0
 43
0.0
 44
0.0
 50
0.0
 71
     0
  0
VIEW
  2
AM_VIEW1
 70
     0
 40
370.00000000000023
 10
332.86372007366492
 20
555.00000000000011
 41
665.72744014732973
 11
0.0
 21
0.0
 31
1.0
 12
0.0
 22
0.0
 32
0.0
 42
50.0
 43
0.0
 44
0.0
 50
0.0
 71
     0
  0
VIEW
  2
AM_VIEW2
 70
     0
 40
370.00000000000023
 10
805.13627992633508
 20
555.00000000000011
 41
665.72744014732973
 11
0.0
 21
0.0
 31
1.0
 12
0.0
 22
0.0
 32
0.0
 42
50.0
 43
0.0
 44
0.0
 50
0.0
 71
     0
  0
VIEW
  2
AM_VIEW3
 70
     0
 40
370.00000000000023
 10
332.86372007366492
 20
185.0
 41
665.72744014732973
 11
0.0
 21
0.0
 31
1.0
 12
0.0
 22
0.0
 32
0.0
 42
50.0
 43
0.0
 44
0.0
 50
0.0
 71
     0
  0
VIEW
  2
AM_VIEW4
 70
     0
 40
370.00000000000023
 10
805.13627992633508
 20
185.0
 41
665.72744014732973
 11
0.0
 21
0.0
 31
1.0
 12
0.0
 22
0.0
 32
0.0
 42
50.0
 43
0.0
 44
0.0
 50
0.0
 71
     0
  0
VIEW
  2
AM_VIEW5
 70
     0
 40
370.00000000000023
 10
569.0
 20
370.00000000000023
 41
665.72744014732962
 11
0.0
 21
0.0
 31
1.0
 12
0.0
 22
0.0
 32
0.0
 42
50.0
 43
0.0
 44
0.0
 50
0.0
 71
     0
  0
VIEW
  2
AM_VIEW6
 70
     0
 40
739.99260000000015
 10
569.0
 20
370.00000000000023
 41
1331.4415657458569
 11
0.0
 21
0.0
 31
1.0
 12
0.0
 22
0.0
 32
0.0
 42
50.0
 43
0.0
 44
0.0
 50
0.0
 71
     0
  0
ENDTAB
  0
TABLE
  2
UCS
 70
     0
  0
ENDTAB
  0
TABLE
  2
APPID
 70
    96
  0
APPID
  2
ACAD
 70
     0
  0
APPID
  2
MCAD_NO_VIS
 70
     0
  0
APPID
  2
ACAD_TEMP_GRAPHIC
 70
     0
  0
APPID
  2
AD_DRAW
 70
     0
  0
APPID
  2
DESIGNERASSEMBLIES
 70
     0
  0
APPID
  2
ASURF_PCURVE_APPNAME
 70
     0
  0
APPID
  2
GENIUS_GE3SECT_13
 70
     0
  0
APPID
  2
GENIUS_GENCFG_13
 70
     0
  0
APPID
  2
GENIUS_GE3CFG0_13
 70
     0
  0
APPID
  2
GENIUS_GENCFG0_13
 70
     0
  0
APPID
  2
GENIUS_GENCFG1_13
 70
     0
  0
APPID
  2
GENIUS_GENCFG2_13
 70
     0
  0
APPID
  2
GENIUS_GENCFG3_13
 70
     0
  0
APPID
  2
GENIUS_GENCFG4_13
 70
     0
  0
APPID
  2
GENIUS_GEVCFG0_13
 70
     0
  0
APPID
  2
GENIUS_GENOENT_13
 70
     0
  0
APPID
  2
GENIUS_GENREC_14
 70
     0
  0
APPID
  2
GENIUS_GENODEF_13
 70
     0
  0
APPID
  2
GENIUS_GENOBJ-N-REC_13
 70
     0
  0
APPID
  2
GENIUS_GENHINW_13
 70
     0
  0
APPID
  2
GENIUS_FIRSTVISTXT_14
 70
     0
  0
APPID
  2
GENIUS_GENOBJ-N-LEADER_13
 70
     0
  0
APPID
  2
GENIUS_GENOREF_13
 70
     0
  0
APPID
  2
GENIUS_GENOLIS_13
 70
     0
  0
APPID
  2
GEV_VCCNULL_SWITCH_OFF
 70
     0
  0
APPID
  2
GENIUS_GENDTOL_13
 70
     0
  0
APPID
  2
GENIUS_GEFCFG0_13
 70
     0
  0
APPID
  2
GENIUS_GENOBJ-N-TIT_13
 70
     0
  0
APPID
  2
GENIUS_GENTITLE_13
 70
     0
  0
APPID
  2
GENIUS_GENZVEED_13
 70
     0
  0
APPID
  2
GENIUS_GENOBJ-N-SDF_13
 70
     0
  0
APPID
  2
GENIUS_GENSCREG_13
 70
     0
  0
APPID
  2
GENIUS_DUMCFG0_13
 70
     0
  0
APPID
  2
GEVID936201362
 70
     0
  0
APPID
  2
GEVDC
 70
     0
  0
APPID
  2
GEVCON
 70
     0
  0
APPID
  2
VCC
 70
     0
  0
APPID
  2
GEVPT
 70
     0
  0
APPID
  2
GEVIT
 70
     0
  0
APPID
  2
GENBH
 70
     0
  0
APPID
  2
GEVMK
 70
     0
  0
APPID
  2
GENIUS_GENBH_13
 70
     0
  0
APPID
  2
GENIUS_GENOBJ-NBEHI-BHF_13
 70
     0
  0
APPID
  2
GENIUS_GENOBJ-NBEHI-BHB_13
 70
     0
  0
APPID
  2
GENIUS_GENOBJ-F-DESC_13
 70
     0
  0
APPID
  2
GENIUS_GEFDESC_14
 70
     0
  0
APPID
  2
GENIUS_GENOBJ-F-PART_13
 70
     0
  0
APPID
  2
GENIUS_GEFSTDP_13
 70
     0
  0
APPID
  2
GENIUS_GEFPARTINS_13
 70
     0
  0
APPID
  2
GENIUS_GENTRA_14
 70
     0
  0
APPID
  2
GENIUS_GENINF13_13
 70
     0
  0
APPID
  2
GENIUS_GENOBJ-N-INFOPT_13
 70
     0
  0
APPID
  2
GENIUS_GENOBJ-N-RSSYM_13
 70
     0
  0
APPID
  2
GENIUS_GENSYMENT_13
 70
     0
  0
APPID
  2
GENIUS_GENSCSYM_13
 70
     0
  0
APPID
  2
GENIUS_GEFINFNAM_13
 70
     0
  0
APPID
  2
GENIUS_GENSCREG_15
 70
     0
  0
APPID
  2
GENIUS_GENOBJ-N-CEN_13
 70
     0
  0
APPID
  2
GENIUS_GENOBJ-N-CRS_13
 70
     0
  0
APPID
  2
GENIUS_GENOBJ-N-CRC_13
 70
     0
  0
APPID
  2
GENIUS_GENCRC_14
 70
     0
  0
APPID
  2
GEVID942827039
 70
     0
  0
APPID
  2
GEVID942827040
 70
     0
  0
APPID
  2
GEVID942827041
 70
     0
  0
APPID
  2
GENIUS_GENOBJ-F-SCPASSM_13
 70
     0
  0
APPID
  2
GENIUS_GENDIMSH_14
 70
     0
  0
APPID
  2
GENIUS_GENFIL_13
 70
     0
  0
APPID
  2
GENIUS_GENOBJ-N-CHA_13
 70
     0
  0
APPID
  2
GENIUS_GENOBJ-N-FIL_13
 70
     0
  0
APPID
  2
GEVID942827042
 70
     0
  0
APPID
  2
GEVID946020473
 70
     0
  0
APPID
  2
GEVID946020474
 70
     0
  0
APPID
  2
GEVID946020475
 70
     0
  0
APPID
  2
GENIUS_GENOBJ-N-HTC_13
 70
     0
  0
APPID
  2
GENIUS_GENHATCH_13
 70
     0
  0
APPID
  2
GEVID948854295
 70
     0
  0
APPID
  2
GEVID939402019
 70
     0
  0
APPID
  2
GEVID952919491
 70
     0
  0
APPID
  2
GEVID952919492
 70
     0
  0
APPID
  2
GENIUS_GEFWELD_13
 70
     0
  0
APPID
  2
GENIUS_GENOBJ-F-WELS_13
 70
     0
  0
APPID
  2
GEVID952919493
 70
     0
  0
APPID
  2
GENIUS_GENOBJ-N-RSBK_13
 70
     0
  0
APPID
  2
GENIUS_GENOBJ-N-LIB_13
 70
     0
  0
APPID
  2
GENIUS_GENSCALE_13
 70
     0
  0
APPID
  2
GEVID986376691
 70
     0
  0
APPID
  2
ACATTRIBSERVICES
 70
     0
  0
APPID
  2
DCO15
 70
     0
  0
APPID
  2
ACADM_DIM_EDIT
 70
     0
  0
APPID
  2
AMDT_DM_ADJ
 70
     0
  0
APPID
  2
ACAD_MLEADERVER
 70
     0
  0
APPID
  2
ACAD_DSTYLE_DIMBREAK
 70
     0
  0
APPID
  2
ACAD_DSTYLE_DIMJAG
 70
     0
  0
APPID
  2
ACAD_NAV_VCDISPLAY
 70
     0
  0
APPID
  2
ACADANNOPO
 70
     0
  0
APPID
  2
ACAD_EXEMPT_FROM_CAD_STANDARDS
 70
     0
  0
ENDTAB
  0
TABLE
  2
DIMSTYLE
 70
    16
  0
DIMSTYLE
  2
STANDARD
 70
     0
  3

  4

  5

  6

  7

 40
1.0
 41
0.18
 42
0.0625
 43
0.38
 44
0.18
 45
0.0
 46
0.0
 47
0.0
 48
0.0
140
0.18
141
0.09
142
0.0
143
25.399999999999999
144
1.0
145
0.0
146
1.0
147
0.09
 71
     0
 72
     0
 73
     1
 74
     1
 75
     0
 76
     0
 77
     0
 78
     0
170
     0
171
     2
172
     0
173
     0
174
     0
175
     0
176
     0
177
     0
178
     0
  0
DIMSTYLE
  2
AM_JIS
 70
     0
  3

  4
"
  5

  6

  7

 40
1.0
 41
2.5
 42
1.0
 43
7.0
 44
1.0
 45
0.0
 46
0.0
 47
0.1
 48
0.1000000001
140
2.5
141
0.0
142
0.0
143
0.0393701
144
1.0
145
0.0
146
0.71
147
1.0
 71
     0
 72
     0
 73
     0
 74
     0
 75
     0
 76
     0
 77
     3
 78
     8
170
     0
171
     2
172
     1
173
     0
174
     0
175
     0
176
   256
177
   256
178
     4
  0
DIMSTYLE
  2
AM_JIS$3
 70
     0
  3

  4
"
  5

  6

  7

 40
1.0
 41
2.5
 42
1.0
 43
7.0
 44
1.0
 45
0.0
 46
0.0
 47
0.1
 48
0.1000000001
140
2.5
141
0.0
142
0.0
143
0.0393701
144
1.0
145
0.0
146
0.71
147
1.0
 71
     0
 72
     0
 73
     0
 74
     1
 75
     0
 76
     0
 77
     3
 78
     8
170
     0
171
     2
172
     0
173
     0
174
     0
175
     0
176
   256
177
   256
178
     4
  0
DIMSTYLE
  2
AM_JIS$4
 70
     0
  3

  4
"
  5

  6

  7

 40
1.0
 41
2.5
 42
1.0
 43
7.0
 44
1.0
 45
0.0
 46
0.0
 47
0.1
 48
0.1000000001
140
2.5
141
0.0
142
0.0
143
0.0393701
144
1.0
145
0.0
146
0.71
147
1.0
 71
     0
 72
     0
 73
     0
 74
     0
 75
     0
 76
     0
 77
     3
 78
     8
170
     0
171
     2
172
     0
173
     0
174
     0
175
     0
176
   256
177
   256
178
     4
  0
DIMSTYLE
  2
AM_JIS$6
 70
     0
  3

  4
"
  5

  6

  7

 40
1.0
 41
2.5
 42
1.0
 43
7.0
 44
1.0
 45
0.0
 46
0.0
 47
0.1
 48
0.1000000001
140
2.5
141
0.0
142
0.0
143
0.0393701
144
1.0
145
0.0
146
0.71
147
1.0
 71
     0
 72
     0
 73
     0
 74
     0
 75
     0
 76
     0
 77
     0
 78
     8
170
     0
171
     2
172
     1
173
     0
174
     0
175
     0
176
   256
177
   256
178
     4
  0
DIMSTYLE
  2
AM_JIS$7
 70
     0
  3

  4
"
  5

  6

  7

 40
1.0
 41
2.5
 42
1.0
 43
7.0
 44
1.0
 45
0.0
 46
0.0
 47
0.1
 48
0.1000000001
140
2.5
141
0.0
142
0.0
143
0.0393701
144
1.0
145
0.0
146
0.71
147
1.0
 71
     0
 72
     0
 73
     0
 74
     0
 75
     0
 76
     0
 77
     3
 78
     8
170
     0
171
     2
172
     1
173
     0
174
     0
175
     0
176
   256
177
   256
178
     4
  0
DIMSTYLE
  2
AM_JIS$SF
 70
     0
  3

  4
"
  5
OPEN30
  6
OPEN30
  7
OPEN30
 40
1.0
 41
2.5
 42
1.0
 43
10.0
 44
1.0
 45
0.0
 46
0.0
 47
0.1
 48
0.1
140
3.5
141
0.0
142
0.0
143
0.0393701
144
1.0
145
0.0
146
0.71
147
1.5
 71
     0
 72
     0
 73
     0
 74
     0
 75
     1
 76
     1
 77
     3
 78
     8
170
     0
171
     2
172
     1
173
     0
174
     0
175
     0
176
   256
177
   256
178
     4
  0
DIMSTYLE
  2
AM_JIS$SH
 70
     0
  3

  4
"
  5

  6
NONE
  7

 40
1.0
 41
2.5
 42
1.0
 43
10.0
 44
1.0
 45
0.0
 46
0.0
 47
0.1
 48
0.1
140
3.5
141
0.0
142
0.0
143
0.0393701
144
1.0
145
0.0
146
0.71
147
1.5
 71
     0
 72
     0
 73
     0
 74
     0
 75
     1
 76
     0
 77
     3
 78
     8
170
     0
171
     2
172
     1
173
     1
174
     0
175
     0
176
   256
177
   256
178
     4
  0
DIMSTYLE
  2
AM_ISO
 70
     0
  3

  4
"
  5

  6

  7

 40
1.0
 41
2.5
 42
1.0
 43
10.0
 44
1.0
 45
0.0
 46
0.0
 47
0.0
 48
0.000000001
140
3.0
141
0.0
142
0.0
143
0.0393701
144
1.0
145
0.0
146
0.71
147
1.299999999999998
 71
     1
 72
     0
 73
     0
 74
     0
 75
     0
 76
     0
 77
     1
 78
     8
170
     0
171
     2
172
     1
173
     0
174
     0
175
     0
176
   256
177
   256
178
     4
  0
DIMSTYLE
  2
AM_ISO$3
 70
     0
  3

  4
"
  5

  6

  7

 40
1.0
 41
2.5
 42
1.0
 43
10.0
 44
1.0
 45
0.0
 46
0.0
 47
0.0
 48
0.000000001
140
2.5
141
0.0
142
0.0
143
0.0393701
144
1.0
145
0.0
146
0.71
147
1.299999999999998
 71
     1
 72
     0
 73
     0
 74
     1
 75
     0
 76
     0
 77
     1
 78
     8
170
     0
171
     2
172
     0
173
     0
174
     0
175
     0
176
   256
177
   256
178
     4
  0
DIMSTYLE
  2
AM_ISO$4
 70
     0
  3

  4
"
  5

  6

  7

 40
1.0
 41
2.5
 42
1.0
 43
10.0
 44
1.0
 45
0.0
 46
0.0
 47
0.0
 48
0.000000001
140
2.5
141
0.0
142
0.0
143
0.0393701
144
1.0
145
0.0
146
0.71
147
1.299999999999998
 71
     1
 72
     0
 73
     0
 74
     1
 75
     0
 76
     0
 77
     1
 78
     8
170
     0
171
     2
172
     0
173
     0
174
     0
175
     0
176
   256
177
   256
178
     4
  0
DIMSTYLE
  2
AM_ISO$6
 70
     0
  3

  4
"
  5

  6

  7

 40
1.0
 41
2.5
 42
1.0
 43
10.0
 44
1.0
 45
0.0
 46
0.0
 47
0.0
 48
0.000000001
140
2.5
141
0.0
142
0.0
143
0.0393701
144
1.0
145
0.0
146
0.71
147
1.299999999999998
 71
     1
 72
     0
 73
     0
 74
     0
 75
     0
 76
     0
 77
     0
 78
     8
170
     0
171
     2
172
     1
173
     0
174
     0
175
     0
176
   256
177
   256
178
     4
  0
DIMSTYLE
  2
AM_ISO$7
 70
     0
  3

  4
"
  5

  6

  7

 40
1.0
 41
2.5
 42
1.0
 43
10.0
 44
1.0
 45
0.0
 46
0.0
 47
0.0
 48
0.000000001
140
2.5
141
0.0
142
0.0
143
0.0393701
144
1.0
145
0.0
146
0.71
147
1.299999999999998
 71
     1
 72
     0
 73
     0
 74
     0
 75
     0
 76
     0
 77
     1
 78
     8
170
     0
171
     2
172
     1
173
     0
174
     0
175
     0
176
   256
177
   256
178
     4
  0
DIMSTYLE
  2
AM_ISO$SF
 70
     0
  3

  4
"
  5

  6

  7

 40
1.0
 41
2.5
 42
1.0
 43
10.0
 44
1.0
 45
0.0
 46
0.0
 47
0.1
 48
0.1
140
3.5
141
0.0
142
0.0
143
0.0393701
144
1.0
145
0.0
146
0.71
147
1.5
 71
     0
 72
     0
 73
     0
 74
     0
 75
     1
 76
     1
 77
     1
 78
     8
170
     0
171
     2
172
     1
173
     0
174
     0
175
     0
176
   256
177
   256
178
     4
  0
DIMSTYLE
  2
AM_ISO$SH
 70
     0
  3

  4
"
  5

  6
GENAXEH
  7

 40
1.0
 41
2.5
 42
1.0
 43
10.0
 44
1.0
 45
0.0
 46
0.0
 47
0.1
 48
0.1
140
3.5
141
0.0
142
0.0
143
0.0393701
144
2.0
145
0.0
146
0.71
147
1.5
 71
     0
 72
     0
 73
     0
 74
     0
 75
     1
 76
     1
 77
     1
 78
     8
170
     0
171
     2
172
     1
173
     1
174
     0
175
     0
176
   256
177
   256
178
     4
  0
DIMSTYLE
  2
AM_JIS$0
 70
     0
  3

  4
"
  5

  6

  7

 40
1.0
 41
2.5
 42
1.0
 43
7.0
 44
1.0
 45
0.0
 46
0.0
 47
0.1
 48
0.1000000001
140
2.5
141
0.0
142
0.0
143
0.0393701
144
1.0
145
0.0
146
0.71
147
1.0
 71
     0
 72
     0
 73
     0
 74
     0
 75
     0
 76
     0
 77
     3
 78
     8
170
     0
171
     2
172
     1
173
     0
174
     0
175
     0
176
   256
177
   256
178
     4
  0
ENDTAB
  0
ENDSEC
  0
SECTION
  2
BLOCKS
  0
BLOCK
  8
0
  2
$MODEL_SPACE
 70
     0
 10
0.0
 20
0.0
 30
0.0
  3
$MODEL_SPACE
  1

  0
ENDBLK
  5
1A
  8
0
  0
BLOCK
 67
     1
  8
0
  2
$PAPER_SPACE
 70
     0
 10
0.0
 20
0.0
 30
0.0
  3
$PAPER_SPACE
  1

  0
ENDBLK
  5
17
 67
     1
  8
0
  0
BLOCK
  8
0
  2
_OPEN30
 70
     0
 10
0.0
 20
0.0
 30
0.0
  3
_OPEN30
  1

  0
LINE
  5
21C5
  8
0
 62
     0
 10
-1.0
 20
0.26794919
 30
0.0
 11
0.0
 21
0.0
 31
0.0
  0
LINE
  5
21C6
  8
0
 62
     0
 10
0.0
 20
0.0
 30
0.0
 11
-1.0
 21
-0.26794919
 31
0.0
  0
LINE
  5
21C7
  8
0
 62
     0
 10
0.0
 20
0.0
 30
0.0
 11
-1.0
 21
0.0
 31
0.0
  0
ENDBLK
  5
21C9
  8
0
  0
BLOCK
  8
0
  2
GENAXEH
 70
     0
 10
0.0
 20
0.0
 30
0.0
  3
GENAXEH
  1

  0
LINE
  5
21D0
  8
0
 10
-1.0
 20
0.0
 30
0.0
 11
1.0
 21
0.0
 31
0.0
  0
ENDBLK
  5
21D2
  8
0
  0
BLOCK
  8
0
  2
_NONE
 70
     0
 10
0.0
 20
0.0
 30
0.0
  3
_NONE
  1

  0
ENDBLK
  5
8193
  8
0
  0
ENDSEC
  0
SECTION
  2
ENTITIES
  0
POINT
  5
1B94
  8
0
 10
0.0
 20
0.0
 30
0.0
1001
GENIUS_GENODEF_13
1002
{
1000
HIER
1070
     1
1002
}
1002
{
1000
MANEDIT
1070
     0
1002
}
1002
{
1000
NOSEL
1070
     0
1002
}
1002
{
1000
BEHIND
1070
     0
1002
}
1002
{
1000
REACTOR
1002
}
1001
GENIUS_GENOBJ-N-SDF_13
1002
{
1000
OWNER
1000
GEN
1002
}
1001
GENIUS_GENOENT_13
1002
{
1000
MYREF
1005
1B94
1002
}
1002
{
1000
GRP
1005
0
1002
}
1001
GENIUS_GENOLIS_13
1002
{
1000
ENT
1005
89
1002
}
  0
ARC
  5
18E0A
  8
0
 10
527.85856550610697
 20
364.62265412234348
 30
0.0
 40
5.0
 50
69.332681879990645
 51
180.0
1001
GENIUS_GENOBJ-N-FIL_13
1002
{
1000
OWNER
1000
GEN
1002
}
1001
GENIUS_GENODEF_13
1002
{
1000
HIER
1070
     0
1002
}
1002
{
1000
MANEDIT
1070
     0
1002
}
1002
{
1000
NOSEL
1070
     0
1002
}
1002
{
1000
BEHIND
1070
     0
1002
}
1002
{
1000
OTHER
1070
     0
1002
}
1002
{
1000
REACTOR
1002
}
  0
ARC
  5
18E0B
  8
0
 10
532.8585655061072
 20
379.52862571595261
 30
0.0
 40
10.0
 50
90.0
 51
180.0
1001
GENIUS_GENODEF_13
1002
{
1000
HIER
1070
     0
1002
}
1002
{
1000
MANEDIT
1070
     0
1002
}
1002
{
1000
NOSEL
1070
     0
1002
}
1002
{
1000
BEHIND
1070
     0
1002
}
1002
{
1000
OTHER
1070
     0
1002
}
1002
{
1000
REACTOR
1002
}
1001
GENIUS_GENOBJ-N-FIL_13
1002
{
1000
OWNER
1000
GEN
1002
}
  0
LINE
  5
18E0C
  8
0
 10
531.64647002337085
 20
403.29160463551102
 30
0.0
 11
523.74796752167617
 21
384.86173385644071
 31
0.0
  0
LINE
  5
18E0D
  8
0
 10
533.23306923310497
 20
422.22524408881418
 30
0.0
 11
518.23309587389087
 21
387.22524622333339
 31
0.0
  0
ARC
  5
18E0E
  8
0
 10
525.8585655061072
 20
340.52862571595313
 30
0.0
 40
3.0000000000000631
 50
270.0
 51
89.999999999998366
  0
ARC
  5
18E0F
  8
0
 10
525.86080475821564
 20
290.52862655166138
 30
0.0
 40
3.0000000000000631
 50
270.0
 51
89.999999999998366
  0
ARC
  5
18E10
  8
0
 10
527.85856550610697
 20
266.43459730956272
 30
0.0
 40
5.0
 50
180.0
 51
290.66731812000938
1001
GENIUS_GENOBJ-N-FIL_13
1002
{
1000
OWNER
1000
GEN
1002
}
1001
GENIUS_GENODEF_13
1002
{
1000
HIER
1070
     0
1002
}
1002
{
1000
MANEDIT
1070
     0
1002
}
1002
{
1000
NOSEL
1070
     0
1002
}
1002
{
1000
BEHIND
1070
     0
1002
}
1002
{
1000
OTHER
1070
     0
1002
}
1002
{
1000
REACTOR
1002
}
  0
LINE
  5
18E11
  8
0
 10
533.23306923310474
 20
208.83200734309199
 30
0.0
 11
518.23309587389087
 21
243.83200520857301
 31
0.0
  0
LINE
  5
18E13
  8
0
 10
531.64647002337085
 20
227.76564679639449
 30
0.0
 11
523.74796752167583
 21
246.19551757546529
 31
0.0
  0
ARC
  5
18E14
  8
0
 10
532.8585655061072
 20
251.5286257159531
 30
0.0
 40
10.0
 50
180.0
 51
270.0
1001
GENIUS_GENOBJ-N-FIL_13
1002
{
1000
OWNER
1000
GEN
1002
}
1001
GENIUS_GENODEF_13
1002
{
1000
HIER
1070
     0
1002
}
1002
{
1000
MANEDIT
1070
     0
1002
}
1002
{
1000
NOSEL
1070
     0
1002
}
1002
{
1000
BEHIND
1070
     0
1002
}
1002
{
1000
OTHER
1070
     0
1002
}
1002
{
1000
REACTOR
1002
}
  0
LINE
  5
18E20
  8
ﾁｭｳｼﾝｾﾝ1
 10
727.0570885817732
 20
315.5286257159529
 30
0.0
 11
509.17640079901361
 21
315.52862571595278
 31
0.0
  0
LINE
  5
18E3D
  8
0
 10
171.08462588834229
 20
368.52862767260359
 30
0.0
 11
171.08462588834229
 21
392.5286276726037
 31
0.0
  0
LINE
  5
18E3F
  8
ﾁｭｳｼﾝｾﾝ1
 10
232.58462766437901
 20
213.1331017181964
 30
0.0
 11
232.5846276643789
 21
406.34719051074109
 31
0.0
  0
LINE
  5
18E41
  8
AM_0
 10
173.58462588834229
 20
237.2741372763266
 30
0.0
 11
173.58462588834229
 21
393.7831141555788
 31
0.0
  0
LINE
  5
18E43
  8
AM_0
 10
266.58462889857469
 20
235.650809281888
 30
0.0
 11
266.58462889857469
 21
395.40644215001731
 31
0.0
  0
LINE
  5
18E44
  8
AM_0
 10
332.58462766437901
 20
198.52862571595281
 30
0.0
 11
332.58462766437901
 21
432.5286257159525
 31
0.0
  0
LINE
  5
18E46
  8
AM_0
 10
516.85856550610742
 20
380.52862767260439
 30
0.0
 11
516.85856550610742
 21
250.52862375930241
 31
0.0
  0
LINE
  5
18E47
  8
AM_0
 10
522.85856550610742
 20
380.52862767260439
 30
0.0
 11
522.85856550610742
 21
250.52862375930241
 31
0.0
  0
LINE
  5
18E49
  8
ﾁｭｳｼﾝｾﾝ1
 10
166.21786190389011
 20
333.52898999628269
 30
0.0
 11
298.95139342486777
 21
333.52898999628252
 31
0.0
  0
LINE
  5
18E4B
  8
AM_0
 10
173.58462588834229
 20
237.2741372763266
 30
0.0
 11
266.58462889857469
 21
235.650809281888
 31
0.0
  0
LINE
  5
18E4D
  8
ﾁｭｳｼﾝｾﾝ1
 10
397.14219179106971
 20
315.52862571595227
 30
0.0
 11
157.76828240043409
 21
315.5286257159525
 31
0.0
  0
LINE
  5
18E55
  8
0
 10
171.08462588834229
 20
262.52862375930169
 30
0.0
 11
171.08462588834229
 21
238.52862375930169
 31
0.0
  0
LINE
  5
18E56
  8
0
 10
159.08462588834229
 20
259.52862375930169
 30
0.0
 11
159.08462588834229
 21
241.52862375930169
 31
0.0
  0
LINE
  5
18E57
  8
0
 10
159.08462588834229
 20
241.52862375930169
 30
0.0
 11
171.08462588834229
 21
241.52862375930169
 31
0.0
  0
LINE
  5
18E58
  8
0
 10
171.08462588834229
 20
238.52862375930169
 30
0.0
 11
173.58462588834229
 21
238.52862375930169
 31
0.0
  0
LINE
  5
18E5C
  8
AM_0
 10
168.58462573783049
 20
365.52862692304541
 30
0.0
 11
168.58462573783001
 21
265.52862450885982
 31
0.0
  0
LINE
  5
18E5D
  8
0
 10
168.58462573783001
 20
265.52862450885982
 30
0.0
 11
173.58462588834229
 21
265.52862450885982
 31
0.0
  0
LINE
  5
18E5E
  8
0
 10
171.08462588834229
 20
259.52862375930169
 30
0.0
 11
159.08462588834229
 21
259.52862375930169
 31
0.0
  0
LINE
  5
18E60
  8
0
 10
173.58462588834229
 20
262.52862375930169
 30
0.0
 11
171.08462588834229
 21
262.52862375930169
 31
0.0
  0
LINE
  5
18E61
  8
0
 10
168.58462573783049
 20
365.52862692304541
 30
0.0
 11
173.58462588834229
 21
365.52862692304541
 31
0.0
  0
ARC
  5
18E63
  8
AM_0
 10
168.36536375337371
 20
348.52875999628259
 30
0.0
 40
1.0003311999999971
 50
90.785589999996475
 51
268.0685399999997
  0
LINE
  5
18E64
  8
AM_0
 10
168.58462573783001
 20
347.52026617235219
 30
0.0
 11
168.33163375337361
 21
347.52898999628269
 31
0.0
  0
LINE
  5
18E65
  8
AM_0
 10
168.58462573783001
 20
349.53789810201653
 30
0.0
 11
168.33163375337361
 21
349.5289899962828
 31
0.0
  0
LINE
  5
18E66
  8
AM_0
 10
173.58462588834229
 20
367.46094253363208
 30
0.0
 11
171.7316437533739
 21
367.52898999628258
 31
0.0
  0
LINE
  5
18E67
  8
AM_0
 10
171.091643753374
 20
367.78899999628271
 30
0.0
 11
171.091643753374
 21
365.52862692304541
 31
0.0
  0
ARC
  5
18E68
  8
AM_0
 10
171.77736375337389
 20
368.52846999628269
 30
0.0
 40
1.000530599999998
 50
133.81804811085581
 51
267.38127000000162
  0
LINE
  5
18E69
  8
0
 10
173.58462588834229
 20
368.52862767260359
 30
0.0
 11
171.08462588834229
 21
368.52862767260359
 31
0.0
  0
LINE
  5
18E75
  8
AM_0
 10
266.58462889857469
 20
235.650809281888
 30
0.0
 11
304.63698699970911
 21
234.98658046847621
 31
0.0
  0
LINE
  5
18E7C
  8
AM_0
 10
307.58462766437901
 20
201.33302250286059
 30
0.0
 11
307.58462766437901
 21
231.98703741994279
 31
0.0
  0
LINE
  5
18E7D
  8
AM_0
 10
332.58462766437901
 20
198.52862571595281
 30
0.0
 11
309.51482867097388
 21
199.33424084882239
 31
0.0
  0
LINE
  5
18E7F
  8
ﾁｭｳｼﾝｾﾝ1
 10
304.57783831465372
 20
215.5286257159519
 30
0.0
 11
336.21883156942181
 21
215.52862571595199
 31
0.0
  0
ARC
  5
18E81
  8
0
 10
309.58462766437901
 20
201.33302250286059
 30
0.0
 40
1.9999999999999989
 50
180.0
 51
267.99999999999642
1001
GENIUS_GENOBJ-N-FIL_13
1002
{
1000
OWNER
1000
GEN
1002
}
1001
GENIUS_GENODEF_13
1002
{
1000
HIER
1070
     0
1002
}
1002
{
1000
MANEDIT
1070
     0
1002
}
1002
{
1000
NOSEL
1070
     0
1002
}
1002
{
1000
BEHIND
1070
     0
1002
}
1002
{
1000
OTHER
1070
     0
1002
}
1002
{
1000
REACTOR
1002
}
  0
ARC
  5
18E88
  8
AM_0
 10
304.58462766437901
 20
231.98703741994279
 30
0.0
 40
2.9999999999999978
 50
0.0
 51
88.999959580877544
1001
GENIUS_GENOBJ-N-FIL_13
1002
{
1000
OWNER
1000
GEN
1002
}
1001
GENIUS_GENODEF_13
1002
{
1000
HIER
1070
     0
1002
}
1002
{
1000
MANEDIT
1070
     0
1002
}
1002
{
1000
NOSEL
1070
     0
1002
}
1002
{
1000
BEHIND
1070
     0
1002
}
1002
{
1000
OTHER
1070
     0
1002
}
1002
{
1000
REACTOR
1002
}
  0
LINE
  5
18E90
  8
ｶｸﾚｾﾝ2
 10
296.58462959092799
 20
353.52862692304541
 30
0.0
 11
296.58462959092799
 21
277.52862450885982
 31
0.0
  0
ARC
  5
18E9E
  8
AM_0
 10
533.85856595764199
 20
250.5286237593026
 30
0.0
 40
11.000000451534831
 50
180.0
 51
203.19855493455009
  0
ARC
  5
18E9F
  8
AM_0
 10
533.85856595764199
 20
250.5286237593026
 30
0.0
 40
17.000000451534831
 50
180.0
 51
203.19855493455009
  0
ARC
  5
18EA1
  8
0
 10
525.8585655061072
 20
296.52862571595313
 30
0.0
 40
3.0
 50
180.0
 51
270.0
1001
GENIUS_GENODEF_13
1002
{
1000
HIER
1070
     0
1002
}
1002
{
1000
MANEDIT
1070
     0
1002
}
1002
{
1000
NOSEL
1070
     0
1002
}
1002
{
1000
BEHIND
1070
     0
1002
}
1002
{
1000
OTHER
1070
     0
1002
}
1002
{
1000
REACTOR
1002
}
1001
GENIUS_GENOBJ-N-FIL_13
1002
{
1000
OWNER
1000
GEN
1002
}
  0
ARC
  5
18EA2
  8
0
 10
525.8585655061072
 20
284.52862571595313
 30
0.0
 40
3.0
 50
90.0
 51
180.0
1001
GENIUS_GENODEF_13
1002
{
1000
HIER
1070
     0
1002
}
1002
{
1000
MANEDIT
1070
     0
1002
}
1002
{
1000
NOSEL
1070
     0
1002
}
1002
{
1000
BEHIND
1070
     0
1002
}
1002
{
1000
OTHER
1070
     0
1002
}
1002
{
1000
REACTOR
1002
}
1001
GENIUS_GENOBJ-N-FIL_13
1002
{
1000
OWNER
1000
GEN
1002
}
  0
ARC
  5
18EA4
  8
0
 10
525.8585655061072
 20
334.52862571595313
 30
0.0
 40
3.0
 50
90.0
 51
180.0
1001
GENIUS_GENODEF_13
1002
{
1000
HIER
1070
     0
1002
}
1002
{
1000
MANEDIT
1070
     0
1002
}
1002
{
1000
NOSEL
1070
     0
1002
}
1002
{
1000
BEHIND
1070
     0
1002
}
1002
{
1000
OTHER
1070
     0
1002
}
1002
{
1000
REACTOR
1002
}
1001
GENIUS_GENOBJ-N-FIL_13
1002
{
1000
OWNER
1000
GEN
1002
}
  0
ARC
  5
18EA5
  8
0
 10
525.8585655061072
 20
346.52862571595313
 30
0.0
 40
3.0
 50
180.0
 51
270.0
1001
GENIUS_GENODEF_13
1002
{
1000
HIER
1070
     0
1002
}
1002
{
1000
MANEDIT
1070
     0
1002
}
1002
{
1000
NOSEL
1070
     0
1002
}
1002
{
1000
BEHIND
1070
     0
1002
}
1002
{
1000
OTHER
1070
     0
1002
}
1002
{
1000
REACTOR
1002
}
1001
GENIUS_GENOBJ-N-FIL_13
1002
{
1000
OWNER
1000
GEN
1002
}
  0
LINE
  5
18EA7
  8
AM_0
 10
173.58462588834229
 20
393.7831141555788
 30
0.0
 11
266.58462889857469
 21
395.40644215001731
 31
0.0
  0
LINE
  5
18EA9
  8
0
 10
159.08462588834229
 20
389.5286276726037
 30
0.0
 11
171.08462588834229
 21
389.5286276726037
 31
0.0
  0
LINE
  5
18EAA
  8
0
 10
171.08462588834229
 20
371.5286276726037
 30
0.0
 11
159.08462588834229
 21
371.5286276726037
 31
0.0
  0
LINE
  5
18EAB
  8
0
 10
159.08462588834229
 20
371.5286276726037
 30
0.0
 11
159.08462588834229
 21
389.5286276726037
 31
0.0
  0
LINE
  5
18EAC
  8
0
 10
171.08462588834229
 20
392.5286276726037
 30
0.0
 11
173.58462588834229
 21
392.5286276726037
 31
0.0
  0
ARC
  5
18EAD
  8
AM_0
 10
197.5848086643789
 20
394.36191599628302
 30
0.0
 40
1.0001850000000001
 50
1.551130999995167
 51
180.16761299999791
  0
LINE
  5
18EAE
  8
AM_0
 10
196.57697128522449
 20
394.21583800912367
 30
0.0
 11
196.5846279441464
 21
394.35899006053842
 31
0.0
  0
LINE
  5
18EAF
  8
AM_0
 10
198.589418864414
 20
394.2535756520877
 30
0.0
 11
198.58462766437901
 21
394.38898999628282
 31
0.0
  0
LINE
  5
18EB0
  8
AM_0
 10
208.65385006145041
 20
394.44230499593618
 30
0.0
 11
208.5846276638988
 21
396.44898699754123
 31
0.0
  0
LINE
  5
18EB1
  8
AM_0
 10
206.5119289624383
 20
394.40213945099123
 30
0.0
 11
206.5845976638586
 21
396.44899499754121
 31
0.0
  0
ARC
  5
18EB2
  8
AM_0
 10
207.58486766387861
 20
396.41277799754027
 30
0.0
 40
1.000393500020007
 50
2.0744399999949339
 51
179.0714379999965
  0
LINE
  5
18EBA
  8
AM_0
 10
266.58462889857469
 20
395.40644215001731
 30
0.0
 11
304.63698191576918
 21
396.07061822787449
 31
0.0
  0
ARC
  5
18EBB
  8
AM_0
 10
257.58435766487878
 20
396.41243899754068
 30
0.0
 40
1.000402500020007
 50
0.9479099999998869
 51
177.90620799999991
  0
ARC
  5
18EBC
  8
AM_0
 10
237.5840476644787
 20
398.4405679975809
 30
0.0
 40
1.0006038000200119
 50
0.4821899999981778
 51
177.2262829999969
  0
ARC
  5
18EBD
  8
AM_0
 10
227.58517766427869
 20
398.441246997581
 30
0.0
 40
1.0005848000200099
 50
2.7350399999978938
 51
179.5564910000007
  0
ARC
  5
18EBE
  8
AM_0
 10
232.58462766437901
 20
333.52898999628269
 30
0.0
 40
63.503836254666012
 50
76.113685254996739
 51
106.0348967062143
  0
LINE
  5
18EBF
  8
AM_0
 10
216.48422816987551
 20
394.95792743766151
 30
0.0
 11
216.5846276640589
 21
397.8089959975685
 31
0.0
  0
ARC
  5
18EC0
  8
AM_0
 10
217.58502766407889
 20
397.76829999756768
 30
0.0
 40
1.000414000020007
 50
2.331049999997969
 51
179.96048300000029
  0
LINE
  5
18EC1
  8
AM_0
 10
218.6646372220296
 20
395.4884209583592
 30
0.0
 11
218.58459766409871
 21
397.80899199756851
 31
0.0
  0
LINE
  5
18EC2
  8
AM_0
 10
226.5244212315404
 20
396.74300044531861
 30
0.0
 11
226.5846276642589
 21
398.48898799758223
 31
0.0
  0
LINE
  5
18EC3
  8
AM_0
 10
228.6246014738183
 20
396.90923464419728
 30
0.0
 11
228.58462766429849
 21
398.4889919975821
 31
0.0
  0
ARC
  5
18EC4
  8
AM_0
 10
247.58419766467861
 20
397.76762499756768
 30
0.0
 40
1.0004282000200071
 50
0.0782200000044953
 51
177.6302479999965
  0
LINE
  5
18EC5
  8
AM_0
 10
246.5046181140039
 20
395.48842095672472
 30
0.0
 11
246.58462766465871
 21
397.80899199756851
 31
0.0
  0
LINE
  5
18EC6
  8
AM_0
 10
236.52468421644491
 20
396.91047919798848
 30
0.0
 11
236.58462766445859
 21
398.48898799758223
 31
0.0
  0
LINE
  5
18EC7
  8
AM_0
 10
238.64483420136571
 20
396.74300043533412
 30
0.0
 11
238.58462766449861
 21
398.48898799758223
 31
0.0
  0
LINE
  5
18EC8
  8
AM_0
 10
256.54099085087609
 20
395.34029003682298
 30
0.0
 11
256.58459766485851
 21
396.44899499754121
 31
0.0
  0
LINE
  5
18EC9
  8
AM_0
 10
248.67675564356
 20
395.1928190152131
 30
0.0
 11
248.5846276646987
 21
397.80899199756851
 31
0.0
  0
LINE
  5
18ECA
  8
AM_0
 10
258.61848598707837
 20
395.37924745887972
 30
0.0
 11
258.58462766489879
 21
396.44899099754122
 31
0.0
  0
LINE
  5
18ECD
  8
AM_0
 10
307.58462766437901
 20
399.0701613651475
 30
0.0
 11
307.58462766437901
 21
429.72422892904478
 31
0.0
  0
ARC
  5
18ECF
  8
AM_0
 10
304.58462766437901
 20
399.0701613651475
 30
0.0
 40
2.9999999999999978
 50
270.9999433082416
 51
0.0
1001
GENIUS_GENOBJ-N-FIL_13
1002
{
1000
OWNER
1000
GEN
1002
}
1001
GENIUS_GENODEF_13
1002
{
1000
HIER
1070
     0
1002
}
1002
{
1000
MANEDIT
1070
     0
1002
}
1002
{
1000
NOSEL
1070
     0
1002
}
1002
{
1000
BEHIND
1070
     0
1002
}
1002
{
1000
OTHER
1070
     0
1002
}
1002
{
1000
REACTOR
1002
}
  0
LINE
  5
18EDC
  8
ﾁｭｳｼﾝｾﾝ1
 10
304.57783831465372
 20
415.5286257159525
 30
0.0
 11
336.21883156942181
 21
415.5286257159525
 31
0.0
  0
LINE
  5
18EDF
  8
AM_0
 10
332.58462766437901
 20
432.5286257159525
 30
0.0
 11
309.51482867097388
 21
431.72301058308312
 31
0.0
  0
ARC
  5
18EE0
  8
0
 10
309.58462766437901
 20
429.72422892904478
 30
0.0
 40
1.9999999999999989
 50
92.000000000003624
 51
180.0
1001
GENIUS_GENODEF_13
1002
{
1000
HIER
1070
     0
1002
}
1002
{
1000
MANEDIT
1070
     0
1002
}
1002
{
1000
NOSEL
1070
     0
1002
}
1002
{
1000
BEHIND
1070
     0
1002
}
1002
{
1000
OTHER
1070
     0
1002
}
1002
{
1000
REACTOR
1002
}
1001
GENIUS_GENOBJ-N-FIL_13
1002
{
1000
OWNER
1000
GEN
1002
}
  0
ARC
  5
18EE1
  8
AM_0
 10
533.85856595764199
 20
380.52862767260399
 30
0.0
 40
11.000000451534831
 50
156.80144506544991
 51
180.0
  0
ARC
  5
18EE2
  8
AM_0
 10
533.85856595764199
 20
380.52862767260399
 30
0.0
 40
17.000000451534831
 50
156.80144506544991
 51
180.0
  0
ARC
  5
18EEA
  8
0
 10
708.8585407079695
 20
380.52862767260359
 30
0.0
 40
12.0
 50
166.39104615428531
 51
290.66731812000938
  0
ARC
  5
18EEB
  8
0
 10
714.85854115950394
 20
364.62265412234348
 30
0.0
 40
5.0
 50
0.0
 51
110.6673181200093
1001
GENIUS_GENODEF_13
1002
{
1000
HIER
1070
     0
1002
}
1002
{
1000
MANEDIT
1070
     0
1002
}
1002
{
1000
NOSEL
1070
     0
1002
}
1002
{
1000
BEHIND
1070
     0
1002
}
1002
{
1000
OTHER
1070
     0
1002
}
1002
{
1000
REACTOR
1002
}
1001
GENIUS_GENOBJ-N-FIL_13
1002
{
1000
OWNER
1000
GEN
1002
}
  0
LINE
  5
18EED
  8
ﾁｭｳｼﾝｾﾝ1
 10
593.85856776378137
 20
441.60534163690011
 30
0.0
 11
593.85856776378137
 21
189.45190979500541
 31
0.0
  0
LINE
  5
18EEE
  8
AM_0
 10
739.85854112342395
 20
272.02899625153498
 30
0.0
 11
739.85854112342395
 21
395.02897625399521
 31
0.0
  0
LINE
  5
18EEF
  8
AM_0
 10
750.85854112364393
 20
269.5289899962828
 30
0.0
 11
750.85854112364393
 21
397.52897999628271
 31
0.0
  0
LINE
  5
18EF0
  8
AM_0
 10
725.85854115950417
 20
380.52862767260439
 30
0.0
 11
725.85854115950394
 21
250.52862375930241
 31
0.0
  0
LINE
  5
18EF1
  8
AM_0
 10
719.85854115950417
 20
380.52862767260439
 30
0.0
 11
719.85854115950394
 21
250.52862375930241
 31
0.0
  0
ARC
  5
18EF2
  8
0
 10
533.85856595764199
 20
380.52862767260359
 30
0.0
 40
12.0
 50
249.33268187999059
 51
13.6089538457147
  0
LINE
  5
18F21
  8
ﾁｭｳｼﾝｾﾝ1
 10
971.92010154006368
 20
333.52898012351301
 30
0.0
 11
704.78210382941597
 21
333.5289855401133
 31
0.0
  0
CIRCLE
  5
18F2C
  8
0
 10
708.8585407079695
 20
250.52862375930209
 30
0.0
 40
5.0
  0
ARC
  5
18F2D
  8
0
 10
708.8585407079695
 20
250.52862375930229
 30
0.0
 40
12.0
 50
69.332681879990645
 51
193.60895384571469
  0
ARC
  5
18F2F
  8
0
 10
706.47491026908597
 20
229.7352404354715
 30
0.0
 40
5.0
 50
228.39296489486389
 51
336.80144506544991
1001
GENIUS_GENOBJ-N-FIL_13
1002
{
1000
OWNER
1000
GEN
1002
}
1001
GENIUS_GENODEF_13
1002
{
1000
HIER
1070
     0
1002
}
1002
{
1000
MANEDIT
1070
     0
1002
}
1002
{
1000
NOSEL
1070
     0
1002
}
1002
{
1000
BEHIND
1070
     0
1002
}
1002
{
1000
OTHER
1070
     0
1002
}
1002
{
1000
REACTOR
1002
}
  0
ARC
  5
18F31
  8
0
 10
693.85856776378137
 20
215.5286257159535
 30
0.0
 40
16.999999999999709
 50
270.0
 51
336.80144506544991
  0
LINE
  5
18F32
  8
0
  6
CONTINUOUS
 62
     7
 10
709.85854115950394
 20
241.52862571595301
 30
0.0
 11
672.10120845090114
 21
241.52862571595301
 31
0.0
  0
CIRCLE
  5
18F33
  8
ｷｲﾛ
 10
708.8585407079695
 20
250.52862375930209
 30
0.0
 40
6.0
  0
ARC
  5
18F35
  8
0
 10
628.85856776378171
 20
243.5286257159533
 30
0.0
 40
11.0
 50
90.0
 51
169.19307712513961
  0
ARC
  5
18F36
  8
0
 10
628.85856776378171
 20
243.5286257159533
 30
0.0
 40
11.0
 50
10.806922874860341
 51
90.0
  0
CIRCLE
  5
18F37
  8
0
 10
533.85856595764199
 20
250.52862375930229
 30
0.0
 40
5.0
  0
CIRCLE
  5
18F38
  8
ｷｲﾛ
 10
533.85856595764199
 20
250.52862375930229
 30
0.0
 40
6.0
  0
ARC
  5
18F39
  8
0
 10
533.85856595764199
 20
250.52862375930229
 30
0.0
 40
12.0
 50
346.39104615428528
 51
110.6673181200093
  0
LINE
  5
18F3B
  8
0
 10
548.85853890182977
 20
198.52862571595341
 30
0.0
 11
693.85856776378137
 21
198.52862571595341
 31
0.0
  0
LINE
  5
18F3C
  8
0
 10
566.88629527914986
 20
204.52862571595341
 30
0.0
 11
675.83081138646139
 21
204.52862571595341
 31
0.0
  0
ARC
  5
18F3D
  8
0
 10
613.1423341182799
 20
246.5286257159533
 30
0.0
 40
5.0
 50
270.0
 51
349.19307712513972
1001
GENIUS_GENOBJ-N-FIL_13
1002
{
1000
OWNER
1000
GEN
1002
}
1001
GENIUS_GENODEF_13
1002
{
1000
HIER
1070
     0
1002
}
1002
{
1000
MANEDIT
1070
     0
1002
}
1002
{
1000
NOSEL
1070
     0
1002
}
1002
{
1000
BEHIND
1070
     0
1002
}
1002
{
1000
OTHER
1070
     0
1002
}
1002
{
1000
REACTOR
1002
}
  0
ARC
  5
18F3F
  8
0
 10
548.85853890182977
 20
215.5286257159535
 30
0.0
 40
16.999999999999709
 50
203.19855493455009
 51
270.0
  0
LINE
  5
18F42
  8
0
 10
562.22708112459134
 20
224.6545272515954
 30
0.0
 11
576.97985924538989
 21
239.40730537239389
 31
0.0
  0
LINE
  5
18F43
  8
0
 10
557.98444043747213
 20
228.89716793871469
 30
0.0
 11
572.73721855827068
 21
243.64994605951341
 31
0.0
  0
ARC
  5
18F45
  8
0
 10
536.24219639652506
 20
229.73524043547181
 30
0.0
 40
5.0
 50
203.19855493455009
 51
311.60703510513611
1001
GENIUS_GENOBJ-N-FIL_13
1002
{
1000
OWNER
1000
GEN
1002
}
1001
GENIUS_GENODEF_13
1002
{
1000
HIER
1070
     0
1002
}
1002
{
1000
MANEDIT
1070
     0
1002
}
1002
{
1000
NOSEL
1070
     0
1002
}
1002
{
1000
BEHIND
1070
     0
1002
}
1002
{
1000
OTHER
1070
     0
1002
}
1002
{
1000
REACTOR
1002
}
  0
ARC
  5
18F46
  8
0
 10
548.85853890182977
 20
215.5286257159529
 30
0.0
 40
14.0
 50
341.59151982941722
 51
131.60703510513599
  0
CIRCLE
  5
18F48
  8
0
 10
548.85853890182977
 20
215.5286257159535
 30
0.0
 40
7.0
  0
ARC
  5
18F49
  8
0
 10
566.88629527914986
 20
209.5286257159535
 30
0.0
 40
5.0
 50
161.59151982941691
 51
270.0
1001
GENIUS_GENOBJ-N-FIL_13
1002
{
1000
OWNER
1000
GEN
1002
}
1001
GENIUS_GENODEF_13
1002
{
1000
HIER
1070
     0
1002
}
1002
{
1000
MANEDIT
1070
     0
1002
}
1002
{
1000
NOSEL
1070
     0
1002
}
1002
{
1000
BEHIND
1070
     0
1002
}
1002
{
1000
OTHER
1070
     0
1002
}
1002
{
1000
REACTOR
1002
}
  0
ARC
  5
18F4A
  8
0
 10
564.348401468151
 20
222.53320690803619
 30
0.0
 40
3.0
 50
135.0000000000046
 51
204.3326835064922
1001
GENIUS_GENOBJ-N-FIL_13
1002
{
1000
OWNER
1000
GEN
1002
}
1001
GENIUS_GENODEF_13
1002
{
1000
HIER
1070
     0
1002
}
1002
{
1000
MANEDIT
1070
     0
1002
}
1002
{
1000
NOSEL
1070
     0
1002
}
1002
{
1000
BEHIND
1070
     0
1002
}
1002
{
1000
OTHER
1070
     0
1002
}
1002
{
1000
REACTOR
1002
}
  0
ARC
  5
18F4B
  8
0
 10
550.38127807318779
 20
246.5286257159533
 30
0.0
 40
5.0
 50
166.39104615428531
 51
270.0
1001
GENIUS_GENOBJ-N-FIL_13
1002
{
1000
OWNER
1000
GEN
1002
}
1001
GENIUS_GENODEF_13
1002
{
1000
HIER
1070
     0
1002
}
1002
{
1000
MANEDIT
1070
     0
1002
}
1002
{
1000
NOSEL
1070
     0
1002
}
1002
{
1000
BEHIND
1070
     0
1002
}
1002
{
1000
OTHER
1070
     0
1002
}
1002
{
1000
REACTOR
1002
}
  0
LINE
  5
18F4C
  8
0
  6
CONTINUOUS
 62
     7
 10
570.61589821471023
 20
241.52862571595301
 30
0.0
 11
532.85856550610742
 21
241.52862571595301
 31
0.0
  0
ARC
  5
18F4D
  8
0
 10
555.86312009391236
 20
231.01848828227489
 30
0.0
 40
3.0
 50
245.66731649351581
 51
315.0000000000046
1001
GENIUS_GENODEF_13
1002
{
1000
HIER
1070
     0
1002
}
1002
{
1000
MANEDIT
1070
     0
1002
}
1002
{
1000
NOSEL
1070
     0
1002
}
1002
{
1000
BEHIND
1070
     0
1002
}
1002
{
1000
OTHER
1070
     0
1002
}
1002
{
1000
REACTOR
1002
}
1001
GENIUS_GENOBJ-N-FIL_13
1002
{
1000
OWNER
1000
GEN
1002
}
  0
LINE
  5
18F4E
  8
0
  6
CONTINUOUS
 62
     7
 10
613.1423341182799
 20
241.52862571595301
 30
0.0
 11
577.85853890183023
 21
241.52862571595301
 31
0.0
  0
ARC
  5
18F4F
  8
0
 10
574.85853890183023
 20
241.52862571595401
 30
0.0
 40
3.0000000000000631
 50
315.0000000000046
 51
135.0000000000046
  0
LINE
  5
18F52
  8
0
  6
CONTINUOUS
 62
     7
 10
664.85856776378114
 20
241.52862571595301
 30
0.0
 11
644.57480140928305
 21
241.52862571595301
 31
0.0
  0
CIRCLE
  5
18F53
  8
AM_0
 10
628.85856776378171
 20
243.52862571595259
 30
0.0
 40
6.5
  0
CIRCLE
  5
18F54
  8
AM_0
 10
628.85856776378171
 20
243.52862571595259
 30
0.0
 40
8.5
  0
POLYLINE
  5
18F55
  8
AM_0
 66
     1
 10
0.0
 20
0.0
 30
0.0
 70
     1
  0
VERTEX
  5
18F56
  8
AM_0
 10
627.12651695621275
 20
240.5286257159531
 30
0.0
  0
VERTEX
  5
18F57
  8
AM_0
 10
625.39446614864357
 20
243.5286257159531
 30
0.0
  0
VERTEX
  5
18F58
  8
AM_0
 10
627.12651695621275
 20
246.5286257159531
 30
0.0
  0
VERTEX
  5
18F59
  8
AM_0
 10
630.59061857135043
 20
246.5286257159531
 30
0.0
  0
VERTEX
  5
18F5A
  8
AM_0
 10
632.32266937891939
 20
243.5286257159531
 30
0.0
  0
VERTEX
  5
18F5B
  8
AM_0
 10
630.59061857135043
 20
240.5286257159531
 30
0.0
  0
SEQEND
  5
18F5C
  8
AM_0
  0
ARC
  5
18F5D
  8
0
 10
644.57480140928305
 20
246.5286257159533
 30
0.0
 40
5.0
 50
190.80692287486031
 51
269.99999999999841
1001
GENIUS_GENOBJ-N-FIL_13
1002
{
1000
OWNER
1000
GEN
1002
}
1001
GENIUS_GENODEF_13
1002
{
1000
HIER
1070
     0
1002
}
1002
{
1000
MANEDIT
1070
     0
1002
}
1002
{
1000
NOSEL
1070
     0
1002
}
1002
{
1000
BEHIND
1070
     0
1002
}
1002
{
1000
OTHER
1070
     0
1002
}
1002
{
1000
REACTOR
1002
}
  0
ARC
  5
18F5F
  8
0
 10
693.85856776378137
 20
215.5286257159529
 30
0.0
 40
14.0
 50
48.392964894863901
 51
198.408480170583
  0
LINE
  5
18F60
  8
0
 10
680.49002554102003
 20
224.6545272515954
 30
0.0
 11
665.73724742022137
 21
239.40730537239389
 31
0.0
  0
ARC
  5
18F61
  8
0
 10
675.83081138646139
 20
209.5286257159535
 30
0.0
 40
5.0
 50
270.0
 51
18.408480170583069
1001
GENIUS_GENOBJ-N-FIL_13
1002
{
1000
OWNER
1000
GEN
1002
}
1001
GENIUS_GENODEF_13
1002
{
1000
HIER
1070
     0
1002
}
1002
{
1000
MANEDIT
1070
     0
1002
}
1002
{
1000
NOSEL
1070
     0
1002
}
1002
{
1000
BEHIND
1070
     0
1002
}
1002
{
1000
OTHER
1070
     0
1002
}
1002
{
1000
REACTOR
1002
}
  0
ARC
  5
18F62
  8
0
 10
678.36870519746014
 20
222.53320690803619
 30
0.0
 40
3.0
 50
335.66731649350783
 51
44.999999999995389
1001
GENIUS_GENOBJ-N-FIL_13
1002
{
1000
OWNER
1000
GEN
1002
}
1001
GENIUS_GENODEF_13
1002
{
1000
HIER
1070
     0
1002
}
1002
{
1000
MANEDIT
1070
     0
1002
}
1002
{
1000
NOSEL
1070
     0
1002
}
1002
{
1000
BEHIND
1070
     0
1002
}
1002
{
1000
OTHER
1070
     0
1002
}
1002
{
1000
REACTOR
1002
}
  0
CIRCLE
  5
18F63
  8
0
 10
693.85856776378137
 20
215.5286257159535
 30
0.0
 40
7.0
  0
LINE
  5
18F64
  8
0
 10
684.73266622813924
 20
228.89716793871469
 30
0.0
 11
669.97988810734046
 21
243.64994605951341
 31
0.0
  0
ARC
  5
18F65
  8
0
 10
667.85856776378114
 20
241.52862571595401
 30
0.0
 40
3.0000000000000631
 50
44.999999999995389
 51
224.9999999999954
  0
ARC
  5
18F66
  8
0
 10
686.85398657169878
 20
231.01848828227489
 30
0.0
 40
3.0
 50
224.9999999999954
 51
294.33268350648422
1001
GENIUS_GENODEF_13
1002
{
1000
HIER
1070
     0
1002
}
1002
{
1000
MANEDIT
1070
     0
1002
}
1002
{
1000
NOSEL
1070
     0
1002
}
1002
{
1000
BEHIND
1070
     0
1002
}
1002
{
1000
OTHER
1070
     0
1002
}
1002
{
1000
REACTOR
1002
}
1001
GENIUS_GENOBJ-N-FIL_13
1002
{
1000
OWNER
1000
GEN
1002
}
  0
ARC
  5
18F67
  8
0
 10
692.3358285924237
 20
246.5286257159533
 30
0.0
 40
5.0
 50
270.0
 51
13.6089538457147
1001
GENIUS_GENODEF_13
1002
{
1000
HIER
1070
     0
1002
}
1002
{
1000
MANEDIT
1070
     0
1002
}
1002
{
1000
NOSEL
1070
     0
1002
}
1002
{
1000
BEHIND
1070
     0
1002
}
1002
{
1000
OTHER
1070
     0
1002
}
1002
{
1000
REACTOR
1002
}
1001
GENIUS_GENOBJ-N-FIL_13
1002
{
1000
OWNER
1000
GEN
1002
}
  0
POLYLINE
  5
18F68
  8
AM_0
 10
568.85856701822331
 20
315.5286257159529
 30
0.0
 66
     1
 70
     8
  0
VERTEX
  8
AM_0
  5
1B135
 10
568.859
 20
315.529
 30
0.000000
  70
    32
  0
VERTEX
  8
AM_0
  5
1B136
 10
568.889
 20
316.755
 30
0.000000
  70
    32
  0
VERTEX
  8
AM_0
  5
1B137
 10
568.979
 20
317.979
 30
0.000000
  70
    32
  0
VERTEX
  8
AM_0
  5
1B138
 10
569.129
 20
319.197
 30
0.000000
  70
    32
  0
VERTEX
  8
AM_0
  5
1B139
 10
569.339
 20
320.406
 30
0.000000
  70
    32
  0
VERTEX
  8
AM_0
  5
1B13A
 10
569.608
 20
321.603
 30
0.000000
  70
    32
  0
VERTEX
  8
AM_0
  5
1B13B
 10
569.935
 20
322.786
 30
0.000000
  70
    32
  0
VERTEX
  8
AM_0
  5
1B13C
 10
570.320
 20
323.951
 30
0.000000
  70
    32
  0
VERTEX
  8
AM_0
  5
1B13D
 10
570.762
 20
325.096
 30
0.000000
  70
    32
  0
VERTEX
  8
AM_0
  5
1B13E
 10
571.259
 20
326.218
 30
0.000000
  70
    32
  0
VERTEX
  8
AM_0
  5
1B13F
 10
571.811
 20
327.314
 30
0.000000
  70
    32
  0
VERTEX
  8
AM_0
  5
1B140
 10
572.415
 20
328.381
 30
0.000000
  70
    32
  0
VERTEX
  8
AM_0
  5
1B141
 10
573.072
 20
329.418
 30
0.000000
  70
    32
  0
VERTEX
  8
AM_0
  5
1B142
 10
573.778
 20
330.421
 30
0.000000
  70
    32
  0
VERTEX
  8
AM_0
  5
1B143
 10
574.533
 20
331.389
 30
0.000000
  70
    32
  0
VERTEX
  8
AM_0
  5
1B144
 10
575.335
 20
332.318
 30
0.000000
  70
    32
  0
VERTEX
  8
AM_0
  5
1B145
 10
576.181
 20
333.207
 30
0.000000
  70
    32
  0
VERTEX
  8
AM_0
  5
1B146
 10
577.070
 20
334.053
 30
0.000000
  70
    32
  0
VERTEX
  8
AM_0
  5
1B147
 10
577.999
 20
334.854
 30
0.000000
  70
    32
  0
VERTEX
  8
AM_0
  5
1B148
 10
578.966
 20
335.609
 30
0.000000
  70
    32
  0
VERTEX
  8
AM_0
  5
1B149
 10
579.969
 20
336.316
 30
0.000000
  70
    32
  0
VERTEX
  8
AM_0
  5
1B14A
 10
581.006
 20
336.972
 30
0.000000
  70
    32
  0
VERTEX
  8
AM_0
  5
1B14B
 10
582.074
 20
337.577
 30
0.000000
  70
    32
  0
VERTEX
  8
AM_0
  5
1B14C
 10
583.170
 20
338.129
 30
0.000000
  70
    32
  0
VERTEX
  8
AM_0
  5
1B14D
 10
584.291
 20
338.626
 30
0.000000
  70
    32
  0
VERTEX
  8
AM_0
  5
1B14E
 10
585.436
 20
339.068
 30
0.000000
  70
    32
  0
VERTEX
  8
AM_0
  5
1B14F
 10
586.601
 20
339.453
 30
0.000000
  70
    32
  0
VERTEX
  8
AM_0
  5
1B150
 10
587.784
 20
339.780
 30
0.000000
  70
    32
  0
VERTEX
  8
AM_0
  5
1B151
 10
588.981
 20
340.049
 30
0.000000
  70
    32
  0
VERTEX
  8
AM_0
  5
1B152
 10
590.190
 20
340.259
 30
0.000000
  70
    32
  0
VERTEX
  8
AM_0
  5
1B153
 10
591.408
 20
340.409
 30
0.000000
  70
    32
  0
VERTEX
  8
AM_0
  5
1B154
 10
592.632
 20
340.499
 30
0.000000
  70
    32
  0
VERTEX
  8
AM_0
  5
1B155
 10
593.859
 20
340.529
 30
0.000000
  70
    32
  0
VERTEX
  8
AM_0
  5
1B156
 10
595.085
 20
340.499
 30
0.000000
  70
    32
  0
VERTEX
  8
AM_0
  5
1B157
 10
596.309
 20
340.409
 30
0.000000
  70
    32
  0
VERTEX
  8
AM_0
  5
1B158
 10
597.527
 20
340.259
 30
0.000000
  70
    32
  0
VERTEX
  8
AM_0
  5
1B159
 10
598.736
 20
340.049
 30
0.000000
  70
    32
  0
VERTEX
  8
AM_0
  5
1B15A
 10
599.933
 20
339.780
 30
0.000000
  70
    32
  0
VERTEX
  8
AM_0
  5
1B15B
 10
601.116
 20
339.453
 30
0.000000
  70
    32
  0
VERTEX
  8
AM_0
  5
1B15C
 10
602.281
 20
339.068
 30
0.000000
  70
    32
  0
VERTEX
  8
AM_0
  5
1B15D
 10
603.426
 20
338.626
 30
0.000000
  70
    32
  0
VERTEX
  8
AM_0
  5
1B15E
 10
604.547
 20
338.129
 30
0.000000
  70
    32
  0
VERTEX
  8
AM_0
  5
1B15F
 10
605.643
 20
337.577
 30
0.000000
  70
    32
  0
VERTEX
  8
AM_0
  5
1B160
 10
606.711
 20
336.972
 30
0.000000
  70
    32
  0
VERTEX
  8
AM_0
  5
1B161
 10
607.748
 20
336.316
 30
0.000000
  70
    32
  0
VERTEX
  8
AM_0
  5
1B162
 10
608.751
 20
335.609
 30
0.000000
  70
    32
  0
VERTEX
  8
AM_0
  5
1B163
 10
609.718
 20
334.854
 30
0.000000
  70
    32
  0
VERTEX
  8
AM_0
  5
1B164
 10
610.648
 20
334.053
 30
0.000000
  70
    32
  0
VERTEX
  8
AM_0
  5
1B165
 10
611.536
 20
333.207
 30
0.000000
  70
    32
  0
VERTEX
  8
AM_0
  5
1B166
 10
612.382
 20
332.318
 30
0.000000
  70
    32
  0
VERTEX
  8
AM_0
  5
1B167
 10
613.184
 20
331.389
 30
0.000000
  70
    32
  0
VERTEX
  8
AM_0
  5
1B168
 10
613.939
 20
330.421
 30
0.000000
  70
    32
  0
VERTEX
  8
AM_0
  5
1B169
 10
614.645
 20
329.418
 30
0.000000
  70
    32
  0
VERTEX
  8
AM_0
  5
1B16A
 10
615.302
 20
328.381
 30
0.000000
  70
    32
  0
VERTEX
  8
AM_0
  5
1B16B
 10
615.907
 20
327.314
 30
0.000000
  70
    32
  0
VERTEX
  8
AM_0
  5
1B16C
 10
616.458
 20
326.218
 30
0.000000
  70
    32
  0
VERTEX
  8
AM_0
  5
1B16D
 10
616.956
 20
325.096
 30
0.000000
  70
    32
  0
VERTEX
  8
AM_0
  5
1B16E
 10
617.397
 20
323.951
 30
0.000000
  70
    32
  0
VERTEX
  8
AM_0
  5
1B16F
 10
617.782
 20
322.786
 30
0.000000
  70
    32
  0
VERTEX
  8
AM_0
  5
1B170
 10
618.109
 20
321.603
 30
0.000000
  70
    32
  0
VERTEX
  8
AM_0
  5
1B171
 10
618.378
 20
320.406
 30
0.000000
  70
    32
  0
VERTEX
  8
AM_0
  5
1B172
 10
618.588
 20
319.197
 30
0.000000
  70
    32
  0
VERTEX
  8
AM_0
  5
1B173
 10
618.738
 20
317.979
 30
0.000000
  70
    32
  0
VERTEX
  8
AM_0
  5
1B174
 10
618.828
 20
316.755
 30
0.000000
  70
    32
  0
VERTEX
  8
AM_0
  5
1B175
 10
618.859
 20
315.529
 30
0.000000
  70
    32
  0
VERTEX
  8
AM_0
  5
1B176
 10
618.828
 20
314.302
 30
0.000000
  70
    32
  0
VERTEX
  8
AM_0
  5
1B177
 10
618.738
 20
313.078
 30
0.000000
  70
    32
  0
VERTEX
  8
AM_0
  5
1B178
 10
618.588
 20
311.860
 30
0.000000
  70
    32
  0
VERTEX
  8
AM_0
  5
1B179
 10
618.378
 20
310.651
 30
0.000000
  70
    32
  0
VERTEX
  8
AM_0
  5
1B17A
 10
618.109
 20
309.454
 30
0.000000
  70
    32
  0
VERTEX
  8
AM_0
  5
1B17B
 10
617.782
 20
308.271
 30
0.000000
  70
    32
  0
VERTEX
  8
AM_0
  5
1B17C
 10
617.397
 20
307.106
 30
0.000000
  70
    32
  0
VERTEX
  8
AM_0
  5
1B17D
 10
616.956
 20
305.961
 30
0.000000
  70
    32
  0
VERTEX
  8
AM_0
  5
1B17E
 10
616.458
 20
304.840
 30
0.000000
  70
    32
  0
VERTEX
  8
AM_0
  5
1B17F
 10
615.907
 20
303.743
 30
0.000000
  70
    32
  0
VERTEX
  8
AM_0
  5
1B180
 10
615.302
 20
302.676
 30
0.000000
  70
    32
  0
VERTEX
  8
AM_0
  5
1B181
 10
614.645
 20
301.639
 30
0.000000
  70
    32
  0
VERTEX
  8
AM_0
  5
1B182
 10
613.939
 20
300.636
 30
0.000000
  70
    32
  0
VERTEX
  8
AM_0
  5
1B183
 10
613.184
 20
299.668
 30
0.000000
  70
    32
  0
VERTEX
  8
AM_0
  5
1B184
 10
612.382
 20
298.739
 30
0.000000
  70
    32
  0
VERTEX
  8
AM_0
  5
1B185
 10
611.536
 20
297.851
 30
0.000000
  70
    32
  0
VERTEX
  8
AM_0
  5
1B186
 10
610.648
 20
297.004
 30
0.000000
  70
    32
  0
VERTEX
  8
AM_0
  5
1B187
 10
609.718
 20
296.203
 30
0.000000
  70
    32
  0
VERTEX
  8
AM_0
  5
1B188
 10
608.751
 20
295.448
 30
0.000000
  70
    32
  0
VERTEX
  8
AM_0
  5
1B189
 10
607.748
 20
294.741
 30
0.000000
  70
    32
  0
VERTEX
  8
AM_0
  5
1B18A
 10
606.711
 20
294.085
 30
0.000000
  70
    32
  0
VERTEX
  8
AM_0
  5
1B18B
 10
605.643
 20
293.480
 30
0.000000
  70
    32
  0
VERTEX
  8
AM_0
  5
1B18C
 10
604.547
 20
292.928
 30
0.000000
  70
    32
  0
VERTEX
  8
AM_0
  5
1B18D
 10
603.426
 20
292.431
 30
0.000000
  70
    32
  0
VERTEX
  8
AM_0
  5
1B18E
 10
602.281
 20
291.990
 30
0.000000
  70
    32
  0
VERTEX
  8
AM_0
  5
1B18F
 10
601.116
 20
291.605
 30
0.000000
  70
    32
  0
VERTEX
  8
AM_0
  5
1B190
 10
599.933
 20
291.277
 30
0.000000
  70
    32
  0
VERTEX
  8
AM_0
  5
1B191
 10
598.736
 20
291.009
 30
0.000000
  70
    32
  0
VERTEX
  8
AM_0
  5
1B192
 10
597.527
 20
290.799
 30
0.000000
  70
    32
  0
VERTEX
  8
AM_0
  5
1B193
 10
596.309
 20
290.649
 30
0.000000
  70
    32
  0
VERTEX
  8
AM_0
  5
1B194
 10
595.085
 20
290.558
 30
0.000000
  70
    32
  0
VERTEX
  8
AM_0
  5
1B195
 10
593.859
 20
290.528
 30
0.000000
  70
    32
  0
VERTEX
  8
AM_0
  5
1B196
 10
592.632
 20
290.558
 30
0.000000
  70
    32
  0
VERTEX
  8
AM_0
  5
1B197
 10
591.408
 20
290.649
 30
0.000000
  70
    32
  0
VERTEX
  8
AM_0
  5
1B198
 10
590.190
 20
290.799
 30
0.000000
  70
    32
  0
VERTEX
  8
AM_0
  5
1B199
 10
588.981
 20
291.009
 30
0.000000
  70
    32
  0
VERTEX
  8
AM_0
  5
1B19A
 10
587.784
 20
291.277
 30
0.000000
  70
    32
  0
VERTEX
  8
AM_0
  5
1B19B
 10
586.601
 20
291.605
 30
0.000000
  70
    32
  0
VERTEX
  8
AM_0
  5
1B19C
 10
585.436
 20
291.990
 30
0.000000
  70
    32
  0
VERTEX
  8
AM_0
  5
1B19D
 10
584.291
 20
292.431
 30
0.000000
  70
    32
  0
VERTEX
  8
AM_0
  5
1B19E
 10
583.170
 20
292.928
 30
0.000000
  70
    32
  0
VERTEX
  8
AM_0
  5
1B19F
 10
582.074
 20
293.480
 30
0.000000
  70
    32
  0
VERTEX
  8
AM_0
  5
1B1A0
 10
581.006
 20
294.085
 30
0.000000
  70
    32
  0
VERTEX
  8
AM_0
  5
1B1A1
 10
579.969
 20
294.741
 30
0.000000
  70
    32
  0
VERTEX
  8
AM_0
  5
1B1A2
 10
578.966
 20
295.448
 30
0.000000
  70
    32
  0
VERTEX
  8
AM_0
  5
1B1A3
 10
577.999
 20
296.203
 30
0.000000
  70
    32
  0
VERTEX
  8
AM_0
  5
1B1A4
 10
577.070
 20
297.004
 30
0.000000
  70
    32
  0
VERTEX
  8
AM_0
  5
1B1A5
 10
576.181
 20
297.851
 30
0.000000
  70
    32
  0
VERTEX
  8
AM_0
  5
1B1A6
 10
575.335
 20
298.739
 30
0.000000
  70
    32
  0
VERTEX
  8
AM_0
  5
1B1A7
 10
574.533
 20
299.668
 30
0.000000
  70
    32
  0
VERTEX
  8
AM_0
  5
1B1A8
 10
573.778
 20
300.636
 30
0.000000
  70
    32
  0
VERTEX
  8
AM_0
  5
1B1A9
 10
573.072
 20
301.639
 30
0.000000
  70
    32
  0
VERTEX
  8
AM_0
  5
1B1AA
 10
572.415
 20
302.676
 30
0.000000
  70
    32
  0
VERTEX
  8
AM_0
  5
1B1AB
 10
571.811
 20
303.743
 30
0.000000
  70
    32
  0
VERTEX
  8
AM_0
  5
1B1AC
 10
571.259
 20
304.840
 30
0.000000
  70
    32
  0
VERTEX
  8
AM_0
  5
1B1AD
 10
570.762
 20
305.961
 30
0.000000
  70
    32
  0
VERTEX
  8
AM_0
  5
1B1AE
 10
570.320
 20
307.106
 30
0.000000
  70
    32
  0
VERTEX
  8
AM_0
  5
1B1AF
 10
569.935
 20
308.271
 30
0.000000
  70
    32
  0
VERTEX
  8
AM_0
  5
1B1B0
 10
569.608
 20
309.454
 30
0.000000
  70
    32
  0
VERTEX
  8
AM_0
  5
1B1B1
 10
569.339
 20
310.651
 30
0.000000
  70
    32
  0
VERTEX
  8
AM_0
  5
1B1B2
 10
569.129
 20
311.860
 30
0.000000
  70
    32
  0
VERTEX
  8
AM_0
  5
1B1B3
 10
568.979
 20
313.078
 30
0.000000
  70
    32
  0
VERTEX
  8
AM_0
  5
1B1B4
 10
568.889
 20
314.302
 30
0.000000
  70
    32
  0
VERTEX
  8
AM_0
  5
1B1B5
 10
568.859
 20
315.529
 30
0.000000
  70
    32
  0
SEQEND
  8
AM_0
  5
1B1B6
  0
CIRCLE
  5
18F69
  8
0
 10
593.85856776378137
 20
315.5286257159529
 30
0.0
 40
50.0
  0
LINE
  5
18F79
  8
0
 10
709.48403743250674
 20
208.83200734309199
 30
0.0
 11
724.35400785239995
 21
243.52866449657421
 31
0.0
  0
LINE
  5
18F7A
  8
0
 10
711.07063664224029
 20
227.76564679639449
 30
0.0
 11
718.96913914393554
 21
246.19551757546509
 31
0.0
  0
ARC
  5
18F7B
  8
0
 10
709.85854115950394
 20
251.5286257159533
 30
0.0
 40
10.0
 50
270.0
 51
0.0
1001
GENIUS_GENODEF_13
1002
{
1000
HIER
1070
     0
1002
}
1002
{
1000
MANEDIT
1070
     0
1002
}
1002
{
1000
NOSEL
1070
     0
1002
}
1002
{
1000
BEHIND
1070
     0
1002
}
1002
{
1000
OTHER
1070
     0
1002
}
1002
{
1000
REACTOR
1002
}
1001
GENIUS_GENOBJ-N-FIL_13
1002
{
1000
OWNER
1000
GEN
1002
}
  0
ARC
  5
18F7C
  8
AM_0
 10
708.85854070796915
 20
250.5286237593026
 30
0.0
 40
17.000000451534831
 50
336.80144506544991
 51
0.0
  0
ARC
  5
18F7D
  8
AM_0
 10
708.85854070796915
 20
250.5286237593026
 30
0.0
 40
11.000000451534831
 50
336.80144506544991
 51
0.0
  0
LINE
  5
18F9A
  8
AM_0
 10
729.32398776793184
 20
302.45229843001772
 30
0.0
 11
729.3239877679332
 21
364.60567407551281
 31
0.0
  0
ARC
  5
18F9B
  8
AM_0
 10
416.57626769904181
 20
333.5289879372109
 30
0.0
 40
316.22122811834902
 50
354.36014466263379
 51
5.639854129946368
  0
LINE
  5
18F9C
  8
AM_0
 10
750.85854112364393
 20
281.48899625172459
 30
0.0
 11
740.85854112344396
 21
281.48899625172459
 31
0.0
  0
LINE
  5
18F9D
  8
AM_0
 10
750.85854112364393
 20
296.38900625202228
 30
0.0
 11
740.85854112344396
 21
296.38900625202228
 31
0.0
  0
LINE
  5
18F9E
  8
AM_0
 10
750.85854112364393
 20
269.52899625148513
 30
0.0
 11
741.7319382958658
 21
269.52899625148513
 31
0.0
  0
ARC
  5
18F9F
  8
AM_0
 10
726.85854112316406
 20
269.02899625147541
 30
0.0
 40
3.000000000059996
 50
90.0
 51
109.4712198979468
1001
GENIUS_GENODEF_13
1002
{
1000
HIER
1070
     0
1002
}
1002
{
1000
MANEDIT
1070
     0
1002
}
1002
{
1000
NOSEL
1070
     0
1002
}
1002
{
1000
BEHIND
1070
     0
1002
}
1002
{
1000
OTHER
1070
     0
1002
}
1002
{
1000
REACTOR
1002
}
1001
GENIUS_GENOBJ-N-FIL_13
1002
{
1000
OWNER
1000
GEN
1002
}
  0
ARC
  5
18FA0
  8
0
 10
714.85854115950394
 20
266.43459730956272
 30
0.0
 40
5.0
 50
249.33268187999059
 51
0.0
1001
GENIUS_GENOBJ-N-FIL_13
1002
{
1000
OWNER
1000
GEN
1002
}
1001
GENIUS_GENODEF_13
1002
{
1000
HIER
1070
     0
1002
}
1002
{
1000
MANEDIT
1070
     0
1002
}
1002
{
1000
NOSEL
1070
     0
1002
}
1002
{
1000
BEHIND
1070
     0
1002
}
1002
{
1000
OTHER
1070
     0
1002
}
1002
{
1000
REACTOR
1002
}
  0
ARC
  5
18FA1
  8
AM_0
 10
736.85854112336381
 20
269.02899625147518
 30
0.0
 40
3.000000000059996
 50
35.685334712656889
 51
90.0
1001
GENIUS_GENOBJ-N-FIL_13
1002
{
1000
OWNER
1000
GEN
1002
}
1001
GENIUS_GENODEF_13
1002
{
1000
HIER
1070
     0
1002
}
1002
{
1000
MANEDIT
1070
     0
1002
}
1002
{
1000
NOSEL
1070
     0
1002
}
1002
{
1000
BEHIND
1070
     0
1002
}
1002
{
1000
OTHER
1070
     0
1002
}
1002
{
1000
REACTOR
1002
}
  0
LINE
  5
18FA2
  8
AM_0
 10
736.85854112336381
 20
272.02899625153498
 30
0.0
 11
726.85854112316406
 21
272.0289962515352
 31
0.0
  0
ARC
  5
18FA3
  8
AM_0
 10
741.7319382958658
 20
272.5289962515451
 30
0.0
 40
3.000000000059996
 50
215.6853347126569
 51
270.0
1001
GENIUS_GENOBJ-N-FIL_13
1002
{
1000
OWNER
1000
GEN
1002
}
1001
GENIUS_GENODEF_13
1002
{
1000
HIER
1070
     0
1002
}
1002
{
1000
MANEDIT
1070
     0
1002
}
1002
{
1000
NOSEL
1070
     0
1002
}
1002
{
1000
BEHIND
1070
     0
1002
}
1002
{
1000
OTHER
1070
     0
1002
}
1002
{
1000
REACTOR
1002
}
  0
LINE
  5
18FA4
  8
AM_0
 10
728.28700676950473
 20
299.80026761369669
 30
0.0
 11
725.85854115950394
 21
299.80026761369669
 31
0.0
  0
ARC
  5
18FA5
  8
0
 10
716.85630190739573
 20
290.52862655166138
 30
0.0
 40
3.0000000000000631
 50
90.000000000001606
 51
270.0
  0
ARC
  5
18FA6
  8
0
 10
716.85854115950394
 20
296.52862571595313
 30
0.0
 40
3.0
 50
270.0
 51
0.0
1001
GENIUS_GENODEF_13
1002
{
1000
HIER
1070
     0
1002
}
1002
{
1000
MANEDIT
1070
     0
1002
}
1002
{
1000
NOSEL
1070
     0
1002
}
1002
{
1000
BEHIND
1070
     0
1002
}
1002
{
1000
OTHER
1070
     0
1002
}
1002
{
1000
REACTOR
1002
}
1001
GENIUS_GENOBJ-N-FIL_13
1002
{
1000
OWNER
1000
GEN
1002
}
  0
ARC
  5
18FA7
  8
0
 10
716.85854115950394
 20
284.52862571595313
 30
0.0
 40
3.0
 50
0.0
 51
90.0
1001
GENIUS_GENODEF_13
1002
{
1000
HIER
1070
     0
1002
}
1002
{
1000
MANEDIT
1070
     0
1002
}
1002
{
1000
NOSEL
1070
     0
1002
}
1002
{
1000
BEHIND
1070
     0
1002
}
1002
{
1000
OTHER
1070
     0
1002
}
1002
{
1000
REACTOR
1002
}
1001
GENIUS_GENOBJ-N-FIL_13
1002
{
1000
OWNER
1000
GEN
1002
}
  0
ARC
  5
18FA8
  8
AM_0
 10
728.28700676950473
 20
302.80026761375672
 30
0.0
 40
3.000000000059996
 50
270.0
 51
353.33928567968309
1001
GENIUS_GENODEF_13
1002
{
1000
HIER
1070
     0
1002
}
1002
{
1000
MANEDIT
1070
     0
1002
}
1002
{
1000
NOSEL
1070
     0
1002
}
1002
{
1000
BEHIND
1070
     0
1002
}
1002
{
1000
OTHER
1070
     0
1002
}
1002
{
1000
REACTOR
1002
}
1001
GENIUS_GENOBJ-N-FIL_13
1002
{
1000
OWNER
1000
GEN
1002
}
  0
LINE
  5
18FB5
  8
AM_0
 10
750.85854112364393
 20
269.52895999628282
 30
0.0
 11
750.85854112364393
 21
273.52895999628288
 31
0.0
  0
ARC
  5
18FD3
  8
0
 10
716.85854115950394
 20
340.52862571595313
 30
0.0
 40
3.0000000000000631
 50
90.000000000001606
 51
270.0
  0
ARC
  5
18FD4
  8
0
 10
716.85854115950394
 20
334.52862571595313
 30
0.0
 40
3.0
 50
0.0
 51
90.0
1001
GENIUS_GENODEF_13
1002
{
1000
HIER
1070
     0
1002
}
1002
{
1000
MANEDIT
1070
     0
1002
}
1002
{
1000
NOSEL
1070
     0
1002
}
1002
{
1000
BEHIND
1070
     0
1002
}
1002
{
1000
OTHER
1070
     0
1002
}
1002
{
1000
REACTOR
1002
}
1001
GENIUS_GENOBJ-N-FIL_13
1002
{
1000
OWNER
1000
GEN
1002
}
  0
LINE
  5
18FD5
  8
AM_0
 10
728.28700676950609
 20
367.25770489183373
 30
0.0
 11
725.77037997287835
 21
367.25770489183373
 31
0.0
  0
ARC
  5
18FD6
  8
0
 10
716.85854115950394
 20
346.52862571595313
 30
0.0
 40
3.0
 50
270.0
 51
0.0
1001
GENIUS_GENODEF_13
1002
{
1000
HIER
1070
     0
1002
}
1002
{
1000
MANEDIT
1070
     0
1002
}
1002
{
1000
NOSEL
1070
     0
1002
}
1002
{
1000
BEHIND
1070
     0
1002
}
1002
{
1000
OTHER
1070
     0
1002
}
1002
{
1000
REACTOR
1002
}
1001
GENIUS_GENOBJ-N-FIL_13
1002
{
1000
OWNER
1000
GEN
1002
}
  0
ARC
  5
18FD7
  8
AM_0
 10
728.28700676950609
 20
364.2577048917737
 30
0.0
 40
3.000000000059996
 50
6.6607143203167842
 51
90.0
1001
GENIUS_GENOBJ-N-FIL_13
1002
{
1000
OWNER
1000
GEN
1002
}
1001
GENIUS_GENODEF_13
1002
{
1000
HIER
1070
     0
1002
}
1002
{
1000
MANEDIT
1070
     0
1002
}
1002
{
1000
NOSEL
1070
     0
1002
}
1002
{
1000
BEHIND
1070
     0
1002
}
1002
{
1000
OTHER
1070
     0
1002
}
1002
{
1000
REACTOR
1002
}
  0
ARC
  5
190B8
  8
0
 10
693.85856776378137
 20
415.52862571595301
 30
0.0
 40
16.999999999999709
 50
23.198554934550121
 51
90.0
  0
ARC
  5
190B9
  8
0
 10
706.47491026908597
 20
401.32201099643419
 30
0.0
 40
5.0
 50
23.198554934550121
 51
131.60703510513599
1001
GENIUS_GENOBJ-N-FIL_13
1002
{
1000
OWNER
1000
GEN
1002
}
1001
GENIUS_GENODEF_13
1002
{
1000
HIER
1070
     0
1002
}
1002
{
1000
MANEDIT
1070
     0
1002
}
1002
{
1000
NOSEL
1070
     0
1002
}
1002
{
1000
BEHIND
1070
     0
1002
}
1002
{
1000
OTHER
1070
     0
1002
}
1002
{
1000
REACTOR
1002
}
  0
LINE
  5
190BA
  8
ﾁｭｳｼﾝｾﾝ1
 10
708.85856776378159
 20
415.5286257159525
 30
0.0
 11
678.85856776378171
 21
415.5286257159525
 31
0.0
  0
CIRCLE
  5
190BB
  8
0
 10
708.8585407079695
 20
380.52862767260359
 30
0.0
 40
5.0
  0
CIRCLE
  5
190BC
  8
ｷｲﾛ
 10
708.8585407079695
 20
380.52862767260359
 30
0.0
 40
6.0
  0
LINE
  5
190BD
  8
0
  6
CONTINUOUS
 62
     7
 10
709.85854115950394
 20
389.52862571595261
 30
0.0
 11
672.10120845090057
 21
389.52862571595261
 31
0.0
  0
ARC
  5
190BF
  8
0
 10
613.1423341182799
 20
384.52862571595261
 30
0.0
 40
5.0
 50
10.806922874860341
 51
90.0
1001
GENIUS_GENOBJ-N-FIL_13
1002
{
1000
OWNER
1000
GEN
1002
}
1001
GENIUS_GENODEF_13
1002
{
1000
HIER
1070
     0
1002
}
1002
{
1000
MANEDIT
1070
     0
1002
}
1002
{
1000
NOSEL
1070
     0
1002
}
1002
{
1000
BEHIND
1070
     0
1002
}
1002
{
1000
OTHER
1070
     0
1002
}
1002
{
1000
REACTOR
1002
}
  0
LINE
  5
190C0
  8
0
 10
548.85853890182977
 20
432.5286257159529
 30
0.0
 11
693.85856776378171
 21
432.52862571595261
 31
0.0
  0
LINE
  5
190C1
  8
0
 10
566.88629527914986
 20
426.52862571595199
 30
0.0
 11
675.83081138646139
 21
426.52862571595199
 31
0.0
  0
ARC
  5
190C2
  8
0
 10
548.85853890182977
 20
415.52862571595301
 30
0.0
 40
16.999999999999709
 50
90.0
 51
156.80144506544991
  0
LINE
  5
190C3
  8
0
 10
562.22708112459156
 20
406.4027241803106
 30
0.0
 11
576.97985924539012
 21
391.6499460595121
 31
0.0
  0
LINE
  5
190C4
  8
0
 10
557.98444043747213
 20
402.16008349319111
 30
0.0
 11
572.73721855827068
 21
387.40730537239301
 31
0.0
  0
ARC
  5
190C5
  8
0
 10
548.85853890182977
 20
415.52862571595301
 30
0.0
 40
14.0
 50
228.39296489486389
 51
18.408480170583069
  0
ARC
  5
190C6
  8
0
 10
550.38127807318779
 20
384.52862571595261
 30
0.0
 40
5.0
 50
90.0
 51
193.60895384571469
1001
GENIUS_GENOBJ-N-FIL_13
1002
{
1000
OWNER
1000
GEN
1002
}
1001
GENIUS_GENODEF_13
1002
{
1000
HIER
1070
     0
1002
}
1002
{
1000
MANEDIT
1070
     0
1002
}
1002
{
1000
NOSEL
1070
     0
1002
}
1002
{
1000
BEHIND
1070
     0
1002
}
1002
{
1000
OTHER
1070
     0
1002
}
1002
{
1000
REACTOR
1002
}
  0
LINE
  5
190C7
  8
0
  6
CONTINUOUS
 62
     7
 10
570.61589821471125
 20
389.52862571595261
 30
0.0
 11
532.85856550610742
 21
389.52862571595261
 31
0.0
  0
CIRCLE
  5
190C8
  8
0
 10
533.85856595764199
 20
380.5286276726045
 30
0.0
 40
5.0
  0
CIRCLE
  5
190C9
  8
ｷｲﾛ
 10
533.85856595764199
 20
380.5286276726045
 30
0.0
 40
6.0
  0
CIRCLE
  5
190CB
  8
0
 10
548.85853890182977
 20
415.52862571595301
 30
0.0
 40
7.0
  0
CIRCLE
  5
190CC
  8
0
 10
548.85853890182977
 20
415.52862571595301
 30
0.0
 40
7.0
  0
ARC
  5
190CD
  8
0
 10
536.24219639652551
 20
401.32201099643419
 30
0.0
 40
5.0
 50
48.392964894863901
 51
156.80144506544991
1001
GENIUS_GENOBJ-N-FIL_13
1002
{
1000
OWNER
1000
GEN
1002
}
1001
GENIUS_GENODEF_13
1002
{
1000
HIER
1070
     0
1002
}
1002
{
1000
MANEDIT
1070
     0
1002
}
1002
{
1000
NOSEL
1070
     0
1002
}
1002
{
1000
BEHIND
1070
     0
1002
}
1002
{
1000
OTHER
1070
     0
1002
}
1002
{
1000
REACTOR
1002
}
  0
ARC
  5
190CF
  8
0
 10
555.86312009391236
 20
400.03876314963162
 30
0.0
 40
3.0
 50
44.999999999995389
 51
114.3326835064841
1001
GENIUS_GENODEF_13
1002
{
1000
HIER
1070
     0
1002
}
1002
{
1000
MANEDIT
1070
     0
1002
}
1002
{
1000
NOSEL
1070
     0
1002
}
1002
{
1000
BEHIND
1070
     0
1002
}
1002
{
1000
OTHER
1070
     0
1002
}
1002
{
1000
REACTOR
1002
}
1001
GENIUS_GENOBJ-N-FIL_13
1002
{
1000
OWNER
1000
GEN
1002
}
  0
ARC
  5
190D0
  8
0
 10
564.348401468151
 20
408.52404452387032
 30
0.0
 40
3.0
 50
155.6673164935078
 51
224.9999999999954
1001
GENIUS_GENOBJ-N-FIL_13
1002
{
1000
OWNER
1000
GEN
1002
}
1001
GENIUS_GENODEF_13
1002
{
1000
HIER
1070
     0
1002
}
1002
{
1000
MANEDIT
1070
     0
1002
}
1002
{
1000
NOSEL
1070
     0
1002
}
1002
{
1000
BEHIND
1070
     0
1002
}
1002
{
1000
OTHER
1070
     0
1002
}
1002
{
1000
REACTOR
1002
}
  0
ARC
  5
190D1
  8
0
 10
566.88629527914986
 20
421.52862571595261
 30
0.0
 40
5.0
 50
90.0
 51
198.408480170583
1001
GENIUS_GENOBJ-N-FIL_13
1002
{
1000
OWNER
1000
GEN
1002
}
1001
GENIUS_GENODEF_13
1002
{
1000
HIER
1070
     0
1002
}
1002
{
1000
MANEDIT
1070
     0
1002
}
1002
{
1000
NOSEL
1070
     0
1002
}
1002
{
1000
BEHIND
1070
     0
1002
}
1002
{
1000
OTHER
1070
     0
1002
}
1002
{
1000
REACTOR
1002
}
  0
LINE
  5
190D2
  8
0
  6
CONTINUOUS
 62
     7
 10
613.14233411828013
 20
389.52862571595261
 30
0.0
 11
577.85853890183057
 21
389.52862571595261
 31
0.0
  0
ARC
  5
190D3
  8
0
 10
574.85853890183023
 20
389.52862571595261
 30
0.0
 40
3.0000000000000631
 50
224.9999999999954
 51
44.999999999995389
  0
LINE
  5
190D4
  8
0
  6
CONTINUOUS
 62
     7
 10
664.85856776378114
 20
389.52862571595261
 30
0.0
 11
644.57480140928305
 21
389.52862571595261
 31
0.0
  0
ARC
  5
190D5
  8
0
 10
628.85856776378171
 20
387.52862571595261
 30
0.0
 40
11.0
 50
270.0
 51
349.19307712513972
  0
ARC
  5
190D6
  8
0
 10
628.85856776378171
 20
387.52862571595261
 30
0.0
 40
11.0
 50
190.80692287486031
 51
270.0
  0
CIRCLE
  5
190D7
  8
AM_0
 10
628.85856776378171
 20
387.52862571595313
 30
0.0
 40
8.5
  0
CIRCLE
  5
190D8
  8
AM_0
 10
628.85856776378171
 20
387.52862571595313
 30
0.0
 40
6.5
  0
POLYLINE
  5
190D9
  8
AM_0
 66
     1
 10
0.0
 20
0.0
 30
0.0
 70
     1
  0
VERTEX
  5
190DA
  8
AM_0
 10
627.12651695621275
 20
390.52862571595261
 30
0.0
  0
VERTEX
  5
190DB
  8
AM_0
 10
625.39446614864357
 20
387.52862571595261
 30
0.0
  0
VERTEX
  5
190DC
  8
AM_0
 10
627.12651695621275
 20
384.52862571595261
 30
0.0
  0
VERTEX
  5
190DD
  8
AM_0
 10
630.59061857135043
 20
384.52862571595261
 30
0.0
  0
VERTEX
  5
190DE
  8
AM_0
 10
632.32266937891939
 20
387.52862571595261
 30
0.0
  0
VERTEX
  5
190DF
  8
AM_0
 10
630.59061857135043
 20
390.52862571595261
 30
0.0
  0
SEQEND
  5
190E0
  8
AM_0
  0
ARC
  5
190E1
  8
0
 10
644.57480140928305
 20
384.52862571595261
 30
0.0
 40
5.0
 50
90.000000000001606
 51
169.19307712513961
1001
GENIUS_GENOBJ-N-FIL_13
1002
{
1000
OWNER
1000
GEN
1002
}
1001
GENIUS_GENODEF_13
1002
{
1000
HIER
1070
     0
1002
}
1002
{
1000
MANEDIT
1070
     0
1002
}
1002
{
1000
NOSEL
1070
     0
1002
}
1002
{
1000
BEHIND
1070
     0
1002
}
1002
{
1000
OTHER
1070
     0
1002
}
1002
{
1000
REACTOR
1002
}
  0
LINE
  5
190E2
  8
0
 10
680.49002554102026
 20
406.4027241803106
 30
0.0
 11
665.73724742022137
 21
391.6499460595121
 31
0.0
  0
LINE
  5
190E3
  8
0
 10
684.73266622813924
 20
402.16008349319111
 30
0.0
 11
669.9798881073408
 21
387.40730537239301
 31
0.0
  0
ARC
  5
190E4
  8
0
 10
693.85856776378137
 20
415.52862571595301
 30
0.0
 40
14.0
 50
161.59151982941691
 51
311.60703510513611
  0
ARC
  5
190E5
  8
0
 10
667.85856776378114
 20
389.52862571595261
 30
0.0
 40
3.0000000000000631
 50
135.0000000000046
 51
315.0000000000046
  0
ARC
  5
190E6
  8
0
 10
692.3358285924237
 20
384.52862571595261
 30
0.0
 40
5.0
 50
346.39104615428528
 51
90.0
1001
GENIUS_GENODEF_13
1002
{
1000
HIER
1070
     0
1002
}
1002
{
1000
MANEDIT
1070
     0
1002
}
1002
{
1000
NOSEL
1070
     0
1002
}
1002
{
1000
BEHIND
1070
     0
1002
}
1002
{
1000
OTHER
1070
     0
1002
}
1002
{
1000
REACTOR
1002
}
1001
GENIUS_GENOBJ-N-FIL_13
1002
{
1000
OWNER
1000
GEN
1002
}
  0
ARC
  5
190E7
  8
0
 10
675.83081138646139
 20
421.52862571595261
 30
0.0
 40
5.0
 50
341.59151982941722
 51
90.0
1001
GENIUS_GENOBJ-N-FIL_13
1002
{
1000
OWNER
1000
GEN
1002
}
1001
GENIUS_GENODEF_13
1002
{
1000
HIER
1070
     0
1002
}
1002
{
1000
MANEDIT
1070
     0
1002
}
1002
{
1000
NOSEL
1070
     0
1002
}
1002
{
1000
BEHIND
1070
     0
1002
}
1002
{
1000
OTHER
1070
     0
1002
}
1002
{
1000
REACTOR
1002
}
  0
ARC
  5
190E8
  8
0
 10
678.36870519746014
 20
408.52404452387032
 30
0.0
 40
3.0
 50
315.0000000000046
 51
24.332683506492181
1001
GENIUS_GENOBJ-N-FIL_13
1002
{
1000
OWNER
1000
GEN
1002
}
1001
GENIUS_GENODEF_13
1002
{
1000
HIER
1070
     0
1002
}
1002
{
1000
MANEDIT
1070
     0
1002
}
1002
{
1000
NOSEL
1070
     0
1002
}
1002
{
1000
BEHIND
1070
     0
1002
}
1002
{
1000
OTHER
1070
     0
1002
}
1002
{
1000
REACTOR
1002
}
  0
LINE
  5
190E9
  8
ﾁｭｳｼﾝｾﾝ1
 10
693.85856776378137
 20
400.52862571595227
 30
0.0
 11
693.85856776378137
 21
430.5286257159525
 31
0.0
  0
CIRCLE
  5
190EA
  8
0
 10
693.85856776378137
 20
415.52862571595301
 30
0.0
 40
7.0
  0
ARC
  5
190EB
  8
0
 10
686.85398657169878
 20
400.03876314963162
 30
0.0
 40
3.0
 50
65.667316493515841
 51
135.0000000000046
1001
GENIUS_GENODEF_13
1002
{
1000
HIER
1070
     0
1002
}
1002
{
1000
MANEDIT
1070
     0
1002
}
1002
{
1000
NOSEL
1070
     0
1002
}
1002
{
1000
BEHIND
1070
     0
1002
}
1002
{
1000
OTHER
1070
     0
1002
}
1002
{
1000
REACTOR
1002
}
1001
GENIUS_GENOBJ-N-FIL_13
1002
{
1000
OWNER
1000
GEN
1002
}
  0
LINE
  5
190F6
  8
AM_0
 10
750.85854112364393
 20
397.52897625404518
 30
0.0
 11
741.7319382958658
 21
397.52897625404518
 31
0.0
  0
LINE
  5
190F7
  8
AM_0
 10
750.85854112364393
 20
370.66896625350802
 30
0.0
 11
740.85854112344396
 21
370.66896625350802
 31
0.0
  0
LINE
  5
190F8
  8
AM_0
 10
750.85854112364393
 20
385.568976253806
 30
0.0
 11
740.85854112344396
 21
385.568976253806
 31
0.0
  0
LINE
  5
190F9
  8
0
 10
711.07063664224074
 20
403.29160463551102
 30
0.0
 11
718.96913914393554
 21
384.86173385644071
 31
0.0
  0
LINE
  5
190FA
  8
0
 10
709.48403743250697
 20
422.22524408881418
 30
0.0
 11
724.48401079172083
 21
387.2252462233335
 31
0.0
  0
LINE
  5
190FB
  8
AM_0
 10
720.92542568381805
 20
395.52862571595261
 30
0.0
 11
736.44003822741729
 21
395.52862571595261
 31
0.0
  0
ARC
  5
190FC
  8
AM_0
 10
708.85854070796915
 20
380.52862767260399
 30
0.0
 40
17.000000451534831
 50
0.0
 51
23.198554934550121
  0
ARC
  5
190FD
  8
AM_0
 10
708.85854070796915
 20
380.52862767260399
 30
0.0
 40
11.000000451534831
 50
0.0
 51
23.198554934550121
  0
ARC
  5
190FE
  8
0
 10
709.85854115950394
 20
379.52862571595261
 30
0.0
 40
10.0
 50
0.0
 51
90.0
1001
GENIUS_GENOBJ-N-FIL_13
1002
{
1000
OWNER
1000
GEN
1002
}
1001
GENIUS_GENODEF_13
1002
{
1000
HIER
1070
     0
1002
}
1002
{
1000
MANEDIT
1070
     0
1002
}
1002
{
1000
NOSEL
1070
     0
1002
}
1002
{
1000
BEHIND
1070
     0
1002
}
1002
{
1000
OTHER
1070
     0
1002
}
1002
{
1000
REACTOR
1002
}
  0
ARC
  5
190FF
  8
AM_0
 10
736.44003822741729
 20
400.52862571595261
 30
0.0
 40
5.0
 50
270.0
 51
311.41341755255212
1001
GENIUS_GENOBJ-N-FIL_13
1002
{
1000
OWNER
1000
GEN
1002
}
1001
GENIUS_GENODEF_13
1002
{
1000
HIER
1070
     0
1002
}
1002
{
1000
MANEDIT
1070
     0
1002
}
1002
{
1000
NOSEL
1070
     0
1002
}
1002
{
1000
BEHIND
1070
     0
1002
}
1002
{
1000
OTHER
1070
     0
1002
}
1002
{
1000
REACTOR
1002
}
  0
ARC
  5
19100
  8
AM_0
 10
741.7319382958658
 20
394.52897625398521
 30
0.0
 40
3.000000000059996
 50
90.0
 51
131.41341755255209
1001
GENIUS_GENOBJ-N-FIL_13
1002
{
1000
OWNER
1000
GEN
1002
}
1001
GENIUS_GENODEF_13
1002
{
1000
HIER
1070
     0
1002
}
1002
{
1000
MANEDIT
1070
     0
1002
}
1002
{
1000
NOSEL
1070
     0
1002
}
1002
{
1000
BEHIND
1070
     0
1002
}
1002
{
1000
OTHER
1070
     0
1002
}
1002
{
1000
REACTOR
1002
}
  0
CIRCLE
  5
1964E
  8
ｽﾝﾎﾟｳｾﾝ
 10
593.85856776378137
 20
315.52862571595278
 30
0.0
 40
4.0
  0
ARC
  5
1964F
  8
AM_0
 10
593.85856776378137
 20
315.52862571595278
 30
0.0
 40
16.0
 50
108.2099568642828
 51
71.790043135717227
  0
LINE
  5
19650
  8
AM_0
 10
598.85856776378137
 20
334.52862571595278
 30
0.0
 11
598.85856776378137
 21
326.52862571595278
 31
0.0
  0
LINE
  5
19651
  8
AM_0
 10
588.85856776378159
 20
326.52862571595278
 30
0.0
 11
588.85856776378159
 21
334.52862571595278
 31
0.0
  0
LINE
  5
19652
  8
AM_0
 10
598.85856776378137
 20
326.52862571595278
 30
0.0
 11
588.85856776378159
 21
326.52862571595278
 31
0.0
  0
LINE
  5
19653
  8
AM_0
 10
588.85856776378159
 20
334.52862571595278
 30
0.0
 11
598.85856776378137
 21
334.52862571595278
 31
0.0
  0
LINE
  5
19670
  8
ｶｸﾚｾﾝ2
 10
329.58462766437918
 20
335.52862571595222
 30
0.0
 11
329.58462766437918
 21
295.52862571595222
 31
0.0
  0
LINE
  5
19671
  8
AM_0
 10
387.58462766437941
 20
299.52862571595222
 30
0.0
 11
387.58462766437941
 21
334.52862571595222
 31
0.0
  0
LINE
  5
19672
  8
ｶｸﾚｾﾝ2
 10
301.58462974143941
 20
340.52862646851088
 30
0.0
 11
301.58462974143941
 21
290.5286249633948
 31
0.0
  0
LINE
  5
19673
  8
ｶｸﾚｾﾝ2
 10
301.58462974143958
 20
340.52862646851088
 30
0.0
 11
301.58462974143958
 21
290.52862496339452
 31
0.0
  0
LINE
  5
19674
  8
ｶｸﾚｾﾝ2
 10
301.58462974143953
 20
340.52862646851088
 30
0.0
 11
301.58462974143953
 21
290.52862496339452
 31
0.0
  0
LINE
  5
19676
  8
ｶｸﾚｾﾝ2
 10
329.58462766437918
 20
295.52862571595222
 30
0.0
 11
301.58462974143958
 21
290.52862496339452
 31
0.0
  0
LINE
  5
19677
  8
ｶｸﾚｾﾝ2
 10
296.58462959092799
 20
290.5286249633948
 30
0.0
 11
301.58462974143941
 21
290.5286249633948
 31
0.0
  0
LINE
  5
19678
  8
ｶｸﾚｾﾝ2
 10
296.58462959092799
 20
290.52862496339452
 30
0.0
 11
301.58462974143958
 21
290.52862496339452
 31
0.0
  0
LINE
  5
19679
  8
ｶｸﾚｾﾝ2
 10
296.58462959092788
 20
290.52862496339452
 30
0.0
 11
301.58462974143953
 21
290.52862496339452
 31
0.0
  0
LINE
  5
1967A
  8
0
 10
387.58462766437941
 20
299.52862571595222
 30
0.0
 11
332.5846276643793
 21
299.52862571595222
 31
0.0
  0
LINE
  5
1967B
  8
ｶｸﾚｾﾝ2
 10
329.58462766437918
 20
335.52862571595222
 30
0.0
 11
301.58462974143958
 21
340.52862646851088
 31
0.0
  0
LINE
  5
1967C
  8
ｶｸﾚｾﾝ2
 10
296.58462959092799
 20
340.52862646851088
 30
0.0
 11
301.58462974143941
 21
340.52862646851088
 31
0.0
  0
LINE
  5
1967D
  8
ｶｸﾚｾﾝ2
 10
296.58462959092799
 20
340.52862646851088
 30
0.0
 11
301.58462974143958
 21
340.52862646851088
 31
0.0
  0
LINE
  5
1967E
  8
ｶｸﾚｾﾝ2
 10
296.58462959092788
 20
340.52862646851088
 30
0.0
 11
301.58462974143953
 21
340.52862646851088
 31
0.0
  0
LINE
  5
1967F
  8
0
 10
387.58462766437941
 20
334.52862571595222
 30
0.0
 11
342.58462766437941
 21
334.52862571595222
 31
0.0
  0
LINE
  5
19680
  8
0
 10
387.58462766437941
 20
331.52862571595222
 30
0.0
 11
332.5846276643793
 21
331.52862571595222
 31
0.0
  0
LINE
  5
19681
  8
0
 10
342.58462766437941
 20
334.52862571595222
 30
0.0
 11
342.58462766437941
 21
331.52862571595222
 31
0.0
  0
CIRCLE
  5
19799
  8
AM_0
 10
593.85856776378137
 20
315.5286257159529
 30
0.0
 40
3.399999999999999
  0
LINE
  5
1979B
  8
ｶｸﾚｾﾝ2
 10
332.58462766437901
 20
331.52862571595222
 30
0.0
 11
329.58462766437918
 21
331.52862571595222
 31
0.0
  0
LINE
  5
1979D
  8
ｶｸﾚｾﾝ2
 10
332.5846276643793
 20
299.52862571595222
 30
0.0
 11
329.5846276643793
 21
299.52862571595227
 31
0.0
  0
LINE
  5
197A0
  8
ﾁｭｳｼﾝｾﾝ1
 10
563.85853890182989
 20
415.52862571595301
 30
0.0
 11
533.85853890182977
 21
415.52862571595301
 31
0.0
  0
LINE
  5
197A1
  8
ﾁｭｳｼﾝｾﾝ1
 10
548.85853890182977
 20
400.52862571595301
 30
0.0
 11
548.85853890182977
 21
430.5286257159529
 31
0.0
  0
LINE
  5
197A2
  8
ﾁｭｳｼﾝｾﾝ1
 10
563.85853890182989
 20
215.5286257159535
 30
0.0
 11
533.85853890182977
 21
215.5286257159535
 31
0.0
  0
LINE
  5
197A3
  8
ﾁｭｳｼﾝｾﾝ1
 10
548.85853890182977
 20
200.5286257159535
 30
0.0
 11
548.85853890182977
 21
230.5286257159535
 31
0.0
  0
LINE
  5
197A4
  8
ﾁｭｳｼﾝｾﾝ1
 10
708.85856776378159
 20
215.5286257159535
 30
0.0
 11
678.85856776378171
 21
215.5286257159535
 31
0.0
  0
LINE
  5
197A5
  8
ﾁｭｳｼﾝｾﾝ1
 10
693.85856776378137
 20
200.5286257159535
 30
0.0
 11
693.85856776378137
 21
230.5286257159535
 31
0.0
  0
LINE
  5
19949
  8
AM_0
 10
307.58462766437901
 20
396.12206665834191
 30
0.0
 11
332.58462766437901
 21
396.12206665834191
 31
0.0
  0
LINE
  5
1994A
  8
AM_0
 10
307.58462766437901
 20
234.93518477356301
 30
0.0
 11
332.58462766437901
 21
234.93518477356301
 31
0.0
  0
LINE
  5
1994B
  8
AM_0
 10
722.11660597473758
 20
754.03583069123363
 30
0.0
 11
520.60612575120763
 21
754.03583069123363
 31
0.0
  0
LINE
  5
1994C
  8
AM_0
 10
643.85936895689849
 20
759.03583084034528
 30
0.0
 11
543.85776657066492
 21
759.03583084034528
 31
0.0
  0
LINE
  5
1994D
  8
AM_0
 10
723.8621548530873
 20
661.03582791775773
 30
0.0
 11
518.8621792570907
 21
661.0358279177575
 31
0.0
  0
LINE
  5
1994E
  8
AM_0
 10
725.85854115950474
 20
595.03582791775773
 30
0.0
 11
516.85856550610708
 21
595.03582791775727
 31
0.0
  0
LINE
  5
1994F
  8
AM_0
 10
725.10233422525573
 20
620.03582791775773
 30
0.0
 11
517.61751010875253
 21
620.03582791775727
 31
0.0
  0
LINE
  5
19950
  8
ﾁｭｳｼﾝｾﾝ1
 10
965.58456451606628
 20
695.03582893171608
 30
0.0
 11
513.86217925709082
 21
695.03582893171642
 31
0.0
1001
GENIUS_GENODEF_13
1002
{
1000
HIER
1070
     0
1002
}
1002
{
1000
MANEDIT
1070
     0
1002
}
1002
{
1000
NOSEL
1070
     0
1002
}
1002
{
1000
BEHIND
1070
     0
1002
}
1002
{
1000
REACTOR
1002
}
1001
GENIUS_GENOBJ-N-CEN_13
1002
{
1000
OWNER
1000
GEN
1002
}
  0
LINE
  5
19951
  8
AM_0
 10
722.11660597473758
 20
754.03583069123363
 30
0.0
 11
723.8621548532393
 21
661.03582791775773
 31
0.0
  0
LINE
  5
19952
  8
AM_0
 10
739.86215485362709
 20
756.53582393171689
 30
0.0
 11
739.86215485362709
 21
633.53584393171661
 31
0.0
  0
LINE
  5
19953
  8
AM_0
 10
750.86215485362732
 20
759.03585893171692
 30
0.0
 11
750.86215485362732
 21
631.03584393171661
 31
0.0
  0
ARC
  5
19954
  8
AM_0
 10
736.86215485362777
 20
630.53584393171627
 30
0.0
 40
2.9999999999999978
 50
35.685334712659163
 51
90.0
1001
GENIUS_GENOBJ-N-FIL_13
1002
{
1000
OWNER
1000
GEN
1002
}
1001
GENIUS_GENODEF_13
1002
{
1000
HIER
1070
     0
1002
}
1002
{
1000
MANEDIT
1070
     0
1002
}
1002
{
1000
NOSEL
1070
     0
1002
}
1002
{
1000
BEHIND
1070
     0
1002
}
1002
{
1000
OTHER
1070
     0
1002
}
1002
{
1000
REACTOR
1002
}
  0
LINE
  5
19955
  8
AM_0
 10
750.86215485362732
 20
631.03584393171661
 30
0.0
 11
741.73555202603177
 21
631.03584393171661
 31
0.0
  0
ARC
  5
19956
  8
AM_0
 10
741.73555202603211
 20
634.03584393171627
 30
0.0
 40
2.9999999999999978
 50
215.68533471265911
 51
270.0
1001
GENIUS_GENOBJ-N-FIL_13
1002
{
1000
OWNER
1000
GEN
1002
}
1001
GENIUS_GENODEF_13
1002
{
1000
HIER
1070
     0
1002
}
1002
{
1000
MANEDIT
1070
     0
1002
}
1002
{
1000
NOSEL
1070
     0
1002
}
1002
{
1000
BEHIND
1070
     0
1002
}
1002
{
1000
OTHER
1070
     0
1002
}
1002
{
1000
REACTOR
1002
}
  0
LINE
  5
19957
  8
AM_0
 10
750.86215485362732
 20
642.99584393171665
 30
0.0
 11
740.86215485362732
 21
642.99584393171665
 31
0.0
  0
LINE
  5
19958
  8
AM_0
 10
750.86221267584472
 20
642.99583393174817
 30
0.0
 11
740.86221267585063
 21
642.99582282063693
 31
0.0
  0
LINE
  5
19959
  8
AM_0
 10
750.86215485362732
 20
657.89585393171672
 30
0.0
 11
740.86215485362732
 21
657.89585393171672
 31
0.0
  0
LINE
  5
1995A
  8
AM_0
 10
750.86219612027753
 20
657.89584393173925
 30
0.0
 11
740.86219612028401
 21
657.89583282062779
 31
0.0
  0
ARC
  5
1995B
  8
AM_0
 10
734.27573137463742
 20
635.53584393171627
 30
0.0
 40
2.0
 50
184.99999999999969
 51
270.0
1001
GENIUS_GENODEF_13
1002
{
1000
HIER
1070
     0
1002
}
1002
{
1000
MANEDIT
1070
     0
1002
}
1002
{
1000
NOSEL
1070
     0
1002
}
1002
{
1000
BEHIND
1070
     0
1002
}
1002
{
1000
OTHER
1070
     0
1002
}
1002
{
1000
REACTOR
1002
}
1001
GENIUS_GENOBJ-N-FIL_13
1002
{
1000
OWNER
1000
GEN
1002
}
  0
LINE
  5
1995C
  8
AM_0
 10
736.86215485362732
 20
633.53584393171661
 30
0.0
 11
734.27573137463685
 21
633.53584393171661
 31
0.0
  0
LINE
  5
1995D
  8
AM_0
 10
730.02188190177594
 20
661.21013940325304
 30
0.0
 11
732.28334197845334
 21
635.36153244622119
 31
0.0
  0
ARC
  5
1995E
  8
AM_0
 10
724.8435616396132
 20
662.03582791775727
 30
0.0
 40
1.0
 50
90.0
 51
181.0752778360611
1001
GENIUS_GENODEF_13
1002
{
1000
HIER
1070
     0
1002
}
1002
{
1000
MANEDIT
1070
     0
1002
}
1002
{
1000
NOSEL
1070
     0
1002
}
1002
{
1000
BEHIND
1070
     0
1002
}
1002
{
1000
OTHER
1070
     0
1002
}
1002
{
1000
REACTOR
1002
}
1001
GENIUS_GENOBJ-N-FIL_13
1002
{
1000
OWNER
1000
GEN
1002
}
  0
ARC
  5
1995F
  8
AM_0
 10
728.029492505593
 20
661.03582791775739
 30
0.0
 40
2.0
 50
4.9999999999997407
 51
90.0
1001
GENIUS_GENOBJ-N-FIL_13
1002
{
1000
OWNER
1000
GEN
1002
}
1001
GENIUS_GENODEF_13
1002
{
1000
HIER
1070
     0
1002
}
1002
{
1000
MANEDIT
1070
     0
1002
}
1002
{
1000
NOSEL
1070
     0
1002
}
1002
{
1000
BEHIND
1070
     0
1002
}
1002
{
1000
OTHER
1070
     0
1002
}
1002
{
1000
REACTOR
1002
}
  0
LINE
  5
19960
  8
AM_0
 10
728.02949250559232
 20
663.03582791775773
 30
0.0
 11
724.84356163961274
 21
663.03582791775773
 31
0.0
  0
ARC
  5
19961
  8
AM_0
 10
736.86215485362777
 20
759.53582393171644
 30
0.0
 40
2.9999999999999978
 50
270.0
 51
324.3146652873408
1001
GENIUS_GENOBJ-N-FIL_13
1002
{
1000
OWNER
1000
GEN
1002
}
1001
GENIUS_GENODEF_13
1002
{
1000
HIER
1070
     0
1002
}
1002
{
1000
MANEDIT
1070
     0
1002
}
1002
{
1000
NOSEL
1070
     0
1002
}
1002
{
1000
BEHIND
1070
     0
1002
}
1002
{
1000
OTHER
1070
     0
1002
}
1002
{
1000
REACTOR
1002
}
  0
LINE
  5
19962
  8
AM_0
 10
750.86215485362732
 20
732.17581393171645
 30
0.0
 11
740.86215485362732
 21
732.17581393171645
 31
0.0
  0
LINE
  5
19963
  8
AM_0
 10
750.86215485362732
 20
747.07582393171663
 30
0.0
 11
740.86215485362732
 21
747.07582393171663
 31
0.0
  0
LINE
  5
19964
  8
AM_0
 10
750.86215485362732
 20
759.03582393171678
 30
0.0
 11
741.73555202603177
 21
759.03582393171678
 31
0.0
  0
ARC
  5
19965
  8
AM_0
 10
741.73555202603211
 20
756.03582393171644
 30
0.0
 40
2.9999999999999978
 50
90.0
 51
144.3146652873408
1001
GENIUS_GENOBJ-N-FIL_13
1002
{
1000
OWNER
1000
GEN
1002
}
1001
GENIUS_GENODEF_13
1002
{
1000
HIER
1070
     0
1002
}
1002
{
1000
MANEDIT
1070
     0
1002
}
1002
{
1000
NOSEL
1070
     0
1002
}
1002
{
1000
BEHIND
1070
     0
1002
}
1002
{
1000
OTHER
1070
     0
1002
}
1002
{
1000
REACTOR
1002
}
  0
ARC
  5
19966
  8
AM_0
 10
724.11695823192383
 20
754.03583069123306
 30
0.0
 40
2.0
 50
181.07527783597001
 51
270.0
1001
GENIUS_GENODEF_13
1002
{
1000
HIER
1070
     0
1002
}
1002
{
1000
MANEDIT
1070
     0
1002
}
1002
{
1000
NOSEL
1070
     0
1002
}
1002
{
1000
BEHIND
1070
     0
1002
}
1002
{
1000
OTHER
1070
     0
1002
}
1002
{
1000
REACTOR
1002
}
1001
GENIUS_GENOBJ-N-FIL_13
1002
{
1000
OWNER
1000
GEN
1002
}
  0
LINE
  5
19967
  8
AM_0
 10
730.09612619996415
 20
754.71013541721175
 30
0.0
 11
730.02188190177594
 21
753.8615192057382
 31
0.0
  0
ARC
  5
19968
  8
AM_0
 10
728.029492505593
 20
754.03583069123306
 30
0.0
 40
2.0
 50
270.0
 51
355.00000000000028
1001
GENIUS_GENODEF_13
1002
{
1000
HIER
1070
     0
1002
}
1002
{
1000
MANEDIT
1070
     0
1002
}
1002
{
1000
NOSEL
1070
     0
1002
}
1002
{
1000
BEHIND
1070
     0
1002
}
1002
{
1000
OTHER
1070
     0
1002
}
1002
{
1000
REACTOR
1002
}
1001
GENIUS_GENOBJ-N-FIL_13
1002
{
1000
OWNER
1000
GEN
1002
}
  0
LINE
  5
19969
  8
AM_0
 10
728.02949250559232
 20
752.03583069123363
 30
0.0
 11
724.11695823192372
 21
752.03583069123363
 31
0.0
  0
ARC
  5
1996A
  8
AM_0
 10
732.08851559614823
 20
754.53582393171644
 30
0.0
 40
2.0
 50
90.0
 51
175.00000000000031
1001
GENIUS_GENOBJ-N-FIL_13
1002
{
1000
OWNER
1000
GEN
1002
}
1001
GENIUS_GENODEF_13
1002
{
1000
HIER
1070
     0
1002
}
1002
{
1000
MANEDIT
1070
     0
1002
}
1002
{
1000
NOSEL
1070
     0
1002
}
1002
{
1000
BEHIND
1070
     0
1002
}
1002
{
1000
OTHER
1070
     0
1002
}
1002
{
1000
REACTOR
1002
}
  0
LINE
  5
1996B
  8
AM_0
 10
736.86215485362754
 20
756.53582393171689
 30
0.0
 11
732.08851559614777
 21
756.53582393171655
 31
0.0
  0
LINE
  5
1996C
  8
AM_0
 10
643.85936895689849
 20
759.03583084034528
 30
0.0
 11
643.85936895689849
 21
754.03583069123363
 31
0.0
  0
LINE
  5
1996D
  8
ﾁｭｳｼﾝｾﾝ1
 10
593.85856776378137
 20
769.33927030282916
 30
0.0
 11
593.85856776378137
 21
531.12362975663564
 31
0.0
  0
LINE
  5
1996E
  8
AM_0
 10
520.60612575120763
 20
754.03583069123363
 30
0.0
 11
518.8621792570907
 21
661.0358279177575
 31
0.0
  0
LINE
  5
1996F
  8
AM_0
 10
543.85776657066492
 20
759.03583084034528
 30
0.0
 11
543.85776657066492
 21
756.53583069123363
 31
0.0
  0
LINE
  5
19AC5
  8
0
 10
521.86087732020064
 20
756.53583069123363
 30
0.0
 11
545.86087732020076
 21
756.53583069123363
 31
0.0
  0
LINE
  5
19AC6
  8
0
 10
521.86087732020064
 20
754.03583069123363
 30
0.0
 11
521.86087732020064
 21
756.53583069123363
 31
0.0
  0
LINE
  5
19AC7
  8
0
 10
542.86087732020064
 20
768.53583069123363
 30
0.0
 11
542.86087732020064
 21
756.53583069123363
 31
0.0
  0
LINE
  5
19AC8
  8
0
 10
524.86087732020064
 20
756.53583069123363
 30
0.0
 11
524.86087732020064
 21
768.53583069123363
 31
0.0
  0
LINE
  5
19AC9
  8
0
 10
524.86087732020064
 20
768.53583069123363
 30
0.0
 11
542.86087732020064
 21
768.53583069123363
 31
0.0
  0
LINE
  5
19ACA
  8
0
 10
545.86087732020076
 20
756.53583069123363
 30
0.0
 11
545.86087732020076
 21
754.03583069123363
 31
0.0
  0
LINE
  5
19ACB
  8
0
 10
696.8621544057529
 20
756.53583069123363
 30
0.0
 11
720.86215440575256
 21
756.53583069123363
 31
0.0
  0
LINE
  5
19ACC
  8
0
 10
696.8621544057529
 20
754.03583069123363
 30
0.0
 11
696.8621544057529
 21
756.53583069123363
 31
0.0
  0
LINE
  5
19ACD
  8
0
 10
717.8621544057529
 20
768.53583069123363
 30
0.0
 11
717.8621544057529
 21
756.53583069123363
 31
0.0
  0
LINE
  5
19ACE
  8
0
 10
699.86215440575268
 20
756.53583069123363
 30
0.0
 11
699.86215440575268
 21
768.53583069123363
 31
0.0
  0
LINE
  5
19ACF
  8
0
 10
699.86215440575268
 20
768.53583069123363
 30
0.0
 11
717.8621544057529
 21
768.53583069123363
 31
0.0
  0
LINE
  5
19AD0
  8
0
 10
720.86215440575256
 20
756.53583069123363
 30
0.0
 11
720.86215440575256
 21
754.03583069123363
 31
0.0
  0
LINE
  5
19AD1
  8
AM_0
 10
518.8621792570907
 20
661.0358279177575
 30
0.0
 11
516.85856550610708
 21
595.03582791775727
 31
0.0
  0
LINE
  5
19AD2
  8
AM_0
 10
723.8621548530873
 20
661.03582791775773
 30
0.0
 11
725.85854115950474
 21
595.03582791775773
 31
0.0
  0
LINE
  5
19AD3
  8
AM_0
 10
539.50018734663172
 20
595.03582791775727
 30
0.0
 11
539.50018734663172
 21
620.03582791775727
 31
0.0
  0
LINE
  5
19AD4
  8
ﾁｭｳｼﾝｾﾝ1
 10
548.85853890182955
 20
590.03582791775727
 30
0.0
 11
548.85853890182955
 21
625.0358279177575
 31
0.0
  0
LINE
  5
19AD5
  8
AM_0
 10
703.21691931897976
 20
595.03582791775727
 30
0.0
 11
703.21691931897976
 21
620.03582791775727
 31
0.0
  0
LINE
  5
19AD6
  8
ﾁｭｳｼﾝｾﾝ1
 10
693.85856776378216
 20
590.03582791775727
 30
0.0
 11
693.85856776378216
 21
625.0358279177575
 31
0.0
  0
LINE
  5
19AD8
  8
0
 10
609.85856776378159
 20
540.03582894963665
 30
0.0
 11
609.85856776378159
 21
595.03582791775762
 31
0.0
  0
LINE
  5
19AD9
  8
0
 10
577.85856776378125
 20
540.03582894963665
 30
0.0
 11
577.85856776378114
 21
595.03582791775762
 31
0.0
  0
LINE
  5
19ADA
  8
AM_0
 10
577.85856776378125
 20
540.03582894963665
 30
0.0
 11
609.85856776378159
 21
540.03582894963665
 31
0.0
  0
LINE
  5
19AE1
  8
AM_0
 10
598.85856776378125
 20
540.03582894963665
 30
0.0
 11
598.85856776378137
 21
585.03582894963677
 31
0.0
  0
LINE
  5
19AE2
  8
AM_0
 10
588.85856776378148
 20
540.03582894963665
 30
0.0
 11
588.85856776378159
 21
585.03582894963677
 31
0.0
  0
LINE
  5
19AE3
  8
AM_0
 10
598.85856776378137
 20
585.03582894963677
 30
0.0
 11
588.85856776378159
 21
585.03582894963677
 31
0.0
  0
ARC
  5
19AE4
  8
AM_0
 10
593.85856776378137
 20
585.03582894963688
 30
0.0
 40
5.0
 50
0.0
 51
180.0
  0
LINE
  5
19AE7
  8
ｶｸﾚｾﾝ2
 10
631.85856897087444
 20
631.03582599120864
 30
0.0
 11
555.85856655668886
 21
631.03582599120864
 31
0.0
  0
LINE
  5
19AE8
  8
ｶｸﾚｾﾝ2
 10
613.85856776378125
 20
598.03582791775739
 30
0.0
 11
573.85856776378125
 21
598.03582791775739
 31
0.0
  0
LINE
  5
19AE9
  8
ｶｸﾚｾﾝ2
 10
618.85856851633991
 20
626.03582584069727
 30
0.0
 11
568.85856701122395
 21
626.03582584069727
 31
0.0
  0
LINE
  5
19AEA
  8
ｶｸﾚｾﾝ2
 10
618.85856851633991
 20
626.03582584069704
 30
0.0
 11
568.85856701122327
 21
626.03582584069704
 31
0.0
  0
LINE
  5
19AEB
  8
ｶｸﾚｾﾝ2
 10
618.85856851633991
 20
626.03582584069704
 30
0.0
 11
568.85856701122327
 21
626.03582584069704
 31
0.0
  0
LINE
  5
19AEC
  8
ｶｸﾚｾﾝ2
 10
573.85856776378125
 20
598.03582791775739
 30
0.0
 11
568.85856701122327
 21
626.03582584069704
 31
0.0
  0
LINE
  5
19AED
  8
ｶｸﾚｾﾝ2
 10
568.85856701122395
 20
631.03582599120864
 30
0.0
 11
568.85856701122395
 21
626.03582584069727
 31
0.0
  0
LINE
  5
19AEE
  8
ｶｸﾚｾﾝ2
 10
568.85856701122327
 20
631.03582599120864
 30
0.0
 11
568.85856701122327
 21
626.03582584069704
 31
0.0
  0
LINE
  5
19AEF
  8
ｶｸﾚｾﾝ2
 10
568.85856701122327
 20
631.03582599120875
 30
0.0
 11
568.85856701122327
 21
626.03582584069704
 31
0.0
  0
LINE
  5
19AF0
  8
ｶｸﾚｾﾝ2
 10
613.85856776378125
 20
598.03582791775739
 30
0.0
 11
618.85856851633991
 21
626.03582584069704
 31
0.0
  0
LINE
  5
19AF1
  8
ｶｸﾚｾﾝ2
 10
618.85856851633991
 20
631.03582599120864
 30
0.0
 11
618.85856851633991
 21
626.03582584069727
 31
0.0
  0
LINE
  5
19AF2
  8
ｶｸﾚｾﾝ2
 10
618.85856851633991
 20
631.03582599120864
 30
0.0
 11
618.85856851633991
 21
626.03582584069704
 31
0.0
  0
LINE
  5
19AF3
  8
ｶｸﾚｾﾝ2
 10
618.85856851633991
 20
631.03582599120875
 30
0.0
 11
618.85856851633991
 21
626.03582584069704
 31
0.0
  0
LINE
  5
19AF4
  8
ｶｸﾚｾﾝ2
 10
609.85856776378125
 20
595.03582791775762
 30
0.0
 11
609.85856776378125
 21
598.03582791775739
 31
0.0
  0
LINE
  5
19AF5
  8
ｶｸﾚｾﾝ2
 10
577.85856776378125
 20
595.03582791775727
 30
0.0
 11
577.85856776378125
 21
598.03582791775716
 31
0.0
  0
LINE
  5
1A77D
  8
AM_0
 10
232.58462766437901
 20
398.52537301452008
 30
0.0
 11
236.58631319628671
 21
398.52537301452008
 31
0.0
  0
LINE
  5
1A77E
  8
AM_0
 10
230.7846276643788
 20
398.52537301452008
 30
0.0
 11
230.78462766437829
 21
397.76030817180941
 31
0.0
  0
LINE
  5
1A77F
  8
AM_0
 10
234.38462766437911
 20
398.52537301452008
 30
0.0
 11
234.38462766437951
 21
397.76030817180941
 31
0.0
  0
LINE
  5
1A780
  8
AM_0
 10
230.7846276643788
 20
398.52537301452008
 30
0.0
 11
228.58294213247129
 21
398.52537301452008
 31
0.0
  0
ARC
  5
1A781
  8
AM_0
 10
232.58462766437901
 20
396.02537301452008
 30
0.0
 40
2.5
 50
22.628773376635209
 51
157.37122662336481
  0
LINE
  5
1A782
  8
AM_0
 10
238.58368619806441
 20
398.52537301452008
 30
0.0
 11
246.9206039898792
 21
398.52537301452008
 31
0.0
  0
LINE
  5
1A783
  8
AM_0
 10
248.24779133887861
 20
398.52537301452008
 30
0.0
 11
254.43540347420489
 21
398.52537301452008
 31
0.0
  0
ARC
  5
1A784
  8
AM_0
 10
253.58462766437901
 20
368.53743909900282
 30
0.0
 40
30.0
 50
64.09792840913947
 51
88.374920016412489
1001
GENIUS_GENOBJ-N-FIL_13
1002
{
1000
OWNER
1000
GEN
1002
}
1001
GENIUS_GENODEF_13
1002
{
1000
HIER
1070
     0
1002
}
1002
{
1000
MANEDIT
1070
     0
1002
}
1002
{
1000
NOSEL
1070
     0
1002
}
1002
{
1000
BEHIND
1070
     0
1002
}
1002
{
1000
OTHER
1070
     0
1002
}
1002
{
1000
REACTOR
1002
}
  0
LINE
  5
1A785
  8
1
  6
CONTINUOUS
 62
     7
 10
201.1846276643785
 20
222.52537626629501
 30
0.0
 11
263.98462766437859
 21
222.52537626629501
 31
0.0
  0
LINE
  5
1A786
  8
1
  6
CONTINUOUS
 62
     7
 10
268.58462766438038
 20
235.52537626629459
 30
0.0
 11
196.58462766438029
 21
235.52537626629459
 31
0.0
  0
LINE
  5
1A787
  8
1
  6
CONTINUOUS
 62
     7
 10
208.95447614536141
 20
235.52537626629459
 30
0.0
 11
208.95447614536141
 21
225.02537626629089
 31
0.0
  0
LINE
  5
1A788
  8
1
  6
CONTINUOUS
 62
     7
 10
196.5846276643808
 20
236.86905531465879
 30
0.0
 11
196.58462766438029
 21
223.02537626629501
 31
0.0
  0
LINE
  5
1A789
  8
1
  6
CONTINUOUS
 62
     7
 10
198.68462766437841
 20
234.0603762662949
 30
0.0
 11
198.68462766437841
 21
225.02537626629501
 31
0.0
  0
ARC
  5
1A78A
  8
1
  6
CONTINUOUS
 62
     7
 10
201.1846276643785
 20
225.02537626629501
 30
0.0
 40
2.4999999999999991
 50
180.0
 51
270.0
  0
ARC
  5
1A78B
  8
1
  6
CONTINUOUS
 62
     7
 10
197.08462766437901
 20
223.02537626629501
 30
0.0
 40
0.5
 50
180.0
 51
270.0
  0
LINE
  5
1A78C
  8
1
  6
CONTINUOUS
 62
     7
 10
197.08462766437901
 20
222.52537626629501
 30
0.0
 11
201.1846276643785
 21
222.52537626629501
 31
0.0
  0
POLYLINE
  5
1A78D
  8
1
 62
     7
 66
     1
 10
0.0
 20
0.0
 30
0.0
 70
     8
  0
VERTEX
  5
1A78E
  8
1
 62
     7
 10
208.95421286133589
 20
225.0253292012207
 30
0.0
 70
    32
  0
VERTEX
  5
1A78F
  8
1
 62
     7
 10
208.95421286133589
 20
225.02132920122079
 30
0.0
 70
    32
  0
VERTEX
  5
1A790
  8
1
 62
     7
 10
208.95421286133589
 20
225.01732920122089
 30
0.0
 70
    32
  0
VERTEX
  5
1A791
  8
1
 62
     7
 10
208.95421286133589
 20
225.01232920122081
 30
0.0
 70
    32
  0
VERTEX
  5
1A792
  8
1
 62
     7
 10
208.95421286133589
 20
225.0083292012209
 30
0.0
 70
    32
  0
VERTEX
  5
1A793
  8
1
 62
     7
 10
208.95421286133589
 20
225.0043292012214
 30
0.0
 70
    32
  0
VERTEX
  5
1A794
  8
1
 62
     7
 10
208.95421286133589
 20
224.9993292012208
 30
0.0
 70
    32
  0
VERTEX
  5
1A795
  8
1
 62
     7
 10
208.95521286133609
 20
224.99532920122101
 30
0.0
 70
    32
  0
VERTEX
  5
1A796
  8
1
 62
     7
 10
208.95521286133609
 20
224.99132920122111
 30
0.0
 70
    32
  0
VERTEX
  5
1A797
  8
1
 62
     7
 10
208.95521286133609
 20
224.98732920122109
 30
0.0
 70
    32
  0
VERTEX
  5
1A798
  8
1
 62
     7
 10
208.95521286133609
 20
224.98232920122101
 30
0.0
 70
    32
  0
VERTEX
  5
1A799
  8
1
 62
     7
 10
208.95521286133609
 20
224.9783292012211
 30
0.0
 70
    32
  0
VERTEX
  5
1A79A
  8
1
 62
     7
 10
208.95521286133609
 20
224.9743292012212
 30
0.0
 70
    32
  0
VERTEX
  5
1A79B
  8
1
 62
     7
 10
208.95521286133609
 20
224.97032920122089
 30
0.0
 70
    32
  0
VERTEX
  5
1A79C
  8
1
 62
     7
 10
208.95521286133609
 20
224.96532920122121
 30
0.0
 70
    32
  0
VERTEX
  5
1A79D
  8
1
 62
     7
 10
208.95521286133609
 20
224.9613292012213
 30
0.0
 70
    32
  0
VERTEX
  5
1A79E
  8
1
 62
     7
 10
208.95521286133609
 20
224.95732920122089
 30
0.0
 70
    32
  0
VERTEX
  5
1A79F
  8
1
 62
     7
 10
208.95521286133609
 20
224.95232920122089
 30
0.0
 70
    32
  0
VERTEX
  5
1A7A0
  8
1
 62
     7
 10
208.95521286133609
 20
224.94832920122141
 30
0.0
 70
    32
  0
VERTEX
  5
1A7A1
  8
1
 62
     7
 10
208.95521286133609
 20
224.944329201221
 30
0.0
 70
    32
  0
VERTEX
  5
1A7A2
  8
1
 62
     7
 10
208.95521286133609
 20
224.94032920122109
 30
0.0
 70
    32
  0
VERTEX
  5
1A7A3
  8
1
 62
     7
 10
208.95521286133609
 20
224.93532920122101
 30
0.0
 70
    32
  0
VERTEX
  5
1A7A4
  8
1
 62
     7
 10
208.95521286133609
 20
224.9313292012211
 30
0.0
 70
    32
  0
VERTEX
  5
1A7A5
  8
1
 62
     7
 10
208.95521286133609
 20
224.92732920122069
 30
0.0
 70
    32
  0
VERTEX
  5
1A7A6
  8
1
 62
     7
 10
208.95521286133609
 20
224.92332920122129
 30
0.0
 70
    32
  0
VERTEX
  5
1A7A7
  8
1
 62
     7
 10
208.95621286133581
 20
224.9183292012207
 30
0.0
 70
    32
  0
VERTEX
  5
1A7A8
  8
1
 62
     7
 10
208.95621286133581
 20
224.9143292012208
 30
0.0
 70
    32
  0
VERTEX
  5
1A7A9
  8
1
 62
     7
 10
208.95621286133581
 20
224.91032920122089
 30
0.0
 70
    32
  0
VERTEX
  5
1A7AA
  8
1
 62
     7
 10
208.95621286133581
 20
224.90632920122101
 30
0.0
 70
    32
  0
VERTEX
  5
1A7AB
  8
1
 62
     7
 10
208.95621286133581
 20
224.9013292012209
 30
0.0
 70
    32
  0
VERTEX
  5
1A7AC
  8
1
 62
     7
 10
208.95621286133581
 20
224.897329201221
 30
0.0
 70
    32
  0
VERTEX
  5
1A7AD
  8
1
 62
     7
 10
208.95621286133581
 20
224.89332920122109
 30
0.0
 70
    32
  0
VERTEX
  5
1A7AE
  8
1
 62
     7
 10
208.95621286133581
 20
224.88832920122101
 30
0.0
 70
    32
  0
VERTEX
  5
1A7AF
  8
1
 62
     7
 10
208.95621286133581
 20
224.88432920122111
 30
0.0
 70
    32
  0
VERTEX
  5
1A7B0
  8
1
 62
     7
 10
208.95621286133581
 20
224.8803292012212
 30
0.0
 70
    32
  0
VERTEX
  5
1A7B1
  8
1
 62
     7
 10
208.95721286133599
 20
224.8763292012213
 30
0.0
 70
    32
  0
VERTEX
  5
1A7B2
  8
1
 62
     7
 10
208.95721286133599
 20
224.87132920122119
 30
0.0
 70
    32
  0
VERTEX
  5
1A7B3
  8
1
 62
     7
 10
208.95721286133599
 20
224.86732920122131
 30
0.0
 70
    32
  0
VERTEX
  5
1A7B4
  8
1
 62
     7
 10
208.95721286133599
 20
224.86332920122089
 30
0.0
 70
    32
  0
VERTEX
  5
1A7B5
  8
1
 62
     7
 10
208.95721286133599
 20
224.85932920122099
 30
0.0
 70
    32
  0
VERTEX
  5
1A7B6
  8
1
 62
     7
 10
208.95721286133599
 20
224.8543292012213
 30
0.0
 70
    32
  0
VERTEX
  5
1A7B7
  8
1
 62
     7
 10
208.95721286133599
 20
224.850329201221
 30
0.0
 70
    32
  0
VERTEX
  5
1A7B8
  8
1
 62
     7
 10
208.9582128613358
 20
224.84632920122101
 30
0.0
 70
    32
  0
VERTEX
  5
1A7B9
  8
1
 62
     7
 10
208.9582128613358
 20
224.84232920122071
 30
0.0
 70
    32
  0
VERTEX
  5
1A7BA
  8
1
 62
     7
 10
208.9582128613358
 20
224.837329201221
 30
0.0
 70
    32
  0
VERTEX
  5
1A7BB
  8
1
 62
     7
 10
208.9582128613358
 20
224.83332920122109
 30
0.0
 70
    32
  0
VERTEX
  5
1A7BC
  8
1
 62
     7
 10
208.9582128613358
 20
224.82932920122121
 30
0.0
 70
    32
  0
VERTEX
  5
1A7BD
  8
1
 62
     7
 10
208.9582128613358
 20
224.8243292012211
 30
0.0
 70
    32
  0
VERTEX
  5
1A7BE
  8
1
 62
     7
 10
208.9582128613358
 20
224.8203292012208
 30
0.0
 70
    32
  0
VERTEX
  5
1A7BF
  8
1
 62
     7
 10
208.959212861336
 20
224.81632920122081
 30
0.0
 70
    32
  0
VERTEX
  5
1A7C0
  8
1
 62
     7
 10
208.959212861336
 20
224.81232920122099
 30
0.0
 70
    32
  0
VERTEX
  5
1A7C1
  8
1
 62
     7
 10
208.959212861336
 20
224.8073292012208
 30
0.0
 70
    32
  0
VERTEX
  5
1A7C2
  8
1
 62
     7
 10
208.959212861336
 20
224.80332920122089
 30
0.0
 70
    32
  0
VERTEX
  5
1A7C3
  8
1
 62
     7
 10
208.959212861336
 20
224.79932920122101
 30
0.0
 70
    32
  0
VERTEX
  5
1A7C4
  8
1
 62
     7
 10
208.96021286133569
 20
224.79532920122119
 30
0.0
 70
    32
  0
VERTEX
  5
1A7C5
  8
1
 62
     7
 10
208.96021286133569
 20
224.790329201221
 30
0.0
 70
    32
  0
VERTEX
  5
1A7C6
  8
1
 62
     7
 10
208.96021286133569
 20
224.78632920122109
 30
0.0
 70
    32
  0
VERTEX
  5
1A7C7
  8
1
 62
     7
 10
208.96021286133569
 20
224.78232920122079
 30
0.0
 70
    32
  0
VERTEX
  5
1A7C8
  8
1
 62
     7
 10
208.96021286133569
 20
224.77832920122091
 30
0.0
 70
    32
  0
VERTEX
  5
1A7C9
  8
1
 62
     7
 10
208.96021286133569
 20
224.7733292012212
 30
0.0
 70
    32
  0
VERTEX
  5
1A7CA
  8
1
 62
     7
 10
208.96121286133601
 20
224.7693292012213
 30
0.0
 70
    32
  0
VERTEX
  5
1A7CB
  8
1
 62
     7
 10
208.96121286133601
 20
224.76532920122139
 30
0.0
 70
    32
  0
VERTEX
  5
1A7CC
  8
1
 62
     7
 10
208.96121286133601
 20
224.761329201221
 30
0.0
 70
    32
  0
VERTEX
  5
1A7CD
  8
1
 62
     7
 10
208.96121286133601
 20
224.75632920122089
 30
0.0
 70
    32
  0
VERTEX
  5
1A7CE
  8
1
 62
     7
 10
208.96221286133621
 20
224.75232920122099
 30
0.0
 70
    32
  0
VERTEX
  5
1A7CF
  8
1
 62
     7
 10
208.96221286133621
 20
224.74832920122111
 30
0.0
 70
    32
  0
VERTEX
  5
1A7D0
  8
1
 62
     7
 10
208.96221286133621
 20
224.743329201221
 30
0.0
 70
    32
  0
VERTEX
  5
1A7D1
  8
1
 62
     7
 10
208.96221286133621
 20
224.7393292012211
 30
0.0
 70
    32
  0
VERTEX
  5
1A7D2
  8
1
 62
     7
 10
208.96221286133621
 20
224.73532920122071
 30
0.0
 70
    32
  0
VERTEX
  5
1A7D3
  8
1
 62
     7
 10
208.9632128613359
 20
224.7313292012208
 30
0.0
 70
    32
  0
VERTEX
  5
1A7D4
  8
1
 62
     7
 10
208.9632128613359
 20
224.72632920122069
 30
0.0
 70
    32
  0
VERTEX
  5
1A7D5
  8
1
 62
     7
 10
208.9632128613359
 20
224.7223292012213
 30
0.0
 70
    32
  0
VERTEX
  5
1A7D6
  8
1
 62
     7
 10
208.9632128613359
 20
224.71832920122091
 30
0.0
 70
    32
  0
VERTEX
  5
1A7D7
  8
1
 62
     7
 10
208.96421286133611
 20
224.71432920122101
 30
0.0
 70
    32
  0
VERTEX
  5
1A7D8
  8
1
 62
     7
 10
208.96421286133611
 20
224.7093292012209
 30
0.0
 70
    32
  0
VERTEX
  5
1A7D9
  8
1
 62
     7
 10
208.96421286133611
 20
224.70532920122099
 30
0.0
 70
    32
  0
VERTEX
  5
1A7DA
  8
1
 62
     7
 10
208.96521286133591
 20
224.70132920122111
 30
0.0
 70
    32
  0
VERTEX
  5
1A7DB
  8
1
 62
     7
 10
208.96521286133591
 20
224.69732920122121
 30
0.0
 70
    32
  0
VERTEX
  5
1A7DC
  8
1
 62
     7
 10
208.96521286133591
 20
224.6923292012211
 30
0.0
 70
    32
  0
VERTEX
  5
1A7DD
  8
1
 62
     7
 10
208.96521286133591
 20
224.68832920122071
 30
0.0
 70
    32
  0
VERTEX
  5
1A7DE
  8
1
 62
     7
 10
208.966212861336
 20
224.68432920122129
 30
0.0
 70
    32
  0
VERTEX
  5
1A7DF
  8
1
 62
     7
 10
208.966212861336
 20
224.6803292012213
 30
0.0
 70
    32
  0
VERTEX
  5
1A7E0
  8
1
 62
     7
 10
208.966212861336
 20
224.6753292012213
 30
0.0
 70
    32
  0
VERTEX
  5
1A7E1
  8
1
 62
     7
 10
208.966212861336
 20
224.67132920122131
 30
0.0
 70
    32
  0
VERTEX
  5
1A7E2
  8
1
 62
     7
 10
208.96721286133581
 20
224.66732920122101
 30
0.0
 70
    32
  0
VERTEX
  5
1A7E3
  8
1
 62
     7
 10
208.96721286133581
 20
224.6633292012211
 30
0.0
 70
    32
  0
VERTEX
  5
1A7E4
  8
1
 62
     7
 10
208.96721286133581
 20
224.65832920122099
 30
0.0
 70
    32
  0
VERTEX
  5
1A7E5
  8
1
 62
     7
 10
208.96821286133601
 20
224.65432920122109
 30
0.0
 70
    32
  0
VERTEX
  5
1A7E6
  8
1
 62
     7
 10
208.96821286133601
 20
224.6503292012207
 30
0.0
 70
    32
  0
VERTEX
  5
1A7E7
  8
1
 62
     7
 10
208.96821286133601
 20
224.6453292012211
 30
0.0
 70
    32
  0
VERTEX
  5
1A7E8
  8
1
 62
     7
 10
208.96921286133619
 20
224.64132920122111
 30
0.0
 70
    32
  0
VERTEX
  5
1A7E9
  8
1
 62
     7
 10
208.96921286133619
 20
224.63732920122081
 30
0.0
 70
    32
  0
VERTEX
  5
1A7EA
  8
1
 62
     7
 10
208.96921286133619
 20
224.6333292012209
 30
0.0
 70
    32
  0
VERTEX
  5
1A7EB
  8
1
 62
     7
 10
208.97021286133551
 20
224.62832920122119
 30
0.0
 70
    32
  0
VERTEX
  5
1A7EC
  8
1
 62
     7
 10
208.97021286133551
 20
224.62432920122089
 30
0.0
 70
    32
  0
VERTEX
  5
1A7ED
  8
1
 62
     7
 10
208.97021286133551
 20
224.6203292012209
 30
0.0
 70
    32
  0
VERTEX
  5
1A7EE
  8
1
 62
     7
 10
208.97121286133569
 20
224.61632920122099
 30
0.0
 70
    32
  0
VERTEX
  5
1A7EF
  8
1
 62
     7
 10
208.97121286133569
 20
224.61132920122091
 30
0.0
 70
    32
  0
VERTEX
  5
1A7F0
  8
1
 62
     7
 10
208.97121286133569
 20
224.60732920122101
 30
0.0
 70
    32
  0
VERTEX
  5
1A7F1
  8
1
 62
     7
 10
208.97221286133589
 20
224.6033292012211
 30
0.0
 70
    32
  0
VERTEX
  5
1A7F2
  8
1
 62
     7
 10
208.97221286133589
 20
224.5993292012212
 30
0.0
 70
    32
  0
VERTEX
  5
1A7F3
  8
1
 62
     7
 10
208.97221286133589
 20
224.59432920122109
 30
0.0
 70
    32
  0
VERTEX
  5
1A7F4
  8
1
 62
     7
 10
208.97321286133609
 20
224.59032920122121
 30
0.0
 70
    32
  0
VERTEX
  5
1A7F5
  8
1
 62
     7
 10
208.97321286133609
 20
224.5863292012213
 30
0.0
 70
    32
  0
VERTEX
  5
1A7F6
  8
1
 62
     7
 10
208.9742128613359
 20
224.582329201221
 30
0.0
 70
    32
  0
VERTEX
  5
1A7F7
  8
1
 62
     7
 10
208.9742128613359
 20
224.57732920122129
 30
0.0
 70
    32
  0
VERTEX
  5
1A7F8
  8
1
 62
     7
 10
208.9742128613359
 20
224.57332920122141
 30
0.0
 70
    32
  0
VERTEX
  5
1A7F9
  8
1
 62
     7
 10
208.9752128613361
 20
224.569329201221
 30
0.0
 70
    32
  0
VERTEX
  5
1A7FA
  8
1
 62
     7
 10
208.9752128613361
 20
224.56532920122109
 30
0.0
 70
    32
  0
VERTEX
  5
1A7FB
  8
1
 62
     7
 10
208.9762128613358
 20
224.56032920122101
 30
0.0
 70
    32
  0
VERTEX
  5
1A7FC
  8
1
 62
     7
 10
208.9762128613358
 20
224.5563292012211
 30
0.0
 70
    32
  0
VERTEX
  5
1A7FD
  8
1
 62
     7
 10
208.9762128613358
 20
224.5523292012208
 30
0.0
 70
    32
  0
VERTEX
  5
1A7FE
  8
1
 62
     7
 10
208.977212861336
 20
224.54832920122129
 30
0.0
 70
    32
  0
VERTEX
  5
1A7FF
  8
1
 62
     7
 10
208.977212861336
 20
224.5433292012207
 30
0.0
 70
    32
  0
VERTEX
  5
1A800
  8
1
 62
     7
 10
208.97821286133581
 20
224.5393292012208
 30
0.0
 70
    32
  0
VERTEX
  5
1A801
  8
1
 62
     7
 10
208.97821286133581
 20
224.53532920122089
 30
0.0
 70
    32
  0
VERTEX
  5
1A802
  8
1
 62
     7
 10
208.97921286133601
 20
224.53132920122101
 30
0.0
 70
    32
  0
VERTEX
  5
1A803
  8
1
 62
     7
 10
208.97921286133601
 20
224.5263292012209
 30
0.0
 70
    32
  0
VERTEX
  5
1A804
  8
1
 62
     7
 10
208.97921286133601
 20
224.522329201221
 30
0.0
 70
    32
  0
VERTEX
  5
1A805
  8
1
 62
     7
 10
208.98021286133621
 20
224.51832920122109
 30
0.0
 70
    32
  0
VERTEX
  5
1A806
  8
1
 62
     7
 10
208.98021286133621
 20
224.51432920122119
 30
0.0
 70
    32
  0
VERTEX
  5
1A807
  8
1
 62
     7
 10
208.98121286133591
 20
224.50932920122111
 30
0.0
 70
    32
  0
VERTEX
  5
1A808
  8
1
 62
     7
 10
208.98121286133591
 20
224.5053292012212
 30
0.0
 70
    32
  0
VERTEX
  5
1A809
  8
1
 62
     7
 10
208.98221286133619
 20
224.50132920122081
 30
0.0
 70
    32
  0
VERTEX
  5
1A80A
  8
1
 62
     7
 10
208.98221286133619
 20
224.49732920122139
 30
0.0
 70
    32
  0
VERTEX
  5
1A80B
  8
1
 62
     7
 10
208.98321286133589
 20
224.493329201221
 30
0.0
 70
    32
  0
VERTEX
  5
1A80C
  8
1
 62
     7
 10
208.98321286133589
 20
224.48832920122089
 30
0.0
 70
    32
  0
VERTEX
  5
1A80D
  8
1
 62
     7
 10
208.98421286133609
 20
224.48432920122099
 30
0.0
 70
    32
  0
VERTEX
  5
1A80E
  8
1
 62
     7
 10
208.98421286133609
 20
224.48032920122111
 30
0.0
 70
    32
  0
VERTEX
  5
1A80F
  8
1
 62
     7
 10
208.98521286133629
 20
224.47632920122069
 30
0.0
 70
    32
  0
VERTEX
  5
1A810
  8
1
 62
     7
 10
208.98521286133629
 20
224.4713292012211
 30
0.0
 70
    32
  0
VERTEX
  5
1A811
  8
1
 62
     7
 10
208.98621286133601
 20
224.46732920122119
 30
0.0
 70
    32
  0
VERTEX
  5
1A812
  8
1
 62
     7
 10
208.98621286133601
 20
224.4633292012208
 30
0.0
 70
    32
  0
VERTEX
  5
1A813
  8
1
 62
     7
 10
208.98721286133579
 20
224.4593292012209
 30
0.0
 70
    32
  0
VERTEX
  5
1A814
  8
1
 62
     7
 10
208.98721286133579
 20
224.45432920122079
 30
0.0
 70
    32
  0
VERTEX
  5
1A815
  8
1
 62
     7
 10
208.988212861336
 20
224.45032920122091
 30
0.0
 70
    32
  0
VERTEX
  5
1A816
  8
1
 62
     7
 10
208.988212861336
 20
224.446329201221
 30
0.0
 70
    32
  0
VERTEX
  5
1A817
  8
1
 62
     7
 10
208.9892128613362
 20
224.4423292012211
 30
0.0
 70
    32
  0
VERTEX
  5
1A818
  8
1
 62
     7
 10
208.9892128613362
 20
224.4373292012209
 30
0.0
 70
    32
  0
VERTEX
  5
1A819
  8
1
 62
     7
 10
208.99021286133589
 20
224.433329201221
 30
0.0
 70
    32
  0
VERTEX
  5
1A81A
  8
1
 62
     7
 10
208.99021286133589
 20
224.42932920122121
 30
0.0
 70
    32
  0
VERTEX
  5
1A81B
  8
1
 62
     7
 10
208.9912128613357
 20
224.4253292012213
 30
0.0
 70
    32
  0
VERTEX
  5
1A81C
  8
1
 62
     7
 10
208.9912128613357
 20
224.42032920122071
 30
0.0
 70
    32
  0
VERTEX
  5
1A81D
  8
1
 62
     7
 10
208.9922128613359
 20
224.4163292012212
 30
0.0
 70
    32
  0
VERTEX
  5
1A81E
  8
1
 62
     7
 10
208.9922128613359
 20
224.4123292012213
 30
0.0
 70
    32
  0
VERTEX
  5
1A81F
  8
1
 62
     7
 10
208.9932128613361
 20
224.40832920122099
 30
0.0
 70
    32
  0
VERTEX
  5
1A820
  8
1
 62
     7
 10
208.9932128613361
 20
224.40432920122109
 30
0.0
 70
    32
  0
VERTEX
  5
1A821
  8
1
 62
     7
 10
208.9942128613358
 20
224.39932920122141
 30
0.0
 70
    32
  0
VERTEX
  5
1A822
  8
1
 62
     7
 10
208.99521286133611
 20
224.3953292012211
 30
0.0
 70
    32
  0
VERTEX
  5
1A823
  8
1
 62
     7
 10
208.99521286133611
 20
224.39132920122071
 30
0.0
 70
    32
  0
VERTEX
  5
1A824
  8
1
 62
     7
 10
208.99621286133581
 20
224.38732920122081
 30
0.0
 70
    32
  0
VERTEX
  5
1A825
  8
1
 62
     7
 10
208.99621286133581
 20
224.3823292012211
 30
0.0
 70
    32
  0
VERTEX
  5
1A826
  8
1
 62
     7
 10
208.9972128613355
 20
224.37832920122079
 30
0.0
 70
    32
  0
VERTEX
  5
1A827
  8
1
 62
     7
 10
208.9972128613355
 20
224.37432920122129
 30
0.0
 70
    32
  0
VERTEX
  5
1A828
  8
1
 62
     7
 10
208.9982128613359
 20
224.3703292012209
 30
0.0
 70
    32
  0
VERTEX
  5
1A829
  8
1
 62
     7
 10
208.99921286133599
 20
224.36532920122079
 30
0.0
 70
    32
  0
VERTEX
  5
1A82A
  8
1
 62
     7
 10
208.99921286133599
 20
224.36132920122091
 30
0.0
 70
    32
  0
VERTEX
  5
1A82B
  8
1
 62
     7
 10
209.00021286133571
 20
224.35732920122101
 30
0.0
 70
    32
  0
VERTEX
  5
1A82C
  8
1
 62
     7
 10
209.00021286133571
 20
224.3533292012211
 30
0.0
 70
    32
  0
VERTEX
  5
1A82D
  8
1
 62
     7
 10
209.00121286133589
 20
224.3493292012212
 30
0.0
 70
    32
  0
VERTEX
  5
1A82E
  8
1
 62
     7
 10
209.00221286133569
 20
224.34432920122109
 30
0.0
 70
    32
  0
VERTEX
  5
1A82F
  8
1
 62
     7
 10
209.00221286133569
 20
224.34032920122121
 30
0.0
 70
    32
  0
VERTEX
  5
1A830
  8
1
 62
     7
 10
209.00321286133581
 20
224.3363292012213
 30
0.0
 70
    32
  0
VERTEX
  5
1A831
  8
1
 62
     7
 10
209.00321286133581
 20
224.3323292012214
 30
0.0
 70
    32
  0
VERTEX
  5
1A832
  8
1
 62
     7
 10
209.0042128613361
 20
224.32732920122081
 30
0.0
 70
    32
  0
VERTEX
  5
1A833
  8
1
 62
     7
 10
209.00521286133579
 20
224.32332920122099
 30
0.0
 70
    32
  0
VERTEX
  5
1A834
  8
1
 62
     7
 10
209.00521286133579
 20
224.319329201221
 30
0.0
 70
    32
  0
VERTEX
  5
1A835
  8
1
 62
     7
 10
209.006212861336
 20
224.31532920122109
 30
0.0
 70
    32
  0
VERTEX
  5
1A836
  8
1
 62
     7
 10
209.0072128613362
 20
224.3113292012207
 30
0.0
 70
    32
  0
VERTEX
  5
1A837
  8
1
 62
     7
 10
209.0072128613362
 20
224.3063292012211
 30
0.0
 70
    32
  0
VERTEX
  5
1A838
  8
1
 62
     7
 10
209.00821286133601
 20
224.30232920122069
 30
0.0
 70
    32
  0
VERTEX
  5
1A839
  8
1
 62
     7
 10
209.00821286133601
 20
224.29832920122081
 30
0.0
 70
    32
  0
VERTEX
  5
1A83A
  8
1
 62
     7
 10
209.00921286133621
 20
224.29432920122139
 30
0.0
 70
    32
  0
VERTEX
  5
1A83B
  8
1
 62
     7
 10
209.0102128613359
 20
224.2893292012208
 30
0.0
 70
    32
  0
VERTEX
  5
1A83C
  8
1
 62
     7
 10
209.0102128613359
 20
224.28532920122089
 30
0.0
 70
    32
  0
VERTEX
  5
1A83D
  8
1
 62
     7
 10
209.01121286133571
 20
224.28132920122101
 30
0.0
 70
    32
  0
VERTEX
  5
1A83E
  8
1
 62
     7
 10
209.01221286133591
 20
224.27732920122111
 30
0.0
 70
    32
  0
VERTEX
  5
1A83F
  8
1
 62
     7
 10
209.01221286133591
 20
224.2733292012212
 30
0.0
 70
    32
  0
VERTEX
  5
1A840
  8
1
 62
     7
 10
209.01321286133609
 20
224.26832920122109
 30
0.0
 70
    32
  0
VERTEX
  5
1A841
  8
1
 62
     7
 10
209.01421286133581
 20
224.26432920122119
 30
0.0
 70
    32
  0
VERTEX
  5
1A842
  8
1
 62
     7
 10
209.01421286133581
 20
224.26032920122131
 30
0.0
 70
    32
  0
VERTEX
  5
1A843
  8
1
 62
     7
 10
209.0152128613361
 20
224.2563292012214
 30
0.0
 70
    32
  0
VERTEX
  5
1A844
  8
1
 62
     7
 10
209.01621286133619
 20
224.2513292012213
 30
0.0
 70
    32
  0
VERTEX
  5
1A845
  8
1
 62
     7
 10
209.01621286133619
 20
224.24732920122091
 30
0.0
 70
    32
  0
VERTEX
  5
1A846
  8
1
 62
     7
 10
209.01721286133599
 20
224.243329201221
 30
0.0
 70
    32
  0
VERTEX
  5
1A847
  8
1
 62
     7
 10
209.01821286133571
 20
224.2393292012211
 30
0.0
 70
    32
  0
VERTEX
  5
1A848
  8
1
 62
     7
 10
209.019212861336
 20
224.23532920122071
 30
0.0
 70
    32
  0
VERTEX
  5
1A849
  8
1
 62
     7
 10
209.019212861336
 20
224.23032920122111
 30
0.0
 70
    32
  0
VERTEX
  5
1A84A
  8
1
 62
     7
 10
209.02021286133561
 20
224.22632920122069
 30
0.0
 70
    32
  0
VERTEX
  5
1A84B
  8
1
 62
     7
 10
209.0212128613359
 20
224.22232920122079
 30
0.0
 70
    32
  0
VERTEX
  5
1A84C
  8
1
 62
     7
 10
209.0212128613359
 20
224.21832920122091
 30
0.0
 70
    32
  0
VERTEX
  5
1A84D
  8
1
 62
     7
 10
209.0222128613361
 20
224.21432920122101
 30
0.0
 70
    32
  0
VERTEX
  5
1A84E
  8
1
 62
     7
 10
209.02321286133579
 20
224.2093292012209
 30
0.0
 70
    32
  0
VERTEX
  5
1A84F
  8
1
 62
     7
 10
209.0242128613356
 20
224.20532920122099
 30
0.0
 70
    32
  0
VERTEX
  5
1A850
  8
1
 62
     7
 10
209.0242128613356
 20
224.20132920122111
 30
0.0
 70
    32
  0
VERTEX
  5
1A851
  8
1
 62
     7
 10
209.0252128613358
 20
224.19732920122121
 30
0.0
 70
    32
  0
VERTEX
  5
1A852
  8
1
 62
     7
 10
209.02621286133601
 20
224.19332920122079
 30
0.0
 70
    32
  0
VERTEX
  5
1A853
  8
1
 62
     7
 10
209.02721286133621
 20
224.18832920122119
 30
0.0
 70
    32
  0
VERTEX
  5
1A854
  8
1
 62
     7
 10
209.02721286133621
 20
224.1843292012212
 30
0.0
 70
    32
  0
VERTEX
  5
1A855
  8
1
 62
     7
 10
209.02821286133599
 20
224.1803292012209
 30
0.0
 70
    32
  0
VERTEX
  5
1A856
  8
1
 62
     7
 10
209.02921286133571
 20
224.17632920122099
 30
0.0
 70
    32
  0
VERTEX
  5
1A857
  8
1
 62
     7
 10
209.03021286133591
 20
224.17232920122109
 30
0.0
 70
    32
  0
VERTEX
  5
1A858
  8
1
 62
     7
 10
209.03021286133591
 20
224.16732920122101
 30
0.0
 70
    32
  0
VERTEX
  5
1A859
  8
1
 62
     7
 10
209.03121286133609
 20
224.1633292012211
 30
0.0
 70
    32
  0
VERTEX
  5
1A85A
  8
1
 62
     7
 10
209.03221286133589
 20
224.1593292012212
 30
0.0
 70
    32
  0
VERTEX
  5
1A85B
  8
1
 62
     7
 10
209.03321286133561
 20
224.15532920122081
 30
0.0
 70
    32
  0
VERTEX
  5
1A85C
  8
1
 62
     7
 10
209.03321286133561
 20
224.1513292012209
 30
0.0
 70
    32
  0
VERTEX
  5
1A85D
  8
1
 62
     7
 10
209.03421286133579
 20
224.14632920122131
 30
0.0
 70
    32
  0
VERTEX
  5
1A85E
  8
1
 62
     7
 10
209.03521286133599
 20
224.14232920122089
 30
0.0
 70
    32
  0
VERTEX
  5
1A85F
  8
1
 62
     7
 10
209.0362128613362
 20
224.13832920122101
 30
0.0
 70
    32
  0
VERTEX
  5
1A860
  8
1
 62
     7
 10
209.03721286133549
 20
224.13432920122111
 30
0.0
 70
    32
  0
VERTEX
  5
1A861
  8
1
 62
     7
 10
209.03721286133549
 20
224.1303292012212
 30
0.0
 70
    32
  0
VERTEX
  5
1A862
  8
1
 62
     7
 10
209.03821286133569
 20
224.12532920122109
 30
0.0
 70
    32
  0
VERTEX
  5
1A863
  8
1
 62
     7
 10
209.0392128613359
 20
224.1213292012211
 30
0.0
 70
    32
  0
VERTEX
  5
1A864
  8
1
 62
     7
 10
209.0402128613361
 20
224.1173292012212
 30
0.0
 70
    32
  0
VERTEX
  5
1A865
  8
1
 62
     7
 10
209.04121286133591
 20
224.11332920122089
 30
0.0
 70
    32
  0
VERTEX
  5
1A866
  8
1
 62
     7
 10
209.04121286133591
 20
224.10932920122099
 30
0.0
 70
    32
  0
VERTEX
  5
1A867
  8
1
 62
     7
 10
209.04221286133611
 20
224.1043292012213
 30
0.0
 70
    32
  0
VERTEX
  5
1A868
  8
1
 62
     7
 10
209.0432128613358
 20
224.100329201221
 30
0.0
 70
    32
  0
VERTEX
  5
1A869
  8
1
 62
     7
 10
209.04421286133601
 20
224.0963292012211
 30
0.0
 70
    32
  0
VERTEX
  5
1A86A
  8
1
 62
     7
 10
209.0452128613359
 20
224.09232920122119
 30
0.0
 70
    32
  0
VERTEX
  5
1A86B
  8
1
 62
     7
 10
209.04621286133599
 20
224.0883292012208
 30
0.0
 70
    32
  0
VERTEX
  5
1A86C
  8
1
 62
     7
 10
209.04621286133599
 20
224.0843292012209
 30
0.0
 70
    32
  0
VERTEX
  5
1A86D
  8
1
 62
     7
 10
209.04721286133571
 20
224.07932920122079
 30
0.0
 70
    32
  0
VERTEX
  5
1A86E
  8
1
 62
     7
 10
209.04821286133591
 20
224.07532920122091
 30
0.0
 70
    32
  0
VERTEX
  5
1A86F
  8
1
 62
     7
 10
209.04921286133609
 20
224.071329201221
 30
0.0
 70
    32
  0
VERTEX
  5
1A870
  8
1
 62
     7
 10
209.05021286133589
 20
224.06732920122101
 30
0.0
 70
    32
  0
VERTEX
  5
1A871
  8
1
 62
     7
 10
209.05121286133561
 20
224.06332920122119
 30
0.0
 70
    32
  0
VERTEX
  5
1A872
  8
1
 62
     7
 10
209.0522128613359
 20
224.058329201221
 30
0.0
 70
    32
  0
VERTEX
  5
1A873
  8
1
 62
     7
 10
209.0522128613359
 20
224.05432920122109
 30
0.0
 70
    32
  0
VERTEX
  5
1A874
  8
1
 62
     7
 10
209.05321286133599
 20
224.05032920122119
 30
0.0
 70
    32
  0
VERTEX
  5
1A875
  8
1
 62
     7
 10
209.0542128613364
 20
224.0463292012214
 30
0.0
 70
    32
  0
VERTEX
  5
1A876
  8
1
 62
     7
 10
209.055212861336
 20
224.04232920122101
 30
0.0
 70
    32
  0
VERTEX
  5
1A877
  8
1
 62
     7
 10
209.05621286133569
 20
224.0383292012211
 30
0.0
 70
    32
  0
VERTEX
  5
1A878
  8
1
 62
     7
 10
209.0572128613359
 20
224.03332920122099
 30
0.0
 70
    32
  0
VERTEX
  5
1A879
  8
1
 62
     7
 10
209.05821286133619
 20
224.02932920122109
 30
0.0
 70
    32
  0
VERTEX
  5
1A87A
  8
1
 62
     7
 10
209.05921286133591
 20
224.0253292012207
 30
0.0
 70
    32
  0
VERTEX
  5
1A87B
  8
1
 62
     7
 10
209.0602128613356
 20
224.02132920122079
 30
0.0
 70
    32
  0
VERTEX
  5
1A87C
  8
1
 62
     7
 10
209.0602128613356
 20
224.01732920122089
 30
0.0
 70
    32
  0
VERTEX
  5
1A87D
  8
1
 62
     7
 10
209.06121286133541
 20
224.01332920122101
 30
0.0
 70
    32
  0
VERTEX
  5
1A87E
  8
1
 62
     7
 10
209.06221286133609
 20
224.0083292012209
 30
0.0
 70
    32
  0
VERTEX
  5
1A87F
  8
1
 62
     7
 10
209.0632128613363
 20
224.00432920122091
 30
0.0
 70
    32
  0
VERTEX
  5
1A880
  8
1
 62
     7
 10
209.06421286133559
 20
224.00032920122109
 30
0.0
 70
    32
  0
VERTEX
  5
1A881
  8
1
 62
     7
 10
209.06521286133579
 20
223.99632920122119
 30
0.0
 70
    32
  0
VERTEX
  5
1A882
  8
1
 62
     7
 10
209.06621286133591
 20
223.99232920122131
 30
0.0
 70
    32
  0
VERTEX
  5
1A883
  8
1
 62
     7
 10
209.0672128613362
 20
223.98832920122129
 30
0.0
 70
    32
  0
VERTEX
  5
1A884
  8
1
 62
     7
 10
209.06821286133589
 20
223.9833292012213
 30
0.0
 70
    32
  0
VERTEX
  5
1A885
  8
1
 62
     7
 10
209.0692128613357
 20
223.97932920122091
 30
0.0
 70
    32
  0
VERTEX
  5
1A886
  8
1
 62
     7
 10
209.07021286133539
 20
223.975329201221
 30
0.0
 70
    32
  0
VERTEX
  5
1A887
  8
1
 62
     7
 10
209.07121286133611
 20
223.9713292012211
 30
0.0
 70
    32
  0
VERTEX
  5
1A888
  8
1
 62
     7
 10
209.07221286133631
 20
223.96732920122071
 30
0.0
 70
    32
  0
VERTEX
  5
1A889
  8
1
 62
     7
 10
209.073212861336
 20
223.9633292012208
 30
0.0
 70
    32
  0
VERTEX
  5
1A88A
  8
1
 62
     7
 10
209.07421286133581
 20
223.95832920122069
 30
0.0
 70
    32
  0
VERTEX
  5
1A88B
  8
1
 62
     7
 10
209.07521286133601
 20
223.95432920122079
 30
0.0
 70
    32
  0
VERTEX
  5
1A88C
  8
1
 62
     7
 10
209.07621286133619
 20
223.95032920122131
 30
0.0
 70
    32
  0
VERTEX
  5
1A88D
  8
1
 62
     7
 10
209.07721286133591
 20
223.946329201221
 30
0.0
 70
    32
  0
VERTEX
  5
1A88E
  8
1
 62
     7
 10
209.07821286133569
 20
223.9423292012211
 30
0.0
 70
    32
  0
VERTEX
  5
1A88F
  8
1
 62
     7
 10
209.07921286133541
 20
223.93832920122119
 30
0.0
 70
    32
  0
VERTEX
  5
1A890
  8
1
 62
     7
 10
209.08021286133609
 20
223.9343292012212
 30
0.0
 70
    32
  0
VERTEX
  5
1A891
  8
1
 62
     7
 10
209.0812128613363
 20
223.92932920122121
 30
0.0
 70
    32
  0
VERTEX
  5
1A892
  8
1
 62
     7
 10
209.0822128613361
 20
223.92532920122079
 30
0.0
 70
    32
  0
VERTEX
  5
1A893
  8
1
 62
     7
 10
209.0832128613358
 20
223.92132920122091
 30
0.0
 70
    32
  0
VERTEX
  5
1A894
  8
1
 62
     7
 10
209.084212861336
 20
223.91732920122101
 30
0.0
 70
    32
  0
VERTEX
  5
1A895
  8
1
 62
     7
 10
209.0852128613362
 20
223.9133292012211
 30
0.0
 70
    32
  0
VERTEX
  5
1A896
  8
1
 62
     7
 10
209.08621286133589
 20
223.90932920122069
 30
0.0
 70
    32
  0
VERTEX
  5
1A897
  8
1
 62
     7
 10
209.0872128613357
 20
223.904329201221
 30
0.0
 70
    32
  0
VERTEX
  5
1A898
  8
1
 62
     7
 10
209.08821286133539
 20
223.9003292012207
 30
0.0
 70
    32
  0
VERTEX
  5
1A899
  8
1
 62
     7
 10
209.08921286133611
 20
223.89632920122131
 30
0.0
 70
    32
  0
VERTEX
  5
1A89A
  8
1
 62
     7
 10
209.0902128613358
 20
223.89232920122129
 30
0.0
 70
    32
  0
VERTEX
  5
1A89B
  8
1
 62
     7
 10
209.09121286133609
 20
223.88832920122101
 30
0.0
 70
    32
  0
VERTEX
  5
1A89C
  8
1
 62
     7
 10
209.0922128613359
 20
223.88432920122111
 30
0.0
 70
    32
  0
VERTEX
  5
1A89D
  8
1
 62
     7
 10
209.09321286133601
 20
223.8803292012212
 30
0.0
 70
    32
  0
VERTEX
  5
1A89E
  8
1
 62
     7
 10
209.09421286133579
 20
223.8763292012213
 30
0.0
 70
    32
  0
VERTEX
  5
1A89F
  8
1
 62
     7
 10
209.09521286133599
 20
223.8713292012207
 30
0.0
 70
    32
  0
VERTEX
  5
1A8A0
  8
1
 62
     7
 10
209.09621286133569
 20
223.8673292012208
 30
0.0
 70
    32
  0
VERTEX
  5
1A8A1
  8
1
 62
     7
 10
209.09721286133541
 20
223.8633292012214
 30
0.0
 70
    32
  0
VERTEX
  5
1A8A2
  8
1
 62
     7
 10
209.0992128613359
 20
223.85932920122099
 30
0.0
 70
    32
  0
VERTEX
  5
1A8A3
  8
1
 62
     7
 10
209.1002128613361
 20
223.85532920122111
 30
0.0
 70
    32
  0
VERTEX
  5
1A8A4
  8
1
 62
     7
 10
209.1012128613358
 20
223.8513292012212
 30
0.0
 70
    32
  0
VERTEX
  5
1A8A5
  8
1
 62
     7
 10
209.102212861336
 20
223.84732920122079
 30
0.0
 70
    32
  0
VERTEX
  5
1A8A6
  8
1
 62
     7
 10
209.10321286133581
 20
223.84332920122091
 30
0.0
 70
    32
  0
VERTEX
  5
1A8A7
  8
1
 62
     7
 10
209.10421286133601
 20
223.8383292012212
 30
0.0
 70
    32
  0
VERTEX
  5
1A8A8
  8
1
 62
     7
 10
209.1052128613357
 20
223.8343292012209
 30
0.0
 70
    32
  0
VERTEX
  5
1A8A9
  8
1
 62
     7
 10
209.10621286133551
 20
223.83032920122099
 30
0.0
 70
    32
  0
VERTEX
  5
1A8AA
  8
1
 62
     7
 10
209.10721286133611
 20
223.82632920122111
 30
0.0
 70
    32
  0
VERTEX
  5
1A8AB
  8
1
 62
     7
 10
209.10921286133609
 20
223.82232920122121
 30
0.0
 70
    32
  0
VERTEX
  5
1A8AC
  8
1
 62
     7
 10
209.11021286133581
 20
223.8183292012213
 30
0.0
 70
    32
  0
VERTEX
  5
1A8AD
  8
1
 62
     7
 10
209.11121286133601
 20
223.81432920122089
 30
0.0
 70
    32
  0
VERTEX
  5
1A8AE
  8
1
 62
     7
 10
209.11221286133579
 20
223.81032920122101
 30
0.0
 70
    32
  0
VERTEX
  5
1A8AF
  8
1
 62
     7
 10
209.113212861336
 20
223.8053292012209
 30
0.0
 70
    32
  0
VERTEX
  5
1A8B0
  8
1
 62
     7
 10
209.11421286133569
 20
223.80132920122099
 30
0.0
 70
    32
  0
VERTEX
  5
1A8B1
  8
1
 62
     7
 10
209.115212861336
 20
223.79732920122109
 30
0.0
 70
    32
  0
VERTEX
  5
1A8B2
  8
1
 62
     7
 10
209.1172128613359
 20
223.7933292012207
 30
0.0
 70
    32
  0
VERTEX
  5
1A8B3
  8
1
 62
     7
 10
209.1182128613361
 20
223.7893292012208
 30
0.0
 70
    32
  0
VERTEX
  5
1A8B4
  8
1
 62
     7
 10
209.11921286133591
 20
223.78532920122089
 30
0.0
 70
    32
  0
VERTEX
  5
1A8B5
  8
1
 62
     7
 10
209.120212861336
 20
223.78132920122101
 30
0.0
 70
    32
  0
VERTEX
  5
1A8B6
  8
1
 62
     7
 10
209.12121286133581
 20
223.77732920122111
 30
0.0
 70
    32
  0
VERTEX
  5
1A8B7
  8
1
 62
     7
 10
209.12221286133601
 20
223.7733292012212
 30
0.0
 70
    32
  0
VERTEX
  5
1A8B8
  8
1
 62
     7
 10
209.12421286133551
 20
223.7693292012213
 30
0.0
 70
    32
  0
VERTEX
  5
1A8B9
  8
1
 62
     7
 10
209.12521286133571
 20
223.76432920122119
 30
0.0
 70
    32
  0
VERTEX
  5
1A8BA
  8
1
 62
     7
 10
209.12621286133589
 20
223.76032920122131
 30
0.0
 70
    32
  0
VERTEX
  5
1A8BB
  8
1
 62
     7
 10
209.12721286133609
 20
223.7563292012214
 30
0.0
 70
    32
  0
VERTEX
  5
1A8BC
  8
1
 62
     7
 10
209.1282128613359
 20
223.75232920122099
 30
0.0
 70
    32
  0
VERTEX
  5
1A8BD
  8
1
 62
     7
 10
209.13021286133579
 20
223.74832920122111
 30
0.0
 70
    32
  0
VERTEX
  5
1A8BE
  8
1
 62
     7
 10
209.131212861336
 20
223.74432920122121
 30
0.0
 70
    32
  0
VERTEX
  5
1A8BF
  8
1
 62
     7
 10
209.1322128613358
 20
223.7403292012209
 30
0.0
 70
    32
  0
VERTEX
  5
1A8C0
  8
1
 62
     7
 10
209.13321286133549
 20
223.73632920122091
 30
0.0
 70
    32
  0
VERTEX
  5
1A8C1
  8
1
 62
     7
 10
209.1352128613359
 20
223.73232920122101
 30
0.0
 70
    32
  0
VERTEX
  5
1A8C2
  8
1
 62
     7
 10
209.13621286133611
 20
223.7283292012211
 30
0.0
 70
    32
  0
VERTEX
  5
1A8C3
  8
1
 62
     7
 10
209.1372128613354
 20
223.7243292012212
 30
0.0
 70
    32
  0
VERTEX
  5
1A8C4
  8
1
 62
     7
 10
209.13821286133609
 20
223.71932920122109
 30
0.0
 70
    32
  0
VERTEX
  5
1A8C5
  8
1
 62
     7
 10
209.14021286133601
 20
223.71532920122121
 30
0.0
 70
    32
  0
VERTEX
  5
1A8C6
  8
1
 62
     7
 10
209.1412128613359
 20
223.71132920122079
 30
0.0
 70
    32
  0
VERTEX
  5
1A8C7
  8
1
 62
     7
 10
209.14221286133599
 20
223.7073292012214
 30
0.0
 70
    32
  0
VERTEX
  5
1A8C8
  8
1
 62
     7
 10
209.1432128613362
 20
223.70332920122101
 30
0.0
 70
    32
  0
VERTEX
  5
1A8C9
  8
1
 62
     7
 10
209.1452128613362
 20
223.6993292012211
 30
0.0
 70
    32
  0
VERTEX
  5
1A8CA
  8
1
 62
     7
 10
209.1462128613359
 20
223.6953292012208
 30
0.0
 70
    32
  0
VERTEX
  5
1A8CB
  8
1
 62
     7
 10
209.1472128613361
 20
223.69132920122129
 30
0.0
 70
    32
  0
VERTEX
  5
1A8CC
  8
1
 62
     7
 10
209.14821286133639
 20
223.68732920122099
 30
0.0
 70
    32
  0
VERTEX
  5
1A8CD
  8
1
 62
     7
 10
209.1502128613358
 20
223.68332920122111
 30
0.0
 70
    32
  0
VERTEX
  5
1A8CE
  8
1
 62
     7
 10
209.15121286133549
 20
223.67932920122121
 30
0.0
 70
    32
  0
VERTEX
  5
1A8CF
  8
1
 62
     7
 10
209.15221286133581
 20
223.67532920122119
 30
0.0
 70
    32
  0
VERTEX
  5
1A8D0
  8
1
 62
     7
 10
209.15421286133571
 20
223.67132920122091
 30
0.0
 70
    32
  0
VERTEX
  5
1A8D1
  8
1
 62
     7
 10
209.15521286133591
 20
223.6663292012208
 30
0.0
 70
    32
  0
VERTEX
  5
1A8D2
  8
1
 62
     7
 10
209.1562128613356
 20
223.6623292012213
 30
0.0
 70
    32
  0
VERTEX
  5
1A8D3
  8
1
 62
     7
 10
209.1582128613361
 20
223.65832920122091
 30
0.0
 70
    32
  0
VERTEX
  5
1A8D4
  8
1
 62
     7
 10
209.15921286133579
 20
223.65432920122109
 30
0.0
 70
    32
  0
VERTEX
  5
1A8D5
  8
1
 62
     7
 10
209.16021286133599
 20
223.6503292012207
 30
0.0
 70
    32
  0
VERTEX
  5
1A8D6
  8
1
 62
     7
 10
209.162212861336
 20
223.64632920122079
 30
0.0
 70
    32
  0
VERTEX
  5
1A8D7
  8
1
 62
     7
 10
209.16321286133621
 20
223.64232920122089
 30
0.0
 70
    32
  0
VERTEX
  5
1A8D8
  8
1
 62
     7
 10
209.1642128613359
 20
223.63832920122101
 30
0.0
 70
    32
  0
VERTEX
  5
1A8D9
  8
1
 62
     7
 10
209.16621286133591
 20
223.63432920122111
 30
0.0
 70
    32
  0
VERTEX
  5
1A8DA
  8
1
 62
     7
 10
209.16721286133611
 20
223.63032920122069
 30
0.0
 70
    32
  0
VERTEX
  5
1A8DB
  8
1
 62
     7
 10
209.1682128613358
 20
223.6263292012213
 30
0.0
 70
    32
  0
VERTEX
  5
1A8DC
  8
1
 62
     7
 10
209.17021286133621
 20
223.62232920122139
 30
0.0
 70
    32
  0
VERTEX
  5
1A8DD
  8
1
 62
     7
 10
209.17121286133599
 20
223.618329201221
 30
0.0
 70
    32
  0
VERTEX
  5
1A8DE
  8
1
 62
     7
 10
209.17221286133579
 20
223.6143292012211
 30
0.0
 70
    32
  0
VERTEX
  5
1A8DF
  8
1
 62
     7
 10
209.17421286133569
 20
223.61032920122119
 30
0.0
 70
    32
  0
VERTEX
  5
1A8E0
  8
1
 62
     7
 10
209.17521286133589
 20
223.6063292012208
 30
0.0
 70
    32
  0
VERTEX
  5
1A8E1
  8
1
 62
     7
 10
209.17721286133579
 20
223.6023292012209
 30
0.0
 70
    32
  0
VERTEX
  5
1A8E2
  8
1
 62
     7
 10
209.1782128613356
 20
223.59832920122099
 30
0.0
 70
    32
  0
VERTEX
  5
1A8E3
  8
1
 62
     7
 10
209.1792128613358
 20
223.59432920122109
 30
0.0
 70
    32
  0
VERTEX
  5
1A8E4
  8
1
 62
     7
 10
209.18121286133581
 20
223.59032920122081
 30
0.0
 70
    32
  0
VERTEX
  5
1A8E5
  8
1
 62
     7
 10
209.18221286133601
 20
223.5863292012213
 30
0.0
 70
    32
  0
VERTEX
  5
1A8E6
  8
1
 62
     7
 10
209.18421286133591
 20
223.5823292012214
 30
0.0
 70
    32
  0
VERTEX
  5
1A8E7
  8
1
 62
     7
 10
209.18521286133611
 20
223.57832920122101
 30
0.0
 70
    32
  0
VERTEX
  5
1A8E8
  8
1
 62
     7
 10
209.1862128613358
 20
223.57432920122119
 30
0.0
 70
    32
  0
VERTEX
  5
1A8E9
  8
1
 62
     7
 10
209.1882128613359
 20
223.5703292012212
 30
0.0
 70
    32
  0
VERTEX
  5
1A8EA
  8
1
 62
     7
 10
209.18921286133599
 20
223.5663292012209
 30
0.0
 70
    32
  0
VERTEX
  5
1A8EB
  8
1
 62
     7
 10
209.19121286133549
 20
223.56132920122079
 30
0.0
 70
    32
  0
VERTEX
  5
1A8EC
  8
1
 62
     7
 10
209.19221286133569
 20
223.55732920122091
 30
0.0
 70
    32
  0
VERTEX
  5
1A8ED
  8
1
 62
     7
 10
209.1942128613361
 20
223.553329201221
 30
0.0
 70
    32
  0
VERTEX
  5
1A8EE
  8
1
 62
     7
 10
209.1952128613359
 20
223.54932920122101
 30
0.0
 70
    32
  0
VERTEX
  5
1A8EF
  8
1
 62
     7
 10
209.1972128613358
 20
223.54532920122111
 30
0.0
 70
    32
  0
VERTEX
  5
1A8F0
  8
1
 62
     7
 10
209.198212861336
 20
223.5413292012212
 30
0.0
 70
    32
  0
VERTEX
  5
1A8F1
  8
1
 62
     7
 10
209.20021286133601
 20
223.5373292012213
 30
0.0
 70
    32
  0
VERTEX
  5
1A8F2
  8
1
 62
     7
 10
209.2012128613357
 20
223.53332920122099
 30
0.0
 70
    32
  0
VERTEX
  5
1A8F3
  8
1
 62
     7
 10
209.20321286133611
 20
223.52932920122109
 30
0.0
 70
    32
  0
VERTEX
  5
1A8F4
  8
1
 62
     7
 10
209.20421286133589
 20
223.5253292012207
 30
0.0
 70
    32
  0
VERTEX
  5
1A8F5
  8
1
 62
     7
 10
209.20621286133581
 20
223.52132920122079
 30
0.0
 70
    32
  0
VERTEX
  5
1A8F6
  8
1
 62
     7
 10
209.20721286133599
 20
223.5173292012214
 30
0.0
 70
    32
  0
VERTEX
  5
1A8F7
  8
1
 62
     7
 10
209.209212861336
 20
223.51332920122101
 30
0.0
 70
    32
  0
VERTEX
  5
1A8F8
  8
1
 62
     7
 10
209.21021286133569
 20
223.50932920122111
 30
0.0
 70
    32
  0
VERTEX
  5
1A8F9
  8
1
 62
     7
 10
209.2122128613361
 20
223.5053292012212
 30
0.0
 70
    32
  0
VERTEX
  5
1A8FA
  8
1
 62
     7
 10
209.2132128613359
 20
223.50132920122121
 30
0.0
 70
    32
  0
VERTEX
  5
1A8FB
  8
1
 62
     7
 10
209.2152128613354
 20
223.49832920122111
 30
0.0
 70
    32
  0
VERTEX
  5
1A8FC
  8
1
 62
     7
 10
209.216212861336
 20
223.49432920122081
 30
0.0
 70
    32
  0
VERTEX
  5
1A8FD
  8
1
 62
     7
 10
209.21821286133559
 20
223.4903292012213
 30
0.0
 70
    32
  0
VERTEX
  5
1A8FE
  8
1
 62
     7
 10
209.21921286133579
 20
223.48632920122091
 30
0.0
 70
    32
  0
VERTEX
  5
1A8FF
  8
1
 62
     7
 10
209.2212128613362
 20
223.48232920122101
 30
0.0
 70
    32
  0
VERTEX
  5
1A900
  8
1
 62
     7
 10
209.22221286133589
 20
223.4783292012211
 30
0.0
 70
    32
  0
VERTEX
  5
1A901
  8
1
 62
     7
 10
209.22421286133539
 20
223.4743292012212
 30
0.0
 70
    32
  0
VERTEX
  5
1A902
  8
1
 62
     7
 10
209.22621286133631
 20
223.47032920122129
 30
0.0
 70
    32
  0
VERTEX
  5
1A903
  8
1
 62
     7
 10
209.227212861336
 20
223.46632920122099
 30
0.0
 70
    32
  0
VERTEX
  5
1A904
  8
1
 62
     7
 10
209.22921286133601
 20
223.462329201221
 30
0.0
 70
    32
  0
VERTEX
  5
1A905
  8
1
 62
     7
 10
209.23021286133621
 20
223.45832920122069
 30
0.0
 70
    32
  0
VERTEX
  5
1A906
  8
1
 62
     7
 10
209.23221286133571
 20
223.45432920122079
 30
0.0
 70
    32
  0
VERTEX
  5
1A907
  8
1
 62
     7
 10
209.23421286133609
 20
223.45032920122091
 30
0.0
 70
    32
  0
VERTEX
  5
1A908
  8
1
 62
     7
 10
209.23521286133629
 20
223.446329201221
 30
0.0
 70
    32
  0
VERTEX
  5
1A909
  8
1
 62
     7
 10
209.23721286133579
 20
223.4423292012211
 30
0.0
 70
    32
  0
VERTEX
  5
1A90A
  8
1
 62
     7
 10
209.238212861336
 20
223.43832920122111
 30
0.0
 70
    32
  0
VERTEX
  5
1A90B
  8
1
 62
     7
 10
209.24021286133589
 20
223.43432920122129
 30
0.0
 70
    32
  0
VERTEX
  5
1A90C
  8
1
 62
     7
 10
209.2422128613355
 20
223.43032920122141
 30
0.0
 70
    32
  0
VERTEX
  5
1A90D
  8
1
 62
     7
 10
209.2432128613361
 20
223.42632920122099
 30
0.0
 70
    32
  0
VERTEX
  5
1A90E
  8
1
 62
     7
 10
209.24521286133611
 20
223.42232920122109
 30
0.0
 70
    32
  0
VERTEX
  5
1A90F
  8
1
 62
     7
 10
209.24721286133601
 20
223.4183292012207
 30
0.0
 70
    32
  0
VERTEX
  5
1A910
  8
1
 62
     7
 10
209.2482128613359
 20
223.4143292012208
 30
0.0
 70
    32
  0
VERTEX
  5
1A911
  8
1
 62
     7
 10
209.25021286133571
 20
223.41032920122089
 30
0.0
 70
    32
  0
VERTEX
  5
1A912
  8
1
 62
     7
 10
209.25221286133609
 20
223.40732920122119
 30
0.0
 70
    32
  0
VERTEX
  5
1A913
  8
1
 62
     7
 10
209.2532128613359
 20
223.40332920122091
 30
0.0
 70
    32
  0
VERTEX
  5
1A914
  8
1
 62
     7
 10
209.25521286133579
 20
223.39932920122141
 30
0.0
 70
    32
  0
VERTEX
  5
1A915
  8
1
 62
     7
 10
209.2572128613358
 20
223.39532920122099
 30
0.0
 70
    32
  0
VERTEX
  5
1A916
  8
1
 62
     7
 10
209.25821286133601
 20
223.39132920122071
 30
0.0
 70
    32
  0
VERTEX
  5
1A917
  8
1
 62
     7
 10
209.2602128613355
 20
223.38732920122081
 30
0.0
 70
    32
  0
VERTEX
  5
1A918
  8
1
 62
     7
 10
209.26221286133591
 20
223.3833292012213
 30
0.0
 70
    32
  0
VERTEX
  5
1A919
  8
1
 62
     7
 10
209.26321286133609
 20
223.379329201221
 30
0.0
 70
    32
  0
VERTEX
  5
1A91A
  8
1
 62
     7
 10
209.2652128613361
 20
223.37532920122101
 30
0.0
 70
    32
  0
VERTEX
  5
1A91B
  8
1
 62
     7
 10
209.26721286133599
 20
223.37132920122119
 30
0.0
 70
    32
  0
VERTEX
  5
1A91C
  8
1
 62
     7
 10
209.26921286133589
 20
223.36732920122131
 30
0.0
 70
    32
  0
VERTEX
  5
1A91D
  8
1
 62
     7
 10
209.27021286133609
 20
223.36332920122089
 30
0.0
 70
    32
  0
VERTEX
  5
1A91E
  8
1
 62
     7
 10
209.2722128613361
 20
223.36032920122071
 30
0.0
 70
    32
  0
VERTEX
  5
1A91F
  8
1
 62
     7
 10
209.27421286133611
 20
223.3563292012208
 30
0.0
 70
    32
  0
VERTEX
  5
1A920
  8
1
 62
     7
 10
209.27621286133601
 20
223.3523292012209
 30
0.0
 70
    32
  0
VERTEX
  5
1A921
  8
1
 62
     7
 10
209.27721286133621
 20
223.34832920122099
 30
0.0
 70
    32
  0
VERTEX
  5
1A922
  8
1
 62
     7
 10
209.27921286133571
 20
223.34432920122109
 30
0.0
 70
    32
  0
VERTEX
  5
1A923
  8
1
 62
     7
 10
209.28121286133609
 20
223.34032920122121
 30
0.0
 70
    32
  0
VERTEX
  5
1A924
  8
1
 62
     7
 10
209.2832128613361
 20
223.3363292012213
 30
0.0
 70
    32
  0
VERTEX
  5
1A925
  8
1
 62
     7
 10
209.28421286133579
 20
223.33232920122089
 30
0.0
 70
    32
  0
VERTEX
  5
1A926
  8
1
 62
     7
 10
209.28621286133571
 20
223.32832920122101
 30
0.0
 70
    32
  0
VERTEX
  5
1A927
  8
1
 62
     7
 10
209.28821286133621
 20
223.32532920122091
 30
0.0
 70
    32
  0
VERTEX
  5
1A928
  8
1
 62
     7
 10
209.2902128613361
 20
223.321329201221
 30
0.0
 70
    32
  0
VERTEX
  5
1A929
  8
1
 62
     7
 10
209.29221286133611
 20
223.3173292012211
 30
0.0
 70
    32
  0
VERTEX
  5
1A92A
  8
1
 62
     7
 10
209.2932128613358
 20
223.31332920122119
 30
0.0
 70
    32
  0
VERTEX
  5
1A92B
  8
1
 62
     7
 10
209.29521286133581
 20
223.30932920122129
 30
0.0
 70
    32
  0
VERTEX
  5
1A92C
  8
1
 62
     7
 10
209.29721286133619
 20
223.3053292012213
 30
0.0
 70
    32
  0
VERTEX
  5
1A92D
  8
1
 62
     7
 10
209.29921286133609
 20
223.30132920122099
 30
0.0
 70
    32
  0
VERTEX
  5
1A92E
  8
1
 62
     7
 10
209.3012128613361
 20
223.29832920122089
 30
0.0
 70
    32
  0
VERTEX
  5
1A92F
  8
1
 62
     7
 10
209.3022128613363
 20
223.2943292012209
 30
0.0
 70
    32
  0
VERTEX
  5
1A930
  8
1
 62
     7
 10
209.3042128613358
 20
223.290329201221
 30
0.0
 70
    32
  0
VERTEX
  5
1A931
  8
1
 62
     7
 10
209.30621286133569
 20
223.28632920122109
 30
0.0
 70
    32
  0
VERTEX
  5
1A932
  8
1
 62
     7
 10
209.3082128613357
 20
223.2823292012207
 30
0.0
 70
    32
  0
VERTEX
  5
1A933
  8
1
 62
     7
 10
209.3102128613356
 20
223.27832920122091
 30
0.0
 70
    32
  0
VERTEX
  5
1A934
  8
1
 62
     7
 10
209.31221286133601
 20
223.27432920122141
 30
0.0
 70
    32
  0
VERTEX
  5
1A935
  8
1
 62
     7
 10
209.31421286133599
 20
223.27132920122079
 30
0.0
 70
    32
  0
VERTEX
  5
1A936
  8
1
 62
     7
 10
209.316212861336
 20
223.26732920122089
 30
0.0
 70
    32
  0
VERTEX
  5
1A937
  8
1
 62
     7
 10
209.3172128613362
 20
223.26332920122101
 30
0.0
 70
    32
  0
VERTEX
  5
1A938
  8
1
 62
     7
 10
209.3192128613357
 20
223.25932920122111
 30
0.0
 70
    32
  0
VERTEX
  5
1A939
  8
1
 62
     7
 10
209.32121286133611
 20
223.2553292012212
 30
0.0
 70
    32
  0
VERTEX
  5
1A93A
  8
1
 62
     7
 10
209.323212861336
 20
223.25232920122099
 30
0.0
 70
    32
  0
VERTEX
  5
1A93B
  8
1
 62
     7
 10
209.32521286133601
 20
223.24832920122111
 30
0.0
 70
    32
  0
VERTEX
  5
1A93C
  8
1
 62
     7
 10
209.32721286133591
 20
223.24432920122081
 30
0.0
 70
    32
  0
VERTEX
  5
1A93D
  8
1
 62
     7
 10
209.32921286133589
 20
223.24032920122079
 30
0.0
 70
    32
  0
VERTEX
  5
1A93E
  8
1
 62
     7
 10
209.33121286133581
 20
223.23632920122139
 30
0.0
 70
    32
  0
VERTEX
  5
1A93F
  8
1
 62
     7
 10
209.3332128613358
 20
223.23332920122121
 30
0.0
 70
    32
  0
VERTEX
  5
1A940
  8
1
 62
     7
 10
209.3352128613358
 20
223.22932920122091
 30
0.0
 70
    32
  0
VERTEX
  5
1A941
  8
1
 62
     7
 10
209.3372128613357
 20
223.225329201221
 30
0.0
 70
    32
  0
VERTEX
  5
1A942
  8
1
 62
     7
 10
209.33921286133611
 20
223.2213292012211
 30
0.0
 70
    32
  0
VERTEX
  5
1A943
  8
1
 62
     7
 10
209.34121286133561
 20
223.21732920122071
 30
0.0
 70
    32
  0
VERTEX
  5
1A944
  8
1
 62
     7
 10
209.34321286133601
 20
223.21432920122101
 30
0.0
 70
    32
  0
VERTEX
  5
1A945
  8
1
 62
     7
 10
209.34521286133551
 20
223.2103292012211
 30
0.0
 70
    32
  0
VERTEX
  5
1A946
  8
1
 62
     7
 10
209.34721286133589
 20
223.20632920122119
 30
0.0
 70
    32
  0
VERTEX
  5
1A947
  8
1
 62
     7
 10
209.34921286133579
 20
223.20232920122081
 30
0.0
 70
    32
  0
VERTEX
  5
1A948
  8
1
 62
     7
 10
209.3512128613358
 20
223.19832920122141
 30
0.0
 70
    32
  0
VERTEX
  5
1A949
  8
1
 62
     7
 10
209.35321286133581
 20
223.1953292012208
 30
0.0
 70
    32
  0
VERTEX
  5
1A94A
  8
1
 62
     7
 10
209.3552128613357
 20
223.1913292012209
 30
0.0
 70
    32
  0
VERTEX
  5
1A94B
  8
1
 62
     7
 10
209.35721286133611
 20
223.18732920122099
 30
0.0
 70
    32
  0
VERTEX
  5
1A94C
  8
1
 62
     7
 10
209.35921286133609
 20
223.18332920122111
 30
0.0
 70
    32
  0
VERTEX
  5
1A94D
  8
1
 62
     7
 10
209.3612128613361
 20
223.18032920122141
 30
0.0
 70
    32
  0
VERTEX
  5
1A94E
  8
1
 62
     7
 10
209.363212861336
 20
223.17632920122099
 30
0.0
 70
    32
  0
VERTEX
  5
1A94F
  8
1
 62
     7
 10
209.365212861336
 20
223.17232920122109
 30
0.0
 70
    32
  0
VERTEX
  5
1A950
  8
1
 62
     7
 10
209.3672128613359
 20
223.1683292012207
 30
0.0
 70
    32
  0
VERTEX
  5
1A951
  8
1
 62
     7
 10
209.3692128613354
 20
223.165329201221
 30
0.0
 70
    32
  0
VERTEX
  5
1A952
  8
1
 62
     7
 10
209.37121286133629
 20
223.16132920122109
 30
0.0
 70
    32
  0
VERTEX
  5
1A953
  8
1
 62
     7
 10
209.3732128613357
 20
223.15732920122119
 30
0.0
 70
    32
  0
VERTEX
  5
1A954
  8
1
 62
     7
 10
209.37521286133619
 20
223.15432920122109
 30
0.0
 70
    32
  0
VERTEX
  5
1A955
  8
1
 62
     7
 10
209.37821286133541
 20
223.1503292012207
 30
0.0
 70
    32
  0
VERTEX
  5
1A956
  8
1
 62
     7
 10
209.3802128613363
 20
223.14632920122079
 30
0.0
 70
    32
  0
VERTEX
  5
1A957
  8
1
 62
     7
 10
209.3822128613358
 20
223.14232920122089
 30
0.0
 70
    32
  0
VERTEX
  5
1A958
  8
1
 62
     7
 10
209.38421286133621
 20
223.13932920122119
 30
0.0
 70
    32
  0
VERTEX
  5
1A959
  8
1
 62
     7
 10
209.38621286133571
 20
223.13532920122131
 30
0.0
 70
    32
  0
VERTEX
  5
1A95A
  8
1
 62
     7
 10
209.38821286133609
 20
223.13132920122089
 30
0.0
 70
    32
  0
VERTEX
  5
1A95B
  8
1
 62
     7
 10
209.39021286133601
 20
223.12832920122079
 30
0.0
 70
    32
  0
VERTEX
  5
1A95C
  8
1
 62
     7
 10
209.39221286133599
 20
223.12432920122089
 30
0.0
 70
    32
  0
VERTEX
  5
1A95D
  8
1
 62
     7
 10
209.39521286133569
 20
223.12032920122101
 30
0.0
 70
    32
  0
VERTEX
  5
1A95E
  8
1
 62
     7
 10
209.3972128613361
 20
223.11732920122131
 30
0.0
 70
    32
  0
VERTEX
  5
1A95F
  8
1
 62
     7
 10
209.399212861336
 20
223.11332920122129
 30
0.0
 70
    32
  0
VERTEX
  5
1A960
  8
1
 62
     7
 10
209.40121286133601
 20
223.10932920122099
 30
0.0
 70
    32
  0
VERTEX
  5
1A961
  8
1
 62
     7
 10
209.4032128613359
 20
223.1063292012208
 30
0.0
 70
    32
  0
VERTEX
  5
1A962
  8
1
 62
     7
 10
209.40621286133609
 20
223.1023292012209
 30
0.0
 70
    32
  0
VERTEX
  5
1A963
  8
1
 62
     7
 10
209.4082128613361
 20
223.09832920122099
 30
0.0
 70
    32
  0
VERTEX
  5
1A964
  8
1
 62
     7
 10
209.41021286133599
 20
223.09532920122089
 30
0.0
 70
    32
  0
VERTEX
  5
1A965
  8
1
 62
     7
 10
209.412212861336
 20
223.09132920122099
 30
0.0
 70
    32
  0
VERTEX
  5
1A966
  8
1
 62
     7
 10
209.4142128613355
 20
223.08732920122111
 30
0.0
 70
    32
  0
VERTEX
  5
1A967
  8
1
 62
     7
 10
209.41721286133611
 20
223.0843292012209
 30
0.0
 70
    32
  0
VERTEX
  5
1A968
  8
1
 62
     7
 10
209.41921286133601
 20
223.08032920122099
 30
0.0
 70
    32
  0
VERTEX
  5
1A969
  8
1
 62
     7
 10
209.42121286133599
 20
223.07632920122111
 30
0.0
 70
    32
  0
VERTEX
  5
1A96A
  8
1
 62
     7
 10
209.42321286133591
 20
223.07332920122141
 30
0.0
 70
    32
  0
VERTEX
  5
1A96B
  8
1
 62
     7
 10
209.4262128613361
 20
223.069329201221
 30
0.0
 70
    32
  0
VERTEX
  5
1A96C
  8
1
 62
     7
 10
209.42821286133611
 20
223.0663292012209
 30
0.0
 70
    32
  0
VERTEX
  5
1A96D
  8
1
 62
     7
 10
209.430212861336
 20
223.06232920122139
 30
0.0
 70
    32
  0
VERTEX
  5
1A96E
  8
1
 62
     7
 10
209.4322128613355
 20
223.05832920122111
 30
0.0
 70
    32
  0
VERTEX
  5
1A96F
  8
1
 62
     7
 10
209.43521286133611
 20
223.0553292012209
 30
0.0
 70
    32
  0
VERTEX
  5
1A970
  8
1
 62
     7
 10
209.43721286133609
 20
223.05132920122099
 30
0.0
 70
    32
  0
VERTEX
  5
1A971
  8
1
 62
     7
 10
209.43921286133599
 20
223.04832920122089
 30
0.0
 70
    32
  0
VERTEX
  5
1A972
  8
1
 62
     7
 10
209.4422128613362
 20
223.0443292012209
 30
0.0
 70
    32
  0
VERTEX
  5
1A973
  8
1
 62
     7
 10
209.4442128613361
 20
223.040329201221
 30
0.0
 70
    32
  0
VERTEX
  5
1A974
  8
1
 62
     7
 10
209.44621286133611
 20
223.0373292012213
 30
0.0
 70
    32
  0
VERTEX
  5
1A975
  8
1
 62
     7
 10
209.44921286133581
 20
223.03332920122099
 30
0.0
 70
    32
  0
VERTEX
  5
1A976
  8
1
 62
     7
 10
209.45121286133619
 20
223.03032920122081
 30
0.0
 70
    32
  0
VERTEX
  5
1A977
  8
1
 62
     7
 10
209.45321286133611
 20
223.0263292012209
 30
0.0
 70
    32
  0
VERTEX
  5
1A978
  8
1
 62
     7
 10
209.4562128613363
 20
223.0233292012212
 30
0.0
 70
    32
  0
VERTEX
  5
1A979
  8
1
 62
     7
 10
209.4582128613358
 20
223.0193292012213
 30
0.0
 70
    32
  0
VERTEX
  5
1A97A
  8
1
 62
     7
 10
209.46121286133601
 20
223.01632920122071
 30
0.0
 70
    32
  0
VERTEX
  5
1A97B
  8
1
 62
     7
 10
209.4632128613359
 20
223.01232920122081
 30
0.0
 70
    32
  0
VERTEX
  5
1A97C
  8
1
 62
     7
 10
209.46521286133591
 20
223.00832920122139
 30
0.0
 70
    32
  0
VERTEX
  5
1A97D
  8
1
 62
     7
 10
209.46821286133601
 20
223.0053292012212
 30
0.0
 70
    32
  0
VERTEX
  5
1A97E
  8
1
 62
     7
 10
209.47021286133599
 20
223.0013292012213
 30
0.0
 70
    32
  0
VERTEX
  5
1A97F
  8
1
 62
     7
 10
209.4732128613357
 20
222.99832920122111
 30
0.0
 70
    32
  0
VERTEX
  5
1A980
  8
1
 62
     7
 10
209.4752128613361
 20
222.99432920122121
 30
0.0
 70
    32
  0
VERTEX
  5
1A981
  8
1
 62
     7
 10
209.4782128613362
 20
222.99132920122111
 30
0.0
 70
    32
  0
VERTEX
  5
1A982
  8
1
 62
     7
 10
209.4802128613357
 20
222.98732920122109
 30
0.0
 70
    32
  0
VERTEX
  5
1A983
  8
1
 62
     7
 10
209.48221286133571
 20
222.98432920122099
 30
0.0
 70
    32
  0
VERTEX
  5
1A984
  8
1
 62
     7
 10
209.4852128613359
 20
222.98032920122111
 30
0.0
 70
    32
  0
VERTEX
  5
1A985
  8
1
 62
     7
 10
209.48721286133579
 20
222.9773292012209
 30
0.0
 70
    32
  0
VERTEX
  5
1A986
  8
1
 62
     7
 10
209.49021286133589
 20
222.97332920122099
 30
0.0
 70
    32
  0
VERTEX
  5
1A987
  8
1
 62
     7
 10
209.4922128613359
 20
222.97032920122089
 30
0.0
 70
    32
  0
VERTEX
  5
1A988
  8
1
 62
     7
 10
209.4952128613356
 20
222.96732920122071
 30
0.0
 70
    32
  0
VERTEX
  5
1A989
  8
1
 62
     7
 10
209.49721286133601
 20
222.9633292012208
 30
0.0
 70
    32
  0
VERTEX
  5
1A98A
  8
1
 62
     7
 10
209.50021286133571
 20
222.9603292012211
 30
0.0
 70
    32
  0
VERTEX
  5
1A98B
  8
1
 62
     7
 10
209.50221286133609
 20
222.95632920122119
 30
0.0
 70
    32
  0
VERTEX
  5
1A98C
  8
1
 62
     7
 10
209.50521286133579
 20
222.95332920122101
 30
0.0
 70
    32
  0
VERTEX
  5
1A98D
  8
1
 62
     7
 10
209.5072128613358
 20
222.9493292012211
 30
0.0
 70
    32
  0
VERTEX
  5
1A98E
  8
1
 62
     7
 10
209.5102128613359
 20
222.946329201221
 30
0.0
 70
    32
  0
VERTEX
  5
1A98F
  8
1
 62
     7
 10
209.51321286133609
 20
222.9433292012213
 30
0.0
 70
    32
  0
VERTEX
  5
1A990
  8
1
 62
     7
 10
209.51521286133601
 20
222.9393292012214
 30
0.0
 70
    32
  0
VERTEX
  5
1A991
  8
1
 62
     7
 10
209.5182128613358
 20
222.9363292012207
 30
0.0
 70
    32
  0
VERTEX
  5
1A992
  8
1
 62
     7
 10
209.52021286133609
 20
222.93232920122091
 30
0.0
 70
    32
  0
VERTEX
  5
1A993
  8
1
 62
     7
 10
209.52321286133579
 20
222.92932920122109
 30
0.0
 70
    32
  0
VERTEX
  5
1A994
  8
1
 62
     7
 10
209.52621286133601
 20
222.92632920122099
 30
0.0
 70
    32
  0
VERTEX
  5
1A995
  8
1
 62
     7
 10
209.52821286133599
 20
222.92232920122109
 30
0.0
 70
    32
  0
VERTEX
  5
1A996
  8
1
 62
     7
 10
209.53121286133569
 20
222.9193292012209
 30
0.0
 70
    32
  0
VERTEX
  5
1A997
  8
1
 62
     7
 10
209.5332128613361
 20
222.915329201221
 30
0.0
 70
    32
  0
VERTEX
  5
1A998
  8
1
 62
     7
 10
209.5362128613358
 20
222.9123292012213
 30
0.0
 70
    32
  0
VERTEX
  5
1A999
  8
1
 62
     7
 10
209.5392128613359
 20
222.90932920122069
 30
0.0
 70
    32
  0
VERTEX
  5
1A99A
  8
1
 62
     7
 10
209.5412128613354
 20
222.90532920122081
 30
0.0
 70
    32
  0
VERTEX
  5
1A99B
  8
1
 62
     7
 10
209.54421286133601
 20
222.90232920122111
 30
0.0
 70
    32
  0
VERTEX
  5
1A99C
  8
1
 62
     7
 10
209.54721286133619
 20
222.89932920122141
 30
0.0
 70
    32
  0
VERTEX
  5
1A99D
  8
1
 62
     7
 10
209.54921286133569
 20
222.8953292012211
 30
0.0
 70
    32
  0
VERTEX
  5
1A99E
  8
1
 62
     7
 10
209.5522128613363
 20
222.89232920122089
 30
0.0
 70
    32
  0
VERTEX
  5
1A99F
  8
1
 62
     7
 10
209.555212861336
 20
222.88932920122119
 30
0.0
 70
    32
  0
VERTEX
  5
1A9A0
  8
1
 62
     7
 10
209.5582128613357
 20
222.886329201221
 30
0.0
 70
    32
  0
VERTEX
  5
1A9A1
  8
1
 62
     7
 10
209.56021286133611
 20
222.8823292012211
 30
0.0
 70
    32
  0
VERTEX
  5
1A9A2
  8
1
 62
     7
 10
209.56321286133581
 20
222.87932920122091
 30
0.0
 70
    32
  0
VERTEX
  5
1A9A3
  8
1
 62
     7
 10
209.566212861336
 20
222.8763292012213
 30
0.0
 70
    32
  0
VERTEX
  5
1A9A4
  8
1
 62
     7
 10
209.5692128613357
 20
222.87232920122131
 30
0.0
 70
    32
  0
VERTEX
  5
1A9A5
  8
1
 62
     7
 10
209.57121286133611
 20
222.86932920122081
 30
0.0
 70
    32
  0
VERTEX
  5
1A9A6
  8
1
 62
     7
 10
209.57421286133589
 20
222.86632920122099
 30
0.0
 70
    32
  0
VERTEX
  5
1A9A7
  8
1
 62
     7
 10
209.57721286133551
 20
222.86332920122089
 30
0.0
 70
    32
  0
VERTEX
  5
1A9A8
  8
1
 62
     7
 10
209.58021286133609
 20
222.85932920122099
 30
0.0
 70
    32
  0
VERTEX
  5
1A9A9
  8
1
 62
     7
 10
209.58221286133599
 20
222.8563292012208
 30
0.0
 70
    32
  0
VERTEX
  5
1A9AA
  8
1
 62
     7
 10
209.5852128613358
 20
222.8533292012207
 30
0.0
 70
    32
  0
VERTEX
  5
1A9AB
  8
1
 62
     7
 10
209.5882128613359
 20
222.850329201221
 30
0.0
 70
    32
  0
VERTEX
  5
1A9AC
  8
1
 62
     7
 10
209.59121286133609
 20
222.84732920122079
 30
0.0
 70
    32
  0
VERTEX
  5
1A9AD
  8
1
 62
     7
 10
209.59421286133579
 20
222.84332920122091
 30
0.0
 70
    32
  0
VERTEX
  5
1A9AE
  8
1
 62
     7
 10
209.59721286133589
 20
222.8403292012207
 30
0.0
 70
    32
  0
VERTEX
  5
1A9AF
  8
1
 62
     7
 10
209.59921286133539
 20
222.83732920122111
 30
0.0
 70
    32
  0
VERTEX
  5
1A9B0
  8
1
 62
     7
 10
209.602212861336
 20
222.8343292012209
 30
0.0
 70
    32
  0
VERTEX
  5
1A9B1
  8
1
 62
     7
 10
209.60521286133621
 20
222.83132920122119
 30
0.0
 70
    32
  0
VERTEX
  5
1A9B2
  8
1
 62
     7
 10
209.6082128613354
 20
222.82832920122109
 30
0.0
 70
    32
  0
VERTEX
  5
1A9B3
  8
1
 62
     7
 10
209.6112128613361
 20
222.82532920122091
 30
0.0
 70
    32
  0
VERTEX
  5
1A9B4
  8
1
 62
     7
 10
209.6142128613358
 20
222.821329201221
 30
0.0
 70
    32
  0
VERTEX
  5
1A9B5
  8
1
 62
     7
 10
209.6172128613359
 20
222.8183292012213
 30
0.0
 70
    32
  0
VERTEX
  5
1A9B6
  8
1
 62
     7
 10
209.62021286133611
 20
222.81532920122109
 30
0.0
 70
    32
  0
VERTEX
  5
1A9B7
  8
1
 62
     7
 10
209.62321286133621
 20
222.81232920122099
 30
0.0
 70
    32
  0
VERTEX
  5
1A9B8
  8
1
 62
     7
 10
209.62621286133589
 20
222.80932920122081
 30
0.0
 70
    32
  0
VERTEX
  5
1A9B9
  8
1
 62
     7
 10
209.6292128613361
 20
222.8063292012211
 30
0.0
 70
    32
  0
VERTEX
  5
1A9BA
  8
1
 62
     7
 10
209.63221286133609
 20
222.80332920122089
 30
0.0
 70
    32
  0
VERTEX
  5
1A9BB
  8
1
 62
     7
 10
209.6352128613359
 20
222.80032920122119
 30
0.0
 70
    32
  0
VERTEX
  5
1A9BC
  8
1
 62
     7
 10
209.63821286133609
 20
222.79732920122109
 30
0.0
 70
    32
  0
VERTEX
  5
1A9BD
  8
1
 62
     7
 10
209.6412128613359
 20
222.7943292012209
 30
0.0
 70
    32
  0
VERTEX
  5
1A9BE
  8
1
 62
     7
 10
209.644212861336
 20
222.7913292012212
 30
0.0
 70
    32
  0
VERTEX
  5
1A9BF
  8
1
 62
     7
 10
209.6472128613361
 20
222.7883292012211
 30
0.0
 70
    32
  0
VERTEX
  5
1A9C0
  8
1
 62
     7
 10
209.65021286133631
 20
222.78532920122089
 30
0.0
 70
    32
  0
VERTEX
  5
1A9C1
  8
1
 62
     7
 10
209.6532128613355
 20
222.78232920122119
 30
0.0
 70
    32
  0
VERTEX
  5
1A9C2
  8
1
 62
     7
 10
209.65621286133609
 20
222.779329201221
 30
0.0
 70
    32
  0
VERTEX
  5
1A9C3
  8
1
 62
     7
 10
209.65921286133579
 20
222.7763292012209
 30
0.0
 70
    32
  0
VERTEX
  5
1A9C4
  8
1
 62
     7
 10
209.66221286133549
 20
222.7733292012212
 30
0.0
 70
    32
  0
VERTEX
  5
1A9C5
  8
1
 62
     7
 10
209.6652128613361
 20
222.77032920122099
 30
0.0
 70
    32
  0
VERTEX
  5
1A9C6
  8
1
 62
     7
 10
209.66821286133589
 20
222.76732920122089
 30
0.0
 70
    32
  0
VERTEX
  5
1A9C7
  8
1
 62
     7
 10
209.67121286133599
 20
222.76432920122119
 30
0.0
 70
    32
  0
VERTEX
  5
1A9C8
  8
1
 62
     7
 10
209.6742128613362
 20
222.761329201221
 30
0.0
 70
    32
  0
VERTEX
  5
1A9C9
  8
1
 62
     7
 10
209.6772128613359
 20
222.7583292012209
 30
0.0
 70
    32
  0
VERTEX
  5
1A9CA
  8
1
 62
     7
 10
209.680212861336
 20
222.7553292012212
 30
0.0
 70
    32
  0
VERTEX
  5
1A9CB
  8
1
 62
     7
 10
209.68421286133591
 20
222.75232920122099
 30
0.0
 70
    32
  0
VERTEX
  5
1A9CC
  8
1
 62
     7
 10
209.68721286133609
 20
222.74932920122089
 30
0.0
 70
    32
  0
VERTEX
  5
1A9CD
  8
1
 62
     7
 10
209.69021286133579
 20
222.7463292012211
 30
0.0
 70
    32
  0
VERTEX
  5
1A9CE
  8
1
 62
     7
 10
209.69321286133589
 20
222.74432920122069
 30
0.0
 70
    32
  0
VERTEX
  5
1A9CF
  8
1
 62
     7
 10
209.69621286133611
 20
222.74132920122111
 30
0.0
 70
    32
  0
VERTEX
  5
1A9D0
  8
1
 62
     7
 10
209.69921286133581
 20
222.7383292012214
 30
0.0
 70
    32
  0
VERTEX
  5
1A9D1
  8
1
 62
     7
 10
209.70321286133569
 20
222.73532920122071
 30
0.0
 70
    32
  0
VERTEX
  5
1A9D2
  8
1
 62
     7
 10
209.7062128613363
 20
222.73232920122109
 30
0.0
 70
    32
  0
VERTEX
  5
1A9D3
  8
1
 62
     7
 10
209.709212861336
 20
222.7293292012213
 30
0.0
 70
    32
  0
VERTEX
  5
1A9D4
  8
1
 62
     7
 10
209.7122128613357
 20
222.72732920122141
 30
0.0
 70
    32
  0
VERTEX
  5
1A9D5
  8
1
 62
     7
 10
209.71621286133609
 20
222.7243292012212
 30
0.0
 70
    32
  0
VERTEX
  5
1A9D6
  8
1
 62
     7
 10
209.71921286133571
 20
222.7213292012211
 30
0.0
 70
    32
  0
VERTEX
  5
1A9D7
  8
1
 62
     7
 10
209.72221286133541
 20
222.71832920122139
 30
0.0
 70
    32
  0
VERTEX
  5
1A9D8
  8
1
 62
     7
 10
209.7252128613361
 20
222.7163292012209
 30
0.0
 70
    32
  0
VERTEX
  5
1A9D9
  8
1
 62
     7
 10
209.72921286133601
 20
222.7133292012208
 30
0.0
 70
    32
  0
VERTEX
  5
1A9DA
  8
1
 62
     7
 10
209.73221286133571
 20
222.7103292012211
 30
0.0
 70
    32
  0
VERTEX
  5
1A9DB
  8
1
 62
     7
 10
209.73521286133581
 20
222.70832920122069
 30
0.0
 70
    32
  0
VERTEX
  5
1A9DC
  8
1
 62
     7
 10
209.73921286133569
 20
222.70532920122099
 30
0.0
 70
    32
  0
VERTEX
  5
1A9DD
  8
1
 62
     7
 10
209.7422128613359
 20
222.70232920122129
 30
0.0
 70
    32
  0
VERTEX
  5
1A9DE
  8
1
 62
     7
 10
209.745212861336
 20
222.70032920122131
 30
0.0
 70
    32
  0
VERTEX
  5
1A9DF
  8
1
 62
     7
 10
209.74921286133599
 20
222.69732920122121
 30
0.0
 70
    32
  0
VERTEX
  5
1A9E0
  8
1
 62
     7
 10
209.75221286133609
 20
222.694329201221
 30
0.0
 70
    32
  0
VERTEX
  5
1A9E1
  8
1
 62
     7
 10
209.75521286133579
 20
222.6923292012211
 30
0.0
 70
    32
  0
VERTEX
  5
1A9E2
  8
1
 62
     7
 10
209.75921286133621
 20
222.68932920122089
 30
0.0
 70
    32
  0
VERTEX
  5
1A9E3
  8
1
 62
     7
 10
209.7622128613354
 20
222.68732920122139
 30
0.0
 70
    32
  0
VERTEX
  5
1A9E4
  8
1
 62
     7
 10
209.76621286133579
 20
222.68432920122129
 30
0.0
 70
    32
  0
VERTEX
  5
1A9E5
  8
1
 62
     7
 10
209.76921286133589
 20
222.6813292012211
 30
0.0
 70
    32
  0
VERTEX
  5
1A9E6
  8
1
 62
     7
 10
209.77221286133559
 20
222.67932920122109
 30
0.0
 70
    32
  0
VERTEX
  5
1A9E7
  8
1
 62
     7
 10
209.77621286133601
 20
222.67632920122099
 30
0.0
 70
    32
  0
VERTEX
  5
1A9E8
  8
1
 62
     7
 10
209.77921286133619
 20
222.67432920122101
 30
0.0
 70
    32
  0
VERTEX
  5
1A9E9
  8
1
 62
     7
 10
209.7832128613361
 20
222.67132920122131
 30
0.0
 70
    32
  0
VERTEX
  5
1A9EA
  8
1
 62
     7
 10
209.7862128613362
 20
222.66932920122099
 30
0.0
 70
    32
  0
VERTEX
  5
1A9EB
  8
1
 62
     7
 10
209.7902128613357
 20
222.6663292012208
 30
0.0
 70
    32
  0
VERTEX
  5
1A9EC
  8
1
 62
     7
 10
209.7932128613358
 20
222.6643292012208
 30
0.0
 70
    32
  0
VERTEX
  5
1A9ED
  8
1
 62
     7
 10
209.79721286133571
 20
222.6623292012209
 30
0.0
 70
    32
  0
VERTEX
  5
1A9EE
  8
1
 62
     7
 10
209.80021286133589
 20
222.6593292012212
 30
0.0
 70
    32
  0
VERTEX
  5
1A9EF
  8
1
 62
     7
 10
209.80421286133631
 20
222.65732920122119
 30
0.0
 70
    32
  0
VERTEX
  5
1A9F0
  8
1
 62
     7
 10
209.80721286133601
 20
222.65432920122109
 30
0.0
 70
    32
  0
VERTEX
  5
1A9F1
  8
1
 62
     7
 10
209.81121286133589
 20
222.65232920122111
 30
0.0
 70
    32
  0
VERTEX
  5
1A9F2
  8
1
 62
     7
 10
209.81521286133611
 20
222.6503292012207
 30
0.0
 70
    32
  0
VERTEX
  5
1A9F3
  8
1
 62
     7
 10
209.81821286133589
 20
222.647329201221
 30
0.0
 70
    32
  0
VERTEX
  5
1A9F4
  8
1
 62
     7
 10
209.8222128613358
 20
222.6453292012211
 30
0.0
 70
    32
  0
VERTEX
  5
1A9F5
  8
1
 62
     7
 10
209.82521286133601
 20
222.64332920122109
 30
0.0
 70
    32
  0
VERTEX
  5
1A9F6
  8
1
 62
     7
 10
209.82921286133589
 20
222.64032920122091
 30
0.0
 70
    32
  0
VERTEX
  5
1A9F7
  8
1
 62
     7
 10
209.83321286133639
 20
222.63832920122101
 30
0.0
 70
    32
  0
VERTEX
  5
1A9F8
  8
1
 62
     7
 10
209.83621286133589
 20
222.636329201221
 30
0.0
 70
    32
  0
VERTEX
  5
1A9F9
  8
1
 62
     7
 10
209.8402128613354
 20
222.63432920122111
 30
0.0
 70
    32
  0
VERTEX
  5
1A9FA
  8
1
 62
     7
 10
209.84421286133579
 20
222.6313292012214
 30
0.0
 70
    32
  0
VERTEX
  5
1A9FB
  8
1
 62
     7
 10
209.84721286133589
 20
222.629329201221
 30
0.0
 70
    32
  0
VERTEX
  5
1A9FC
  8
1
 62
     7
 10
209.85121286133631
 20
222.62732920122099
 30
0.0
 70
    32
  0
VERTEX
  5
1A9FD
  8
1
 62
     7
 10
209.85521286133621
 20
222.62532920122109
 30
0.0
 70
    32
  0
VERTEX
  5
1A9FE
  8
1
 62
     7
 10
209.8582128613354
 20
222.62332920122111
 30
0.0
 70
    32
  0
VERTEX
  5
1A9FF
  8
1
 62
     7
 10
209.86221286133579
 20
222.62132920122119
 30
0.0
 70
    32
  0
VERTEX
  5
1AA00
  8
1
 62
     7
 10
209.8662128613357
 20
222.61932920122121
 30
0.0
 70
    32
  0
VERTEX
  5
1AA01
  8
1
 62
     7
 10
209.8692128613358
 20
222.61632920122099
 30
0.0
 70
    32
  0
VERTEX
  5
1AA02
  8
1
 62
     7
 10
209.8732128613359
 20
222.6143292012211
 30
0.0
 70
    32
  0
VERTEX
  5
1AA03
  8
1
 62
     7
 10
209.87721286133609
 20
222.61232920122069
 30
0.0
 70
    32
  0
VERTEX
  5
1AA04
  8
1
 62
     7
 10
209.881212861336
 20
222.61032920122071
 30
0.0
 70
    32
  0
VERTEX
  5
1AA05
  8
1
 62
     7
 10
209.8842128613357
 20
222.60832920122081
 30
0.0
 70
    32
  0
VERTEX
  5
1AA06
  8
1
 62
     7
 10
209.88821286133609
 20
222.6063292012208
 30
0.0
 70
    32
  0
VERTEX
  5
1AA07
  8
1
 62
     7
 10
209.89221286133599
 20
222.6043292012213
 30
0.0
 70
    32
  0
VERTEX
  5
1AA08
  8
1
 62
     7
 10
209.8962128613359
 20
222.6023292012209
 30
0.0
 70
    32
  0
VERTEX
  5
1AA09
  8
1
 62
     7
 10
209.9002128613358
 20
222.600329201221
 30
0.0
 70
    32
  0
VERTEX
  5
1AA0A
  8
1
 62
     7
 10
209.90321286133599
 20
222.5993292012208
 30
0.0
 70
    32
  0
VERTEX
  5
1AA0B
  8
1
 62
     7
 10
209.90721286133589
 20
222.59732920122079
 30
0.0
 70
    32
  0
VERTEX
  5
1AA0C
  8
1
 62
     7
 10
209.9112128613362
 20
222.59532920122129
 30
0.0
 70
    32
  0
VERTEX
  5
1AA0D
  8
1
 62
     7
 10
209.9152128613361
 20
222.59332920122091
 30
0.0
 70
    32
  0
VERTEX
  5
1AA0E
  8
1
 62
     7
 10
209.91921286133601
 20
222.59132920122099
 30
0.0
 70
    32
  0
VERTEX
  5
1AA0F
  8
1
 62
     7
 10
209.92321286133591
 20
222.58932920122101
 30
0.0
 70
    32
  0
VERTEX
  5
1AA10
  8
1
 62
     7
 10
209.9272128613363
 20
222.5883292012208
 30
0.0
 70
    32
  0
VERTEX
  5
1AA11
  8
1
 62
     7
 10
209.930212861336
 20
222.5863292012213
 30
0.0
 70
    32
  0
VERTEX
  5
1AA12
  8
1
 62
     7
 10
209.93421286133591
 20
222.5843292012209
 30
0.0
 70
    32
  0
VERTEX
  5
1AA13
  8
1
 62
     7
 10
209.93821286133581
 20
222.5823292012214
 30
0.0
 70
    32
  0
VERTEX
  5
1AA14
  8
1
 62
     7
 10
209.94221286133569
 20
222.58132920122119
 30
0.0
 70
    32
  0
VERTEX
  5
1AA15
  8
1
 62
     7
 10
209.94621286133611
 20
222.57932920122121
 30
0.0
 70
    32
  0
VERTEX
  5
1AA16
  8
1
 62
     7
 10
209.95021286133601
 20
222.57732920122129
 30
0.0
 70
    32
  0
VERTEX
  5
1AA17
  8
1
 62
     7
 10
209.95421286133589
 20
222.57632920122111
 30
0.0
 70
    32
  0
VERTEX
  5
1AA18
  8
1
 62
     7
 10
209.95821286133619
 20
222.57432920122071
 30
0.0
 70
    32
  0
VERTEX
  5
1AA19
  8
1
 62
     7
 10
209.9622128613357
 20
222.5723292012207
 30
0.0
 70
    32
  0
VERTEX
  5
1AA1A
  8
1
 62
     7
 10
209.96621286133561
 20
222.571329201221
 30
0.0
 70
    32
  0
VERTEX
  5
1AA1B
  8
1
 62
     7
 10
209.97021286133551
 20
222.569329201221
 30
0.0
 70
    32
  0
VERTEX
  5
1AA1C
  8
1
 62
     7
 10
209.9742128613359
 20
222.5683292012213
 30
0.0
 70
    32
  0
VERTEX
  5
1AA1D
  8
1
 62
     7
 10
209.9782128613362
 20
222.5663292012209
 30
0.0
 70
    32
  0
VERTEX
  5
1AA1E
  8
1
 62
     7
 10
209.98221286133611
 20
222.56532920122109
 30
0.0
 70
    32
  0
VERTEX
  5
1AA1F
  8
1
 62
     7
 10
209.98621286133601
 20
222.56332920122111
 30
0.0
 70
    32
  0
VERTEX
  5
1AA20
  8
1
 62
     7
 10
209.990212861336
 20
222.56232920122099
 30
0.0
 70
    32
  0
VERTEX
  5
1AA21
  8
1
 62
     7
 10
209.9942128613354
 20
222.56132920122079
 30
0.0
 70
    32
  0
VERTEX
  5
1AA22
  8
1
 62
     7
 10
209.9982128613357
 20
222.55932920122129
 30
0.0
 70
    32
  0
VERTEX
  5
1AA23
  8
1
 62
     7
 10
210.00221286133561
 20
222.55832920122111
 30
0.0
 70
    32
  0
VERTEX
  5
1AA24
  8
1
 62
     7
 10
210.006212861336
 20
222.5573292012208
 30
0.0
 70
    32
  0
VERTEX
  5
1AA25
  8
1
 62
     7
 10
210.0102128613359
 20
222.55532920122141
 30
0.0
 70
    32
  0
VERTEX
  5
1AA26
  8
1
 62
     7
 10
210.01421286133629
 20
222.5543292012207
 30
0.0
 70
    32
  0
VERTEX
  5
1AA27
  8
1
 62
     7
 10
210.01821286133611
 20
222.55332920122089
 30
0.0
 70
    32
  0
VERTEX
  5
1AA28
  8
1
 62
     7
 10
210.0232128613363
 20
222.5523292012212
 30
0.0
 70
    32
  0
VERTEX
  5
1AA29
  8
1
 62
     7
 10
210.02721286133581
 20
222.55132920122099
 30
0.0
 70
    32
  0
VERTEX
  5
1AA2A
  8
1
 62
     7
 10
210.03121286133609
 20
222.5493292012211
 30
0.0
 70
    32
  0
VERTEX
  5
1AA2B
  8
1
 62
     7
 10
210.03521286133599
 20
222.54832920122081
 30
0.0
 70
    32
  0
VERTEX
  5
1AA2C
  8
1
 62
     7
 10
210.0392128613355
 20
222.54732920122109
 30
0.0
 70
    32
  0
VERTEX
  5
1AA2D
  8
1
 62
     7
 10
210.0432128613358
 20
222.54632920122131
 30
0.0
 70
    32
  0
VERTEX
  5
1AA2E
  8
1
 62
     7
 10
210.04721286133571
 20
222.54532920122071
 30
0.0
 70
    32
  0
VERTEX
  5
1AA2F
  8
1
 62
     7
 10
210.0512128613361
 20
222.5443292012209
 30
0.0
 70
    32
  0
VERTEX
  5
1AA30
  8
1
 62
     7
 10
210.05621286133569
 20
222.5433292012207
 30
0.0
 70
    32
  0
VERTEX
  5
1AA31
  8
1
 62
     7
 10
210.06021286133611
 20
222.54232920122101
 30
0.0
 70
    32
  0
VERTEX
  5
1AA32
  8
1
 62
     7
 10
210.06421286133599
 20
222.5413292012212
 30
0.0
 70
    32
  0
VERTEX
  5
1AA33
  8
1
 62
     7
 10
210.06821286133589
 20
222.540329201221
 30
0.0
 70
    32
  0
VERTEX
  5
1AA34
  8
1
 62
     7
 10
210.0722128613358
 20
222.5393292012208
 30
0.0
 70
    32
  0
VERTEX
  5
1AA35
  8
1
 62
     7
 10
210.0762128613357
 20
222.5383292012211
 30
0.0
 70
    32
  0
VERTEX
  5
1AA36
  8
1
 62
     7
 10
210.0812128613363
 20
222.5383292012211
 30
0.0
 70
    32
  0
VERTEX
  5
1AA37
  8
1
 62
     7
 10
210.0852128613362
 20
222.5373292012213
 30
0.0
 70
    32
  0
VERTEX
  5
1AA38
  8
1
 62
     7
 10
210.0892128613356
 20
222.53632920122109
 30
0.0
 70
    32
  0
VERTEX
  5
1AA39
  8
1
 62
     7
 10
210.09321286133601
 20
222.53532920122089
 30
0.0
 70
    32
  0
VERTEX
  5
1AA3A
  8
1
 62
     7
 10
210.09721286133589
 20
222.53432920122069
 30
0.0
 70
    32
  0
VERTEX
  5
1AA3B
  8
1
 62
     7
 10
210.1022128613356
 20
222.53432920122069
 30
0.0
 70
    32
  0
VERTEX
  5
1AA3C
  8
1
 62
     7
 10
210.10621286133591
 20
222.53332920122091
 30
0.0
 70
    32
  0
VERTEX
  5
1AA3D
  8
1
 62
     7
 10
210.11021286133581
 20
222.53232920122119
 30
0.0
 70
    32
  0
VERTEX
  5
1AA3E
  8
1
 62
     7
 10
210.1142128613362
 20
222.53232920122119
 30
0.0
 70
    32
  0
VERTEX
  5
1AA3F
  8
1
 62
     7
 10
210.1192128613358
 20
222.53132920122101
 30
0.0
 70
    32
  0
VERTEX
  5
1AA40
  8
1
 62
     7
 10
210.1232128613359
 20
222.53032920122081
 30
0.0
 70
    32
  0
VERTEX
  5
1AA41
  8
1
 62
     7
 10
210.12721286133609
 20
222.53032920122081
 30
0.0
 70
    32
  0
VERTEX
  5
1AA42
  8
1
 62
     7
 10
210.131212861336
 20
222.52932920122109
 30
0.0
 70
    32
  0
VERTEX
  5
1AA43
  8
1
 62
     7
 10
210.13621286133611
 20
222.52932920122109
 30
0.0
 70
    32
  0
VERTEX
  5
1AA44
  8
1
 62
     7
 10
210.1402128613361
 20
222.52832920122131
 30
0.0
 70
    32
  0
VERTEX
  5
1AA45
  8
1
 62
     7
 10
210.14421286133589
 20
222.52832920122131
 30
0.0
 70
    32
  0
VERTEX
  5
1AA46
  8
1
 62
     7
 10
210.14821286133579
 20
222.52732920122111
 30
0.0
 70
    32
  0
VERTEX
  5
1AA47
  8
1
 62
     7
 10
210.15321286133599
 20
222.52732920122111
 30
0.0
 70
    32
  0
VERTEX
  5
1AA48
  8
1
 62
     7
 10
210.15721286133541
 20
222.52732920122111
 30
0.0
 70
    32
  0
VERTEX
  5
1AA49
  8
1
 62
     7
 10
210.16121286133571
 20
222.5263292012209
 30
0.0
 70
    32
  0
VERTEX
  5
1AA4A
  8
1
 62
     7
 10
210.1652128613357
 20
222.5263292012209
 30
0.0
 70
    32
  0
VERTEX
  5
1AA4B
  8
1
 62
     7
 10
210.1702128613359
 20
222.5263292012209
 30
0.0
 70
    32
  0
VERTEX
  5
1AA4C
  8
1
 62
     7
 10
210.17421286133569
 20
222.5263292012209
 30
0.0
 70
    32
  0
VERTEX
  5
1AA4D
  8
1
 62
     7
 10
210.17821286133599
 20
222.52532920122121
 30
0.0
 70
    32
  0
VERTEX
  5
1AA4E
  8
1
 62
     7
 10
210.1822128613359
 20
222.52532920122121
 30
0.0
 70
    32
  0
VERTEX
  5
1AA4F
  8
1
 62
     7
 10
210.18721286133609
 20
222.52532920122121
 30
0.0
 70
    32
  0
VERTEX
  5
1AA50
  8
1
 62
     7
 10
210.19121286133591
 20
222.52532920122121
 30
0.0
 70
    32
  0
VERTEX
  5
1AA51
  8
1
 62
     7
 10
210.1952128613359
 20
222.52532920122121
 30
0.0
 70
    32
  0
VERTEX
  5
1AA52
  8
1
 62
     7
 10
210.20021286133601
 20
222.52532920122121
 30
0.0
 70
    32
  0
VERTEX
  5
1AA53
  8
1
 62
     7
 10
210.20421286133589
 20
222.52532920122121
 30
0.0
 70
    32
  0
VERTEX
  5
1AA54
  8
1
 62
     7
 10
210.2082128613358
 20
222.52532920122121
 30
0.0
 70
    32
  0
VERTEX
  5
1AA55
  8
1
 62
     7
 10
210.21221286133621
 20
222.52532920122121
 30
0.0
 70
    32
  0
VERTEX
  5
1AA56
  8
1
 62
     7
 10
210.2172128613359
 20
222.52532920122121
 30
0.0
 70
    32
  0
VERTEX
  5
1AA57
  8
1
 62
     7
 10
210.2212128613362
 20
222.5263292012209
 30
0.0
 70
    32
  0
VERTEX
  5
1AA58
  8
1
 62
     7
 10
210.2252128613361
 20
222.5263292012209
 30
0.0
 70
    32
  0
VERTEX
  5
1AA59
  8
1
 62
     7
 10
210.2292128613355
 20
222.5263292012209
 30
0.0
 70
    32
  0
VERTEX
  5
1AA5A
  8
1
 62
     7
 10
210.23421286133569
 20
222.5263292012209
 30
0.0
 70
    32
  0
VERTEX
  5
1AA5B
  8
1
 62
     7
 10
210.238212861336
 20
222.52732920122111
 30
0.0
 70
    32
  0
VERTEX
  5
1AA5C
  8
1
 62
     7
 10
210.2422128613359
 20
222.52732920122111
 30
0.0
 70
    32
  0
VERTEX
  5
1AA5D
  8
1
 62
     7
 10
210.24621286133581
 20
222.52732920122111
 30
0.0
 70
    32
  0
VERTEX
  5
1AA5E
  8
1
 62
     7
 10
210.25121286133589
 20
222.52832920122131
 30
0.0
 70
    32
  0
VERTEX
  5
1AA5F
  8
1
 62
     7
 10
210.25521286133579
 20
222.52832920122131
 30
0.0
 70
    32
  0
VERTEX
  5
1AA60
  8
1
 62
     7
 10
210.2592128613357
 20
222.52832920122131
 30
0.0
 70
    32
  0
VERTEX
  5
1AA61
  8
1
 62
     7
 10
210.26321286133609
 20
222.52932920122109
 30
0.0
 70
    32
  0
VERTEX
  5
1AA62
  8
1
 62
     7
 10
210.2682128613362
 20
222.52932920122109
 30
0.0
 70
    32
  0
VERTEX
  5
1AA63
  8
1
 62
     7
 10
210.2722128613361
 20
222.53032920122081
 30
0.0
 70
    32
  0
VERTEX
  5
1AA64
  8
1
 62
     7
 10
210.27621286133601
 20
222.53032920122081
 30
0.0
 70
    32
  0
VERTEX
  5
1AA65
  8
1
 62
     7
 10
210.28021286133591
 20
222.53132920122101
 30
0.0
 70
    32
  0
VERTEX
  5
1AA66
  8
1
 62
     7
 10
210.28521286133599
 20
222.53132920122101
 30
0.0
 70
    32
  0
VERTEX
  5
1AA67
  8
1
 62
     7
 10
210.2892128613359
 20
222.53232920122119
 30
0.0
 70
    32
  0
VERTEX
  5
1AA68
  8
1
 62
     7
 10
210.2932128613358
 20
222.53232920122119
 30
0.0
 70
    32
  0
VERTEX
  5
1AA69
  8
1
 62
     7
 10
210.29721286133579
 20
222.53332920122091
 30
0.0
 70
    32
  0
VERTEX
  5
1AA6A
  8
1
 62
     7
 10
210.30221286133579
 20
222.53332920122091
 30
0.0
 70
    32
  0
VERTEX
  5
1AA6B
  8
1
 62
     7
 10
210.30621286133589
 20
222.53432920122069
 30
0.0
 70
    32
  0
VERTEX
  5
1AA6C
  8
1
 62
     7
 10
210.31021286133571
 20
222.53432920122069
 30
0.0
 70
    32
  0
VERTEX
  5
1AA6D
  8
1
 62
     7
 10
210.31421286133599
 20
222.53532920122089
 30
0.0
 70
    32
  0
SEQEND
  5
1AA6E
  8
1
 62
     7
  0
LINE
  5
1AA6F
  8
1
  6
CONTINUOUS
 62
     7
 10
207.504627664379
 20
235.52537626629459
 30
0.0
 11
198.68462766437841
 21
234.0603762662949
 31
0.0
  0
LINE
  5
1AA70
  8
1
  6
CONTINUOUS
 62
     7
 10
227.0846276643785
 20
235.52537626629501
 30
0.0
 11
227.0846276643785
 21
236.33667357027429
 31
0.0
  0
LINE
  5
1AA71
  8
1
  6
CONTINUOUS
 62
     7
 10
238.08462766437901
 20
236.14466703951209
 30
0.0
 11
238.08462766437901
 21
235.52537626629501
 31
0.0
  0
LINE
  5
1AA72
  8
1
  6
CONTINUOUS
 62
     7
 10
257.66462766437888
 20
235.52537626629459
 30
0.0
 11
266.48462766437819
 21
234.0603762662949
 31
0.0
  0
LINE
  5
1AA73
  8
1
  6
CONTINUOUS
 62
     7
 10
256.21477918339571
 20
235.52537626629459
 30
0.0
 11
256.21477918339571
 21
225.02537626629501
 31
0.0
  0
POLYLINE
  5
1AA74
  8
1
 62
     7
 66
     1
 10
0.0
 20
0.0
 30
0.0
 70
     8
  0
VERTEX
  5
1AA75
  8
1
 62
     7
 10
255.07481286133611
 20
222.53532920122089
 30
0.0
 70
    32
  0
VERTEX
  5
1AA76
  8
1
 62
     7
 10
255.079012861336
 20
222.53632920122109
 30
0.0
 70
    32
  0
VERTEX
  5
1AA77
  8
1
 62
     7
 10
255.08331286133549
 20
222.5373292012213
 30
0.0
 70
    32
  0
VERTEX
  5
1AA78
  8
1
 62
     7
 10
255.08751286133591
 20
222.5383292012211
 30
0.0
 70
    32
  0
VERTEX
  5
1AA79
  8
1
 62
     7
 10
255.0918128613354
 20
222.5393292012208
 30
0.0
 70
    32
  0
VERTEX
  5
1AA7A
  8
1
 62
     7
 10
255.09601286133619
 20
222.540329201221
 30
0.0
 70
    32
  0
VERTEX
  5
1AA7B
  8
1
 62
     7
 10
255.10031286133579
 20
222.5413292012212
 30
0.0
 70
    32
  0
VERTEX
  5
1AA7C
  8
1
 62
     7
 10
255.10451286133571
 20
222.54232920122101
 30
0.0
 70
    32
  0
VERTEX
  5
1AA7D
  8
1
 62
     7
 10
255.10871286133599
 20
222.5433292012207
 30
0.0
 70
    32
  0
VERTEX
  5
1AA7E
  8
1
 62
     7
 10
255.11301286133559
 20
222.5443292012209
 30
0.0
 70
    32
  0
VERTEX
  5
1AA7F
  8
1
 62
     7
 10
255.1172128613359
 20
222.54532920122071
 30
0.0
 70
    32
  0
VERTEX
  5
1AA80
  8
1
 62
     7
 10
255.12141286133581
 20
222.54632920122131
 30
0.0
 70
    32
  0
VERTEX
  5
1AA81
  8
1
 62
     7
 10
255.12571286133581
 20
222.54732920122109
 30
0.0
 70
    32
  0
VERTEX
  5
1AA82
  8
1
 62
     7
 10
255.12991286133609
 20
222.54832920122081
 30
0.0
 70
    32
  0
VERTEX
  5
1AA83
  8
1
 62
     7
 10
255.1341128613355
 20
222.5493292012211
 30
0.0
 70
    32
  0
VERTEX
  5
1AA84
  8
1
 62
     7
 10
255.13831286133589
 20
222.55032920122119
 30
0.0
 70
    32
  0
VERTEX
  5
1AA85
  8
1
 62
     7
 10
255.14251286133609
 20
222.55132920122099
 30
0.0
 70
    32
  0
VERTEX
  5
1AA86
  8
1
 62
     7
 10
255.146712861336
 20
222.55332920122089
 30
0.0
 70
    32
  0
VERTEX
  5
1AA87
  8
1
 62
     7
 10
255.1509128613354
 20
222.5543292012207
 30
0.0
 70
    32
  0
VERTEX
  5
1AA88
  8
1
 62
     7
 10
255.15501286133599
 20
222.55532920122141
 30
0.0
 70
    32
  0
VERTEX
  5
1AA89
  8
1
 62
     7
 10
255.1592128613363
 20
222.5563292012211
 30
0.0
 70
    32
  0
VERTEX
  5
1AA8A
  8
1
 62
     7
 10
255.1634128613357
 20
222.5573292012208
 30
0.0
 70
    32
  0
VERTEX
  5
1AA8B
  8
1
 62
     7
 10
255.1675128613353
 20
222.55932920122129
 30
0.0
 70
    32
  0
VERTEX
  5
1AA8C
  8
1
 62
     7
 10
255.17171286133609
 20
222.56032920122101
 30
0.0
 70
    32
  0
VERTEX
  5
1AA8D
  8
1
 62
     7
 10
255.1758128613362
 20
222.56132920122079
 30
0.0
 70
    32
  0
VERTEX
  5
1AA8E
  8
1
 62
     7
 10
255.17991286133591
 20
222.56332920122111
 30
0.0
 70
    32
  0
VERTEX
  5
1AA8F
  8
1
 62
     7
 10
255.18401286133599
 20
222.5643292012214
 30
0.0
 70
    32
  0
VERTEX
  5
1AA90
  8
1
 62
     7
 10
255.1882128613359
 20
222.56532920122109
 30
0.0
 70
    32
  0
VERTEX
  5
1AA91
  8
1
 62
     7
 10
255.1922128613362
 20
222.5673292012211
 30
0.0
 70
    32
  0
VERTEX
  5
1AA92
  8
1
 62
     7
 10
255.1963128613354
 20
222.5683292012213
 30
0.0
 70
    32
  0
VERTEX
  5
1AA93
  8
1
 62
     7
 10
255.20041286133591
 20
222.5703292012208
 30
0.0
 70
    32
  0
VERTEX
  5
1AA94
  8
1
 62
     7
 10
255.20451286133601
 20
222.571329201221
 30
0.0
 70
    32
  0
VERTEX
  5
1AA95
  8
1
 62
     7
 10
255.20851286133549
 20
222.57332920122141
 30
0.0
 70
    32
  0
VERTEX
  5
1AA96
  8
1
 62
     7
 10
255.21261286133611
 20
222.57432920122071
 30
0.0
 70
    32
  0
VERTEX
  5
1AA97
  8
1
 62
     7
 10
255.21661286133551
 20
222.57632920122111
 30
0.0
 70
    32
  0
VERTEX
  5
1AA98
  8
1
 62
     7
 10
255.22061286133589
 20
222.57832920122101
 30
0.0
 70
    32
  0
VERTEX
  5
1AA99
  8
1
 62
     7
 10
255.22461286133611
 20
222.57932920122121
 30
0.0
 70
    32
  0
VERTEX
  5
1AA9A
  8
1
 62
     7
 10
255.2286128613361
 20
222.58132920122119
 30
0.0
 70
    32
  0
VERTEX
  5
1AA9B
  8
1
 62
     7
 10
255.23261286133601
 20
222.58332920122109
 30
0.0
 70
    32
  0
VERTEX
  5
1AA9C
  8
1
 62
     7
 10
255.236612861336
 20
222.5853292012211
 30
0.0
 70
    32
  0
VERTEX
  5
1AA9D
  8
1
 62
     7
 10
255.2405128613361
 20
222.5863292012213
 30
0.0
 70
    32
  0
VERTEX
  5
1AA9E
  8
1
 62
     7
 10
255.24451286133601
 20
222.5883292012208
 30
0.0
 70
    32
  0
VERTEX
  5
1AA9F
  8
1
 62
     7
 10
255.24841286133571
 20
222.59032920122121
 30
0.0
 70
    32
  0
VERTEX
  5
1AAA0
  8
1
 62
     7
 10
255.2524128613361
 20
222.59232920122119
 30
0.0
 70
    32
  0
VERTEX
  5
1AAA1
  8
1
 62
     7
 10
255.2563128613362
 20
222.59432920122109
 30
0.0
 70
    32
  0
VERTEX
  5
1AAA2
  8
1
 62
     7
 10
255.2602128613359
 20
222.59632920122101
 30
0.0
 70
    32
  0
VERTEX
  5
1AAA3
  8
1
 62
     7
 10
255.26411286133609
 20
222.59832920122099
 30
0.0
 70
    32
  0
VERTEX
  5
1AAA4
  8
1
 62
     7
 10
255.26801286133579
 20
222.600329201221
 30
0.0
 70
    32
  0
VERTEX
  5
1AAA5
  8
1
 62
     7
 10
255.27191286133601
 20
222.6023292012209
 30
0.0
 70
    32
  0
VERTEX
  5
1AAA6
  8
1
 62
     7
 10
255.27581286133611
 20
222.6043292012213
 30
0.0
 70
    32
  0
VERTEX
  5
1AAA7
  8
1
 62
     7
 10
255.27961286133609
 20
222.6063292012208
 30
0.0
 70
    32
  0
VERTEX
  5
1AAA8
  8
1
 62
     7
 10
255.28351286133619
 20
222.60832920122081
 30
0.0
 70
    32
  0
VERTEX
  5
1AAA9
  8
1
 62
     7
 10
255.28731286133569
 20
222.61032920122071
 30
0.0
 70
    32
  0
VERTEX
  5
1AAAA
  8
1
 62
     7
 10
255.2911128613361
 20
222.61232920122069
 30
0.0
 70
    32
  0
VERTEX
  5
1AAAB
  8
1
 62
     7
 10
255.29501286133581
 20
222.6143292012211
 30
0.0
 70
    32
  0
VERTEX
  5
1AAAC
  8
1
 62
     7
 10
255.2988128613363
 20
222.61632920122099
 30
0.0
 70
    32
  0
VERTEX
  5
1AAAD
  8
1
 62
     7
 10
255.30261286133569
 20
222.618329201221
 30
0.0
 70
    32
  0
VERTEX
  5
1AAAE
  8
1
 62
     7
 10
255.3063128613359
 20
222.6203292012209
 30
0.0
 70
    32
  0
VERTEX
  5
1AAAF
  8
1
 62
     7
 10
255.31011286133591
 20
222.62232920122139
 30
0.0
 70
    32
  0
VERTEX
  5
1AAB0
  8
1
 62
     7
 10
255.31391286133541
 20
222.62532920122109
 30
0.0
 70
    32
  0
VERTEX
  5
1AAB1
  8
1
 62
     7
 10
255.3176128613361
 20
222.62732920122099
 30
0.0
 70
    32
  0
VERTEX
  5
1AAB2
  8
1
 62
     7
 10
255.3214128613356
 20
222.629329201221
 30
0.0
 70
    32
  0
VERTEX
  5
1AAB3
  8
1
 62
     7
 10
255.3251128613359
 20
222.6313292012214
 30
0.0
 70
    32
  0
VERTEX
  5
1AAB4
  8
1
 62
     7
 10
255.32881286133599
 20
222.63432920122111
 30
0.0
 70
    32
  0
VERTEX
  5
1AAB5
  8
1
 62
     7
 10
255.332612861336
 20
222.636329201221
 30
0.0
 70
    32
  0
VERTEX
  5
1AAB6
  8
1
 62
     7
 10
255.33631286133621
 20
222.63832920122101
 30
0.0
 70
    32
  0
VERTEX
  5
1AAB7
  8
1
 62
     7
 10
255.3399128613357
 20
222.64032920122091
 30
0.0
 70
    32
  0
VERTEX
  5
1AAB8
  8
1
 62
     7
 10
255.34361286133549
 20
222.64332920122109
 30
0.0
 70
    32
  0
VERTEX
  5
1AAB9
  8
1
 62
     7
 10
255.34731286133609
 20
222.6453292012211
 30
0.0
 70
    32
  0
VERTEX
  5
1AABA
  8
1
 62
     7
 10
255.3509128613361
 20
222.647329201221
 30
0.0
 70
    32
  0
VERTEX
  5
1AABB
  8
1
 62
     7
 10
255.35461286133591
 20
222.6503292012207
 30
0.0
 70
    32
  0
VERTEX
  5
1AABC
  8
1
 62
     7
 10
255.35821286133589
 20
222.65232920122111
 30
0.0
 70
    32
  0
VERTEX
  5
1AABD
  8
1
 62
     7
 10
255.36191286133609
 20
222.65532920122081
 30
0.0
 70
    32
  0
VERTEX
  5
1AABE
  8
1
 62
     7
 10
255.3655128613361
 20
222.65732920122119
 30
0.0
 70
    32
  0
VERTEX
  5
1AABF
  8
1
 62
     7
 10
255.36911286133611
 20
222.6593292012212
 30
0.0
 70
    32
  0
VERTEX
  5
1AAC0
  8
1
 62
     7
 10
255.37271286133611
 20
222.6623292012209
 30
0.0
 70
    32
  0
VERTEX
  5
1AAC1
  8
1
 62
     7
 10
255.37621286133589
 20
222.6643292012208
 30
0.0
 70
    32
  0
VERTEX
  5
1AAC2
  8
1
 62
     7
 10
255.37981286133589
 20
222.66732920122101
 30
0.0
 70
    32
  0
VERTEX
  5
1AAC3
  8
1
 62
     7
 10
255.3834128613359
 20
222.66932920122099
 30
0.0
 70
    32
  0
VERTEX
  5
1AAC4
  8
1
 62
     7
 10
255.3869128613357
 20
222.67232920122109
 30
0.0
 70
    32
  0
VERTEX
  5
1AAC5
  8
1
 62
     7
 10
255.39041286133551
 20
222.67432920122101
 30
0.0
 70
    32
  0
VERTEX
  5
1AAC6
  8
1
 62
     7
 10
255.39391286133579
 20
222.67732920122069
 30
0.0
 70
    32
  0
VERTEX
  5
1AAC7
  8
1
 62
     7
 10
255.3975128613358
 20
222.6803292012209
 30
0.0
 70
    32
  0
VERTEX
  5
1AAC8
  8
1
 62
     7
 10
255.4009128613358
 20
222.68232920122091
 30
0.0
 70
    32
  0
VERTEX
  5
1AAC9
  8
1
 62
     7
 10
255.40441286133611
 20
222.68532920122101
 30
0.0
 70
    32
  0
VERTEX
  5
1AACA
  8
1
 62
     7
 10
255.40791286133549
 20
222.68732920122139
 30
0.0
 70
    32
  0
VERTEX
  5
1AACB
  8
1
 62
     7
 10
255.4114128613362
 20
222.69032920122109
 30
0.0
 70
    32
  0
VERTEX
  5
1AACC
  8
1
 62
     7
 10
255.4148128613362
 20
222.69332920122079
 30
0.0
 70
    32
  0
VERTEX
  5
1AACD
  8
1
 62
     7
 10
255.41831286133561
 20
222.6953292012208
 30
0.0
 70
    32
  0
VERTEX
  5
1AACE
  8
1
 62
     7
 10
255.4217128613366
 20
222.69832920122141
 30
0.0
 70
    32
  0
VERTEX
  5
1AACF
  8
1
 62
     7
 10
255.42511286133569
 20
222.70132920122111
 30
0.0
 70
    32
  0
VERTEX
  5
1AAD0
  8
1
 62
     7
 10
255.42851286133569
 20
222.70332920122101
 30
0.0
 70
    32
  0
VERTEX
  5
1AAD1
  8
1
 62
     7
 10
255.43191286133629
 20
222.70632920122119
 30
0.0
 70
    32
  0
VERTEX
  5
1AAD2
  8
1
 62
     7
 10
255.4353128613358
 20
222.7093292012209
 30
0.0
 70
    32
  0
VERTEX
  5
1AAD3
  8
1
 62
     7
 10
255.43861286133571
 20
222.71232920122111
 30
0.0
 70
    32
  0
VERTEX
  5
1AAD4
  8
1
 62
     7
 10
255.4420128613358
 20
222.71432920122101
 30
0.0
 70
    32
  0
VERTEX
  5
1AAD5
  8
1
 62
     7
 10
255.44531286133559
 20
222.71732920122071
 30
0.0
 70
    32
  0
VERTEX
  5
1AAD6
  8
1
 62
     7
 10
255.44871286133611
 20
222.72032920122089
 30
0.0
 70
    32
  0
VERTEX
  5
1AAD7
  8
1
 62
     7
 10
255.45201286133599
 20
222.72332920122099
 30
0.0
 70
    32
  0
VERTEX
  5
1AAD8
  8
1
 62
     7
 10
255.45531286133581
 20
222.725329201221
 30
0.0
 70
    32
  0
VERTEX
  5
1AAD9
  8
1
 62
     7
 10
255.45861286133621
 20
222.7283292012211
 30
0.0
 70
    32
  0
VERTEX
  5
1AADA
  8
1
 62
     7
 10
255.461912861336
 20
222.7313292012208
 30
0.0
 70
    32
  0
VERTEX
  5
1AADB
  8
1
 62
     7
 10
255.4652128613354
 20
222.73432920122099
 30
0.0
 70
    32
  0
VERTEX
  5
1AADC
  8
1
 62
     7
 10
255.46851286133619
 20
222.73732920122109
 30
0.0
 70
    32
  0
VERTEX
  5
1AADD
  8
1
 62
     7
 10
255.4717128613363
 20
222.74032920122079
 30
0.0
 70
    32
  0
VERTEX
  5
1AADE
  8
1
 62
     7
 10
255.4750128613357
 20
222.743329201221
 30
0.0
 70
    32
  0
VERTEX
  5
1AADF
  8
1
 62
     7
 10
255.47821286133529
 20
222.7463292012211
 30
0.0
 70
    32
  0
VERTEX
  5
1AAE0
  8
1
 62
     7
 10
255.4814128613354
 20
222.74932920122089
 30
0.0
 70
    32
  0
VERTEX
  5
1AAE1
  8
1
 62
     7
 10
255.48461286133599
 20
222.7513292012213
 30
0.0
 70
    32
  0
VERTEX
  5
1AAE2
  8
1
 62
     7
 10
255.4878128613361
 20
222.7543292012214
 30
0.0
 70
    32
  0
VERTEX
  5
1AAE3
  8
1
 62
     7
 10
255.4910128613362
 20
222.7573292012211
 30
0.0
 70
    32
  0
VERTEX
  5
1AAE4
  8
1
 62
     7
 10
255.49421286133591
 20
222.76032920122131
 30
0.0
 70
    32
  0
VERTEX
  5
1AAE5
  8
1
 62
     7
 10
255.49741286133599
 20
222.76332920122101
 30
0.0
 70
    32
  0
VERTEX
  5
1AAE6
  8
1
 62
     7
 10
255.50051286133589
 20
222.76632920122071
 30
0.0
 70
    32
  0
VERTEX
  5
1AAE7
  8
1
 62
     7
 10
255.5037128613364
 20
222.7693292012209
 30
0.0
 70
    32
  0
VERTEX
  5
1AAE8
  8
1
 62
     7
 10
255.5068128613359
 20
222.772329201221
 30
0.0
 70
    32
  0
VERTEX
  5
1AAE9
  8
1
 62
     7
 10
255.50991286133581
 20
222.7753292012207
 30
0.0
 70
    32
  0
VERTEX
  5
1AAEA
  8
1
 62
     7
 10
255.51311286133591
 20
222.77832920122131
 30
0.0
 70
    32
  0
VERTEX
  5
1AAEB
  8
1
 62
     7
 10
255.51621286133619
 20
222.78132920122101
 30
0.0
 70
    32
  0
VERTEX
  5
1AAEC
  8
1
 62
     7
 10
255.51931286133569
 20
222.7843292012212
 30
0.0
 70
    32
  0
VERTEX
  5
1AAED
  8
1
 62
     7
 10
255.52231286133579
 20
222.7873292012213
 30
0.0
 70
    32
  0
VERTEX
  5
1AAEE
  8
1
 62
     7
 10
255.52541286133621
 20
222.7913292012212
 30
0.0
 70
    32
  0
VERTEX
  5
1AAEF
  8
1
 62
     7
 10
255.52851286133611
 20
222.7943292012209
 30
0.0
 70
    32
  0
VERTEX
  5
1AAF0
  8
1
 62
     7
 10
255.5315128613363
 20
222.79732920122109
 30
0.0
 70
    32
  0
VERTEX
  5
1AAF1
  8
1
 62
     7
 10
255.5346128613362
 20
222.80032920122119
 30
0.0
 70
    32
  0
VERTEX
  5
1AAF2
  8
1
 62
     7
 10
255.5376128613359
 20
222.80332920122089
 30
0.0
 70
    32
  0
VERTEX
  5
1AAF3
  8
1
 62
     7
 10
255.540612861336
 20
222.8063292012211
 30
0.0
 70
    32
  0
VERTEX
  5
1AAF4
  8
1
 62
     7
 10
255.54361286133579
 20
222.80932920122081
 30
0.0
 70
    32
  0
VERTEX
  5
1AAF5
  8
1
 62
     7
 10
255.54661286133589
 20
222.81232920122099
 30
0.0
 70
    32
  0
VERTEX
  5
1AAF6
  8
1
 62
     7
 10
255.5496128613361
 20
222.81632920122081
 30
0.0
 70
    32
  0
VERTEX
  5
1AAF7
  8
1
 62
     7
 10
255.5526128613362
 20
222.819329201221
 30
0.0
 70
    32
  0
VERTEX
  5
1AAF8
  8
1
 62
     7
 10
255.5556128613359
 20
222.82232920122121
 30
0.0
 70
    32
  0
VERTEX
  5
1AAF9
  8
1
 62
     7
 10
255.5585128613358
 20
222.82532920122091
 30
0.0
 70
    32
  0
VERTEX
  5
1AAFA
  8
1
 62
     7
 10
255.5615128613355
 20
222.82832920122109
 30
0.0
 70
    32
  0
VERTEX
  5
1AAFB
  8
1
 62
     7
 10
255.56441286133591
 20
222.83132920122119
 30
0.0
 70
    32
  0
VERTEX
  5
1AAFC
  8
1
 62
     7
 10
255.56741286133609
 20
222.8353292012211
 30
0.0
 70
    32
  0
VERTEX
  5
1AAFD
  8
1
 62
     7
 10
255.57031286133611
 20
222.8383292012208
 30
0.0
 70
    32
  0
VERTEX
  5
1AAFE
  8
1
 62
     7
 10
255.573212861336
 20
222.84132920122099
 30
0.0
 70
    32
  0
VERTEX
  5
1AAFF
  8
1
 62
     7
 10
255.57611286133599
 20
222.84432920122109
 30
0.0
 70
    32
  0
VERTEX
  5
1AB00
  8
1
 62
     7
 10
255.57901286133551
 20
222.84832920122099
 30
0.0
 70
    32
  0
VERTEX
  5
1AB01
  8
1
 62
     7
 10
255.58191286133589
 20
222.85132920122069
 30
0.0
 70
    32
  0
VERTEX
  5
1AB02
  8
1
 62
     7
 10
255.5847128613361
 20
222.8543292012213
 30
0.0
 70
    32
  0
VERTEX
  5
1AB03
  8
1
 62
     7
 10
255.5876128613356
 20
222.85732920122101
 30
0.0
 70
    32
  0
VERTEX
  5
1AB04
  8
1
 62
     7
 10
255.59041286133629
 20
222.86132920122091
 30
0.0
 70
    32
  0
VERTEX
  5
1AB05
  8
1
 62
     7
 10
255.59331286133579
 20
222.8643292012211
 30
0.0
 70
    32
  0
VERTEX
  5
1AB06
  8
1
 62
     7
 10
255.596112861336
 20
222.8673292012208
 30
0.0
 70
    32
  0
VERTEX
  5
1AB07
  8
1
 62
     7
 10
255.59891286133569
 20
222.87132920122119
 30
0.0
 70
    32
  0
VERTEX
  5
1AB08
  8
1
 62
     7
 10
255.6017128613359
 20
222.87432920122089
 30
0.0
 70
    32
  0
VERTEX
  5
1AB09
  8
1
 62
     7
 10
255.6045128613361
 20
222.87732920122099
 30
0.0
 70
    32
  0
VERTEX
  5
1AB0A
  8
1
 62
     7
 10
255.60731286133591
 20
222.8813292012214
 30
0.0
 70
    32
  0
VERTEX
  5
1AB0B
  8
1
 62
     7
 10
255.61011286133609
 20
222.88432920122111
 30
0.0
 70
    32
  0
VERTEX
  5
1AB0C
  8
1
 62
     7
 10
255.61291286133539
 20
222.88732920122121
 30
0.0
 70
    32
  0
VERTEX
  5
1AB0D
  8
1
 62
     7
 10
255.61561286133539
 20
222.8913292012212
 30
0.0
 70
    32
  0
VERTEX
  5
1AB0E
  8
1
 62
     7
 10
255.618412861336
 20
222.89432920122081
 30
0.0
 70
    32
  0
VERTEX
  5
1AB0F
  8
1
 62
     7
 10
255.62111286133609
 20
222.897329201221
 30
0.0
 70
    32
  0
VERTEX
  5
1AB10
  8
1
 62
     7
 10
255.62391286133629
 20
222.9013292012209
 30
0.0
 70
    32
  0
VERTEX
  5
1AB11
  8
1
 62
     7
 10
255.62661286133621
 20
222.90432920122109
 30
0.0
 70
    32
  0
VERTEX
  5
1AB12
  8
1
 62
     7
 10
255.6293128613363
 20
222.90832920122099
 30
0.0
 70
    32
  0
VERTEX
  5
1AB13
  8
1
 62
     7
 10
255.63201286133631
 20
222.91132920122109
 30
0.0
 70
    32
  0
VERTEX
  5
1AB14
  8
1
 62
     7
 10
255.6347128613358
 20
222.9143292012208
 30
0.0
 70
    32
  0
VERTEX
  5
1AB15
  8
1
 62
     7
 10
255.6374128613358
 20
222.91832920122121
 30
0.0
 70
    32
  0
VERTEX
  5
1AB16
  8
1
 62
     7
 10
255.64011286133581
 20
222.92132920122091
 30
0.0
 70
    32
  0
VERTEX
  5
1AB17
  8
1
 62
     7
 10
255.64271286133609
 20
222.9253292012213
 30
0.0
 70
    32
  0
VERTEX
  5
1AB18
  8
1
 62
     7
 10
255.6454128613361
 20
222.928329201221
 30
0.0
 70
    32
  0
VERTEX
  5
1AB19
  8
1
 62
     7
 10
255.6481128613361
 20
222.93232920122091
 30
0.0
 70
    32
  0
VERTEX
  5
1AB1A
  8
1
 62
     7
 10
255.65071286133539
 20
222.93532920122101
 30
0.0
 70
    32
  0
VERTEX
  5
1AB1B
  8
1
 62
     7
 10
255.65331286133571
 20
222.93832920122119
 30
0.0
 70
    32
  0
VERTEX
  5
1AB1C
  8
1
 62
     7
 10
255.65591286133591
 20
222.9423292012211
 30
0.0
 70
    32
  0
VERTEX
  5
1AB1D
  8
1
 62
     7
 10
255.658612861336
 20
222.9453292012208
 30
0.0
 70
    32
  0
VERTEX
  5
1AB1E
  8
1
 62
     7
 10
255.6612128613358
 20
222.9493292012211
 30
0.0
 70
    32
  0
VERTEX
  5
1AB1F
  8
1
 62
     7
 10
255.663812861336
 20
222.95232920122129
 30
0.0
 70
    32
  0
VERTEX
  5
1AB20
  8
1
 62
     7
 10
255.66631286133611
 20
222.95632920122119
 30
0.0
 70
    32
  0
VERTEX
  5
1AB21
  8
1
 62
     7
 10
255.66891286133591
 20
222.9593292012209
 30
0.0
 70
    32
  0
VERTEX
  5
1AB22
  8
1
 62
     7
 10
255.67151286133611
 20
222.9633292012208
 30
0.0
 70
    32
  0
VERTEX
  5
1AB23
  8
1
 62
     7
 10
255.67401286133619
 20
222.9663292012209
 30
0.0
 70
    32
  0
VERTEX
  5
1AB24
  8
1
 62
     7
 10
255.676612861336
 20
222.97032920122089
 30
0.0
 70
    32
  0
VERTEX
  5
1AB25
  8
1
 62
     7
 10
255.67911286133599
 20
222.97332920122099
 30
0.0
 70
    32
  0
VERTEX
  5
1AB26
  8
1
 62
     7
 10
255.68171286133591
 20
222.9773292012209
 30
0.0
 70
    32
  0
VERTEX
  5
1AB27
  8
1
 62
     7
 10
255.68421286133591
 20
222.98032920122111
 30
0.0
 70
    32
  0
VERTEX
  5
1AB28
  8
1
 62
     7
 10
255.68671286133591
 20
222.98432920122099
 30
0.0
 70
    32
  0
VERTEX
  5
1AB29
  8
1
 62
     7
 10
255.68921286133599
 20
222.98832920122089
 30
0.0
 70
    32
  0
VERTEX
  5
1AB2A
  8
1
 62
     7
 10
255.6917128613361
 20
222.99132920122111
 30
0.0
 70
    32
  0
VERTEX
  5
1AB2B
  8
1
 62
     7
 10
255.6942128613361
 20
222.99532920122101
 30
0.0
 70
    32
  0
VERTEX
  5
1AB2C
  8
1
 62
     7
 10
255.69671286133621
 20
222.99832920122111
 30
0.0
 70
    32
  0
VERTEX
  5
1AB2D
  8
1
 62
     7
 10
255.699112861336
 20
223.00232920122099
 30
0.0
 70
    32
  0
VERTEX
  5
1AB2E
  8
1
 62
     7
 10
255.70161286133609
 20
223.0053292012212
 30
0.0
 70
    32
  0
VERTEX
  5
1AB2F
  8
1
 62
     7
 10
255.70401286133591
 20
223.00932920122111
 30
0.0
 70
    32
  0
VERTEX
  5
1AB30
  8
1
 62
     7
 10
255.70651286133599
 20
223.01332920122101
 30
0.0
 70
    32
  0
VERTEX
  5
1AB31
  8
1
 62
     7
 10
255.7089128613359
 20
223.01632920122071
 30
0.0
 70
    32
  0
VERTEX
  5
1AB32
  8
1
 62
     7
 10
255.7113128613361
 20
223.02032920122099
 30
0.0
 70
    32
  0
VERTEX
  5
1AB33
  8
1
 62
     7
 10
255.71381286133561
 20
223.0233292012212
 30
0.0
 70
    32
  0
VERTEX
  5
1AB34
  8
1
 62
     7
 10
255.71621286133609
 20
223.02732920122111
 30
0.0
 70
    32
  0
VERTEX
  5
1AB35
  8
1
 62
     7
 10
255.71861286133549
 20
223.03132920122101
 30
0.0
 70
    32
  0
VERTEX
  5
1AB36
  8
1
 62
     7
 10
255.72101286133619
 20
223.03432920122069
 30
0.0
 70
    32
  0
VERTEX
  5
1AB37
  8
1
 62
     7
 10
255.7234128613361
 20
223.0383292012211
 30
0.0
 70
    32
  0
VERTEX
  5
1AB38
  8
1
 62
     7
 10
255.72571286133569
 20
223.04232920122101
 30
0.0
 70
    32
  0
VERTEX
  5
1AB39
  8
1
 62
     7
 10
255.7281128613356
 20
223.04532920122111
 30
0.0
 70
    32
  0
VERTEX
  5
1AB3A
  8
1
 62
     7
 10
255.73051286133591
 20
223.04932920122101
 30
0.0
 70
    32
  0
VERTEX
  5
1AB3B
  8
1
 62
     7
 10
255.73281286133599
 20
223.05332920122089
 30
0.0
 70
    32
  0
VERTEX
  5
1AB3C
  8
1
 62
     7
 10
255.73521286133581
 20
223.0563292012211
 30
0.0
 70
    32
  0
VERTEX
  5
1AB3D
  8
1
 62
     7
 10
255.73751286133589
 20
223.06032920122101
 30
0.0
 70
    32
  0
VERTEX
  5
1AB3E
  8
1
 62
     7
 10
255.73981286133599
 20
223.0643292012214
 30
0.0
 70
    32
  0
VERTEX
  5
1AB3F
  8
1
 62
     7
 10
255.7421128613357
 20
223.0673292012211
 30
0.0
 70
    32
  0
VERTEX
  5
1AB40
  8
1
 62
     7
 10
255.7444128613362
 20
223.071329201221
 30
0.0
 70
    32
  0
VERTEX
  5
1AB41
  8
1
 62
     7
 10
255.74681286133611
 20
223.07532920122091
 30
0.0
 70
    32
  0
VERTEX
  5
1AB42
  8
1
 62
     7
 10
255.7490128613365
 20
223.07832920122109
 30
0.0
 70
    32
  0
VERTEX
  5
1AB43
  8
1
 62
     7
 10
255.75131286133609
 20
223.0823292012214
 30
0.0
 70
    32
  0
VERTEX
  5
1AB44
  8
1
 62
     7
 10
255.75361286133611
 20
223.0863292012213
 30
0.0
 70
    32
  0
VERTEX
  5
1AB45
  8
1
 62
     7
 10
255.7559128613359
 20
223.08932920122101
 30
0.0
 70
    32
  0
VERTEX
  5
1AB46
  8
1
 62
     7
 10
255.75821286133549
 20
223.09332920122091
 30
0.0
 70
    32
  0
VERTEX
  5
1AB47
  8
1
 62
     7
 10
255.76041286133591
 20
223.09732920122079
 30
0.0
 70
    32
  0
VERTEX
  5
1AB48
  8
1
 62
     7
 10
255.76271286133601
 20
223.1013292012212
 30
0.0
 70
    32
  0
VERTEX
  5
1AB49
  8
1
 62
     7
 10
255.76491286133589
 20
223.1043292012213
 30
0.0
 70
    32
  0
VERTEX
  5
1AB4A
  8
1
 62
     7
 10
255.76711286133579
 20
223.1083292012213
 30
0.0
 70
    32
  0
VERTEX
  5
1AB4B
  8
1
 62
     7
 10
255.76941286133589
 20
223.11232920122109
 30
0.0
 70
    32
  0
VERTEX
  5
1AB4C
  8
1
 62
     7
 10
255.7716128613358
 20
223.1153292012213
 30
0.0
 70
    32
  0
VERTEX
  5
1AB4D
  8
1
 62
     7
 10
255.77381286133621
 20
223.11932920122069
 30
0.0
 70
    32
  0
VERTEX
  5
1AB4E
  8
1
 62
     7
 10
255.77601286133589
 20
223.12332920122111
 30
0.0
 70
    32
  0
VERTEX
  5
1AB4F
  8
1
 62
     7
 10
255.7782128613359
 20
223.12732920122099
 30
0.0
 70
    32
  0
VERTEX
  5
1AB50
  8
1
 62
     7
 10
255.78041286133541
 20
223.1303292012212
 30
0.0
 70
    32
  0
VERTEX
  5
1AB51
  8
1
 62
     7
 10
255.78251286133599
 20
223.13432920122111
 30
0.0
 70
    32
  0
VERTEX
  5
1AB52
  8
1
 62
     7
 10
255.78471286133589
 20
223.13832920122101
 30
0.0
 70
    32
  0
VERTEX
  5
1AB53
  8
1
 62
     7
 10
255.7869128613363
 20
223.14232920122089
 30
0.0
 70
    32
  0
VERTEX
  5
1AB54
  8
1
 62
     7
 10
255.789012861336
 20
223.14632920122079
 30
0.0
 70
    32
  0
VERTEX
  5
1AB55
  8
1
 62
     7
 10
255.7912128613354
 20
223.14932920122089
 30
0.0
 70
    32
  0
VERTEX
  5
1AB56
  8
1
 62
     7
 10
255.79331286133561
 20
223.15332920122131
 30
0.0
 70
    32
  0
VERTEX
  5
1AB57
  8
1
 62
     7
 10
255.79551286133591
 20
223.15732920122119
 30
0.0
 70
    32
  0
VERTEX
  5
1AB58
  8
1
 62
     7
 10
255.79761286133609
 20
223.16132920122109
 30
0.0
 70
    32
  0
VERTEX
  5
1AB59
  8
1
 62
     7
 10
255.79971286133579
 20
223.1643292012208
 30
0.0
 70
    32
  0
VERTEX
  5
1AB5A
  8
1
 62
     7
 10
255.801812861336
 20
223.1683292012207
 30
0.0
 70
    32
  0
VERTEX
  5
1AB5B
  8
1
 62
     7
 10
255.8039128613361
 20
223.17232920122109
 30
0.0
 70
    32
  0
VERTEX
  5
1AB5C
  8
1
 62
     7
 10
255.8060128613358
 20
223.17632920122099
 30
0.0
 70
    32
  0
VERTEX
  5
1AB5D
  8
1
 62
     7
 10
255.80811286133601
 20
223.18032920122141
 30
0.0
 70
    32
  0
VERTEX
  5
1AB5E
  8
1
 62
     7
 10
255.81021286133611
 20
223.18432920122129
 30
0.0
 70
    32
  0
VERTEX
  5
1AB5F
  8
1
 62
     7
 10
255.81231286133581
 20
223.18732920122099
 30
0.0
 70
    32
  0
VERTEX
  5
1AB60
  8
1
 62
     7
 10
255.81431286133579
 20
223.1913292012209
 30
0.0
 70
    32
  0
VERTEX
  5
1AB61
  8
1
 62
     7
 10
255.81641286133589
 20
223.1953292012208
 30
0.0
 70
    32
  0
VERTEX
  5
1AB62
  8
1
 62
     7
 10
255.8185128613361
 20
223.1993292012211
 30
0.0
 70
    32
  0
VERTEX
  5
1AB63
  8
1
 62
     7
 10
255.820512861336
 20
223.20332920122101
 30
0.0
 70
    32
  0
VERTEX
  5
1AB64
  8
1
 62
     7
 10
255.8226128613357
 20
223.20632920122119
 30
0.0
 70
    32
  0
VERTEX
  5
1AB65
  8
1
 62
     7
 10
255.82461286133571
 20
223.2103292012211
 30
0.0
 70
    32
  0
VERTEX
  5
1AB66
  8
1
 62
     7
 10
255.82661286133609
 20
223.21432920122101
 30
0.0
 70
    32
  0
VERTEX
  5
1AB67
  8
1
 62
     7
 10
255.82861286133601
 20
223.21832920122091
 30
0.0
 70
    32
  0
VERTEX
  5
1AB68
  8
1
 62
     7
 10
255.83061286133599
 20
223.22232920122079
 30
0.0
 70
    32
  0
VERTEX
  5
1AB69
  8
1
 62
     7
 10
255.83261286133549
 20
223.2263292012212
 30
0.0
 70
    32
  0
VERTEX
  5
1AB6A
  8
1
 62
     7
 10
255.8346128613359
 20
223.23032920122111
 30
0.0
 70
    32
  0
VERTEX
  5
1AB6B
  8
1
 62
     7
 10
255.83661286133579
 20
223.23332920122121
 30
0.0
 70
    32
  0
VERTEX
  5
1AB6C
  8
1
 62
     7
 10
255.8386128613358
 20
223.2373292012212
 30
0.0
 70
    32
  0
VERTEX
  5
1AB6D
  8
1
 62
     7
 10
255.84061286133621
 20
223.24132920122111
 30
0.0
 70
    32
  0
VERTEX
  5
1AB6E
  8
1
 62
     7
 10
255.84261286133619
 20
223.2453292012209
 30
0.0
 70
    32
  0
VERTEX
  5
1AB6F
  8
1
 62
     7
 10
255.84451286133589
 20
223.2493292012208
 30
0.0
 70
    32
  0
VERTEX
  5
1AB70
  8
1
 62
     7
 10
255.8465128613359
 20
223.25332920122079
 30
0.0
 70
    32
  0
VERTEX
  5
1AB71
  8
1
 62
     7
 10
255.8484128613361
 20
223.2573292012211
 30
0.0
 70
    32
  0
VERTEX
  5
1AB72
  8
1
 62
     7
 10
255.850412861336
 20
223.261329201221
 30
0.0
 70
    32
  0
VERTEX
  5
1AB73
  8
1
 62
     7
 10
255.8523128613358
 20
223.26532920122139
 30
0.0
 70
    32
  0
VERTEX
  5
1AB74
  8
1
 62
     7
 10
255.85421286133601
 20
223.26832920122109
 30
0.0
 70
    32
  0
VERTEX
  5
1AB75
  8
1
 62
     7
 10
255.85621286133591
 20
223.272329201221
 30
0.0
 70
    32
  0
VERTEX
  5
1AB76
  8
1
 62
     7
 10
255.85811286133611
 20
223.27632920122139
 30
0.0
 70
    32
  0
VERTEX
  5
1AB77
  8
1
 62
     7
 10
255.86001286133589
 20
223.28032920122081
 30
0.0
 70
    32
  0
VERTEX
  5
1AB78
  8
1
 62
     7
 10
255.86191286133609
 20
223.28432920122069
 30
0.0
 70
    32
  0
VERTEX
  5
1AB79
  8
1
 62
     7
 10
255.86381286133579
 20
223.2883292012211
 30
0.0
 70
    32
  0
VERTEX
  5
1AB7A
  8
1
 62
     7
 10
255.86571286133611
 20
223.29232920122101
 30
0.0
 70
    32
  0
VERTEX
  5
1AB7B
  8
1
 62
     7
 10
255.867512861336
 20
223.29632920122091
 30
0.0
 70
    32
  0
VERTEX
  5
1AB7C
  8
1
 62
     7
 10
255.8694128613358
 20
223.3003292012213
 30
0.0
 70
    32
  0
VERTEX
  5
1AB7D
  8
1
 62
     7
 10
255.87131286133601
 20
223.30432920122121
 30
0.0
 70
    32
  0
VERTEX
  5
1AB7E
  8
1
 62
     7
 10
255.87311286133601
 20
223.30832920122111
 30
0.0
 70
    32
  0
VERTEX
  5
1AB7F
  8
1
 62
     7
 10
255.87501286133619
 20
223.31132920122079
 30
0.0
 70
    32
  0
VERTEX
  5
1AB80
  8
1
 62
     7
 10
255.87681286133619
 20
223.31532920122109
 30
0.0
 70
    32
  0
VERTEX
  5
1AB81
  8
1
 62
     7
 10
255.878712861336
 20
223.319329201221
 30
0.0
 70
    32
  0
VERTEX
  5
1AB82
  8
1
 62
     7
 10
255.880512861336
 20
223.3233292012209
 30
0.0
 70
    32
  0
VERTEX
  5
1AB83
  8
1
 62
     7
 10
255.882312861336
 20
223.32732920122129
 30
0.0
 70
    32
  0
VERTEX
  5
1AB84
  8
1
 62
     7
 10
255.88421286133621
 20
223.33132920122119
 30
0.0
 70
    32
  0
VERTEX
  5
1AB85
  8
1
 62
     7
 10
255.8860128613357
 20
223.33532920122099
 30
0.0
 70
    32
  0
VERTEX
  5
1AB86
  8
1
 62
     7
 10
255.88781286133619
 20
223.33932920122101
 30
0.0
 70
    32
  0
VERTEX
  5
1AB87
  8
1
 62
     7
 10
255.88961286133619
 20
223.34332920122091
 30
0.0
 70
    32
  0
VERTEX
  5
1AB88
  8
1
 62
     7
 10
255.89141286133571
 20
223.34732920122079
 30
0.0
 70
    32
  0
VERTEX
  5
1AB89
  8
1
 62
     7
 10
255.89321286133571
 20
223.35132920122069
 30
0.0
 70
    32
  0
VERTEX
  5
1AB8A
  8
1
 62
     7
 10
255.894912861336
 20
223.35532920122111
 30
0.0
 70
    32
  0
VERTEX
  5
1AB8B
  8
1
 62
     7
 10
255.896712861336
 20
223.35932920122099
 30
0.0
 70
    32
  0
VERTEX
  5
1AB8C
  8
1
 62
     7
 10
255.898512861336
 20
223.36332920122089
 30
0.0
 70
    32
  0
VERTEX
  5
1AB8D
  8
1
 62
     7
 10
255.9003128613364
 20
223.36732920122131
 30
0.0
 70
    32
  0
VERTEX
  5
1AB8E
  8
1
 62
     7
 10
255.9020128613362
 20
223.37132920122119
 30
0.0
 70
    32
  0
VERTEX
  5
1AB8F
  8
1
 62
     7
 10
255.90381286133581
 20
223.37532920122101
 30
0.0
 70
    32
  0
VERTEX
  5
1AB90
  8
1
 62
     7
 10
255.90551286133561
 20
223.379329201221
 30
0.0
 70
    32
  0
VERTEX
  5
1AB91
  8
1
 62
     7
 10
255.90721286133589
 20
223.3833292012213
 30
0.0
 70
    32
  0
VERTEX
  5
1AB92
  8
1
 62
     7
 10
255.9090128613359
 20
223.38732920122081
 30
0.0
 70
    32
  0
VERTEX
  5
1AB93
  8
1
 62
     7
 10
255.91071286133609
 20
223.39132920122071
 30
0.0
 70
    32
  0
VERTEX
  5
1AB94
  8
1
 62
     7
 10
255.91241286133589
 20
223.39532920122099
 30
0.0
 70
    32
  0
VERTEX
  5
1AB95
  8
1
 62
     7
 10
255.9141128613357
 20
223.39932920122141
 30
0.0
 70
    32
  0
VERTEX
  5
1AB96
  8
1
 62
     7
 10
255.9158128613355
 20
223.40332920122091
 30
0.0
 70
    32
  0
VERTEX
  5
1AB97
  8
1
 62
     7
 10
255.91751286133621
 20
223.40732920122119
 30
0.0
 70
    32
  0
VERTEX
  5
1AB98
  8
1
 62
     7
 10
255.91921286133601
 20
223.41132920122109
 30
0.0
 70
    32
  0
VERTEX
  5
1AB99
  8
1
 62
     7
 10
255.92091286133541
 20
223.415329201221
 30
0.0
 70
    32
  0
VERTEX
  5
1AB9A
  8
1
 62
     7
 10
255.92261286133569
 20
223.4193292012209
 30
0.0
 70
    32
  0
VERTEX
  5
1AB9B
  8
1
 62
     7
 10
255.92431286133589
 20
223.42332920122081
 30
0.0
 70
    32
  0
VERTEX
  5
1AB9C
  8
1
 62
     7
 10
255.92601286133609
 20
223.4273292012208
 30
0.0
 70
    32
  0
VERTEX
  5
1AB9D
  8
1
 62
     7
 10
255.92761286133569
 20
223.4313292012211
 30
0.0
 70
    32
  0
VERTEX
  5
1AB9E
  8
1
 62
     7
 10
255.929312861336
 20
223.43532920122101
 30
0.0
 70
    32
  0
VERTEX
  5
1AB9F
  8
1
 62
     7
 10
255.93091286133611
 20
223.43932920122089
 30
0.0
 70
    32
  0
VERTEX
  5
1ABA0
  8
1
 62
     7
 10
255.9326128613354
 20
223.44332920122079
 30
0.0
 70
    32
  0
VERTEX
  5
1ABA1
  8
1
 62
     7
 10
255.93421286133591
 20
223.44732920122121
 30
0.0
 70
    32
  0
VERTEX
  5
1ABA2
  8
1
 62
     7
 10
255.93591286133619
 20
223.45132920122111
 30
0.0
 70
    32
  0
VERTEX
  5
1ABA3
  8
1
 62
     7
 10
255.9375128613357
 20
223.45532920122099
 30
0.0
 70
    32
  0
VERTEX
  5
1ABA4
  8
1
 62
     7
 10
255.9391128613363
 20
223.4593292012209
 30
0.0
 70
    32
  0
VERTEX
  5
1ABA5
  8
1
 62
     7
 10
255.94071286133541
 20
223.46332920122131
 30
0.0
 70
    32
  0
VERTEX
  5
1ABA6
  8
1
 62
     7
 10
255.9424128613357
 20
223.46732920122071
 30
0.0
 70
    32
  0
VERTEX
  5
1ABA7
  8
1
 62
     7
 10
255.9440128613362
 20
223.4713292012211
 30
0.0
 70
    32
  0
VERTEX
  5
1ABA8
  8
1
 62
     7
 10
255.94561286133529
 20
223.475329201221
 30
0.0
 70
    32
  0
VERTEX
  5
1ABA9
  8
1
 62
     7
 10
255.9472128613358
 20
223.4793292012213
 30
0.0
 70
    32
  0
VERTEX
  5
1ABAA
  8
1
 62
     7
 10
255.94871286133571
 20
223.48332920122081
 30
0.0
 70
    32
  0
VERTEX
  5
1ABAB
  8
1
 62
     7
 10
255.95031286133619
 20
223.4873292012212
 30
0.0
 70
    32
  0
VERTEX
  5
1ABAC
  8
1
 62
     7
 10
255.95191286133581
 20
223.49132920122111
 30
0.0
 70
    32
  0
VERTEX
  5
1ABAD
  8
1
 62
     7
 10
255.95351286133581
 20
223.4953292012209
 30
0.0
 70
    32
  0
VERTEX
  5
1ABAE
  8
1
 62
     7
 10
255.95501286133609
 20
223.49932920122089
 30
0.0
 70
    32
  0
VERTEX
  5
1ABAF
  8
1
 62
     7
 10
255.95661286133611
 20
223.50332920122119
 30
0.0
 70
    32
  0
VERTEX
  5
1ABB0
  8
1
 62
     7
 10
255.95821286133531
 20
223.5083292012209
 30
0.0
 70
    32
  0
VERTEX
  5
1ABB1
  8
1
 62
     7
 10
255.9597128613361
 20
223.51232920122081
 30
0.0
 70
    32
  0
VERTEX
  5
1ABB2
  8
1
 62
     7
 10
255.96121286133589
 20
223.51632920122111
 30
0.0
 70
    32
  0
VERTEX
  5
1ABB3
  8
1
 62
     7
 10
255.962812861336
 20
223.5203292012211
 30
0.0
 70
    32
  0
VERTEX
  5
1ABB4
  8
1
 62
     7
 10
255.9643128613358
 20
223.52432920122141
 30
0.0
 70
    32
  0
VERTEX
  5
1ABB5
  8
1
 62
     7
 10
255.96581286133571
 20
223.52832920122131
 30
0.0
 70
    32
  0
VERTEX
  5
1ABB6
  8
1
 62
     7
 10
255.9674128613357
 20
223.53232920122119
 30
0.0
 70
    32
  0
VERTEX
  5
1ABB7
  8
1
 62
     7
 10
255.96891286133601
 20
223.53632920122109
 30
0.0
 70
    32
  0
VERTEX
  5
1ABB8
  8
1
 62
     7
 10
255.97041286133589
 20
223.540329201221
 30
0.0
 70
    32
  0
VERTEX
  5
1ABB9
  8
1
 62
     7
 10
255.9719128613358
 20
223.54432920122139
 30
0.0
 70
    32
  0
VERTEX
  5
1ABBA
  8
1
 62
     7
 10
255.9734128613361
 20
223.54832920122081
 30
0.0
 70
    32
  0
VERTEX
  5
1ABBB
  8
1
 62
     7
 10
255.9749128613355
 20
223.55232920122069
 30
0.0
 70
    32
  0
VERTEX
  5
1ABBC
  8
1
 62
     7
 10
255.9764128613362
 20
223.5563292012211
 30
0.0
 70
    32
  0
VERTEX
  5
1ABBD
  8
1
 62
     7
 10
255.97781286133591
 20
223.56032920122101
 30
0.0
 70
    32
  0
VERTEX
  5
1ABBE
  8
1
 62
     7
 10
255.9793128613357
 20
223.56532920122109
 30
0.0
 70
    32
  0
VERTEX
  5
1ABBF
  8
1
 62
     7
 10
255.98081286133601
 20
223.569329201221
 30
0.0
 70
    32
  0
VERTEX
  5
1ABC0
  8
1
 62
     7
 10
255.98231286133591
 20
223.57332920122141
 30
0.0
 70
    32
  0
VERTEX
  5
1ABC1
  8
1
 62
     7
 10
255.98371286133599
 20
223.57732920122081
 30
0.0
 70
    32
  0
VERTEX
  5
1ABC2
  8
1
 62
     7
 10
255.98521286133541
 20
223.58132920122119
 30
0.0
 70
    32
  0
VERTEX
  5
1ABC3
  8
1
 62
     7
 10
255.98661286133549
 20
223.5853292012211
 30
0.0
 70
    32
  0
VERTEX
  5
1ABC4
  8
1
 62
     7
 10
255.98811286133579
 20
223.58932920122101
 30
0.0
 70
    32
  0
VERTEX
  5
1ABC5
  8
1
 62
     7
 10
255.9895128613359
 20
223.59332920122091
 30
0.0
 70
    32
  0
VERTEX
  5
1ABC6
  8
1
 62
     7
 10
255.990912861336
 20
223.59732920122079
 30
0.0
 70
    32
  0
VERTEX
  5
1ABC7
  8
1
 62
     7
 10
255.9923128613361
 20
223.60132920122069
 30
0.0
 70
    32
  0
VERTEX
  5
1ABC8
  8
1
 62
     7
 10
255.9938128613355
 20
223.6063292012208
 30
0.0
 70
    32
  0
VERTEX
  5
1ABC9
  8
1
 62
     7
 10
255.995212861336
 20
223.61032920122119
 30
0.0
 70
    32
  0
VERTEX
  5
1ABCA
  8
1
 62
     7
 10
255.9966128613361
 20
223.6143292012211
 30
0.0
 70
    32
  0
VERTEX
  5
1ABCB
  8
1
 62
     7
 10
255.99801286133581
 20
223.618329201221
 30
0.0
 70
    32
  0
VERTEX
  5
1ABCC
  8
1
 62
     7
 10
255.99941286133591
 20
223.62232920122139
 30
0.0
 70
    32
  0
VERTEX
  5
1ABCD
  8
1
 62
     7
 10
256.0008128613361
 20
223.6263292012213
 30
0.0
 70
    32
  0
VERTEX
  5
1ABCE
  8
1
 62
     7
 10
256.00221286133609
 20
223.63032920122069
 30
0.0
 70
    32
  0
VERTEX
  5
1ABCF
  8
1
 62
     7
 10
256.0036128613358
 20
223.63432920122111
 30
0.0
 70
    32
  0
VERTEX
  5
1ABD0
  8
1
 62
     7
 10
256.00491286133609
 20
223.63832920122101
 30
0.0
 70
    32
  0
VERTEX
  5
1ABD1
  8
1
 62
     7
 10
256.00631286133591
 20
223.64332920122109
 30
0.0
 70
    32
  0
VERTEX
  5
1ABD2
  8
1
 62
     7
 10
256.0077128613359
 20
223.647329201221
 30
0.0
 70
    32
  0
VERTEX
  5
1ABD3
  8
1
 62
     7
 10
256.00901286133632
 20
223.6513292012209
 30
0.0
 70
    32
  0
VERTEX
  5
1ABD4
  8
1
 62
     7
 10
256.01041286133591
 20
223.65532920122081
 30
0.0
 70
    32
  0
VERTEX
  5
1ABD5
  8
1
 62
     7
 10
256.01171286133581
 20
223.65932920122069
 30
0.0
 70
    32
  0
VERTEX
  5
1ABD6
  8
1
 62
     7
 10
256.01311286133591
 20
223.6633292012211
 30
0.0
 70
    32
  0
VERTEX
  5
1ABD7
  8
1
 62
     7
 10
256.01441286133581
 20
223.66732920122101
 30
0.0
 70
    32
  0
VERTEX
  5
1ABD8
  8
1
 62
     7
 10
256.01571286133611
 20
223.67232920122109
 30
0.0
 70
    32
  0
VERTEX
  5
1ABD9
  8
1
 62
     7
 10
256.01711286133582
 20
223.67632920122099
 30
0.0
 70
    32
  0
VERTEX
  5
1ABDA
  8
1
 62
     7
 10
256.01841286133617
 20
223.68032920122141
 30
0.0
 70
    32
  0
VERTEX
  5
1ABDB
  8
1
 62
     7
 10
256.01971286133607
 20
223.6843292012212
 30
0.0
 70
    32
  0
VERTEX
  5
1ABDC
  8
1
 62
     7
 10
256.02101286133598
 20
223.68832920122119
 30
0.0
 70
    32
  0
VERTEX
  5
1ABDD
  8
1
 62
     7
 10
256.02231286133588
 20
223.6923292012211
 30
0.0
 70
    32
  0
VERTEX
  5
1ABDE
  8
1
 62
     7
 10
256.02361286133618
 20
223.696329201221
 30
0.0
 70
    32
  0
VERTEX
  5
1ABDF
  8
1
 62
     7
 10
256.02491286133608
 20
223.70132920122111
 30
0.0
 70
    32
  0
VERTEX
  5
1ABE0
  8
1
 62
     7
 10
256.02621286133558
 20
223.70532920122099
 30
0.0
 70
    32
  0
VERTEX
  5
1ABE1
  8
1
 62
     7
 10
256.02751286133588
 20
223.7093292012209
 30
0.0
 70
    32
  0
VERTEX
  5
1ABE2
  8
1
 62
     7
 10
256.02881286133578
 20
223.7133292012208
 30
0.0
 70
    32
  0
VERTEX
  5
1ABE3
  8
1
 62
     7
 10
256.03011286133619
 20
223.71732920122119
 30
0.0
 70
    32
  0
VERTEX
  5
1ABE4
  8
1
 62
     7
 10
256.03131286133589
 20
223.72132920122101
 30
0.0
 70
    32
  0
VERTEX
  5
1ABE5
  8
1
 62
     7
 10
256.03261286133579
 20
223.725329201221
 30
0.0
 70
    32
  0
VERTEX
  5
1ABE6
  8
1
 62
     7
 10
256.0339128613362
 20
223.73032920122111
 30
0.0
 70
    32
  0
VERTEX
  5
1ABE7
  8
1
 62
     7
 10
256.03511286133579
 20
223.73432920122099
 30
0.0
 70
    32
  0
VERTEX
  5
1ABE8
  8
1
 62
     7
 10
256.0364128613358
 20
223.73832920122129
 30
0.0
 70
    32
  0
VERTEX
  5
1ABE9
  8
1
 62
     7
 10
256.0376128613359
 20
223.74232920122131
 30
0.0
 70
    32
  0
VERTEX
  5
1ABEA
  8
1
 62
     7
 10
256.0389128613362
 20
223.74632920122119
 30
0.0
 70
    32
  0
VERTEX
  5
1ABEB
  8
1
 62
     7
 10
256.04011286133601
 20
223.75032920122109
 30
0.0
 70
    32
  0
VERTEX
  5
1ABEC
  8
1
 62
     7
 10
256.04131286133611
 20
223.7553292012212
 30
0.0
 70
    32
  0
VERTEX
  5
1ABED
  8
1
 62
     7
 10
256.04261286133601
 20
223.75932920122111
 30
0.0
 70
    32
  0
VERTEX
  5
1ABEE
  8
1
 62
     7
 10
256.0438128613356
 20
223.76332920122101
 30
0.0
 70
    32
  0
VERTEX
  5
1ABEF
  8
1
 62
     7
 10
256.04501286133581
 20
223.76732920122089
 30
0.0
 70
    32
  0
VERTEX
  5
1ABF0
  8
1
 62
     7
 10
256.04621286133602
 20
223.77132920122079
 30
0.0
 70
    32
  0
VERTEX
  5
1ABF1
  8
1
 62
     7
 10
256.0474128613356
 20
223.7753292012211
 30
0.0
 70
    32
  0
VERTEX
  5
1ABF2
  8
1
 62
     7
 10
256.04861286133593
 20
223.78032920122081
 30
0.0
 70
    32
  0
VERTEX
  5
1ABF3
  8
1
 62
     7
 10
256.04981286133602
 20
223.78432920122111
 30
0.0
 70
    32
  0
VERTEX
  5
1ABF4
  8
1
 62
     7
 10
256.05101286133572
 20
223.7883292012211
 30
0.0
 70
    32
  0
VERTEX
  5
1ABF5
  8
1
 62
     7
 10
256.05221286133587
 20
223.79232920122101
 30
0.0
 70
    32
  0
VERTEX
  5
1ABF6
  8
1
 62
     7
 10
256.05341286133603
 20
223.7963292012214
 30
0.0
 70
    32
  0
VERTEX
  5
1ABF7
  8
1
 62
     7
 10
256.05461286133573
 20
223.80132920122099
 30
0.0
 70
    32
  0
VERTEX
  5
1ABF8
  8
1
 62
     7
 10
256.05571286133608
 20
223.8053292012209
 30
0.0
 70
    32
  0
VERTEX
  5
1ABF9
  8
1
 62
     7
 10
256.05691286133577
 20
223.80932920122129
 30
0.0
 70
    32
  0
VERTEX
  5
1ABFA
  8
1
 62
     7
 10
256.05811286133599
 20
223.81332920122119
 30
0.0
 70
    32
  0
VERTEX
  5
1ABFB
  8
1
 62
     7
 10
256.05921286133588
 20
223.8173292012211
 30
0.0
 70
    32
  0
VERTEX
  5
1ABFC
  8
1
 62
     7
 10
256.06041286133609
 20
223.821329201221
 30
0.0
 70
    32
  0
VERTEX
  5
1ABFD
  8
1
 62
     7
 10
256.06151286133598
 20
223.82632920122111
 30
0.0
 70
    32
  0
VERTEX
  5
1ABFE
  8
1
 62
     7
 10
256.06271286133568
 20
223.83032920122099
 30
0.0
 70
    32
  0
VERTEX
  5
1ABFF
  8
1
 62
     7
 10
256.0638128613362
 20
223.8343292012209
 30
0.0
 70
    32
  0
VERTEX
  5
1AC00
  8
1
 62
     7
 10
256.06501286133579
 20
223.8383292012212
 30
0.0
 70
    32
  0
VERTEX
  5
1AC01
  8
1
 62
     7
 10
256.06611286133631
 20
223.84232920122119
 30
0.0
 70
    32
  0
VERTEX
  5
1AC02
  8
1
 62
     7
 10
256.0672128613358
 20
223.84732920122079
 30
0.0
 70
    32
  0
VERTEX
  5
1AC03
  8
1
 62
     7
 10
256.0683128613357
 20
223.8513292012212
 30
0.0
 70
    32
  0
VERTEX
  5
1AC04
  8
1
 62
     7
 10
256.06951286133591
 20
223.85532920122111
 30
0.0
 70
    32
  0
VERTEX
  5
1AC05
  8
1
 62
     7
 10
256.07061286133631
 20
223.85932920122099
 30
0.0
 70
    32
  0
VERTEX
  5
1AC06
  8
1
 62
     7
 10
256.07171286133581
 20
223.8633292012214
 30
0.0
 70
    32
  0
VERTEX
  5
1AC07
  8
1
 62
     7
 10
256.07281286133622
 20
223.868329201221
 30
0.0
 70
    32
  0
VERTEX
  5
1AC08
  8
1
 62
     7
 10
256.07391286133571
 20
223.87232920122091
 30
0.0
 70
    32
  0
VERTEX
  5
1AC09
  8
1
 62
     7
 10
256.07501286133601
 20
223.8763292012213
 30
0.0
 70
    32
  0
VERTEX
  5
1AC0A
  8
1
 62
     7
 10
256.07611286133601
 20
223.8803292012212
 30
0.0
 70
    32
  0
VERTEX
  5
1AC0B
  8
1
 62
     7
 10
256.07711286133582
 20
223.8853292012208
 30
0.0
 70
    32
  0
VERTEX
  5
1AC0C
  8
1
 62
     7
 10
256.0782128613356
 20
223.88932920122119
 30
0.0
 70
    32
  0
VERTEX
  5
1AC0D
  8
1
 62
     7
 10
256.07931286133572
 20
223.89332920122109
 30
0.0
 70
    32
  0
VERTEX
  5
1AC0E
  8
1
 62
     7
 10
256.08041286133607
 20
223.897329201221
 30
0.0
 70
    32
  0
VERTEX
  5
1AC0F
  8
1
 62
     7
 10
256.08141286133628
 20
223.9013292012209
 30
0.0
 70
    32
  0
VERTEX
  5
1AC10
  8
1
 62
     7
 10
256.08251286133577
 20
223.90632920122101
 30
0.0
 70
    32
  0
VERTEX
  5
1AC11
  8
1
 62
     7
 10
256.08351286133598
 20
223.91032920122089
 30
0.0
 70
    32
  0
VERTEX
  5
1AC12
  8
1
 62
     7
 10
256.08461286133593
 20
223.9143292012208
 30
0.0
 70
    32
  0
VERTEX
  5
1AC13
  8
1
 62
     7
 10
256.08561286133568
 20
223.91832920122121
 30
0.0
 70
    32
  0
VERTEX
  5
1AC14
  8
1
 62
     7
 10
256.08671286133608
 20
223.92232920122109
 30
0.0
 70
    32
  0
VERTEX
  5
1AC15
  8
1
 62
     7
 10
256.08771286133577
 20
223.9273292012208
 30
0.0
 70
    32
  0
VERTEX
  5
1AC16
  8
1
 62
     7
 10
256.08871286133558
 20
223.9313292012211
 30
0.0
 70
    32
  0
VERTEX
  5
1AC17
  8
1
 62
     7
 10
256.08981286133599
 20
223.93532920122101
 30
0.0
 70
    32
  0
VERTEX
  5
1AC18
  8
1
 62
     7
 10
256.09081286133619
 20
223.93932920122089
 30
0.0
 70
    32
  0
VERTEX
  5
1AC19
  8
1
 62
     7
 10
256.09181286133588
 20
223.944329201221
 30
0.0
 70
    32
  0
VERTEX
  5
1AC1A
  8
1
 62
     7
 10
256.09281286133609
 20
223.94832920122141
 30
0.0
 70
    32
  0
VERTEX
  5
1AC1B
  8
1
 62
     7
 10
256.09381286133538
 20
223.95232920122081
 30
0.0
 70
    32
  0
VERTEX
  5
1AC1C
  8
1
 62
     7
 10
256.0948128613361
 20
223.95632920122119
 30
0.0
 70
    32
  0
VERTEX
  5
1AC1D
  8
1
 62
     7
 10
256.0958128613363
 20
223.9603292012211
 30
0.0
 70
    32
  0
VERTEX
  5
1AC1E
  8
1
 62
     7
 10
256.09681286133559
 20
223.96532920122121
 30
0.0
 70
    32
  0
VERTEX
  5
1AC1F
  8
1
 62
     7
 10
256.09781286133591
 20
223.96932920122109
 30
0.0
 70
    32
  0
VERTEX
  5
1AC20
  8
1
 62
     7
 10
256.098812861336
 20
223.97332920122099
 30
0.0
 70
    32
  0
VERTEX
  5
1AC21
  8
1
 62
     7
 10
256.099712861336
 20
223.9773292012209
 30
0.0
 70
    32
  0
VERTEX
  5
1AC22
  8
1
 62
     7
 10
256.10071286133609
 20
223.98232920122101
 30
0.0
 70
    32
  0
VERTEX
  5
1AC23
  8
1
 62
     7
 10
256.10171286133601
 20
223.98632920122139
 30
0.0
 70
    32
  0
VERTEX
  5
1AC24
  8
1
 62
     7
 10
256.1026128613359
 20
223.9903292012209
 30
0.0
 70
    32
  0
VERTEX
  5
1AC25
  8
1
 62
     7
 10
256.10361286133571
 20
223.99432920122069
 30
0.0
 70
    32
  0
VERTEX
  5
1AC26
  8
1
 62
     7
 10
256.10461286133551
 20
223.99932920122089
 30
0.0
 70
    32
  0
VERTEX
  5
1AC27
  8
1
 62
     7
 10
256.10551286133551
 20
224.00332920122079
 30
0.0
 70
    32
  0
VERTEX
  5
1AC28
  8
1
 62
     7
 10
256.10651286133611
 20
224.0073292012211
 30
0.0
 70
    32
  0
VERTEX
  5
1AC29
  8
1
 62
     7
 10
256.10741286133612
 20
224.011329201221
 30
0.0
 70
    32
  0
VERTEX
  5
1AC2A
  8
1
 62
     7
 10
256.10831286133612
 20
224.01632920122071
 30
0.0
 70
    32
  0
VERTEX
  5
1AC2B
  8
1
 62
     7
 10
256.10931286133592
 20
224.0203292012211
 30
0.0
 70
    32
  0
VERTEX
  5
1AC2C
  8
1
 62
     7
 10
256.11021286133592
 20
224.02432920122141
 30
0.0
 70
    32
  0
VERTEX
  5
1AC2D
  8
1
 62
     7
 10
256.11111286133581
 20
224.0283292012208
 30
0.0
 70
    32
  0
VERTEX
  5
1AC2E
  8
1
 62
     7
 10
256.11201286133593
 20
224.03332920122099
 30
0.0
 70
    32
  0
VERTEX
  5
1AC2F
  8
1
 62
     7
 10
256.11291286133587
 20
224.0373292012213
 30
0.0
 70
    32
  0
VERTEX
  5
1AC30
  8
1
 62
     7
 10
256.11381286133587
 20
224.0413292012212
 30
0.0
 70
    32
  0
VERTEX
  5
1AC31
  8
1
 62
     7
 10
256.11471286133599
 20
224.04532920122111
 30
0.0
 70
    32
  0
VERTEX
  5
1AC32
  8
1
 62
     7
 10
256.11561286133588
 20
224.05032920122119
 30
0.0
 70
    32
  0
VERTEX
  5
1AC33
  8
1
 62
     7
 10
256.11651286133588
 20
224.05432920122109
 30
0.0
 70
    32
  0
VERTEX
  5
1AC34
  8
1
 62
     7
 10
256.11741286133588
 20
224.058329201221
 30
0.0
 70
    32
  0
VERTEX
  5
1AC35
  8
1
 62
     7
 10
256.11831286133588
 20
224.06232920122099
 30
0.0
 70
    32
  0
VERTEX
  5
1AC36
  8
1
 62
     7
 10
256.11921286133588
 20
224.06732920122101
 30
0.0
 70
    32
  0
VERTEX
  5
1AC37
  8
1
 62
     7
 10
256.12011286133588
 20
224.071329201221
 30
0.0
 70
    32
  0
VERTEX
  5
1AC38
  8
1
 62
     7
 10
256.12091286133619
 20
224.07532920122091
 30
0.0
 70
    32
  0
VERTEX
  5
1AC39
  8
1
 62
     7
 10
256.12181286133608
 20
224.07932920122079
 30
0.0
 70
    32
  0
VERTEX
  5
1AC3A
  8
1
 62
     7
 10
256.12271286133608
 20
224.0843292012209
 30
0.0
 70
    32
  0
VERTEX
  5
1AC3B
  8
1
 62
     7
 10
256.12351286133548
 20
224.0883292012208
 30
0.0
 70
    32
  0
VERTEX
  5
1AC3C
  8
1
 62
     7
 10
256.12441286133588
 20
224.09232920122119
 30
0.0
 70
    32
  0
VERTEX
  5
1AC3D
  8
1
 62
     7
 10
256.12521286133568
 20
224.0963292012211
 30
0.0
 70
    32
  0
VERTEX
  5
1AC3E
  8
1
 62
     7
 10
256.12611286133568
 20
224.10132920122069
 30
0.0
 70
    32
  0
VERTEX
  5
1AC3F
  8
1
 62
     7
 10
256.126912861336
 20
224.10532920122111
 30
0.0
 70
    32
  0
VERTEX
  5
1AC40
  8
1
 62
     7
 10
256.12781286133651
 20
224.10932920122099
 30
0.0
 70
    32
  0
VERTEX
  5
1AC41
  8
1
 62
     7
 10
256.12861286133591
 20
224.11332920122089
 30
0.0
 70
    32
  0
VERTEX
  5
1AC42
  8
1
 62
     7
 10
256.12941286133611
 20
224.118329201221
 30
0.0
 70
    32
  0
VERTEX
  5
1AC43
  8
1
 62
     7
 10
256.13021286133591
 20
224.12232920122091
 30
0.0
 70
    32
  0
VERTEX
  5
1AC44
  8
1
 62
     7
 10
256.13111286133631
 20
224.12632920122081
 30
0.0
 70
    32
  0
VERTEX
  5
1AC45
  8
1
 62
     7
 10
256.1319128613361
 20
224.1313292012214
 30
0.0
 70
    32
  0
VERTEX
  5
1AC46
  8
1
 62
     7
 10
256.1327128613359
 20
224.13532920122131
 30
0.0
 70
    32
  0
VERTEX
  5
1AC47
  8
1
 62
     7
 10
256.1335128613361
 20
224.1393292012207
 30
0.0
 70
    32
  0
VERTEX
  5
1AC48
  8
1
 62
     7
 10
256.1343128613355
 20
224.14332920122109
 30
0.0
 70
    32
  0
VERTEX
  5
1AC49
  8
1
 62
     7
 10
256.1351128613357
 20
224.14832920122069
 30
0.0
 70
    32
  0
VERTEX
  5
1AC4A
  8
1
 62
     7
 10
256.13591286133601
 20
224.15232920122111
 30
0.0
 70
    32
  0
VERTEX
  5
1AC4B
  8
1
 62
     7
 10
256.13671286133581
 20
224.15632920122101
 30
0.0
 70
    32
  0
VERTEX
  5
1AC4C
  8
1
 62
     7
 10
256.13751286133612
 20
224.16032920122089
 30
0.0
 70
    32
  0
VERTEX
  5
1AC4D
  8
1
 62
     7
 10
256.13831286133592
 20
224.165329201221
 30
0.0
 70
    32
  0
VERTEX
  5
1AC4E
  8
1
 62
     7
 10
256.13901286133591
 20
224.1693292012209
 30
0.0
 70
    32
  0
VERTEX
  5
1AC4F
  8
1
 62
     7
 10
256.1398128613356
 20
224.17332920122129
 30
0.0
 70
    32
  0
VERTEX
  5
1AC50
  8
1
 62
     7
 10
256.14061286133551
 20
224.17832920122089
 30
0.0
 70
    32
  0
VERTEX
  5
1AC51
  8
1
 62
     7
 10
256.14141286133622
 20
224.18232920122091
 30
0.0
 70
    32
  0
VERTEX
  5
1AC52
  8
1
 62
     7
 10
256.14211286133582
 20
224.18632920122121
 30
0.0
 70
    32
  0
VERTEX
  5
1AC53
  8
1
 62
     7
 10
256.14291286133607
 20
224.19032920122109
 30
0.0
 70
    32
  0
VERTEX
  5
1AC54
  8
1
 62
     7
 10
256.14361286133612
 20
224.1953292012208
 30
0.0
 70
    32
  0
VERTEX
  5
1AC55
  8
1
 62
     7
 10
256.14441286133592
 20
224.1993292012211
 30
0.0
 70
    32
  0
VERTEX
  5
1AC56
  8
1
 62
     7
 10
256.14511286133541
 20
224.20332920122109
 30
0.0
 70
    32
  0
VERTEX
  5
1AC57
  8
1
 62
     7
 10
256.14591286133577
 20
224.20832920122069
 30
0.0
 70
    32
  0
VERTEX
  5
1AC58
  8
1
 62
     7
 10
256.14661286133583
 20
224.21232920122111
 30
0.0
 70
    32
  0
VERTEX
  5
1AC59
  8
1
 62
     7
 10
256.14731286133588
 20
224.21632920122099
 30
0.0
 70
    32
  0
VERTEX
  5
1AC5A
  8
1
 62
     7
 10
256.14811286133607
 20
224.22032920122089
 30
0.0
 70
    32
  0
VERTEX
  5
1AC5B
  8
1
 62
     7
 10
256.14881286133573
 20
224.225329201221
 30
0.0
 70
    32
  0
VERTEX
  5
1AC5C
  8
1
 62
     7
 10
256.14951286133578
 20
224.22932920122091
 30
0.0
 70
    32
  0
VERTEX
  5
1AC5D
  8
1
 62
     7
 10
256.15021286133629
 20
224.23332920122081
 30
0.0
 70
    32
  0
VERTEX
  5
1AC5E
  8
1
 62
     7
 10
256.15101286133608
 20
224.23832920122129
 30
0.0
 70
    32
  0
VERTEX
  5
1AC5F
  8
1
 62
     7
 10
256.15171286133619
 20
224.24232920122131
 30
0.0
 70
    32
  0
VERTEX
  5
1AC60
  8
1
 62
     7
 10
256.15241286133619
 20
224.24632920122119
 30
0.0
 70
    32
  0
VERTEX
  5
1AC61
  8
1
 62
     7
 10
256.1531128613359
 20
224.25032920122101
 30
0.0
 70
    32
  0
VERTEX
  5
1AC62
  8
1
 62
     7
 10
256.15381286133578
 20
224.25532920122069
 30
0.0
 70
    32
  0
VERTEX
  5
1AC63
  8
1
 62
     7
 10
256.15451286133589
 20
224.25932920122111
 30
0.0
 70
    32
  0
VERTEX
  5
1AC64
  8
1
 62
     7
 10
256.15521286133588
 20
224.26332920122101
 30
0.0
 70
    32
  0
VERTEX
  5
1AC65
  8
1
 62
     7
 10
256.15581286133579
 20
224.26832920122109
 30
0.0
 70
    32
  0
VERTEX
  5
1AC66
  8
1
 62
     7
 10
256.15651286133578
 20
224.272329201221
 30
0.0
 70
    32
  0
VERTEX
  5
1AC67
  8
1
 62
     7
 10
256.15721286133589
 20
224.2763292012209
 30
0.0
 70
    32
  0
VERTEX
  5
1AC68
  8
1
 62
     7
 10
256.157912861336
 20
224.28032920122081
 30
0.0
 70
    32
  0
VERTEX
  5
1AC69
  8
1
 62
     7
 10
256.1586128613356
 20
224.28532920122089
 30
0.0
 70
    32
  0
VERTEX
  5
1AC6A
  8
1
 62
     7
 10
256.1592128613359
 20
224.2893292012208
 30
0.0
 70
    32
  0
VERTEX
  5
1AC6B
  8
1
 62
     7
 10
256.1599128613359
 20
224.2933292012207
 30
0.0
 70
    32
  0
VERTEX
  5
1AC6C
  8
1
 62
     7
 10
256.1605128613362
 20
224.29832920122081
 30
0.0
 70
    32
  0
VERTEX
  5
1AC6D
  8
1
 62
     7
 10
256.1612128613358
 20
224.30232920122069
 30
0.0
 70
    32
  0
VERTEX
  5
1AC6E
  8
1
 62
     7
 10
256.16191286133579
 20
224.3063292012211
 30
0.0
 70
    32
  0
VERTEX
  5
1AC6F
  8
1
 62
     7
 10
256.16251286133621
 20
224.31032920122101
 30
0.0
 70
    32
  0
VERTEX
  5
1AC70
  8
1
 62
     7
 10
256.16311286133561
 20
224.31532920122109
 30
0.0
 70
    32
  0
VERTEX
  5
1AC71
  8
1
 62
     7
 10
256.16381286133611
 20
224.319329201221
 30
0.0
 70
    32
  0
VERTEX
  5
1AC72
  8
1
 62
     7
 10
256.1644128613359
 20
224.32332920122099
 30
0.0
 70
    32
  0
VERTEX
  5
1AC73
  8
1
 62
     7
 10
256.1651128613359
 20
224.32832920122101
 30
0.0
 70
    32
  0
VERTEX
  5
1AC74
  8
1
 62
     7
 10
256.1657128613362
 20
224.3323292012214
 30
0.0
 70
    32
  0
VERTEX
  5
1AC75
  8
1
 62
     7
 10
256.16631286133611
 20
224.3363292012213
 30
0.0
 70
    32
  0
VERTEX
  5
1AC76
  8
1
 62
     7
 10
256.16691286133602
 20
224.34132920122099
 30
0.0
 70
    32
  0
VERTEX
  5
1AC77
  8
1
 62
     7
 10
256.16751286133581
 20
224.34532920122129
 30
0.0
 70
    32
  0
VERTEX
  5
1AC78
  8
1
 62
     7
 10
256.16821286133592
 20
224.3493292012212
 30
0.0
 70
    32
  0
VERTEX
  5
1AC79
  8
1
 62
     7
 10
256.16881286133611
 20
224.35432920122091
 30
0.0
 70
    32
  0
VERTEX
  5
1AC7A
  8
1
 62
     7
 10
256.16941286133562
 20
224.35832920122121
 30
0.0
 70
    32
  0
VERTEX
  5
1AC7B
  8
1
 62
     7
 10
256.17001286133541
 20
224.3623292012212
 30
0.0
 70
    32
  0
VERTEX
  5
1AC7C
  8
1
 62
     7
 10
256.17061286133622
 20
224.36632920122111
 30
0.0
 70
    32
  0
VERTEX
  5
1AC7D
  8
1
 62
     7
 10
256.1712128613359
 20
224.37132920122119
 30
0.0
 70
    32
  0
VERTEX
  5
1AC7E
  8
1
 62
     7
 10
256.17181286133592
 20
224.37532920122109
 30
0.0
 70
    32
  0
VERTEX
  5
1AC7F
  8
1
 62
     7
 10
256.17241286133623
 20
224.379329201221
 30
0.0
 70
    32
  0
VERTEX
  5
1AC80
  8
1
 62
     7
 10
256.17291286133582
 20
224.38432920122111
 30
0.0
 70
    32
  0
VERTEX
  5
1AC81
  8
1
 62
     7
 10
256.17351286133612
 20
224.38832920122101
 30
0.0
 70
    32
  0
VERTEX
  5
1AC82
  8
1
 62
     7
 10
256.17411286133603
 20
224.39232920122089
 30
0.0
 70
    32
  0
VERTEX
  5
1AC83
  8
1
 62
     7
 10
256.17471286133582
 20
224.397329201221
 30
0.0
 70
    32
  0
VERTEX
  5
1AC84
  8
1
 62
     7
 10
256.17521286133592
 20
224.4013292012209
 30
0.0
 70
    32
  0
VERTEX
  5
1AC85
  8
1
 62
     7
 10
256.17581286133583
 20
224.40532920122081
 30
0.0
 70
    32
  0
VERTEX
  5
1AC86
  8
1
 62
     7
 10
256.17641286133608
 20
224.40932920122069
 30
0.0
 70
    32
  0
VERTEX
  5
1AC87
  8
1
 62
     7
 10
256.17691286133618
 20
224.41432920122131
 30
0.0
 70
    32
  0
VERTEX
  5
1AC88
  8
1
 62
     7
 10
256.17751286133603
 20
224.4183292012207
 30
0.0
 70
    32
  0
VERTEX
  5
1AC89
  8
1
 62
     7
 10
256.17801286133607
 20
224.42232920122109
 30
0.0
 70
    32
  0
VERTEX
  5
1AC8A
  8
1
 62
     7
 10
256.17861286133598
 20
224.42732920122069
 30
0.0
 70
    32
  0
VERTEX
  5
1AC8B
  8
1
 62
     7
 10
256.17911286133608
 20
224.4313292012211
 30
0.0
 70
    32
  0
VERTEX
  5
1AC8C
  8
1
 62
     7
 10
256.17961286133573
 20
224.43532920122101
 30
0.0
 70
    32
  0
VERTEX
  5
1AC8D
  8
1
 62
     7
 10
256.18021286133558
 20
224.44032920122109
 30
0.0
 70
    32
  0
VERTEX
  5
1AC8E
  8
1
 62
     7
 10
256.18071286133608
 20
224.444329201221
 30
0.0
 70
    32
  0
VERTEX
  5
1AC8F
  8
1
 62
     7
 10
256.18121286133578
 20
224.44832920122141
 30
0.0
 70
    32
  0
VERTEX
  5
1AC90
  8
1
 62
     7
 10
256.18181286133608
 20
224.45332920122101
 30
0.0
 70
    32
  0
VERTEX
  5
1AC91
  8
1
 62
     7
 10
256.18231286133567
 20
224.4573292012214
 30
0.0
 70
    32
  0
VERTEX
  5
1AC92
  8
1
 62
     7
 10
256.18281286133578
 20
224.46132920122079
 30
0.0
 70
    32
  0
VERTEX
  5
1AC93
  8
1
 62
     7
 10
256.18331286133548
 20
224.46632920122099
 30
0.0
 70
    32
  0
VERTEX
  5
1AC94
  8
1
 62
     7
 10
256.18381286133598
 20
224.47032920122081
 30
0.0
 70
    32
  0
VERTEX
  5
1AC95
  8
1
 62
     7
 10
256.18431286133608
 20
224.4743292012208
 30
0.0
 70
    32
  0
VERTEX
  5
1AC96
  8
1
 62
     7
 10
256.18481286133618
 20
224.47932920122139
 30
0.0
 70
    32
  0
VERTEX
  5
1AC97
  8
1
 62
     7
 10
256.18531286133589
 20
224.48332920122121
 30
0.0
 70
    32
  0
VERTEX
  5
1AC98
  8
1
 62
     7
 10
256.18581286133599
 20
224.48732920122109
 30
0.0
 70
    32
  0
VERTEX
  5
1AC99
  8
1
 62
     7
 10
256.18631286133609
 20
224.49132920122099
 30
0.0
 70
    32
  0
VERTEX
  5
1AC9A
  8
1
 62
     7
 10
256.18681286133619
 20
224.49632920122119
 30
0.0
 70
    32
  0
VERTEX
  5
1AC9B
  8
1
 62
     7
 10
256.18721286133609
 20
224.50032920122101
 30
0.0
 70
    32
  0
VERTEX
  5
1AC9C
  8
1
 62
     7
 10
256.18771286133568
 20
224.504329201221
 30
0.0
 70
    32
  0
VERTEX
  5
1AC9D
  8
1
 62
     7
 10
256.18821286133578
 20
224.50932920122111
 30
0.0
 70
    32
  0
VERTEX
  5
1AC9E
  8
1
 62
     7
 10
256.1886128613362
 20
224.51332920122101
 30
0.0
 70
    32
  0
VERTEX
  5
1AC9F
  8
1
 62
     7
 10
256.18911286133579
 20
224.51732920122089
 30
0.0
 70
    32
  0
VERTEX
  5
1ACA0
  8
1
 62
     7
 10
256.18961286133589
 20
224.522329201221
 30
0.0
 70
    32
  0
VERTEX
  5
1ACA1
  8
1
 62
     7
 10
256.1900128613359
 20
224.5263292012209
 30
0.0
 70
    32
  0
VERTEX
  5
1ACA2
  8
1
 62
     7
 10
256.19041286133569
 20
224.53032920122081
 30
0.0
 70
    32
  0
VERTEX
  5
1ACA3
  8
1
 62
     7
 10
256.1909128613359
 20
224.53532920122089
 30
0.0
 70
    32
  0
VERTEX
  5
1ACA4
  8
1
 62
     7
 10
256.19131286133569
 20
224.5393292012208
 30
0.0
 70
    32
  0
VERTEX
  5
1ACA5
  8
1
 62
     7
 10
256.19181286133579
 20
224.5433292012207
 30
0.0
 70
    32
  0
VERTEX
  5
1ACA6
  8
1
 62
     7
 10
256.1922128613362
 20
224.54832920122129
 30
0.0
 70
    32
  0
VERTEX
  5
1ACA7
  8
1
 62
     7
 10
256.1926128613365
 20
224.5523292012208
 30
0.0
 70
    32
  0
VERTEX
  5
1ACA8
  8
1
 62
     7
 10
256.193012861336
 20
224.5563292012211
 30
0.0
 70
    32
  0
VERTEX
  5
1ACA9
  8
1
 62
     7
 10
256.1935128613361
 20
224.56132920122121
 30
0.0
 70
    32
  0
VERTEX
  5
1ACAA
  8
1
 62
     7
 10
256.193912861336
 20
224.56532920122109
 30
0.0
 70
    32
  0
VERTEX
  5
1ACAB
  8
1
 62
     7
 10
256.1943128613359
 20
224.569329201221
 30
0.0
 70
    32
  0
VERTEX
  5
1ACAC
  8
1
 62
     7
 10
256.19471286133592
 20
224.5743292012211
 30
0.0
 70
    32
  0
VERTEX
  5
1ACAD
  8
1
 62
     7
 10
256.1951128613357
 20
224.57832920122101
 30
0.0
 70
    32
  0
VERTEX
  5
1ACAE
  8
1
 62
     7
 10
256.1955128613356
 20
224.582329201221
 30
0.0
 70
    32
  0
VERTEX
  5
1ACAF
  8
1
 62
     7
 10
256.1959128613359
 20
224.587329201221
 30
0.0
 70
    32
  0
VERTEX
  5
1ACB0
  8
1
 62
     7
 10
256.19621286133611
 20
224.59132920122099
 30
0.0
 70
    32
  0
VERTEX
  5
1ACB1
  8
1
 62
     7
 10
256.19661286133601
 20
224.59532920122089
 30
0.0
 70
    32
  0
VERTEX
  5
1ACB2
  8
1
 62
     7
 10
256.19701286133591
 20
224.600329201221
 30
0.0
 70
    32
  0
VERTEX
  5
1ACB3
  8
1
 62
     7
 10
256.19741286133581
 20
224.6043292012213
 30
0.0
 70
    32
  0
VERTEX
  5
1ACB4
  8
1
 62
     7
 10
256.19771286133602
 20
224.60832920122121
 30
0.0
 70
    32
  0
VERTEX
  5
1ACB5
  8
1
 62
     7
 10
256.1981128613358
 20
224.61332920122129
 30
0.0
 70
    32
  0
VERTEX
  5
1ACB6
  8
1
 62
     7
 10
256.19851286133621
 20
224.6173292012212
 30
0.0
 70
    32
  0
VERTEX
  5
1ACB7
  8
1
 62
     7
 10
256.19881286133591
 20
224.62132920122119
 30
0.0
 70
    32
  0
VERTEX
  5
1ACB8
  8
1
 62
     7
 10
256.19921286133632
 20
224.62632920122121
 30
0.0
 70
    32
  0
VERTEX
  5
1ACB9
  8
1
 62
     7
 10
256.1995128613359
 20
224.6303292012212
 30
0.0
 70
    32
  0
VERTEX
  5
1ACBA
  8
1
 62
     7
 10
256.19981286133662
 20
224.63432920122111
 30
0.0
 70
    32
  0
VERTEX
  5
1ACBB
  8
1
 62
     7
 10
256.20021286133601
 20
224.63932920122119
 30
0.0
 70
    32
  0
VERTEX
  5
1ACBC
  8
1
 62
     7
 10
256.2005128613356
 20
224.64332920122109
 30
0.0
 70
    32
  0
VERTEX
  5
1ACBD
  8
1
 62
     7
 10
256.20081286133592
 20
224.647329201221
 30
0.0
 70
    32
  0
VERTEX
  5
1ACBE
  8
1
 62
     7
 10
256.20111286133601
 20
224.65232920122111
 30
0.0
 70
    32
  0
VERTEX
  5
1ACBF
  8
1
 62
     7
 10
256.20151286133591
 20
224.65632920122101
 30
0.0
 70
    32
  0
VERTEX
  5
1ACC0
  8
1
 62
     7
 10
256.20181286133561
 20
224.66032920122089
 30
0.0
 70
    32
  0
VERTEX
  5
1ACC1
  8
1
 62
     7
 10
256.20211286133582
 20
224.665329201221
 30
0.0
 70
    32
  0
VERTEX
  5
1ACC2
  8
1
 62
     7
 10
256.20241286133592
 20
224.66932920122099
 30
0.0
 70
    32
  0
VERTEX
  5
1ACC3
  8
1
 62
     7
 10
256.20271286133561
 20
224.67332920122081
 30
0.0
 70
    32
  0
VERTEX
  5
1ACC4
  8
1
 62
     7
 10
256.20301286133622
 20
224.678329201221
 30
0.0
 70
    32
  0
VERTEX
  5
1ACC5
  8
1
 62
     7
 10
256.20331286133592
 20
224.68232920122091
 30
0.0
 70
    32
  0
VERTEX
  5
1ACC6
  8
1
 62
     7
 10
256.20361286133613
 20
224.68632920122079
 30
0.0
 70
    32
  0
VERTEX
  5
1ACC7
  8
1
 62
     7
 10
256.20391286133582
 20
224.6913292012209
 30
0.0
 70
    32
  0
VERTEX
  5
1ACC8
  8
1
 62
     7
 10
256.20411286133572
 20
224.6953292012208
 30
0.0
 70
    32
  0
VERTEX
  5
1ACC9
  8
1
 62
     7
 10
256.20441286133592
 20
224.6993292012211
 30
0.0
 70
    32
  0
VERTEX
  5
1ACCA
  8
1
 62
     7
 10
256.20471286133602
 20
224.70432920122079
 30
0.0
 70
    32
  0
VERTEX
  5
1ACCB
  8
1
 62
     7
 10
256.20501286133572
 20
224.7083292012212
 30
0.0
 70
    32
  0
VERTEX
  5
1ACCC
  8
1
 62
     7
 10
256.20521286133658
 20
224.71232920122111
 30
0.0
 70
    32
  0
VERTEX
  5
1ACCD
  8
1
 62
     7
 10
256.20551286133582
 20
224.71732920122071
 30
0.0
 70
    32
  0
VERTEX
  5
1ACCE
  8
1
 62
     7
 10
256.20571286133611
 20
224.7213292012211
 30
0.0
 70
    32
  0
VERTEX
  5
1ACCF
  8
1
 62
     7
 10
256.20601286133592
 20
224.725329201221
 30
0.0
 70
    32
  0
VERTEX
  5
1ACD0
  8
1
 62
     7
 10
256.20621286133593
 20
224.73032920122111
 30
0.0
 70
    32
  0
VERTEX
  5
1ACD1
  8
1
 62
     7
 10
256.20651286133591
 20
224.73432920122099
 30
0.0
 70
    32
  0
VERTEX
  5
1ACD2
  8
1
 62
     7
 10
256.20671286133597
 20
224.7383292012214
 30
0.0
 70
    32
  0
VERTEX
  5
1ACD3
  8
1
 62
     7
 10
256.20701286133612
 20
224.743329201221
 30
0.0
 70
    32
  0
VERTEX
  5
1ACD4
  8
1
 62
     7
 10
256.20721286133607
 20
224.74732920122139
 30
0.0
 70
    32
  0
VERTEX
  5
1ACD5
  8
1
 62
     7
 10
256.20741286133602
 20
224.7513292012213
 30
0.0
 70
    32
  0
VERTEX
  5
1ACD6
  8
1
 62
     7
 10
256.20761286133597
 20
224.75632920122089
 30
0.0
 70
    32
  0
VERTEX
  5
1ACD7
  8
1
 62
     7
 10
256.20791286133613
 20
224.76032920122131
 30
0.0
 70
    32
  0
VERTEX
  5
1ACD8
  8
1
 62
     7
 10
256.20811286133562
 20
224.76432920122119
 30
0.0
 70
    32
  0
VERTEX
  5
1ACD9
  8
1
 62
     7
 10
256.20831286133603
 20
224.7693292012213
 30
0.0
 70
    32
  0
VERTEX
  5
1ACDA
  8
1
 62
     7
 10
256.20851286133598
 20
224.7733292012212
 30
0.0
 70
    32
  0
VERTEX
  5
1ACDB
  8
1
 62
     7
 10
256.20871286133593
 20
224.77732920122111
 30
0.0
 70
    32
  0
VERTEX
  5
1ACDC
  8
1
 62
     7
 10
256.20891286133588
 20
224.78232920122079
 30
0.0
 70
    32
  0
VERTEX
  5
1ACDD
  8
1
 62
     7
 10
256.20911286133639
 20
224.78632920122109
 30
0.0
 70
    32
  0
VERTEX
  5
1ACDE
  8
1
 62
     7
 10
256.20931286133589
 20
224.790329201221
 30
0.0
 70
    32
  0
VERTEX
  5
1ACDF
  8
1
 62
     7
 10
256.20951286133572
 20
224.79532920122119
 30
0.0
 70
    32
  0
VERTEX
  5
1ACE0
  8
1
 62
     7
 10
256.20971286133607
 20
224.79932920122101
 30
0.0
 70
    32
  0
VERTEX
  5
1ACE1
  8
1
 62
     7
 10
256.20991286133608
 20
224.80332920122089
 30
0.0
 70
    32
  0
VERTEX
  5
1ACE2
  8
1
 62
     7
 10
256.21011286133597
 20
224.80832920122111
 30
0.0
 70
    32
  0
VERTEX
  5
1ACE3
  8
1
 62
     7
 10
256.21031286133552
 20
224.81232920122099
 30
0.0
 70
    32
  0
VERTEX
  5
1ACE4
  8
1
 62
     7
 10
256.21041286133573
 20
224.81632920122081
 30
0.0
 70
    32
  0
VERTEX
  5
1ACE5
  8
1
 62
     7
 10
256.21061286133607
 20
224.821329201221
 30
0.0
 70
    32
  0
VERTEX
  5
1ACE6
  8
1
 62
     7
 10
256.21081286133563
 20
224.82532920122091
 30
0.0
 70
    32
  0
VERTEX
  5
1ACE7
  8
1
 62
     7
 10
256.21091286133583
 20
224.83032920122099
 30
0.0
 70
    32
  0
VERTEX
  5
1ACE8
  8
1
 62
     7
 10
256.21111286133618
 20
224.8343292012209
 30
0.0
 70
    32
  0
VERTEX
  5
1ACE9
  8
1
 62
     7
 10
256.21131286133573
 20
224.8383292012208
 30
0.0
 70
    32
  0
VERTEX
  5
1ACEA
  8
1
 62
     7
 10
256.21141286133587
 20
224.84332920122091
 30
0.0
 70
    32
  0
VERTEX
  5
1ACEB
  8
1
 62
     7
 10
256.21161286133588
 20
224.8473292012213
 30
0.0
 70
    32
  0
VERTEX
  5
1ACEC
  8
1
 62
     7
 10
256.21171286133608
 20
224.85132920122069
 30
0.0
 70
    32
  0
VERTEX
  5
1ACED
  8
1
 62
     7
 10
256.21191286133597
 20
224.8563292012208
 30
0.0
 70
    32
  0
VERTEX
  5
1ACEE
  8
1
 62
     7
 10
256.21201286133578
 20
224.86032920122071
 30
0.0
 70
    32
  0
VERTEX
  5
1ACEF
  8
1
 62
     7
 10
256.21211286133598
 20
224.8643292012211
 30
0.0
 70
    32
  0
VERTEX
  5
1ACF0
  8
1
 62
     7
 10
256.21231286133587
 20
224.86932920122121
 30
0.0
 70
    32
  0
VERTEX
  5
1ACF1
  8
1
 62
     7
 10
256.21241286133619
 20
224.87332920122111
 30
0.0
 70
    32
  0
VERTEX
  5
1ACF2
  8
1
 62
     7
 10
256.21251286133588
 20
224.87732920122099
 30
0.0
 70
    32
  0
VERTEX
  5
1ACF3
  8
1
 62
     7
 10
256.21261286133608
 20
224.8823292012211
 30
0.0
 70
    32
  0
VERTEX
  5
1ACF4
  8
1
 62
     7
 10
256.21271286133629
 20
224.886329201221
 30
0.0
 70
    32
  0
VERTEX
  5
1ACF5
  8
1
 62
     7
 10
256.21281286133598
 20
224.89032920122091
 30
0.0
 70
    32
  0
VERTEX
  5
1ACF6
  8
1
 62
     7
 10
256.21301286133553
 20
224.8953292012211
 30
0.0
 70
    32
  0
VERTEX
  5
1ACF7
  8
1
 62
     7
 10
256.21311286133567
 20
224.89932920122089
 30
0.0
 70
    32
  0
VERTEX
  5
1ACF8
  8
1
 62
     7
 10
256.21321286133599
 20
224.9033292012208
 30
0.0
 70
    32
  0
VERTEX
  5
1ACF9
  8
1
 62
     7
 10
256.21331286133608
 20
224.90832920122099
 30
0.0
 70
    32
  0
VERTEX
  5
1ACFA
  8
1
 62
     7
 10
256.21331286133608
 20
224.9123292012213
 30
0.0
 70
    32
  0
VERTEX
  5
1ACFB
  8
1
 62
     7
 10
256.21341286133588
 20
224.9163292012212
 30
0.0
 70
    32
  0
VERTEX
  5
1ACFC
  8
1
 62
     7
 10
256.21351286133557
 20
224.9213292012214
 30
0.0
 70
    32
  0
VERTEX
  5
1ACFD
  8
1
 62
     7
 10
256.21361286133578
 20
224.92532920122079
 30
0.0
 70
    32
  0
VERTEX
  5
1ACFE
  8
1
 62
     7
 10
256.21371286133649
 20
224.92932920122109
 30
0.0
 70
    32
  0
VERTEX
  5
1ACFF
  8
1
 62
     7
 10
256.21371286133649
 20
224.93432920122129
 30
0.0
 70
    32
  0
VERTEX
  5
1AD00
  8
1
 62
     7
 10
256.21381286133618
 20
224.93832920122119
 30
0.0
 70
    32
  0
VERTEX
  5
1AD01
  8
1
 62
     7
 10
256.21391286133598
 20
224.9423292012211
 30
0.0
 70
    32
  0
VERTEX
  5
1AD02
  8
1
 62
     7
 10
256.21391286133598
 20
224.94732920122121
 30
0.0
 70
    32
  0
VERTEX
  5
1AD03
  8
1
 62
     7
 10
256.21401286133568
 20
224.95132920122111
 30
0.0
 70
    32
  0
VERTEX
  5
1AD04
  8
1
 62
     7
 10
256.21411286133588
 20
224.95632920122119
 30
0.0
 70
    32
  0
VERTEX
  5
1AD05
  8
1
 62
     7
 10
256.21411286133588
 20
224.9603292012211
 30
0.0
 70
    32
  0
VERTEX
  5
1AD06
  8
1
 62
     7
 10
256.21421286133608
 20
224.96432920122101
 30
0.0
 70
    32
  0
VERTEX
  5
1AD07
  8
1
 62
     7
 10
256.21421286133608
 20
224.96932920122109
 30
0.0
 70
    32
  0
VERTEX
  5
1AD08
  8
1
 62
     7
 10
256.21431286133588
 20
224.97332920122099
 30
0.0
 70
    32
  0
VERTEX
  5
1AD09
  8
1
 62
     7
 10
256.21431286133588
 20
224.9773292012209
 30
0.0
 70
    32
  0
VERTEX
  5
1AD0A
  8
1
 62
     7
 10
256.21441286133609
 20
224.98232920122101
 30
0.0
 70
    32
  0
VERTEX
  5
1AD0B
  8
1
 62
     7
 10
256.21441286133609
 20
224.98632920122091
 30
0.0
 70
    32
  0
VERTEX
  5
1AD0C
  8
1
 62
     7
 10
256.2145128613364
 20
224.99032920122079
 30
0.0
 70
    32
  0
VERTEX
  5
1AD0D
  8
1
 62
     7
 10
256.2145128613364
 20
224.99532920122101
 30
0.0
 70
    32
  0
VERTEX
  5
1AD0E
  8
1
 62
     7
 10
256.2145128613364
 20
224.9993292012208
 30
0.0
 70
    32
  0
VERTEX
  5
1AD0F
  8
1
 62
     7
 10
256.21461286133598
 20
225.00332920122119
 30
0.0
 70
    32
  0
VERTEX
  5
1AD10
  8
1
 62
     7
 10
256.21461286133598
 20
225.0083292012209
 30
0.0
 70
    32
  0
VERTEX
  5
1AD11
  8
1
 62
     7
 10
256.2147128613359
 20
225.01232920122081
 30
0.0
 70
    32
  0
VERTEX
  5
1AD12
  8
1
 62
     7
 10
256.2147128613359
 20
225.01632920122111
 30
0.0
 70
    32
  0
VERTEX
  5
1AD13
  8
1
 62
     7
 10
256.2147128613359
 20
225.02132920122079
 30
0.0
 70
    32
  0
VERTEX
  5
1AD14
  8
1
 62
     7
 10
256.21481286133599
 20
225.0253292012207
 30
0.0
 70
    32
  0
SEQEND
  5
1AD15
  8
1
 62
     7
  0
LINE
  5
1AD16
  8
1
  6
CONTINUOUS
 62
     7
 10
268.58462766438038
 20
223.02537626629501
 30
0.0
 11
268.58462766438089
 21
235.54854436742201
 31
0.0
  0
LINE
  5
1AD17
  8
1
  6
CONTINUOUS
 62
     7
 10
266.48462766437819
 20
225.02537626629501
 30
0.0
 11
266.48462766437819
 21
234.0603762662949
 31
0.0
  0
ARC
  5
1AD18
  8
1
  6
CONTINUOUS
 62
     7
 10
268.08462766437901
 20
223.02537626629501
 30
0.0
 40
0.5
 50
270.0
 51
0.0
  0
ARC
  5
1AD19
  8
1
  6
CONTINUOUS
 62
     7
 10
263.98462766437859
 20
225.02537626629501
 30
0.0
 40
2.4999999999999991
 50
270.0
 51
0.0
  0
LINE
  5
1AD1A
  8
1
  6
CONTINUOUS
 62
     7
 10
268.08462766437901
 20
222.52537626629501
 30
0.0
 11
263.98462766437859
 21
222.52537626629501
 31
0.0
  0
LINE
  5
1AD1B
  8
AM_0
 10
961.35997122364415
 20
389.52897941797443
 30
0.0
 11
961.35997122364415
 21
338.52897941797443
 31
0.0
  0
LINE
  5
1AD1C
  8
AM_0
 10
961.35997122364415
 20
328.52897941797443
 30
0.0
 11
961.35997122364415
 21
277.52897941797443
 31
0.0
  0
LINE
  5
1AD1D
  8
AM_0
 10
953.35854112364416
 20
280.74698941797459
 30
0.0
 11
953.35854112364416
 21
386.27897941797409
 31
0.0
  0
LINE
  5
1AD1E
  8
AM_0
 10
910.85854112364405
 20
296.34391941797429
 30
0.0
 11
910.85854112364405
 21
370.71500941797427
 31
0.0
  0
LINE
  5
1AD1F
  8
AM_0
 10
955.85854112364393
 20
298.9999194179743
 30
0.0
 11
955.85854112364393
 21
368.05802941797441
 31
0.0
  0
LINE
  5
1AD20
  8
AM_0
 10
962.35851112364401
 20
328.52897941797443
 30
0.0
 11
962.35851112364401
 21
338.52897941797443
 31
0.0
  0
LINE
  5
1AD21
  8
AM_0
 10
905.85854112364393
 20
274.77897941797431
 30
0.0
 11
905.85854112364393
 21
333.52897941797443
 31
0.0
  0
LINE
  5
1AD22
  8
AM_0
 10
758.85854112364427
 20
271.02897941797443
 30
0.0
 11
758.85854112364427
 21
396.02897941797443
 31
0.0
  0
LINE
  5
1AD23
  8
AM_0
 10
859.13366738949128
 20
222.52897941797491
 30
0.0
 11
856.20797225265062
 21
222.52897941797491
 31
0.0
  0
LINE
  5
1AD24
  8
AM_0
 10
864.8585411236437
 20
287.17899941797441
 30
0.0
 11
758.85854112364427
 21
287.17899941797441
 31
0.0
  0
LINE
  5
1AD25
  8
AM_0
 10
892.18856112364381
 20
300.16898941797427
 30
0.0
 11
797.838521123644
 21
300.16898941797427
 31
0.0
  0
LINE
  5
1AD26
  8
AM_0
 10
809.85854112364416
 20
297.52897941797431
 30
0.0
 11
891.32289112364413
 21
297.52897941797431
 31
0.0
  0
LINE
  5
1AD27
  8
AM_0
 10
892.18856112364381
 20
296.80900941797449
 30
0.0
 11
809.85854112364416
 21
296.80900941797449
 31
0.0
  0
LINE
  5
1AD28
  8
AM_0
 10
882.85854112364393
 20
271.66898941797439
 30
0.0
 11
766.04854112364399
 21
271.66898941797439
 31
0.0
  0
LINE
  5
1AD29
  8
AM_0
 10
830.41646112364413
 20
319.52897941797443
 30
0.0
 11
900.30855112364429
 21
319.52897941797443
 31
0.0
  0
LINE
  5
1AD2A
  8
AM_0
 10
892.39852112364395
 20
307.04899941797441
 30
0.0
 11
797.85854112364416
 21
307.04899941797441
 31
0.0
  0
LINE
  5
1AD2B
  8
AM_0
 10
797.85854112364416
 20
299.52897941797431
 30
0.0
 11
891.32289112364413
 21
299.52897941797431
 31
0.0
  0
LINE
  5
1AD2C
  8
AM_0
 10
901.58852112364445
 20
329.79899941797441
 30
0.0
 11
829.12343112364385
 21
329.79899941797441
 31
0.0
  0
LINE
  5
1AD2D
  8
AM_0
 10
830.41646112364413
 20
327.52897941797431
 30
0.0
 11
900.30855112364429
 21
327.52897941797431
 31
0.0
  0
LINE
  5
1AD2E
  8
AM_0
 10
830.41646112364413
 20
329.52897941797443
 30
0.0
 11
900.30855112364429
 21
329.52897941797443
 31
0.0
  0
LINE
  5
1AD2F
  8
AM_0
 10
901.52852112364428
 20
319.84891941797429
 30
0.0
 11
829.18727112364411
 21
319.84891941797429
 31
0.0
  0
LINE
  5
1AD30
  8
AM_0
 10
830.41646112364413
 20
317.52897941797431
 30
0.0
 11
900.30855112364429
 21
317.52897941797431
 31
0.0
  0
LINE
  5
1AD31
  8
AM_0
 10
901.52852112364428
 20
317.18900941797432
 30
0.0
 11
829.18727112364411
 21
317.18900941797432
 31
0.0
  0
LINE
  5
1AD32
  8
AM_0
 10
765.52571112364399
 20
309.52897941797431
 30
0.0
 11
891.32289112364413
 21
309.52897941797431
 31
0.0
  0
LINE
  5
1AD33
  8
AM_0
 10
892.39852112364395
 20
309.96891941797429
 30
0.0
 11
761.82430112364386
 21
309.96891941797429
 31
0.0
  0
LINE
  5
1AD34
  8
AM_0
 10
901.58852112364445
 20
327.25895941797438
 30
0.0
 11
829.12343112364385
 21
327.25895941797438
 31
0.0
  0
LINE
  5
1AD35
  8
AM_0
 10
797.85854112364416
 20
307.52897941797431
 30
0.0
 11
891.32289112364413
 21
307.52897941797431
 31
0.0
  0
LINE
  5
1AD36
  8
AM_0
 10
882.85854112364393
 20
269.63895941797432
 30
0.0
 11
841.53212112364395
 21
269.63895941797432
 31
0.0
  0
LINE
  5
1AD37
  8
AM_0
 10
856.53366738949205
 20
226.52897941797499
 30
0.0
 11
780.23366738949142
 21
239.5289794179742
 31
0.0
  0
LINE
  5
1AD38
  8
AM_0
 10
856.53366738949205
 20
226.52897941797499
 30
0.0
 11
780.23366738949142
 21
239.5289794179742
 31
0.0
  0
LINE
  5
1AD39
  8
AM_0
 10
856.61509117370235
 20
227.52897941797491
 30
0.0
 11
824.63702143497028
 21
232.97740545471811
 31
0.0
  0
LINE
  5
1AD3A
  8
AM_0
 10
858.13366738949196
 20
256.52897941797499
 30
0.0
 11
853.33366738949155
 21
256.52897941797499
 31
0.0
  0
LINE
  5
1AD3B
  8
AM_0
 10
859.13366738949196
 20
255.52897941797491
 30
0.0
 11
859.13366738949162
 21
227.52897941797491
 31
0.0
  0
LINE
  5
1AD3C
  8
AM_0
 10
860.63366738949185
 20
227.52897941797491
 30
0.0
 11
860.63366738949185
 21
224.02897941797491
 31
0.0
  0
LINE
  5
1AD3D
  8
AM_0
 10
861.13366738949094
 20
231.52897941797491
 30
0.0
 11
861.13366738949094
 21
224.02897941797491
 31
0.0
  0
ARC
  5
1AD3E
  8
AM_0
 10
859.63366738949082
 20
224.02897941797491
 30
0.0
 40
1.5000000000001099
 50
270.00000000000648
 51
0.0
  0
ARC
  5
1AD3F
  8
AM_0
 10
859.13366738949128
 20
224.02897941797491
 30
0.0
 40
1.499999999999998
 50
270.0
 51
0.0
  0
LINE
  5
1AD40
  8
AM_0
 10
859.63366738949082
 20
222.52897941797491
 30
0.0
 11
859.33518149333395
 21
222.52897941797491
 31
0.0
  0
LINE
  5
1AD41
  8
AM_0
 10
860.33366738949132
 20
231.52897941797499
 30
0.0
 11
861.13366738949094
 21
231.52897941797491
 31
0.0
  0
LINE
  5
1AD42
  8
AM_0
 10
856.61509117370235
 20
227.52897941797491
 30
0.0
 11
860.63366738949185
 21
227.52897941797491
 31
0.0
  0
LINE
  5
1AD43
  8
AM_0
 10
860.63366738949185
 20
226.52897941797499
 30
0.0
 11
856.53366738949205
 21
226.52897941797499
 31
0.0
  0
LINE
  5
1AD44
  8
AM_0
 10
859.13366738949162
 20
231.52897941797499
 30
0.0
 11
860.33366738949132
 21
231.52897941797499
 31
0.0
  0
LINE
  5
1AD45
  8
AM_0
 10
860.33366738949132
 20
226.52897941797499
 30
0.0
 11
856.53366738949205
 21
226.52897941797499
 31
0.0
  0
LINE
  5
1AD46
  8
AM_0
 10
930.85854112364393
 20
274.77897941797443
 30
0.0
 11
905.85854112364393
 21
274.77897941797443
 31
0.0
  0
LINE
  5
1AD47
  8
AM_0
 10
953.85854112364393
 20
280.77897941797443
 30
0.0
 11
905.85854112364393
 21
280.77897941797443
 31
0.0
  0
LINE
  5
1AD48
  8
AM_0
 10
955.85854112364393
 20
290.27604941797438
 30
0.0
 11
955.85854112364393
 21
282.77897941797443
 31
0.0
  0
LINE
  5
1AD49
  8
AM_0
 10
910.85854112364405
 20
289.63798941797432
 30
0.0
 11
910.85854112364405
 21
280.77897941797443
 31
0.0
  0
LINE
  5
1AD4A
  8
AM_0
 10
952.35997122364438
 20
268.52897941797443
 30
0.0
 11
914.85854112364393
 21
268.52897941797443
 31
0.0
  0
LINE
  5
1AD4B
  8
AM_0
 10
951.35997122364427
 20
273.52897941797443
 30
0.0
 11
927.85854112364405
 21
273.52897941797443
 31
0.0
  0
ARC
  5
1AD4C
  8
AM_0
 10
952.35997122364438
 20
277.52897941797443
 30
0.0
 40
9.0
 50
270.00004999999851
 51
0.0000200000020129
  0
ARC
  5
1AD4D
  8
AM_0
 10
951.35997122364427
 20
278.52897941797443
 30
0.0
 40
5.0
 50
270.00004999999851
 51
0.0000200000020129
  0
ARC
  5
1AD4E
  8
AM_0
 10
953.85854112364393
 20
282.77897941797443
 30
0.0
 40
2.0
 50
270.00004999999851
 51
0.0000200000020129
  0
LINE
  5
1AD4F
  8
AM_0
 10
927.85854112364405
 20
274.77897941797443
 30
0.0
 11
927.85854112364405
 21
268.52897941797443
 31
0.0
  0
LINE
  5
1AD50
  8
AM_0
 10
930.85854112364393
 20
274.77897941797443
 30
0.0
 11
930.85854112364393
 21
280.77897941797443
 31
0.0
  0
LINE
  5
1AD51
  8
AM_0
 10
914.85854112364393
 20
273.52897941797443
 30
0.0
 11
914.85854112364393
 21
268.52897941797443
 31
0.0
  0
LINE
  5
1AD52
  8
AM_0
 10
917.85854112364416
 20
274.77897941797443
 30
0.0
 11
917.85854112364416
 21
268.52897941797443
 31
0.0
  0
LINE
  5
1AD53
  8
AM_0
 10
917.85854112364416
 20
273.52897941797443
 30
0.0
 11
914.85854112364393
 21
273.52897941797443
 31
0.0
  0
LINE
  5
1AD54
  8
AM_0
 10
953.35854112364416
 20
289.63798941797432
 30
0.0
 11
910.85854112364405
 21
289.63798941797432
 31
0.0
  0
LINE
  5
1AD55
  8
AM_0
 10
953.35854112364416
 20
299.88798941797432
 30
0.0
 11
910.85854112364405
 21
299.88798941797432
 31
0.0
  0
LINE
  5
1AD56
  8
AM_0
 10
954.65853112364425
 20
299.23795941797442
 30
0.0
 11
954.65853112364425
 21
290.03800941797442
 31
0.0
  0
ARC
  5
1AD57
  8
AM_0
 10
954.95851112364437
 20
296.13798941797432
 30
0.0
 40
3.0
 50
62.150326502801498
 51
90.000011000002416
  0
ARC
  5
1AD58
  8
AM_0
 10
954.95851112364437
 20
293.13798941797432
 30
0.0
 40
3.0
 50
270.00004999999851
 51
297.84967349719852
  0
LINE
  5
1AD59
  8
AM_0
 10
954.65853112364425
 20
290.03800941797442
 30
0.0
 11
953.35854112364416
 21
290.03800941797442
 31
0.0
  0
LINE
  5
1AD5A
  8
AM_0
 10
954.95851112364437
 20
290.13798941797432
 30
0.0
 11
954.65853112364425
 21
290.13798941797432
 31
0.0
  0
LINE
  5
1AD5B
  8
AM_0
 10
954.65853112364425
 20
299.23795941797442
 30
0.0
 11
953.35854112364416
 21
299.23795941797442
 31
0.0
  0
LINE
  5
1AD5C
  8
AM_0
 10
954.95851112364437
 20
299.13798941797432
 30
0.0
 11
954.65853112364425
 21
299.13798941797432
 31
0.0
  0
LINE
  5
1AD5D
  8
AM_0
 10
955.85854112364393
 20
328.52897941797443
 30
0.0
 11
962.35851112364401
 21
328.52897941797443
 31
0.0
  0
LINE
  5
1AD5E
  8
AM_0
 10
895.85854112364405
 20
285.1789994179743
 30
0.0
 11
895.85854112364405
 21
299.22892941797443
 31
0.0
  0
LINE
  5
1AD5F
  8
AM_0
 10
894.64931112364422
 20
286.53562941797452
 30
0.0
 11
893.86428112364433
 21
282.1889494179743
 31
0.0
  0
ARC
  5
1AD60
  8
AM_0
 10
882.85762112364409
 20
271.6399394179744
 30
0.0
 40
2.0009109999999981
 50
270.02609000000348
 51
359.999989999999
  0
ARC
  5
1AD61
  8
AM_0
 10
882.85848112364386
 20
273.66898941797439
 30
0.0
 40
2.0000371999999991
 50
270.00107000000349
 51
359.99894000000398
  0
LINE
  5
1AD62
  8
AM_0
 10
900.15792112364409
 20
271.85892941797442
 30
0.0
 11
886.11580112364379
 21
271.85892941797442
 31
0.0
  0
LINE
  5
1AD63
  8
AM_0
 10
905.85854112364393
 20
285.1789994179743
 30
0.0
 11
895.85854112364405
 21
285.1789994179743
 31
0.0
  0
LINE
  5
1AD64
  8
AM_0
 10
904.04854112364444
 20
278.42899941797441
 30
0.0
 11
894.25576112364411
 21
278.42899941797441
 31
0.0
  0
LINE
  5
1AD65
  8
AM_0
 10
901.66854112364422
 20
273.3989394179743
 30
0.0
 11
902.58852112364445
 21
277.27900941797441
 31
0.0
  0
LINE
  5
1AD66
  8
AM_0
 10
902.09719112364417
 20
273.37000941797442
 30
0.0
 11
902.57851112364426
 21
275.27903941797422
 31
0.0
  0
ARC
  5
1AD67
  8
AM_0
 10
899.72170112364415
 20
273.85953941797442
 30
0.0
 40
2.0005671999999981
 50
270.19569000000058
 51
346.69041000000442
  0
ARC
  5
1AD68
  8
AM_0
 10
900.15792112364409
 20
273.85892941797442
 30
0.0
 40
2.0
 50
270.000010000001
 51
345.84925000000038
  0
ARC
  5
1AD69
  8
AM_0
 10
904.03084112364445
 20
274.91068941797431
 30
0.0
 40
1.4982997
 50
90.089049999998792
 51
165.7702599999952
  0
LINE
  5
1AD6A
  8
AM_0
 10
905.85854112364393
 20
276.0990094179744
 30
0.0
 11
903.03853112364425
 21
276.03901941797432
 31
0.0
  0
LINE
  5
1AD6B
  8
AM_0
 10
904.02852112364417
 20
276.40897941797431
 30
0.0
 11
902.3785611236442
 21
276.40897941797431
 31
0.0
  0
ARC
  5
1AD6C
  8
AM_0
 10
904.0453111236443
 20
276.93131941797441
 30
0.0
 40
1.497715799999999
 50
89.877355000002098
 51
166.5756209999972
  0
LINE
  5
1AD6D
  8
AM_0
 10
884.85854112364405
 20
271.6399394179744
 30
0.0
 11
884.85854112364405
 21
279.0489994179743
 31
0.0
  0
ARC
  5
1AD6E
  8
AM_0
 10
886.11580112364379
 20
270.35892941797442
 30
0.0
 40
1.5
 50
89.999997000002296
 51
158.53829099999561
  0
LINE
  5
1AD6F
  8
AM_0
 10
892.16091112364381
 20
275.2689694179744
 30
0.0
 11
886.35854112364393
 21
275.2689694179744
 31
0.0
  0
LINE
  5
1AD70
  8
AM_0
 10
892.09871112364419
 20
280.54899941797441
 30
0.0
 11
886.35854112364393
 21
280.54899941797441
 31
0.0
  0
ARC
  5
1AD71
  8
AM_0
 10
896.34169112364407
 20
280.9866194179744
 30
0.0
 40
1.502416299999999
 50
89.901382999997608
 51
167.60811299999961
  0
LINE
  5
1AD72
  8
AM_0
 10
896.34426112364406
 20
282.48893941797451
 30
0.0
 11
893.92427112364396
 21
282.48893941797451
 31
0.0
  0
LINE
  5
1AD73
  8
AM_0
 10
893.91426112364434
 20
276.83902941797442
 30
0.0
 11
894.87422112364436
 21
281.30900941797421
 31
0.0
  0
ARC
  5
1AD74
  8
AM_0
 10
891.89913112364422
 20
282.53421941797438
 30
0.0
 40
1.9952742999999991
 50
270.14858000000021
 51
350.03521999999941
  0
ARC
  5
1AD75
  8
AM_0
 10
891.96120112364395
 20
277.25602941797422
 30
0.0
 40
1.997119399999999
 50
269.80137000000121
 51
347.94475999999821
  0
ARC
  5
1AD76
  8
AM_0
 10
886.36049112364435
 20
279.0470394179743
 30
0.0
 40
1.501982699999999
 50
90.075586999995195
 51
179.92441279799939
  0
ARC
  5
1AD77
  8
AM_0
 10
886.36165112364404
 20
273.7657894179743
 30
0.0
 40
1.503128599999999
 50
90.119130000001164
 51
179.8808703500043
  0
ARC
  5
1AD78
  8
AM_0
 10
858.13366738949196
 20
255.52897941797491
 30
0.0
 40
1.0
 50
0.0
 51
90.0
  0
ARC
  5
1AD79
  8
AM_0
 10
883.86574112364383
 20
318.52897941797431
 30
0.0
 40
1.0000259
 50
269.5875400000013
 51
90.412465999999768
  0
LINE
  5
1AD7A
  8
AM_0
 10
864.85848112364386
 20
287.17905941797432
 30
0.0
 11
895.85848112364408
 21
289.2090594179744
 31
0.0
  0
ARC
  5
1AD7B
  8
AM_0
 10
883.86574112364383
 20
298.52897941797443
 30
0.0
 40
1.0000259
 50
269.5875400000013
 51
90.412465999999768
  0
ARC
  5
1AD7C
  8
AM_0
 10
883.86574112364383
 20
308.52897941797443
 30
0.0
 40
1.0000259
 50
269.5875400000013
 51
90.412465999999768
  0
ARC
  5
1AD7D
  8
AM_0
 10
883.86574112364383
 20
328.52897941797443
 30
0.0
 40
1.0000259
 50
269.5875400000013
 51
90.412465999999768
  0
ARC
  5
1AD7E
  8
AM_0
 10
891.31569112364411
 20
308.52897941797443
 30
0.0
 40
1.000025599999997
 50
269.58948000000038
 51
90.410525999999223
  0
ARC
  5
1AD7F
  8
AM_0
 10
892.4042511236438
 20
308.4989494179743
 30
0.0
 40
1.460011199999999
 50
269.77526000000302
 51
90.224751999995519
  0
LINE
  5
1AD80
  8
AM_0
 10
905.85854112364393
 20
290.83902941797442
 30
0.0
 11
895.85854112364405
 21
290.83902941797442
 31
0.0
  0
LINE
  5
1AD81
  8
AM_0
 10
905.85854112364393
 20
299.22892941797443
 30
0.0
 11
895.85854112364405
 21
299.22892941797443
 31
0.0
  0
ARC
  5
1AD82
  8
AM_0
 10
896.69570112364408
 20
291.94046941797438
 30
0.0
 40
4.9991421999999961
 50
99.6399350000015
 51
174.62197310000059
  0
ARC
  5
1AD83
  8
AM_0
 10
892.18856112364381
 20
298.47892941797443
 30
0.0
 40
1.6800002000000001
 50
270.0
 51
89.999997000002296
  0
ARC
  5
1AD84
  8
AM_0
 10
896.23885112364383
 20
295.8743094179743
 30
0.0
 40
6.0073843
 50
225.23615000000501
 51
266.37026000000259
  0
ARC
  5
1AD85
  8
AM_0
 10
896.12538112364439
 20
286.26896941797452
 30
0.0
 40
1.5
 50
100.24788999999799
 51
169.76262100000099
  0
ARC
  5
1AD86
  8
AM_0
 10
892.71773112364406
 20
292.31864941797448
 30
0.0
 40
1.0032491999999991
 50
174.83235659999909
 51
225.0188099999944
  0
ARC
  5
1AD87
  8
AM_0
 10
891.31569112364411
 20
298.52897941797443
 30
0.0
 40
1.000025599999997
 50
269.58948000000038
 51
90.410525999999223
  0
ARC
  5
1AD88
  8
AM_0
 10
901.53481112364454
 20
318.51896941797452
 30
0.0
 40
1.3300148000000001
 50
269.72940999999679
 51
90.270582000000445
  0
ARC
  5
1AD89
  8
AM_0
 10
900.30855112364429
 20
318.52897941797431
 30
0.0
 40
1.000005699999998
 50
270.0
 51
89.999997000002296
  0
ARC
  5
1AD8A
  8
AM_0
 10
901.59676112364446
 20
328.52897941797443
 30
0.0
 40
1.2700266
 50
269.62931000000458
 51
90.370678999997239
  0
ARC
  5
1AD8B
  8
AM_0
 10
900.30855112364429
 20
328.52897941797443
 30
0.0
 40
1.000005699999998
 50
270.0
 51
89.999997000002296
  0
CIRCLE
  5
1AD8C
  8
AM_0
 10
844.03366738949126
 20
239.52897941797491
 30
0.0
 40
6.2999999999996117
  0
ARC
  5
1AD8D
  8
AM_0
 10
844.03366738949126
 20
239.52897941797491
 30
0.0
 40
9.2999999999997076
 50
180.0
 51
0.0
  0
LINE
  5
1AD8E
  8
AM_0
 10
815.23702143496996
 20
234.57897819390519
 30
0.0
 11
815.23702143496996
 21
251.5289794179746
 31
0.0
  0
LINE
  5
1AD8F
  8
AM_0
 10
816.73702143497019
 20
251.5289794179746
 30
0.0
 11
816.73702143497019
 21
234.32340807594991
 31
0.0
  0
LINE
  5
1AD90
  8
AM_0
 10
818.93702143497023
 20
233.94857190294891
 30
0.0
 11
818.93702143497023
 21
251.5289794179746
 31
0.0
  0
LINE
  5
1AD91
  8
AM_0
 10
807.83031334401539
 20
235.84093370088291
 30
0.0
 11
807.83031334401505
 21
251.5289794179746
 31
0.0
  0
LINE
  5
1AD92
  8
AM_0
 10
809.33031334401505
 20
251.5289794179746
 30
0.0
 11
809.33031334401551
 21
235.5853635829277
 31
0.0
  0
LINE
  5
1AD93
  8
AM_0
 10
811.03366738948932
 20
235.29514598671301
 30
0.0
 11
811.03366738948932
 21
251.52897941797741
 31
0.0
  0
LINE
  5
1AD94
  8
AM_0
 10
813.03366738949285
 20
251.5289794179746
 30
0.0
 11
813.03366738949285
 21
234.95438582943859
 31
0.0
  0
LINE
  5
1AD95
  8
AM_0
 10
820.43702143497035
 20
251.5289794179746
 30
0.0
 11
820.43702143497035
 21
233.6930017849937
 31
0.0
  0
LINE
  5
1AD96
  8
AM_0
 10
824.63702143497028
 20
251.5289794179746
 30
0.0
 11
824.63702143497028
 21
232.97740545471811
 31
0.0
  0
LINE
  5
1AD97
  8
AM_0
 10
822.63702143496994
 20
233.31816561199199
 30
0.0
 11
822.63702143496994
 21
251.52897941797499
 31
0.0
  0
LINE
  5
1AD98
  8
AM_0
 10
804.12695929853805
 20
236.47191145437191
 30
0.0
 11
804.12695929853805
 21
251.5289794179746
 31
0.0
  0
LINE
  5
1AD99
  8
AM_0
 10
805.6269592985376
 20
251.5289794179746
 30
0.0
 11
805.62695929853805
 21
236.21634133641641
 31
0.0
  0
LINE
  5
1AD9A
  8
AM_0
 10
800.42360525306071
 20
237.1028892078609
 30
0.0
 11
800.42360525306071
 21
251.5289794179746
 31
0.0
  0
LINE
  5
1AD9B
  8
AM_0
 10
801.9236052530606
 20
251.5289794179746
 30
0.0
 11
801.92360525306106
 21
236.84731908990551
 31
0.0
  0
LINE
  5
1AD9C
  8
AM_0
 10
800.42360525306071
 20
237.1028892078609
 30
0.0
 11
798.22025120758315
 21
237.47829684339419
 31
0.0
  0
LINE
  5
1AD9D
  8
AM_0
 10
787.63366738949071
 20
234.21477419067699
 30
0.0
 11
787.63366738949082
 21
238.2681668360608
 31
0.0
  0
LINE
  5
1AD9E
  8
AM_0
 10
771.85854112364439
 20
239.52897941797451
 30
0.0
 11
771.85854112364439
 21
236.02897941797431
 31
0.0
  0
LINE
  5
1AD9F
  8
AM_0
 10
804.12695929853805
 20
236.47191145437191
 30
0.0
 11
801.92360525306106
 21
236.84731908990551
 31
0.0
  0
LINE
  5
1ADA0
  8
AM_0
 10
779.90797225264976
 20
235.5289794179742
 30
0.0
 11
856.20797225265062
 21
222.52897941797491
 31
0.0
  0
LINE
  5
1ADA1
  8
AM_0
 10
780.73366738949085
 20
222.5289794179746
 30
0.0
 11
856.20797225265062
 21
222.52897941797491
 31
0.0
  0
LINE
  5
1ADA2
  8
AM_0
 10
822.63702143496994
 20
233.31816561199199
 30
0.0
 11
820.43702143497035
 21
233.6930017849937
 31
0.0
  0
LINE
  5
1ADA3
  8
AM_0
 10
818.93702143497023
 20
233.94857190294891
 30
0.0
 11
816.73702143497019
 21
234.32340807594991
 31
0.0
  0
LINE
  5
1ADA4
  8
AM_0
 10
811.03366738948932
 20
235.29514598671301
 30
0.0
 11
809.33031334401551
 21
235.5853635829277
 31
0.0
  0
LINE
  5
1ADA5
  8
AM_0
 10
815.23702143496996
 20
234.57897819390519
 30
0.0
 11
813.03366738949285
 21
234.95438582943859
 31
0.0
  0
LINE
  5
1ADA6
  8
AM_0
 10
807.83031334401539
 20
235.84093370088291
 30
0.0
 11
805.62695929853805
 21
236.21634133641641
 31
0.0
  0
LINE
  5
1ADA7
  8
AM_0
 10
777.73366738949085
 20
235.5289794179742
 30
0.0
 11
772.35854112364427
 21
235.5289794179742
 31
0.0
  0
LINE
  5
1ADA8
  8
AM_0
 10
788.50351587047419
 20
222.5289794179746
 30
0.0
 11
788.50351587047419
 21
234.06447002044271
 31
0.0
  0
LINE
  5
1ADA9
  8
AM_0
 10
778.23366738949085
 20
235.0289794179746
 30
0.0
 11
778.23366738949085
 21
225.02897941797451
 31
0.0
  0
ARC
  5
1ADAA
  8
AM_0
 10
780.73366738949085
 20
225.02897941797451
 30
0.0
 40
2.5
 50
180.0
 51
270.0
  0
LINE
  5
1ADAB
  8
AM_0
 10
777.73366738949085
 20
235.5289794179742
 30
0.0
 11
779.90797225264976
 21
235.5289794179742
 31
0.0
  0
ARC
  5
1ADAC
  8
AM_0
 10
777.73366738949085
 20
235.0289794179746
 30
0.0
 40
0.5
 50
0.0
 51
90.0
  0
ARC
  5
1ADAD
  8
AM_0
 10
772.35854112364427
 20
236.02897941797431
 30
0.0
 40
0.5
 50
180.0
 51
270.0
  0
LINE
  5
1ADAE
  8
AM_0
 10
853.33366738949155
 20
256.52897941797499
 30
0.0
 11
772.85854112364416
 21
256.52897941797448
 31
0.0
  0
LINE
  5
1ADAF
  8
AM_0
 10
776.35854112364382
 20
259.02897941797471
 30
0.0
 11
843.3585411236437
 21
259.02897941797471
 31
0.0
  0
LINE
  5
1ADB0
  8
AM_0
 10
809.85854112364416
 20
296.80900941797449
 30
0.0
 11
762.03853112364413
 21
296.80900941797449
 31
0.0
  0
LINE
  5
1ADB1
  8
AM_0
 10
765.51851112364375
 20
297.52897941797431
 30
0.0
 11
809.85854112364416
 21
297.52897941797431
 31
0.0
  0
LINE
  5
1ADB2
  8
AM_0
 10
839.79300762172386
 20
259.02897941797471
 30
0.0
 11
840.12404112364413
 21
271.66895941797441
 31
0.0
  0
LINE
  5
1ADB3
  8
AM_0
 10
853.33366738949155
 20
256.52897941797499
 30
0.0
 11
853.33366738949201
 21
239.52897941797491
 31
0.0
  0
LINE
  5
1ADB4
  8
AM_0
 10
843.3585411236437
 20
259.02897941797471
 30
0.0
 11
843.3585411236437
 21
256.52897941797448
 31
0.0
  0
LINE
  5
1ADB5
  8
AM_0
 10
834.73366738949176
 20
256.52897941797448
 30
0.0
 11
834.73366738949176
 21
239.52897941797451
 31
0.0
  0
ARC
  5
1ADB6
  8
AM_0
 10
841.53212112364395
 20
268.13895941797421
 30
0.0
 40
1.5
 50
89.999997000002296
 51
178.4999972999976
  0
LINE
  5
1ADB7
  8
AM_0
 10
815.23702143496996
 20
251.5289794179746
 30
0.0
 11
816.73702143497019
 21
251.5289794179746
 31
0.0
  0
LINE
  5
1ADB8
  8
AM_0
 10
815.23702143496996
 20
247.5289794179742
 30
0.0
 11
816.73702143497019
 21
247.5289794179742
 31
0.0
  0
LINE
  5
1ADB9
  8
AM_0
 10
822.63702143496994
 20
247.5289794179746
 30
0.0
 11
824.63702143497028
 21
247.5289794179746
 31
0.0
  0
LINE
  5
1ADBA
  8
AM_0
 10
818.93702143497023
 20
247.5289794179742
 30
0.0
 11
820.43702143497035
 21
247.5289794179746
 31
0.0
  0
LINE
  5
1ADBB
  8
AM_0
 10
822.63702143496994
 20
251.52897941797499
 30
0.0
 11
824.63702143497028
 21
251.5289794179746
 31
0.0
  0
LINE
  5
1ADBC
  8
AM_0
 10
818.93702143497023
 20
251.5289794179746
 30
0.0
 11
820.43702143497035
 21
251.5289794179746
 31
0.0
  0
LINE
  5
1ADBD
  8
AM_0
 10
807.83031334401505
 20
247.5289794179742
 30
0.0
 11
809.33031334401505
 21
247.5289794179742
 31
0.0
  0
LINE
  5
1ADBE
  8
AM_0
 10
811.03366738948932
 20
247.5289794179742
 30
0.0
 11
813.03366738949285
 21
247.5289794179742
 31
0.0
  0
LINE
  5
1ADBF
  8
AM_0
 10
804.12695929853805
 20
247.5289794179742
 30
0.0
 11
805.6269592985376
 21
247.5289794179742
 31
0.0
  0
LINE
  5
1ADC0
  8
AM_0
 10
807.83031334401505
 20
251.5289794179746
 30
0.0
 11
809.33031334401505
 21
251.5289794179746
 31
0.0
  0
LINE
  5
1ADC1
  8
AM_0
 10
811.03366738948932
 20
251.5289794179746
 30
0.0
 11
813.03366738949285
 21
251.5289794179746
 31
0.0
  0
LINE
  5
1ADC2
  8
AM_0
 10
804.12695929853805
 20
251.5289794179746
 30
0.0
 11
805.6269592985376
 21
251.5289794179746
 31
0.0
  0
ARC
  5
1ADC3
  8
AM_0
 10
829.19356112364414
 20
318.51896941797452
 30
0.0
 40
1.3300148000000001
 50
89.729432999998977
 51
270.27058000000142
  0
ARC
  5
1ADC4
  8
AM_0
 10
829.13161112364401
 20
328.52897941797443
 30
0.0
 40
1.2700266
 50
89.629329999995278
 51
270.37067999999999
  0
ARC
  5
1ADC5
  8
AM_0
 10
830.41982112364406
 20
318.52897941797431
 30
0.0
 40
1.000005699999998
 50
89.999997000002296
 51
270.000010000001
  0
ARC
  5
1ADC6
  8
AM_0
 10
830.41982112364406
 20
328.52897941797443
 30
0.0
 40
1.000005699999998
 50
89.999997000002296
 51
270.000010000001
  0
LINE
  5
1ADC7
  8
AM_0
 10
764.11855112364378
 20
273.15903941797438
 30
0.0
 11
760.65856112364395
 21
286.06900941797431
 31
0.0
  0
LINE
  5
1ADC8
  8
AM_0
 10
771.85854112364439
 20
239.52897941797451
 30
0.0
 11
780.23366738949142
 21
239.5289794179742
 31
0.0
  0
LINE
  5
1ADC9
  8
AM_0
 10
778.34493112364419
 20
263.5289794179742
 30
0.0
 11
766.84236112364385
 21
263.5289794179742
 31
0.0
  0
LINE
  5
1ADCA
  8
AM_0
 10
779.92397911351031
 20
259.02897941797471
 30
0.0
 11
779.59297112364413
 21
271.66904941797441
 31
0.0
  0
LINE
  5
1ADCB
  8
AM_0
 10
796.72025120758315
 20
237.73386696134969
 30
0.0
 11
786.85854112364461
 21
239.4141059009462
 31
0.0
  0
LINE
  5
1ADCC
  8
AM_0
 10
796.72025120758315
 20
237.73386696134969
 30
0.0
 11
796.72025120758315
 21
251.5289794179746
 31
0.0
  0
LINE
  5
1ADCD
  8
AM_0
 10
798.22025120758315
 20
251.5289794179746
 30
0.0
 11
798.22025120758315
 21
237.47829684339419
 31
0.0
  0
LINE
  5
1ADCE
  8
AM_0
 10
796.72025120758315
 20
247.5289794179742
 30
0.0
 11
798.22025120758315
 21
247.5289794179742
 31
0.0
  0
LINE
  5
1ADCF
  8
AM_0
 10
800.42360525306071
 20
247.5289794179742
 30
0.0
 11
801.9236052530606
 21
247.5289794179742
 31
0.0
  0
LINE
  5
1ADD0
  8
AM_0
 10
796.72025120758315
 20
251.5289794179746
 30
0.0
 11
798.22025120758315
 21
251.5289794179746
 31
0.0
  0
LINE
  5
1ADD1
  8
AM_0
 10
800.42360525306071
 20
251.5289794179746
 30
0.0
 11
801.9236052530606
 21
251.5289794179746
 31
0.0
  0
LINE
  5
1ADD2
  8
AM_0
 10
786.85854112364461
 20
239.4141059009462
 30
0.0
 11
786.85854112364461
 21
256.52897941797448
 31
0.0
  0
LINE
  5
1ADD3
  8
AM_0
 10
776.35854112364382
 20
259.02897941797471
 30
0.0
 11
776.35854112364382
 21
256.52897941797448
 31
0.0
  0
ARC
  5
1ADD4
  8
AM_0
 10
778.34493112364419
 20
262.0289794179742
 30
0.0
 40
1.5
 50
1.500000000002736
 51
89.999997000002296
  0
LINE
  5
1ADD5
  8
AM_0
 10
771.85854112364439
 20
239.52897941797451
 30
0.0
 11
771.85854112364439
 21
255.5289794179742
 31
0.0
  0
ARC
  5
1ADD6
  8
AM_0
 10
772.85854112364416
 20
255.5289794179742
 30
0.0
 40
1.0
 50
90.0
 51
180.0
  0
LINE
  5
1ADD7
  8
AM_0
 10
759.85854112364393
 20
273.02903941797439
 30
0.0
 11
765.58434112364375
 21
264.21210941797432
 31
0.0
  0
LINE
  5
1ADD8
  8
AM_0
 10
764.14852112364406
 20
273.02897941797443
 30
0.0
 11
758.85854112364427
 21
273.02897941797443
 31
0.0
  0
ARC
  5
1ADD9
  8
AM_0
 10
766.84236112364385
 20
265.02897941797443
 30
0.0
 40
1.5
 50
213.0000000000019
 51
270.000010000001
  0
ARC
  5
1ADDA
  8
AM_0
 10
766.05727112364411
 20
273.67521941797452
 30
0.0
 40
2.0062942999999991
 50
194.91156000000259
 51
269.75067000000109
  0
LINE
  5
1ADDB
  8
AM_0
 10
757.85854112364416
 20
270.02897941797431
 30
0.0
 11
750.85854112364382
 21
270.02897941797431
 31
0.0
  0
ARC
  5
1ADDC
  8
AM_0
 10
757.86550112364375
 20
271.02201941797432
 30
0.0
 40
0.99304521
 50
269.59731999999991
 51
0.4026900000005563
  0
LINE
  5
1ADDD
  8
AM_0
 10
757.85854112364416
 20
281.48893941797428
 30
0.0
 11
750.85854112364382
 21
281.48893941797428
 31
0.0
  0
ARC
  5
1ADDE
  8
AM_0
 10
757.86617112364422
 20
282.48136941797452
 30
0.0
 40
0.99237448
 50
269.5580300000035
 51
0.44198000000195
  0
LINE
  5
1ADDF
  8
AM_0
 10
765.52571112364399
 20
307.52897941797431
 30
0.0
 11
779.85854112364382
 21
307.52897941797431
 31
0.0
  0
LINE
  5
1ADE0
  8
AM_0
 10
765.51851112364375
 20
299.52897941797431
 30
0.0
 11
779.85854112364382
 21
299.52897941797431
 31
0.0
  0
LINE
  5
1ADE1
  8
AM_0
 10
779.85854112364382
 20
307.04899941797441
 30
0.0
 11
761.82430112364386
 21
307.04899941797441
 31
0.0
  0
LINE
  5
1ADE2
  8
AM_0
 10
779.87856112364386
 20
300.16898941797427
 30
0.0
 11
762.03853112364413
 21
300.16898941797427
 31
0.0
  0
ARC
  5
1ADE3
  8
AM_0
 10
797.85854112364416
 20
306.02897941797431
 30
0.0
 40
1.5
 50
89.999997000002296
 51
180.0
  0
ARC
  5
1ADE4
  8
AM_0
 10
797.85854112364416
 20
306.02897941797431
 30
0.0
 40
1.02
 50
89.999997000002296
 51
180.0
  0
ARC
  5
1ADE5
  8
AM_0
 10
797.85854112364416
 20
301.02897941797431
 30
0.0
 40
1.5
 50
179.99999931675049
 51
270.000010000001
  0
ARC
  5
1ADE6
  8
AM_0
 10
797.838521123644
 20
301.16898941797427
 30
0.0
 40
1.0
 50
179.99999931675049
 51
270.000010000001
  0
LINE
  5
1ADE7
  8
AM_0
 10
796.35854112364405
 20
306.02897941797431
 30
0.0
 11
796.35854112364405
 21
301.02897941797431
 31
0.0
  0
LINE
  5
1ADE8
  8
AM_0
 10
796.838521123644
 20
306.02897941797431
 30
0.0
 11
796.838521123644
 21
301.16898941797427
 31
0.0
  0
CIRCLE
  5
1ADE9
  8
AM_0
 10
791.35854112364405
 20
305.02897941797431
 30
0.0
 40
1.1000000000000001
  0
CIRCLE
  5
1ADEA
  8
AM_0
 10
791.35854112364405
 20
305.02897941797431
 30
0.0
 40
1.149999999999999
  0
CIRCLE
  5
1ADEB
  8
AM_0
 10
786.35854112364405
 20
305.02897941797431
 30
0.0
 40
1.0
  0
ARC
  5
1ADEC
  8
AM_0
 10
779.85854112364382
 20
306.02897941797431
 30
0.0
 40
1.02
 50
359.999989999999
 51
89.999997000002296
  0
ARC
  5
1ADED
  8
AM_0
 10
779.87856112364386
 20
301.16898941797427
 30
0.0
 40
1.0
 50
270.0
 51
0.0000100000010064
  0
LINE
  5
1ADEE
  8
AM_0
 10
780.87856112364409
 20
306.02897941797431
 30
0.0
 11
780.87856112364409
 21
301.16898941797427
 31
0.0
  0
LINE
  5
1ADEF
  8
AM_0
 10
781.35854112364416
 20
306.02897941797431
 30
0.0
 11
781.35854112364416
 21
301.02897941797431
 31
0.0
  0
ARC
  5
1ADF0
  8
AM_0
 10
779.85854112364382
 20
306.02897941797431
 30
0.0
 40
1.5
 50
359.999989999999
 51
89.999997000002296
  0
ARC
  5
1ADF1
  8
AM_0
 10
779.85854112364382
 20
301.02897941797431
 30
0.0
 40
1.5
 50
270.0
 51
0.0000100000010064
  0
ARC
  5
1ADF2
  8
AM_0
 10
765.51857112364394
 20
308.52897941797443
 30
0.0
 40
1.000025599999997
 50
89.589469000002197
 51
270.41052999999681
  0
ARC
  5
1ADF3
  8
AM_0
 10
761.81856112364392
 20
308.4989494179743
 30
0.0
 40
1.460011199999999
 50
89.775249999996646
 51
270.22475000000333
  0
ARC
  5
1ADF4
  8
AM_0
 10
762.03853112364413
 20
298.48893941797451
 30
0.0
 40
1.6800077
 50
89.999997000002296
 51
270.000010000001
  0
ARC
  5
1ADF5
  8
AM_0
 10
765.51851112364375
 20
298.52897941797443
 30
0.0
 40
1.0000040999999991
 50
89.999997000002296
 51
270.000010000001
  0
LINE
  5
1ADF6
  8
AM_0
 10
758.85854112364427
 20
296.3789494179743
 30
0.0
 11
750.85854112364382
 21
296.3789494179743
 31
0.0
  0
ARC
  5
1ADF7
  8
AM_0
 10
759.2148611236438
 20
285.68522941797448
 30
0.0
 40
1.4937901
 50
14.887079999999211
 51
90.243576000004794
  0
LINE
  5
1ADF8
  8
AM_0
 10
864.8585411236437
 20
379.8789494179743
 30
0.0
 11
758.85854112364427
 21
379.8789494179743
 31
0.0
  0
LINE
  5
1ADF9
  8
AM_0
 10
882.85854112364393
 20
395.38895941797438
 30
0.0
 11
766.04854112364399
 21
395.38895941797438
 31
0.0
  0
LINE
  5
1ADFA
  8
AM_0
 10
882.85854112364393
 20
399.4490194179744
 30
0.0
 11
764.77486112364409
 21
399.4490194179744
 31
0.0
  0
LINE
  5
1ADFB
  8
AM_0
 10
882.85854112364393
 20
398.77897941797431
 30
0.0
 11
764.63088112364392
 21
398.77897941797431
 31
0.0
  0
LINE
  5
1ADFC
  8
AM_0
 10
882.85854112364393
 20
397.41898941797439
 30
0.0
 11
764.33858112364396
 21
397.41898941797439
 31
0.0
  0
LINE
  5
1ADFD
  8
AM_0
 10
765.51851112364375
 20
369.52897941797431
 30
0.0
 11
891.30855112364395
 21
369.52897941797431
 31
0.0
  0
LINE
  5
1ADFE
  8
AM_0
 10
765.52571112364399
 20
357.52897941797443
 30
0.0
 11
891.30855112364395
 21
357.52897941797443
 31
0.0
  0
LINE
  5
1ADFF
  8
AM_0
 10
830.41982112364406
 20
349.52897941797443
 30
0.0
 11
900.30855112364429
 21
349.52897941797443
 31
0.0
  0
LINE
  5
1AE00
  8
AM_0
 10
830.41982112364406
 20
347.52897941797431
 30
0.0
 11
900.30855112364429
 21
347.52897941797431
 31
0.0
  0
LINE
  5
1AE01
  8
AM_0
 10
830.41646112364413
 20
339.52897941797431
 30
0.0
 11
900.30855112364429
 21
339.52897941797431
 31
0.0
  0
LINE
  5
1AE02
  8
AM_0
 10
830.41646112364413
 20
337.52897941797443
 30
0.0
 11
900.30855112364429
 21
337.52897941797443
 31
0.0
  0
LINE
  5
1AE03
  8
AM_0
 10
892.18856112364381
 20
370.25895941797449
 30
0.0
 11
762.03853112364413
 21
370.25895941797449
 31
0.0
  0
LINE
  5
1AE04
  8
AM_0
 10
892.18856112364381
 20
366.89896941797451
 30
0.0
 11
797.838521123644
 21
366.89896941797451
 31
0.0
  0
LINE
  5
1AE05
  8
AM_0
 10
892.39852112364395
 20
360.01896941797452
 30
0.0
 11
797.85854112364416
 21
360.01896941797452
 31
0.0
  0
LINE
  5
1AE06
  8
AM_0
 10
892.39852112364395
 20
357.0989194179744
 30
0.0
 11
761.82430112364386
 21
357.0989194179744
 31
0.0
  0
LINE
  5
1AE07
  8
AM_0
 10
901.52852112364428
 20
349.87894941797441
 30
0.0
 11
829.18727112364411
 21
349.87894941797441
 31
0.0
  0
LINE
  5
1AE08
  8
AM_0
 10
901.52852112364428
 20
347.20902941797419
 30
0.0
 11
829.19985112364395
 21
347.20902941797419
 31
0.0
  0
LINE
  5
1AE09
  8
AM_0
 10
901.58852112364445
 20
339.80900941797438
 30
0.0
 11
829.12343112364385
 21
339.80900941797438
 31
0.0
  0
LINE
  5
1AE0A
  8
AM_0
 10
901.58852112364445
 20
337.26896941797452
 30
0.0
 11
829.12343112364385
 21
337.26896941797452
 31
0.0
  0
LINE
  5
1AE0B
  8
AM_0
 10
797.85854112364416
 20
367.52897941797431
 30
0.0
 11
891.30855112364395
 21
367.52897941797431
 31
0.0
  0
LINE
  5
1AE0C
  8
AM_0
 10
797.85854112364416
 20
359.52897941797431
 30
0.0
 11
891.30855112364395
 21
359.52897941797431
 31
0.0
  0
LINE
  5
1AE0D
  8
AM_0
 10
930.85854112364393
 20
392.27897941797409
 30
0.0
 11
905.85854112364393
 21
392.27897941797409
 31
0.0
  0
LINE
  5
1AE0E
  8
AM_0
 10
953.85854112364393
 20
386.27897941797409
 30
0.0
 11
905.85854112364393
 21
386.27897941797409
 31
0.0
  0
LINE
  5
1AE0F
  8
AM_0
 10
955.85854112364393
 20
376.7819094179743
 30
0.0
 11
955.85854112364393
 21
384.27897941797409
 31
0.0
  0
LINE
  5
1AE10
  8
AM_0
 10
956.35997122364415
 20
278.52897941797443
 30
0.0
 11
956.35997122364415
 21
328.52897941797443
 31
0.0
  0
LINE
  5
1AE11
  8
AM_0
 10
956.35997122364415
 20
338.52897941797443
 30
0.0
 11
956.35997122364415
 21
388.52897941797409
 31
0.0
  0
LINE
  5
1AE12
  8
AM_0
 10
910.85854112364405
 20
377.4199694179743
 30
0.0
 11
910.85854112364405
 21
386.27897941797409
 31
0.0
  0
LINE
  5
1AE13
  8
AM_0
 10
953.35854112364416
 20
377.4199694179743
 30
0.0
 11
910.85854112364405
 21
377.4199694179743
 31
0.0
  0
LINE
  5
1AE14
  8
AM_0
 10
953.35854112364416
 20
367.1699694179743
 30
0.0
 11
910.85854112364405
 21
367.1699694179743
 31
0.0
  0
LINE
  5
1AE15
  8
AM_0
 10
955.85854112364393
 20
338.52897941797443
 30
0.0
 11
962.35851112364401
 21
338.52897941797443
 31
0.0
  0
ARC
  5
1AE16
  8
AM_0
 10
954.95851112364437
 20
370.9199694179743
 30
0.0
 40
3.0
 50
269.99998899999758
 51
297.84967349719852
  0
LINE
  5
1AE17
  8
AM_0
 10
954.65853112364425
 20
367.81999941797432
 30
0.0
 11
954.65853112364425
 21
377.01994941797432
 31
0.0
  0
LINE
  5
1AE18
  8
AM_0
 10
954.65853112364425
 20
367.81999941797432
 30
0.0
 11
953.35854112364416
 21
367.81999941797432
 31
0.0
  0
LINE
  5
1AE19
  8
AM_0
 10
954.95851112364437
 20
367.9199694179743
 30
0.0
 11
954.65853112364425
 21
367.9199694179743
 31
0.0
  0
ARC
  5
1AE1A
  8
AM_0
 10
954.95851112364437
 20
373.9199694179743
 30
0.0
 40
3.0
 50
62.150326502801498
 51
89.999950000001448
  0
LINE
  5
1AE1B
  8
AM_0
 10
954.65853112364425
 20
377.01994941797432
 30
0.0
 11
953.35854112364416
 21
377.01994941797432
 31
0.0
  0
LINE
  5
1AE1C
  8
AM_0
 10
954.95851112364437
 20
376.9199694179743
 30
0.0
 11
954.65853112364425
 21
376.9199694179743
 31
0.0
  0
LINE
  5
1AE1D
  8
AM_0
 10
951.35997122364427
 20
393.52897941797443
 30
0.0
 11
927.85854112364405
 21
393.52897941797443
 31
0.0
  0
LINE
  5
1AE1E
  8
AM_0
 10
952.35997122364438
 20
398.52897941797443
 30
0.0
 11
914.85854112364393
 21
398.52897941797443
 31
0.0
  0
ARC
  5
1AE1F
  8
AM_0
 10
952.35997122364438
 20
389.52897941797443
 30
0.0
 40
9.0
 50
0.0000200000020129
 51
90.000011000002416
  0
ARC
  5
1AE20
  8
AM_0
 10
951.35997122364427
 20
388.52897941797443
 30
0.0
 40
5.0
 50
0.0
 51
90.000011000002416
  0
ARC
  5
1AE21
  8
AM_0
 10
953.85854112364393
 20
384.27897941797409
 30
0.0
 40
2.0
 50
359.999979999998
 51
89.999950000001448
  0
LINE
  5
1AE22
  8
AM_0
 10
927.85854112364405
 20
392.27897941797443
 30
0.0
 11
927.85854112364405
 21
398.52897941797443
 31
0.0
  0
LINE
  5
1AE23
  8
AM_0
 10
930.85854112364393
 20
392.27897941797409
 30
0.0
 11
930.85854112364393
 21
386.27897941797409
 31
0.0
  0
LINE
  5
1AE24
  8
AM_0
 10
914.85854112364393
 20
393.52897941797443
 30
0.0
 11
914.85854112364393
 21
398.52897941797443
 31
0.0
  0
LINE
  5
1AE25
  8
AM_0
 10
917.85854112364416
 20
392.27897941797443
 30
0.0
 11
917.85854112364416
 21
398.52897941797443
 31
0.0
  0
LINE
  5
1AE26
  8
AM_0
 10
917.85854112364416
 20
393.52897941797443
 30
0.0
 11
914.85854112364393
 21
393.52897941797443
 31
0.0
  0
LINE
  5
1AE27
  8
AM_0
 10
905.85854112364393
 20
392.27897941797443
 30
0.0
 11
905.85854112364393
 21
333.52897941797443
 31
0.0
  0
LINE
  5
1AE28
  8
AM_0
 10
895.85854112364405
 20
381.8789494179743
 30
0.0
 11
895.85854112364405
 21
367.8390294179743
 31
0.0
  0
LINE
  5
1AE29
  8
AM_0
 10
894.64925112364392
 20
380.52234941797423
 30
0.0
 11
893.86421112364405
 21
384.86902941797439
 31
0.0
  0
ARC
  5
1AE2A
  8
AM_0
 10
883.86574112364383
 20
338.52897941797431
 30
0.0
 40
1.0000259
 50
269.5875400000013
 51
90.412465999999768
  0
ARC
  5
1AE2B
  8
AM_0
 10
883.86574112364383
 20
348.52897941797431
 30
0.0
 40
1.0000259
 50
269.5875400000013
 51
90.412465999999768
  0
ARC
  5
1AE2C
  8
AM_0
 10
883.86574112364383
 20
358.52897941797443
 30
0.0
 40
1.0000259
 50
269.5875400000013
 51
90.412465999999768
  0
LINE
  5
1AE2D
  8
AM_0
 10
864.85848112364386
 20
379.8789494179743
 30
0.0
 11
895.85854112364405
 21
377.8489494179745
 31
0.0
  0
ARC
  5
1AE2E
  8
AM_0
 10
883.86574112364383
 20
368.52897941797431
 30
0.0
 40
1.0000259
 50
269.5875400000013
 51
90.412465999999768
  0
ARC
  5
1AE2F
  8
AM_0
 10
892.4042511236438
 20
358.55900941797438
 30
0.0
 40
1.460011199999999
 50
269.77526000000302
 51
90.224751999995519
  0
ARC
  5
1AE30
  8
AM_0
 10
891.31569112364411
 20
358.52897941797443
 30
0.0
 40
1.000025599999997
 50
269.58948000000038
 51
90.410525999999223
  0
ARC
  5
1AE31
  8
AM_0
 10
901.59676112364446
 20
338.53898941797439
 30
0.0
 40
1.2700266
 50
269.62934000000359
 51
90.370672000003751
  0
ARC
  5
1AE32
  8
AM_0
 10
900.30855112364429
 20
338.52897941797431
 30
0.0
 40
1.000005699999998
 50
270.0
 51
89.999997000002296
  0
ARC
  5
1AE33
  8
AM_0
 10
901.53481112364454
 20
348.54398941797439
 30
0.0
 40
1.3350147999999991
 50
269.7304299999999
 51
90.269565000002885
  0
ARC
  5
1AE34
  8
AM_0
 10
900.30855112364429
 20
348.52897941797431
 30
0.0
 40
1.000005699999998
 50
270.0
 51
89.999997000002296
  0
LINE
  5
1AE35
  8
AM_0
 10
905.85854112364393
 20
376.2189194179744
 30
0.0
 11
895.85854112364405
 21
376.2189194179744
 31
0.0
  0
LINE
  5
1AE36
  8
AM_0
 10
905.85854112364393
 20
367.8390294179743
 30
0.0
 11
895.85854112364405
 21
367.8390294179743
 31
0.0
  0
ARC
  5
1AE37
  8
AM_0
 10
896.70296112364395
 20
375.12320941797452
 30
0.0
 40
5.0059714
 50
185.32112000000191
 51
260.2890200000021
  0
ARC
  5
1AE38
  8
AM_0
 10
892.18856112364381
 20
368.57901941797439
 30
0.0
 40
1.6800002000000001
 50
270.0
 51
89.999997000002296
  0
ARC
  5
1AE39
  8
AM_0
 10
891.31569112364411
 20
368.52897941797431
 30
0.0
 40
1.000025599999997
 50
269.58948000000038
 51
90.410525999999223
  0
ARC
  5
1AE3A
  8
AM_0
 10
896.2375711236441
 20
371.19645941797449
 30
0.0
 40
6.0044340999999992
 50
93.619178000004084
 51
134.77442200000581
  0
ARC
  5
1AE3B
  8
AM_0
 10
892.71663112364399
 20
374.74967941797439
 30
0.0
 40
1.002184699999999
 50
134.95269300000061
 51
185.1961399999966
  0
ARC
  5
1AE3C
  8
AM_0
 10
896.12538112364439
 20
380.78898941797439
 30
0.0
 40
1.5
 50
190.2373800000006
 51
259.75211000000189
  0
ARC
  5
1AE3D
  8
AM_0
 10
882.86208112364397
 20
396.78251941797441
 30
0.0
 40
1.996488899999999
 50
359.8991500000011
 51
90.100851999998326
  0
ARC
  5
1AE3E
  8
AM_0
 10
882.86525112364382
 20
393.39566941797437
 30
0.0
 40
1.9933081999999991
 50
359.8073300000014
 51
90.192676999995797
  0
ARC
  5
1AE3F
  8
AM_0
 10
882.86440112364414
 20
395.42484941797437
 30
0.0
 40
1.994130499999996
 50
359.8311099999994
 51
90.168893999997536
  0
ARC
  5
1AE40
  8
AM_0
 10
882.86476112364414
 20
397.4524394179744
 30
0.0
 40
1.9964978999999961
 50
14.39939000000026
 51
90.178517999999769
  0
LINE
  5
1AE41
  8
AM_0
 10
899.72853112364419
 20
395.1990194179744
 30
0.0
 11
886.35854112364393
 21
395.1990194179744
 31
0.0
  0
LINE
  5
1AE42
  8
AM_0
 10
899.74855112364423
 20
396.82901941797439
 30
0.0
 11
886.24855112364367
 21
396.82901941797439
 31
0.0
  0
LINE
  5
1AE43
  8
AM_0
 10
905.85854112364393
 20
381.8789494179743
 30
0.0
 11
895.85854112364405
 21
381.8789494179743
 31
0.0
  0
LINE
  5
1AE44
  8
AM_0
 10
904.04854112364444
 20
388.6289494179743
 30
0.0
 11
894.25576112364411
 21
388.6289494179743
 31
0.0
  0
LINE
  5
1AE45
  8
AM_0
 10
901.66854112364422
 20
393.65897941797442
 30
0.0
 11
902.58858112364396
 21
389.78898941797439
 31
0.0
  0
LINE
  5
1AE46
  8
AM_0
 10
901.68856112364438
 20
395.31900941797431
 30
0.0
 11
902.57857112364445
 21
391.78898941797439
 31
0.0
  0
ARC
  5
1AE47
  8
AM_0
 10
904.03896112364396
 20
392.15433941797443
 30
0.0
 40
1.505448699999999
 50
194.04752999999951
 51
269.60313000000008
  0
ARC
  5
1AE48
  8
AM_0
 10
904.05336112364421
 20
390.13382941797443
 30
0.0
 40
1.5048382
 50
193.2469199999986
 51
269.81735999999921
  0
LINE
  5
1AE49
  8
AM_0
 10
904.02852112364417
 20
390.64896941797417
 30
0.0
 11
902.3785611236442
 21
390.64896941797417
 31
0.0
  0
LINE
  5
1AE4A
  8
AM_0
 10
905.85854112364393
 20
390.95896941797417
 30
0.0
 11
903.03853112364425
 21
391.02897941797443
 31
0.0
  0
ARC
  5
1AE4B
  8
AM_0
 10
899.72829112364445
 20
393.20670941797431
 30
0.0
 40
1.9922863
 50
13.121609999996121
 51
89.992278999999442
  0
ARC
  5
1AE4C
  8
AM_0
 10
899.75368112364447
 20
394.83439941797423
 30
0.0
 40
1.994612099999999
 50
14.061139999996159
 51
90.148008000004197
  0
LINE
  5
1AE4D
  8
AM_0
 10
884.85854112364405
 20
395.41898941797439
 30
0.0
 11
884.85854112364405
 21
388.0189694179744
 31
0.0
  0
LINE
  5
1AE4E
  8
AM_0
 10
891.96810112364381
 20
391.7989994179743
 30
0.0
 11
886.35854112364393
 21
391.7989994179743
 31
0.0
  0
LINE
  5
1AE4F
  8
AM_0
 10
891.90425112364392
 20
386.51896941797452
 30
0.0
 11
886.35854112364393
 21
386.51896941797452
 31
0.0
  0
ARC
  5
1AE50
  8
AM_0
 10
891.96120112364395
 20
389.80191941797437
 30
0.0
 40
1.997119399999999
 50
12.05524000000181
 51
90.198633000001507
  0
LINE
  5
1AE51
  8
AM_0
 10
893.91426112364434
 20
390.21897941797442
 30
0.0
 11
894.87422112364436
 21
385.74900941797438
 31
0.0
  0
LINE
  5
1AE52
  8
AM_0
 10
896.34426112364406
 20
384.56900941797431
 30
0.0
 11
893.92427112364396
 21
384.56900941797431
 31
0.0
  0
ARC
  5
1AE53
  8
AM_0
 10
896.34169112364407
 20
386.07132941797443
 30
0.0
 40
1.502416299999999
 50
192.3918699999991
 51
270.09862000000447
  0
ARC
  5
1AE54
  8
AM_0
 10
891.89913112364422
 20
384.52372941797438
 30
0.0
 40
1.9952742999999991
 50
9.9647800000006086
 51
89.851419999999905
  0
ARC
  5
1AE55
  8
AM_0
 10
886.36226112364398
 20
388.0227494179743
 30
0.0
 40
1.5037541000000001
 50
180.14286000000141
 51
269.85712999999902
  0
ARC
  5
1AE56
  8
AM_0
 10
886.36342112364412
 20
393.30387941797437
 30
0.0
 40
1.504891299999997
 50
180.18593000000371
 51
269.8140700000028
  0
ARC
  5
1AE57
  8
AM_0
 10
886.36544112364425
 20
396.70585941797441
 30
0.0
 40
1.506942899999999
 50
180.26336999999899
 51
269.73663000000079
  0
ARC
  5
1AE58
  8
AM_0
 10
886.25362112364405
 20
398.33414941797417
 30
0.0
 40
1.505230099999999
 50
194.82822000000129
 51
269.80579
  0
ARC
  5
1AE59
  8
AM_0
 10
829.13161112364401
 20
338.53898941797439
 30
0.0
 40
1.2700266
 50
89.629329999995278
 51
270.37067999999999
  0
ARC
  5
1AE5A
  8
AM_0
 10
829.19356112364414
 20
348.54398941797439
 30
0.0
 40
1.3350147999999991
 50
89.730443999998613
 51
270.2695700000001
  0
ARC
  5
1AE5B
  8
AM_0
 10
830.41982112364406
 20
338.52897941797431
 30
0.0
 40
1.000005699999998
 50
89.999997000002296
 51
270.000010000001
  0
ARC
  5
1AE5C
  8
AM_0
 10
830.41982112364406
 20
348.52897941797431
 30
0.0
 40
1.000005699999998
 50
89.999997000002296
 51
270.000010000001
  0
LINE
  5
1AE5D
  8
AM_0
 10
764.11852112364397
 20
393.90891941797429
 30
0.0
 11
760.65853112364391
 21
380.98896941797437
 31
0.0
  0
LINE
  5
1AE5E
  8
AM_0
 10
765.51137112364381
 20
359.52897941797431
 30
0.0
 11
779.85854112364382
 21
359.52897941797431
 31
0.0
  0
LINE
  5
1AE5F
  8
AM_0
 10
779.85854112364382
 20
360.01896941797452
 30
0.0
 11
761.81282112364374
 21
360.01896941797452
 31
0.0
  0
LINE
  5
1AE60
  8
AM_0
 10
765.51851112364375
 20
367.52897941797431
 30
0.0
 11
779.85854112364382
 21
367.52897941797431
 31
0.0
  0
LINE
  5
1AE61
  8
AM_0
 10
779.87856112364386
 20
366.89896941797451
 30
0.0
 11
762.03853112364413
 21
366.89896941797451
 31
0.0
  0
ARC
  5
1AE62
  8
AM_0
 10
797.85854112364416
 20
366.02897941797443
 30
0.0
 40
1.5
 50
89.999997000002296
 51
180.0
  0
ARC
  5
1AE63
  8
AM_0
 10
797.838521123644
 20
365.88895941797438
 30
0.0
 40
1.0
 50
89.999997000002296
 51
180.0
  0
ARC
  5
1AE64
  8
AM_0
 10
797.85854112364416
 20
361.02897941797431
 30
0.0
 40
1.5
 50
179.99999931675049
 51
270.000010000001
  0
ARC
  5
1AE65
  8
AM_0
 10
797.85854112364416
 20
361.02897941797431
 30
0.0
 40
1.02
 50
179.999999316757
 51
270.000010000001
  0
LINE
  5
1AE66
  8
AM_0
 10
796.838521123644
 20
361.02897941797431
 30
0.0
 11
796.838521123644
 21
365.88895941797438
 31
0.0
  0
LINE
  5
1AE67
  8
AM_0
 10
796.35854112364405
 20
361.02897941797431
 30
0.0
 11
796.35854112364405
 21
366.02897941797443
 31
0.0
  0
CIRCLE
  5
1AE68
  8
AM_0
 10
791.35854112364405
 20
362.02897941797443
 30
0.0
 40
1.149999999999999
  0
CIRCLE
  5
1AE69
  8
AM_0
 10
791.35854112364405
 20
362.02897941797443
 30
0.0
 40
1.1000000000000001
  0
CIRCLE
  5
1AE6A
  8
AM_0
 10
786.35854112364405
 20
362.02897941797443
 30
0.0
 40
1.0
  0
ARC
  5
1AE6B
  8
AM_0
 10
779.87856112364386
 20
365.88895941797438
 30
0.0
 40
1.0
 50
359.999989999999
 51
89.999997000002296
  0
ARC
  5
1AE6C
  8
AM_0
 10
779.85854112364382
 20
361.02897941797431
 30
0.0
 40
1.02
 50
270.0
 51
0.0000100000010064
  0
LINE
  5
1AE6D
  8
AM_0
 10
780.87856112364409
 20
361.02897941797431
 30
0.0
 11
780.87856112364409
 21
365.88895941797438
 31
0.0
  0
LINE
  5
1AE6E
  8
AM_0
 10
781.35854112364416
 20
361.02897941797431
 30
0.0
 11
781.35854112364416
 21
366.02897941797443
 31
0.0
  0
ARC
  5
1AE6F
  8
AM_0
 10
779.85854112364382
 20
366.02897941797443
 30
0.0
 40
1.5
 50
359.999989999999
 51
89.999997000002296
  0
ARC
  5
1AE70
  8
AM_0
 10
779.85854112364382
 20
361.02897941797431
 30
0.0
 40
1.5
 50
270.0
 51
0.0000100000010064
  0
ARC
  5
1AE71
  8
AM_0
 10
765.51857112364394
 20
358.52897941797443
 30
0.0
 40
1.000025599999997
 50
89.589469000002197
 51
270.41052999999681
  0
ARC
  5
1AE72
  8
AM_0
 10
761.81856112364392
 20
358.55900941797438
 30
0.0
 40
1.460011199999999
 50
89.775249999996646
 51
270.22475000000333
  0
ARC
  5
1AE73
  8
AM_0
 10
762.03853112364413
 20
368.57901941797439
 30
0.0
 40
1.6800077
 50
89.999997000002296
 51
270.000010000001
  0
ARC
  5
1AE74
  8
AM_0
 10
765.51851112364375
 20
368.52897941797431
 30
0.0
 40
1.0000040999999991
 50
89.999997000002296
 51
270.000010000001
  0
LINE
  5
1AE75
  8
AM_0
 10
758.85854112364427
 20
370.6789994179743
 30
0.0
 11
750.85854112364382
 21
370.6789994179743
 31
0.0
  0
ARC
  5
1AE76
  8
AM_0
 10
759.20839112364411
 20
381.38126941797452
 30
0.0
 40
1.5022733999999991
 50
270.00588000000278
 51
344.86349000000342
  0
LINE
  5
1AE77
  8
AM_0
 10
763.30834112364369
 20
398.2641694179743
 30
0.0
 11
760.61849112364405
 21
385.7489494179743
 31
0.0
  0
LINE
  5
1AE78
  8
AM_0
 10
759.14852112364383
 20
384.56900941797431
 30
0.0
 11
761.56850112364384
 21
384.56900941797431
 31
0.0
  0
LINE
  5
1AE79
  8
AM_0
 10
762.39809112364401
 20
394.02897941797431
 30
0.0
 11
758.85854112364427
 21
394.02897941797431
 31
0.0
  0
ARC
  5
1AE7A
  8
AM_0
 10
766.04909112364385
 20
393.38981941797442
 30
0.0
 40
1.9991226
 50
90.015611000000348
 51
164.94920899999991
  0
ARC
  5
1AE7B
  8
AM_0
 10
764.63088112364392
 20
397.27897941797443
 30
0.0
 40
1.5
 50
89.999997000002296
 51
167.87020799999789
  0
ARC
  5
1AE7C
  8
AM_0
 10
764.33858112364396
 20
395.91898941797439
 30
0.0
 40
1.5
 50
89.999997000002296
 51
167.87020799999789
  0
ARC
  5
1AE7D
  8
AM_0
 10
764.77486112364409
 20
397.94901941797423
 30
0.0
 40
1.5
 50
89.999997000002296
 51
167.87020799999789
  0
LINE
  5
1AE7E
  8
AM_0
 10
757.85854112364416
 20
385.56900941797431
 30
0.0
 11
750.85854112364382
 21
385.56900941797431
 31
0.0
  0
ARC
  5
1AE7F
  8
AM_0
 10
757.85945112364379
 20
384.5698694179743
 30
0.0
 40
0.9990923399999999
 50
359.94791999999558
 51
90.052078000000705
  0
ARC
  5
1AE80
  8
AM_0
 10
759.15285112364393
 20
386.06925941797442
 30
0.0
 40
1.500286
 50
269.83583000000482
 51
347.67369000000491
  0
LINE
  5
1AE81
  8
AM_0
 10
757.85854112364416
 20
397.02897941797431
 30
0.0
 11
750.85854112364382
 21
397.02897941797431
 31
0.0
  0
ARC
  5
1AE82
  8
AM_0
 10
757.85872112364382
 20
396.02921941797439
 30
0.0
 40
0.99980682
 50
359.98893000000248
 51
90.01106900000255
  0
LINE
  5
1AE83
  8
ｶｸﾚｾﾝ2
 10
773.86218485362735
 20
731.03589724641392
 30
0.0
 11
857.36218485362747
 21
731.03589724641392
 31
0.0
  0
LINE
  5
1AE84
  8
ｶｸﾚｾﾝ2
 10
857.36218485362747
 20
659.03589724641392
 30
0.0
 11
773.86218485362735
 21
659.03589724641392
 31
0.0
  0
LINE
  5
1AE85
  8
AM_0
 10
762.04218485362708
 20
728.40585393171727
 30
0.0
 11
892.18219485362727
 21
728.40585393171727
 31
0.0
  0
LINE
  5
1AE86
  8
AM_0
 10
762.04218485362708
 20
661.66586393171724
 30
0.0
 11
901.18219485362715
 21
661.66586393171724
 31
0.0
  0
LINE
  5
1AE87
  8
AM_0
 10
901.18219485362715
 20
658.31585393171713
 30
0.0
 11
762.04218485362708
 21
658.31585393171713
 31
0.0
  0
LINE
  5
1AE88
  8
AM_0
 10
765.51217385374969
 20
729.03585557744907
 30
0.0
 11
891.3121348536273
 21
729.03585393171704
 31
0.0
  0
LINE
  5
1AE89
  8
AM_0
 10
762.92220480126696
 20
721.03585803171723
 30
0.0
 11
891.3121348536273
 21
721.03585393171704
 31
0.0
  0
LINE
  5
1AE8A
  8
AM_0
 10
762.92220485362736
 20
719.03584983171709
 30
0.0
 11
891.3121348536273
 21
719.03587393171699
 31
0.0
  0
LINE
  5
1AE8B
  8
AM_0
 10
762.92720920674878
 20
711.035871962388
 30
0.0
 11
900.3021948536275
 21
711.03585393171704
 31
0.0
  0
LINE
  5
1AE8C
  8
AM_0
 10
762.92720931146823
 20
709.03587590195866
 30
0.0
 11
900.3021948536275
 21
709.03585393171704
 31
0.0
  0
LINE
  5
1AE8D
  8
AM_0
 10
892.40216485362748
 20
721.52584393171719
 30
0.0
 11
761.83217477692017
 21
721.52586393171703
 31
0.0
  0
LINE
  5
1AE8E
  8
AM_0
 10
892.40216485362748
 20
718.59586393171708
 30
0.0
 11
761.83217485362718
 21
718.59586393171708
 31
0.0
  0
LINE
  5
1AE8F
  8
AM_0
 10
901.53217485362734
 20
711.37585393171707
 30
0.0
 11
761.69717478398877
 21
711.37586393171705
 31
0.0
  0
LINE
  5
1AE90
  8
AM_0
 10
901.53217485362734
 20
708.71586393171719
 30
0.0
 11
761.6971748536273
 21
708.71586393171719
 31
0.0
  0
LINE
  5
1AE91
  8
AM_0
 10
762.92720920674878
 20
681.035871962388
 30
0.0
 11
900.3021948536275
 21
681.03585393171716
 31
0.0
  0
LINE
  5
1AE92
  8
AM_0
 10
762.92720931146823
 20
689.03585590195894
 30
0.0
 11
900.3021948536275
 21
689.03587393171711
 31
0.0
  0
LINE
  5
1AE93
  8
AM_0
 10
901.53217485362734
 20
681.35586393171718
 30
0.0
 11
761.69717478398877
 21
681.35587393171704
 31
0.0
  0
LINE
  5
1AE94
  8
AM_0
 10
762.92720931146823
 20
679.03587590195866
 30
0.0
 11
900.3021948536275
 21
679.03587393171711
 31
0.0
  0
LINE
  5
1AE95
  8
AM_0
 10
901.53217485362734
 20
678.69585393171724
 30
0.0
 11
761.6971748536273
 21
678.69587393171719
 31
0.0
  0
LINE
  5
1AE96
  8
AM_0
 10
901.40216485362726
 20
671.47587393171705
 30
0.0
 11
761.82718477718186
 21
671.47585393171721
 31
0.0
  0
LINE
  5
1AE97
  8
AM_0
 10
901.59216485362742
 20
688.76586393171704
 30
0.0
 11
761.63718485362745
 21
688.76584993171696
 31
0.0
  0
LINE
  5
1AE98
  8
AM_0
 10
762.92720920674878
 20
701.03585196238805
 30
0.0
 11
900.3021948536275
 21
701.03587393171711
 31
0.0
  0
LINE
  5
1AE99
  8
AM_0
 10
762.92720931146823
 20
699.03585590195894
 30
0.0
 11
900.3021948536275
 21
699.03585393171704
 31
0.0
  0
LINE
  5
1AE9A
  8
AM_0
 10
901.59216485362742
 20
701.30586393171711
 30
0.0
 11
761.63718478739167
 21
701.30584793171704
 31
0.0
  0
LINE
  5
1AE9B
  8
AM_0
 10
901.59216485362742
 20
698.77586393171703
 30
0.0
 11
761.63718485362745
 21
698.7758399317172
 31
0.0
  0
LINE
  5
1AE9C
  8
AM_0
 10
901.59216485362742
 20
691.30586393171711
 30
0.0
 11
761.6371847871302
 21
691.30585793171713
 31
0.0
  0
LINE
  5
1AE9D
  8
AM_0
 10
762.92720920674878
 20
691.03585196238805
 30
0.0
 11
900.3021948536275
 21
691.03587393171711
 31
0.0
  0
LINE
  5
1AE9E
  8
AM_0
 10
901.40216485362726
 20
668.55586393171711
 30
0.0
 11
761.82718485362727
 21
668.55585393171714
 31
0.0
  0
LINE
  5
1AE9F
  8
AM_0
 10
762.91721480126716
 20
671.03586803171709
 30
0.0
 11
900.3121348536273
 21
671.03587393171711
 31
0.0
  0
LINE
  5
1AEA0
  8
AM_0
 10
762.91721485362734
 20
669.03585983171695
 30
0.0
 11
900.3121348536273
 21
669.03585393171716
 31
0.0
  0
LINE
  5
1AEA1
  8
AM_0
 10
765.51215485362718
 20
661.03586393171713
 30
0.0
 11
900.3121348536273
 21
661.03586393171713
 31
0.0
  0
LINE
  5
1AEA2
  8
AM_0
 10
882.86218485362735
 20
633.17586193171724
 30
0.0
 11
766.05219485362716
 21
633.17586193171724
 31
0.0
  0
LINE
  5
1AEA3
  8
AM_0
 10
882.86218485362735
 20
756.89585393171706
 30
0.0
 11
766.05219485362716
 21
756.89585393171706
 31
0.0
  0
LINE
  5
1AEA4
  8
AM_0
 10
765.51215485362718
 20
731.03587393171699
 30
0.0
 11
891.3121348536273
 21
731.03587393171699
 31
0.0
  0
LINE
  5
1AEA5
  8
AM_0
 10
892.18219485362727
 20
731.75585393171718
 30
0.0
 11
762.04218485362708
 21
731.75585393171718
 31
0.0
  0
LINE
  5
1AEA6
  8
AM_0
 10
765.51215485362718
 20
659.03587393171711
 30
0.0
 11
900.3121348536273
 21
659.03587393171711
 31
0.0
  0
LINE
  5
1AEA7
  8
AM_0
 10
860.86218485362747
 20
741.38586393171715
 30
0.0
 11
758.86218485362735
 21
741.38586393171715
 31
0.0
  0
LINE
  5
1AEA8
  8
AM_0
 10
860.86218485362747
 20
648.68585393171725
 30
0.0
 11
758.86218485362735
 21
648.68585393171725
 31
0.0
  0
LINE
  5
1AEA9
  8
AM_0
 10
882.86218485362735
 20
629.12586693171716
 30
0.0
 11
829.86218485362735
 21
629.12586693171716
 31
0.0
  0
LINE
  5
1AEAA
  8
AM_0
 10
882.86218485362735
 20
629.79584893171716
 30
0.0
 11
829.86218485362735
 21
629.79584893171716
 31
0.0
  0
LINE
  5
1AEAB
  8
AM_0
 10
882.86218485362735
 20
631.14586293171715
 30
0.0
 11
829.86218485362735
 21
631.14586293171715
 31
0.0
  0
LINE
  5
1AEAC
  8
AM_0
 10
882.86218485362735
 20
760.95585393171723
 30
0.0
 11
829.86218485362735
 21
760.95585393171723
 31
0.0
  0
LINE
  5
1AEAD
  8
AM_0
 10
882.86218485362735
 20
760.27586393171703
 30
0.0
 11
829.86218485362735
 21
760.27586393171703
 31
0.0
  0
LINE
  5
1AEAE
  8
AM_0
 10
882.86218485362735
 20
758.92585393171726
 30
0.0
 11
829.86218485362735
 21
758.92585393171726
 31
0.0
  0
LINE
  5
1AEAF
  8
AM_0
 10
910.86211485362719
 20
703.03587493171722
 30
0.0
 11
910.86211485362719
 21
752.03586793171723
 31
0.0
  0
LINE
  5
1AEB0
  8
AM_0
 10
955.8621148536273
 20
738.28587793171721
 30
0.0
 11
955.8621148536273
 21
750.03588793171718
 31
0.0
  0
LINE
  5
1AEB1
  8
AM_0
 10
953.36215485362754
 20
671.06170228579276
 30
0.0
 11
953.36215485362754
 21
752.03586793171723
 31
0.0
  0
LINE
  5
1AEB2
  8
AM_0
 10
902.14215485362718
 20
743.38586393171715
 30
0.0
 11
901.60211485362765
 21
746.37586393171716
 31
0.0
  0
LINE
  5
1AEB3
  8
AM_0
 10
905.86218485362735
 20
752.46586393171719
 30
0.0
 11
905.86218485362735
 21
695.03587393171711
 31
0.0
  0
LINE
  5
1AEB4
  8
AM_0
 10
953.86216485362763
 20
752.03586793171723
 30
0.0
 11
905.86216485362752
 21
752.03586793171723
 31
0.0
  0
ARC
  5
1AEB5
  8
AM_0
 10
953.86162485362775
 20
750.03531793171692
 30
0.0
 40
2.0005360199999989
 50
0.015319999998247
 51
89.984671000001825
  0
ARC
  5
1AEB6
  8
AM_0
 10
882.86578485362747
 20
754.89947393171724
 30
0.0
 40
1.996383999999999
 50
359.89615999999739
 51
90.103836999999984
  0
ARC
  5
1AEB7
  8
AM_0
 10
882.86493485362735
 20
756.92864393171715
 30
0.0
 40
1.9972080000000001
 50
359.91986000000099
 51
90.080142999999538
  0
ARC
  5
1AEB8
  8
AM_0
 10
882.86762485362726
 20
758.28129393171707
 30
0.0
 40
1.9945760999999991
 50
359.84400999999718
 51
90.155991999999998
  0
ARC
  5
1AEB9
  8
AM_0
 10
882.85968485362753
 20
758.96101393171705
 30
0.0
 40
1.994844099999999
 50
14.36279999999965
 51
89.928342000002118
  0
LINE
  5
1AEBA
  8
AM_0
 10
899.63220485362717
 20
748.01585393171695
 30
0.0
 11
886.36218485362735
 21
748.01585393171695
 31
0.0
  0
LINE
  5
1AEBB
  8
AM_0
 10
899.6921448536275
 20
753.30586393171711
 30
0.0
 11
886.36218485362735
 21
753.30586393171711
 31
0.0
  0
LINE
  5
1AEBC
  8
AM_0
 10
899.72217485362717
 20
756.70585393171723
 30
0.0
 11
886.36218485362735
 21
756.70585393171723
 31
0.0
  0
LINE
  5
1AEBD
  8
AM_0
 10
899.75220485362729
 20
758.335853931717
 30
0.0
 11
886.25220485362729
 21
758.335853931717
 31
0.0
  0
ARC
  5
1AEBE
  8
AM_0
 10
899.72937485362729
 20
754.710403931717
 30
0.0
 40
1.9954841000000001
 50
13.194079999998561
 51
90.206542000000866
  0
LINE
  5
1AEBF
  8
AM_0
 10
901.69220485362723
 20
756.82587393171707
 30
0.0
 11
902.57221485362732
 21
753.29588393171707
 31
0.0
  0
ARC
  5
1AEC0
  8
AM_0
 10
899.75488485362735
 20
756.33808393171705
 30
0.0
 40
1.9977800999999991
 50
14.13223000000311
 51
90.076919000002235
  0
ARC
  5
1AEC1
  8
AM_0
 10
904.05298485362732
 20
751.63866393171725
 30
0.0
 40
1.5028081
 50
193.57782000000239
 51
269.96920999999838
  0
LINE
  5
1AEC2
  8
AM_0
 10
904.05219485362773
 20
750.13584393171698
 30
0.0
 11
901.99219485362732
 21
750.13584393171698
 31
0.0
  0
ARC
  5
1AEC3
  8
AM_0
 10
904.03388485362746
 20
753.66296393171717
 30
0.0
 40
1.5070961
 50
194.09782000000331
 51
269.9351799999983
  0
LINE
  5
1AEC4
  8
AM_0
 10
905.8622448536272
 20
752.46586393171719
 30
0.0
 11
903.04218485362719
 21
752.53585393171716
 31
0.0
  0
LINE
  5
1AEC5
  8
AM_0
 10
904.03217485362734
 20
752.15586393171725
 30
0.0
 11
902.38214485362721
 21
752.15586393171725
 31
0.0
  0
ARC
  5
1AEC6
  8
AM_0
 10
904.07098485362735
 20
747.57999393171713
 30
0.0
 40
1.50414
 50
192.44475000000341
 51
270.04575000000148
  0
LINE
  5
1AEC7
  8
AM_0
 10
904.07221485362732
 20
746.07584393171703
 30
0.0
 11
901.65216485362737
 21
746.07584393171703
 31
0.0
  0
LINE
  5
1AEC8
  8
AM_0
 10
901.67218485362719
 20
755.16586393171724
 30
0.0
 11
902.59222485362727
 21
751.28587393171711
 31
0.0
  0
ARC
  5
1AEC9
  8
AM_0
 10
899.69049485362746
 20
751.31046393171698
 30
0.0
 40
1.9953879999999991
 50
12.01538000000021
 51
89.951933000002214
  0
LINE
  5
1AECA
  8
AM_0
 10
901.64215485362729
 20
751.72585393171721
 30
0.0
 11
902.60217485362728
 21
747.25585393171696
 31
0.0
  0
ARC
  5
1AECB
  8
AM_0
 10
899.64032485362725
 20
746.02242393171696
 30
0.0
 40
1.993431999999999
 50
10.211969999999811
 51
90.234116000000768
  0
ARC
  5
1AECC
  8
AM_0
 10
886.3660348536273
 20
758.20969393171697
 30
0.0
 40
1.503848099999999
 50
180.14640000000301
 51
269.85359999999702
  0
LINE
  5
1AECD
  8
AM_0
 10
884.86218485362747
 20
756.92585393171726
 30
0.0
 11
884.86218485362747
 21
749.51585393171717
 31
0.0
  0
ARC
  5
1AECE
  8
AM_0
 10
886.24854485362744
 20
759.8427539317172
 30
0.0
 40
1.506888
 50
194.87693000000499
 51
270.1377700000005
  0
ARC
  5
1AECF
  8
AM_0
 10
886.36395485362732
 20
754.80764393171705
 30
0.0
 40
1.5017959999999979
 50
180.06854999999891
 51
269.93145000000101
  0
ARC
  5
1AED0
  8
AM_0
 10
886.36786485362745
 20
749.52152393171718
 30
0.0
 40
1.505676
 50
180.21552999999901
 51
269.78448000000111
  0
LINE
  5
1AED1
  8
AM_0
 10
910.86211485362719
 20
651.1458889317172
 30
0.0
 11
910.86211485362719
 21
638.03588893171718
 31
0.0
  0
LINE
  5
1AED2
  8
AM_0
 10
953.36215485362754
 20
638.03588893171718
 30
0.0
 11
953.36215485362754
 21
654.86754311428876
 31
0.0
  0
LINE
  5
1AED3
  8
AM_0
 10
942.02215485362728
 20
689.7658849317171
 30
0.0
 11
956.48215485362721
 21
645.26588293171721
 31
0.0
  0
LINE
  5
1AED4
  8
AM_0
 10
946.78216485362736
 20
691.31587393171708
 30
0.0
 11
961.24216485362729
 21
646.80587893171707
 31
0.0
  0
LINE
  5
1AED5
  8
AM_0
 10
895.86218485362735
 20
646.68586393171722
 30
0.0
 11
895.86218485362735
 21
658.37586431958573
 31
0.0
  0
LINE
  5
1AED6
  8
AM_0
 10
905.86218485362735
 20
637.60586993171717
 30
0.0
 11
905.86218485362735
 21
695.03587393171711
 31
0.0
  0
LINE
  5
1AED7
  8
AM_0
 10
922.86211485362765
 20
703.03587493171722
 30
0.0
 11
905.86216485362752
 21
703.03587493171722
 31
0.0
  0
LINE
  5
1AED8
  8
AM_0
 10
922.86211485362765
 20
687.03587593171721
 30
0.0
 11
905.86216485362752
 21
687.03587593171721
 31
0.0
  0
LINE
  5
1AED9
  8
AM_0
 10
953.36215485362754
 20
738.92586793171722
 30
0.0
 11
905.86216485362752
 21
738.92586793171722
 31
0.0
  0
LINE
  5
1AEDA
  8
AM_0
 10
953.36215485362754
 20
651.1458889317172
 30
0.0
 11
905.86216485362752
 21
651.1458889317172
 31
0.0
  0
LINE
  5
1AEDB
  8
AM_0
 10
917.36215485362732
 20
692.5358749317171
 30
0.0
 11
917.36215485362732
 21
697.53587593171721
 31
0.0
  0
LINE
  5
1AEDC
  8
AM_0
 10
914.86216485362752
 20
692.5358749317171
 30
0.0
 11
914.86216485362752
 21
697.53587593171721
 31
0.0
  0
LINE
  5
1AEDD
  8
AM_0
 10
928.36216485362775
 20
692.5358749317171
 30
0.0
 11
928.36216485362775
 21
697.53587593171721
 31
0.0
  0
LINE
  5
1AEDE
  8
ﾁｭｳｼﾝｾﾝ1
 10
922.86211485362765
 20
679.58499500972005
 30
0.0
 11
922.86211485362765
 21
710.48670785371303
 31
0.0
  0
ARC
  5
1AEDF
  8
AM_0
 10
938.21971485362735
 20
688.53236593171721
 30
0.0
 40
9.0035201999999952
 50
18.008549999993459
 51
89.984471999995435
  0
LINE
  5
1AEE0
  8
AM_0
 10
955.8621148536273
 20
663.35589793171721
 30
0.0
 11
955.8621148536273
 21
729.56587393171719
 31
0.0
  0
LINE
  5
1AEE1
  8
AM_0
 10
938.22214485362736
 20
697.53587593171721
 30
0.0
 11
928.36216485362775
 21
697.53587593171721
 31
0.0
  0
LINE
  5
1AEE2
  8
AM_0
 10
953.36215485362754
 20
728.67589093171705
 30
0.0
 11
910.86211485362719
 21
728.67589093171705
 31
0.0
  0
LINE
  5
1AEE3
  8
AM_0
 10
954.6621448536273
 20
729.32588593171715
 30
0.0
 11
954.6621448536273
 21
738.52587793171722
 31
0.0
  0
LINE
  5
1AEE4
  8
AM_0
 10
957.96214485362736
 20
732.42588793171694
 30
0.0
 11
957.96214485362736
 21
735.42588793171694
 31
0.0
  0
ARC
  5
1AEE5
  8
AM_0
 10
954.96433485362763
 20
735.42336793171694
 30
0.0
 40
2.99777994
 50
0.0478899999999952
 51
95.786117000002065
  0
LINE
  5
1AEE6
  8
AM_0
 10
954.6621448536273
 20
738.52587793171722
 30
0.0
 11
953.36215485362754
 21
738.52587793171722
 31
0.0
  0
ARC
  5
1AEE7
  8
AM_0
 10
954.96439485362725
 20
732.41838793171678
 30
0.0
 40
2.9977641899999981
 50
264.21340999999683
 51
0.1435499999983971
  0
LINE
  5
1AEE8
  8
AM_0
 10
954.6621448536273
 20
729.32588593171715
 30
0.0
 11
953.36215485362754
 21
729.32588593171715
 31
0.0
  0
ARC
  5
1AEE9
  8
AM_0
 10
922.86211485362765
 20
695.02986193171705
 30
0.0
 40
5.0000519999999984
 50
23.653230000000779
 51
156.34676999999911
  0
LINE
  5
1AEEA
  8
AM_0
 10
928.36216485362775
 20
697.0358749317171
 30
0.0
 11
917.36215485362732
 21
697.0358749317171
 31
0.0
  0
ARC
  5
1AEEB
  8
AM_0
 10
922.86142485362757
 20
695.03398393171722
 30
0.0
 40
8.0019083999999996
 50
18.219839999997681
 51
89.994827000009096
  0
LINE
  5
1AEEC
  8
AM_0
 10
917.36215485362732
 20
697.53587593171721
 30
0.0
 11
914.86216485362752
 21
697.53587593171721
 31
0.0
  0
LINE
  5
1AEED
  8
AM_0
 10
938.22214485362736
 20
692.5358749317171
 30
0.0
 11
928.36216485362775
 21
692.5358749317171
 31
0.0
  0
ARC
  5
1AEEE
  8
AM_0
 10
938.21557485362746
 20
688.53535693171693
 30
0.0
 40
4.0005161999999981
 50
17.91392999999978
 51
89.905911999991829
  0
ARC
  5
1AEEF
  8
AM_0
 10
955.81408485362749
 20
657.53599693171714
 30
0.0
 40
4.0504481999999991
 50
315.07940000000309
 51
80.936479999998895
  0
LINE
  5
1AEF0
  8
AM_0
 10
953.36215485362754
 20
654.87588493171711
 30
0.0
 11
953.36215485362754
 21
651.1458889317172
 31
0.0
  0
ARC
  5
1AEF1
  8
AM_0
 10
922.86211485362765
 20
695.02986193171705
 30
0.0
 40
4.9952319000000003
 50
203.52671000000231
 51
336.47329999999539
  0
ARC
  5
1AEF2
  8
AM_0
 10
922.86718485362758
 20
695.02989493171697
 30
0.0
 40
7.9940046000000002
 50
269.9641800000021
 51
341.82115999999718
  0
LINE
  5
1AEF3
  8
AM_0
 10
928.36216485362775
 20
693.03587593171721
 30
0.0
 11
917.36215485362732
 21
693.03587593171721
 31
0.0
  0
LINE
  5
1AEF4
  8
AM_0
 10
917.36215485362732
 20
692.5358749317171
 30
0.0
 11
914.86216485362752
 21
692.5358749317171
 31
0.0
  0
LINE
  5
1AEF5
  8
ｶｸﾚｾﾝ2
 10
860.86218485362747
 20
727.53589724641392
 30
0.0
 11
860.86218485362622
 21
662.53589724641392
 31
0.0
  0
LINE
  5
1AEF6
  8
AM_0
 10
860.86218485362747
 20
741.38584393171709
 30
0.0
 11
895.86218485362735
 21
739.35584393171712
 31
0.0
  0
ARC
  5
1AEF7
  8
AM_0
 10
883.86218485362747
 20
720.03585393171704
 30
0.0
 40
1.0000040999999991
 50
270.0
 51
89.999997000002296
  0
ARC
  5
1AEF8
  8
AM_0
 10
892.40216485362748
 20
720.06086393171722
 30
0.0
 40
1.4650000000000001
 50
270.0
 51
89.999997000002296
  0
ARC
  5
1AEF9
  8
AM_0
 10
891.3121348536273
 20
720.03585393171704
 30
0.0
 40
1.0000040999999991
 50
270.0
 51
89.999997000002296
  0
LINE
  5
1AEFA
  8
AM_0
 10
905.86218485362735
 20
737.72585393171721
 30
0.0
 11
895.86218485362735
 21
737.72585393171721
 31
0.0
  0
LINE
  5
1AEFB
  8
AM_0
 10
905.86218485362735
 20
743.38584393171698
 30
0.0
 11
895.86218485362735
 21
743.38584393171698
 31
0.0
  0
LINE
  5
1AEFC
  8
AM_0
 10
905.86218485362735
 20
729.3458539317171
 30
0.0
 11
895.86218485362735
 21
729.3458539317171
 31
0.0
  0
LINE
  5
1AEFD
  8
AM_0
 10
895.86218485362735
 20
743.38584393171698
 30
0.0
 11
895.86218485362735
 21
729.3458539317171
 31
0.0
  0
ARC
  5
1AEFE
  8
AM_0
 10
896.69727485362728
 20
736.63363393171721
 30
0.0
 40
5.0078917000000001
 50
185.4746799999993
 51
260.40127999999891
  0
ARC
  5
1AEFF
  8
AM_0
 10
896.24097485362734
 20
732.70391393171712
 30
0.0
 40
6.0039081999999979
 50
93.617285999997804
 51
134.77630699999949
  0
ARC
  5
1AF00
  8
AM_0
 10
892.71228485362735
 20
736.24601393171724
 30
0.0
 40
1.004135999999999
 50
134.20256399999931
 51
185.1511600000043
  0
ARC
  5
1AF01
  8
AM_0
 10
892.18219485362727
 20
730.08085393171723
 30
0.0
 40
1.6750081000000001
 50
270.0
 51
89.999997000002296
  0
ARC
  5
1AF02
  8
AM_0
 10
891.3121348536273
 20
730.03585393171704
 30
0.0
 40
1.0000040999999991
 50
270.0
 51
89.999997000002296
  0
ARC
  5
1AF03
  8
AM_0
 10
883.86218485362747
 20
730.03585393171704
 30
0.0
 40
1.0000040999999991
 50
270.0
 51
89.999997000002296
  0
ARC
  5
1AF04
  8
AM_0
 10
900.31085485362746
 20
710.03587393171699
 30
0.0
 40
1.000035999999999
 50
269.50070999999838
 51
90.499283999999861
  0
ARC
  5
1AF05
  8
AM_0
 10
901.53217485362734
 20
710.04586393171712
 30
0.0
 40
1.3300000000000001
 50
270.0
 51
89.999997000002296
  0
ARC
  5
1AF06
  8
AM_0
 10
901.59216485362742
 20
700.04084393171718
 30
0.0
 40
1.265004
 50
270.0
 51
89.999997000002296
  0
ARC
  5
1AF07
  8
AM_0
 10
900.31085485362746
 20
700.03585393171704
 30
0.0
 40
1.000035999999999
 50
269.50070999999838
 51
90.499283999999861
  0
ARC
  5
1AF08
  8
AM_0
 10
883.86218485362747
 20
710.03587393171699
 30
0.0
 40
1.0000040999999991
 50
270.0
 51
89.999997000002296
  0
ARC
  5
1AF09
  8
AM_0
 10
883.86218485362747
 20
700.03585393171704
 30
0.0
 40
1.0000040999999991
 50
270.0
 51
89.999997000002296
  0
ARC
  5
1AF0A
  8
ｶｸﾚｾﾝ2
 10
857.36218485362747
 20
727.53589724641392
 30
0.0
 40
3.5
 50
0.0
 51
90.0
  0
LINE
  5
1AF0B
  8
AM_0
 10
860.86212485362728
 20
648.68586393171722
 30
0.0
 11
895.86212485362728
 21
650.71586393171719
 31
0.0
  0
ARC
  5
1AF0C
  8
AM_0
 10
900.31085485362746
 20
690.03585393171716
 30
0.0
 40
1.000035999999999
 50
269.50070999999838
 51
90.499283999999861
  0
ARC
  5
1AF0D
  8
AM_0
 10
901.59216485362742
 20
690.03585393171716
 30
0.0
 40
1.270003999999999
 50
270.0
 51
89.999997000002296
  0
ARC
  5
1AF0E
  8
AM_0
 10
901.53217485362734
 20
680.02587393171711
 30
0.0
 40
1.3300000000000001
 50
270.0
 51
89.999997000002296
  0
ARC
  5
1AF0F
  8
AM_0
 10
900.31085485362746
 20
680.03587393171711
 30
0.0
 40
1.000035999999999
 50
269.50070999999838
 51
90.499283999999861
  0
ARC
  5
1AF10
  8
AM_0
 10
883.86218485362747
 20
690.03585393171716
 30
0.0
 40
1.0000040999999991
 50
270.0
 51
89.999997000002296
  0
ARC
  5
1AF11
  8
AM_0
 10
883.86218485362747
 20
680.03587393171711
 30
0.0
 40
1.0000040999999991
 50
270.0
 51
89.999997000002296
  0
LINE
  5
1AF12
  8
AM_0
 10
905.86218485362735
 20
652.34586393171685
 30
0.0
 11
895.86218485362735
 21
652.34586393171685
 31
0.0
  0
ARC
  5
1AF13
  8
AM_0
 10
901.18219485362715
 20
659.99085393171686
 30
0.0
 40
1.6750081000000001
 50
270.0
 51
89.999997000002296
  0
ARC
  5
1AF14
  8
AM_0
 10
900.31213222370559
 20
660.03585688171711
 30
0.0
 40
1.000007050003423
 50
270.00015068234609
 51
89.99984931765384
  0
LINE
  5
1AF15
  8
AM_0
 10
905.86218485362735
 20
660.73586393171718
 30
0.0
 11
902.69214485362716
 21
660.73586393171718
 31
0.0
  0
ARC
  5
1AF16
  8
AM_0
 10
900.3121348536273
 20
670.03586393171713
 30
0.0
 40
1.0000040999999991
 50
270.0
 51
89.999997000002296
  0
ARC
  5
1AF17
  8
AM_0
 10
901.40216485362726
 20
670.01585393171717
 30
0.0
 40
1.4599999999999991
 50
270.0
 51
89.999997000002296
  0
ARC
  5
1AF18
  8
AM_0
 10
883.86218485362747
 20
660.03585393171716
 30
0.0
 40
1.0000040999999991
 50
270.0
 51
89.999997000002296
  0
ARC
  5
1AF19
  8
AM_0
 10
883.86218485362747
 20
670.03586393171713
 30
0.0
 40
1.0000040999999991
 50
270.0
 51
89.999997000002296
  0
ARC
  5
1AF1A
  8
AM_0
 10
892.71564485362728
 20
653.82695393171707
 30
0.0
 40
1.007376
 50
174.93659510000271
 51
225.70967999999641
  0
ARC
  5
1AF1B
  8
AM_0
 10
896.23193485362719
 20
657.38236393171724
 30
0.0
 40
6.007896399999999
 50
225.38273000000689
 51
266.47155000000168
  0
ARC
  5
1AF1C
  8
AM_0
 10
896.69196485362716
 20
653.44298393171721
 30
0.0
 40
5.0021839000000003
 50
99.548574999998365
 51
174.5754740000024
  0
ARC
  5
1AF1D
  8
ｶｸﾚｾﾝ2
 10
857.36218485362747
 20
662.53589724641392
 30
0.0
 40
3.5
 50
270.0
 51
0.0
  0
LINE
  5
1AF1E
  8
AM_0
 10
953.86216485362763
 20
638.03588893171718
 30
0.0
 11
905.86216485362752
 21
638.03588893171718
 31
0.0
  0
ARC
  5
1AF1F
  8
AM_0
 10
958.86301485362731
 20
646.03045693171725
 30
0.0
 40
3.0008441999999982
 50
179.89645599999849
 51
354.94180999999992
  0
ARC
  5
1AF20
  8
AM_0
 10
958.86211485362719
 20
646.03587493171722
 30
0.0
 40
2.5014680099999991
 50
197.9279300000012
 51
17.927920000001439
  0
ARC
  5
1AF21
  8
AM_0
 10
962.15374485362724
 20
645.7308049317171
 30
0.0
 40
0.8050760400000001
 50
90.111534000001541
 51
174.64936809999929
  0
ARC
  5
1AF22
  8
AM_0
 10
962.15452485362732
 20
645.73155193171715
 30
0.0
 40
0.304344
 50
90.452182999997504
 51
173.5222409000009
  0
LINE
  5
1AF23
  8
AM_0
 10
962.36215485362754
 20
646.53588793171718
 30
0.0
 11
962.36215485362754
 21
646.03587493171722
 31
0.0
  0
LINE
  5
1AF24
  8
AM_0
 10
962.36215485362754
 20
646.53588793171718
 30
0.0
 11
962.15215485362774
 21
646.53588793171718
 31
0.0
  0
LINE
  5
1AF25
  8
AM_0
 10
955.8621148536273
 20
647.17588693171695
 30
0.0
 11
955.8621148536273
 21
640.035871931717
 31
0.0
  0
ARC
  5
1AF26
  8
AM_0
 10
953.86741485362757
 20
640.03059493171713
 30
0.0
 40
1.9947200399999989
 50
269.84812000000289
 51
0.1518700000000517
  0
ARC
  5
1AF27
  8
AM_0
 10
882.86054485362763
 20
635.17750193171707
 30
0.0
 40
2.001640099999999
 50
270.04695999999808
 51
359.95303999999533
  0
ARC
  5
1AF28
  8
AM_0
 10
882.85968485362753
 20
633.14837293171706
 30
0.0
 40
2.0025157999999981
 50
270.0718999999998
 51
359.92810000000009
  0
ARC
  5
1AF29
  8
AM_0
 10
882.86237485362744
 20
631.79568193171713
 30
0.0
 40
1.999824
 50
269.99493999999879
 51
0.005060000001242
  0
ARC
  5
1AF2A
  8
AM_0
 10
882.86108485362729
 20
631.12228793171698
 30
0.0
 40
1.996427999999999
 50
270.0323900000019
 51
345.30536999999958
  0
LINE
  5
1AF2B
  8
AM_0
 10
899.63220485362717
 20
642.05585893171724
 30
0.0
 11
886.36218485362735
 21
642.05585893171724
 31
0.0
  0
LINE
  5
1AF2C
  8
AM_0
 10
905.86218485362735
 20
646.68586393171722
 30
0.0
 11
895.86218485362735
 21
646.68586393171722
 31
0.0
  0
LINE
  5
1AF2D
  8
AM_0
 10
899.6921448536275
 20
636.77585293171705
 30
0.0
 11
886.36218485362735
 21
636.77585293171705
 31
0.0
  0
LINE
  5
1AF2E
  8
AM_0
 10
899.75220485362729
 20
631.73585193171709
 30
0.0
 11
886.25220485362729
 21
631.73585193171709
 31
0.0
  0
LINE
  5
1AF2F
  8
AM_0
 10
899.72217485362717
 20
633.36585693171708
 30
0.0
 11
886.36218485362735
 21
633.36585693171708
 31
0.0
  0
LINE
  5
1AF30
  8
AM_0
 10
901.67218485362719
 20
634.90584993171706
 30
0.0
 11
902.59222485362727
 21
638.78584693171695
 31
0.0
  0
LINE
  5
1AF31
  8
AM_0
 10
901.69214485362716
 20
633.24586893171727
 30
0.0
 11
902.57214485362715
 21
636.78586993171712
 31
0.0
  0
ARC
  5
1AF32
  8
AM_0
 10
904.07202485362723
 20
642.50307093171716
 30
0.0
 40
1.5027881000000001
 50
89.995332000003145
 51
167.9866579999975
  0
LINE
  5
1AF33
  8
AM_0
 10
904.07221485362732
 20
644.00586393171727
 30
0.0
 11
901.65216485362737
 21
644.00586393171727
 31
0.0
  0
ARC
  5
1AF34
  8
AM_0
 10
904.0478548536272
 20
638.43952593171696
 30
0.0
 40
1.4963319999999991
 50
89.835409999999186
 51
166.6175619999986
  0
ARC
  5
1AF35
  8
AM_0
 10
904.02722485362744
 20
636.41408193171719
 30
0.0
 40
1.501779999999999
 50
89.810617000000875
 51
165.6671640000005
  0
LINE
  5
1AF36
  8
AM_0
 10
905.86218485362735
 20
637.60585493171709
 30
0.0
 11
903.04218485362719
 21
637.53585493171715
 31
0.0
  0
LINE
  5
1AF37
  8
AM_0
 10
904.03217485362734
 20
637.91586693171701
 30
0.0
 11
902.38214485362721
 21
637.91586693171701
 31
0.0
  0
LINE
  5
1AF38
  8
AM_0
 10
904.05219485362773
 20
639.93586393171711
 30
0.0
 11
901.99219485362732
 21
639.93586393171711
 31
0.0
  0
ARC
  5
1AF39
  8
AM_0
 10
899.63519485362735
 20
644.05548493171716
 30
0.0
 40
1.9996280999999989
 50
269.91467
 51
349.63923999999753
  0
LINE
  5
1AF3A
  8
AM_0
 10
902.14215485362718
 20
646.68586393171722
 30
0.0
 11
901.60211485362765
 21
643.69584293171715
 31
0.0
  0
ARC
  5
1AF3B
  8
AM_0
 10
899.69025485362715
 20
638.77156493171719
 30
0.0
 40
1.995695899999999
 50
270.05521999999718
 51
347.9774699999997
  0
LINE
  5
1AF3C
  8
AM_0
 10
901.64215485362729
 20
638.3558549317172
 30
0.0
 11
902.60217485362728
 21
642.8158689317172
 31
0.0
  0
ARC
  5
1AF3D
  8
AM_0
 10
899.7497648536272
 20
633.74016993171722
 30
0.0
 40
2.0043239999999991
 50
270.0689100000011
 51
345.72195000000022
  0
ARC
  5
1AF3E
  8
AM_0
 10
899.72424485362717
 20
635.36779493171696
 30
0.0
 40
2.001947899999998
 50
269.94051999999903
 51
346.6588600000016
  0
ARC
  5
1AF3F
  8
AM_0
 10
886.36371485362747
 20
635.27434193171712
 30
0.0
 40
1.5015080999999979
 50
90.057548999996854
 51
179.94245300200021
  0
LINE
  5
1AF40
  8
AM_0
 10
884.86218485362747
 20
633.14585593171716
 30
0.0
 11
884.86218485362747
 21
640.55585893171724
 31
0.0
  0
ARC
  5
1AF41
  8
AM_0
 10
886.36255485362733
 20
640.55549293171725
 30
0.0
 40
1.5003600999999991
 50
90.013814999999994
 51
179.9861839999985
  0
ARC
  5
1AF42
  8
AM_0
 10
886.2434748536275
 20
630.23557693171711
 30
0.0
 40
1.5003120000000001
 50
89.668336999999084
 51
165.31696600000029
  0
ARC
  5
1AF43
  8
AM_0
 10
886.36078485362737
 20
631.86729893171707
 30
0.0
 40
1.498559999999999
 50
89.944884999996873
 51
180.05511999999939
  0
LINE
  5
1AF44
  8
AM_0
 10
764.12216485362705
 20
755.41586393171724
 30
0.0
 11
760.66217485362733
 21
742.49584393171722
 31
0.0
  0
LINE
  5
1AF45
  8
AM_0
 10
758.86218485362735
 20
758.03586893171735
 30
0.0
 11
758.86218483743426
 21
632.03589995588254
 31
0.0
  0
ARC
  5
1AF46
  8
AM_0
 10
829.86194485362728
 20
756.92612393171726
 30
0.0
 40
1.9997199999999991
 50
89.991937999999706
 51
180.00806000000401
  0
ARC
  5
1AF47
  8
AM_0
 10
829.85925485362725
 20
758.27877393171696
 30
0.0
 40
1.9970881
 50
89.916374999999235
 51
180.08362000000139
  0
ARC
  5
1AF48
  8
AM_0
 10
829.86279485362729
 20
758.95524393171718
 30
0.0
 40
2.000623899999999
 50
90.017824000002136
 51
179.98217599900121
  0
LINE
  5
1AF49
  8
AM_0
 10
827.86218485362747
 20
758.95585393171723
 30
0.0
 11
827.86218485362747
 21
756.89585393171706
 31
0.0
  0
LINE
  5
1AF4A
  8
AM_0
 10
764.15219485362718
 20
755.53585393171704
 30
0.0
 11
758.86218485362735
 21
755.53585393171704
 31
0.0
  0
LINE
  5
1AF4B
  8
AM_0
 10
759.15216485362726
 20
746.07584393171703
 30
0.0
 11
761.56216485362734
 21
746.07584393171703
 31
0.0
  0
LINE
  5
1AF4C
  8
AM_0
 10
762.05219485362716
 20
753.95589393171713
 30
0.0
 11
760.61218485362735
 21
747.25590393171717
 31
0.0
  0
ARC
  5
1AF4D
  8
AM_0
 10
766.05173485362729
 20
754.89805393171696
 30
0.0
 40
1.997795899999999
 50
89.986419000002854
 51
164.9784029999982
  0
ARC
  5
1AF4E
  8
AM_0
 10
764.00772485362734
 20
753.53568393171702
 30
0.0
 40
2.0001799999999981
 50
89.872485000002015
 51
167.87364800000211
  0
LINE
  5
1AF4F
  8
AM_0
 10
757.86218485362735
 20
759.03586893171746
 30
0.0
 11
750.86215485362732
 21
759.03586893171746
 31
0.0
  0
ARC
  5
1AF50
  8
AM_0
 10
757.86713485362725
 20
758.04082893171733
 30
0.0
 40
0.9950640200000001
 50
359.714940000002
 51
90.285061999999513
  0
LINE
  5
1AF51
  8
AM_0
 10
757.86218485362735
 20
747.07586393171698
 30
0.0
 11
750.86215485362732
 21
747.07586393171698
 31
0.0
  0
ARC
  5
1AF52
  8
AM_0
 10
759.15634485362716
 20
747.57633393171727
 30
0.0
 40
1.500475999999999
 50
269.84172000000018
 51
347.66777000000133
  0
ARC
  5
1AF53
  8
AM_0
 10
757.86777485362734
 20
746.08147393171726
 30
0.0
 40
0.9944000200000001
 50
359.67649000000222
 51
90.323508999999945
  0
ARC
  5
1AF54
  8
AM_0
 10
759.21686485362716
 20
647.18986193171713
 30
0.0
 40
1.495995999999999
 50
14.952339999994789
 51
90.178293000000224
  0
LINE
  5
1AF55
  8
ﾁｭｳｼﾝｾﾝ1
 10
809.86218485362747
 20
734.03587393171711
 30
0.0
 11
809.86218485362747
 21
656.03587393171699
 31
0.0
1001
GENIUS_GENODEF_13
1002
{
1000
HIER
1070
     0
1002
}
1002
{
1000
MANEDIT
1070
     0
1002
}
1002
{
1000
NOSEL
1070
     0
1002
}
1002
{
1000
BEHIND
1070
     0
1002
}
1002
{
1000
REACTOR
1002
}
1001
GENIUS_GENOBJ-N-CEN_13
1002
{
1000
OWNER
1000
GEN
1002
}
  0
LINE
  5
1AF56
  8
ｶｸﾚｾﾝ2
 10
776.36218485362735
 20
672.53589724641392
 30
0.0
 11
776.36218485362735
 21
717.53589724641392
 31
0.0
  0
ARC
  5
1AF57
  8
ｶｸﾚｾﾝ2
 10
774.36218485362747
 20
717.53589724641392
 30
0.0
 40
2.0
 50
0.0
 51
90.0
  0
ARC
  5
1AF58
  8
ｶｸﾚｾﾝ2
 10
773.86218485362735
 20
721.53589724641392
 30
0.0
 40
2.0
 50
180.0
 51
270.0
  0
ARC
  5
1AF59
  8
AM_0
 10
762.92220485362736
 20
720.03585393171704
 30
0.0
 40
1.0000040999999991
 50
90.00000299999769
 51
270.0
  0
ARC
  5
1AF5A
  8
AM_0
 10
761.83217485362718
 20
720.06086393171722
 30
0.0
 40
1.4650000000000001
 50
90.00000299999769
 51
270.0
  0
ARC
  5
1AF5B
  8
AM_0
 10
762.04218485362708
 20
730.08085393171723
 30
0.0
 40
1.675
 50
89.999997000002296
 51
270.0
  0
LINE
  5
1AF5C
  8
ｶｸﾚｾﾝ2
 10
771.86218485362735
 20
729.03589724641392
 30
0.0
 11
771.86218485362735
 21
721.53589724641392
 31
0.0
  0
ARC
  5
1AF5D
  8
ｶｸﾚｾﾝ2
 10
773.86218485362735
 20
729.03589724641392
 30
0.0
 40
2.0
 50
90.0
 51
180.0
  0
ARC
  5
1AF5E
  8
AM_0
 10
765.52036485362726
 20
730.03585393171704
 30
0.0
 40
1.000031899999998
 50
90.469299999997844
 51
269.53070000000201
  0
ARC
  5
1AF5F
  8
AM_0
 10
759.21191485362715
 20
742.88825393171714
 30
0.0
 40
1.502391899999999
 50
270.00936000000007
 51
344.85998999999862
  0
LINE
  5
1AF60
  8
AM_0
 10
758.86218485362735
 20
732.18586393171722
 30
0.0
 11
750.86215485362732
 21
732.18586393171722
 31
0.0
  0
ARC
  5
1AF61
  8
AM_0
 10
761.63718485362745
 20
700.04084393171718
 30
0.0
 40
1.265004
 50
90.00000299999769
 51
270.0
  0
ARC
  5
1AF62
  8
AM_0
 10
761.6971748536273
 20
710.04586393171712
 30
0.0
 40
1.3300000000000001
 50
90.00000299999769
 51
270.0
  0
LINE
  5
1AF63
  8
ｶｸﾚｾﾝ2
 10
773.86218485362735
 20
719.53589724641392
 30
0.0
 11
774.36218485362747
 21
719.53589724641392
 31
0.0
  0
ARC
  5
1AF64
  8
AM_0
 10
762.91849485362729
 20
710.03587393171699
 30
0.0
 40
1.000035999999999
 50
89.500716000000125
 51
270.49929000000162
  0
ARC
  5
1AF65
  8
AM_0
 10
762.91849485362729
 20
700.03585393171704
 30
0.0
 40
1.000035999999999
 50
89.500716000000125
 51
270.49929000000162
  0
ARC
  5
1AF66
  8
ｶｸﾚｾﾝ2
 10
774.36218485362747
 20
672.53589724641392
 30
0.0
 40
2.0
 50
270.0
 51
0.0
  0
LINE
  5
1AF67
  8
ｶｸﾚｾﾝ2
 10
789.31193232193345
 20
659.03589724641392
 30
0.0
 11
787.86218485362735
 21
659.03589724641392
 31
0.0
  0
LINE
  5
1AF68
  8
ｶｸﾚｾﾝ2
 10
789.31193232193345
 20
659.03589724641392
 30
0.0
 11
787.86218485362735
 21
659.03589724641392
 31
0.0
  0
ARC
  5
1AF69
  8
AM_0
 10
761.6971748536273
 20
680.02587393171711
 30
0.0
 40
1.3300000000000001
 50
90.00000299999769
 51
270.0
  0
ARC
  5
1AF6A
  8
AM_0
 10
761.63718485362745
 20
690.03585393171716
 30
0.0
 40
1.270003999999999
 50
90.00000299999769
 51
270.0
  0
ARC
  5
1AF6B
  8
AM_0
 10
762.91849485362729
 20
690.03585393171716
 30
0.0
 40
1.000035999999999
 50
89.500716000000125
 51
270.49929000000162
  0
ARC
  5
1AF6C
  8
AM_0
 10
762.91849485362729
 20
680.03587393171711
 30
0.0
 40
1.000035999999999
 50
89.500716000000125
 51
270.49929000000162
  0
ARC
  5
1AF6D
  8
AM_0
 10
761.82718485362727
 20
670.01585393171717
 30
0.0
 40
1.4599999999999991
 50
90.00000299999769
 51
270.0
  0
ARC
  5
1AF6E
  8
AM_0
 10
762.04218485362708
 20
659.99085393171686
 30
0.0
 40
1.675
 50
89.999997000002296
 51
270.0
  0
ARC
  5
1AF6F
  8
ｶｸﾚｾﾝ2
 10
773.86218485362735
 20
661.03589724641392
 30
0.0
 40
2.0
 50
180.0
 51
270.0
  0
ARC
  5
1AF70
  8
AM_0
 10
765.52036485362726
 20
660.03585393171716
 30
0.0
 40
1.000031899999998
 50
90.469299999997844
 51
269.53070000000201
  0
LINE
  5
1AF71
  8
ｶｸﾚｾﾝ2
 10
771.86218485362735
 20
668.53589724641392
 30
0.0
 11
771.86218485362735
 21
661.03589724641392
 31
0.0
  0
LINE
  5
1AF72
  8
ｶｸﾚｾﾝ2
 10
771.86218485362735
 20
668.53589724641392
 30
0.0
 11
771.86218485362735
 21
661.03589724641392
 31
0.0
  0
LINE
  5
1AF73
  8
ｶｸﾚｾﾝ2
 10
774.36218485362747
 20
670.53589724641392
 30
0.0
 11
773.86218485362735
 21
670.53589724641392
 31
0.0
  0
ARC
  5
1AF74
  8
ｶｸﾚｾﾝ2
 10
773.86218485362735
 20
668.53589724641392
 30
0.0
 40
2.0
 50
90.0
 51
180.0
  0
ARC
  5
1AF75
  8
AM_0
 10
762.91721485362734
 20
670.03586393171713
 30
0.0
 40
1.0000040999999991
 50
90.00000299999769
 51
270.0
  0
LINE
  5
1AF76
  8
AM_0
 10
758.86218485362735
 20
657.88585393171695
 30
0.0
 11
750.86215485362732
 21
657.88585393171695
 31
0.0
  0
ARC
  5
1AF77
  8
AM_0
 10
829.86719485362744
 20
633.15086793171713
 30
0.0
 40
2.0050240000000001
 50
180.1434100000013
 51
269.85658999999868
  0
ARC
  5
1AF78
  8
AM_0
 10
829.86450485362718
 20
631.79819893171725
 30
0.0
 40
2.002332
 50
180.06674000000129
 51
269.93325999999871
  0
ARC
  5
1AF79
  8
AM_0
 10
829.86304485362734
 20
631.12672893171725
 30
0.0
 40
2.0008759
 50
180.0251100000024
 51
269.97488999999757
  0
LINE
  5
1AF7A
  8
AM_0
 10
827.86218485362747
 20
631.12585893171706
 30
0.0
 11
827.86218485362747
 21
633.17586193171724
 31
0.0
  0
LINE
  5
1AF7B
  8
AM_0
 10
759.15216485362726
 20
644.00586393171727
 30
0.0
 11
761.56216485362734
 21
644.00586393171727
 31
0.0
  0
LINE
  5
1AF7C
  8
AM_0
 10
764.15219485362718
 20
634.53585493171727
 30
0.0
 11
758.86218485362735
 21
634.53585493171727
 31
0.0
  0
LINE
  5
1AF7D
  8
AM_0
 10
764.12216485362705
 20
634.65584993171706
 30
0.0
 11
760.66217485362733
 21
647.57585593171711
 31
0.0
  0
LINE
  5
1AF7E
  8
AM_0
 10
762.05216485362735
 20
636.11584893171721
 30
0.0
 11
760.61215485362732
 21
642.81584593171715
 31
0.0
  0
ARC
  5
1AF7F
  8
AM_0
 10
764.01285485362735
 20
636.54239293171713
 30
0.0
 40
2.0065319999999991
 50
192.27313000000419
 51
269.98073000000318
  0
ARC
  5
1AF80
  8
AM_0
 10
766.05676485362733
 20
635.18027193171724
 30
0.0
 40
2.0044159999999991
 50
195.1666599999993
 51
269.86852000000118
  0
LINE
  5
1AF81
  8
AM_0
 10
757.86218485362735
 20
642.99585393171719
 30
0.0
 11
750.86215485362732
 21
642.99585393171719
 31
0.0
  0
ARC
  5
1AF82
  8
AM_0
 10
759.15509485362725
 20
642.50652793171719
 30
0.0
 40
1.499328
 50
11.9061599999993
 51
90.111848999999921
  0
ARC
  5
1AF83
  8
AM_0
 10
757.86270485362718
 20
643.99533493171725
 30
0.0
 40
0.9994760199999999
 50
269.9700799999996
 51
0.0299099999979628
  0
LINE
  5
1AF84
  8
AM_0
 10
757.86218485362735
 20
631.03588893171741
 30
0.0
 11
750.86215485362732
 21
631.03588893171741
 31
0.0
  0
ARC
  5
1AF85
  8
AM_0
 10
757.86200485362735
 20
632.03607993171715
 30
0.0
 40
1.000179999999999
 50
270.01032000000009
 51
359.98968999999448
  0
LINE
  5
1AF86
  8
ﾁｭｳｼﾝｾﾝ1
 10
844.03366738949126
 20
251.52897941797491
 30
0.0
 11
844.03366738949126
 21
227.52897941797491
 31
0.0
  0
LINE
  5
1AF87
  8
ﾁｭｳｼﾝｾﾝ1
 10
856.0336673894916
 20
239.52897941797491
 30
0.0
 11
832.0336673894916
 21
239.52897941797491
 31
0.0
  0
ARC
  5
1AFAD
  8
AM_0
 10
168.36536375337371
 20
318.52921999628268
 30
0.0
 40
1.0003311999999971
 50
91.9314600000003
 51
269.21441000000362
  0
LINE
  5
1AFAE
  8
AM_0
 10
168.58462573783001
 20
319.53771382021318
 30
0.0
 11
168.33163375337361
 21
319.5289899962828
 31
0.0
  0
LINE
  5
1AFAF
  8
AM_0
 10
168.58462573783001
 20
317.52008189054879
 30
0.0
 11
168.33163375337361
 21
317.52898999628258
 31
0.0
  0
TEXT
  5
1B0D8
  8
AM_0
 10
138.71632295508149
 20
682.15250150277961
 30
0.0
 40
10.0
  1
VC04-080FBR~VC04-240FBR
1001
ACAD
1000
MTEXTBEGIN
1070
    73
1070
     1
1070
    44
1040
1.0
1070
    74
1070
     0
1000
MTEXTEND
  0
VIEWPORT
  5
89
 67
     1
  8
0
 10
210.0
 20
148.5
 30
0.0
 40
420.0
 41
297.0
 68
     1
 69
     1
1001
ACAD
1000
MVIEW
1002
{
1070
    16
1010
0.0
1020
0.0
1030
0.0
1010
0.0
1020
0.0
1030
1.0
1040
0.0
1040
297.0
1040
221.70154043645701
1040
148.5
1040
50.0
1040
0.0
1040
0.0
1070
     0
1070
   100
1070
     1
1070
     1
1070
     0
1070
     0
1070
     0
1070
     0
1040
0.0
1040
0.0
1040
0.0
1040
10.0
1040
10.0
1040
10.0
1040
10.0
1070
     0
1002
{
1002
}
1002
}
1001
GENIUS_GENOREF_13
1005
1B94
1001
GENIUS_GENSCREG_15
1000
PF
1040
1.0
1000
DF
1040
1.0
1000
MIN
1011
0.0
1021
0.0
1031
0.0
1021
0.0
1031
0.0
1000
MAX
1011
420.0
1021
0.0
1031
0.0
1021
297.0
1031
0.0
1000
FLAGS
1070
     4
  0
ENDSEC
  0
EOF
