  0
SECTION
  2
HEADER
  9
$ACADVER
  1
AC1009
  9
$INSBASE
 10
0.0
 20
0.0
 30
0.0
  9
$EXTMIN
 10
121.343142439312
 20
192.29619751860511
 30
-0.0000000000112498
  9
$EXTMAX
 10
1062.4991480695301
 20
782.38813560109475
 30
0.0000000000002956
  9
$LIMMIN
 10
0.0
 20
0.0
  9
$LIMMAX
 10
1138.0
 20
740.00000000000011
  9
$ORTHOMODE
 70
     1
  9
$REGENMODE
 70
     1
  9
$FILLMODE
 70
     1
  9
$QTEXTMODE
 70
     0
  9
$MIRRTEXT
 70
     1
  9
$DRAGMODE
 70
     2
  9
$LTSCALE
 40
4.0
  9
$OSMODE
 70
   551
  9
$ATTMODE
 70
     1
  9
$TEXTSIZE
 40
2.5
  9
$TRACEWID
 40
1.0
  9
$TEXTSTYLE
  7
STANDARD
  9
$CLAYER
  8
AM_0
  9
$CELTYPE
  6
BYLAYER
  9
$CECOLOR
 62
   256
  9
$DIMSCALE
 40
4.0
  9
$DIMASZ
 40
2.5
  9
$DIMEXO
 40
1.0
  9
$DIMDLI
 40
7.0
  9
$DIMRND
 40
0.0
  9
$DIMDLE
 40
0.0
  9
$DIMEXE
 40
1.0
  9
$DIMTP
 40
0.1
  9
$DIMTM
 40
0.1000000001
  9
$DIMTXT
 40
2.5
  9
$DIMCEN
 40
0.0
  9
$DIMTSZ
 40
0.0
  9
$DIMTOL
 70
     0
  9
$DIMLIM
 70
     0
  9
$DIMTIH
 70
     0
  9
$DIMTOH
 70
     0
  9
$DIMSE1
 70
     0
  9
$DIMSE2
 70
     0
  9
$DIMTAD
 70
     3
  9
$DIMZIN
 70
     8
  9
$DIMBLK
  1

  9
$DIMASO
 70
     1
  9
$DIMSHO
 70
     1
  9
$DIMPOST
  1

  9
$DIMAPOST
  1
"
  9
$DIMALT
 70
     0
  9
$DIMALTD
 70
     2
  9
$DIMALTF
 40
0.0393701
  9
$DIMLFAC
 40
1.0
  9
$DIMTOFL
 70
     1
  9
$DIMTVP
 40
0.0
  9
$DIMTIX
 70
     0
  9
$DIMSOXD
 70
     0
  9
$DIMSAH
 70
     0
  9
$DIMBLK1
  1

  9
$DIMBLK2
  1

  9
$DIMSTYLE
  2
AM_JIS
  9
$DIMCLRD
 70
   256
  9
$DIMCLRE
 70
   256
  9
$DIMCLRT
 70
     4
  9
$DIMTFAC
 40
0.71
  9
$DIMGAP
 40
1.0
  9
$LUNITS
 70
     2
  9
$LUPREC
 70
     2
  9
$SKETCHINC
 40
1.0
  9
$FILLETRAD
 40
0.0
  9
$AUNITS
 70
     0
  9
$AUPREC
 70
     3
  9
$MENU
  1
.
  9
$ELEVATION
 40
0.0
  9
$PELEVATION
 40
0.0
  9
$THICKNESS
 40
0.0
  9
$LIMCHECK
 70
     0
  9
$BLIPMODE
 70
     0
  9
$CHAMFERA
 40
10.0
  9
$CHAMFERB
 40
10.0
  9
$SKPOLY
 70
     0
  9
$TDCREATE
 40
2452753.643349607
  9
$TDUPDATE
 40
2458543.5416190051
  9
$TDINDWG
 40
0.6335975231
  9
$TDUSRTIMER
 40
0.6335953356
  9
$USRTIMER
 70
     1
  9
$ANGBASE
 50
0.0
  9
$ANGDIR
 70
     0
  9
$PDMODE
 70
     0
  9
$PDSIZE
 40
0.0
  9
$PLINEWID
 40
0.0
  9
$COORDS
 70
     1
  9
$SPLFRAME
 70
     0
  9
$SPLINETYPE
 70
     6
  9
$SPLINESEGS
 70
     8
  9
$ATTDIA
 70
     1
  9
$ATTREQ
 70
     1
  9
$HANDLING
 70
     1
  9
$HANDSEED
  5
1D2E8
  9
$SURFTAB1
 70
     6
  9
$SURFTAB2
 70
     6
  9
$SURFTYPE
 70
     6
  9
$SURFU
 70
     6
  9
$SURFV
 70
     6
  9
$UCSNAME
  2

  9
$UCSORG
 10
0.0
 20
0.0
 30
0.0
  9
$UCSXDIR
 10
1.0
 20
0.0
 30
0.0
  9
$UCSYDIR
 10
0.0
 20
1.0
 30
0.0
  9
$PUCSNAME
  2

  9
$PUCSORG
 10
0.0
 20
0.0
 30
0.0
  9
$PUCSXDIR
 10
1.0
 20
0.0
 30
0.0
  9
$PUCSYDIR
 10
0.0
 20
1.0
 30
0.0
  9
$USERI1
 70
     0
  9
$USERI2
 70
     0
  9
$USERI3
 70
     0
  9
$USERI4
 70
     0
  9
$USERI5
 70
     0
  9
$USERR1
 40
0.0
  9
$USERR2
 40
0.0
  9
$USERR3
 40
0.0
  9
$USERR4
 40
0.0
  9
$USERR5
 40
0.0
  9
$WORLDVIEW
 70
     1
  9
$SHADEDGE
 70
     3
  9
$SHADEDIF
 70
    70
  9
$TILEMODE
 70
     1
  9
$MAXACTVP
 70
    48
  9
$PLIMCHECK
 70
     0
  9
$PEXTMIN
 10
1.0000000000000000E+020
 20
1.0000000000000000E+020
 30
1.0000000000000000E+020
  9
$PEXTMAX
 10
-1.0000000000000000E+020
 20
-1.0000000000000000E+020
 30
-1.0000000000000000E+020
  9
$PLIMMIN
 10
0.0
 20
0.0
  9
$PLIMMAX
 10
420.0
 20
297.0
  9
$UNITMODE
 70
     0
  9
$VISRETAIN
 70
     1
  9
$PLINEGEN
 70
     0
  9
$PSLTSCALE
 70
     1
  0
ENDSEC
  0
SECTION
  2
TABLES
  0
TABLE
  2
VPORT
 70
     1
  0
VPORT
  2
*ACTIVE
 70
     0
 10
0.0
 20
0.0
 11
1.0
 21
1.0
 12
591.92114525442105
 22
487.34216655984989
 13
0.0
 23
0.0
 14
10.0
 24
10.0
 15
40.0
 25
40.0
 16
0.0
 26
0.0
 36
1.0
 17
0.0
 27
0.0
 37
0.0
 40
594.14291248580184
 41
1.7571592210767459
 42
50.0
 43
0.0
 44
0.0
 50
0.0
 51
0.0
 71
     0
 72
   100
 73
     1
 74
     1
 75
     0
 76
     0
 77
     0
 78
     0
  0
ENDTAB
  0
TABLE
  2
LTYPE
 70
    22
  0
LTYPE
  2
CONTINUOUS
 70
     0
  3
Solid line
 72
    65
 73
     0
 40
0.0
  0
LTYPE
  2
PHANTOM2
 70
     0
  3
Phantom (.5x) ___ _ _ ___ _ _ ___ _ _ ___ _ _
 72
    65
 73
     6
 40
31.75
 49
15.875
 49
-3.174999999999998
 49
3.174999999999998
 49
-3.174999999999998
 49
3.174999999999998
 49
-3.174999999999998
  0
LTYPE
  2
CENTER
 70
     0
  3
Center ____ _ ____ _ ____ _ ____ _ ____ _ ____
 72
    65
 73
     4
 40
50.799999999999997
 49
31.75
 49
-6.3499999999999979
 49
6.3499999999999979
 49
-6.3499999999999979
  0
LTYPE
  2
GEN3B
 70
     0
  3
 - - - - -
 72
    65
 73
     2
 40
1.0
 49
0.5
 49
-0.5
  0
LTYPE
  2
GEN7A
 70
     0
  3
__ . __ . __
 72
    65
 73
     4
 40
7.375
 49
4.75
 49
-0.875
 49
0.875
 49
-0.875
  0
LTYPE
  2
AM_ISO02W050
 70
     0
  3
__ __ __ __ __ __ __ __ __ __ __ __ __ __ __
 72
    65
 73
     2
 40
7.5
 49
6.0
 49
-1.5
  0
LTYPE
  2
AM_ISO08W050
 70
     0
  3
____ . ____ . ____ . ____ . ____ . ____ . ____
 72
    65
 73
     4
 40
18.0
 49
12.0
 49
-1.5
 49
3.0
 49
-1.5
  0
LTYPE
  2
AM_ISO09W050
 70
     0
  3
_____ . . _____ . . _____ . . ____ .. ____
 72
    65
 73
     6
 40
22.5
 49
12.0
 49
-1.5
 49
3.0
 49
-1.5
 49
3.0
 49
-1.5
  0
LTYPE
  2
AMCONSTR
 70
     0
  3
_______________________
 72
    65
 73
     2
 40
9999.0
 49
9999.0
 49
0.0
  0
LTYPE
  2
AM_ISO02W050X2
 70
     0
  3
 _ _ _ _ _ _ _ _ _ _ _ _
 72
    65
 73
     2
 40
3.75
 49
3.0
 49
-0.75
  0
LTYPE
  2
AM_ISO08W050X2
 70
     0
  3
__ . __ . __ . __ . __ . __
 72
    65
 73
     4
 40
9.0
 49
6.0
 49
-0.75
 49
1.5
 49
-0.75
  0
LTYPE
  2
AMZIGZAG
 70
     0
  3
/\/-/\/-/\/-/\/-/\/-/\/
 72
    65
 73
     2
 40
11.0001
 49
0.0001
 49
-11.0
  0
LTYPE
  2
ACISOWELD
 70
     0
  3
_ _ _ _ _
 72
    65
 73
     2
 40
2.0
 49
2.0
 49
-1.0
  0
LTYPE
  2
ACISOTGB
 70
     0
  3
__ . . __ . .
 72
    65
 73
     6
 40
9.0
 49
4.0
 49
-1.0
 49
1.0
 49
-1.0
 49
1.0
 49
-1.0
  0
LTYPE
  2
ACISOTGL
 70
     0
  3
_ _ _ _ _
 72
    65
 73
     2
 40
3.0
 49
2.0
 49
-1.0
  0
LTYPE
  2
HIDDEN
 70
     0
  3
Hidden __ __ __ __ __ __ __ __ __ __ __ __ __ _
 72
    65
 73
     2
 40
9.5249999999999968
 49
6.349999999999997
 49
-3.174999999999998
  0
LTYPE
  2
ACANSTGBM
 70
     0
  3
__ . . __ . .
 72
    65
 73
     6
 40
9.0
 49
4.0
 49
-1.0
 49
1.0
 49
-1.0
 49
1.0
 49
-1.0
  0
LTYPE
  2
ACANSTGLM
 70
     0
  3
_ _ _ _ _
 72
    65
 73
     2
 40
3.0
 49
2.0
 49
-1.0
  0
LTYPE
  2
ACJISTGB
 70
     0
  3
__ . . __ . .
 72
    65
 73
     6
 40
9.0
 49
4.0
 49
-1.0
 49
1.0
 49
-1.0
 49
1.0
 49
-1.0
  0
LTYPE
  2
ACJISTGL
 70
     0
  3
_ _ _ _ _
 72
    65
 73
     2
 40
3.0
 49
2.0
 49
-1.0
  0
LTYPE
  2
ACJISWELD
 70
     0
  3
_ _ _ _ _
 72
    65
 73
     2
 40
2.0
 49
2.0
 49
-1.0
  0
ENDTAB
  0
TABLE
  2
LAYER
 70
     9
  0
LAYER
  2
0
 70
     0
 62
     7
  6
CONTINUOUS
  0
LAYER
  2
ｽﾝﾎﾟｳｾﾝ
 70
     0
 62
     2
  6
CONTINUOUS
  0
LAYER
  2
DEFPOINTS
 70
     0
 62
     7
  6
CONTINUOUS
  0
LAYER
  2
ｷｲﾛ
 70
     0
 62
     2
  6
CONTINUOUS
  0
LAYER
  2
ｶｸﾚｾﾝ2
 70
     0
 62
     3
  6
GEN3B
  0
LAYER
  2
ﾁｭｳｼﾝｾﾝ1
 70
     0
 62
     1
  6
GEN7A
  0
LAYER
  2
AM_0
 70
     0
 62
     7
  6
CONTINUOUS
  0
LAYER
  2
AM_0N
 70
     0
 62
     7
  6
CONTINUOUS
  0
LAYER
  2
AM_5
 70
     0
 62
     2
  6
CONTINUOUS
  0
ENDTAB
  0
TABLE
  2
STYLE
 70
     8
  0
STYLE
  2
STANDARD
 70
     0
 40
0.0
 41
0.8299999999999999
 50
0.0
 71
     0
 42
2.5
  3
txt.shx
  4
bigfont.shx
  0
STYLE
  2

 70
     1
 40
0.0
 41
1.0
 50
0.0
 71
     0
 42
2.5
  3
ltypeshp.shx
  4

  0
STYLE
  2
ACISOTS
 70
     0
 40
1.0
 41
1.0
 50
0.0
 71
     0
 42
2.5
  3
isocp.shx
  4
extfont.shx
  0
STYLE
  2
ACISOGDT
 70
     0
 40
0.0
 41
1.0
 50
0.0
 71
     0
 42
2.5
  3
amgdt.shx
  4

  0
STYLE
  2
ACANSTS
 70
     0
 40
1.0
 41
1.0
 50
0.0
 71
     0
 42
2.5
  3
romans.shx
  4
bigfont.shx
  0
STYLE
  2
ACANSGDT
 70
     0
 40
0.0
 41
1.0
 50
0.0
 71
     0
 42
2.5
  3
amgdtans.shx
  4

  0
STYLE
  2
ACJISGDT
 70
     0
 40
0.0
 41
1.0
 50
0.0
 71
     0
 42
2.5
  3
amgdt.shx
  4

  0
STYLE
  2
ACJISTS
 70
     0
 40
1.0
 41
1.0
 50
0.0
 71
     0
 42
2.5
  3
isocp.shx
  4
extfont.shx
  0
ENDTAB
  0
TABLE
  2
VIEW
 70
    12
  0
VIEW
  2
GEN1
 70
     0
 40
95.824742268041234
 10
71.5
 20
137.08762886597941
 41
143.0
 11
0.0
 21
0.0
 31
1.0
 12
0.0
 22
0.0
 32
0.0
 42
50.0
 43
0.0
 44
0.0
 50
0.0
 71
     0
  0
VIEW
  2
GEN2
 70
     0
 40
95.824742268041234
 10
214.5
 20
137.08762886597941
 41
143.0
 11
0.0
 21
0.0
 31
1.0
 12
0.0
 22
0.0
 32
0.0
 42
50.0
 43
0.0
 44
0.0
 50
0.0
 71
     0
  0
VIEW
  2
GEN3
 70
     0
 40
95.824742268041234
 10
71.5
 20
47.912371134020603
 41
143.0
 11
0.0
 21
0.0
 31
1.0
 12
0.0
 22
0.0
 32
0.0
 42
50.0
 43
0.0
 44
0.0
 50
0.0
 71
     0
  0
VIEW
  2
GEN4
 70
     0
 40
95.824742268041234
 10
214.5
 20
47.912371134020603
 41
143.0
 11
0.0
 21
0.0
 31
1.0
 12
0.0
 22
0.0
 32
0.0
 42
50.0
 43
0.0
 44
0.0
 50
0.0
 71
     0
  0
VIEW
  2
GEN5
 70
     0
 40
95.824742268041234
 10
143.0
 20
92.500000000000057
 41
143.0
 11
0.0
 21
0.0
 31
1.0
 12
0.0
 22
0.0
 32
0.0
 42
50.0
 43
0.0
 44
0.0
 50
0.0
 71
     0
  0
VIEW
  2
GEN6
 70
     0
 40
191.64756804123709
 10
143.0
 20
92.5
 41
285.99714
 11
0.0
 21
0.0
 31
1.0
 12
0.0
 22
0.0
 32
0.0
 42
50.0
 43
0.0
 44
0.0
 50
0.0
 71
     0
  0
VIEW
  2
AM_VIEW1
 70
     0
 40
370.00000000000023
 10
332.86372007366492
 20
555.00000000000011
 41
665.72744014732973
 11
0.0
 21
0.0
 31
1.0
 12
0.0
 22
0.0
 32
0.0
 42
50.0
 43
0.0
 44
0.0
 50
0.0
 71
     0
  0
VIEW
  2
AM_VIEW2
 70
     0
 40
370.00000000000023
 10
805.13627992633508
 20
555.00000000000011
 41
665.72744014732973
 11
0.0
 21
0.0
 31
1.0
 12
0.0
 22
0.0
 32
0.0
 42
50.0
 43
0.0
 44
0.0
 50
0.0
 71
     0
  0
VIEW
  2
AM_VIEW3
 70
     0
 40
370.00000000000023
 10
332.86372007366492
 20
185.0
 41
665.72744014732973
 11
0.0
 21
0.0
 31
1.0
 12
0.0
 22
0.0
 32
0.0
 42
50.0
 43
0.0
 44
0.0
 50
0.0
 71
     0
  0
VIEW
  2
AM_VIEW4
 70
     0
 40
370.00000000000023
 10
805.13627992633508
 20
185.0
 41
665.72744014732973
 11
0.0
 21
0.0
 31
1.0
 12
0.0
 22
0.0
 32
0.0
 42
50.0
 43
0.0
 44
0.0
 50
0.0
 71
     0
  0
VIEW
  2
AM_VIEW5
 70
     0
 40
370.00000000000023
 10
569.0
 20
370.00000000000023
 41
665.72744014732962
 11
0.0
 21
0.0
 31
1.0
 12
0.0
 22
0.0
 32
0.0
 42
50.0
 43
0.0
 44
0.0
 50
0.0
 71
     0
  0
VIEW
  2
AM_VIEW6
 70
     0
 40
739.99260000000015
 10
569.0
 20
370.00000000000023
 41
1331.4415657458569
 11
0.0
 21
0.0
 31
1.0
 12
0.0
 22
0.0
 32
0.0
 42
50.0
 43
0.0
 44
0.0
 50
0.0
 71
     0
  0
ENDTAB
  0
TABLE
  2
UCS
 70
     0
  0
ENDTAB
  0
TABLE
  2
APPID
 70
   101
  0
APPID
  2
ACAD
 70
     0
  0
APPID
  2
MCAD_NO_VIS
 70
     0
  0
APPID
  2
ACAD_TEMP_GRAPHIC
 70
     0
  0
APPID
  2
AD_DRAW
 70
     0
  0
APPID
  2
DESIGNERASSEMBLIES
 70
     0
  0
APPID
  2
ASURF_PCURVE_APPNAME
 70
     0
  0
APPID
  2
GENIUS_GE3SECT_13
 70
     0
  0
APPID
  2
GENIUS_GENCFG_13
 70
     0
  0
APPID
  2
GENIUS_GE3CFG0_13
 70
     0
  0
APPID
  2
GENIUS_GENCFG0_13
 70
     0
  0
APPID
  2
GENIUS_GENCFG1_13
 70
     0
  0
APPID
  2
GENIUS_GENCFG2_13
 70
     0
  0
APPID
  2
GENIUS_GENCFG3_13
 70
     0
  0
APPID
  2
GENIUS_GENCFG4_13
 70
     0
  0
APPID
  2
GENIUS_GEVCFG0_13
 70
     0
  0
APPID
  2
GENIUS_GENOENT_13
 70
     0
  0
APPID
  2
GENIUS_GENREC_14
 70
     0
  0
APPID
  2
GENIUS_GENODEF_13
 70
     0
  0
APPID
  2
GENIUS_GENOBJ-N-REC_13
 70
     0
  0
APPID
  2
GENIUS_GENHINW_13
 70
     0
  0
APPID
  2
GENIUS_FIRSTVISTXT_14
 70
     0
  0
APPID
  2
GENIUS_GENOBJ-N-LEADER_13
 70
     0
  0
APPID
  2
GENIUS_GENOREF_13
 70
     0
  0
APPID
  2
GENIUS_GENOLIS_13
 70
     0
  0
APPID
  2
GEV_VCCNULL_SWITCH_OFF
 70
     0
  0
APPID
  2
GENIUS_GENDTOL_13
 70
     0
  0
APPID
  2
GENIUS_GEFCFG0_13
 70
     0
  0
APPID
  2
GENIUS_GENOBJ-N-TIT_13
 70
     0
  0
APPID
  2
GENIUS_GENTITLE_13
 70
     0
  0
APPID
  2
GENIUS_GENZVEED_13
 70
     0
  0
APPID
  2
GENIUS_GENOBJ-N-SDF_13
 70
     0
  0
APPID
  2
GENIUS_GENSCREG_13
 70
     0
  0
APPID
  2
GENIUS_DUMCFG0_13
 70
     0
  0
APPID
  2
GEVID936201362
 70
     0
  0
APPID
  2
GEVDC
 70
     0
  0
APPID
  2
GEVCON
 70
     0
  0
APPID
  2
VCC
 70
     0
  0
APPID
  2
GEVPT
 70
     0
  0
APPID
  2
GEVIT
 70
     0
  0
APPID
  2
GENBH
 70
     0
  0
APPID
  2
GEVMK
 70
     0
  0
APPID
  2
GENIUS_GENBH_13
 70
     0
  0
APPID
  2
GENIUS_GENOBJ-NBEHI-BHF_13
 70
     0
  0
APPID
  2
GENIUS_GENOBJ-NBEHI-BHB_13
 70
     0
  0
APPID
  2
GENIUS_GENOBJ-F-DESC_13
 70
     0
  0
APPID
  2
GENIUS_GEFDESC_14
 70
     0
  0
APPID
  2
GENIUS_GENOBJ-F-PART_13
 70
     0
  0
APPID
  2
GENIUS_GEFSTDP_13
 70
     0
  0
APPID
  2
GENIUS_GEFPARTINS_13
 70
     0
  0
APPID
  2
GENIUS_GENTRA_14
 70
     0
  0
APPID
  2
GENIUS_GENINF13_13
 70
     0
  0
APPID
  2
GENIUS_GENOBJ-N-INFOPT_13
 70
     0
  0
APPID
  2
GENIUS_GENOBJ-N-RSSYM_13
 70
     0
  0
APPID
  2
GENIUS_GENSYMENT_13
 70
     0
  0
APPID
  2
GENIUS_GENSCSYM_13
 70
     0
  0
APPID
  2
GENIUS_GEFINFNAM_13
 70
     0
  0
APPID
  2
GENIUS_GENSCREG_15
 70
     0
  0
APPID
  2
GENIUS_GENOBJ-N-CEN_13
 70
     0
  0
APPID
  2
GENIUS_GENOBJ-N-CRS_13
 70
     0
  0
APPID
  2
GENIUS_GENOBJ-N-CRC_13
 70
     0
  0
APPID
  2
GENIUS_GENCRC_14
 70
     0
  0
APPID
  2
GEVID942827039
 70
     0
  0
APPID
  2
GEVID942827040
 70
     0
  0
APPID
  2
GEVID942827041
 70
     0
  0
APPID
  2
GENIUS_GENOBJ-F-SCPASSM_13
 70
     0
  0
APPID
  2
GENIUS_GENDIMSH_14
 70
     0
  0
APPID
  2
GENIUS_GENFIL_13
 70
     0
  0
APPID
  2
GENIUS_GENOBJ-N-CHA_13
 70
     0
  0
APPID
  2
GENIUS_GENOBJ-N-FIL_13
 70
     0
  0
APPID
  2
GEVID942827042
 70
     0
  0
APPID
  2
GEVID946020473
 70
     0
  0
APPID
  2
GEVID946020474
 70
     0
  0
APPID
  2
GEVID946020475
 70
     0
  0
APPID
  2
GENIUS_GENOBJ-N-HTC_13
 70
     0
  0
APPID
  2
GENIUS_GENHATCH_13
 70
     0
  0
APPID
  2
GEVID948854295
 70
     0
  0
APPID
  2
GEVID939402019
 70
     0
  0
APPID
  2
GEVID952919491
 70
     0
  0
APPID
  2
GEVID952919492
 70
     0
  0
APPID
  2
GENIUS_GEFWELD_13
 70
     0
  0
APPID
  2
GENIUS_GENOBJ-F-WELS_13
 70
     0
  0
APPID
  2
GEVID952919493
 70
     0
  0
APPID
  2
GENIUS_GENOBJ-N-RSBK_13
 70
     0
  0
APPID
  2
GENIUS_GENOBJ-N-LIB_13
 70
     0
  0
APPID
  2
GENIUS_GENSCALE_13
 70
     0
  0
APPID
  2
GEVID986376691
 70
     0
  0
APPID
  2
ACATTRIBSERVICES
 70
     0
  0
APPID
  2
DCO15
 70
     0
  0
APPID
  2
ACADM_DIM_EDIT
 70
     0
  0
APPID
  2
AMDT_DM_ADJ
 70
     0
  0
APPID
  2
ACAD_MLEADERVER
 70
     0
  0
APPID
  2
CONTENTBLOCKDESCRIPTION
 70
     0
  0
APPID
  2
ACADANNOTATIVE
 70
     0
  0
APPID
  2
GEVID1057795304
 70
     0
  0
APPID
  2
GENIUS_GEFSH_13
 70
     0
  0
APPID
  2
GENIUS_GENOBJ-F-SHS_13
 70
     0
  0
APPID
  2
ACAD_DSTYLE_DIMBREAK
 70
     0
  0
APPID
  2
ACAD_DSTYLE_DIMJAG
 70
     0
  0
APPID
  2
ACAD_NAV_VCDISPLAY
 70
     0
  0
APPID
  2
ACADANNOPO
 70
     0
  0
APPID
  2
ACAD_EXEMPT_FROM_CAD_STANDARDS
 70
     0
  0
ENDTAB
  0
TABLE
  2
DIMSTYLE
 70
    21
  0
DIMSTYLE
  2
STANDARD
 70
     0
  3

  4

  5

  6

  7

 40
1.0
 41
0.18
 42
0.0625
 43
0.38
 44
0.18
 45
0.0
 46
0.0
 47
0.0
 48
0.0
140
0.18
141
0.09
142
0.0
143
25.399999999999999
144
1.0
145
0.0
146
1.0
147
0.09
 71
     0
 72
     0
 73
     1
 74
     1
 75
     0
 76
     0
 77
     0
 78
     0
170
     0
171
     2
172
     0
173
     0
174
     0
175
     0
176
     0
177
     0
178
     0
  0
DIMSTYLE
  2
AM_JIS
 70
     0
  3

  4
"
  5

  6

  7

 40
1.0
 41
2.0
 42
1.0
 43
8.0
 44
1.0
 45
0.0
 46
0.0
 47
0.1
 48
0.1
140
2.5
141
0.0
142
0.0
143
0.0393701
144
1.0
145
0.0
146
0.71
147
1.5
 71
     0
 72
     0
 73
     0
 74
     0
 75
     0
 76
     0
 77
     3
 78
     8
170
     0
171
     2
172
     1
173
     0
174
     0
175
     0
176
     2
177
     2
178
     4
  0
DIMSTYLE
  2
AM_ISO
 70
     0
  3

  4
"
  5

  6

  7

 40
1.0
 41
2.5
 42
1.0
 43
10.0
 44
1.0
 45
0.0
 46
0.0
 47
0.1
 48
0.1
140
3.5
141
0.0
142
0.0
143
0.0393701
144
1.0
145
0.0
146
0.71
147
1.5
 71
     0
 72
     0
 73
     0
 74
     0
 75
     0
 76
     0
 77
     1
 78
     8
170
     0
171
     2
172
     1
173
     0
174
     0
175
     0
176
   256
177
   256
178
     2
  0
DIMSTYLE
  2
AM_ISO$3
 70
     0
  3

  4
"
  5

  6

  7

 40
1.0
 41
2.5
 42
1.0
 43
10.0
 44
1.0
 45
0.0
 46
0.0
 47
0.1
 48
0.1
140
3.5
141
0.0
142
0.0
143
0.0393701
144
1.0
145
0.0
146
0.71
147
1.5
 71
     0
 72
     0
 73
     0
 74
     1
 75
     0
 76
     0
 77
     1
 78
     8
170
     0
171
     2
172
     0
173
     0
174
     0
175
     0
176
   256
177
   256
178
     2
  0
DIMSTYLE
  2
AM_ISO$4
 70
     0
  3

  4
"
  5

  6

  7

 40
1.0
 41
2.5
 42
1.0
 43
10.0
 44
1.0
 45
0.0
 46
0.0
 47
0.1
 48
0.1
140
3.5
141
0.0
142
0.0
143
0.0393701
144
1.0
145
0.0
146
0.71
147
1.5
 71
     0
 72
     0
 73
     0
 74
     1
 75
     0
 76
     0
 77
     1
 78
     8
170
     0
171
     2
172
     0
173
     0
174
     0
175
     0
176
   256
177
   256
178
     2
  0
DIMSTYLE
  2
AM_ISO$6
 70
     0
  3

  4
"
  5

  6

  7

 40
1.0
 41
2.5
 42
1.0
 43
10.0
 44
1.0
 45
0.0
 46
0.0
 47
0.1
 48
0.1
140
3.5
141
0.0
142
0.0
143
0.0393701
144
1.0
145
0.0
146
0.71
147
1.5
 71
     0
 72
     0
 73
     0
 74
     0
 75
     0
 76
     0
 77
     0
 78
     8
170
     0
171
     2
172
     1
173
     0
174
     0
175
     0
176
   256
177
   256
178
     2
  0
DIMSTYLE
  2
AM_ISO$7
 70
     0
  3

  4
"
  5

  6

  7

 40
1.0
 41
2.5
 42
1.0
 43
10.0
 44
1.0
 45
0.0
 46
0.0
 47
0.1
 48
0.1
140
5.0
141
0.0
142
0.0
143
0.0393701
144
1.0
145
0.0
146
0.71
147
1.5
 71
     0
 72
     0
 73
     0
 74
     0
 75
     0
 76
     0
 77
     1
 78
     8
170
     0
171
     2
172
     1
173
     0
174
     0
175
     0
176
   256
177
   256
178
     2
  0
DIMSTYLE
  2
AM_ISO$SF
 70
     0
  3

  4
"
  5

  6

  7

 40
1.0
 41
2.5
 42
1.0
 43
10.0
 44
1.0
 45
0.0
 46
0.0
 47
0.1
 48
0.1
140
3.5
141
0.0
142
0.0
143
0.0393701
144
1.0
145
0.0
146
0.71
147
1.5
 71
     0
 72
     0
 73
     0
 74
     0
 75
     1
 76
     1
 77
     1
 78
     8
170
     0
171
     2
172
     1
173
     0
174
     0
175
     0
176
   256
177
   256
178
     2
  0
DIMSTYLE
  2
AM_ISO$SH
 70
     0
  3

  4
"
  5

  6
GENAXEH
  7

 40
1.0
 41
2.5
 42
1.0
 43
10.0
 44
1.0
 45
0.0
 46
0.0
 47
0.1
 48
0.1
140
3.5
141
0.0
142
0.0
143
0.0393701
144
2.0
145
0.0
146
0.71
147
1.5
 71
     0
 72
     0
 73
     0
 74
     0
 75
     1
 76
     1
 77
     1
 78
     8
170
     0
171
     2
172
     1
173
     1
174
     0
175
     0
176
   256
177
   256
178
     2
  0
DIMSTYLE
  2
AM_ANSI
 70
     0
  3

  4
"
  5

  6

  7

 40
1.0
 41
2.5
 42
1.0
 43
10.0
 44
1.0
 45
0.0
 46
0.0
 47
0.1
 48
0.1
140
3.5
141
0.0
142
0.0
143
0.0393701
144
1.0
145
0.0
146
0.71
147
1.5
 71
     0
 72
     0
 73
     1
 74
     1
 75
     0
 76
     0
 77
     0
 78
     8
170
     0
171
     2
172
     0
173
     0
174
     0
175
     0
176
     2
177
     2
178
     4
  0
DIMSTYLE
  2
AM_ANSI$3
 70
     0
  3

  4
"
  5

  6

  7

 40
1.0
 41
2.5
 42
1.0
 43
10.0
 44
1.0
 45
0.0
 46
0.0
 47
0.1
 48
0.1
140
3.5
141
0.0
142
0.0
143
0.0393701
144
1.0
145
0.0
146
0.71
147
1.5
 71
     0
 72
     0
 73
     1
 74
     1
 75
     0
 76
     0
 77
     0
 78
     8
170
     0
171
     2
172
     0
173
     0
174
     0
175
     0
176
     2
177
     2
178
     4
  0
DIMSTYLE
  2
AM_ANSI$4
 70
     0
  3

  4
"
  5

  6

  7

 40
1.0
 41
2.5
 42
1.0
 43
10.0
 44
1.0
 45
0.0
 46
0.0
 47
0.1
 48
0.1
140
3.5
141
0.0
142
0.0
143
0.0393701
144
1.0
145
0.0
146
0.71
147
1.5
 71
     0
 72
     0
 73
     1
 74
     1
 75
     0
 76
     0
 77
     0
 78
     8
170
     0
171
     2
172
     0
173
     0
174
     0
175
     0
176
     2
177
     2
178
     4
  0
DIMSTYLE
  2
AM_ANSI$7
 70
     0
  3

  4
"
  5

  6

  7

 40
1.0
 41
2.5
 42
1.0
 43
10.0
 44
1.0
 45
0.0
 46
0.0
 47
0.1
 48
0.1
140
5.0
141
0.0
142
0.0
143
0.0393701
144
1.0
145
0.0
146
0.71
147
1.5
 71
     0
 72
     0
 73
     1
 74
     1
 75
     0
 76
     0
 77
     0
 78
     8
170
     0
171
     2
172
     0
173
     0
174
     0
175
     0
176
     2
177
     2
178
     4
  0
DIMSTYLE
  2
AM_ANSI$SF
 70
     0
  3

  4
"
  5

  6

  7

 40
1.0
 41
2.5
 42
1.0
 43
10.0
 44
1.0
 45
0.0
 46
0.0
 47
0.1
 48
0.1
140
3.5
141
0.0
142
0.0
143
0.0393701
144
1.0
145
0.0
146
0.71
147
1.5
 71
     0
 72
     0
 73
     1
 74
     1
 75
     1
 76
     1
 77
     0
 78
     8
170
     0
171
     2
172
     0
173
     0
174
     0
175
     0
176
     2
177
     2
178
     4
  0
DIMSTYLE
  2
AM_ANSI$SH
 70
     0
  3

  4
"
  5

  6
GENAXEH
  7

 40
1.0
 41
2.5
 42
1.0
 43
10.0
 44
1.0
 45
0.0
 46
0.0
 47
0.1
 48
0.1
140
3.5
141
0.0
142
0.0
143
0.0393701
144
1.0
145
0.0
146
0.71
147
1.5
 71
     0
 72
     0
 73
     1
 74
     1
 75
     1
 76
     1
 77
     0
 78
     8
170
     0
171
     2
172
     0
173
     1
174
     0
175
     0
176
     2
177
     2
178
     4
  0
DIMSTYLE
  2
AM_JIS$3
 70
     0
  3

  4
"
  5

  6

  7

 40
1.0
 41
2.0
 42
1.0
 43
10.0
 44
1.0
 45
0.0
 46
0.0
 47
0.1
 48
0.1
140
2.5
141
0.0
142
0.0
143
0.0393701
144
1.0
145
0.0
146
0.71
147
1.5
 71
     0
 72
     0
 73
     0
 74
     1
 75
     0
 76
     0
 77
     3
 78
     8
170
     0
171
     2
172
     0
173
     0
174
     0
175
     0
176
     2
177
     2
178
     4
  0
DIMSTYLE
  2
AM_JIS$4
 70
     0
  3

  4
"
  5

  6

  7

 40
1.0
 41
2.0
 42
1.0
 43
10.0
 44
1.0
 45
0.0
 46
0.0
 47
0.1
 48
0.1
140
2.5
141
0.0
142
0.0
143
0.0393701
144
1.0
145
0.0
146
0.71
147
1.5
 71
     0
 72
     0
 73
     0
 74
     0
 75
     0
 76
     0
 77
     3
 78
     8
170
     0
171
     2
172
     0
173
     0
174
     0
175
     0
176
     2
177
     2
178
     4
  0
DIMSTYLE
  2
AM_JIS$6
 70
     0
  3

  4
"
  5

  6

  7

 40
1.0
 41
2.0
 42
1.0
 43
10.0
 44
1.0
 45
0.0
 46
0.0
 47
0.1
 48
0.1
140
2.5
141
0.0
142
0.0
143
0.0393701
144
1.0
145
0.0
146
0.71
147
1.5
 71
     0
 72
     0
 73
     0
 74
     0
 75
     0
 76
     0
 77
     0
 78
     8
170
     0
171
     2
172
     1
173
     0
174
     0
175
     0
176
     2
177
     2
178
     4
  0
DIMSTYLE
  2
AM_JIS$7
 70
     0
  3

  4
"
  5

  6
OPEN30
  7
OPEN30
 40
1.0
 41
2.0
 42
1.0
 43
10.0
 44
1.0
 45
0.0
 46
0.0
 47
0.1
 48
0.1
140
2.5
141
0.0
142
0.0
143
0.0393701
144
1.0
145
0.0
146
0.71
147
1.5
 71
     0
 72
     0
 73
     0
 74
     0
 75
     0
 76
     0
 77
     3
 78
     8
170
     0
171
     2
172
     1
173
     0
174
     0
175
     0
176
     2
177
     2
178
     4
  0
DIMSTYLE
  2
AM_JIS$SF
 70
     0
  3

  4
"
  5

  6

  7

 40
1.0
 41
2.0
 42
1.0
 43
10.0
 44
1.0
 45
0.0
 46
0.0
 47
0.1
 48
0.1
140
2.5
141
0.0
142
0.0
143
0.0393701
144
1.0
145
0.0
146
0.71
147
1.5
 71
     0
 72
     0
 73
     0
 74
     0
 75
     1
 76
     1
 77
     3
 78
     8
170
     0
171
     2
172
     1
173
     0
174
     0
175
     0
176
     2
177
     2
178
     4
  0
DIMSTYLE
  2
AM_JIS$SH
 70
     0
  3

  4
"
  5

  6
GENAXEH
  7

 40
1.0
 41
2.0
 42
1.0
 43
10.0
 44
1.0
 45
0.0
 46
0.0
 47
0.1
 48
0.1
140
2.5
141
0.0
142
0.0
143
0.0393701
144
2.0
145
0.0
146
0.71
147
1.5
 71
     0
 72
     0
 73
     0
 74
     0
 75
     1
 76
     1
 77
     3
 78
     8
170
     0
171
     2
172
     1
173
     1
174
     0
175
     0
176
     2
177
     2
178
     4
  0
ENDTAB
  0
ENDSEC
  0
SECTION
  2
BLOCKS
  0
BLOCK
  8
0
  2
$MODEL_SPACE
 70
     0
 10
0.0
 20
0.0
 30
0.0
  3
$MODEL_SPACE
  1

  0
ENDBLK
  5
1A
  8
0
  0
BLOCK
 67
     1
  8
0
  2
$PAPER_SPACE
 70
     0
 10
0.0
 20
0.0
 30
0.0
  3
$PAPER_SPACE
  1

  0
ENDBLK
  5
17
 67
     1
  8
0
  0
BLOCK
  8
0
  2
GENAXEH
 70
     0
 10
0.0
 20
0.0
 30
0.0
  3
GENAXEH
  1

  0
LINE
  5
1CC65
  8
0
 10
-1.0
 20
0.0
 30
0.0
 11
1.0
 21
0.0
 31
0.0
  0
ENDBLK
  5
1CC66
  8
0
  0
BLOCK
  8
0
  6
BYBLOCK
 62
     0
  2
$6-44
 70
     0
 10
0.0
 20
0.0
 30
0.0
  3
$6-44
  1

  0
ARC
  5
1AC83
  8
AM_0
 10
-2.300003000000002
 20
2.3999909999999991
 30
0.0
 40
2.2000009999999981
 50
90.000003000000945
 51
179.99997799999841
  0
ARC
  5
1AC84
  8
AM_0
 10
2.300003000000002
 20
2.3999909999999991
 30
0.0
 40
2.1999970000000002
 50
0.0
 51
89.999982000000799
  0
LINE
  5
1AC85
  8
AM_0
 10
-0.0494449999999915
 20
0.0
 30
0.0
 11
-0.8000000000000112
 21
1.30000000000001
 31
0.0
  0
LINE
  5
1AC86
  8
AM_0
 10
0.9505550000000083
 20
0.0
 30
0.0
 11
0.1999999999999886
 21
1.30000000000001
 31
0.0
  0
LINE
  5
1AC87
  8
AM_0
 10
4.600000000000021
 20
1.30000000000001
 30
0.0
 11
4.600000000000021
 21
0.0
 31
0.0
  0
LINE
  5
1AC88
  8
AM_0
 10
-4.600000000000021
 20
1.30000000000001
 30
0.0
 11
-4.600000000000021
 21
0.0
 31
0.0
  0
LINE
  5
1AC89
  8
AM_0
 10
4.600000000000021
 20
0.0
 30
0.0
 11
-4.600000000000021
 21
0.0
 31
0.0
  0
LINE
  5
1AC8A
  8
AM_0
 10
2.300003000000002
 20
4.6000030000000152
 30
0.0
 11
-2.300003000000002
 21
4.6000030000000152
 31
0.0
  0
LINE
  5
1AC8B
  8
AM_0
 10
4.600000000000021
 20
1.30000000000001
 30
0.0
 11
-4.600000000000021
 21
1.30000000000001
 31
0.0
  0
LINE
  5
1AC8C
  8
AM_0
 10
-4.5
 20
1.30000000000001
 30
0.0
 11
-4.5
 21
2.3999909999999991
 31
0.0
  0
LINE
  5
1AC8D
  8
AM_0
 10
4.5
 20
1.30000000000001
 30
0.0
 11
4.5
 21
2.3999909999999991
 31
0.0
  0
ENDBLK
  5
1AC8E
  8
0
  6
BYBLOCK
 62
     0
  0
BLOCK
  8
0
  2
_OPEN30
 70
     0
 10
0.0
 20
0.0
 30
0.0
  3
_OPEN30
  1

  0
LINE
  5
1CCAC
  8
0
  6
BYBLOCK
 62
     0
 10
-1.0
 20
0.26794919
 30
0.0
 11
0.0
 21
0.0
 31
0.0
  0
LINE
  5
1CCAD
  8
0
  6
BYBLOCK
 62
     0
 10
0.0
 20
0.0
 30
0.0
 11
-1.0
 21
-0.26794919
 31
0.0
  0
LINE
  5
1CCAE
  8
0
  6
BYBLOCK
 62
     0
 10
0.0
 20
0.0
 30
0.0
 11
-1.0
 21
0.0
 31
0.0
  0
ENDBLK
  5
1CCAF
  8
0
  0
BLOCK
  8
0
  2
_NONE
 70
     0
 10
0.0
 20
0.0
 30
0.0
  3
_NONE
  1

  0
ENDBLK
  5
1CDEB
  8
0
  0
ENDSEC
  0
SECTION
  2
ENTITIES
  0
POINT
  5
1B94
  8
0
 10
0.0
 20
0.0
 30
0.0
1001
GENIUS_GENODEF_13
1002
{
1000
HIER
1070
     1
1002
}
1002
{
1000
MANEDIT
1070
     0
1002
}
1002
{
1000
NOSEL
1070
     0
1002
}
1002
{
1000
BEHIND
1070
     0
1002
}
1002
{
1000
REACTOR
1002
}
1001
GENIUS_GENOBJ-N-SDF_13
1002
{
1000
OWNER
1000
GEN
1002
}
1001
GENIUS_GENOENT_13
1002
{
1000
MYREF
1005
1B94
1002
}
1002
{
1000
GRP
1005
0
1002
}
1001
GENIUS_GENOLIS_13
1002
{
1000
ENT
1005
89
1002
}
  0
LINE
  5
18D4F
  8
0
 10
565.62427640704675
 20
429.30398187140219
 30
0.0
 11
674.56879251435839
 21
429.30398187140219
 31
0.0
  0
POLYLINE
  5
18D50
  8
AM_0
 10
567.59654814612031
 20
318.30398187140298
 30
0.0
 66
     1
 70
     8
  0
VERTEX
  8
AM_0
  5
1CE56
 10
567.597
 20
318.304
 30
0.000000
  70
    32
  0
VERTEX
  8
AM_0
  5
1CE57
 10
567.627
 20
319.531
 30
0.000000
  70
    32
  0
VERTEX
  8
AM_0
  5
1CE58
 10
567.717
 20
320.754
 30
0.000000
  70
    32
  0
VERTEX
  8
AM_0
  5
1CE59
 10
567.867
 20
321.972
 30
0.000000
  70
    32
  0
VERTEX
  8
AM_0
  5
1CE5A
 10
568.077
 20
323.181
 30
0.000000
  70
    32
  0
VERTEX
  8
AM_0
  5
1CE5B
 10
568.346
 20
324.379
 30
0.000000
  70
    32
  0
VERTEX
  8
AM_0
  5
1CE5C
 10
568.673
 20
325.561
 30
0.000000
  70
    32
  0
VERTEX
  8
AM_0
  5
1CE5D
 10
569.058
 20
326.726
 30
0.000000
  70
    32
  0
VERTEX
  8
AM_0
  5
1CE5E
 10
569.500
 20
327.871
 30
0.000000
  70
    32
  0
VERTEX
  8
AM_0
  5
1CE5F
 10
569.997
 20
328.993
 30
0.000000
  70
    32
  0
VERTEX
  8
AM_0
  5
1CE60
 10
570.549
 20
330.089
 30
0.000000
  70
    32
  0
VERTEX
  8
AM_0
  5
1CE61
 10
571.153
 20
331.157
 30
0.000000
  70
    32
  0
VERTEX
  8
AM_0
  5
1CE62
 10
571.810
 20
332.194
 30
0.000000
  70
    32
  0
VERTEX
  8
AM_0
  5
1CE63
 10
572.516
 20
333.197
 30
0.000000
  70
    32
  0
VERTEX
  8
AM_0
  5
1CE64
 10
573.271
 20
334.164
 30
0.000000
  70
    32
  0
VERTEX
  8
AM_0
  5
1CE65
 10
574.073
 20
335.093
 30
0.000000
  70
    32
  0
VERTEX
  8
AM_0
  5
1CE66
 10
574.919
 20
335.982
 30
0.000000
  70
    32
  0
VERTEX
  8
AM_0
  5
1CE67
 10
575.808
 20
336.828
 30
0.000000
  70
    32
  0
VERTEX
  8
AM_0
  5
1CE68
 10
576.737
 20
337.630
 30
0.000000
  70
    32
  0
VERTEX
  8
AM_0
  5
1CE69
 10
577.704
 20
338.385
 30
0.000000
  70
    32
  0
VERTEX
  8
AM_0
  5
1CE6A
 10
578.707
 20
339.091
 30
0.000000
  70
    32
  0
VERTEX
  8
AM_0
  5
1CE6B
 10
579.744
 20
339.748
 30
0.000000
  70
    32
  0
VERTEX
  8
AM_0
  5
1CE6C
 10
580.812
 20
340.352
 30
0.000000
  70
    32
  0
VERTEX
  8
AM_0
  5
1CE6D
 10
581.908
 20
340.904
 30
0.000000
  70
    32
  0
VERTEX
  8
AM_0
  5
1CE6E
 10
583.029
 20
341.401
 30
0.000000
  70
    32
  0
VERTEX
  8
AM_0
  5
1CE6F
 10
584.174
 20
341.843
 30
0.000000
  70
    32
  0
VERTEX
  8
AM_0
  5
1CE70
 10
585.339
 20
342.228
 30
0.000000
  70
    32
  0
VERTEX
  8
AM_0
  5
1CE71
 10
586.522
 20
342.555
 30
0.000000
  70
    32
  0
VERTEX
  8
AM_0
  5
1CE72
 10
587.719
 20
342.824
 30
0.000000
  70
    32
  0
VERTEX
  8
AM_0
  5
1CE73
 10
588.928
 20
343.034
 30
0.000000
  70
    32
  0
VERTEX
  8
AM_0
  5
1CE74
 10
590.146
 20
343.184
 30
0.000000
  70
    32
  0
VERTEX
  8
AM_0
  5
1CE75
 10
591.370
 20
343.274
 30
0.000000
  70
    32
  0
VERTEX
  8
AM_0
  5
1CE76
 10
592.597
 20
343.304
 30
0.000000
  70
    32
  0
VERTEX
  8
AM_0
  5
1CE77
 10
593.823
 20
343.274
 30
0.000000
  70
    32
  0
VERTEX
  8
AM_0
  5
1CE78
 10
595.047
 20
343.184
 30
0.000000
  70
    32
  0
VERTEX
  8
AM_0
  5
1CE79
 10
596.265
 20
343.034
 30
0.000000
  70
    32
  0
VERTEX
  8
AM_0
  5
1CE7A
 10
597.474
 20
342.824
 30
0.000000
  70
    32
  0
VERTEX
  8
AM_0
  5
1CE7B
 10
598.671
 20
342.555
 30
0.000000
  70
    32
  0
VERTEX
  8
AM_0
  5
1CE7C
 10
599.854
 20
342.228
 30
0.000000
  70
    32
  0
VERTEX
  8
AM_0
  5
1CE7D
 10
601.019
 20
341.843
 30
0.000000
  70
    32
  0
VERTEX
  8
AM_0
  5
1CE7E
 10
602.164
 20
341.401
 30
0.000000
  70
    32
  0
VERTEX
  8
AM_0
  5
1CE7F
 10
603.285
 20
340.904
 30
0.000000
  70
    32
  0
VERTEX
  8
AM_0
  5
1CE80
 10
604.381
 20
340.352
 30
0.000000
  70
    32
  0
VERTEX
  8
AM_0
  5
1CE81
 10
605.449
 20
339.748
 30
0.000000
  70
    32
  0
VERTEX
  8
AM_0
  5
1CE82
 10
606.486
 20
339.091
 30
0.000000
  70
    32
  0
VERTEX
  8
AM_0
  5
1CE83
 10
607.489
 20
338.385
 30
0.000000
  70
    32
  0
VERTEX
  8
AM_0
  5
1CE84
 10
608.456
 20
337.630
 30
0.000000
  70
    32
  0
VERTEX
  8
AM_0
  5
1CE85
 10
609.386
 20
336.828
 30
0.000000
  70
    32
  0
VERTEX
  8
AM_0
  5
1CE86
 10
610.274
 20
335.982
 30
0.000000
  70
    32
  0
VERTEX
  8
AM_0
  5
1CE87
 10
611.120
 20
335.093
 30
0.000000
  70
    32
  0
VERTEX
  8
AM_0
  5
1CE88
 10
611.922
 20
334.164
 30
0.000000
  70
    32
  0
VERTEX
  8
AM_0
  5
1CE89
 10
612.677
 20
333.197
 30
0.000000
  70
    32
  0
VERTEX
  8
AM_0
  5
1CE8A
 10
613.383
 20
332.194
 30
0.000000
  70
    32
  0
VERTEX
  8
AM_0
  5
1CE8B
 10
614.040
 20
331.157
 30
0.000000
  70
    32
  0
VERTEX
  8
AM_0
  5
1CE8C
 10
614.645
 20
330.089
 30
0.000000
  70
    32
  0
VERTEX
  8
AM_0
  5
1CE8D
 10
615.196
 20
328.993
 30
0.000000
  70
    32
  0
VERTEX
  8
AM_0
  5
1CE8E
 10
615.694
 20
327.871
 30
0.000000
  70
    32
  0
VERTEX
  8
AM_0
  5
1CE8F
 10
616.135
 20
326.726
 30
0.000000
  70
    32
  0
VERTEX
  8
AM_0
  5
1CE90
 10
616.520
 20
325.561
 30
0.000000
  70
    32
  0
VERTEX
  8
AM_0
  5
1CE91
 10
616.847
 20
324.379
 30
0.000000
  70
    32
  0
VERTEX
  8
AM_0
  5
1CE92
 10
617.116
 20
323.181
 30
0.000000
  70
    32
  0
VERTEX
  8
AM_0
  5
1CE93
 10
617.326
 20
321.972
 30
0.000000
  70
    32
  0
VERTEX
  8
AM_0
  5
1CE94
 10
617.476
 20
320.754
 30
0.000000
  70
    32
  0
VERTEX
  8
AM_0
  5
1CE95
 10
617.566
 20
319.531
 30
0.000000
  70
    32
  0
VERTEX
  8
AM_0
  5
1CE96
 10
617.597
 20
318.304
 30
0.000000
  70
    32
  0
VERTEX
  8
AM_0
  5
1CE97
 10
617.566
 20
317.077
 30
0.000000
  70
    32
  0
VERTEX
  8
AM_0
  5
1CE98
 10
617.476
 20
315.854
 30
0.000000
  70
    32
  0
VERTEX
  8
AM_0
  5
1CE99
 10
617.326
 20
314.636
 30
0.000000
  70
    32
  0
VERTEX
  8
AM_0
  5
1CE9A
 10
617.116
 20
313.427
 30
0.000000
  70
    32
  0
VERTEX
  8
AM_0
  5
1CE9B
 10
616.847
 20
312.229
 30
0.000000
  70
    32
  0
VERTEX
  8
AM_0
  5
1CE9C
 10
616.520
 20
311.047
 30
0.000000
  70
    32
  0
VERTEX
  8
AM_0
  5
1CE9D
 10
616.135
 20
309.882
 30
0.000000
  70
    32
  0
VERTEX
  8
AM_0
  5
1CE9E
 10
615.694
 20
308.737
 30
0.000000
  70
    32
  0
VERTEX
  8
AM_0
  5
1CE9F
 10
615.196
 20
307.615
 30
0.000000
  70
    32
  0
VERTEX
  8
AM_0
  5
1CEA0
 10
614.645
 20
306.519
 30
0.000000
  70
    32
  0
VERTEX
  8
AM_0
  5
1CEA1
 10
614.040
 20
305.451
 30
0.000000
  70
    32
  0
VERTEX
  8
AM_0
  5
1CEA2
 10
613.383
 20
304.414
 30
0.000000
  70
    32
  0
VERTEX
  8
AM_0
  5
1CEA3
 10
612.677
 20
303.411
 30
0.000000
  70
    32
  0
VERTEX
  8
AM_0
  5
1CEA4
 10
611.922
 20
302.444
 30
0.000000
  70
    32
  0
VERTEX
  8
AM_0
  5
1CEA5
 10
611.120
 20
301.515
 30
0.000000
  70
    32
  0
VERTEX
  8
AM_0
  5
1CEA6
 10
610.274
 20
300.626
 30
0.000000
  70
    32
  0
VERTEX
  8
AM_0
  5
1CEA7
 10
609.386
 20
299.780
 30
0.000000
  70
    32
  0
VERTEX
  8
AM_0
  5
1CEA8
 10
608.456
 20
298.978
 30
0.000000
  70
    32
  0
VERTEX
  8
AM_0
  5
1CEA9
 10
607.489
 20
298.223
 30
0.000000
  70
    32
  0
VERTEX
  8
AM_0
  5
1CEAA
 10
606.486
 20
297.517
 30
0.000000
  70
    32
  0
VERTEX
  8
AM_0
  5
1CEAB
 10
605.449
 20
296.860
 30
0.000000
  70
    32
  0
VERTEX
  8
AM_0
  5
1CEAC
 10
604.381
 20
296.256
 30
0.000000
  70
    32
  0
VERTEX
  8
AM_0
  5
1CEAD
 10
603.285
 20
295.704
 30
0.000000
  70
    32
  0
VERTEX
  8
AM_0
  5
1CEAE
 10
602.164
 20
295.207
 30
0.000000
  70
    32
  0
VERTEX
  8
AM_0
  5
1CEAF
 10
601.019
 20
294.765
 30
0.000000
  70
    32
  0
VERTEX
  8
AM_0
  5
1CEB0
 10
599.854
 20
294.380
 30
0.000000
  70
    32
  0
VERTEX
  8
AM_0
  5
1CEB1
 10
598.671
 20
294.053
 30
0.000000
  70
    32
  0
VERTEX
  8
AM_0
  5
1CEB2
 10
597.474
 20
293.784
 30
0.000000
  70
    32
  0
VERTEX
  8
AM_0
  5
1CEB3
 10
596.265
 20
293.574
 30
0.000000
  70
    32
  0
VERTEX
  8
AM_0
  5
1CEB4
 10
595.047
 20
293.424
 30
0.000000
  70
    32
  0
VERTEX
  8
AM_0
  5
1CEB5
 10
593.823
 20
293.334
 30
0.000000
  70
    32
  0
VERTEX
  8
AM_0
  5
1CEB6
 10
592.597
 20
293.303
 30
0.000000
  70
    32
  0
VERTEX
  8
AM_0
  5
1CEB7
 10
591.370
 20
293.334
 30
0.000000
  70
    32
  0
VERTEX
  8
AM_0
  5
1CEB8
 10
590.146
 20
293.424
 30
0.000000
  70
    32
  0
VERTEX
  8
AM_0
  5
1CEB9
 10
588.928
 20
293.574
 30
0.000000
  70
    32
  0
VERTEX
  8
AM_0
  5
1CEBA
 10
587.719
 20
293.784
 30
0.000000
  70
    32
  0
VERTEX
  8
AM_0
  5
1CEBB
 10
586.522
 20
294.053
 30
0.000000
  70
    32
  0
VERTEX
  8
AM_0
  5
1CEBC
 10
585.339
 20
294.380
 30
0.000000
  70
    32
  0
VERTEX
  8
AM_0
  5
1CEBD
 10
584.174
 20
294.765
 30
0.000000
  70
    32
  0
VERTEX
  8
AM_0
  5
1CEBE
 10
583.029
 20
295.207
 30
0.000000
  70
    32
  0
VERTEX
  8
AM_0
  5
1CEBF
 10
581.908
 20
295.704
 30
0.000000
  70
    32
  0
VERTEX
  8
AM_0
  5
1CEC0
 10
580.812
 20
296.256
 30
0.000000
  70
    32
  0
VERTEX
  8
AM_0
  5
1CEC1
 10
579.744
 20
296.860
 30
0.000000
  70
    32
  0
VERTEX
  8
AM_0
  5
1CEC2
 10
578.707
 20
297.517
 30
0.000000
  70
    32
  0
VERTEX
  8
AM_0
  5
1CEC3
 10
577.704
 20
298.223
 30
0.000000
  70
    32
  0
VERTEX
  8
AM_0
  5
1CEC4
 10
576.737
 20
298.978
 30
0.000000
  70
    32
  0
VERTEX
  8
AM_0
  5
1CEC5
 10
575.808
 20
299.780
 30
0.000000
  70
    32
  0
VERTEX
  8
AM_0
  5
1CEC6
 10
574.919
 20
300.626
 30
0.000000
  70
    32
  0
VERTEX
  8
AM_0
  5
1CEC7
 10
574.073
 20
301.515
 30
0.000000
  70
    32
  0
VERTEX
  8
AM_0
  5
1CEC8
 10
573.271
 20
302.444
 30
0.000000
  70
    32
  0
VERTEX
  8
AM_0
  5
1CEC9
 10
572.516
 20
303.411
 30
0.000000
  70
    32
  0
VERTEX
  8
AM_0
  5
1CECA
 10
571.810
 20
304.414
 30
0.000000
  70
    32
  0
VERTEX
  8
AM_0
  5
1CECB
 10
571.153
 20
305.451
 30
0.000000
  70
    32
  0
VERTEX
  8
AM_0
  5
1CECC
 10
570.549
 20
306.519
 30
0.000000
  70
    32
  0
VERTEX
  8
AM_0
  5
1CECD
 10
569.997
 20
307.615
 30
0.000000
  70
    32
  0
VERTEX
  8
AM_0
  5
1CECE
 10
569.500
 20
308.737
 30
0.000000
  70
    32
  0
VERTEX
  8
AM_0
  5
1CECF
 10
569.058
 20
309.882
 30
0.000000
  70
    32
  0
VERTEX
  8
AM_0
  5
1CED0
 10
568.673
 20
311.047
 30
0.000000
  70
    32
  0
VERTEX
  8
AM_0
  5
1CED1
 10
568.346
 20
312.229
 30
0.000000
  70
    32
  0
VERTEX
  8
AM_0
  5
1CED2
 10
568.077
 20
313.427
 30
0.000000
  70
    32
  0
VERTEX
  8
AM_0
  5
1CED3
 10
567.867
 20
314.636
 30
0.000000
  70
    32
  0
VERTEX
  8
AM_0
  5
1CED4
 10
567.717
 20
315.854
 30
0.000000
  70
    32
  0
VERTEX
  8
AM_0
  5
1CED5
 10
567.627
 20
317.077
 30
0.000000
  70
    32
  0
VERTEX
  8
AM_0
  5
1CED6
 10
567.597
 20
318.304
 30
0.000000
  70
    32
  0
SEQEND
  8
AM_0
  5
1CED7
  0
LINE
  5
18D51
  8
0
 10
565.62427640704675
 20
207.30398187140361
 30
0.0
 11
674.56879251435839
 21
207.30398187140361
 31
0.0
  0
LINE
  5
18D5A
  8
ﾁｭｳｼﾝｾﾝ1
 10
1062.24
 20
318.3039818714031
 30
0.0
 11
505.84781105874652
 21
318.30398187140298
 31
0.0
  0
LINE
  5
18D5E
  8
0
 10
547.59652002972678
 20
201.30398187140361
 30
0.0
 11
692.59654889167837
 21
201.30398187140361
 31
0.0
  0
LINE
  5
18D5F
  8
0
  6
CONTINUOUS
 62
     7
 10
569.35387934260723
 20
244.3039818714031
 30
0.0
 11
531.59654663400431
 21
244.3039818714031
 31
0.0
  0
LINE
  5
18D60
  8
0
 10
560.96506225248845
 20
227.42988340704559
 30
0.0
 11
575.71784037328689
 21
242.182661527844
 31
0.0
  0
LINE
  5
18D61
  8
0
 10
556.72242156536913
 20
231.672524094165
 30
0.0
 11
571.4751996861678
 21
246.42530221496361
 31
0.0
  0
CIRCLE
  5
18D62
  8
0
 10
592.59654889167837
 20
318.30398187140298
 30
0.0
 40
50.0
  0
LINE
  5
18D63
  8
0
 10
547.59652002972678
 20
435.30398187140281
 30
0.0
 11
692.59654889167882
 21
435.30398187140281
 31
0.0
  0
LINE
  5
18D65
  8
0
  6
CONTINUOUS
 62
     7
 10
569.35387934260825
 20
392.3039818714027
 30
0.0
 11
531.59654663400431
 21
392.3039818714027
 31
0.0
  0
LINE
  5
18D66
  8
0
 10
560.96506225248856
 20
409.17808033576063
 30
0.0
 11
575.71784037328712
 21
394.42530221496219
 31
0.0
  0
LINE
  5
18D67
  8
0
 10
556.72242156536913
 20
404.93543964864108
 30
0.0
 11
571.4751996861678
 21
390.18266152784321
 31
0.0
  0
ARC
  5
18D82
  8
0
 10
526.59654663400386
 20
367.39801027779367
 30
0.0
 40
5.0
 50
69.332681879990645
 51
180.0
1001
GENIUS_GENOBJ-N-FIL_13
1002
{
1000
OWNER
1000
GEN
1002
}
1001
GENIUS_GENODEF_13
1002
{
1000
HIER
1070
     0
1002
}
1002
{
1000
MANEDIT
1070
     0
1002
}
1002
{
1000
NOSEL
1070
     0
1002
}
1002
{
1000
BEHIND
1070
     0
1002
}
1002
{
1000
OTHER
1070
     0
1002
}
1002
{
1000
REACTOR
1002
}
  0
ARC
  5
18D83
  8
0
 10
532.59654708553899
 20
383.3039838280539
 30
0.0
 40
12.0
 50
249.33268187999059
 51
13.60895384571479
  0
LINE
  5
18D84
  8
AM_0
 10
159.8658568596851
 20
374.30398382805419
 30
0.0
 11
159.8658568596851
 21
368.30398307849589
 31
0.0
  0
LINE
  5
18D86
  8
ﾁｭｳｼﾝｾﾝ1
 10
222.86585693089711
 20
195.3645122948742
 30
0.0
 11
222.8658568606123
 21
416.83109028197811
 31
0.0
  0
LINE
  5
18D87
  8
AM_0
 10
163.86585510254869
 20
240.04949343177711
 30
0.0
 11
163.86585510254869
 21
396.55847031102928
 31
0.0
  0
LINE
  5
18D89
  8
AM_0
 10
256.86585811278093
 20
238.4261654373386
 30
0.0
 11
256.86585811278093
 21
398.18179830546802
 31
0.0
  0
LINE
  5
18D8B
  8
AM_0
 10
322.86585687858548
 20
201.30398187140329
 30
0.0
 11
322.86585687858548
 21
435.30398187140281
 31
0.0
  0
LINE
  5
18D8F
  8
AM_0
 10
515.59654663400431
 20
383.30398382805458
 30
0.0
 11
515.59654663400431
 21
253.3039799147526
 31
0.0
  0
LINE
  5
18D90
  8
AM_0
 10
521.59654663400431
 20
383.30398382805458
 30
0.0
 11
521.59654663400431
 21
253.3039799147526
 31
0.0
  0
LINE
  5
18D98
  8
AM_0
 10
163.86585510254869
 20
240.04949343177711
 30
0.0
 11
256.86585811278093
 21
238.4261654373386
 31
0.0
  0
LINE
  5
18D9A
  8
ﾁｭｳｼﾝｾﾝ1
 10
384.1832465147786
 20
318.30398187140281
 30
0.0
 11
137.31722878740101
 21
318.30398187140321
 31
0.0
  0
LINE
  5
18DA4
  8
0
 10
161.36585510254869
 20
265.30397991475218
 30
0.0
 11
161.36585510254869
 21
241.3039799147522
 31
0.0
  0
LINE
  5
18DA5
  8
0
 10
149.36585510254869
 20
262.30397991475218
 30
0.0
 11
149.36585510254869
 21
244.3039799147522
 31
0.0
  0
LINE
  5
18DA9
  8
0
 10
149.36585510254869
 20
244.3039799147522
 30
0.0
 11
161.36585510254869
 21
244.3039799147522
 31
0.0
  0
LINE
  5
18DAA
  8
0
 10
161.36585510254869
 20
241.3039799147522
 30
0.0
 11
163.86585510254869
 21
241.3039799147522
 31
0.0
  0
LINE
  5
18DBA
  8
AM_0
 10
158.8658549520365
 20
368.30398307849589
 30
0.0
 11
158.8658549520365
 21
268.3039806643103
 31
0.0
  0
LINE
  5
18DBD
  8
AM_0
 10
161.36585510254869
 20
262.30397991475218
 30
0.0
 11
149.36585510254869
 21
262.30397991475218
 31
0.0
  0
LINE
  5
18DBF
  8
AM_0
 10
163.86585510254869
 20
265.30397991475218
 30
0.0
 11
161.36585510254869
 21
265.30397991475218
 31
0.0
  0
LINE
  5
18DC1
  8
AM_0
 10
158.8658549520365
 20
268.3039806643103
 30
0.0
 11
163.86585510254869
 21
268.3039806643103
 31
0.0
  0
LINE
  5
18DE5
  8
AM_0
 10
158.8658549520365
 20
368.30398307849589
 30
0.0
 11
163.86585510254869
 21
368.30398307849589
 31
0.0
  0
LINE
  5
18DF0
  8
AM_0
 10
322.86585687858548
 20
201.30398187140329
 30
0.0
 11
299.79605788518029
 21
202.1095970042729
 31
0.0
  0
LINE
  5
18DF1
  8
ﾁｭｳｼﾝｾﾝ1
 10
294.8590675288599
 20
218.30398187140241
 30
0.0
 11
326.5000607836281
 21
218.30398187140261
 31
0.0
  0
LINE
  5
18DFB
  8
AM_0
 10
297.86585687858548
 20
204.1083786583111
 30
0.0
 11
297.86585687858548
 21
234.76239357539339
 31
0.0
  0
ARC
  5
18DFD
  8
0
 10
299.86585687858559
 20
204.1083786583111
 30
0.0
 40
2.0
 50
180.0
 51
267.9999999999996
1001
GENIUS_GENOBJ-N-FIL_13
1002
{
1000
OWNER
1000
GEN
1002
}
1001
GENIUS_GENODEF_13
1002
{
1000
HIER
1070
     0
1002
}
1002
{
1000
MANEDIT
1070
     0
1002
}
1002
{
1000
NOSEL
1070
     0
1002
}
1002
{
1000
BEHIND
1070
     0
1002
}
1002
{
1000
OTHER
1070
     0
1002
}
1002
{
1000
REACTOR
1002
}
  0
LINE
  5
18E00
  8
AM_0
 10
256.86585811278093
 20
238.4261654373386
 30
0.0
 11
294.91821621391512
 21
237.76193662392669
 31
0.0
  0
ARC
  5
18E03
  8
AM_0
 10
294.86585687858548
 20
234.76239357539339
 30
0.0
 40
3.0
 50
0.0
 51
88.999959580874275
1001
GENIUS_GENOBJ-N-FIL_13
1002
{
1000
OWNER
1000
GEN
1002
}
1001
GENIUS_GENODEF_13
1002
{
1000
HIER
1070
     0
1002
}
1002
{
1000
MANEDIT
1070
     0
1002
}
1002
{
1000
NOSEL
1070
     0
1002
}
1002
{
1000
BEHIND
1070
     0
1002
}
1002
{
1000
OTHER
1070
     0
1002
}
1002
{
1000
REACTOR
1002
}
  0
LINE
  5
18E13
  8
ｶｸﾚｾﾝ2
 10
286.86585880513439
 20
356.303983078496
 30
0.0
 11
286.86585880513439
 21
280.3039806643103
 31
0.0
  0
CIRCLE
  5
18E20
  8
0
 10
532.59654708553899
 20
253.30397991475249
 30
0.0
 40
5.0
  0
ARC
  5
18E21
  8
0
 10
532.59654708553899
 20
253.30397991475249
 30
0.0
 40
12.0
 50
346.39104615428522
 51
110.6673181200093
  0
CIRCLE
  5
18E22
  8
ｷｲﾛ
 10
532.59654708553899
 20
253.30397991475249
 30
0.0
 40
6.0
  0
LINE
  5
18E27
  8
0
 10
531.97105036100163
 20
211.60736349854221
 30
0.0
 11
516.97107700178776
 21
246.60736136402321
 31
0.0
  0
LINE
  5
18E28
  8
0
 10
530.38445115126774
 20
230.5410029518446
 30
0.0
 11
522.48594864957295
 21
248.97087373091551
 31
0.0
  0
ARC
  5
18E29
  8
0
 10
531.5965466340042
 20
254.30398187140329
 30
0.0
 40
10.0
 50
180.0
 51
270.0
1001
GENIUS_GENOBJ-N-FIL_13
1002
{
1000
OWNER
1000
GEN
1002
}
1001
GENIUS_GENODEF_13
1002
{
1000
HIER
1070
     0
1002
}
1002
{
1000
MANEDIT
1070
     0
1002
}
1002
{
1000
NOSEL
1070
     0
1002
}
1002
{
1000
BEHIND
1070
     0
1002
}
1002
{
1000
OTHER
1070
     0
1002
}
1002
{
1000
REACTOR
1002
}
  0
ARC
  5
18E2A
  8
AM_0
 10
532.59654708553899
 20
253.30397991475269
 30
0.0
 40
11.000000451534831
 50
180.0
 51
203.19855493455009
  0
ARC
  5
18E2B
  8
AM_0
 10
532.59654708553899
 20
253.30397991475269
 30
0.0
 40
17.000000451534831
 50
180.0
 51
203.19855493455009
  0
ARC
  5
18E2C
  8
0
 10
563.086382596048
 20
225.30856306348639
 30
0.0
 40
3.0
 50
135.00000000000429
 51
204.33268350649229
1001
GENIUS_GENOBJ-N-FIL_13
1002
{
1000
OWNER
1000
GEN
1002
}
1001
GENIUS_GENODEF_13
1002
{
1000
HIER
1070
     0
1002
}
1002
{
1000
MANEDIT
1070
     0
1002
}
1002
{
1000
NOSEL
1070
     0
1002
}
1002
{
1000
BEHIND
1070
     0
1002
}
1002
{
1000
OTHER
1070
     0
1002
}
1002
{
1000
REACTOR
1002
}
  0
ARC
  5
18E2E
  8
0
 10
547.59652002972678
 20
218.30398187140301
 30
0.0
 40
14.0
 50
341.591519829417
 51
131.60703510513599
  0
ARC
  5
18E2F
  8
0
 10
547.59652002972678
 20
218.30398187140369
 30
0.0
 40
16.999999999999709
 50
203.19855493455009
 51
270.0
  0
CIRCLE
  5
18E31
  8
0
 10
547.59652002972678
 20
218.30398187140369
 30
0.0
 40
7.0
  0
ARC
  5
18E32
  8
0
 10
565.62427640704675
 20
212.30398187140369
 30
0.0
 40
5.0
 50
161.591519829417
 51
270.0
1001
GENIUS_GENOBJ-N-FIL_13
1002
{
1000
OWNER
1000
GEN
1002
}
1001
GENIUS_GENODEF_13
1002
{
1000
HIER
1070
     0
1002
}
1002
{
1000
MANEDIT
1070
     0
1002
}
1002
{
1000
NOSEL
1070
     0
1002
}
1002
{
1000
BEHIND
1070
     0
1002
}
1002
{
1000
OTHER
1070
     0
1002
}
1002
{
1000
REACTOR
1002
}
  0
ARC
  5
18E33
  8
0
 10
549.11925920108479
 20
249.30398187140349
 30
0.0
 40
5.0
 50
166.39104615428519
 51
270.0
1001
GENIUS_GENOBJ-N-FIL_13
1002
{
1000
OWNER
1000
GEN
1002
}
1001
GENIUS_GENODEF_13
1002
{
1000
HIER
1070
     0
1002
}
1002
{
1000
MANEDIT
1070
     0
1002
}
1002
{
1000
NOSEL
1070
     0
1002
}
1002
{
1000
BEHIND
1070
     0
1002
}
1002
{
1000
OTHER
1070
     0
1002
}
1002
{
1000
REACTOR
1002
}
  0
ARC
  5
18E34
  8
0
 10
534.98017752442206
 20
232.51059659092201
 30
0.0
 40
5.0
 50
203.19855493455009
 51
311.60703510513611
1001
GENIUS_GENOBJ-N-FIL_13
1002
{
1000
OWNER
1000
GEN
1002
}
1001
GENIUS_GENODEF_13
1002
{
1000
HIER
1070
     0
1002
}
1002
{
1000
MANEDIT
1070
     0
1002
}
1002
{
1000
NOSEL
1070
     0
1002
}
1002
{
1000
BEHIND
1070
     0
1002
}
1002
{
1000
OTHER
1070
     0
1002
}
1002
{
1000
REACTOR
1002
}
  0
ARC
  5
18E35
  8
0
 10
554.60110122180936
 20
233.793844437725
 30
0.0
 40
3.0
 50
245.66731649351581
 51
315.00000000000432
1001
GENIUS_GENODEF_13
1002
{
1000
HIER
1070
     0
1002
}
1002
{
1000
MANEDIT
1070
     0
1002
}
1002
{
1000
NOSEL
1070
     0
1002
}
1002
{
1000
BEHIND
1070
     0
1002
}
1002
{
1000
OTHER
1070
     0
1002
}
1002
{
1000
REACTOR
1002
}
1001
GENIUS_GENOBJ-N-FIL_13
1002
{
1000
OWNER
1000
GEN
1002
}
  0
ARC
  5
18E38
  8
0
 10
524.5965466340042
 20
299.30398187140332
 30
0.0
 40
3.0
 50
180.0
 51
270.0
1001
GENIUS_GENODEF_13
1002
{
1000
HIER
1070
     0
1002
}
1002
{
1000
MANEDIT
1070
     0
1002
}
1002
{
1000
NOSEL
1070
     0
1002
}
1002
{
1000
BEHIND
1070
     0
1002
}
1002
{
1000
OTHER
1070
     0
1002
}
1002
{
1000
REACTOR
1002
}
1001
GENIUS_GENOBJ-N-FIL_13
1002
{
1000
OWNER
1000
GEN
1002
}
  0
ARC
  5
18E39
  8
0
 10
524.5965466340042
 20
287.30398187140332
 30
0.0
 40
3.0
 50
90.0
 51
180.0
1001
GENIUS_GENODEF_13
1002
{
1000
HIER
1070
     0
1002
}
1002
{
1000
MANEDIT
1070
     0
1002
}
1002
{
1000
NOSEL
1070
     0
1002
}
1002
{
1000
BEHIND
1070
     0
1002
}
1002
{
1000
OTHER
1070
     0
1002
}
1002
{
1000
REACTOR
1002
}
1001
GENIUS_GENOBJ-N-FIL_13
1002
{
1000
OWNER
1000
GEN
1002
}
  0
ARC
  5
18E3A
  8
0
 10
526.59654663400386
 20
269.20995346501292
 30
0.0
 40
5.0
 50
180.0
 51
290.66731812000938
1001
GENIUS_GENOBJ-N-FIL_13
1002
{
1000
OWNER
1000
GEN
1002
}
1001
GENIUS_GENODEF_13
1002
{
1000
HIER
1070
     0
1002
}
1002
{
1000
MANEDIT
1070
     0
1002
}
1002
{
1000
NOSEL
1070
     0
1002
}
1002
{
1000
BEHIND
1070
     0
1002
}
1002
{
1000
OTHER
1070
     0
1002
}
1002
{
1000
REACTOR
1002
}
  0
ARC
  5
18E3B
  8
0
 10
524.59878588611264
 20
293.30398270711157
 30
0.0
 40
3.0000000000000631
 50
270.0
 51
89.999999999998366
  0
ARC
  5
18E3C
  8
0
 10
524.5965466340042
 20
337.30398187140332
 30
0.0
 40
3.0
 50
90.0
 51
180.0
1001
GENIUS_GENODEF_13
1002
{
1000
HIER
1070
     0
1002
}
1002
{
1000
MANEDIT
1070
     0
1002
}
1002
{
1000
NOSEL
1070
     0
1002
}
1002
{
1000
BEHIND
1070
     0
1002
}
1002
{
1000
OTHER
1070
     0
1002
}
1002
{
1000
REACTOR
1002
}
1001
GENIUS_GENOBJ-N-FIL_13
1002
{
1000
OWNER
1000
GEN
1002
}
  0
ARC
  5
18E3D
  8
0
 10
524.5965466340042
 20
349.30398187140332
 30
0.0
 40
3.0
 50
180.0
 51
270.0
1001
GENIUS_GENODEF_13
1002
{
1000
HIER
1070
     0
1002
}
1002
{
1000
MANEDIT
1070
     0
1002
}
1002
{
1000
NOSEL
1070
     0
1002
}
1002
{
1000
BEHIND
1070
     0
1002
}
1002
{
1000
OTHER
1070
     0
1002
}
1002
{
1000
REACTOR
1002
}
1001
GENIUS_GENOBJ-N-FIL_13
1002
{
1000
OWNER
1000
GEN
1002
}
  0
ARC
  5
18E3E
  8
0
 10
524.5965466340042
 20
343.30398187140321
 30
0.0
 40
3.0000000000000631
 50
270.0
 51
89.999999999998366
  0
LINE
  5
18E42
  8
AM_0
 10
163.86585510254869
 20
396.55847031102928
 30
0.0
 11
256.86585811278093
 21
398.18179830546802
 31
0.0
  0
LINE
  5
18E46
  8
AM_0
 10
161.36585510254869
 20
371.30398382805419
 30
0.0
 11
161.36585510254869
 21
395.3039838280543
 31
0.0
  0
LINE
  5
18E47
  8
AM_0
 10
149.36585510254869
 20
374.30398382805419
 30
0.0
 11
149.36585510254869
 21
392.30398382805419
 31
0.0
  0
LINE
  5
18E48
  8
AM_0
 10
161.36585510254869
 20
374.30398382805419
 30
0.0
 11
149.36585510254869
 21
374.30398382805419
 31
0.0
  0
LINE
  5
18E49
  8
AM_0
 10
163.86585510254869
 20
371.30398382805419
 30
0.0
 11
161.36585510254869
 21
371.30398382805419
 31
0.0
  0
LINE
  5
18E4A
  8
AM_0
 10
149.36585510254869
 20
392.30398382805419
 30
0.0
 11
161.36585510254869
 21
392.30398382805419
 31
0.0
  0
LINE
  5
18E4B
  8
AM_0
 10
161.36585510254869
 20
395.3039838280543
 30
0.0
 11
163.86585510254869
 21
395.3039838280543
 31
0.0
  0
LINE
  5
18E4F
  8
AM_0
 10
322.86585687858548
 20
435.30398187140281
 30
0.0
 11
299.79605788518029
 21
434.4983667385336
 31
0.0
  0
LINE
  5
18E51
  8
ﾁｭｳｼﾝｾﾝ1
 10
294.8590675288599
 20
418.30398187140321
 30
0.0
 11
326.5000607836281
 21
418.30398187140281
 31
0.0
  0
LINE
  5
18E53
  8
AM_0
 10
297.86585687858508
 20
401.84551752059781
 30
0.0
 11
297.86585687858548
 21
432.49958508449532
 31
0.0
  0
ARC
  5
18E54
  8
AM_0
 10
294.86585687858508
 20
401.84551752059781
 30
0.0
 40
3.0
 50
270.99994330824489
 51
0.0
1001
GENIUS_GENOBJ-N-FIL_13
1002
{
1000
OWNER
1000
GEN
1002
}
1001
GENIUS_GENODEF_13
1002
{
1000
HIER
1070
     0
1002
}
1002
{
1000
MANEDIT
1070
     0
1002
}
1002
{
1000
NOSEL
1070
     0
1002
}
1002
{
1000
BEHIND
1070
     0
1002
}
1002
{
1000
OTHER
1070
     0
1002
}
1002
{
1000
REACTOR
1002
}
  0
LINE
  5
18E57
  8
AM_0
 10
256.86585811278093
 20
398.18179830546802
 30
0.0
 11
294.9182111299757
 21
398.84597438332497
 31
0.0
  0
ARC
  5
18E5A
  8
0
 10
299.86585687858559
 20
432.49958508449532
 30
0.0
 40
2.0
 50
92.000000000000398
 51
180.0
1001
GENIUS_GENODEF_13
1002
{
1000
HIER
1070
     0
1002
}
1002
{
1000
MANEDIT
1070
     0
1002
}
1002
{
1000
NOSEL
1070
     0
1002
}
1002
{
1000
BEHIND
1070
     0
1002
}
1002
{
1000
OTHER
1070
     0
1002
}
1002
{
1000
REACTOR
1002
}
1001
GENIUS_GENOBJ-N-FIL_13
1002
{
1000
OWNER
1000
GEN
1002
}
  0
ARC
  5
18E68
  8
0
 10
547.59652002972678
 20
418.30398187140321
 30
0.0
 40
16.999999999999709
 50
90.0
 51
156.80144506544991
  0
LINE
  5
18E69
  8
ﾁｭｳｼﾝｾﾝ1
 10
547.59652002972678
 20
403.30398187140332
 30
0.0
 11
547.59652002972678
 21
433.3039818714031
 31
0.0
  0
ARC
  5
18E6A
  8
0
 10
565.62427640704675
 20
424.30398187140281
 30
0.0
 40
5.0
 50
90.0
 51
198.40848017058289
1001
GENIUS_GENOBJ-N-FIL_13
1002
{
1000
OWNER
1000
GEN
1002
}
1001
GENIUS_GENODEF_13
1002
{
1000
HIER
1070
     0
1002
}
1002
{
1000
MANEDIT
1070
     0
1002
}
1002
{
1000
NOSEL
1070
     0
1002
}
1002
{
1000
BEHIND
1070
     0
1002
}
1002
{
1000
OTHER
1070
     0
1002
}
1002
{
1000
REACTOR
1002
}
  0
LINE
  5
18E6B
  8
0
 10
530.38445115126774
 20
406.0669607909611
 30
0.0
 11
522.48594864957317
 21
387.63709001189079
 31
0.0
  0
ARC
  5
18E6C
  8
0
 10
531.5965466340042
 20
382.30398187140281
 30
0.0
 40
10.0
 50
90.0
 51
180.0
1001
GENIUS_GENODEF_13
1002
{
1000
HIER
1070
     0
1002
}
1002
{
1000
MANEDIT
1070
     0
1002
}
1002
{
1000
NOSEL
1070
     0
1002
}
1002
{
1000
BEHIND
1070
     0
1002
}
1002
{
1000
OTHER
1070
     0
1002
}
1002
{
1000
REACTOR
1002
}
1001
GENIUS_GENOBJ-N-FIL_13
1002
{
1000
OWNER
1000
GEN
1002
}
  0
LINE
  5
18E6D
  8
0
 10
531.97105036100197
 20
425.00060024426449
 30
0.0
 11
516.97107700178776
 21
390.00060237878358
 31
0.0
  0
ARC
  5
18E6E
  8
AM_0
 10
532.59654708553899
 20
383.3039838280543
 30
0.0
 40
11.000000451534831
 50
156.80144506544991
 51
180.0
  0
ARC
  5
18E6F
  8
AM_0
 10
532.59654708553899
 20
383.3039838280543
 30
0.0
 40
17.000000451534831
 50
156.80144506544991
 51
180.0
  0
ARC
  5
18E70
  8
0
 10
549.11925920108479
 20
387.30398187140281
 30
0.0
 40
5.0
 50
90.0
 51
193.60895384571481
1001
GENIUS_GENOBJ-N-FIL_13
1002
{
1000
OWNER
1000
GEN
1002
}
1001
GENIUS_GENODEF_13
1002
{
1000
HIER
1070
     0
1002
}
1002
{
1000
MANEDIT
1070
     0
1002
}
1002
{
1000
NOSEL
1070
     0
1002
}
1002
{
1000
BEHIND
1070
     0
1002
}
1002
{
1000
OTHER
1070
     0
1002
}
1002
{
1000
REACTOR
1002
}
  0
CIRCLE
  5
18E71
  8
0
 10
532.59654708553899
 20
383.30398382805458
 30
0.0
 40
5.0
  0
CIRCLE
  5
18E72
  8
ｷｲﾛ
 10
532.59654708553899
 20
383.30398382805458
 30
0.0
 40
6.0
  0
LINE
  5
18E73
  8
ﾁｭｳｼﾝｾﾝ1
 10
532.59652002972655
 20
418.30398187140281
 30
0.0
 11
562.59652002972689
 21
418.30398187140281
 31
0.0
  0
CIRCLE
  5
18E74
  8
0
 10
547.59652002972678
 20
418.30398187140321
 30
0.0
 40
7.0
  0
ARC
  5
18E76
  8
0
 10
547.59652002972678
 20
418.30398187140321
 30
0.0
 40
14.0
 50
228.39296489486389
 51
18.40848017058293
  0
ARC
  5
18E77
  8
0
 10
534.98017752442252
 20
404.09736715188461
 30
0.0
 40
5.0
 50
48.392964894863901
 51
156.80144506544991
1001
GENIUS_GENOBJ-N-FIL_13
1002
{
1000
OWNER
1000
GEN
1002
}
1001
GENIUS_GENODEF_13
1002
{
1000
HIER
1070
     0
1002
}
1002
{
1000
MANEDIT
1070
     0
1002
}
1002
{
1000
NOSEL
1070
     0
1002
}
1002
{
1000
BEHIND
1070
     0
1002
}
1002
{
1000
OTHER
1070
     0
1002
}
1002
{
1000
REACTOR
1002
}
  0
ARC
  5
18E78
  8
0
 10
554.60110122180936
 20
402.81411930508159
 30
0.0
 40
3.0
 50
44.99999999999568
 51
114.3326835064841
1001
GENIUS_GENODEF_13
1002
{
1000
HIER
1070
     0
1002
}
1002
{
1000
MANEDIT
1070
     0
1002
}
1002
{
1000
NOSEL
1070
     0
1002
}
1002
{
1000
BEHIND
1070
     0
1002
}
1002
{
1000
OTHER
1070
     0
1002
}
1002
{
1000
REACTOR
1002
}
1001
GENIUS_GENOBJ-N-FIL_13
1002
{
1000
OWNER
1000
GEN
1002
}
  0
ARC
  5
18E79
  8
0
 10
563.086382596048
 20
411.29940067932051
 30
0.0
 40
3.0
 50
155.6673164935076
 51
224.99999999999571
1001
GENIUS_GENOBJ-N-FIL_13
1002
{
1000
OWNER
1000
GEN
1002
}
1001
GENIUS_GENODEF_13
1002
{
1000
HIER
1070
     0
1002
}
1002
{
1000
MANEDIT
1070
     0
1002
}
1002
{
1000
NOSEL
1070
     0
1002
}
1002
{
1000
BEHIND
1070
     0
1002
}
1002
{
1000
OTHER
1070
     0
1002
}
1002
{
1000
REACTOR
1002
}
  0
ARC
  5
18E82
  8
0
 10
713.59652228740083
 20
367.39801027779367
 30
0.0
 40
5.0
 50
0.0
 51
110.6673181200093
1001
GENIUS_GENODEF_13
1002
{
1000
HIER
1070
     0
1002
}
1002
{
1000
MANEDIT
1070
     0
1002
}
1002
{
1000
NOSEL
1070
     0
1002
}
1002
{
1000
BEHIND
1070
     0
1002
}
1002
{
1000
OTHER
1070
     0
1002
}
1002
{
1000
REACTOR
1002
}
1001
GENIUS_GENOBJ-N-FIL_13
1002
{
1000
OWNER
1000
GEN
1002
}
  0
ARC
  5
18E83
  8
0
 10
707.5965218358665
 20
383.3039838280539
 30
0.0
 40
12.0
 50
166.39104615428519
 51
290.66731812000938
  0
LINE
  5
18E84
  8
ﾁｭｳｼﾝｾﾝ1
 10
592.59654889167837
 20
444.25410553398501
 30
0.0
 11
592.59654889167837
 21
192.35385820882101
 31
0.0
  0
LINE
  5
18E85
  8
AM_0
 10
745.09652229415133
 20
388.80537732699918
 30
0.0
 11
745.09652229415065
 21
318.30398187140321
 31
0.0
  0
LINE
  5
18E86
  8
AM_0
 10
759.09652229835126
 20
391.80545187140331
 30
0.0
 11
759.09652229835103
 21
318.30398187140321
 31
0.0
  0
ARC
  5
18E87
  8
AM_0
 10
335.43799571725498
 20
318.30398187140861
 30
0.0
 40
397.24800335969718
 50
353.33928567968309
 51
6.6607143203167842
  0
LINE
  5
18E88
  8
AM_0
 10
724.59652228740117
 20
383.30398382805458
 30
0.0
 11
724.59652228740083
 21
253.3039799147526
 31
0.0
  0
LINE
  5
18E89
  8
AM_0
 10
718.59652228740117
 20
383.30398382805458
 30
0.0
 11
718.59652228740083
 21
253.3039799147526
 31
0.0
  0
LINE
  5
18E8A
  8
AM_0
 10
729.68599907689304
 20
272.5752632323946
 30
0.0
 11
729.68599907689179
 21
364.03270051041159
 31
0.0
  0
POLYLINE
  5
18E98
  8
AM_0
 10
748.09651700585732
 20
244.8025264158122
 30
0.0
 66
     1
 70
     8
  0
VERTEX
  8
AM_0
  5
1CED8
 10
748.097
 20
244.803
 30
0.000000
  70
    32
  0
VERTEX
  8
AM_0
  5
1CED9
 10
748.080
 20
244.803
 30
0.000000
  70
    32
  0
VERTEX
  8
AM_0
  5
1CEDA
 10
748.063
 20
244.803
 30
0.000000
  70
    32
  0
VERTEX
  8
AM_0
  5
1CEDB
 10
748.046
 20
244.803
 30
0.000000
  70
    32
  0
VERTEX
  8
AM_0
  5
1CEDC
 10
748.029
 20
244.803
 30
0.000000
  70
    32
  0
VERTEX
  8
AM_0
  5
1CEDD
 10
748.012
 20
244.804
 30
0.000000
  70
    32
  0
VERTEX
  8
AM_0
  5
1CEDE
 10
747.995
 20
244.804
 30
0.000000
  70
    32
  0
VERTEX
  8
AM_0
  5
1CEDF
 10
747.978
 20
244.805
 30
0.000000
  70
    32
  0
VERTEX
  8
AM_0
  5
1CEE0
 10
747.961
 20
244.806
 30
0.000000
  70
    32
  0
VERTEX
  8
AM_0
  5
1CEE1
 10
747.944
 20
244.806
 30
0.000000
  70
    32
  0
VERTEX
  8
AM_0
  5
1CEE2
 10
747.927
 20
244.807
 30
0.000000
  70
    32
  0
VERTEX
  8
AM_0
  5
1CEE3
 10
747.910
 20
244.808
 30
0.000000
  70
    32
  0
VERTEX
  8
AM_0
  5
1CEE4
 10
747.893
 20
244.809
 30
0.000000
  70
    32
  0
VERTEX
  8
AM_0
  5
1CEE5
 10
747.877
 20
244.811
 30
0.000000
  70
    32
  0
VERTEX
  8
AM_0
  5
1CEE6
 10
747.860
 20
244.812
 30
0.000000
  70
    32
  0
VERTEX
  8
AM_0
  5
1CEE7
 10
747.843
 20
244.813
 30
0.000000
  70
    32
  0
VERTEX
  8
AM_0
  5
1CEE8
 10
747.826
 20
244.815
 30
0.000000
  70
    32
  0
VERTEX
  8
AM_0
  5
1CEE9
 10
747.809
 20
244.816
 30
0.000000
  70
    32
  0
VERTEX
  8
AM_0
  5
1CEEA
 10
747.792
 20
244.818
 30
0.000000
  70
    32
  0
VERTEX
  8
AM_0
  5
1CEEB
 10
747.775
 20
244.820
 30
0.000000
  70
    32
  0
VERTEX
  8
AM_0
  5
1CEEC
 10
747.758
 20
244.822
 30
0.000000
  70
    32
  0
VERTEX
  8
AM_0
  5
1CEED
 10
747.742
 20
244.824
 30
0.000000
  70
    32
  0
VERTEX
  8
AM_0
  5
1CEEE
 10
747.725
 20
244.826
 30
0.000000
  70
    32
  0
VERTEX
  8
AM_0
  5
1CEEF
 10
747.708
 20
244.828
 30
0.000000
  70
    32
  0
VERTEX
  8
AM_0
  5
1CEF0
 10
747.691
 20
244.830
 30
0.000000
  70
    32
  0
VERTEX
  8
AM_0
  5
1CEF1
 10
747.674
 20
244.832
 30
0.000000
  70
    32
  0
VERTEX
  8
AM_0
  5
1CEF2
 10
747.658
 20
244.835
 30
0.000000
  70
    32
  0
VERTEX
  8
AM_0
  5
1CEF3
 10
747.641
 20
244.837
 30
0.000000
  70
    32
  0
VERTEX
  8
AM_0
  5
1CEF4
 10
747.624
 20
244.840
 30
0.000000
  70
    32
  0
VERTEX
  8
AM_0
  5
1CEF5
 10
747.607
 20
244.843
 30
0.000000
  70
    32
  0
VERTEX
  8
AM_0
  5
1CEF6
 10
747.591
 20
244.845
 30
0.000000
  70
    32
  0
VERTEX
  8
AM_0
  5
1CEF7
 10
747.574
 20
244.848
 30
0.000000
  70
    32
  0
VERTEX
  8
AM_0
  5
1CEF8
 10
747.557
 20
244.851
 30
0.000000
  70
    32
  0
VERTEX
  8
AM_0
  5
1CEF9
 10
747.541
 20
244.854
 30
0.000000
  70
    32
  0
VERTEX
  8
AM_0
  5
1CEFA
 10
747.524
 20
244.858
 30
0.000000
  70
    32
  0
VERTEX
  8
AM_0
  5
1CEFB
 10
747.508
 20
244.861
 30
0.000000
  70
    32
  0
VERTEX
  8
AM_0
  5
1CEFC
 10
747.491
 20
244.864
 30
0.000000
  70
    32
  0
VERTEX
  8
AM_0
  5
1CEFD
 10
747.474
 20
244.868
 30
0.000000
  70
    32
  0
VERTEX
  8
AM_0
  5
1CEFE
 10
747.458
 20
244.871
 30
0.000000
  70
    32
  0
VERTEX
  8
AM_0
  5
1CEFF
 10
747.441
 20
244.875
 30
0.000000
  70
    32
  0
VERTEX
  8
AM_0
  5
1CF00
 10
747.425
 20
244.879
 30
0.000000
  70
    32
  0
VERTEX
  8
AM_0
  5
1CF01
 10
747.408
 20
244.883
 30
0.000000
  70
    32
  0
VERTEX
  8
AM_0
  5
1CF02
 10
747.392
 20
244.886
 30
0.000000
  70
    32
  0
VERTEX
  8
AM_0
  5
1CF03
 10
747.375
 20
244.891
 30
0.000000
  70
    32
  0
VERTEX
  8
AM_0
  5
1CF04
 10
747.359
 20
244.895
 30
0.000000
  70
    32
  0
VERTEX
  8
AM_0
  5
1CF05
 10
747.342
 20
244.899
 30
0.000000
  70
    32
  0
VERTEX
  8
AM_0
  5
1CF06
 10
747.326
 20
244.903
 30
0.000000
  70
    32
  0
VERTEX
  8
AM_0
  5
1CF07
 10
747.310
 20
244.908
 30
0.000000
  70
    32
  0
VERTEX
  8
AM_0
  5
1CF08
 10
747.293
 20
244.912
 30
0.000000
  70
    32
  0
VERTEX
  8
AM_0
  5
1CF09
 10
747.277
 20
244.917
 30
0.000000
  70
    32
  0
VERTEX
  8
AM_0
  5
1CF0A
 10
747.261
 20
244.921
 30
0.000000
  70
    32
  0
VERTEX
  8
AM_0
  5
1CF0B
 10
747.245
 20
244.926
 30
0.000000
  70
    32
  0
VERTEX
  8
AM_0
  5
1CF0C
 10
747.228
 20
244.931
 30
0.000000
  70
    32
  0
VERTEX
  8
AM_0
  5
1CF0D
 10
747.212
 20
244.936
 30
0.000000
  70
    32
  0
VERTEX
  8
AM_0
  5
1CF0E
 10
747.196
 20
244.941
 30
0.000000
  70
    32
  0
VERTEX
  8
AM_0
  5
1CF0F
 10
747.180
 20
244.946
 30
0.000000
  70
    32
  0
VERTEX
  8
AM_0
  5
1CF10
 10
747.164
 20
244.951
 30
0.000000
  70
    32
  0
VERTEX
  8
AM_0
  5
1CF11
 10
747.148
 20
244.957
 30
0.000000
  70
    32
  0
VERTEX
  8
AM_0
  5
1CF12
 10
747.132
 20
244.962
 30
0.000000
  70
    32
  0
VERTEX
  8
AM_0
  5
1CF13
 10
747.115
 20
244.967
 30
0.000000
  70
    32
  0
VERTEX
  8
AM_0
  5
1CF14
 10
747.100
 20
244.973
 30
0.000000
  70
    32
  0
VERTEX
  8
AM_0
  5
1CF15
 10
747.084
 20
244.979
 30
0.000000
  70
    32
  0
VERTEX
  8
AM_0
  5
1CF16
 10
747.068
 20
244.984
 30
0.000000
  70
    32
  0
VERTEX
  8
AM_0
  5
1CF17
 10
747.052
 20
244.990
 30
0.000000
  70
    32
  0
VERTEX
  8
AM_0
  5
1CF18
 10
747.036
 20
244.996
 30
0.000000
  70
    32
  0
VERTEX
  8
AM_0
  5
1CF19
 10
747.020
 20
245.002
 30
0.000000
  70
    32
  0
VERTEX
  8
AM_0
  5
1CF1A
 10
747.004
 20
245.008
 30
0.000000
  70
    32
  0
VERTEX
  8
AM_0
  5
1CF1B
 10
746.988
 20
245.015
 30
0.000000
  70
    32
  0
VERTEX
  8
AM_0
  5
1CF1C
 10
746.973
 20
245.021
 30
0.000000
  70
    32
  0
VERTEX
  8
AM_0
  5
1CF1D
 10
746.957
 20
245.027
 30
0.000000
  70
    32
  0
VERTEX
  8
AM_0
  5
1CF1E
 10
746.941
 20
245.034
 30
0.000000
  70
    32
  0
VERTEX
  8
AM_0
  5
1CF1F
 10
746.926
 20
245.040
 30
0.000000
  70
    32
  0
VERTEX
  8
AM_0
  5
1CF20
 10
746.910
 20
245.047
 30
0.000000
  70
    32
  0
VERTEX
  8
AM_0
  5
1CF21
 10
746.895
 20
245.054
 30
0.000000
  70
    32
  0
VERTEX
  8
AM_0
  5
1CF22
 10
746.879
 20
245.061
 30
0.000000
  70
    32
  0
VERTEX
  8
AM_0
  5
1CF23
 10
746.864
 20
245.068
 30
0.000000
  70
    32
  0
VERTEX
  8
AM_0
  5
1CF24
 10
746.848
 20
245.075
 30
0.000000
  70
    32
  0
VERTEX
  8
AM_0
  5
1CF25
 10
746.833
 20
245.082
 30
0.000000
  70
    32
  0
VERTEX
  8
AM_0
  5
1CF26
 10
746.818
 20
245.089
 30
0.000000
  70
    32
  0
VERTEX
  8
AM_0
  5
1CF27
 10
746.802
 20
245.096
 30
0.000000
  70
    32
  0
VERTEX
  8
AM_0
  5
1CF28
 10
746.787
 20
245.103
 30
0.000000
  70
    32
  0
VERTEX
  8
AM_0
  5
1CF29
 10
746.772
 20
245.111
 30
0.000000
  70
    32
  0
VERTEX
  8
AM_0
  5
1CF2A
 10
746.757
 20
245.118
 30
0.000000
  70
    32
  0
VERTEX
  8
AM_0
  5
1CF2B
 10
746.741
 20
245.126
 30
0.000000
  70
    32
  0
VERTEX
  8
AM_0
  5
1CF2C
 10
746.726
 20
245.134
 30
0.000000
  70
    32
  0
VERTEX
  8
AM_0
  5
1CF2D
 10
746.711
 20
245.141
 30
0.000000
  70
    32
  0
VERTEX
  8
AM_0
  5
1CF2E
 10
746.696
 20
245.149
 30
0.000000
  70
    32
  0
VERTEX
  8
AM_0
  5
1CF2F
 10
746.681
 20
245.157
 30
0.000000
  70
    32
  0
VERTEX
  8
AM_0
  5
1CF30
 10
746.666
 20
245.165
 30
0.000000
  70
    32
  0
VERTEX
  8
AM_0
  5
1CF31
 10
746.652
 20
245.173
 30
0.000000
  70
    32
  0
VERTEX
  8
AM_0
  5
1CF32
 10
746.637
 20
245.182
 30
0.000000
  70
    32
  0
VERTEX
  8
AM_0
  5
1CF33
 10
746.622
 20
245.190
 30
0.000000
  70
    32
  0
VERTEX
  8
AM_0
  5
1CF34
 10
746.607
 20
245.198
 30
0.000000
  70
    32
  0
VERTEX
  8
AM_0
  5
1CF35
 10
746.593
 20
245.207
 30
0.000000
  70
    32
  0
VERTEX
  8
AM_0
  5
1CF36
 10
746.578
 20
245.215
 30
0.000000
  70
    32
  0
VERTEX
  8
AM_0
  5
1CF37
 10
746.563
 20
245.224
 30
0.000000
  70
    32
  0
VERTEX
  8
AM_0
  5
1CF38
 10
746.549
 20
245.233
 30
0.000000
  70
    32
  0
VERTEX
  8
AM_0
  5
1CF39
 10
746.534
 20
245.241
 30
0.000000
  70
    32
  0
VERTEX
  8
AM_0
  5
1CF3A
 10
746.520
 20
245.250
 30
0.000000
  70
    32
  0
VERTEX
  8
AM_0
  5
1CF3B
 10
746.506
 20
245.259
 30
0.000000
  70
    32
  0
VERTEX
  8
AM_0
  5
1CF3C
 10
746.491
 20
245.268
 30
0.000000
  70
    32
  0
VERTEX
  8
AM_0
  5
1CF3D
 10
746.477
 20
245.277
 30
0.000000
  70
    32
  0
VERTEX
  8
AM_0
  5
1CF3E
 10
746.463
 20
245.286
 30
0.000000
  70
    32
  0
VERTEX
  8
AM_0
  5
1CF3F
 10
746.448
 20
245.296
 30
0.000000
  70
    32
  0
VERTEX
  8
AM_0
  5
1CF40
 10
746.434
 20
245.305
 30
0.000000
  70
    32
  0
VERTEX
  8
AM_0
  5
1CF41
 10
746.420
 20
245.315
 30
0.000000
  70
    32
  0
VERTEX
  8
AM_0
  5
1CF42
 10
746.406
 20
245.324
 30
0.000000
  70
    32
  0
VERTEX
  8
AM_0
  5
1CF43
 10
746.392
 20
245.334
 30
0.000000
  70
    32
  0
VERTEX
  8
AM_0
  5
1CF44
 10
746.378
 20
245.343
 30
0.000000
  70
    32
  0
VERTEX
  8
AM_0
  5
1CF45
 10
746.365
 20
245.353
 30
0.000000
  70
    32
  0
VERTEX
  8
AM_0
  5
1CF46
 10
746.351
 20
245.363
 30
0.000000
  70
    32
  0
VERTEX
  8
AM_0
  5
1CF47
 10
746.337
 20
245.373
 30
0.000000
  70
    32
  0
VERTEX
  8
AM_0
  5
1CF48
 10
746.323
 20
245.383
 30
0.000000
  70
    32
  0
VERTEX
  8
AM_0
  5
1CF49
 10
746.310
 20
245.393
 30
0.000000
  70
    32
  0
VERTEX
  8
AM_0
  5
1CF4A
 10
746.296
 20
245.403
 30
0.000000
  70
    32
  0
VERTEX
  8
AM_0
  5
1CF4B
 10
746.283
 20
245.413
 30
0.000000
  70
    32
  0
VERTEX
  8
AM_0
  5
1CF4C
 10
746.269
 20
245.423
 30
0.000000
  70
    32
  0
VERTEX
  8
AM_0
  5
1CF4D
 10
746.256
 20
245.434
 30
0.000000
  70
    32
  0
VERTEX
  8
AM_0
  5
1CF4E
 10
746.242
 20
245.444
 30
0.000000
  70
    32
  0
VERTEX
  8
AM_0
  5
1CF4F
 10
746.229
 20
245.455
 30
0.000000
  70
    32
  0
VERTEX
  8
AM_0
  5
1CF50
 10
746.216
 20
245.465
 30
0.000000
  70
    32
  0
VERTEX
  8
AM_0
  5
1CF51
 10
746.203
 20
245.476
 30
0.000000
  70
    32
  0
VERTEX
  8
AM_0
  5
1CF52
 10
746.190
 20
245.487
 30
0.000000
  70
    32
  0
VERTEX
  8
AM_0
  5
1CF53
 10
746.177
 20
245.497
 30
0.000000
  70
    32
  0
VERTEX
  8
AM_0
  5
1CF54
 10
746.164
 20
245.508
 30
0.000000
  70
    32
  0
VERTEX
  8
AM_0
  5
1CF55
 10
746.151
 20
245.519
 30
0.000000
  70
    32
  0
VERTEX
  8
AM_0
  5
1CF56
 10
746.138
 20
245.530
 30
0.000000
  70
    32
  0
VERTEX
  8
AM_0
  5
1CF57
 10
746.125
 20
245.541
 30
0.000000
  70
    32
  0
VERTEX
  8
AM_0
  5
1CF58
 10
746.112
 20
245.553
 30
0.000000
  70
    32
  0
SEQEND
  8
AM_0
  5
1CF59
  0
LINE
  5
18E99
  8
AM_0
 10
745.09652229415133
 20
247.8025864158075
 30
0.0
 11
745.09652229415065
 21
318.30398187140321
 31
0.0
  0
CIRCLE
  5
18E9A
  8
0
 10
707.5965218358665
 20
253.30397991475229
 30
0.0
 40
5.0
  0
ARC
  5
18E9B
  8
0
 10
707.5965218358665
 20
253.30397991475249
 30
0.0
 40
12.0
 50
69.332681879990645
 51
193.60895384571481
  0
ARC
  5
18E9C
  8
0
 10
627.59654889167859
 20
246.30398187140349
 30
0.0
 40
11.0
 50
90.0
 51
169.19307712513961
  0
ARC
  5
18E9D
  8
0
 10
627.59654889167859
 20
246.30398187140349
 30
0.0
 40
11.0
 50
10.806922874860341
 51
90.0
  0
CIRCLE
  5
18E9E
  8
AM_0
 10
627.59654889167859
 20
246.30398187140281
 30
0.0
 40
8.5
  0
CIRCLE
  5
18E9F
  8
ｷｲﾛ
 10
707.5965218358665
 20
253.30397991475229
 30
0.0
 40
6.0
  0
LINE
  5
18EA1
  8
0
  6
CONTINUOUS
 62
     7
 10
663.59654889167814
 20
244.3039818714031
 30
0.0
 11
643.31278253718017
 21
244.3039818714031
 31
0.0
  0
ARC
  5
18EA4
  8
0
 10
611.88031524617691
 20
249.30398187140349
 30
0.0
 40
5.0
 50
270.0
 51
349.19307712513972
1001
GENIUS_GENOBJ-N-FIL_13
1002
{
1000
OWNER
1000
GEN
1002
}
1001
GENIUS_GENODEF_13
1002
{
1000
HIER
1070
     0
1002
}
1002
{
1000
MANEDIT
1070
     0
1002
}
1002
{
1000
NOSEL
1070
     0
1002
}
1002
{
1000
BEHIND
1070
     0
1002
}
1002
{
1000
OTHER
1070
     0
1002
}
1002
{
1000
REACTOR
1002
}
  0
LINE
  5
18EA5
  8
0
  6
CONTINUOUS
 62
     7
 10
611.88031524617691
 20
244.3039818714031
 30
0.0
 11
576.59652002972723
 21
244.3039818714031
 31
0.0
  0
ARC
  5
18EA6
  8
0
 10
573.59652002972723
 20
244.3039818714042
 30
0.0
 40
3.0000000000000631
 50
315.00000000000432
 51
135.00000000000429
  0
CIRCLE
  5
18EA7
  8
AM_0
 10
627.59654889167859
 20
246.30398187140281
 30
0.0
 40
6.5
  0
POLYLINE
  5
18EA8
  8
AM_0
 66
     1
 10
0.0
 20
0.0
 30
0.0
 70
     1
  0
VERTEX
  5
18EA9
  8
AM_0
 10
625.86449808410975
 20
243.30398187140321
 30
0.0
  0
VERTEX
  5
18EAA
  8
AM_0
 10
624.13244727654092
 20
246.30398187140329
 30
0.0
  0
VERTEX
  5
18EAB
  8
AM_0
 10
625.86449808410975
 20
249.30398187140329
 30
0.0
  0
VERTEX
  5
18EAC
  8
AM_0
 10
629.32859969924732
 20
249.30398187140329
 30
0.0
  0
VERTEX
  5
18EAD
  8
AM_0
 10
631.06065050681627
 20
246.30398187140329
 30
0.0
  0
VERTEX
  5
18EAE
  8
AM_0
 10
629.32859969924732
 20
243.30398187140321
 30
0.0
  0
SEQEND
  5
18EAF
  8
AM_0
  0
ARC
  5
18EB0
  8
0
 10
643.31278253718017
 20
249.30398187140349
 30
0.0
 40
5.0
 50
190.80692287486031
 51
269.99999999999841
1001
GENIUS_GENOBJ-N-FIL_13
1002
{
1000
OWNER
1000
GEN
1002
}
1001
GENIUS_GENODEF_13
1002
{
1000
HIER
1070
     0
1002
}
1002
{
1000
MANEDIT
1070
     0
1002
}
1002
{
1000
NOSEL
1070
     0
1002
}
1002
{
1000
BEHIND
1070
     0
1002
}
1002
{
1000
OTHER
1070
     0
1002
}
1002
{
1000
REACTOR
1002
}
  0
ARC
  5
18EB3
  8
0
 10
705.21289139698308
 20
232.51059659092189
 30
0.0
 40
5.0
 50
228.39296489486389
 51
336.80144506544991
1001
GENIUS_GENOBJ-N-FIL_13
1002
{
1000
OWNER
1000
GEN
1002
}
1001
GENIUS_GENODEF_13
1002
{
1000
HIER
1070
     0
1002
}
1002
{
1000
MANEDIT
1070
     0
1002
}
1002
{
1000
NOSEL
1070
     0
1002
}
1002
{
1000
BEHIND
1070
     0
1002
}
1002
{
1000
OTHER
1070
     0
1002
}
1002
{
1000
REACTOR
1002
}
  0
LINE
  5
18EB5
  8
0
  6
CONTINUOUS
 62
     7
 10
708.59652228740083
 20
244.3039818714031
 30
0.0
 11
670.83918957879814
 21
244.3039818714031
 31
0.0
  0
ARC
  5
18EB6
  8
0
 10
692.59654889167837
 20
218.30398187140369
 30
0.0
 40
16.999999999999709
 50
270.0
 51
336.80144506544991
  0
ARC
  5
18EB7
  8
0
 10
677.10668632535715
 20
225.30856306348639
 30
0.0
 40
3.0
 50
335.6673164935076
 51
44.99999999999568
1001
GENIUS_GENOBJ-N-FIL_13
1002
{
1000
OWNER
1000
GEN
1002
}
1001
GENIUS_GENODEF_13
1002
{
1000
HIER
1070
     0
1002
}
1002
{
1000
MANEDIT
1070
     0
1002
}
1002
{
1000
NOSEL
1070
     0
1002
}
1002
{
1000
BEHIND
1070
     0
1002
}
1002
{
1000
OTHER
1070
     0
1002
}
1002
{
1000
REACTOR
1002
}
  0
ARC
  5
18EB9
  8
0
 10
692.59654889167837
 20
218.30398187140301
 30
0.0
 40
14.0
 50
48.392964894863901
 51
198.40848017058289
  0
ARC
  5
18EBA
  8
0
 10
674.56879251435839
 20
212.30398187140369
 30
0.0
 40
5.0
 50
270.0
 51
18.40848017058293
1001
GENIUS_GENOBJ-N-FIL_13
1002
{
1000
OWNER
1000
GEN
1002
}
1001
GENIUS_GENODEF_13
1002
{
1000
HIER
1070
     0
1002
}
1002
{
1000
MANEDIT
1070
     0
1002
}
1002
{
1000
NOSEL
1070
     0
1002
}
1002
{
1000
BEHIND
1070
     0
1002
}
1002
{
1000
OTHER
1070
     0
1002
}
1002
{
1000
REACTOR
1002
}
  0
CIRCLE
  5
18EBB
  8
0
 10
692.59654889167837
 20
218.30398187140369
 30
0.0
 40
7.0
  0
LINE
  5
18EBC
  8
0
 10
683.47064735603624
 20
231.672524094165
 30
0.0
 11
668.71786923523757
 21
246.42530221496361
 31
0.0
  0
LINE
  5
18EBD
  8
0
 10
679.22800666891703
 20
227.42988340704559
 30
0.0
 11
664.47522854811837
 21
242.182661527844
 31
0.0
  0
ARC
  5
18EBE
  8
0
 10
666.59654889167814
 20
244.3039818714042
 30
0.0
 40
3.0000000000000631
 50
44.99999999999568
 51
224.99999999999571
  0
ARC
  5
18EBF
  8
0
 10
685.59196769959567
 20
233.793844437725
 30
0.0
 40
3.0
 50
224.99999999999571
 51
294.33268350648422
1001
GENIUS_GENODEF_13
1002
{
1000
HIER
1070
     0
1002
}
1002
{
1000
MANEDIT
1070
     0
1002
}
1002
{
1000
NOSEL
1070
     0
1002
}
1002
{
1000
BEHIND
1070
     0
1002
}
1002
{
1000
OTHER
1070
     0
1002
}
1002
{
1000
REACTOR
1002
}
1001
GENIUS_GENOBJ-N-FIL_13
1002
{
1000
OWNER
1000
GEN
1002
}
  0
ARC
  5
18EC0
  8
0
 10
691.0738097203207
 20
249.30398187140349
 30
0.0
 40
5.0
 50
270.0
 51
13.60895384571479
1001
GENIUS_GENODEF_13
1002
{
1000
HIER
1070
     0
1002
}
1002
{
1000
MANEDIT
1070
     0
1002
}
1002
{
1000
NOSEL
1070
     0
1002
}
1002
{
1000
BEHIND
1070
     0
1002
}
1002
{
1000
OTHER
1070
     0
1002
}
1002
{
1000
REACTOR
1002
}
1001
GENIUS_GENOBJ-N-FIL_13
1002
{
1000
OWNER
1000
GEN
1002
}
  0
LINE
  5
18EC1
  8
0
 10
708.22201856040374
 20
211.60736349854221
 30
0.0
 11
723.09198898029695
 21
246.30402065202441
 31
0.0
  0
ARC
  5
18EC2
  8
AM_0
 10
707.59652183586616
 20
253.30397991475269
 30
0.0
 40
17.000000451534831
 50
336.80144506544991
 51
0.0
  0
LINE
  5
18EC3
  8
AM_0
 10
744.12790037704451
 20
246.3025551699958
 30
0.0
 11
723.09137184840824
 21
246.3025806751485
 31
0.0
  0
LINE
  5
18EC4
  8
0
 10
709.80861777013752
 20
230.5410029518446
 30
0.0
 11
717.70712027183242
 21
248.97087373091529
 31
0.0
  0
ARC
  5
18EC5
  8
0
 10
708.59652228740083
 20
254.30398187140349
 30
0.0
 40
10.0
 50
270.0
 51
0.0
1001
GENIUS_GENODEF_13
1002
{
1000
HIER
1070
     0
1002
}
1002
{
1000
MANEDIT
1070
     0
1002
}
1002
{
1000
NOSEL
1070
     0
1002
}
1002
{
1000
BEHIND
1070
     0
1002
}
1002
{
1000
OTHER
1070
     0
1002
}
1002
{
1000
REACTOR
1002
}
1001
GENIUS_GENOBJ-N-FIL_13
1002
{
1000
OWNER
1000
GEN
1002
}
  0
ARC
  5
18EC6
  8
AM_0
 10
707.59652183586616
 20
253.30397991475269
 30
0.0
 40
11.000000451534831
 50
336.80144506544991
 51
0.0
  0
POLYLINE
  5
18EC8
  8
AM_0
 10
744.12790037704451
 20
246.3025551699958
 30
0.0
 66
     1
 70
     8
  0
VERTEX
  8
AM_0
  5
1CF5A
 10
744.128
 20
246.303
 30
0.000000
  70
    32
  0
VERTEX
  8
AM_0
  5
1CF5B
 10
744.145
 20
246.303
 30
0.000000
  70
    32
  0
VERTEX
  8
AM_0
  5
1CF5C
 10
744.162
 20
246.302
 30
0.000000
  70
    32
  0
VERTEX
  8
AM_0
  5
1CF5D
 10
744.179
 20
246.302
 30
0.000000
  70
    32
  0
VERTEX
  8
AM_0
  5
1CF5E
 10
744.196
 20
246.302
 30
0.000000
  70
    32
  0
VERTEX
  8
AM_0
  5
1CF5F
 10
744.213
 20
246.301
 30
0.000000
  70
    32
  0
VERTEX
  8
AM_0
  5
1CF60
 10
744.230
 20
246.301
 30
0.000000
  70
    32
  0
VERTEX
  8
AM_0
  5
1CF61
 10
744.246
 20
246.300
 30
0.000000
  70
    32
  0
VERTEX
  8
AM_0
  5
1CF62
 10
744.263
 20
246.299
 30
0.000000
  70
    32
  0
VERTEX
  8
AM_0
  5
1CF63
 10
744.280
 20
246.299
 30
0.000000
  70
    32
  0
VERTEX
  8
AM_0
  5
1CF64
 10
744.297
 20
246.298
 30
0.000000
  70
    32
  0
VERTEX
  8
AM_0
  5
1CF65
 10
744.314
 20
246.297
 30
0.000000
  70
    32
  0
VERTEX
  8
AM_0
  5
1CF66
 10
744.331
 20
246.296
 30
0.000000
  70
    32
  0
VERTEX
  8
AM_0
  5
1CF67
 10
744.348
 20
246.294
 30
0.000000
  70
    32
  0
VERTEX
  8
AM_0
  5
1CF68
 10
744.365
 20
246.293
 30
0.000000
  70
    32
  0
VERTEX
  8
AM_0
  5
1CF69
 10
744.382
 20
246.292
 30
0.000000
  70
    32
  0
VERTEX
  8
AM_0
  5
1CF6A
 10
744.399
 20
246.290
 30
0.000000
  70
    32
  0
VERTEX
  8
AM_0
  5
1CF6B
 10
744.415
 20
246.289
 30
0.000000
  70
    32
  0
VERTEX
  8
AM_0
  5
1CF6C
 10
744.432
 20
246.287
 30
0.000000
  70
    32
  0
VERTEX
  8
AM_0
  5
1CF6D
 10
744.449
 20
246.285
 30
0.000000
  70
    32
  0
VERTEX
  8
AM_0
  5
1CF6E
 10
744.466
 20
246.283
 30
0.000000
  70
    32
  0
VERTEX
  8
AM_0
  5
1CF6F
 10
744.483
 20
246.281
 30
0.000000
  70
    32
  0
VERTEX
  8
AM_0
  5
1CF70
 10
744.500
 20
246.279
 30
0.000000
  70
    32
  0
VERTEX
  8
AM_0
  5
1CF71
 10
744.516
 20
246.277
 30
0.000000
  70
    32
  0
VERTEX
  8
AM_0
  5
1CF72
 10
744.533
 20
246.275
 30
0.000000
  70
    32
  0
VERTEX
  8
AM_0
  5
1CF73
 10
744.550
 20
246.273
 30
0.000000
  70
    32
  0
VERTEX
  8
AM_0
  5
1CF74
 10
744.567
 20
246.270
 30
0.000000
  70
    32
  0
VERTEX
  8
AM_0
  5
1CF75
 10
744.583
 20
246.268
 30
0.000000
  70
    32
  0
VERTEX
  8
AM_0
  5
1CF76
 10
744.600
 20
246.265
 30
0.000000
  70
    32
  0
VERTEX
  8
AM_0
  5
1CF77
 10
744.617
 20
246.262
 30
0.000000
  70
    32
  0
VERTEX
  8
AM_0
  5
1CF78
 10
744.634
 20
246.260
 30
0.000000
  70
    32
  0
VERTEX
  8
AM_0
  5
1CF79
 10
744.650
 20
246.257
 30
0.000000
  70
    32
  0
VERTEX
  8
AM_0
  5
1CF7A
 10
744.667
 20
246.254
 30
0.000000
  70
    32
  0
VERTEX
  8
AM_0
  5
1CF7B
 10
744.684
 20
246.251
 30
0.000000
  70
    32
  0
VERTEX
  8
AM_0
  5
1CF7C
 10
744.700
 20
246.247
 30
0.000000
  70
    32
  0
VERTEX
  8
AM_0
  5
1CF7D
 10
744.717
 20
246.244
 30
0.000000
  70
    32
  0
VERTEX
  8
AM_0
  5
1CF7E
 10
744.734
 20
246.241
 30
0.000000
  70
    32
  0
VERTEX
  8
AM_0
  5
1CF7F
 10
744.750
 20
246.237
 30
0.000000
  70
    32
  0
VERTEX
  8
AM_0
  5
1CF80
 10
744.767
 20
246.234
 30
0.000000
  70
    32
  0
VERTEX
  8
AM_0
  5
1CF81
 10
744.783
 20
246.230
 30
0.000000
  70
    32
  0
VERTEX
  8
AM_0
  5
1CF82
 10
744.800
 20
246.226
 30
0.000000
  70
    32
  0
VERTEX
  8
AM_0
  5
1CF83
 10
744.816
 20
246.223
 30
0.000000
  70
    32
  0
VERTEX
  8
AM_0
  5
1CF84
 10
744.833
 20
246.219
 30
0.000000
  70
    32
  0
VERTEX
  8
AM_0
  5
1CF85
 10
744.849
 20
246.215
 30
0.000000
  70
    32
  0
VERTEX
  8
AM_0
  5
1CF86
 10
744.866
 20
246.210
 30
0.000000
  70
    32
  0
VERTEX
  8
AM_0
  5
1CF87
 10
744.882
 20
246.206
 30
0.000000
  70
    32
  0
VERTEX
  8
AM_0
  5
1CF88
 10
744.898
 20
246.202
 30
0.000000
  70
    32
  0
VERTEX
  8
AM_0
  5
1CF89
 10
744.915
 20
246.198
 30
0.000000
  70
    32
  0
VERTEX
  8
AM_0
  5
1CF8A
 10
744.931
 20
246.193
 30
0.000000
  70
    32
  0
VERTEX
  8
AM_0
  5
1CF8B
 10
744.947
 20
246.188
 30
0.000000
  70
    32
  0
VERTEX
  8
AM_0
  5
1CF8C
 10
744.964
 20
246.184
 30
0.000000
  70
    32
  0
VERTEX
  8
AM_0
  5
1CF8D
 10
744.980
 20
246.179
 30
0.000000
  70
    32
  0
VERTEX
  8
AM_0
  5
1CF8E
 10
744.996
 20
246.174
 30
0.000000
  70
    32
  0
VERTEX
  8
AM_0
  5
1CF8F
 10
745.012
 20
246.169
 30
0.000000
  70
    32
  0
VERTEX
  8
AM_0
  5
1CF90
 10
745.029
 20
246.164
 30
0.000000
  70
    32
  0
VERTEX
  8
AM_0
  5
1CF91
 10
745.045
 20
246.159
 30
0.000000
  70
    32
  0
VERTEX
  8
AM_0
  5
1CF92
 10
745.061
 20
246.154
 30
0.000000
  70
    32
  0
VERTEX
  8
AM_0
  5
1CF93
 10
745.077
 20
246.149
 30
0.000000
  70
    32
  0
VERTEX
  8
AM_0
  5
1CF94
 10
745.093
 20
246.143
 30
0.000000
  70
    32
  0
VERTEX
  8
AM_0
  5
1CF95
 10
745.109
 20
246.138
 30
0.000000
  70
    32
  0
VERTEX
  8
AM_0
  5
1CF96
 10
745.125
 20
246.132
 30
0.000000
  70
    32
  0
VERTEX
  8
AM_0
  5
1CF97
 10
745.141
 20
246.126
 30
0.000000
  70
    32
  0
VERTEX
  8
AM_0
  5
1CF98
 10
745.157
 20
246.121
 30
0.000000
  70
    32
  0
VERTEX
  8
AM_0
  5
1CF99
 10
745.173
 20
246.115
 30
0.000000
  70
    32
  0
VERTEX
  8
AM_0
  5
1CF9A
 10
745.189
 20
246.109
 30
0.000000
  70
    32
  0
VERTEX
  8
AM_0
  5
1CF9B
 10
745.204
 20
246.103
 30
0.000000
  70
    32
  0
VERTEX
  8
AM_0
  5
1CF9C
 10
745.220
 20
246.097
 30
0.000000
  70
    32
  0
VERTEX
  8
AM_0
  5
1CF9D
 10
745.236
 20
246.090
 30
0.000000
  70
    32
  0
VERTEX
  8
AM_0
  5
1CF9E
 10
745.252
 20
246.084
 30
0.000000
  70
    32
  0
VERTEX
  8
AM_0
  5
1CF9F
 10
745.267
 20
246.078
 30
0.000000
  70
    32
  0
VERTEX
  8
AM_0
  5
1CFA0
 10
745.283
 20
246.071
 30
0.000000
  70
    32
  0
VERTEX
  8
AM_0
  5
1CFA1
 10
745.299
 20
246.065
 30
0.000000
  70
    32
  0
VERTEX
  8
AM_0
  5
1CFA2
 10
745.314
 20
246.058
 30
0.000000
  70
    32
  0
VERTEX
  8
AM_0
  5
1CFA3
 10
745.330
 20
246.051
 30
0.000000
  70
    32
  0
VERTEX
  8
AM_0
  5
1CFA4
 10
745.345
 20
246.044
 30
0.000000
  70
    32
  0
VERTEX
  8
AM_0
  5
1CFA5
 10
745.361
 20
246.038
 30
0.000000
  70
    32
  0
VERTEX
  8
AM_0
  5
1CFA6
 10
745.376
 20
246.031
 30
0.000000
  70
    32
  0
VERTEX
  8
AM_0
  5
1CFA7
 10
745.392
 20
246.023
 30
0.000000
  70
    32
  0
VERTEX
  8
AM_0
  5
1CFA8
 10
745.407
 20
246.016
 30
0.000000
  70
    32
  0
VERTEX
  8
AM_0
  5
1CFA9
 10
745.422
 20
246.009
 30
0.000000
  70
    32
  0
VERTEX
  8
AM_0
  5
1CFAA
 10
745.437
 20
246.002
 30
0.000000
  70
    32
  0
VERTEX
  8
AM_0
  5
1CFAB
 10
745.453
 20
245.994
 30
0.000000
  70
    32
  0
VERTEX
  8
AM_0
  5
1CFAC
 10
745.468
 20
245.987
 30
0.000000
  70
    32
  0
VERTEX
  8
AM_0
  5
1CFAD
 10
745.483
 20
245.979
 30
0.000000
  70
    32
  0
VERTEX
  8
AM_0
  5
1CFAE
 10
745.498
 20
245.971
 30
0.000000
  70
    32
  0
VERTEX
  8
AM_0
  5
1CFAF
 10
745.513
 20
245.964
 30
0.000000
  70
    32
  0
VERTEX
  8
AM_0
  5
1CFB0
 10
745.528
 20
245.956
 30
0.000000
  70
    32
  0
VERTEX
  8
AM_0
  5
1CFB1
 10
745.543
 20
245.948
 30
0.000000
  70
    32
  0
VERTEX
  8
AM_0
  5
1CFB2
 10
745.558
 20
245.940
 30
0.000000
  70
    32
  0
VERTEX
  8
AM_0
  5
1CFB3
 10
745.573
 20
245.932
 30
0.000000
  70
    32
  0
VERTEX
  8
AM_0
  5
1CFB4
 10
745.588
 20
245.923
 30
0.000000
  70
    32
  0
VERTEX
  8
AM_0
  5
1CFB5
 10
745.602
 20
245.915
 30
0.000000
  70
    32
  0
VERTEX
  8
AM_0
  5
1CFB6
 10
745.617
 20
245.907
 30
0.000000
  70
    32
  0
VERTEX
  8
AM_0
  5
1CFB7
 10
745.632
 20
245.898
 30
0.000000
  70
    32
  0
VERTEX
  8
AM_0
  5
1CFB8
 10
745.646
 20
245.890
 30
0.000000
  70
    32
  0
VERTEX
  8
AM_0
  5
1CFB9
 10
745.661
 20
245.881
 30
0.000000
  70
    32
  0
VERTEX
  8
AM_0
  5
1CFBA
 10
745.676
 20
245.873
 30
0.000000
  70
    32
  0
VERTEX
  8
AM_0
  5
1CFBB
 10
745.690
 20
245.864
 30
0.000000
  70
    32
  0
VERTEX
  8
AM_0
  5
1CFBC
 10
745.705
 20
245.855
 30
0.000000
  70
    32
  0
VERTEX
  8
AM_0
  5
1CFBD
 10
745.719
 20
245.846
 30
0.000000
  70
    32
  0
VERTEX
  8
AM_0
  5
1CFBE
 10
745.733
 20
245.837
 30
0.000000
  70
    32
  0
VERTEX
  8
AM_0
  5
1CFBF
 10
745.748
 20
245.828
 30
0.000000
  70
    32
  0
VERTEX
  8
AM_0
  5
1CFC0
 10
745.762
 20
245.819
 30
0.000000
  70
    32
  0
VERTEX
  8
AM_0
  5
1CFC1
 10
745.776
 20
245.809
 30
0.000000
  70
    32
  0
VERTEX
  8
AM_0
  5
1CFC2
 10
745.790
 20
245.800
 30
0.000000
  70
    32
  0
VERTEX
  8
AM_0
  5
1CFC3
 10
745.804
 20
245.791
 30
0.000000
  70
    32
  0
VERTEX
  8
AM_0
  5
1CFC4
 10
745.818
 20
245.781
 30
0.000000
  70
    32
  0
VERTEX
  8
AM_0
  5
1CFC5
 10
745.832
 20
245.771
 30
0.000000
  70
    32
  0
VERTEX
  8
AM_0
  5
1CFC6
 10
745.846
 20
245.762
 30
0.000000
  70
    32
  0
VERTEX
  8
AM_0
  5
1CFC7
 10
745.860
 20
245.752
 30
0.000000
  70
    32
  0
VERTEX
  8
AM_0
  5
1CFC8
 10
745.874
 20
245.742
 30
0.000000
  70
    32
  0
VERTEX
  8
AM_0
  5
1CFC9
 10
745.887
 20
245.732
 30
0.000000
  70
    32
  0
VERTEX
  8
AM_0
  5
1CFCA
 10
745.901
 20
245.722
 30
0.000000
  70
    32
  0
VERTEX
  8
AM_0
  5
1CFCB
 10
745.915
 20
245.712
 30
0.000000
  70
    32
  0
VERTEX
  8
AM_0
  5
1CFCC
 10
745.928
 20
245.702
 30
0.000000
  70
    32
  0
VERTEX
  8
AM_0
  5
1CFCD
 10
745.942
 20
245.692
 30
0.000000
  70
    32
  0
VERTEX
  8
AM_0
  5
1CFCE
 10
745.955
 20
245.682
 30
0.000000
  70
    32
  0
VERTEX
  8
AM_0
  5
1CFCF
 10
745.969
 20
245.671
 30
0.000000
  70
    32
  0
VERTEX
  8
AM_0
  5
1CFD0
 10
745.982
 20
245.661
 30
0.000000
  70
    32
  0
VERTEX
  8
AM_0
  5
1CFD1
 10
745.995
 20
245.650
 30
0.000000
  70
    32
  0
VERTEX
  8
AM_0
  5
1CFD2
 10
746.009
 20
245.640
 30
0.000000
  70
    32
  0
VERTEX
  8
AM_0
  5
1CFD3
 10
746.022
 20
245.629
 30
0.000000
  70
    32
  0
VERTEX
  8
AM_0
  5
1CFD4
 10
746.035
 20
245.618
 30
0.000000
  70
    32
  0
VERTEX
  8
AM_0
  5
1CFD5
 10
746.048
 20
245.608
 30
0.000000
  70
    32
  0
VERTEX
  8
AM_0
  5
1CFD6
 10
746.061
 20
245.597
 30
0.000000
  70
    32
  0
VERTEX
  8
AM_0
  5
1CFD7
 10
746.074
 20
245.586
 30
0.000000
  70
    32
  0
VERTEX
  8
AM_0
  5
1CFD8
 10
746.087
 20
245.575
 30
0.000000
  70
    32
  0
VERTEX
  8
AM_0
  5
1CFD9
 10
746.099
 20
245.564
 30
0.000000
  70
    32
  0
VERTEX
  8
AM_0
  5
1CFDA
 10
746.112
 20
245.553
 30
0.000000
  70
    32
  0
SEQEND
  8
AM_0
  5
1CFDB
  0
ARC
  5
18ECD
  8
0
 10
713.59652228740083
 20
269.20995346501292
 30
0.0
 40
5.0
 50
249.33268187999059
 51
0.0
1001
GENIUS_GENOBJ-N-FIL_13
1002
{
1000
OWNER
1000
GEN
1002
}
1001
GENIUS_GENODEF_13
1002
{
1000
HIER
1070
     0
1002
}
1002
{
1000
MANEDIT
1070
     0
1002
}
1002
{
1000
NOSEL
1070
     0
1002
}
1002
{
1000
BEHIND
1070
     0
1002
}
1002
{
1000
OTHER
1070
     0
1002
}
1002
{
1000
REACTOR
1002
}
  0
LINE
  5
18ECE
  8
AM_0
 10
727.02498789740173
 20
269.57526323233458
 30
0.0
 11
724.59652228740106
 21
269.57526323233458
 31
0.0
  0
ARC
  5
18ECF
  8
0
 10
715.59652228740083
 20
299.30398187140332
 30
0.0
 40
3.0
 50
270.0
 51
0.0
1001
GENIUS_GENODEF_13
1002
{
1000
HIER
1070
     0
1002
}
1002
{
1000
MANEDIT
1070
     0
1002
}
1002
{
1000
NOSEL
1070
     0
1002
}
1002
{
1000
BEHIND
1070
     0
1002
}
1002
{
1000
OTHER
1070
     0
1002
}
1002
{
1000
REACTOR
1002
}
1001
GENIUS_GENOBJ-N-FIL_13
1002
{
1000
OWNER
1000
GEN
1002
}
  0
ARC
  5
18ED0
  8
0
 10
715.59428303529285
 20
293.30398270711157
 30
0.0
 40
3.0000000000000631
 50
90.000000000001606
 51
270.0
  0
ARC
  5
18ED1
  8
0
 10
715.59652228740083
 20
287.30398187140332
 30
0.0
 40
3.0
 50
0.0
 51
90.0
1001
GENIUS_GENODEF_13
1002
{
1000
HIER
1070
     0
1002
}
1002
{
1000
MANEDIT
1070
     0
1002
}
1002
{
1000
NOSEL
1070
     0
1002
}
1002
{
1000
BEHIND
1070
     0
1002
}
1002
{
1000
OTHER
1070
     0
1002
}
1002
{
1000
REACTOR
1002
}
1001
GENIUS_GENOBJ-N-FIL_13
1002
{
1000
OWNER
1000
GEN
1002
}
  0
ARC
  5
18ED2
  8
AM_0
 10
727.02498789740173
 20
272.5752632323946
 30
0.0
 40
3.000000000059996
 50
270.0
 51
353.33928567968309
1001
GENIUS_GENODEF_13
1002
{
1000
HIER
1070
     0
1002
}
1002
{
1000
MANEDIT
1070
     0
1002
}
1002
{
1000
NOSEL
1070
     0
1002
}
1002
{
1000
BEHIND
1070
     0
1002
}
1002
{
1000
OTHER
1070
     0
1002
}
1002
{
1000
REACTOR
1002
}
1001
GENIUS_GENOBJ-N-FIL_13
1002
{
1000
OWNER
1000
GEN
1002
}
  0
ARC
  5
18ED3
  8
0
 10
715.59652228740083
 20
343.30398187140321
 30
0.0
 40
3.0000000000000631
 50
90.000000000001606
 51
270.0
  0
ARC
  5
18ED4
  8
0
 10
715.59652228740083
 20
337.30398187140332
 30
0.0
 40
3.0
 50
0.0
 51
90.0
1001
GENIUS_GENODEF_13
1002
{
1000
HIER
1070
     0
1002
}
1002
{
1000
MANEDIT
1070
     0
1002
}
1002
{
1000
NOSEL
1070
     0
1002
}
1002
{
1000
BEHIND
1070
     0
1002
}
1002
{
1000
OTHER
1070
     0
1002
}
1002
{
1000
REACTOR
1002
}
1001
GENIUS_GENOBJ-N-FIL_13
1002
{
1000
OWNER
1000
GEN
1002
}
  0
ARC
  5
18ED5
  8
0
 10
715.59652228740083
 20
349.30398187140332
 30
0.0
 40
3.0
 50
270.0
 51
0.0
1001
GENIUS_GENODEF_13
1002
{
1000
HIER
1070
     0
1002
}
1002
{
1000
MANEDIT
1070
     0
1002
}
1002
{
1000
NOSEL
1070
     0
1002
}
1002
{
1000
BEHIND
1070
     0
1002
}
1002
{
1000
OTHER
1070
     0
1002
}
1002
{
1000
REACTOR
1002
}
1001
GENIUS_GENOBJ-N-FIL_13
1002
{
1000
OWNER
1000
GEN
1002
}
  0
LINE
  5
18ED9
  8
AM_0
 10
759.09652229835126
 20
244.8025118714032
 30
0.0
 11
759.09652229835103
 21
318.30398187140321
 31
0.0
  0
LINE
  5
18EE4
  8
AM_0
 10
759.09651621867727
 20
244.80250702171509
 30
0.0
 11
748.09651700585709
 21
244.8025264158122
 31
0.0
  0
LINE
  5
18F23
  8
AM_0
 10
747.09652229474921
 20
255.30272187140369
 30
0.0
 11
759.09652229834899
 21
255.30272187140329
 31
0.0
  0
LINE
  5
18F25
  8
AM_0
 10
747.09652229474989
 20
279.24224825011061
 30
0.0
 11
759.09652229834978
 21
279.24224825011038
 31
0.0
  0
LINE
  5
18F3D
  8
AM_0
 10
747.09652229475125
 20
357.36571549269632
 30
0.0
 11
759.09652229835103
 21
357.36571549269621
 31
0.0
  0
POLYLINE
  5
18F7E
  8
AM_0
 10
746.11220951745088
 20
391.0554229499038
 30
0.0
 66
     1
 70
     8
  0
VERTEX
  8
AM_0
  5
1CFDC
 10
746.112
 20
391.055
 30
0.000000
  70
    32
  0
VERTEX
  8
AM_0
  5
1CFDD
 10
746.125
 20
391.067
 30
0.000000
  70
    32
  0
VERTEX
  8
AM_0
  5
1CFDE
 10
746.138
 20
391.078
 30
0.000000
  70
    32
  0
VERTEX
  8
AM_0
  5
1CFDF
 10
746.151
 20
391.089
 30
0.000000
  70
    32
  0
VERTEX
  8
AM_0
  5
1CFE0
 10
746.164
 20
391.100
 30
0.000000
  70
    32
  0
VERTEX
  8
AM_0
  5
1CFE1
 10
746.177
 20
391.111
 30
0.000000
  70
    32
  0
VERTEX
  8
AM_0
  5
1CFE2
 10
746.190
 20
391.121
 30
0.000000
  70
    32
  0
VERTEX
  8
AM_0
  5
1CFE3
 10
746.203
 20
391.132
 30
0.000000
  70
    32
  0
VERTEX
  8
AM_0
  5
1CFE4
 10
746.216
 20
391.143
 30
0.000000
  70
    32
  0
VERTEX
  8
AM_0
  5
1CFE5
 10
746.229
 20
391.153
 30
0.000000
  70
    32
  0
VERTEX
  8
AM_0
  5
1CFE6
 10
746.242
 20
391.164
 30
0.000000
  70
    32
  0
VERTEX
  8
AM_0
  5
1CFE7
 10
746.256
 20
391.174
 30
0.000000
  70
    32
  0
VERTEX
  8
AM_0
  5
1CFE8
 10
746.269
 20
391.185
 30
0.000000
  70
    32
  0
VERTEX
  8
AM_0
  5
1CFE9
 10
746.283
 20
391.195
 30
0.000000
  70
    32
  0
VERTEX
  8
AM_0
  5
1CFEA
 10
746.296
 20
391.205
 30
0.000000
  70
    32
  0
VERTEX
  8
AM_0
  5
1CFEB
 10
746.310
 20
391.215
 30
0.000000
  70
    32
  0
VERTEX
  8
AM_0
  5
1CFEC
 10
746.323
 20
391.225
 30
0.000000
  70
    32
  0
VERTEX
  8
AM_0
  5
1CFED
 10
746.337
 20
391.235
 30
0.000000
  70
    32
  0
VERTEX
  8
AM_0
  5
1CFEE
 10
746.351
 20
391.245
 30
0.000000
  70
    32
  0
VERTEX
  8
AM_0
  5
1CFEF
 10
746.365
 20
391.255
 30
0.000000
  70
    32
  0
VERTEX
  8
AM_0
  5
1CFF0
 10
746.378
 20
391.265
 30
0.000000
  70
    32
  0
VERTEX
  8
AM_0
  5
1CFF1
 10
746.392
 20
391.274
 30
0.000000
  70
    32
  0
VERTEX
  8
AM_0
  5
1CFF2
 10
746.406
 20
391.284
 30
0.000000
  70
    32
  0
VERTEX
  8
AM_0
  5
1CFF3
 10
746.420
 20
391.293
 30
0.000000
  70
    32
  0
VERTEX
  8
AM_0
  5
1CFF4
 10
746.434
 20
391.303
 30
0.000000
  70
    32
  0
VERTEX
  8
AM_0
  5
1CFF5
 10
746.448
 20
391.312
 30
0.000000
  70
    32
  0
VERTEX
  8
AM_0
  5
1CFF6
 10
746.463
 20
391.321
 30
0.000000
  70
    32
  0
VERTEX
  8
AM_0
  5
1CFF7
 10
746.477
 20
391.331
 30
0.000000
  70
    32
  0
VERTEX
  8
AM_0
  5
1CFF8
 10
746.491
 20
391.340
 30
0.000000
  70
    32
  0
VERTEX
  8
AM_0
  5
1CFF9
 10
746.506
 20
391.349
 30
0.000000
  70
    32
  0
VERTEX
  8
AM_0
  5
1CFFA
 10
746.520
 20
391.358
 30
0.000000
  70
    32
  0
VERTEX
  8
AM_0
  5
1CFFB
 10
746.534
 20
391.367
 30
0.000000
  70
    32
  0
VERTEX
  8
AM_0
  5
1CFFC
 10
746.549
 20
391.375
 30
0.000000
  70
    32
  0
VERTEX
  8
AM_0
  5
1CFFD
 10
746.563
 20
391.384
 30
0.000000
  70
    32
  0
VERTEX
  8
AM_0
  5
1CFFE
 10
746.578
 20
391.393
 30
0.000000
  70
    32
  0
VERTEX
  8
AM_0
  5
1CFFF
 10
746.593
 20
391.401
 30
0.000000
  70
    32
  0
VERTEX
  8
AM_0
  5
1D000
 10
746.607
 20
391.410
 30
0.000000
  70
    32
  0
VERTEX
  8
AM_0
  5
1D001
 10
746.622
 20
391.418
 30
0.000000
  70
    32
  0
VERTEX
  8
AM_0
  5
1D002
 10
746.637
 20
391.426
 30
0.000000
  70
    32
  0
VERTEX
  8
AM_0
  5
1D003
 10
746.652
 20
391.435
 30
0.000000
  70
    32
  0
VERTEX
  8
AM_0
  5
1D004
 10
746.666
 20
391.443
 30
0.000000
  70
    32
  0
VERTEX
  8
AM_0
  5
1D005
 10
746.681
 20
391.451
 30
0.000000
  70
    32
  0
VERTEX
  8
AM_0
  5
1D006
 10
746.696
 20
391.459
 30
0.000000
  70
    32
  0
VERTEX
  8
AM_0
  5
1D007
 10
746.711
 20
391.466
 30
0.000000
  70
    32
  0
VERTEX
  8
AM_0
  5
1D008
 10
746.726
 20
391.474
 30
0.000000
  70
    32
  0
VERTEX
  8
AM_0
  5
1D009
 10
746.741
 20
391.482
 30
0.000000
  70
    32
  0
VERTEX
  8
AM_0
  5
1D00A
 10
746.757
 20
391.490
 30
0.000000
  70
    32
  0
VERTEX
  8
AM_0
  5
1D00B
 10
746.772
 20
391.497
 30
0.000000
  70
    32
  0
VERTEX
  8
AM_0
  5
1D00C
 10
746.787
 20
391.505
 30
0.000000
  70
    32
  0
VERTEX
  8
AM_0
  5
1D00D
 10
746.802
 20
391.512
 30
0.000000
  70
    32
  0
VERTEX
  8
AM_0
  5
1D00E
 10
746.818
 20
391.519
 30
0.000000
  70
    32
  0
VERTEX
  8
AM_0
  5
1D00F
 10
746.833
 20
391.526
 30
0.000000
  70
    32
  0
VERTEX
  8
AM_0
  5
1D010
 10
746.848
 20
391.533
 30
0.000000
  70
    32
  0
VERTEX
  8
AM_0
  5
1D011
 10
746.864
 20
391.540
 30
0.000000
  70
    32
  0
VERTEX
  8
AM_0
  5
1D012
 10
746.879
 20
391.547
 30
0.000000
  70
    32
  0
VERTEX
  8
AM_0
  5
1D013
 10
746.895
 20
391.554
 30
0.000000
  70
    32
  0
VERTEX
  8
AM_0
  5
1D014
 10
746.910
 20
391.561
 30
0.000000
  70
    32
  0
VERTEX
  8
AM_0
  5
1D015
 10
746.926
 20
391.568
 30
0.000000
  70
    32
  0
VERTEX
  8
AM_0
  5
1D016
 10
746.941
 20
391.574
 30
0.000000
  70
    32
  0
VERTEX
  8
AM_0
  5
1D017
 10
746.957
 20
391.581
 30
0.000000
  70
    32
  0
VERTEX
  8
AM_0
  5
1D018
 10
746.973
 20
391.587
 30
0.000000
  70
    32
  0
VERTEX
  8
AM_0
  5
1D019
 10
746.988
 20
391.593
 30
0.000000
  70
    32
  0
VERTEX
  8
AM_0
  5
1D01A
 10
747.004
 20
391.600
 30
0.000000
  70
    32
  0
VERTEX
  8
AM_0
  5
1D01B
 10
747.020
 20
391.606
 30
0.000000
  70
    32
  0
VERTEX
  8
AM_0
  5
1D01C
 10
747.036
 20
391.612
 30
0.000000
  70
    32
  0
VERTEX
  8
AM_0
  5
1D01D
 10
747.052
 20
391.618
 30
0.000000
  70
    32
  0
VERTEX
  8
AM_0
  5
1D01E
 10
747.068
 20
391.623
 30
0.000000
  70
    32
  0
VERTEX
  8
AM_0
  5
1D01F
 10
747.084
 20
391.629
 30
0.000000
  70
    32
  0
VERTEX
  8
AM_0
  5
1D020
 10
747.100
 20
391.635
 30
0.000000
  70
    32
  0
VERTEX
  8
AM_0
  5
1D021
 10
747.115
 20
391.640
 30
0.000000
  70
    32
  0
VERTEX
  8
AM_0
  5
1D022
 10
747.132
 20
391.646
 30
0.000000
  70
    32
  0
VERTEX
  8
AM_0
  5
1D023
 10
747.148
 20
391.651
 30
0.000000
  70
    32
  0
VERTEX
  8
AM_0
  5
1D024
 10
747.164
 20
391.657
 30
0.000000
  70
    32
  0
VERTEX
  8
AM_0
  5
1D025
 10
747.180
 20
391.662
 30
0.000000
  70
    32
  0
VERTEX
  8
AM_0
  5
1D026
 10
747.196
 20
391.667
 30
0.000000
  70
    32
  0
VERTEX
  8
AM_0
  5
1D027
 10
747.212
 20
391.672
 30
0.000000
  70
    32
  0
VERTEX
  8
AM_0
  5
1D028
 10
747.228
 20
391.677
 30
0.000000
  70
    32
  0
VERTEX
  8
AM_0
  5
1D029
 10
747.245
 20
391.682
 30
0.000000
  70
    32
  0
VERTEX
  8
AM_0
  5
1D02A
 10
747.261
 20
391.687
 30
0.000000
  70
    32
  0
VERTEX
  8
AM_0
  5
1D02B
 10
747.277
 20
391.691
 30
0.000000
  70
    32
  0
VERTEX
  8
AM_0
  5
1D02C
 10
747.293
 20
391.696
 30
0.000000
  70
    32
  0
VERTEX
  8
AM_0
  5
1D02D
 10
747.310
 20
391.700
 30
0.000000
  70
    32
  0
VERTEX
  8
AM_0
  5
1D02E
 10
747.326
 20
391.705
 30
0.000000
  70
    32
  0
VERTEX
  8
AM_0
  5
1D02F
 10
747.342
 20
391.709
 30
0.000000
  70
    32
  0
VERTEX
  8
AM_0
  5
1D030
 10
747.359
 20
391.713
 30
0.000000
  70
    32
  0
VERTEX
  8
AM_0
  5
1D031
 10
747.375
 20
391.717
 30
0.000000
  70
    32
  0
VERTEX
  8
AM_0
  5
1D032
 10
747.392
 20
391.721
 30
0.000000
  70
    32
  0
VERTEX
  8
AM_0
  5
1D033
 10
747.408
 20
391.725
 30
0.000000
  70
    32
  0
VERTEX
  8
AM_0
  5
1D034
 10
747.425
 20
391.729
 30
0.000000
  70
    32
  0
VERTEX
  8
AM_0
  5
1D035
 10
747.441
 20
391.733
 30
0.000000
  70
    32
  0
VERTEX
  8
AM_0
  5
1D036
 10
747.458
 20
391.737
 30
0.000000
  70
    32
  0
VERTEX
  8
AM_0
  5
1D037
 10
747.474
 20
391.740
 30
0.000000
  70
    32
  0
VERTEX
  8
AM_0
  5
1D038
 10
747.491
 20
391.744
 30
0.000000
  70
    32
  0
VERTEX
  8
AM_0
  5
1D039
 10
747.508
 20
391.747
 30
0.000000
  70
    32
  0
VERTEX
  8
AM_0
  5
1D03A
 10
747.524
 20
391.750
 30
0.000000
  70
    32
  0
VERTEX
  8
AM_0
  5
1D03B
 10
747.541
 20
391.754
 30
0.000000
  70
    32
  0
VERTEX
  8
AM_0
  5
1D03C
 10
747.557
 20
391.757
 30
0.000000
  70
    32
  0
VERTEX
  8
AM_0
  5
1D03D
 10
747.574
 20
391.760
 30
0.000000
  70
    32
  0
VERTEX
  8
AM_0
  5
1D03E
 10
747.591
 20
391.762
 30
0.000000
  70
    32
  0
VERTEX
  8
AM_0
  5
1D03F
 10
747.607
 20
391.765
 30
0.000000
  70
    32
  0
VERTEX
  8
AM_0
  5
1D040
 10
747.624
 20
391.768
 30
0.000000
  70
    32
  0
VERTEX
  8
AM_0
  5
1D041
 10
747.641
 20
391.771
 30
0.000000
  70
    32
  0
VERTEX
  8
AM_0
  5
1D042
 10
747.658
 20
391.773
 30
0.000000
  70
    32
  0
VERTEX
  8
AM_0
  5
1D043
 10
747.674
 20
391.776
 30
0.000000
  70
    32
  0
VERTEX
  8
AM_0
  5
1D044
 10
747.691
 20
391.778
 30
0.000000
  70
    32
  0
VERTEX
  8
AM_0
  5
1D045
 10
747.708
 20
391.780
 30
0.000000
  70
    32
  0
VERTEX
  8
AM_0
  5
1D046
 10
747.725
 20
391.782
 30
0.000000
  70
    32
  0
VERTEX
  8
AM_0
  5
1D047
 10
747.742
 20
391.784
 30
0.000000
  70
    32
  0
VERTEX
  8
AM_0
  5
1D048
 10
747.758
 20
391.786
 30
0.000000
  70
    32
  0
VERTEX
  8
AM_0
  5
1D049
 10
747.775
 20
391.788
 30
0.000000
  70
    32
  0
VERTEX
  8
AM_0
  5
1D04A
 10
747.792
 20
391.790
 30
0.000000
  70
    32
  0
VERTEX
  8
AM_0
  5
1D04B
 10
747.809
 20
391.792
 30
0.000000
  70
    32
  0
VERTEX
  8
AM_0
  5
1D04C
 10
747.826
 20
391.793
 30
0.000000
  70
    32
  0
VERTEX
  8
AM_0
  5
1D04D
 10
747.843
 20
391.795
 30
0.000000
  70
    32
  0
VERTEX
  8
AM_0
  5
1D04E
 10
747.860
 20
391.796
 30
0.000000
  70
    32
  0
VERTEX
  8
AM_0
  5
1D04F
 10
747.877
 20
391.797
 30
0.000000
  70
    32
  0
VERTEX
  8
AM_0
  5
1D050
 10
747.893
 20
391.799
 30
0.000000
  70
    32
  0
VERTEX
  8
AM_0
  5
1D051
 10
747.910
 20
391.800
 30
0.000000
  70
    32
  0
VERTEX
  8
AM_0
  5
1D052
 10
747.927
 20
391.801
 30
0.000000
  70
    32
  0
VERTEX
  8
AM_0
  5
1D053
 10
747.944
 20
391.802
 30
0.000000
  70
    32
  0
VERTEX
  8
AM_0
  5
1D054
 10
747.961
 20
391.802
 30
0.000000
  70
    32
  0
VERTEX
  8
AM_0
  5
1D055
 10
747.978
 20
391.803
 30
0.000000
  70
    32
  0
VERTEX
  8
AM_0
  5
1D056
 10
747.995
 20
391.804
 30
0.000000
  70
    32
  0
VERTEX
  8
AM_0
  5
1D057
 10
748.012
 20
391.804
 30
0.000000
  70
    32
  0
VERTEX
  8
AM_0
  5
1D058
 10
748.029
 20
391.805
 30
0.000000
  70
    32
  0
VERTEX
  8
AM_0
  5
1D059
 10
748.046
 20
391.805
 30
0.000000
  70
    32
  0
VERTEX
  8
AM_0
  5
1D05A
 10
748.063
 20
391.805
 30
0.000000
  70
    32
  0
VERTEX
  8
AM_0
  5
1D05B
 10
748.080
 20
391.805
 30
0.000000
  70
    32
  0
VERTEX
  8
AM_0
  5
1D05C
 10
748.097
 20
391.805
 30
0.000000
  70
    32
  0
SEQEND
  8
AM_0
  5
1D05D
  0
LINE
  5
18F80
  8
0
  6
CONTINUOUS
 62
     7
 10
663.59654889167814
 20
392.3039818714027
 30
0.0
 11
643.31278253718017
 21
392.3039818714027
 31
0.0
  0
ARC
  5
18F81
  8
0
 10
611.88031524617691
 20
387.30398187140281
 30
0.0
 40
5.0
 50
10.806922874860341
 51
90.0
1001
GENIUS_GENOBJ-N-FIL_13
1002
{
1000
OWNER
1000
GEN
1002
}
1001
GENIUS_GENODEF_13
1002
{
1000
HIER
1070
     0
1002
}
1002
{
1000
MANEDIT
1070
     0
1002
}
1002
{
1000
NOSEL
1070
     0
1002
}
1002
{
1000
BEHIND
1070
     0
1002
}
1002
{
1000
OTHER
1070
     0
1002
}
1002
{
1000
REACTOR
1002
}
  0
LINE
  5
18F82
  8
0
  6
CONTINUOUS
 62
     7
 10
611.88031524617713
 20
392.3039818714027
 30
0.0
 11
576.59652002972757
 21
392.3039818714027
 31
0.0
  0
ARC
  5
18F83
  8
0
 10
573.59652002972723
 20
392.30398187140281
 30
0.0
 40
3.0000000000000631
 50
224.99999999999571
 51
44.99999999999568
  0
ARC
  5
18F84
  8
0
 10
627.59654889167859
 20
390.30398187140281
 30
0.0
 40
11.0
 50
270.0
 51
349.19307712513972
  0
CIRCLE
  5
18F85
  8
AM_0
 10
627.59654889167859
 20
390.30398187140332
 30
0.0
 40
8.5
  0
ARC
  5
18F86
  8
0
 10
627.59654889167859
 20
390.30398187140281
 30
0.0
 40
11.0
 50
190.80692287486031
 51
270.0
  0
CIRCLE
  5
18F87
  8
AM_0
 10
627.59654889167859
 20
390.30398187140332
 30
0.0
 40
6.5
  0
POLYLINE
  5
18F88
  8
AM_0
 66
     1
 10
0.0
 20
0.0
 30
0.0
 70
     1
  0
VERTEX
  5
18F89
  8
AM_0
 10
625.86449808410975
 20
393.30398187140281
 30
0.0
  0
VERTEX
  5
18F8A
  8
AM_0
 10
624.13244727654092
 20
390.30398187140281
 30
0.0
  0
VERTEX
  5
18F8B
  8
AM_0
 10
625.86449808410975
 20
387.30398187140281
 30
0.0
  0
VERTEX
  5
18F8C
  8
AM_0
 10
629.32859969924732
 20
387.30398187140281
 30
0.0
  0
VERTEX
  5
18F8D
  8
AM_0
 10
631.06065050681627
 20
390.30398187140281
 30
0.0
  0
VERTEX
  5
18F8E
  8
AM_0
 10
629.32859969924732
 20
393.30398187140281
 30
0.0
  0
SEQEND
  5
18F8F
  8
AM_0
  0
ARC
  5
18F90
  8
0
 10
643.31278253718017
 20
387.30398187140281
 30
0.0
 40
5.0
 50
90.000000000001606
 51
169.19307712513961
1001
GENIUS_GENOBJ-N-FIL_13
1002
{
1000
OWNER
1000
GEN
1002
}
1001
GENIUS_GENODEF_13
1002
{
1000
HIER
1070
     0
1002
}
1002
{
1000
MANEDIT
1070
     0
1002
}
1002
{
1000
NOSEL
1070
     0
1002
}
1002
{
1000
BEHIND
1070
     0
1002
}
1002
{
1000
OTHER
1070
     0
1002
}
1002
{
1000
REACTOR
1002
}
  0
ARC
  5
18F92
  8
0
 10
674.56879251435839
 20
424.30398187140281
 30
0.0
 40
5.0
 50
341.591519829417
 51
90.0
1001
GENIUS_GENOBJ-N-FIL_13
1002
{
1000
OWNER
1000
GEN
1002
}
1001
GENIUS_GENODEF_13
1002
{
1000
HIER
1070
     0
1002
}
1002
{
1000
MANEDIT
1070
     0
1002
}
1002
{
1000
NOSEL
1070
     0
1002
}
1002
{
1000
BEHIND
1070
     0
1002
}
1002
{
1000
OTHER
1070
     0
1002
}
1002
{
1000
REACTOR
1002
}
  0
ARC
  5
18F93
  8
0
 10
692.59654889167837
 20
418.30398187140321
 30
0.0
 40
16.999999999999709
 50
23.198554934550121
 51
90.0
  0
ARC
  5
18F95
  8
0
 10
705.21289139698308
 20
404.09736715188461
 30
0.0
 40
5.0
 50
23.198554934550121
 51
131.60703510513599
1001
GENIUS_GENOBJ-N-FIL_13
1002
{
1000
OWNER
1000
GEN
1002
}
1001
GENIUS_GENODEF_13
1002
{
1000
HIER
1070
     0
1002
}
1002
{
1000
MANEDIT
1070
     0
1002
}
1002
{
1000
NOSEL
1070
     0
1002
}
1002
{
1000
BEHIND
1070
     0
1002
}
1002
{
1000
OTHER
1070
     0
1002
}
1002
{
1000
REACTOR
1002
}
  0
CIRCLE
  5
18F96
  8
ｷｲﾛ
 10
707.5965218358665
 20
383.3039838280539
 30
0.0
 40
6.0
  0
LINE
  5
18F98
  8
0
  6
CONTINUOUS
 62
     7
 10
708.59652228740083
 20
392.3039818714027
 30
0.0
 11
670.83918957879757
 21
392.3039818714027
 31
0.0
  0
LINE
  5
18F99
  8
0
 10
679.22800666891726
 20
409.17808033576063
 30
0.0
 11
664.47522854811837
 21
394.42530221496219
 31
0.0
  0
LINE
  5
18F9A
  8
0
 10
683.47064735603624
 20
404.93543964864108
 30
0.0
 11
668.71786923523791
 21
390.18266152784321
 31
0.0
  0
ARC
  5
18F9B
  8
0
 10
666.59654889167814
 20
392.30398187140281
 30
0.0
 40
3.0000000000000631
 50
135.00000000000429
 51
315.00000000000432
  0
ARC
  5
18F9C
  8
0
 10
691.0738097203207
 20
387.30398187140281
 30
0.0
 40
5.0
 50
346.39104615428522
 51
90.0
1001
GENIUS_GENODEF_13
1002
{
1000
HIER
1070
     0
1002
}
1002
{
1000
MANEDIT
1070
     0
1002
}
1002
{
1000
NOSEL
1070
     0
1002
}
1002
{
1000
BEHIND
1070
     0
1002
}
1002
{
1000
OTHER
1070
     0
1002
}
1002
{
1000
REACTOR
1002
}
1001
GENIUS_GENOBJ-N-FIL_13
1002
{
1000
OWNER
1000
GEN
1002
}
  0
ARC
  5
18F9D
  8
0
 10
677.10668632535715
 20
411.29940067932051
 30
0.0
 40
3.0
 50
315.00000000000432
 51
24.332683506492341
1001
GENIUS_GENOBJ-N-FIL_13
1002
{
1000
OWNER
1000
GEN
1002
}
1001
GENIUS_GENODEF_13
1002
{
1000
HIER
1070
     0
1002
}
1002
{
1000
MANEDIT
1070
     0
1002
}
1002
{
1000
NOSEL
1070
     0
1002
}
1002
{
1000
BEHIND
1070
     0
1002
}
1002
{
1000
OTHER
1070
     0
1002
}
1002
{
1000
REACTOR
1002
}
  0
ARC
  5
18F9E
  8
0
 10
692.59654889167837
 20
418.30398187140321
 30
0.0
 40
14.0
 50
161.591519829417
 51
311.60703510513611
  0
CIRCLE
  5
18F9F
  8
0
 10
692.59654889167837
 20
418.30398187140321
 30
0.0
 40
7.0
  0
ARC
  5
18FA0
  8
0
 10
685.59196769959567
 20
402.81411930508159
 30
0.0
 40
3.0
 50
65.667316493515841
 51
135.00000000000429
1001
GENIUS_GENODEF_13
1002
{
1000
HIER
1070
     0
1002
}
1002
{
1000
MANEDIT
1070
     0
1002
}
1002
{
1000
NOSEL
1070
     0
1002
}
1002
{
1000
BEHIND
1070
     0
1002
}
1002
{
1000
OTHER
1070
     0
1002
}
1002
{
1000
REACTOR
1002
}
1001
GENIUS_GENOBJ-N-FIL_13
1002
{
1000
OWNER
1000
GEN
1002
}
  0
LINE
  5
18FA1
  8
0
 10
709.80861777013774
 20
406.0669607909611
 30
0.0
 11
717.70712027183242
 21
387.63709001189079
 31
0.0
  0
LINE
  5
18FA2
  8
0
 10
708.22201856040397
 20
425.00060024426449
 30
0.0
 11
723.09198898029683
 21
390.30394309078281
 31
0.0
  0
ARC
  5
18FA3
  8
AM_0
 10
707.59652183586616
 20
383.3039838280543
 30
0.0
 40
17.000000451534831
 50
0.0
 51
23.198554934550121
  0
LINE
  5
18FA4
  8
AM_0
 10
727.02498789740309
 20
367.0327005104715
 30
0.0
 11
724.50836110077535
 21
367.0327005104715
 31
0.0
  0
LINE
  5
18FA5
  8
AM_0
 10
744.12790037704451
 20
390.30540857281068
 30
0.0
 11
723.09137184840824
 21
390.30538306765811
 31
0.0
  0
ARC
  5
18FA6
  8
AM_0
 10
707.59652183586616
 20
383.3039838280543
 30
0.0
 40
11.000000451534831
 50
0.0
 51
23.198554934550121
  0
CIRCLE
  5
18FA7
  8
0
 10
707.5965218358665
 20
383.3039838280539
 30
0.0
 40
5.0
  0
ARC
  5
18FA8
  8
0
 10
708.59652228740083
 20
382.30398187140281
 30
0.0
 40
10.0
 50
0.0
 51
90.0
1001
GENIUS_GENOBJ-N-FIL_13
1002
{
1000
OWNER
1000
GEN
1002
}
1001
GENIUS_GENODEF_13
1002
{
1000
HIER
1070
     0
1002
}
1002
{
1000
MANEDIT
1070
     0
1002
}
1002
{
1000
NOSEL
1070
     0
1002
}
1002
{
1000
BEHIND
1070
     0
1002
}
1002
{
1000
OTHER
1070
     0
1002
}
1002
{
1000
REACTOR
1002
}
  0
ARC
  5
18FA9
  8
AM_0
 10
727.02498789740309
 20
364.03270051041159
 30
0.0
 40
3.000000000059996
 50
6.6607143203167842
 51
90.0
1001
GENIUS_GENOBJ-N-FIL_13
1002
{
1000
OWNER
1000
GEN
1002
}
1001
GENIUS_GENODEF_13
1002
{
1000
HIER
1070
     0
1002
}
1002
{
1000
MANEDIT
1070
     0
1002
}
1002
{
1000
NOSEL
1070
     0
1002
}
1002
{
1000
BEHIND
1070
     0
1002
}
1002
{
1000
OTHER
1070
     0
1002
}
1002
{
1000
REACTOR
1002
}
  0
POLYLINE
  5
18FAA
  8
AM_0
 10
746.11220951745122
 20
391.05542294990374
 30
0.0
 66
     1
 70
     8
  0
VERTEX
  8
AM_0
  5
1D05E
 10
746.112
 20
391.055
 30
0.000000
  70
    32
  0
VERTEX
  8
AM_0
  5
1D05F
 10
746.099
 20
391.044
 30
0.000000
  70
    32
  0
VERTEX
  8
AM_0
  5
1D060
 10
746.087
 20
391.033
 30
0.000000
  70
    32
  0
VERTEX
  8
AM_0
  5
1D061
 10
746.074
 20
391.022
 30
0.000000
  70
    32
  0
VERTEX
  8
AM_0
  5
1D062
 10
746.061
 20
391.011
 30
0.000000
  70
    32
  0
VERTEX
  8
AM_0
  5
1D063
 10
746.048
 20
391.000
 30
0.000000
  70
    32
  0
VERTEX
  8
AM_0
  5
1D064
 10
746.035
 20
390.990
 30
0.000000
  70
    32
  0
VERTEX
  8
AM_0
  5
1D065
 10
746.022
 20
390.979
 30
0.000000
  70
    32
  0
VERTEX
  8
AM_0
  5
1D066
 10
746.009
 20
390.968
 30
0.000000
  70
    32
  0
VERTEX
  8
AM_0
  5
1D067
 10
745.995
 20
390.958
 30
0.000000
  70
    32
  0
VERTEX
  8
AM_0
  5
1D068
 10
745.982
 20
390.947
 30
0.000000
  70
    32
  0
VERTEX
  8
AM_0
  5
1D069
 10
745.969
 20
390.937
 30
0.000000
  70
    32
  0
VERTEX
  8
AM_0
  5
1D06A
 10
745.955
 20
390.926
 30
0.000000
  70
    32
  0
VERTEX
  8
AM_0
  5
1D06B
 10
745.942
 20
390.916
 30
0.000000
  70
    32
  0
VERTEX
  8
AM_0
  5
1D06C
 10
745.928
 20
390.906
 30
0.000000
  70
    32
  0
VERTEX
  8
AM_0
  5
1D06D
 10
745.915
 20
390.896
 30
0.000000
  70
    32
  0
VERTEX
  8
AM_0
  5
1D06E
 10
745.901
 20
390.886
 30
0.000000
  70
    32
  0
VERTEX
  8
AM_0
  5
1D06F
 10
745.887
 20
390.876
 30
0.000000
  70
    32
  0
VERTEX
  8
AM_0
  5
1D070
 10
745.874
 20
390.866
 30
0.000000
  70
    32
  0
VERTEX
  8
AM_0
  5
1D071
 10
745.860
 20
390.856
 30
0.000000
  70
    32
  0
VERTEX
  8
AM_0
  5
1D072
 10
745.846
 20
390.846
 30
0.000000
  70
    32
  0
VERTEX
  8
AM_0
  5
1D073
 10
745.832
 20
390.836
 30
0.000000
  70
    32
  0
VERTEX
  8
AM_0
  5
1D074
 10
745.818
 20
390.827
 30
0.000000
  70
    32
  0
VERTEX
  8
AM_0
  5
1D075
 10
745.804
 20
390.817
 30
0.000000
  70
    32
  0
VERTEX
  8
AM_0
  5
1D076
 10
745.790
 20
390.808
 30
0.000000
  70
    32
  0
VERTEX
  8
AM_0
  5
1D077
 10
745.776
 20
390.799
 30
0.000000
  70
    32
  0
VERTEX
  8
AM_0
  5
1D078
 10
745.762
 20
390.789
 30
0.000000
  70
    32
  0
VERTEX
  8
AM_0
  5
1D079
 10
745.748
 20
390.780
 30
0.000000
  70
    32
  0
VERTEX
  8
AM_0
  5
1D07A
 10
745.733
 20
390.771
 30
0.000000
  70
    32
  0
VERTEX
  8
AM_0
  5
1D07B
 10
745.719
 20
390.762
 30
0.000000
  70
    32
  0
VERTEX
  8
AM_0
  5
1D07C
 10
745.705
 20
390.753
 30
0.000000
  70
    32
  0
VERTEX
  8
AM_0
  5
1D07D
 10
745.690
 20
390.744
 30
0.000000
  70
    32
  0
VERTEX
  8
AM_0
  5
1D07E
 10
745.676
 20
390.735
 30
0.000000
  70
    32
  0
VERTEX
  8
AM_0
  5
1D07F
 10
745.661
 20
390.727
 30
0.000000
  70
    32
  0
VERTEX
  8
AM_0
  5
1D080
 10
745.646
 20
390.718
 30
0.000000
  70
    32
  0
VERTEX
  8
AM_0
  5
1D081
 10
745.632
 20
390.710
 30
0.000000
  70
    32
  0
VERTEX
  8
AM_0
  5
1D082
 10
745.617
 20
390.701
 30
0.000000
  70
    32
  0
VERTEX
  8
AM_0
  5
1D083
 10
745.602
 20
390.693
 30
0.000000
  70
    32
  0
VERTEX
  8
AM_0
  5
1D084
 10
745.588
 20
390.685
 30
0.000000
  70
    32
  0
VERTEX
  8
AM_0
  5
1D085
 10
745.573
 20
390.676
 30
0.000000
  70
    32
  0
VERTEX
  8
AM_0
  5
1D086
 10
745.558
 20
390.668
 30
0.000000
  70
    32
  0
VERTEX
  8
AM_0
  5
1D087
 10
745.543
 20
390.660
 30
0.000000
  70
    32
  0
VERTEX
  8
AM_0
  5
1D088
 10
745.528
 20
390.652
 30
0.000000
  70
    32
  0
VERTEX
  8
AM_0
  5
1D089
 10
745.513
 20
390.644
 30
0.000000
  70
    32
  0
VERTEX
  8
AM_0
  5
1D08A
 10
745.498
 20
390.637
 30
0.000000
  70
    32
  0
VERTEX
  8
AM_0
  5
1D08B
 10
745.483
 20
390.629
 30
0.000000
  70
    32
  0
VERTEX
  8
AM_0
  5
1D08C
 10
745.468
 20
390.621
 30
0.000000
  70
    32
  0
VERTEX
  8
AM_0
  5
1D08D
 10
745.453
 20
390.614
 30
0.000000
  70
    32
  0
VERTEX
  8
AM_0
  5
1D08E
 10
745.437
 20
390.606
 30
0.000000
  70
    32
  0
VERTEX
  8
AM_0
  5
1D08F
 10
745.422
 20
390.599
 30
0.000000
  70
    32
  0
VERTEX
  8
AM_0
  5
1D090
 10
745.407
 20
390.592
 30
0.000000
  70
    32
  0
VERTEX
  8
AM_0
  5
1D091
 10
745.392
 20
390.585
 30
0.000000
  70
    32
  0
VERTEX
  8
AM_0
  5
1D092
 10
745.376
 20
390.577
 30
0.000000
  70
    32
  0
VERTEX
  8
AM_0
  5
1D093
 10
745.361
 20
390.570
 30
0.000000
  70
    32
  0
VERTEX
  8
AM_0
  5
1D094
 10
745.345
 20
390.564
 30
0.000000
  70
    32
  0
VERTEX
  8
AM_0
  5
1D095
 10
745.330
 20
390.557
 30
0.000000
  70
    32
  0
VERTEX
  8
AM_0
  5
1D096
 10
745.314
 20
390.550
 30
0.000000
  70
    32
  0
VERTEX
  8
AM_0
  5
1D097
 10
745.299
 20
390.543
 30
0.000000
  70
    32
  0
VERTEX
  8
AM_0
  5
1D098
 10
745.283
 20
390.537
 30
0.000000
  70
    32
  0
VERTEX
  8
AM_0
  5
1D099
 10
745.267
 20
390.530
 30
0.000000
  70
    32
  0
VERTEX
  8
AM_0
  5
1D09A
 10
745.252
 20
390.524
 30
0.000000
  70
    32
  0
VERTEX
  8
AM_0
  5
1D09B
 10
745.236
 20
390.518
 30
0.000000
  70
    32
  0
VERTEX
  8
AM_0
  5
1D09C
 10
745.220
 20
390.511
 30
0.000000
  70
    32
  0
VERTEX
  8
AM_0
  5
1D09D
 10
745.204
 20
390.505
 30
0.000000
  70
    32
  0
VERTEX
  8
AM_0
  5
1D09E
 10
745.189
 20
390.499
 30
0.000000
  70
    32
  0
VERTEX
  8
AM_0
  5
1D09F
 10
745.173
 20
390.493
 30
0.000000
  70
    32
  0
VERTEX
  8
AM_0
  5
1D0A0
 10
745.157
 20
390.487
 30
0.000000
  70
    32
  0
VERTEX
  8
AM_0
  5
1D0A1
 10
745.141
 20
390.482
 30
0.000000
  70
    32
  0
VERTEX
  8
AM_0
  5
1D0A2
 10
745.125
 20
390.476
 30
0.000000
  70
    32
  0
VERTEX
  8
AM_0
  5
1D0A3
 10
745.109
 20
390.470
 30
0.000000
  70
    32
  0
VERTEX
  8
AM_0
  5
1D0A4
 10
745.093
 20
390.465
 30
0.000000
  70
    32
  0
VERTEX
  8
AM_0
  5
1D0A5
 10
745.077
 20
390.459
 30
0.000000
  70
    32
  0
VERTEX
  8
AM_0
  5
1D0A6
 10
745.061
 20
390.454
 30
0.000000
  70
    32
  0
VERTEX
  8
AM_0
  5
1D0A7
 10
745.045
 20
390.449
 30
0.000000
  70
    32
  0
VERTEX
  8
AM_0
  5
1D0A8
 10
745.029
 20
390.444
 30
0.000000
  70
    32
  0
VERTEX
  8
AM_0
  5
1D0A9
 10
745.012
 20
390.439
 30
0.000000
  70
    32
  0
VERTEX
  8
AM_0
  5
1D0AA
 10
744.996
 20
390.434
 30
0.000000
  70
    32
  0
VERTEX
  8
AM_0
  5
1D0AB
 10
744.980
 20
390.429
 30
0.000000
  70
    32
  0
VERTEX
  8
AM_0
  5
1D0AC
 10
744.964
 20
390.424
 30
0.000000
  70
    32
  0
VERTEX
  8
AM_0
  5
1D0AD
 10
744.947
 20
390.420
 30
0.000000
  70
    32
  0
VERTEX
  8
AM_0
  5
1D0AE
 10
744.931
 20
390.415
 30
0.000000
  70
    32
  0
VERTEX
  8
AM_0
  5
1D0AF
 10
744.915
 20
390.410
 30
0.000000
  70
    32
  0
VERTEX
  8
AM_0
  5
1D0B0
 10
744.898
 20
390.406
 30
0.000000
  70
    32
  0
VERTEX
  8
AM_0
  5
1D0B1
 10
744.882
 20
390.402
 30
0.000000
  70
    32
  0
VERTEX
  8
AM_0
  5
1D0B2
 10
744.866
 20
390.398
 30
0.000000
  70
    32
  0
VERTEX
  8
AM_0
  5
1D0B3
 10
744.849
 20
390.393
 30
0.000000
  70
    32
  0
VERTEX
  8
AM_0
  5
1D0B4
 10
744.833
 20
390.389
 30
0.000000
  70
    32
  0
VERTEX
  8
AM_0
  5
1D0B5
 10
744.816
 20
390.385
 30
0.000000
  70
    32
  0
VERTEX
  8
AM_0
  5
1D0B6
 10
744.800
 20
390.382
 30
0.000000
  70
    32
  0
VERTEX
  8
AM_0
  5
1D0B7
 10
744.783
 20
390.378
 30
0.000000
  70
    32
  0
VERTEX
  8
AM_0
  5
1D0B8
 10
744.767
 20
390.374
 30
0.000000
  70
    32
  0
VERTEX
  8
AM_0
  5
1D0B9
 10
744.750
 20
390.371
 30
0.000000
  70
    32
  0
VERTEX
  8
AM_0
  5
1D0BA
 10
744.734
 20
390.367
 30
0.000000
  70
    32
  0
VERTEX
  8
AM_0
  5
1D0BB
 10
744.717
 20
390.364
 30
0.000000
  70
    32
  0
VERTEX
  8
AM_0
  5
1D0BC
 10
744.700
 20
390.361
 30
0.000000
  70
    32
  0
VERTEX
  8
AM_0
  5
1D0BD
 10
744.684
 20
390.357
 30
0.000000
  70
    32
  0
VERTEX
  8
AM_0
  5
1D0BE
 10
744.667
 20
390.354
 30
0.000000
  70
    32
  0
VERTEX
  8
AM_0
  5
1D0BF
 10
744.650
 20
390.351
 30
0.000000
  70
    32
  0
VERTEX
  8
AM_0
  5
1D0C0
 10
744.634
 20
390.348
 30
0.000000
  70
    32
  0
VERTEX
  8
AM_0
  5
1D0C1
 10
744.617
 20
390.346
 30
0.000000
  70
    32
  0
VERTEX
  8
AM_0
  5
1D0C2
 10
744.600
 20
390.343
 30
0.000000
  70
    32
  0
VERTEX
  8
AM_0
  5
1D0C3
 10
744.583
 20
390.340
 30
0.000000
  70
    32
  0
VERTEX
  8
AM_0
  5
1D0C4
 10
744.567
 20
390.338
 30
0.000000
  70
    32
  0
VERTEX
  8
AM_0
  5
1D0C5
 10
744.550
 20
390.335
 30
0.000000
  70
    32
  0
VERTEX
  8
AM_0
  5
1D0C6
 10
744.533
 20
390.333
 30
0.000000
  70
    32
  0
VERTEX
  8
AM_0
  5
1D0C7
 10
744.516
 20
390.331
 30
0.000000
  70
    32
  0
VERTEX
  8
AM_0
  5
1D0C8
 10
744.500
 20
390.329
 30
0.000000
  70
    32
  0
VERTEX
  8
AM_0
  5
1D0C9
 10
744.483
 20
390.326
 30
0.000000
  70
    32
  0
VERTEX
  8
AM_0
  5
1D0CA
 10
744.466
 20
390.325
 30
0.000000
  70
    32
  0
VERTEX
  8
AM_0
  5
1D0CB
 10
744.449
 20
390.323
 30
0.000000
  70
    32
  0
VERTEX
  8
AM_0
  5
1D0CC
 10
744.432
 20
390.321
 30
0.000000
  70
    32
  0
VERTEX
  8
AM_0
  5
1D0CD
 10
744.415
 20
390.319
 30
0.000000
  70
    32
  0
VERTEX
  8
AM_0
  5
1D0CE
 10
744.399
 20
390.318
 30
0.000000
  70
    32
  0
VERTEX
  8
AM_0
  5
1D0CF
 10
744.382
 20
390.316
 30
0.000000
  70
    32
  0
VERTEX
  8
AM_0
  5
1D0D0
 10
744.365
 20
390.315
 30
0.000000
  70
    32
  0
VERTEX
  8
AM_0
  5
1D0D1
 10
744.348
 20
390.313
 30
0.000000
  70
    32
  0
VERTEX
  8
AM_0
  5
1D0D2
 10
744.331
 20
390.312
 30
0.000000
  70
    32
  0
VERTEX
  8
AM_0
  5
1D0D3
 10
744.314
 20
390.311
 30
0.000000
  70
    32
  0
VERTEX
  8
AM_0
  5
1D0D4
 10
744.297
 20
390.310
 30
0.000000
  70
    32
  0
VERTEX
  8
AM_0
  5
1D0D5
 10
744.280
 20
390.309
 30
0.000000
  70
    32
  0
VERTEX
  8
AM_0
  5
1D0D6
 10
744.263
 20
390.308
 30
0.000000
  70
    32
  0
VERTEX
  8
AM_0
  5
1D0D7
 10
744.246
 20
390.308
 30
0.000000
  70
    32
  0
VERTEX
  8
AM_0
  5
1D0D8
 10
744.230
 20
390.307
 30
0.000000
  70
    32
  0
VERTEX
  8
AM_0
  5
1D0D9
 10
744.213
 20
390.307
 30
0.000000
  70
    32
  0
VERTEX
  8
AM_0
  5
1D0DA
 10
744.196
 20
390.306
 30
0.000000
  70
    32
  0
VERTEX
  8
AM_0
  5
1D0DB
 10
744.179
 20
390.306
 30
0.000000
  70
    32
  0
VERTEX
  8
AM_0
  5
1D0DC
 10
744.162
 20
390.306
 30
0.000000
  70
    32
  0
VERTEX
  8
AM_0
  5
1D0DD
 10
744.145
 20
390.305
 30
0.000000
  70
    32
  0
VERTEX
  8
AM_0
  5
1D0DE
 10
744.128
 20
390.305
 30
0.000000
  70
    32
  0
SEQEND
  8
AM_0
  5
1D0DF
  0
LINE
  5
18FB8
  8
AM_0
 10
747.09652229475125
 20
381.30524187140321
 30
0.0
 11
759.09652229835126
 21
381.30524187140333
 31
0.0
  0
LINE
  5
18FBA
  8
AM_0
 10
759.09651621867727
 20
391.80545672109139
 30
0.0
 11
748.09651700585709
 21
391.80543732699448
 31
0.0
  0
ARC
  5
194A4
  8
AM_0
 10
592.59654889167837
 20
318.30398187140298
 30
0.0
 40
16.0
 50
108.2099568642828
 51
71.790043135717227
  0
CIRCLE
  5
194A5
  8
ｽﾝﾎﾟｳｾﾝ
 10
592.59654889167837
 20
318.30398187140298
 30
0.0
 40
4.0
  0
LINE
  5
194A6
  8
AM_0
 10
587.59654889167859
 20
337.30398187140298
 30
0.0
 11
597.59654889167825
 21
337.30398187140298
 31
0.0
  0
LINE
  5
194A7
  8
AM_0
 10
597.59654889167825
 20
329.3039818714031
 30
0.0
 11
587.59654889167859
 21
329.3039818714031
 31
0.0
  0
LINE
  5
194A8
  8
AM_0
 10
597.59654889167825
 20
337.30398187140298
 30
0.0
 11
597.59654889167825
 21
329.3039818714031
 31
0.0
  0
LINE
  5
194A9
  8
AM_0
 10
587.59654889167859
 20
329.3039818714031
 30
0.0
 11
587.59654889167859
 21
337.30398187140298
 31
0.0
  0
LINE
  5
194AA
  8
ｶｸﾚｾﾝ2
 10
319.86585689010838
 20
338.30398187140281
 30
0.0
 11
319.86585689010838
 21
298.30398187140332
 31
0.0
  0
LINE
  5
194AB
  8
AM_0
 10
377.86585689010832
 20
302.30398187140281
 30
0.0
 11
377.86585689010832
 21
337.30398187140281
 31
0.0
  0
LINE
  5
194AC
  8
ｶｸﾚｾﾝ2
 10
291.86585896716872
 20
343.30398262396147
 30
0.0
 11
291.86585896716872
 21
293.30398111884551
 31
0.0
  0
LINE
  5
194AE
  8
0
 10
377.86585689010832
 20
302.30398187140281
 30
0.0
 11
322.86585689010838
 21
302.30398187140281
 31
0.0
  0
LINE
  5
194AF
  8
ｶｸﾚｾﾝ2
 10
286.86585881665712
 20
293.30398111884551
 30
0.0
 11
291.86585896716872
 21
293.30398111884551
 31
0.0
  0
LINE
  5
194B0
  8
ｶｸﾚｾﾝ2
 10
319.86585689010838
 20
298.30398187140332
 30
0.0
 11
291.86585896716872
 21
293.30398111884551
 31
0.0
  0
LINE
  5
194B1
  8
0
 10
377.86585689010832
 20
334.30398187140332
 30
0.0
 11
322.86585689010838
 21
334.30398187140332
 31
0.0
  0
LINE
  5
194B2
  8
ｶｸﾚｾﾝ2
 10
286.86585881665712
 20
343.30398262396147
 30
0.0
 11
291.86585896716872
 21
343.30398262396147
 31
0.0
  0
LINE
  5
194B3
  8
ｶｸﾚｾﾝ2
 10
319.86585689010838
 20
338.30398187140332
 30
0.0
 11
291.86585896716872
 21
343.30398262396147
 31
0.0
  0
LINE
  5
194B4
  8
0
 10
377.86585689010832
 20
337.30398187140281
 30
0.0
 11
332.86585689010838
 21
337.30398187140281
 31
0.0
  0
LINE
  5
194B5
  8
0
 10
332.86585689010838
 20
337.30398187140281
 30
0.0
 11
332.86585689010838
 21
334.30398187140332
 31
0.0
  0
CIRCLE
  5
1962A
  8
AM_0
 10
592.59654889167837
 20
318.30398187140298
 30
0.0
 40
3.399999999999999
  0
LINE
  5
1962D
  8
ﾁｭｳｼﾝｾﾝ1
 10
692.59654889167837
 20
403.30398187140332
 30
0.0
 11
692.59654889167837
 21
433.3039818714031
 31
0.0
  0
LINE
  5
1962E
  8
ﾁｭｳｼﾝｾﾝ1
 10
677.59654889167859
 20
418.30398187140281
 30
0.0
 11
707.59654889167859
 21
418.30398187140281
 31
0.0
  0
LINE
  5
1962F
  8
ﾁｭｳｼﾝｾﾝ1
 10
692.59654889167837
 20
203.30398187140301
 30
0.0
 11
692.59654889167837
 21
233.3039818714031
 31
0.0
  0
LINE
  5
19630
  8
ﾁｭｳｼﾝｾﾝ1
 10
677.59654889167859
 20
218.3039818714029
 30
0.0
 11
707.59654889167859
 21
218.30398187140281
 31
0.0
  0
LINE
  5
19631
  8
ﾁｭｳｼﾝｾﾝ1
 10
547.59652002972678
 20
203.30398187140369
 30
0.0
 11
547.59652002972678
 21
233.30398187140369
 31
0.0
  0
LINE
  5
19632
  8
ﾁｭｳｼﾝｾﾝ1
 10
532.59652002972655
 20
218.30398187140361
 30
0.0
 11
562.59652002972689
 21
218.30398187140361
 31
0.0
  0
LINE
  5
19634
  8
ｶｸﾚｾﾝ2
 10
322.86585687858548
 20
334.30398187140332
 30
0.0
 11
319.86585689010832
 21
334.30398187140321
 31
0.0
  0
LINE
  5
19636
  8
ｶｸﾚｾﾝ2
 10
322.86585689010838
 20
302.30398187140281
 30
0.0
 11
319.86585689010838
 21
302.30398187140281
 31
0.0
  0
LINE
  5
196E4
  8
AM_0
 10
542.59554769956185
 20
764.36388225923815
 30
0.0
 11
642.59755008379523
 21
764.36388225923815
 31
0.0
  0
LINE
  5
196E5
  8
AM_0
 10
720.97316182689451
 20
759.36388210872667
 30
0.0
 11
519.21990709451575
 21
759.36388210872667
 31
0.0
  0
LINE
  5
196E6
  8
AM_0
 10
722.59652228740117
 20
666.36387909849464
 30
0.0
 11
517.59654663400397
 21
666.36387909849452
 31
0.0
  0
LINE
  5
196E7
  8
ﾁｭｳｼﾝｾﾝ1
 10
1062.45
 20
700.36387623971916
 30
0.0
 11
512.59654663400408
 21
700.36388123971915
 31
0.0
  0
LINE
  5
19727
  8
AM_0
 10
745.09657621447764
 20
770.86527390053027
 30
0.0
 11
745.09657621447752
 21
700.36387844493447
 31
0.0
  0
LINE
  5
19728
  8
AM_0
 10
720.97316182689451
 20
759.36388210872667
 30
0.0
 11
722.59652228746643
 21
666.36387909849464
 31
0.0
  0
LINE
  5
1972A
  8
AM_0
 10
759.09657621867746
 20
626.86389223971923
 30
0.0
 11
759.09657621867757
 21
773.86388123971915
 31
0.0
  0
ARC
  5
1972C
  8
AM_0
 10
737.81648867096919
 20
630.3624593956888
 30
0.0
 40
2.0
 50
184.99999999999969
 51
269.99993053332793
1001
GENIUS_GENODEF_13
1002
{
1000
HIER
1070
     0
1002
}
1002
{
1000
MANEDIT
1070
     0
1002
}
1002
{
1000
NOSEL
1070
     0
1002
}
1002
{
1000
BEHIND
1070
     0
1002
}
1002
{
1000
OTHER
1070
     0
1002
}
1002
{
1000
REACTOR
1002
}
1001
GENIUS_GENOBJ-N-FIL_13
1002
{
1000
OWNER
1000
GEN
1002
}
  0
LINE
  5
1972D
  8
AM_0
 10
745.09657621447752
 20
629.86248298933879
 30
0.0
 11
745.09657621447752
 21
700.36387844493447
 31
0.0
  0
LINE
  5
19736
  8
AM_0
 10
759.09657013900403
 20
626.86240359524641
 30
0.0
 11
748.09657092618374
 21
626.86242298934337
 31
0.0
  0
LINE
  5
19737
  8
AM_0
 10
744.12795429737105
 20
628.36245174352712
 30
0.0
 11
737.81648624612478
 21
628.36245939569062
 31
0.0
  0
POLYLINE
  5
19738
  8
AM_0
 10
744.12795429737071
 20
628.36245174352712
 30
0.0
 66
     1
 70
     8
  0
VERTEX
  8
AM_0
  5
1D0E0
 10
744.128
 20
628.362
 30
0.000000
  70
    32
  0
VERTEX
  8
AM_0
  5
1D0E1
 10
744.145
 20
628.362
 30
0.000000
  70
    32
  0
VERTEX
  8
AM_0
  5
1D0E2
 10
744.162
 20
628.362
 30
0.000000
  70
    32
  0
VERTEX
  8
AM_0
  5
1D0E3
 10
744.179
 20
628.362
 30
0.000000
  70
    32
  0
VERTEX
  8
AM_0
  5
1D0E4
 10
744.196
 20
628.362
 30
0.000000
  70
    32
  0
VERTEX
  8
AM_0
  5
1D0E5
 10
744.213
 20
628.361
 30
0.000000
  70
    32
  0
VERTEX
  8
AM_0
  5
1D0E6
 10
744.230
 20
628.361
 30
0.000000
  70
    32
  0
VERTEX
  8
AM_0
  5
1D0E7
 10
744.246
 20
628.360
 30
0.000000
  70
    32
  0
VERTEX
  8
AM_0
  5
1D0E8
 10
744.263
 20
628.359
 30
0.000000
  70
    32
  0
VERTEX
  8
AM_0
  5
1D0E9
 10
744.280
 20
628.359
 30
0.000000
  70
    32
  0
VERTEX
  8
AM_0
  5
1D0EA
 10
744.297
 20
628.358
 30
0.000000
  70
    32
  0
VERTEX
  8
AM_0
  5
1D0EB
 10
744.314
 20
628.357
 30
0.000000
  70
    32
  0
VERTEX
  8
AM_0
  5
1D0EC
 10
744.331
 20
628.356
 30
0.000000
  70
    32
  0
VERTEX
  8
AM_0
  5
1D0ED
 10
744.348
 20
628.354
 30
0.000000
  70
    32
  0
VERTEX
  8
AM_0
  5
1D0EE
 10
744.365
 20
628.353
 30
0.000000
  70
    32
  0
VERTEX
  8
AM_0
  5
1D0EF
 10
744.382
 20
628.352
 30
0.000000
  70
    32
  0
VERTEX
  8
AM_0
  5
1D0F0
 10
744.399
 20
628.350
 30
0.000000
  70
    32
  0
VERTEX
  8
AM_0
  5
1D0F1
 10
744.415
 20
628.349
 30
0.000000
  70
    32
  0
VERTEX
  8
AM_0
  5
1D0F2
 10
744.432
 20
628.347
 30
0.000000
  70
    32
  0
VERTEX
  8
AM_0
  5
1D0F3
 10
744.449
 20
628.345
 30
0.000000
  70
    32
  0
VERTEX
  8
AM_0
  5
1D0F4
 10
744.466
 20
628.343
 30
0.000000
  70
    32
  0
VERTEX
  8
AM_0
  5
1D0F5
 10
744.483
 20
628.341
 30
0.000000
  70
    32
  0
VERTEX
  8
AM_0
  5
1D0F6
 10
744.500
 20
628.339
 30
0.000000
  70
    32
  0
VERTEX
  8
AM_0
  5
1D0F7
 10
744.516
 20
628.337
 30
0.000000
  70
    32
  0
VERTEX
  8
AM_0
  5
1D0F8
 10
744.533
 20
628.335
 30
0.000000
  70
    32
  0
VERTEX
  8
AM_0
  5
1D0F9
 10
744.550
 20
628.333
 30
0.000000
  70
    32
  0
VERTEX
  8
AM_0
  5
1D0FA
 10
744.567
 20
628.330
 30
0.000000
  70
    32
  0
VERTEX
  8
AM_0
  5
1D0FB
 10
744.584
 20
628.328
 30
0.000000
  70
    32
  0
VERTEX
  8
AM_0
  5
1D0FC
 10
744.600
 20
628.325
 30
0.000000
  70
    32
  0
VERTEX
  8
AM_0
  5
1D0FD
 10
744.617
 20
628.322
 30
0.000000
  70
    32
  0
VERTEX
  8
AM_0
  5
1D0FE
 10
744.634
 20
628.320
 30
0.000000
  70
    32
  0
VERTEX
  8
AM_0
  5
1D0FF
 10
744.650
 20
628.317
 30
0.000000
  70
    32
  0
VERTEX
  8
AM_0
  5
1D100
 10
744.667
 20
628.314
 30
0.000000
  70
    32
  0
VERTEX
  8
AM_0
  5
1D101
 10
744.684
 20
628.311
 30
0.000000
  70
    32
  0
VERTEX
  8
AM_0
  5
1D102
 10
744.700
 20
628.307
 30
0.000000
  70
    32
  0
VERTEX
  8
AM_0
  5
1D103
 10
744.717
 20
628.304
 30
0.000000
  70
    32
  0
VERTEX
  8
AM_0
  5
1D104
 10
744.734
 20
628.301
 30
0.000000
  70
    32
  0
VERTEX
  8
AM_0
  5
1D105
 10
744.750
 20
628.297
 30
0.000000
  70
    32
  0
VERTEX
  8
AM_0
  5
1D106
 10
744.767
 20
628.294
 30
0.000000
  70
    32
  0
VERTEX
  8
AM_0
  5
1D107
 10
744.783
 20
628.290
 30
0.000000
  70
    32
  0
VERTEX
  8
AM_0
  5
1D108
 10
744.800
 20
628.286
 30
0.000000
  70
    32
  0
VERTEX
  8
AM_0
  5
1D109
 10
744.816
 20
628.282
 30
0.000000
  70
    32
  0
VERTEX
  8
AM_0
  5
1D10A
 10
744.833
 20
628.278
 30
0.000000
  70
    32
  0
VERTEX
  8
AM_0
  5
1D10B
 10
744.849
 20
628.274
 30
0.000000
  70
    32
  0
VERTEX
  8
AM_0
  5
1D10C
 10
744.866
 20
628.270
 30
0.000000
  70
    32
  0
VERTEX
  8
AM_0
  5
1D10D
 10
744.882
 20
628.266
 30
0.000000
  70
    32
  0
VERTEX
  8
AM_0
  5
1D10E
 10
744.898
 20
628.262
 30
0.000000
  70
    32
  0
VERTEX
  8
AM_0
  5
1D10F
 10
744.915
 20
628.257
 30
0.000000
  70
    32
  0
VERTEX
  8
AM_0
  5
1D110
 10
744.931
 20
628.253
 30
0.000000
  70
    32
  0
VERTEX
  8
AM_0
  5
1D111
 10
744.947
 20
628.248
 30
0.000000
  70
    32
  0
VERTEX
  8
AM_0
  5
1D112
 10
744.964
 20
628.244
 30
0.000000
  70
    32
  0
VERTEX
  8
AM_0
  5
1D113
 10
744.980
 20
628.239
 30
0.000000
  70
    32
  0
VERTEX
  8
AM_0
  5
1D114
 10
744.996
 20
628.234
 30
0.000000
  70
    32
  0
VERTEX
  8
AM_0
  5
1D115
 10
745.012
 20
628.229
 30
0.000000
  70
    32
  0
VERTEX
  8
AM_0
  5
1D116
 10
745.029
 20
628.224
 30
0.000000
  70
    32
  0
VERTEX
  8
AM_0
  5
1D117
 10
745.045
 20
628.219
 30
0.000000
  70
    32
  0
VERTEX
  8
AM_0
  5
1D118
 10
745.061
 20
628.214
 30
0.000000
  70
    32
  0
VERTEX
  8
AM_0
  5
1D119
 10
745.077
 20
628.208
 30
0.000000
  70
    32
  0
VERTEX
  8
AM_0
  5
1D11A
 10
745.093
 20
628.203
 30
0.000000
  70
    32
  0
VERTEX
  8
AM_0
  5
1D11B
 10
745.109
 20
628.198
 30
0.000000
  70
    32
  0
VERTEX
  8
AM_0
  5
1D11C
 10
745.125
 20
628.192
 30
0.000000
  70
    32
  0
VERTEX
  8
AM_0
  5
1D11D
 10
745.141
 20
628.186
 30
0.000000
  70
    32
  0
VERTEX
  8
AM_0
  5
1D11E
 10
745.157
 20
628.180
 30
0.000000
  70
    32
  0
VERTEX
  8
AM_0
  5
1D11F
 10
745.173
 20
628.175
 30
0.000000
  70
    32
  0
VERTEX
  8
AM_0
  5
1D120
 10
745.189
 20
628.169
 30
0.000000
  70
    32
  0
VERTEX
  8
AM_0
  5
1D121
 10
745.204
 20
628.163
 30
0.000000
  70
    32
  0
VERTEX
  8
AM_0
  5
1D122
 10
745.220
 20
628.157
 30
0.000000
  70
    32
  0
VERTEX
  8
AM_0
  5
1D123
 10
745.236
 20
628.150
 30
0.000000
  70
    32
  0
VERTEX
  8
AM_0
  5
1D124
 10
745.252
 20
628.144
 30
0.000000
  70
    32
  0
VERTEX
  8
AM_0
  5
1D125
 10
745.267
 20
628.138
 30
0.000000
  70
    32
  0
VERTEX
  8
AM_0
  5
1D126
 10
745.283
 20
628.131
 30
0.000000
  70
    32
  0
VERTEX
  8
AM_0
  5
1D127
 10
745.299
 20
628.125
 30
0.000000
  70
    32
  0
VERTEX
  8
AM_0
  5
1D128
 10
745.314
 20
628.118
 30
0.000000
  70
    32
  0
VERTEX
  8
AM_0
  5
1D129
 10
745.330
 20
628.111
 30
0.000000
  70
    32
  0
VERTEX
  8
AM_0
  5
1D12A
 10
745.345
 20
628.104
 30
0.000000
  70
    32
  0
VERTEX
  8
AM_0
  5
1D12B
 10
745.361
 20
628.097
 30
0.000000
  70
    32
  0
VERTEX
  8
AM_0
  5
1D12C
 10
745.376
 20
628.090
 30
0.000000
  70
    32
  0
VERTEX
  8
AM_0
  5
1D12D
 10
745.392
 20
628.083
 30
0.000000
  70
    32
  0
VERTEX
  8
AM_0
  5
1D12E
 10
745.407
 20
628.076
 30
0.000000
  70
    32
  0
VERTEX
  8
AM_0
  5
1D12F
 10
745.422
 20
628.069
 30
0.000000
  70
    32
  0
VERTEX
  8
AM_0
  5
1D130
 10
745.437
 20
628.062
 30
0.000000
  70
    32
  0
VERTEX
  8
AM_0
  5
1D131
 10
745.453
 20
628.054
 30
0.000000
  70
    32
  0
VERTEX
  8
AM_0
  5
1D132
 10
745.468
 20
628.047
 30
0.000000
  70
    32
  0
VERTEX
  8
AM_0
  5
1D133
 10
745.483
 20
628.039
 30
0.000000
  70
    32
  0
VERTEX
  8
AM_0
  5
1D134
 10
745.498
 20
628.031
 30
0.000000
  70
    32
  0
VERTEX
  8
AM_0
  5
1D135
 10
745.513
 20
628.024
 30
0.000000
  70
    32
  0
VERTEX
  8
AM_0
  5
1D136
 10
745.528
 20
628.016
 30
0.000000
  70
    32
  0
VERTEX
  8
AM_0
  5
1D137
 10
745.543
 20
628.008
 30
0.000000
  70
    32
  0
VERTEX
  8
AM_0
  5
1D138
 10
745.558
 20
628.000
 30
0.000000
  70
    32
  0
VERTEX
  8
AM_0
  5
1D139
 10
745.573
 20
627.992
 30
0.000000
  70
    32
  0
VERTEX
  8
AM_0
  5
1D13A
 10
745.588
 20
627.983
 30
0.000000
  70
    32
  0
VERTEX
  8
AM_0
  5
1D13B
 10
745.602
 20
627.975
 30
0.000000
  70
    32
  0
VERTEX
  8
AM_0
  5
1D13C
 10
745.617
 20
627.967
 30
0.000000
  70
    32
  0
VERTEX
  8
AM_0
  5
1D13D
 10
745.632
 20
627.958
 30
0.000000
  70
    32
  0
VERTEX
  8
AM_0
  5
1D13E
 10
745.647
 20
627.950
 30
0.000000
  70
    32
  0
VERTEX
  8
AM_0
  5
1D13F
 10
745.661
 20
627.941
 30
0.000000
  70
    32
  0
VERTEX
  8
AM_0
  5
1D140
 10
745.676
 20
627.932
 30
0.000000
  70
    32
  0
VERTEX
  8
AM_0
  5
1D141
 10
745.690
 20
627.924
 30
0.000000
  70
    32
  0
VERTEX
  8
AM_0
  5
1D142
 10
745.705
 20
627.915
 30
0.000000
  70
    32
  0
VERTEX
  8
AM_0
  5
1D143
 10
745.719
 20
627.906
 30
0.000000
  70
    32
  0
VERTEX
  8
AM_0
  5
1D144
 10
745.733
 20
627.897
 30
0.000000
  70
    32
  0
VERTEX
  8
AM_0
  5
1D145
 10
745.748
 20
627.888
 30
0.000000
  70
    32
  0
VERTEX
  8
AM_0
  5
1D146
 10
745.762
 20
627.879
 30
0.000000
  70
    32
  0
VERTEX
  8
AM_0
  5
1D147
 10
745.776
 20
627.869
 30
0.000000
  70
    32
  0
VERTEX
  8
AM_0
  5
1D148
 10
745.790
 20
627.860
 30
0.000000
  70
    32
  0
VERTEX
  8
AM_0
  5
1D149
 10
745.804
 20
627.850
 30
0.000000
  70
    32
  0
VERTEX
  8
AM_0
  5
1D14A
 10
745.818
 20
627.841
 30
0.000000
  70
    32
  0
VERTEX
  8
AM_0
  5
1D14B
 10
745.832
 20
627.831
 30
0.000000
  70
    32
  0
VERTEX
  8
AM_0
  5
1D14C
 10
745.846
 20
627.822
 30
0.000000
  70
    32
  0
VERTEX
  8
AM_0
  5
1D14D
 10
745.860
 20
627.812
 30
0.000000
  70
    32
  0
VERTEX
  8
AM_0
  5
1D14E
 10
745.874
 20
627.802
 30
0.000000
  70
    32
  0
VERTEX
  8
AM_0
  5
1D14F
 10
745.887
 20
627.792
 30
0.000000
  70
    32
  0
VERTEX
  8
AM_0
  5
1D150
 10
745.901
 20
627.782
 30
0.000000
  70
    32
  0
VERTEX
  8
AM_0
  5
1D151
 10
745.915
 20
627.772
 30
0.000000
  70
    32
  0
VERTEX
  8
AM_0
  5
1D152
 10
745.928
 20
627.762
 30
0.000000
  70
    32
  0
VERTEX
  8
AM_0
  5
1D153
 10
745.942
 20
627.752
 30
0.000000
  70
    32
  0
VERTEX
  8
AM_0
  5
1D154
 10
745.955
 20
627.742
 30
0.000000
  70
    32
  0
VERTEX
  8
AM_0
  5
1D155
 10
745.969
 20
627.731
 30
0.000000
  70
    32
  0
VERTEX
  8
AM_0
  5
1D156
 10
745.982
 20
627.721
 30
0.000000
  70
    32
  0
VERTEX
  8
AM_0
  5
1D157
 10
745.995
 20
627.710
 30
0.000000
  70
    32
  0
VERTEX
  8
AM_0
  5
1D158
 10
746.009
 20
627.700
 30
0.000000
  70
    32
  0
VERTEX
  8
AM_0
  5
1D159
 10
746.022
 20
627.689
 30
0.000000
  70
    32
  0
VERTEX
  8
AM_0
  5
1D15A
 10
746.035
 20
627.678
 30
0.000000
  70
    32
  0
VERTEX
  8
AM_0
  5
1D15B
 10
746.048
 20
627.668
 30
0.000000
  70
    32
  0
VERTEX
  8
AM_0
  5
1D15C
 10
746.061
 20
627.657
 30
0.000000
  70
    32
  0
VERTEX
  8
AM_0
  5
1D15D
 10
746.074
 20
627.646
 30
0.000000
  70
    32
  0
VERTEX
  8
AM_0
  5
1D15E
 10
746.087
 20
627.635
 30
0.000000
  70
    32
  0
VERTEX
  8
AM_0
  5
1D15F
 10
746.100
 20
627.624
 30
0.000000
  70
    32
  0
VERTEX
  8
AM_0
  5
1D160
 10
746.112
 20
627.612
 30
0.000000
  70
    32
  0
SEQEND
  8
AM_0
  5
1D161
  0
POLYLINE
  5
19739
  8
AM_0
 10
748.09657092618386
 20
626.86242298934349
 30
0.0
 66
     1
 70
     8
  0
VERTEX
  8
AM_0
  5
1D162
 10
748.097
 20
626.862
 30
0.000000
  70
    32
  0
VERTEX
  8
AM_0
  5
1D163
 10
748.080
 20
626.862
 30
0.000000
  70
    32
  0
VERTEX
  8
AM_0
  5
1D164
 10
748.063
 20
626.863
 30
0.000000
  70
    32
  0
VERTEX
  8
AM_0
  5
1D165
 10
748.046
 20
626.863
 30
0.000000
  70
    32
  0
VERTEX
  8
AM_0
  5
1D166
 10
748.029
 20
626.863
 30
0.000000
  70
    32
  0
VERTEX
  8
AM_0
  5
1D167
 10
748.012
 20
626.864
 30
0.000000
  70
    32
  0
VERTEX
  8
AM_0
  5
1D168
 10
747.995
 20
626.864
 30
0.000000
  70
    32
  0
VERTEX
  8
AM_0
  5
1D169
 10
747.978
 20
626.865
 30
0.000000
  70
    32
  0
VERTEX
  8
AM_0
  5
1D16A
 10
747.961
 20
626.865
 30
0.000000
  70
    32
  0
VERTEX
  8
AM_0
  5
1D16B
 10
747.944
 20
626.866
 30
0.000000
  70
    32
  0
VERTEX
  8
AM_0
  5
1D16C
 10
747.927
 20
626.867
 30
0.000000
  70
    32
  0
VERTEX
  8
AM_0
  5
1D16D
 10
747.910
 20
626.868
 30
0.000000
  70
    32
  0
VERTEX
  8
AM_0
  5
1D16E
 10
747.893
 20
626.869
 30
0.000000
  70
    32
  0
VERTEX
  8
AM_0
  5
1D16F
 10
747.877
 20
626.871
 30
0.000000
  70
    32
  0
VERTEX
  8
AM_0
  5
1D170
 10
747.860
 20
626.872
 30
0.000000
  70
    32
  0
VERTEX
  8
AM_0
  5
1D171
 10
747.843
 20
626.873
 30
0.000000
  70
    32
  0
VERTEX
  8
AM_0
  5
1D172
 10
747.826
 20
626.875
 30
0.000000
  70
    32
  0
VERTEX
  8
AM_0
  5
1D173
 10
747.809
 20
626.876
 30
0.000000
  70
    32
  0
VERTEX
  8
AM_0
  5
1D174
 10
747.792
 20
626.878
 30
0.000000
  70
    32
  0
VERTEX
  8
AM_0
  5
1D175
 10
747.775
 20
626.880
 30
0.000000
  70
    32
  0
VERTEX
  8
AM_0
  5
1D176
 10
747.759
 20
626.882
 30
0.000000
  70
    32
  0
VERTEX
  8
AM_0
  5
1D177
 10
747.742
 20
626.883
 30
0.000000
  70
    32
  0
VERTEX
  8
AM_0
  5
1D178
 10
747.725
 20
626.886
 30
0.000000
  70
    32
  0
VERTEX
  8
AM_0
  5
1D179
 10
747.708
 20
626.888
 30
0.000000
  70
    32
  0
VERTEX
  8
AM_0
  5
1D17A
 10
747.691
 20
626.890
 30
0.000000
  70
    32
  0
VERTEX
  8
AM_0
  5
1D17B
 10
747.675
 20
626.892
 30
0.000000
  70
    32
  0
VERTEX
  8
AM_0
  5
1D17C
 10
747.658
 20
626.895
 30
0.000000
  70
    32
  0
VERTEX
  8
AM_0
  5
1D17D
 10
747.641
 20
626.897
 30
0.000000
  70
    32
  0
VERTEX
  8
AM_0
  5
1D17E
 10
747.624
 20
626.900
 30
0.000000
  70
    32
  0
VERTEX
  8
AM_0
  5
1D17F
 10
747.608
 20
626.903
 30
0.000000
  70
    32
  0
VERTEX
  8
AM_0
  5
1D180
 10
747.591
 20
626.905
 30
0.000000
  70
    32
  0
VERTEX
  8
AM_0
  5
1D181
 10
747.574
 20
626.908
 30
0.000000
  70
    32
  0
VERTEX
  8
AM_0
  5
1D182
 10
747.557
 20
626.911
 30
0.000000
  70
    32
  0
VERTEX
  8
AM_0
  5
1D183
 10
747.541
 20
626.914
 30
0.000000
  70
    32
  0
VERTEX
  8
AM_0
  5
1D184
 10
747.524
 20
626.918
 30
0.000000
  70
    32
  0
VERTEX
  8
AM_0
  5
1D185
 10
747.508
 20
626.921
 30
0.000000
  70
    32
  0
VERTEX
  8
AM_0
  5
1D186
 10
747.491
 20
626.924
 30
0.000000
  70
    32
  0
VERTEX
  8
AM_0
  5
1D187
 10
747.474
 20
626.928
 30
0.000000
  70
    32
  0
VERTEX
  8
AM_0
  5
1D188
 10
747.458
 20
626.931
 30
0.000000
  70
    32
  0
VERTEX
  8
AM_0
  5
1D189
 10
747.441
 20
626.935
 30
0.000000
  70
    32
  0
VERTEX
  8
AM_0
  5
1D18A
 10
747.425
 20
626.939
 30
0.000000
  70
    32
  0
VERTEX
  8
AM_0
  5
1D18B
 10
747.408
 20
626.942
 30
0.000000
  70
    32
  0
VERTEX
  8
AM_0
  5
1D18C
 10
747.392
 20
626.946
 30
0.000000
  70
    32
  0
VERTEX
  8
AM_0
  5
1D18D
 10
747.375
 20
626.950
 30
0.000000
  70
    32
  0
VERTEX
  8
AM_0
  5
1D18E
 10
747.359
 20
626.955
 30
0.000000
  70
    32
  0
VERTEX
  8
AM_0
  5
1D18F
 10
747.342
 20
626.959
 30
0.000000
  70
    32
  0
VERTEX
  8
AM_0
  5
1D190
 10
747.326
 20
626.963
 30
0.000000
  70
    32
  0
VERTEX
  8
AM_0
  5
1D191
 10
747.310
 20
626.967
 30
0.000000
  70
    32
  0
VERTEX
  8
AM_0
  5
1D192
 10
747.293
 20
626.972
 30
0.000000
  70
    32
  0
VERTEX
  8
AM_0
  5
1D193
 10
747.277
 20
626.977
 30
0.000000
  70
    32
  0
VERTEX
  8
AM_0
  5
1D194
 10
747.261
 20
626.981
 30
0.000000
  70
    32
  0
VERTEX
  8
AM_0
  5
1D195
 10
747.245
 20
626.986
 30
0.000000
  70
    32
  0
VERTEX
  8
AM_0
  5
1D196
 10
747.228
 20
626.991
 30
0.000000
  70
    32
  0
VERTEX
  8
AM_0
  5
1D197
 10
747.212
 20
626.996
 30
0.000000
  70
    32
  0
VERTEX
  8
AM_0
  5
1D198
 10
747.196
 20
627.001
 30
0.000000
  70
    32
  0
VERTEX
  8
AM_0
  5
1D199
 10
747.180
 20
627.006
 30
0.000000
  70
    32
  0
VERTEX
  8
AM_0
  5
1D19A
 10
747.164
 20
627.011
 30
0.000000
  70
    32
  0
VERTEX
  8
AM_0
  5
1D19B
 10
747.148
 20
627.016
 30
0.000000
  70
    32
  0
VERTEX
  8
AM_0
  5
1D19C
 10
747.132
 20
627.022
 30
0.000000
  70
    32
  0
VERTEX
  8
AM_0
  5
1D19D
 10
747.116
 20
627.027
 30
0.000000
  70
    32
  0
VERTEX
  8
AM_0
  5
1D19E
 10
747.100
 20
627.033
 30
0.000000
  70
    32
  0
VERTEX
  8
AM_0
  5
1D19F
 10
747.084
 20
627.039
 30
0.000000
  70
    32
  0
VERTEX
  8
AM_0
  5
1D1A0
 10
747.068
 20
627.044
 30
0.000000
  70
    32
  0
VERTEX
  8
AM_0
  5
1D1A1
 10
747.052
 20
627.050
 30
0.000000
  70
    32
  0
VERTEX
  8
AM_0
  5
1D1A2
 10
747.036
 20
627.056
 30
0.000000
  70
    32
  0
VERTEX
  8
AM_0
  5
1D1A3
 10
747.020
 20
627.062
 30
0.000000
  70
    32
  0
VERTEX
  8
AM_0
  5
1D1A4
 10
747.004
 20
627.068
 30
0.000000
  70
    32
  0
VERTEX
  8
AM_0
  5
1D1A5
 10
746.989
 20
627.075
 30
0.000000
  70
    32
  0
VERTEX
  8
AM_0
  5
1D1A6
 10
746.973
 20
627.081
 30
0.000000
  70
    32
  0
VERTEX
  8
AM_0
  5
1D1A7
 10
746.957
 20
627.087
 30
0.000000
  70
    32
  0
VERTEX
  8
AM_0
  5
1D1A8
 10
746.941
 20
627.094
 30
0.000000
  70
    32
  0
VERTEX
  8
AM_0
  5
1D1A9
 10
746.926
 20
627.100
 30
0.000000
  70
    32
  0
VERTEX
  8
AM_0
  5
1D1AA
 10
746.910
 20
627.107
 30
0.000000
  70
    32
  0
VERTEX
  8
AM_0
  5
1D1AB
 10
746.895
 20
627.114
 30
0.000000
  70
    32
  0
VERTEX
  8
AM_0
  5
1D1AC
 10
746.879
 20
627.121
 30
0.000000
  70
    32
  0
VERTEX
  8
AM_0
  5
1D1AD
 10
746.864
 20
627.127
 30
0.000000
  70
    32
  0
VERTEX
  8
AM_0
  5
1D1AE
 10
746.848
 20
627.134
 30
0.000000
  70
    32
  0
VERTEX
  8
AM_0
  5
1D1AF
 10
746.833
 20
627.142
 30
0.000000
  70
    32
  0
VERTEX
  8
AM_0
  5
1D1B0
 10
746.818
 20
627.149
 30
0.000000
  70
    32
  0
VERTEX
  8
AM_0
  5
1D1B1
 10
746.802
 20
627.156
 30
0.000000
  70
    32
  0
VERTEX
  8
AM_0
  5
1D1B2
 10
746.787
 20
627.163
 30
0.000000
  70
    32
  0
VERTEX
  8
AM_0
  5
1D1B3
 10
746.772
 20
627.171
 30
0.000000
  70
    32
  0
VERTEX
  8
AM_0
  5
1D1B4
 10
746.757
 20
627.178
 30
0.000000
  70
    32
  0
VERTEX
  8
AM_0
  5
1D1B5
 10
746.742
 20
627.186
 30
0.000000
  70
    32
  0
VERTEX
  8
AM_0
  5
1D1B6
 10
746.726
 20
627.194
 30
0.000000
  70
    32
  0
VERTEX
  8
AM_0
  5
1D1B7
 10
746.711
 20
627.201
 30
0.000000
  70
    32
  0
VERTEX
  8
AM_0
  5
1D1B8
 10
746.696
 20
627.209
 30
0.000000
  70
    32
  0
VERTEX
  8
AM_0
  5
1D1B9
 10
746.681
 20
627.217
 30
0.000000
  70
    32
  0
VERTEX
  8
AM_0
  5
1D1BA
 10
746.667
 20
627.225
 30
0.000000
  70
    32
  0
VERTEX
  8
AM_0
  5
1D1BB
 10
746.652
 20
627.233
 30
0.000000
  70
    32
  0
VERTEX
  8
AM_0
  5
1D1BC
 10
746.637
 20
627.242
 30
0.000000
  70
    32
  0
VERTEX
  8
AM_0
  5
1D1BD
 10
746.622
 20
627.250
 30
0.000000
  70
    32
  0
VERTEX
  8
AM_0
  5
1D1BE
 10
746.607
 20
627.258
 30
0.000000
  70
    32
  0
VERTEX
  8
AM_0
  5
1D1BF
 10
746.593
 20
627.267
 30
0.000000
  70
    32
  0
VERTEX
  8
AM_0
  5
1D1C0
 10
746.578
 20
627.275
 30
0.000000
  70
    32
  0
VERTEX
  8
AM_0
  5
1D1C1
 10
746.563
 20
627.284
 30
0.000000
  70
    32
  0
VERTEX
  8
AM_0
  5
1D1C2
 10
746.549
 20
627.292
 30
0.000000
  70
    32
  0
VERTEX
  8
AM_0
  5
1D1C3
 10
746.534
 20
627.301
 30
0.000000
  70
    32
  0
VERTEX
  8
AM_0
  5
1D1C4
 10
746.520
 20
627.310
 30
0.000000
  70
    32
  0
VERTEX
  8
AM_0
  5
1D1C5
 10
746.506
 20
627.319
 30
0.000000
  70
    32
  0
VERTEX
  8
AM_0
  5
1D1C6
 10
746.491
 20
627.328
 30
0.000000
  70
    32
  0
VERTEX
  8
AM_0
  5
1D1C7
 10
746.477
 20
627.337
 30
0.000000
  70
    32
  0
VERTEX
  8
AM_0
  5
1D1C8
 10
746.463
 20
627.346
 30
0.000000
  70
    32
  0
VERTEX
  8
AM_0
  5
1D1C9
 10
746.449
 20
627.356
 30
0.000000
  70
    32
  0
VERTEX
  8
AM_0
  5
1D1CA
 10
746.434
 20
627.365
 30
0.000000
  70
    32
  0
VERTEX
  8
AM_0
  5
1D1CB
 10
746.420
 20
627.374
 30
0.000000
  70
    32
  0
VERTEX
  8
AM_0
  5
1D1CC
 10
746.406
 20
627.384
 30
0.000000
  70
    32
  0
VERTEX
  8
AM_0
  5
1D1CD
 10
746.392
 20
627.393
 30
0.000000
  70
    32
  0
VERTEX
  8
AM_0
  5
1D1CE
 10
746.378
 20
627.403
 30
0.000000
  70
    32
  0
VERTEX
  8
AM_0
  5
1D1CF
 10
746.365
 20
627.413
 30
0.000000
  70
    32
  0
VERTEX
  8
AM_0
  5
1D1D0
 10
746.351
 20
627.423
 30
0.000000
  70
    32
  0
VERTEX
  8
AM_0
  5
1D1D1
 10
746.337
 20
627.433
 30
0.000000
  70
    32
  0
VERTEX
  8
AM_0
  5
1D1D2
 10
746.323
 20
627.443
 30
0.000000
  70
    32
  0
VERTEX
  8
AM_0
  5
1D1D3
 10
746.310
 20
627.453
 30
0.000000
  70
    32
  0
VERTEX
  8
AM_0
  5
1D1D4
 10
746.296
 20
627.463
 30
0.000000
  70
    32
  0
VERTEX
  8
AM_0
  5
1D1D5
 10
746.283
 20
627.473
 30
0.000000
  70
    32
  0
VERTEX
  8
AM_0
  5
1D1D6
 10
746.269
 20
627.483
 30
0.000000
  70
    32
  0
VERTEX
  8
AM_0
  5
1D1D7
 10
746.256
 20
627.494
 30
0.000000
  70
    32
  0
VERTEX
  8
AM_0
  5
1D1D8
 10
746.242
 20
627.504
 30
0.000000
  70
    32
  0
VERTEX
  8
AM_0
  5
1D1D9
 10
746.229
 20
627.515
 30
0.000000
  70
    32
  0
VERTEX
  8
AM_0
  5
1D1DA
 10
746.216
 20
627.525
 30
0.000000
  70
    32
  0
VERTEX
  8
AM_0
  5
1D1DB
 10
746.203
 20
627.536
 30
0.000000
  70
    32
  0
VERTEX
  8
AM_0
  5
1D1DC
 10
746.190
 20
627.547
 30
0.000000
  70
    32
  0
VERTEX
  8
AM_0
  5
1D1DD
 10
746.177
 20
627.557
 30
0.000000
  70
    32
  0
VERTEX
  8
AM_0
  5
1D1DE
 10
746.164
 20
627.568
 30
0.000000
  70
    32
  0
VERTEX
  8
AM_0
  5
1D1DF
 10
746.151
 20
627.579
 30
0.000000
  70
    32
  0
VERTEX
  8
AM_0
  5
1D1E0
 10
746.138
 20
627.590
 30
0.000000
  70
    32
  0
VERTEX
  8
AM_0
  5
1D1E1
 10
746.125
 20
627.601
 30
0.000000
  70
    32
  0
VERTEX
  8
AM_0
  5
1D1E2
 10
746.112
 20
627.612
 30
0.000000
  70
    32
  0
SEQEND
  8
AM_0
  5
1D1E3
  0
LINE
  5
19741
  8
AM_0
 10
747.09657621507552
 20
637.36261844493481
 30
0.0
 11
759.09657621867552
 21
637.36261844493424
 31
0.0
  0
LINE
  5
19742
  8
AM_0
 10
747.09657621507642
 20
661.30214482364158
 30
0.0
 11
759.09657621867632
 21
661.30214482364136
 31
0.0
  0
LINE
  5
19743
  8
AM_0
 10
735.82409927478534
 20
630.18814791019383
 30
0.0
 11
732.64388262214493
 21
666.53819058398972
 31
0.0
  0
ARC
  5
19744
  8
AM_0
 10
730.65149322596164
 20
666.36387909849464
 30
0.0
 40
2.0
 50
4.9999999999997407
 51
90.0
1001
GENIUS_GENOBJ-N-FIL_13
1002
{
1000
OWNER
1000
GEN
1002
}
1001
GENIUS_GENODEF_13
1002
{
1000
HIER
1070
     0
1002
}
1002
{
1000
MANEDIT
1070
     0
1002
}
1002
{
1000
NOSEL
1070
     0
1002
}
1002
{
1000
BEHIND
1070
     0
1002
}
1002
{
1000
OTHER
1070
     0
1002
}
1002
{
1000
REACTOR
1002
}
  0
LINE
  5
19745
  8
AM_0
 10
730.65149322596164
 20
668.36387909849464
 30
0.0
 11
723.57921913457551
 21
668.36387909849464
 31
0.0
  0
ARC
  5
19746
  8
AM_0
 10
723.57921913457585
 20
667.36387909849452
 30
0.0
 40
1.0
 50
90.0
 51
181.0000242476043
1001
GENIUS_GENODEF_13
1002
{
1000
HIER
1070
     0
1002
}
1002
{
1000
MANEDIT
1070
     0
1002
}
1002
{
1000
NOSEL
1070
     0
1002
}
1002
{
1000
BEHIND
1070
     0
1002
}
1002
{
1000
OTHER
1070
     0
1002
}
1002
{
1000
REACTOR
1002
}
1001
GENIUS_GENOBJ-N-FIL_13
1002
{
1000
OWNER
1000
GEN
1002
}
  0
LINE
  5
19747
  8
AM_0
 10
738.76388654364359
 20
757.36388210872701
 30
0.0
 11
722.97346649775886
 21
757.36388210872678
 31
0.0
  0
ARC
  5
19748
  8
AM_0
 10
722.97346649775886
 20
759.36388210872667
 30
0.0
 40
2.0
 50
181.00002424764341
 51
270.0
1001
GENIUS_GENOBJ-N-FIL_13
1002
{
1000
OWNER
1000
GEN
1002
}
1001
GENIUS_GENODEF_13
1002
{
1000
HIER
1070
     0
1002
}
1002
{
1000
MANEDIT
1070
     0
1002
}
1002
{
1000
NOSEL
1070
     0
1002
}
1002
{
1000
BEHIND
1070
     0
1002
}
1002
{
1000
OTHER
1070
     0
1002
}
1002
{
1000
REACTOR
1002
}
  0
LINE
  5
1974E
  8
AM_0
 10
747.09657621507768
 20
739.42561206622759
 30
0.0
 11
759.09657621867757
 21
739.42561206622725
 31
0.0
  0
ARC
  5
19758
  8
AM_0
 10
738.76388654364371
 20
759.36388210872667
 30
0.0
 40
2.0
 50
270.0
 51
355.00000000000028
1001
GENIUS_GENOBJ-N-FIL_13
1002
{
1000
OWNER
1000
GEN
1002
}
1001
GENIUS_GENODEF_13
1002
{
1000
HIER
1070
     0
1002
}
1002
{
1000
MANEDIT
1070
     0
1002
}
1002
{
1000
NOSEL
1070
     0
1002
}
1002
{
1000
BEHIND
1070
     0
1002
}
1002
{
1000
OTHER
1070
     0
1002
}
1002
{
1000
REACTOR
1002
}
  0
LINE
  5
19759
  8
AM_0
 10
759.09657013900403
 20
773.86535329462265
 30
0.0
 11
748.09657092618374
 21
773.86533390052557
 31
0.0
  0
LINE
  5
1975A
  8
AM_0
 10
747.09657621507768
 20
763.36513844493425
 30
0.0
 11
759.0965762186778
 21
763.36513844493425
 31
0.0
  0
LINE
  5
1975B
  8
AM_0
 10
740.75627593982722
 20
759.18957062323182
 30
0.0
 11
741.74927625510259
 21
770.53961616349079
 31
0.0
  0
ARC
  5
1975C
  8
AM_0
 10
743.74166565128633
 20
770.36530467799525
 30
0.0
 40
2.0
 50
90.000069466672116
 51
175.00000000000031
1001
GENIUS_GENOBJ-N-FIL_13
1002
{
1000
OWNER
1000
GEN
1002
}
1001
GENIUS_GENODEF_13
1002
{
1000
HIER
1070
     0
1002
}
1002
{
1000
MANEDIT
1070
     0
1002
}
1002
{
1000
NOSEL
1070
     0
1002
}
1002
{
1000
BEHIND
1070
     0
1002
}
1002
{
1000
OTHER
1070
     0
1002
}
1002
{
1000
REACTOR
1002
}
  0
POLYLINE
  5
1975D
  8
AM_0
 10
746.11226343777798
 20
773.11531952343501
 30
0.0
 66
     1
 70
     8
  0
VERTEX
  8
AM_0
  5
1D1E4
 10
746.112
 20
773.115
 30
0.000000
  70
    32
  0
VERTEX
  8
AM_0
  5
1D1E5
 10
746.100
 20
773.104
 30
0.000000
  70
    32
  0
VERTEX
  8
AM_0
  5
1D1E6
 10
746.087
 20
773.093
 30
0.000000
  70
    32
  0
VERTEX
  8
AM_0
  5
1D1E7
 10
746.074
 20
773.082
 30
0.000000
  70
    32
  0
VERTEX
  8
AM_0
  5
1D1E8
 10
746.061
 20
773.071
 30
0.000000
  70
    32
  0
VERTEX
  8
AM_0
  5
1D1E9
 10
746.048
 20
773.060
 30
0.000000
  70
    32
  0
VERTEX
  8
AM_0
  5
1D1EA
 10
746.035
 20
773.049
 30
0.000000
  70
    32
  0
VERTEX
  8
AM_0
  5
1D1EB
 10
746.022
 20
773.039
 30
0.000000
  70
    32
  0
VERTEX
  8
AM_0
  5
1D1EC
 10
746.009
 20
773.028
 30
0.000000
  70
    32
  0
VERTEX
  8
AM_0
  5
1D1ED
 10
745.995
 20
773.017
 30
0.000000
  70
    32
  0
VERTEX
  8
AM_0
  5
1D1EE
 10
745.982
 20
773.007
 30
0.000000
  70
    32
  0
VERTEX
  8
AM_0
  5
1D1EF
 10
745.969
 20
772.996
 30
0.000000
  70
    32
  0
VERTEX
  8
AM_0
  5
1D1F0
 10
745.955
 20
772.986
 30
0.000000
  70
    32
  0
VERTEX
  8
AM_0
  5
1D1F1
 10
745.942
 20
772.976
 30
0.000000
  70
    32
  0
VERTEX
  8
AM_0
  5
1D1F2
 10
745.928
 20
772.966
 30
0.000000
  70
    32
  0
VERTEX
  8
AM_0
  5
1D1F3
 10
745.915
 20
772.956
 30
0.000000
  70
    32
  0
VERTEX
  8
AM_0
  5
1D1F4
 10
745.901
 20
772.945
 30
0.000000
  70
    32
  0
VERTEX
  8
AM_0
  5
1D1F5
 10
745.887
 20
772.935
 30
0.000000
  70
    32
  0
VERTEX
  8
AM_0
  5
1D1F6
 10
745.874
 20
772.926
 30
0.000000
  70
    32
  0
VERTEX
  8
AM_0
  5
1D1F7
 10
745.860
 20
772.916
 30
0.000000
  70
    32
  0
VERTEX
  8
AM_0
  5
1D1F8
 10
745.846
 20
772.906
 30
0.000000
  70
    32
  0
VERTEX
  8
AM_0
  5
1D1F9
 10
745.832
 20
772.896
 30
0.000000
  70
    32
  0
VERTEX
  8
AM_0
  5
1D1FA
 10
745.818
 20
772.887
 30
0.000000
  70
    32
  0
VERTEX
  8
AM_0
  5
1D1FB
 10
745.804
 20
772.877
 30
0.000000
  70
    32
  0
VERTEX
  8
AM_0
  5
1D1FC
 10
745.790
 20
772.868
 30
0.000000
  70
    32
  0
VERTEX
  8
AM_0
  5
1D1FD
 10
745.776
 20
772.859
 30
0.000000
  70
    32
  0
VERTEX
  8
AM_0
  5
1D1FE
 10
745.762
 20
772.849
 30
0.000000
  70
    32
  0
VERTEX
  8
AM_0
  5
1D1FF
 10
745.748
 20
772.840
 30
0.000000
  70
    32
  0
VERTEX
  8
AM_0
  5
1D200
 10
745.733
 20
772.831
 30
0.000000
  70
    32
  0
VERTEX
  8
AM_0
  5
1D201
 10
745.719
 20
772.822
 30
0.000000
  70
    32
  0
VERTEX
  8
AM_0
  5
1D202
 10
745.705
 20
772.813
 30
0.000000
  70
    32
  0
VERTEX
  8
AM_0
  5
1D203
 10
745.690
 20
772.804
 30
0.000000
  70
    32
  0
VERTEX
  8
AM_0
  5
1D204
 10
745.676
 20
772.795
 30
0.000000
  70
    32
  0
VERTEX
  8
AM_0
  5
1D205
 10
745.661
 20
772.787
 30
0.000000
  70
    32
  0
VERTEX
  8
AM_0
  5
1D206
 10
745.647
 20
772.778
 30
0.000000
  70
    32
  0
VERTEX
  8
AM_0
  5
1D207
 10
745.632
 20
772.770
 30
0.000000
  70
    32
  0
VERTEX
  8
AM_0
  5
1D208
 10
745.617
 20
772.761
 30
0.000000
  70
    32
  0
VERTEX
  8
AM_0
  5
1D209
 10
745.602
 20
772.753
 30
0.000000
  70
    32
  0
VERTEX
  8
AM_0
  5
1D20A
 10
745.588
 20
772.744
 30
0.000000
  70
    32
  0
VERTEX
  8
AM_0
  5
1D20B
 10
745.573
 20
772.736
 30
0.000000
  70
    32
  0
VERTEX
  8
AM_0
  5
1D20C
 10
745.558
 20
772.728
 30
0.000000
  70
    32
  0
VERTEX
  8
AM_0
  5
1D20D
 10
745.543
 20
772.720
 30
0.000000
  70
    32
  0
VERTEX
  8
AM_0
  5
1D20E
 10
745.528
 20
772.712
 30
0.000000
  70
    32
  0
VERTEX
  8
AM_0
  5
1D20F
 10
745.513
 20
772.704
 30
0.000000
  70
    32
  0
VERTEX
  8
AM_0
  5
1D210
 10
745.498
 20
772.696
 30
0.000000
  70
    32
  0
VERTEX
  8
AM_0
  5
1D211
 10
745.483
 20
772.689
 30
0.000000
  70
    32
  0
VERTEX
  8
AM_0
  5
1D212
 10
745.468
 20
772.681
 30
0.000000
  70
    32
  0
VERTEX
  8
AM_0
  5
1D213
 10
745.453
 20
772.674
 30
0.000000
  70
    32
  0
VERTEX
  8
AM_0
  5
1D214
 10
745.437
 20
772.666
 30
0.000000
  70
    32
  0
VERTEX
  8
AM_0
  5
1D215
 10
745.422
 20
772.659
 30
0.000000
  70
    32
  0
VERTEX
  8
AM_0
  5
1D216
 10
745.407
 20
772.652
 30
0.000000
  70
    32
  0
VERTEX
  8
AM_0
  5
1D217
 10
745.392
 20
772.644
 30
0.000000
  70
    32
  0
VERTEX
  8
AM_0
  5
1D218
 10
745.376
 20
772.637
 30
0.000000
  70
    32
  0
VERTEX
  8
AM_0
  5
1D219
 10
745.361
 20
772.630
 30
0.000000
  70
    32
  0
VERTEX
  8
AM_0
  5
1D21A
 10
745.345
 20
772.623
 30
0.000000
  70
    32
  0
VERTEX
  8
AM_0
  5
1D21B
 10
745.330
 20
772.617
 30
0.000000
  70
    32
  0
VERTEX
  8
AM_0
  5
1D21C
 10
745.314
 20
772.610
 30
0.000000
  70
    32
  0
VERTEX
  8
AM_0
  5
1D21D
 10
745.299
 20
772.603
 30
0.000000
  70
    32
  0
VERTEX
  8
AM_0
  5
1D21E
 10
745.283
 20
772.597
 30
0.000000
  70
    32
  0
VERTEX
  8
AM_0
  5
1D21F
 10
745.267
 20
772.590
 30
0.000000
  70
    32
  0
VERTEX
  8
AM_0
  5
1D220
 10
745.252
 20
772.584
 30
0.000000
  70
    32
  0
VERTEX
  8
AM_0
  5
1D221
 10
745.236
 20
772.577
 30
0.000000
  70
    32
  0
VERTEX
  8
AM_0
  5
1D222
 10
745.220
 20
772.571
 30
0.000000
  70
    32
  0
VERTEX
  8
AM_0
  5
1D223
 10
745.204
 20
772.565
 30
0.000000
  70
    32
  0
VERTEX
  8
AM_0
  5
1D224
 10
745.189
 20
772.559
 30
0.000000
  70
    32
  0
VERTEX
  8
AM_0
  5
1D225
 10
745.173
 20
772.553
 30
0.000000
  70
    32
  0
VERTEX
  8
AM_0
  5
1D226
 10
745.157
 20
772.547
 30
0.000000
  70
    32
  0
VERTEX
  8
AM_0
  5
1D227
 10
745.141
 20
772.542
 30
0.000000
  70
    32
  0
VERTEX
  8
AM_0
  5
1D228
 10
745.125
 20
772.536
 30
0.000000
  70
    32
  0
VERTEX
  8
AM_0
  5
1D229
 10
745.109
 20
772.530
 30
0.000000
  70
    32
  0
VERTEX
  8
AM_0
  5
1D22A
 10
745.093
 20
772.525
 30
0.000000
  70
    32
  0
VERTEX
  8
AM_0
  5
1D22B
 10
745.077
 20
772.519
 30
0.000000
  70
    32
  0
VERTEX
  8
AM_0
  5
1D22C
 10
745.061
 20
772.514
 30
0.000000
  70
    32
  0
VERTEX
  8
AM_0
  5
1D22D
 10
745.045
 20
772.509
 30
0.000000
  70
    32
  0
VERTEX
  8
AM_0
  5
1D22E
 10
745.029
 20
772.504
 30
0.000000
  70
    32
  0
VERTEX
  8
AM_0
  5
1D22F
 10
745.012
 20
772.499
 30
0.000000
  70
    32
  0
VERTEX
  8
AM_0
  5
1D230
 10
744.996
 20
772.494
 30
0.000000
  70
    32
  0
VERTEX
  8
AM_0
  5
1D231
 10
744.980
 20
772.489
 30
0.000000
  70
    32
  0
VERTEX
  8
AM_0
  5
1D232
 10
744.964
 20
772.484
 30
0.000000
  70
    32
  0
VERTEX
  8
AM_0
  5
1D233
 10
744.947
 20
772.479
 30
0.000000
  70
    32
  0
VERTEX
  8
AM_0
  5
1D234
 10
744.931
 20
772.475
 30
0.000000
  70
    32
  0
VERTEX
  8
AM_0
  5
1D235
 10
744.915
 20
772.470
 30
0.000000
  70
    32
  0
VERTEX
  8
AM_0
  5
1D236
 10
744.898
 20
772.466
 30
0.000000
  70
    32
  0
VERTEX
  8
AM_0
  5
1D237
 10
744.882
 20
772.462
 30
0.000000
  70
    32
  0
VERTEX
  8
AM_0
  5
1D238
 10
744.866
 20
772.457
 30
0.000000
  70
    32
  0
VERTEX
  8
AM_0
  5
1D239
 10
744.849
 20
772.453
 30
0.000000
  70
    32
  0
VERTEX
  8
AM_0
  5
1D23A
 10
744.833
 20
772.449
 30
0.000000
  70
    32
  0
VERTEX
  8
AM_0
  5
1D23B
 10
744.816
 20
772.445
 30
0.000000
  70
    32
  0
VERTEX
  8
AM_0
  5
1D23C
 10
744.800
 20
772.441
 30
0.000000
  70
    32
  0
VERTEX
  8
AM_0
  5
1D23D
 10
744.783
 20
772.438
 30
0.000000
  70
    32
  0
VERTEX
  8
AM_0
  5
1D23E
 10
744.767
 20
772.434
 30
0.000000
  70
    32
  0
VERTEX
  8
AM_0
  5
1D23F
 10
744.750
 20
772.431
 30
0.000000
  70
    32
  0
VERTEX
  8
AM_0
  5
1D240
 10
744.734
 20
772.427
 30
0.000000
  70
    32
  0
VERTEX
  8
AM_0
  5
1D241
 10
744.717
 20
772.424
 30
0.000000
  70
    32
  0
VERTEX
  8
AM_0
  5
1D242
 10
744.700
 20
772.420
 30
0.000000
  70
    32
  0
VERTEX
  8
AM_0
  5
1D243
 10
744.684
 20
772.417
 30
0.000000
  70
    32
  0
VERTEX
  8
AM_0
  5
1D244
 10
744.667
 20
772.414
 30
0.000000
  70
    32
  0
VERTEX
  8
AM_0
  5
1D245
 10
744.650
 20
772.411
 30
0.000000
  70
    32
  0
VERTEX
  8
AM_0
  5
1D246
 10
744.634
 20
772.408
 30
0.000000
  70
    32
  0
VERTEX
  8
AM_0
  5
1D247
 10
744.617
 20
772.405
 30
0.000000
  70
    32
  0
VERTEX
  8
AM_0
  5
1D248
 10
744.600
 20
772.403
 30
0.000000
  70
    32
  0
VERTEX
  8
AM_0
  5
1D249
 10
744.584
 20
772.400
 30
0.000000
  70
    32
  0
VERTEX
  8
AM_0
  5
1D24A
 10
744.567
 20
772.398
 30
0.000000
  70
    32
  0
VERTEX
  8
AM_0
  5
1D24B
 10
744.550
 20
772.395
 30
0.000000
  70
    32
  0
VERTEX
  8
AM_0
  5
1D24C
 10
744.533
 20
772.393
 30
0.000000
  70
    32
  0
VERTEX
  8
AM_0
  5
1D24D
 10
744.516
 20
772.391
 30
0.000000
  70
    32
  0
VERTEX
  8
AM_0
  5
1D24E
 10
744.500
 20
772.388
 30
0.000000
  70
    32
  0
VERTEX
  8
AM_0
  5
1D24F
 10
744.483
 20
772.386
 30
0.000000
  70
    32
  0
VERTEX
  8
AM_0
  5
1D250
 10
744.466
 20
772.384
 30
0.000000
  70
    32
  0
VERTEX
  8
AM_0
  5
1D251
 10
744.449
 20
772.383
 30
0.000000
  70
    32
  0
VERTEX
  8
AM_0
  5
1D252
 10
744.432
 20
772.381
 30
0.000000
  70
    32
  0
VERTEX
  8
AM_0
  5
1D253
 10
744.415
 20
772.379
 30
0.000000
  70
    32
  0
VERTEX
  8
AM_0
  5
1D254
 10
744.399
 20
772.378
 30
0.000000
  70
    32
  0
VERTEX
  8
AM_0
  5
1D255
 10
744.382
 20
772.376
 30
0.000000
  70
    32
  0
VERTEX
  8
AM_0
  5
1D256
 10
744.365
 20
772.375
 30
0.000000
  70
    32
  0
VERTEX
  8
AM_0
  5
1D257
 10
744.348
 20
772.373
 30
0.000000
  70
    32
  0
VERTEX
  8
AM_0
  5
1D258
 10
744.331
 20
772.372
 30
0.000000
  70
    32
  0
VERTEX
  8
AM_0
  5
1D259
 10
744.314
 20
772.371
 30
0.000000
  70
    32
  0
VERTEX
  8
AM_0
  5
1D25A
 10
744.297
 20
772.370
 30
0.000000
  70
    32
  0
VERTEX
  8
AM_0
  5
1D25B
 10
744.280
 20
772.369
 30
0.000000
  70
    32
  0
VERTEX
  8
AM_0
  5
1D25C
 10
744.263
 20
772.368
 30
0.000000
  70
    32
  0
VERTEX
  8
AM_0
  5
1D25D
 10
744.246
 20
772.368
 30
0.000000
  70
    32
  0
VERTEX
  8
AM_0
  5
1D25E
 10
744.230
 20
772.367
 30
0.000000
  70
    32
  0
VERTEX
  8
AM_0
  5
1D25F
 10
744.213
 20
772.367
 30
0.000000
  70
    32
  0
VERTEX
  8
AM_0
  5
1D260
 10
744.196
 20
772.366
 30
0.000000
  70
    32
  0
VERTEX
  8
AM_0
  5
1D261
 10
744.179
 20
772.366
 30
0.000000
  70
    32
  0
VERTEX
  8
AM_0
  5
1D262
 10
744.162
 20
772.365
 30
0.000000
  70
    32
  0
VERTEX
  8
AM_0
  5
1D263
 10
744.145
 20
772.365
 30
0.000000
  70
    32
  0
VERTEX
  8
AM_0
  5
1D264
 10
744.128
 20
772.365
 30
0.000000
  70
    32
  0
SEQEND
  8
AM_0
  5
1D265
  0
POLYLINE
  5
1975E
  8
AM_0
 10
746.11226343777764
 20
773.11531952343489
 30
0.0
 66
     1
 70
     8
  0
VERTEX
  8
AM_0
  5
1D266
 10
746.112
 20
773.115
 30
0.000000
  70
    32
  0
VERTEX
  8
AM_0
  5
1D267
 10
746.125
 20
773.126
 30
0.000000
  70
    32
  0
VERTEX
  8
AM_0
  5
1D268
 10
746.138
 20
773.138
 30
0.000000
  70
    32
  0
VERTEX
  8
AM_0
  5
1D269
 10
746.151
 20
773.149
 30
0.000000
  70
    32
  0
VERTEX
  8
AM_0
  5
1D26A
 10
746.164
 20
773.160
 30
0.000000
  70
    32
  0
VERTEX
  8
AM_0
  5
1D26B
 10
746.177
 20
773.170
 30
0.000000
  70
    32
  0
VERTEX
  8
AM_0
  5
1D26C
 10
746.190
 20
773.181
 30
0.000000
  70
    32
  0
VERTEX
  8
AM_0
  5
1D26D
 10
746.203
 20
773.192
 30
0.000000
  70
    32
  0
VERTEX
  8
AM_0
  5
1D26E
 10
746.216
 20
773.203
 30
0.000000
  70
    32
  0
VERTEX
  8
AM_0
  5
1D26F
 10
746.229
 20
773.213
 30
0.000000
  70
    32
  0
VERTEX
  8
AM_0
  5
1D270
 10
746.242
 20
773.224
 30
0.000000
  70
    32
  0
VERTEX
  8
AM_0
  5
1D271
 10
746.256
 20
773.234
 30
0.000000
  70
    32
  0
VERTEX
  8
AM_0
  5
1D272
 10
746.269
 20
773.245
 30
0.000000
  70
    32
  0
VERTEX
  8
AM_0
  5
1D273
 10
746.283
 20
773.255
 30
0.000000
  70
    32
  0
VERTEX
  8
AM_0
  5
1D274
 10
746.296
 20
773.265
 30
0.000000
  70
    32
  0
VERTEX
  8
AM_0
  5
1D275
 10
746.310
 20
773.275
 30
0.000000
  70
    32
  0
VERTEX
  8
AM_0
  5
1D276
 10
746.323
 20
773.285
 30
0.000000
  70
    32
  0
VERTEX
  8
AM_0
  5
1D277
 10
746.337
 20
773.295
 30
0.000000
  70
    32
  0
VERTEX
  8
AM_0
  5
1D278
 10
746.351
 20
773.305
 30
0.000000
  70
    32
  0
VERTEX
  8
AM_0
  5
1D279
 10
746.365
 20
773.315
 30
0.000000
  70
    32
  0
VERTEX
  8
AM_0
  5
1D27A
 10
746.378
 20
773.325
 30
0.000000
  70
    32
  0
VERTEX
  8
AM_0
  5
1D27B
 10
746.392
 20
773.334
 30
0.000000
  70
    32
  0
VERTEX
  8
AM_0
  5
1D27C
 10
746.406
 20
773.344
 30
0.000000
  70
    32
  0
VERTEX
  8
AM_0
  5
1D27D
 10
746.420
 20
773.353
 30
0.000000
  70
    32
  0
VERTEX
  8
AM_0
  5
1D27E
 10
746.434
 20
773.363
 30
0.000000
  70
    32
  0
VERTEX
  8
AM_0
  5
1D27F
 10
746.449
 20
773.372
 30
0.000000
  70
    32
  0
VERTEX
  8
AM_0
  5
1D280
 10
746.463
 20
773.381
 30
0.000000
  70
    32
  0
VERTEX
  8
AM_0
  5
1D281
 10
746.477
 20
773.391
 30
0.000000
  70
    32
  0
VERTEX
  8
AM_0
  5
1D282
 10
746.491
 20
773.400
 30
0.000000
  70
    32
  0
VERTEX
  8
AM_0
  5
1D283
 10
746.506
 20
773.409
 30
0.000000
  70
    32
  0
VERTEX
  8
AM_0
  5
1D284
 10
746.520
 20
773.418
 30
0.000000
  70
    32
  0
VERTEX
  8
AM_0
  5
1D285
 10
746.534
 20
773.427
 30
0.000000
  70
    32
  0
VERTEX
  8
AM_0
  5
1D286
 10
746.549
 20
773.435
 30
0.000000
  70
    32
  0
VERTEX
  8
AM_0
  5
1D287
 10
746.563
 20
773.444
 30
0.000000
  70
    32
  0
VERTEX
  8
AM_0
  5
1D288
 10
746.578
 20
773.453
 30
0.000000
  70
    32
  0
VERTEX
  8
AM_0
  5
1D289
 10
746.593
 20
773.461
 30
0.000000
  70
    32
  0
VERTEX
  8
AM_0
  5
1D28A
 10
746.607
 20
773.470
 30
0.000000
  70
    32
  0
VERTEX
  8
AM_0
  5
1D28B
 10
746.622
 20
773.478
 30
0.000000
  70
    32
  0
VERTEX
  8
AM_0
  5
1D28C
 10
746.637
 20
773.486
 30
0.000000
  70
    32
  0
VERTEX
  8
AM_0
  5
1D28D
 10
746.652
 20
773.494
 30
0.000000
  70
    32
  0
VERTEX
  8
AM_0
  5
1D28E
 10
746.667
 20
773.503
 30
0.000000
  70
    32
  0
VERTEX
  8
AM_0
  5
1D28F
 10
746.681
 20
773.511
 30
0.000000
  70
    32
  0
VERTEX
  8
AM_0
  5
1D290
 10
746.696
 20
773.519
 30
0.000000
  70
    32
  0
VERTEX
  8
AM_0
  5
1D291
 10
746.711
 20
773.526
 30
0.000000
  70
    32
  0
VERTEX
  8
AM_0
  5
1D292
 10
746.726
 20
773.534
 30
0.000000
  70
    32
  0
VERTEX
  8
AM_0
  5
1D293
 10
746.742
 20
773.542
 30
0.000000
  70
    32
  0
VERTEX
  8
AM_0
  5
1D294
 10
746.757
 20
773.549
 30
0.000000
  70
    32
  0
VERTEX
  8
AM_0
  5
1D295
 10
746.772
 20
773.557
 30
0.000000
  70
    32
  0
VERTEX
  8
AM_0
  5
1D296
 10
746.787
 20
773.564
 30
0.000000
  70
    32
  0
VERTEX
  8
AM_0
  5
1D297
 10
746.802
 20
773.572
 30
0.000000
  70
    32
  0
VERTEX
  8
AM_0
  5
1D298
 10
746.818
 20
773.579
 30
0.000000
  70
    32
  0
VERTEX
  8
AM_0
  5
1D299
 10
746.833
 20
773.586
 30
0.000000
  70
    32
  0
VERTEX
  8
AM_0
  5
1D29A
 10
746.848
 20
773.593
 30
0.000000
  70
    32
  0
VERTEX
  8
AM_0
  5
1D29B
 10
746.864
 20
773.600
 30
0.000000
  70
    32
  0
VERTEX
  8
AM_0
  5
1D29C
 10
746.879
 20
773.607
 30
0.000000
  70
    32
  0
VERTEX
  8
AM_0
  5
1D29D
 10
746.895
 20
773.614
 30
0.000000
  70
    32
  0
VERTEX
  8
AM_0
  5
1D29E
 10
746.910
 20
773.621
 30
0.000000
  70
    32
  0
VERTEX
  8
AM_0
  5
1D29F
 10
746.926
 20
773.627
 30
0.000000
  70
    32
  0
VERTEX
  8
AM_0
  5
1D2A0
 10
746.941
 20
773.634
 30
0.000000
  70
    32
  0
VERTEX
  8
AM_0
  5
1D2A1
 10
746.957
 20
773.641
 30
0.000000
  70
    32
  0
VERTEX
  8
AM_0
  5
1D2A2
 10
746.973
 20
773.647
 30
0.000000
  70
    32
  0
VERTEX
  8
AM_0
  5
1D2A3
 10
746.989
 20
773.653
 30
0.000000
  70
    32
  0
VERTEX
  8
AM_0
  5
1D2A4
 10
747.004
 20
773.659
 30
0.000000
  70
    32
  0
VERTEX
  8
AM_0
  5
1D2A5
 10
747.020
 20
773.666
 30
0.000000
  70
    32
  0
VERTEX
  8
AM_0
  5
1D2A6
 10
747.036
 20
773.672
 30
0.000000
  70
    32
  0
VERTEX
  8
AM_0
  5
1D2A7
 10
747.052
 20
773.678
 30
0.000000
  70
    32
  0
VERTEX
  8
AM_0
  5
1D2A8
 10
747.068
 20
773.683
 30
0.000000
  70
    32
  0
VERTEX
  8
AM_0
  5
1D2A9
 10
747.084
 20
773.689
 30
0.000000
  70
    32
  0
VERTEX
  8
AM_0
  5
1D2AA
 10
747.100
 20
773.695
 30
0.000000
  70
    32
  0
VERTEX
  8
AM_0
  5
1D2AB
 10
747.116
 20
773.700
 30
0.000000
  70
    32
  0
VERTEX
  8
AM_0
  5
1D2AC
 10
747.132
 20
773.706
 30
0.000000
  70
    32
  0
VERTEX
  8
AM_0
  5
1D2AD
 10
747.148
 20
773.711
 30
0.000000
  70
    32
  0
VERTEX
  8
AM_0
  5
1D2AE
 10
747.164
 20
773.717
 30
0.000000
  70
    32
  0
VERTEX
  8
AM_0
  5
1D2AF
 10
747.180
 20
773.722
 30
0.000000
  70
    32
  0
VERTEX
  8
AM_0
  5
1D2B0
 10
747.196
 20
773.727
 30
0.000000
  70
    32
  0
VERTEX
  8
AM_0
  5
1D2B1
 10
747.212
 20
773.732
 30
0.000000
  70
    32
  0
VERTEX
  8
AM_0
  5
1D2B2
 10
747.228
 20
773.737
 30
0.000000
  70
    32
  0
VERTEX
  8
AM_0
  5
1D2B3
 10
747.245
 20
773.742
 30
0.000000
  70
    32
  0
VERTEX
  8
AM_0
  5
1D2B4
 10
747.261
 20
773.747
 30
0.000000
  70
    32
  0
VERTEX
  8
AM_0
  5
1D2B5
 10
747.277
 20
773.751
 30
0.000000
  70
    32
  0
VERTEX
  8
AM_0
  5
1D2B6
 10
747.293
 20
773.756
 30
0.000000
  70
    32
  0
VERTEX
  8
AM_0
  5
1D2B7
 10
747.310
 20
773.760
 30
0.000000
  70
    32
  0
VERTEX
  8
AM_0
  5
1D2B8
 10
747.326
 20
773.765
 30
0.000000
  70
    32
  0
VERTEX
  8
AM_0
  5
1D2B9
 10
747.342
 20
773.769
 30
0.000000
  70
    32
  0
VERTEX
  8
AM_0
  5
1D2BA
 10
747.359
 20
773.773
 30
0.000000
  70
    32
  0
VERTEX
  8
AM_0
  5
1D2BB
 10
747.375
 20
773.777
 30
0.000000
  70
    32
  0
VERTEX
  8
AM_0
  5
1D2BC
 10
747.392
 20
773.781
 30
0.000000
  70
    32
  0
VERTEX
  8
AM_0
  5
1D2BD
 10
747.408
 20
773.785
 30
0.000000
  70
    32
  0
VERTEX
  8
AM_0
  5
1D2BE
 10
747.425
 20
773.789
 30
0.000000
  70
    32
  0
VERTEX
  8
AM_0
  5
1D2BF
 10
747.441
 20
773.793
 30
0.000000
  70
    32
  0
VERTEX
  8
AM_0
  5
1D2C0
 10
747.458
 20
773.797
 30
0.000000
  70
    32
  0
VERTEX
  8
AM_0
  5
1D2C1
 10
747.474
 20
773.800
 30
0.000000
  70
    32
  0
VERTEX
  8
AM_0
  5
1D2C2
 10
747.491
 20
773.804
 30
0.000000
  70
    32
  0
VERTEX
  8
AM_0
  5
1D2C3
 10
747.508
 20
773.807
 30
0.000000
  70
    32
  0
VERTEX
  8
AM_0
  5
1D2C4
 10
747.524
 20
773.810
 30
0.000000
  70
    32
  0
VERTEX
  8
AM_0
  5
1D2C5
 10
747.541
 20
773.813
 30
0.000000
  70
    32
  0
VERTEX
  8
AM_0
  5
1D2C6
 10
747.557
 20
773.816
 30
0.000000
  70
    32
  0
VERTEX
  8
AM_0
  5
1D2C7
 10
747.574
 20
773.819
 30
0.000000
  70
    32
  0
VERTEX
  8
AM_0
  5
1D2C8
 10
747.591
 20
773.822
 30
0.000000
  70
    32
  0
VERTEX
  8
AM_0
  5
1D2C9
 10
747.608
 20
773.825
 30
0.000000
  70
    32
  0
VERTEX
  8
AM_0
  5
1D2CA
 10
747.624
 20
773.828
 30
0.000000
  70
    32
  0
VERTEX
  8
AM_0
  5
1D2CB
 10
747.641
 20
773.831
 30
0.000000
  70
    32
  0
VERTEX
  8
AM_0
  5
1D2CC
 10
747.658
 20
773.833
 30
0.000000
  70
    32
  0
VERTEX
  8
AM_0
  5
1D2CD
 10
747.675
 20
773.835
 30
0.000000
  70
    32
  0
VERTEX
  8
AM_0
  5
1D2CE
 10
747.691
 20
773.838
 30
0.000000
  70
    32
  0
VERTEX
  8
AM_0
  5
1D2CF
 10
747.708
 20
773.840
 30
0.000000
  70
    32
  0
VERTEX
  8
AM_0
  5
1D2D0
 10
747.725
 20
773.842
 30
0.000000
  70
    32
  0
VERTEX
  8
AM_0
  5
1D2D1
 10
747.742
 20
773.844
 30
0.000000
  70
    32
  0
VERTEX
  8
AM_0
  5
1D2D2
 10
747.759
 20
773.846
 30
0.000000
  70
    32
  0
VERTEX
  8
AM_0
  5
1D2D3
 10
747.775
 20
773.848
 30
0.000000
  70
    32
  0
VERTEX
  8
AM_0
  5
1D2D4
 10
747.792
 20
773.850
 30
0.000000
  70
    32
  0
VERTEX
  8
AM_0
  5
1D2D5
 10
747.809
 20
773.852
 30
0.000000
  70
    32
  0
VERTEX
  8
AM_0
  5
1D2D6
 10
747.826
 20
773.853
 30
0.000000
  70
    32
  0
VERTEX
  8
AM_0
  5
1D2D7
 10
747.843
 20
773.855
 30
0.000000
  70
    32
  0
VERTEX
  8
AM_0
  5
1D2D8
 10
747.860
 20
773.856
 30
0.000000
  70
    32
  0
VERTEX
  8
AM_0
  5
1D2D9
 10
747.877
 20
773.857
 30
0.000000
  70
    32
  0
VERTEX
  8
AM_0
  5
1D2DA
 10
747.893
 20
773.858
 30
0.000000
  70
    32
  0
VERTEX
  8
AM_0
  5
1D2DB
 10
747.910
 20
773.860
 30
0.000000
  70
    32
  0
VERTEX
  8
AM_0
  5
1D2DC
 10
747.927
 20
773.861
 30
0.000000
  70
    32
  0
VERTEX
  8
AM_0
  5
1D2DD
 10
747.944
 20
773.861
 30
0.000000
  70
    32
  0
VERTEX
  8
AM_0
  5
1D2DE
 10
747.961
 20
773.862
 30
0.000000
  70
    32
  0
VERTEX
  8
AM_0
  5
1D2DF
 10
747.978
 20
773.863
 30
0.000000
  70
    32
  0
VERTEX
  8
AM_0
  5
1D2E0
 10
747.995
 20
773.864
 30
0.000000
  70
    32
  0
VERTEX
  8
AM_0
  5
1D2E1
 10
748.012
 20
773.864
 30
0.000000
  70
    32
  0
VERTEX
  8
AM_0
  5
1D2E2
 10
748.029
 20
773.865
 30
0.000000
  70
    32
  0
VERTEX
  8
AM_0
  5
1D2E3
 10
748.046
 20
773.865
 30
0.000000
  70
    32
  0
VERTEX
  8
AM_0
  5
1D2E4
 10
748.063
 20
773.865
 30
0.000000
  70
    32
  0
VERTEX
  8
AM_0
  5
1D2E5
 10
748.080
 20
773.865
 30
0.000000
  70
    32
  0
VERTEX
  8
AM_0
  5
1D2E6
 10
748.097
 20
773.865
 30
0.000000
  70
    32
  0
SEQEND
  8
AM_0
  5
1D2E7
  0
LINE
  5
1975F
  8
AM_0
 10
744.12795429737105
 20
772.36530514634171
 30
0.0
 11
743.74166322644214
 21
772.36530467799412
 31
0.0
  0
LINE
  5
19762
  8
AM_0
 10
642.59755008379523
 20
764.36388225923815
 30
0.0
 11
642.59755008379523
 21
759.36388210872667
 31
0.0
  0
LINE
  5
19763
  8
ﾁｭｳｼﾝｾﾝ1
 10
592.59654889167837
 20
775.80931272940597
 30
0.0
 11
592.59654889167837
 21
538.00308681115507
 31
0.0
  0
LINE
  5
19764
  8
AM_0
 10
519.21990709451575
 20
759.36388210872667
 30
0.0
 11
517.59654663400397
 21
666.36387909849452
 31
0.0
  0
LINE
  5
19765
  8
AM_0
 10
542.59554769956173
 20
764.36388225923815
 30
0.0
 11
542.59554769956173
 21
761.86388210872678
 31
0.0
  0
LINE
  5
19766
  8
0
 10
520.59684708104805
 20
761.86388210872678
 30
0.0
 11
544.59684708104805
 21
761.86388210872678
 31
0.0
  0
LINE
  5
19767
  8
0
 10
523.59684708104805
 20
773.86388210872678
 30
0.0
 11
541.59684708104805
 21
773.86388210872678
 31
0.0
  0
LINE
  5
19768
  8
0
 10
523.59684708104805
 20
761.86388210872678
 30
0.0
 11
523.59684708104805
 21
773.86388210872678
 31
0.0
  0
LINE
  5
19769
  8
0
 10
520.59684708104805
 20
759.36388210872667
 30
0.0
 11
520.59684708104805
 21
761.86388210872678
 31
0.0
  0
LINE
  5
1976A
  8
0
 10
541.59684708104805
 20
773.86388210872678
 30
0.0
 11
541.59684708104805
 21
761.86388210872678
 31
0.0
  0
LINE
  5
1976B
  8
0
 10
544.59684708104805
 20
761.86388210872678
 30
0.0
 11
544.59684708104805
 21
759.36388210872667
 31
0.0
  0
LINE
  5
1976C
  8
0
 10
695.59652183586672
 20
761.86388210872678
 30
0.0
 11
719.59652183586672
 21
761.86388210872678
 31
0.0
  0
LINE
  5
1976D
  8
0
 10
698.59652183586672
 20
773.86388210872678
 30
0.0
 11
716.59652183586672
 21
773.86388210872678
 31
0.0
  0
LINE
  5
1976E
  8
0
 10
698.59652183586672
 20
761.86388210872678
 30
0.0
 11
698.59652183586672
 21
773.86388210872678
 31
0.0
  0
LINE
  5
1976F
  8
0
 10
695.59652183586672
 20
759.36388210872667
 30
0.0
 11
695.59652183586672
 21
761.86388210872678
 31
0.0
  0
LINE
  5
19770
  8
0
 10
716.59652183586672
 20
773.86388210872678
 30
0.0
 11
716.59652183586672
 21
761.86388210872678
 31
0.0
  0
LINE
  5
19771
  8
0
 10
719.59652183586672
 20
761.86388210872678
 30
0.0
 11
719.59652183586672
 21
759.36388210872667
 31
0.0
  0
LINE
  5
19772
  8
AM_0
 10
297.86585687858508
 20
398.89742339073098
 30
0.0
 11
322.86585687858548
 21
398.89742339073098
 31
0.0
  0
LINE
  5
19773
  8
AM_0
 10
297.86585687858508
 20
237.71054035207339
 30
0.0
 11
322.86585687858548
 21
237.71054035207339
 31
0.0
  0
LINE
  5
19774
  8
AM_0
 10
724.59652228740163
 20
600.36387909849475
 30
0.0
 11
515.59654663400408
 21
600.36387909849418
 31
0.0
  0
LINE
  5
19775
  8
AM_0
 10
723.84031535315273
 20
625.36387909849475
 30
0.0
 11
516.35549123664953
 21
625.36387909849452
 31
0.0
  0
LINE
  5
19776
  8
AM_0
 10
517.6001603849877
 20
666.36387909849452
 30
0.0
 11
515.59654663400408
 21
600.36387909849418
 31
0.0
  0
LINE
  5
19777
  8
AM_0
 10
722.60013598098419
 20
666.36387909849464
 30
0.0
 11
724.59652228740163
 21
600.36387909849475
 31
0.0
  0
LINE
  5
19778
  8
AM_0
 10
538.23816847452883
 20
600.36387909849418
 30
0.0
 11
538.23816847452883
 21
625.36387909849452
 31
0.0
  0
LINE
  5
19779
  8
ﾁｭｳｼﾝｾﾝ1
 10
547.59652002972643
 20
595.36387909849429
 30
0.0
 11
547.59652002972643
 21
630.36387909849452
 31
0.0
  0
LINE
  5
1977A
  8
AM_0
 10
701.95490044687665
 20
600.36387909849418
 30
0.0
 11
701.95490044687665
 21
625.36387909849418
 31
0.0
  0
LINE
  5
1977B
  8
ﾁｭｳｼﾝｾﾝ1
 10
692.59654889167916
 20
595.36387909849429
 30
0.0
 11
692.59654889167916
 21
630.36387909849452
 31
0.0
  0
LINE
  5
1977D
  8
0
 10
608.59654889167859
 20
545.36388214674855
 30
0.0
 11
608.59654889167848
 21
600.36387909849452
 31
0.0
  0
LINE
  5
1977E
  8
0
 10
576.59654889167825
 20
545.36388214674855
 30
0.0
 11
576.59654889167825
 21
600.36387909849418
 31
0.0
  0
LINE
  5
1977F
  8
AM_0
 10
576.59654889167825
 20
545.36388214674855
 30
0.0
 11
608.59654889167859
 21
545.36388214674855
 31
0.0
  0
LINE
  5
19786
  8
AM_0
 10
597.59654889167825
 20
545.36388214674855
 30
0.0
 11
597.59654889167825
 21
590.36388214674867
 31
0.0
  0
LINE
  5
19787
  8
AM_0
 10
587.59654889167859
 20
545.36388214674855
 30
0.0
 11
587.59654889167848
 21
590.36388214674867
 31
0.0
  0
LINE
  5
19788
  8
AM_0
 10
597.59654889167825
 20
590.36388214674867
 30
0.0
 11
587.59654889167848
 21
590.36388214674867
 31
0.0
  0
ARC
  5
19789
  8
AM_0
 10
592.59654889167837
 20
590.36388214674867
 30
0.0
 40
5.0
 50
0.0
 51
180.0
  0
LINE
  5
1978B
  8
ｶｸﾚｾﾝ2
 10
630.59655009877133
 20
636.36387717194577
 30
0.0
 11
554.59654768458574
 21
636.36387717194577
 31
0.0
  0
LINE
  5
1978C
  8
ｶｸﾚｾﾝ2
 10
612.59654889167825
 20
603.36387908697168
 30
0.0
 11
572.59654889167882
 21
603.36387908697168
 31
0.0
  0
LINE
  5
1978D
  8
ｶｸﾚｾﾝ2
 10
617.59654964423692
 20
631.36387700991122
 30
0.0
 11
567.59654813912073
 21
631.36387700991122
 31
0.0
  0
LINE
  5
1978E
  8
ｶｸﾚｾﾝ2
 10
567.59654813912073
 20
636.36387716042293
 30
0.0
 11
567.59654813912073
 21
631.36387700991122
 31
0.0
  0
LINE
  5
1978F
  8
ｶｸﾚｾﾝ2
 10
572.59654889167882
 20
603.36387908697168
 30
0.0
 11
567.59654813912073
 21
631.36387700991122
 31
0.0
  0
LINE
  5
19790
  8
ｶｸﾚｾﾝ2
 10
617.59654964423692
 20
636.36387716042293
 30
0.0
 11
617.59654964423692
 21
631.36387700991122
 31
0.0
  0
LINE
  5
19791
  8
ｶｸﾚｾﾝ2
 10
612.59654889167859
 20
603.36387908697168
 30
0.0
 11
617.59654964423692
 21
631.36387700991122
 31
0.0
  0
LINE
  5
19792
  8
ｶｸﾚｾﾝ2
 10
608.59654889167859
 20
600.36387909849452
 30
0.0
 11
608.59654889167859
 21
603.36387908697168
 31
0.0
  0
LINE
  5
19793
  8
ｶｸﾚｾﾝ2
 10
576.59654889167825
 20
600.36387908697145
 30
0.0
 11
576.59654889167825
 21
603.36387908697168
 31
0.0
  0
LINE
  5
1A3AC
  8
AM_0
 10
227.86793189160869
 20
410.30398189900251
 30
0.0
 11
243.63132835244181
 21
410.30398189900319
 31
0.0
  0
LINE
  5
1A3AD
  8
AM_0
 10
227.86793189160869
 20
405.30398189750298
 30
0.0
 11
243.63132835244181
 21
405.30398189750349
 31
0.0
  0
LINE
  5
1A3AE
  8
AM_0
 10
222.8658568901082
 20
405.30398189750298
 30
0.0
 11
224.93372410730939
 21
405.30398189750298
 31
0.0
  0
LINE
  5
1A3AF
  8
AM_0
 10
222.86585689010909
 20
410.30398189900251
 30
0.0
 11
227.86793189160869
 21
410.30398189900251
 31
0.0
  0
LINE
  5
1A3B0
  8
AM_0
 10
220.79798967290739
 20
404.58969618300279
 30
0.0
 11
224.93372410730939
 21
404.58969618300279
 31
0.0
  0
CIRCLE
  5
1A3B1
  8
AM_0
 10
222.8658568901082
 20
407.8039818982528
 30
0.0
 40
2.5000000007500001
  0
LINE
  5
1A3B2
  8
0
 10
220.79798967290739
 20
409.208946373169
 30
0.0
 11
220.79798967290739
 21
410.30398189900251
 31
0.0
  0
LINE
  5
1A3B3
  8
0
 10
220.79798967290739
 20
404.58969618300279
 30
0.0
 11
220.79798967290739
 21
406.39901742333632
 31
0.0
  0
LINE
  5
1A3B4
  8
AM_0
 10
217.86378188860809
 20
410.30398189900251
 30
0.0
 11
220.79798967290739
 21
410.30398189900251
 31
0.0
  0
LINE
  5
1A3B5
  8
0
 10
224.9337241073089
 20
409.2089463731694
 30
0.0
 11
224.9337241073089
 21
410.30398189900251
 31
0.0
  0
LINE
  5
1A3B6
  8
0
 10
224.93372410730939
 20
404.58969618300279
 30
0.0
 11
224.9337241073089
 21
406.39901742333632
 31
0.0
  0
LINE
  5
1A3B7
  8
0
 10
227.86793189160869
 20
399.1510021472215
 30
0.0
 11
227.86793189160869
 21
410.30398189900251
 31
0.0
  0
LINE
  5
1A3B8
  8
0
 10
217.86378188860809
 20
399.15100214722162
 30
0.0
 11
217.86378188860809
 21
410.30398189900251
 31
0.0
  0
ARC
  5
1A969
  8
AM_0
 10
243.63132835244181
 20
355.30398188250268
 30
0.0
 40
55.00000001650001
 50
51.830252127577879
 51
90.0
1001
GENIUS_GENOBJ-N-FIL_13
1002
{
1000
OWNER
1000
GEN
1002
}
1001
GENIUS_GENODEF_13
1002
{
1000
HIER
1070
     0
1002
}
1002
{
1000
MANEDIT
1070
     0
1002
}
1002
{
1000
NOSEL
1070
     0
1002
}
1002
{
1000
BEHIND
1070
     0
1002
}
1002
{
1000
OTHER
1070
     0
1002
}
1002
{
1000
REACTOR
1002
}
  0
ARC
  5
1A96A
  8
AM_0
 10
243.63132835244181
 20
355.30398188250268
 30
0.0
 40
50.000000014999998
 50
59.518193946750081
 51
90.0
1001
GENIUS_GENOBJ-N-FIL_13
1002
{
1000
OWNER
1000
GEN
1002
}
1001
GENIUS_GENODEF_13
1002
{
1000
HIER
1070
     0
1002
}
1002
{
1000
MANEDIT
1070
     0
1002
}
1002
{
1000
NOSEL
1070
     0
1002
}
1002
{
1000
BEHIND
1070
     0
1002
}
1002
{
1000
OTHER
1070
     0
1002
}
1002
{
1000
REACTOR
1002
}
  0
ARC
  5
1B1D1
  8
AM_0
 10
768.09652229835103
 20
256.26517387140319
 30
0.0
 40
1.0
 50
270.0
 51
0.000000000000007
  0
ARC
  5
1B1D2
  8
AM_0
 10
768.09652229835103
 20
380.34278987140323
 30
0.0
 40
1.0
 50
0.000000000000007
 51
90.0
  0
ARC
  5
1B1D3
  8
AM_0
 10
770.10495121867757
 20
766.86390782235173
 30
0.0
 40
2.0
 50
90.0
 51
164.99999999999889
  0
LINE
  5
1B1D4
  8
AM_0
 10
767.09657621867757
 20
763.36390782235173
 30
0.0
 11
768.17309921867763
 21
767.38154582235165
 31
0.0
  0
LINE
  5
1B1D5
  8
AM_0
 10
767.09657621867757
 20
764.98548882235173
 30
0.0
 11
769.98834321867764
 21
775.77771082235165
 31
0.0
  0
ARC
  5
1B1D6
  8
AM_0
 10
771.9201952186778
 20
775.26007282235173
 30
0.0
 40
2.0
 50
90.0
 51
165.0000029999982
  0
LINE
  5
1B1D7
  8
AM_0
 10
836.09657621867757
 20
778.22610582235166
 30
0.0
 11
836.09657621867757
 21
777.26007282235173
 31
0.0
  0
ARC
  5
1B1D8
  8
AM_0
 10
838.09657621867768
 20
776.79347682235164
 30
0.0
 40
2.0
 50
90.0
 51
166.50868899999799
  0
ARC
  5
1B1D9
  8
AM_0
 10
838.09657621867768
 20
777.79882782235165
 30
0.0
 40
2.0
 50
90.0
 51
180.0
  0
ARC
  5
1B1DA
  8
AM_0
 10
838.09657621867768
 20
778.22610582235166
 30
0.0
 40
2.0
 50
90.0
 51
180.0
  0
ARC
  5
1B1DB
  8
AM_0
 10
923.09657621867768
 20
778.88590282235168
 30
0.0
 40
2.0
 50
195.7695469999999
 51
270.0
  0
ARC
  5
1B1DC
  8
AM_0
 10
923.09657621867768
 20
776.24826382235165
 30
0.0
 40
2.0
 50
180.0
 51
270.0
  0
LINE
  5
1B1DD
  8
AM_0
 10
921.09657621867768
 20
771.89227482235174
 30
0.0
 11
921.09657621867768
 21
775.26007282235173
 31
0.0
  0
ARC
  5
1B1DE
  8
AM_0
 10
919.09657621867757
 20
775.26007282235173
 30
0.0
 40
2.0
 50
0.0
 51
90.0
  0
ARC
  5
1B1DF
  8
AM_0
 10
919.09657621867757
 20
776.79347682235164
 30
0.0
 40
2.0
 50
0.0
 51
90.0
  0
ARC
  5
1B1E0
  8
AM_0
 10
919.24712621867764
 20
777.79882782235165
 30
0.0
 40
2.0
 50
15.76954699999988
 51
90.0
  0
LINE
  5
1B1E1
  8
AM_0
 10
921.09657621867768
 20
776.24826382235165
 30
0.0
 11
921.09657621867768
 21
776.79347682235164
 31
0.0
  0
ARC
  5
1B1E2
  8
AM_0
 10
919.09657621867757
 20
778.22610582235166
 30
0.0
 40
2.0
 50
0.0
 51
90.0
  0
ARC
  5
1B1E3
  8
AM_0
 10
923.09657621867768
 20
771.89227482235174
 30
0.0
 40
2.0
 50
180.0
 51
270.0
  0
LINE
  5
1B1E4
  8
AM_0
 10
919.09657621867757
 20
777.26007282235173
 30
0.0
 11
771.9201952186778
 21
777.26007282235173
 31
0.0
  0
LINE
  5
1B1E5
  8
AM_0
 10
919.09657621867757
 20
778.79347682235164
 30
0.0
 11
838.09657621867768
 21
778.79347682235164
 31
0.0
  0
LINE
  5
1B1E6
  8
AM_0
 10
919.24712621867741
 20
779.79882782235188
 30
0.0
 11
838.09657621867768
 21
779.79882782235188
 31
0.0
  0
LINE
  5
1B1E7
  8
AM_0
 10
919.09657621867757
 20
780.22610582235166
 30
0.0
 11
838.09657621867768
 21
780.22610582235166
 31
0.0
  0
LINE
  5
1B1E8
  8
AM_0
 10
923.09657621867768
 20
769.89227482235174
 30
0.0
 11
931.09657621867768
 21
769.89227482235174
 31
0.0
  0
LINE
  5
1B1E9
  8
AM_0
 10
923.09657621867768
 20
774.24826382235165
 30
0.0
 11
931.09657621867768
 21
774.24826382235165
 31
0.0
  0
LINE
  5
1B1EA
  8
AM_0
 10
923.09657621867768
 20
776.88590282235157
 30
0.0
 11
931.09657621867768
 21
776.88590282235157
 31
0.0
  0
ARC
  5
1B1EB
  8
AM_0
 10
770.10495121867757
 20
633.86390782235173
 30
0.0
 40
2.0
 50
195.00000000000111
 51
270.0
  0
LINE
  5
1B1EC
  8
AM_0
 10
767.09657621867746
 20
637.36390782235173
 30
0.0
 11
768.17309921867763
 21
633.34626982235181
 31
0.0
  0
ARC
  5
1B1ED
  8
AM_0
 10
771.9201952186778
 20
625.46774282235162
 30
0.0
 40
2.0
 50
194.99999700000171
 51
270.0
  0
LINE
  5
1B1EE
  8
AM_0
 10
767.09657621867746
 20
635.74232682235174
 30
0.0
 11
769.98834321867753
 21
624.9501048223517
 31
0.0
  0
ARC
  5
1B1EF
  8
AM_0
 10
838.09657621867768
 20
622.50170982235181
 30
0.0
 40
2.0
 50
180.0
 51
270.0
  0
ARC
  5
1B1F0
  8
AM_0
 10
838.09657621867768
 20
622.92898782235147
 30
0.0
 40
2.0
 50
180.0
 51
270.0
  0
ARC
  5
1B1F1
  8
AM_0
 10
838.09657621867768
 20
623.93433882235172
 30
0.0
 40
2.0
 50
193.4913110000019
 51
270.0
  0
LINE
  5
1B1F2
  8
AM_0
 10
836.09657621867757
 20
622.50170982235181
 30
0.0
 11
836.09657621867757
 21
623.46774282235162
 31
0.0
  0
ARC
  5
1B1F3
  8
AM_0
 10
923.09657621867768
 20
628.83554082235173
 30
0.0
 40
2.0
 50
90.0
 51
180.0
  0
LINE
  5
1B1F4
  8
AM_0
 10
923.09657621867768
 20
630.83554082235173
 30
0.0
 11
931.09657621867768
 21
630.83554082235173
 31
0.0
  0
LINE
  5
1B1F5
  8
AM_0
 10
923.09657621867768
 20
626.47955182235148
 30
0.0
 11
931.09657621867768
 21
626.47955182235148
 31
0.0
  0
ARC
  5
1B1F6
  8
AM_0
 10
919.09657621867757
 20
622.50170982235181
 30
0.0
 40
2.0
 50
270.0
 51
0.0
  0
LINE
  5
1B1F7
  8
AM_0
 10
921.09657621867768
 20
624.47955182235171
 30
0.0
 11
921.09657621867768
 21
623.93433882235172
 31
0.0
  0
ARC
  5
1B1F8
  8
AM_0
 10
919.24712621867741
 20
622.92898782235147
 30
0.0
 40
2.0
 50
270.0
 51
344.23045300000013
  0
ARC
  5
1B1F9
  8
AM_0
 10
923.09657621867768
 20
621.84191282235167
 30
0.0
 40
2.0
 50
90.0
 51
164.2304530000001
  0
ARC
  5
1B1FA
  8
AM_0
 10
919.09657621867757
 20
623.93433882235172
 30
0.0
 40
2.0
 50
270.0
 51
0.0
  0
ARC
  5
1B1FB
  8
AM_0
 10
919.09657621867757
 20
625.46774282235162
 30
0.0
 40
2.0
 50
270.0
 51
0.0
  0
LINE
  5
1B1FC
  8
AM_0
 10
921.09657621867768
 20
628.83554082235173
 30
0.0
 11
921.09657621867768
 21
625.46774282235162
 31
0.0
  0
ARC
  5
1B1FD
  8
AM_0
 10
923.09657621867768
 20
624.47955182235171
 30
0.0
 40
2.0
 50
90.0
 51
180.0
  0
LINE
  5
1B1FE
  8
AM_0
 10
919.09657621867757
 20
623.46774282235162
 30
0.0
 11
771.92019521867746
 21
623.46774282235162
 31
0.0
  0
LINE
  5
1B1FF
  8
AM_0
 10
919.09657621867757
 20
621.93433882235172
 30
0.0
 11
838.09657621867746
 21
621.93433882235172
 31
0.0
  0
LINE
  5
1B200
  8
AM_0
 10
919.24712621867741
 20
620.92898782235159
 30
0.0
 11
838.09657621867746
 21
620.92898782235159
 31
0.0
  0
LINE
  5
1B201
  8
AM_0
 10
919.09657621867757
 20
620.5017098223517
 30
0.0
 11
838.09657621867746
 21
620.5017098223517
 31
0.0
  0
LINE
  5
1B202
  8
AM_0
 10
923.09657621867768
 20
623.84191282235145
 30
0.0
 11
931.09657621867768
 21
623.84191282235145
 31
0.0
  0
ARC
  5
1B205
  8
AM_0
 10
768.0965762186778
 20
638.36390782235173
 30
0.0
 40
1.0
 50
270.0
 51
0.0
  0
ARC
  5
1B206
  8
AM_0
 10
768.0965762186778
 20
762.36390782235173
 30
0.0
 40
1.0
 50
0.0
 51
90.0
  0
LINE
  5
1B233
  8
AM_0
 10
769.09657621867768
 20
744.19390782235166
 30
0.0
 11
769.09657621867768
 21
736.55390782235156
 31
0.0
  0
ARC
  5
1B234
  8
AM_0
 10
768.10155121867763
 20
743.32828782235174
 30
0.0
 40
1.0069859999999999
 50
98.392163000002284
 51
179.64700200000121
  0
ARC
  5
1B235
  8
AM_0
 10
768.09721521867755
 20
747.4054388223517
 30
0.0
 40
1.0026319999999971
 50
180.05408499999839
 51
261.24375900000098
  0
LINE
  5
1B236
  8
AM_0
 10
767.0945832186776
 20
743.33449182235165
 30
0.0
 11
767.0945832186776
 21
747.40449182235159
 31
0.0
  0
ARC
  5
1B237
  8
AM_0
 10
769.63793921867784
 20
745.35784782235169
 30
0.0
 40
0.8033630000000001
 50
180.23932999999789
 51
269.76067000000211
  0
LINE
  5
1B238
  8
AM_0
 10
767.95458321867784
 20
744.32449182235155
 30
0.0
 11
769.55727121867756
 21
744.54390782235157
 31
0.0
  0
ARC
  5
1B239
  8
AM_0
 10
769.63964521867786
 20
745.34942982235168
 30
0.0
 40
0.8050779999999997
 50
90.360251000001654
 51
179.63974899999829
  0
LINE
  5
1B23A
  8
AM_0
 10
767.94458321867785
 20
746.41449182235158
 30
0.0
 11
769.70338221867746
 21
746.14390782235159
 31
0.0
  0
LINE
  5
1B23B
  8
AM_0
 10
769.09657621867768
 20
654.19390782235155
 30
0.0
 11
769.09657621867768
 21
638.36390782235173
 31
0.0
  0
ARC
  5
1B23C
  8
AM_0
 10
768.10155121867763
 20
657.39952782235173
 30
0.0
 40
1.0069859999999999
 50
180.35299799999879
 51
261.6078369999978
  0
ARC
  5
1B23D
  8
AM_0
 10
769.63964521867786
 20
655.37838582235179
 30
0.0
 40
0.8050779999999997
 50
180.3602510000016
 51
269.6397489999984
  0
ARC
  5
1B23E
  8
AM_0
 10
769.63793921867784
 20
655.36996782235155
 30
0.0
 40
0.8033630000000001
 50
90.239329999997906
 51
179.76067000000199
  0
ARC
  5
1B23F
  8
AM_0
 10
768.09721521867755
 20
653.32237682235188
 30
0.0
 40
1.0026319999999971
 50
98.756240999999051
 51
179.94591500000149
  0
LINE
  5
1B240
  8
AM_0
 10
767.0945832186776
 20
657.39332382235136
 30
0.0
 11
767.0945832186776
 21
653.32332382235188
 31
0.0
  0
LINE
  5
1B241
  8
AM_0
 10
767.94458321867762
 20
654.31332382235155
 30
0.0
 11
769.70338221867735
 21
654.58390782235165
 31
0.0
  0
LINE
  5
1B242
  8
AM_0
 10
767.95458321867784
 20
656.40332382235181
 30
0.0
 11
769.55727121867756
 21
656.18390782235178
 31
0.0
  0
LINE
  5
1B243
  8
AM_0
 10
769.09657621867768
 20
662.49996282235145
 30
0.0
 11
759.09657621867746
 21
662.49996282235145
 31
0.0
  0
LINE
  5
1B244
  8
AM_0
 10
769.09657621867768
 20
738.21785282235169
 30
0.0
 11
759.09657621867757
 21
738.21785282235169
 31
0.0
  0
LINE
  5
1B250
  8
AM_0
 10
189.36585689188101
 20
239.30398187140301
 30
0.0
 11
206.57600215630779
 21
239.30398187140301
 31
0.0
  0
LINE
  5
1B252
  8
AM_0
 10
189.36585689188101
 20
239.30398187140301
 30
0.0
 11
189.35605553788699
 21
239.60455843595801
 31
0.0
  0
LINE
  5
1B254
  8
AM_0
 10
159.86585689188101
 20
262.30397991475218
 30
0.0
 11
159.86585689188101
 21
268.3039806643103
 31
0.0
  0
LINE
  5
1B258
  8
AM_0
 10
148.86585689188101
 20
285.39889387140312
 30
0.0
 11
148.86585689188101
 21
293.30398187140298
 31
0.0
  0
ARC
  5
1B259
  8
AM_0
 10
154.86585689188109
 20
272.58871787140299
 30
0.0
 40
0.5
 50
180.0
 51
270.0
  0
LINE
  5
1B25A
  8
AM_0
 10
154.36585689188101
 20
274.08871787140299
 30
0.0
 11
154.36585689188101
 21
272.58871787140299
 31
0.0
  0
ARC
  5
1B25B
  8
AM_0
 10
154.86585689188109
 20
274.08871787140299
 30
0.0
 40
0.5
 50
90.0
 51
180.0
  0
LINE
  5
1B265
  8
AM_0
 10
158.8658549520365
 20
274.94340845154272
 30
0.0
 11
154.821933891881
 21
274.58678487140298
 31
0.0
  0
LINE
  5
1B266
  8
AM_0
 10
158.8658549520365
 20
271.19388530541971
 30
0.0
 11
154.75809989188099
 21
272.10046687140311
 31
0.0
  0
LINE
  5
1B271
  8
AM_0
 10
143.90557189188081
 20
314.3033728714031
 30
0.0
 11
147.46540189188099
 21
314.42768487140302
 31
0.0
  0
ARC
  5
1B272
  8
AM_0
 10
143.9404708918812
 20
313.30398187140298
 30
0.0
 40
1.0
 50
91.999999999997158
 51
268.0000000000029
  0
LINE
  5
1B273
  8
AM_0
 10
143.90557189188081
 20
312.30459087140298
 30
0.0
 11
147.885075891881
 21
312.165623871403
 31
0.0
  0
ARC
  5
1B274
  8
AM_0
 10
147.395602891881
 20
316.42646587140302
 30
0.0
 40
2.0
 50
271.9999999999971
 51
1.4286280000021609
  0
ARC
  5
1B275
  8
AM_0
 10
147.81527689188101
 20
310.16684187140299
 30
0.0
 40
2.0
 50
0.727204999998703
 51
88.000000000002785
  0
LINE
  5
1B276
  8
AM_0
 10
144.40887589188091
 20
304.3033728714031
 30
0.0
 11
148.3835058918811
 21
304.442169871403
 31
0.0
  0
ARC
  5
1B277
  8
AM_0
 10
144.4437758918811
 20
303.30398187140298
 30
0.0
 40
1.0
 50
91.999999999997158
 51
268.0000000000029
  0
LINE
  5
1B278
  8
AM_0
 10
144.40887589188091
 20
302.30459087140298
 30
0.0
 11
149.6706428918809
 21
302.12084587140299
 31
0.0
  0
ARC
  5
1B279
  8
AM_0
 10
149.60084389188111
 20
300.12206487140298
 30
0.0
 40
2.0
 50
13.922596999999429
 51
88.000000000002785
  0
ARC
  5
1B27A
  8
AM_0
 10
148.31370689188111
 20
306.44095187140312
 30
0.0
 40
2.0
 50
271.9999999999971
 51
9.0458950000015719
  0
ARC
  5
1B27B
  8
AM_0
 10
150.599358891881
 20
296.48548187140312
 30
0.0
 40
2.0
 50
271.9999999999971
 51
16.784652000000509
  0
LINE
  5
1B27C
  8
AM_0
 10
145.41933389188091
 20
294.3033728714031
 30
0.0
 11
150.6691578918809
 21
294.48670087140312
 31
0.0
  0
ARC
  5
1B27D
  8
AM_0
 10
145.45423289188099
 20
293.30398187140298
 30
0.0
 40
1.0
 50
91.999999999997158
 51
268.0000000000029
  0
LINE
  5
1B27E
  8
AM_0
 10
145.41933389188091
 20
292.30459087140298
 30
0.0
 11
148.86585689188101
 21
292.18423587140308
 31
0.0
  0
ARC
  5
1B27F
  8
AM_0
 10
152.865219891881
 20
290.04335587140309
 30
0.0
 40
2.0
 50
21.964500999998059
 51
88.000000000002785
  0
ARC
  5
1B280
  8
AM_0
 10
154.1654298918811
 20
287.0120798714031
 30
0.0
 40
2.0
 50
275.5175840000021
 51
24.4675450000009
  0
ARC
  5
1B281
  8
AM_0
 10
146.97969189188109
 20
283.3039818714031
 30
0.0
 40
1.0
 50
95.517584000002117
 51
265.38626999999849
  0
ARC
  5
1B282
  8
AM_0
 10
157.87585689188111
 20
279.41491687140308
 30
0.0
 40
2.0
 50
60.330313620343482
 51
85.386269999998405
  0
ARC
  5
1B29E
  8
AM_0
 10
150.02538789188111
 20
293.30398187140298
 30
0.0
 40
1.1595309999999981
 50
90.0
 51
268.0000000000029
  0
LINE
  5
1B29F
  8
AM_0
 10
149.9849208918809
 20
292.14515687140312
 30
0.0
 11
152.93501889188099
 21
292.04213787140299
 31
0.0
  0
ARC
  5
1B2A0
  8
AM_0
 10
147.86585689188109
 20
285.39889387140312
 30
0.0
 40
1.0
 50
275.5175840000021
 51
0.0
  0
LINE
  5
1B2A1
  8
AM_0
 10
158.03673289188089
 20
281.40843587140313
 30
0.0
 11
146.89925489188099
 21
282.3072218714031
 31
0.0
  0
LINE
  5
1B2A2
  8
AM_0
 10
154.357732891881
 20
285.02134687140301
 30
0.0
 11
146.8835408918809
 21
284.29934887140303
 31
0.0
  0
LINE
  5
1B2CF
  8
AM_0
 10
154.357732891881
 20
351.58661687140312
 30
0.0
 11
146.8835408918809
 21
352.30861487140311
 31
0.0
  0
LINE
  5
1B2D0
  8
AM_0
 10
158.03673289188089
 20
355.19952787140289
 30
0.0
 11
146.89925489188099
 21
354.30074187140298
 31
0.0
  0
ARC
  5
1B2D1
  8
AM_0
 10
147.86585689188109
 20
351.2090698714029
 30
0.0
 40
1.0
 50
0.0
 51
84.482415999997869
  0
LINE
  5
1B2D2
  8
AM_0
 10
149.9849208918809
 20
344.46280687140302
 30
0.0
 11
152.93501889188099
 21
344.56582587140309
 31
0.0
  0
ARC
  5
1B2D3
  8
AM_0
 10
150.02538789188111
 20
343.30398187140298
 30
0.0
 40
1.1595309999999981
 50
91.999999999997158
 51
270.0
  0
ARC
  5
1B2E2
  8
AM_0
 10
157.87585689188111
 20
357.19304687140288
 30
0.0
 40
2.0
 50
274.61373000000151
 51
299.66968637965948
  0
ARC
  5
1B2E3
  8
AM_0
 10
146.97969189188109
 20
353.30398187140298
 30
0.0
 40
1.0
 50
94.61373000000151
 51
264.4824159999979
  0
ARC
  5
1B2E4
  8
AM_0
 10
154.1654298918811
 20
349.59588387140298
 30
0.0
 40
2.0
 50
335.53245499999912
 51
84.482415999997869
  0
ARC
  5
1B2E5
  8
AM_0
 10
152.865219891881
 20
346.56460787140298
 30
0.0
 40
2.0
 50
271.9999999999971
 51
338.03549900000189
  0
LINE
  5
1B2E6
  8
AM_0
 10
145.41933389188091
 20
344.3033728714031
 30
0.0
 11
148.86585689188101
 21
344.42372787140289
 31
0.0
  0
ARC
  5
1B2E7
  8
AM_0
 10
145.45423289188099
 20
343.30398187140298
 30
0.0
 40
1.0
 50
91.999999999997158
 51
268.0000000000029
  0
LINE
  5
1B2E8
  8
AM_0
 10
145.41933389188091
 20
342.30459087140298
 30
0.0
 11
150.6691578918809
 21
342.12126287140308
 31
0.0
  0
ARC
  5
1B2E9
  8
AM_0
 10
150.599358891881
 20
340.1224818714029
 30
0.0
 40
2.0
 50
343.21534799999949
 51
88.000000000002785
  0
ARC
  5
1B2EA
  8
AM_0
 10
148.31370689188111
 20
330.16701187140302
 30
0.0
 40
2.0
 50
350.95410499999849
 51
88.000000000002785
  0
ARC
  5
1B2EB
  8
AM_0
 10
149.60084389188111
 20
336.48589887140292
 30
0.0
 40
2.0
 50
271.9999999999971
 51
346.07740300000057
  0
LINE
  5
1B2EC
  8
AM_0
 10
144.40887589188091
 20
334.3033728714031
 30
0.0
 11
149.6706428918809
 21
334.48711787140309
 31
0.0
  0
ARC
  5
1B2ED
  8
AM_0
 10
144.4437758918811
 20
333.3039818714031
 30
0.0
 40
1.0
 50
91.999999999997158
 51
268.0000000000029
  0
LINE
  5
1B2EE
  8
AM_0
 10
144.40887589188091
 20
332.30459087140298
 30
0.0
 11
148.3835058918811
 21
332.16579387140308
 31
0.0
  0
ARC
  5
1B2EF
  8
AM_0
 10
147.81527689188101
 20
326.44112187140308
 30
0.0
 40
2.0
 50
271.9999999999971
 51
359.27279500000128
  0
ARC
  5
1B2F0
  8
AM_0
 10
147.395602891881
 20
320.181497871403
 30
0.0
 40
2.0
 50
358.57137199999778
 51
88.000000000002785
  0
LINE
  5
1B2F1
  8
AM_0
 10
143.90557189188081
 20
324.3033728714031
 30
0.0
 11
147.885075891881
 21
324.44233987140308
 31
0.0
  0
ARC
  5
1B2F2
  8
AM_0
 10
143.9404708918812
 20
323.3039818714031
 30
0.0
 40
1.0
 50
91.999999999997158
 51
268.0000000000029
  0
LINE
  5
1B2F3
  8
AM_0
 10
143.90557189188081
 20
322.30459087140298
 30
0.0
 11
147.46540189188099
 21
322.18027887140312
 31
0.0
  0
LINE
  5
1B2FE
  8
AM_0
 10
158.8658549520365
 20
365.41407843738642
 30
0.0
 11
154.75809989188099
 21
364.50749687140302
 31
0.0
  0
LINE
  5
1B2FF
  8
AM_0
 10
158.8658549520365
 20
361.6645552912633
 30
0.0
 11
154.821933891881
 21
362.02117887140298
 31
0.0
  0
ARC
  5
1B309
  8
AM_0
 10
154.86585689188109
 20
362.51924587140297
 30
0.0
 40
0.5
 50
180.0
 51
270.0
  0
LINE
  5
1B30A
  8
AM_0
 10
154.36585689188101
 20
362.51924587140297
 30
0.0
 11
154.36585689188101
 21
364.01924587140297
 31
0.0
  0
ARC
  5
1B30B
  8
AM_0
 10
154.86585689188109
 20
364.01924587140297
 30
0.0
 40
0.5
 50
90.0
 51
180.0
  0
LINE
  5
1B30C
  8
AM_0
 10
148.86585689188101
 20
351.2090698714029
 30
0.0
 11
148.86585689188101
 21
343.30398187140298
 31
0.0
  0
LINE
  5
1B310
  8
AM_0
 10
159.86585689188101
 20
374.30398382805419
 30
0.0
 11
159.86585689188101
 21
368.30398307849589
 31
0.0
  0
ARC
  5
1B313
  8
AM_0
 10
222.86585689188109
 20
318.30398187140298
 30
0.0
 40
73.5
 50
150.54571654819861
 51
209.4542834518013
  0
ARC
  5
1B318
  8
AM_0
 10
222.86585689188109
 20
318.30398187140298
 30
0.0
 40
70.0
 50
156.1044957336174
 51
203.8955042663824
  0
ARC
  5
1B319
  8
AM_0
 10
222.86585689188109
 20
318.30398187140298
 30
0.0
 40
68.0
 50
160.2500820413191
 51
199.7499179586807
  0
ARC
  5
1B31B
  8
AM_0
 10
217.84787989188109
 20
397.26239587140299
 30
0.0
 40
1.0
 50
14.786342679183869
 51
167.2136658245804
  0
ARC
  5
1B31E
  8
AM_0
 10
227.84787989188109
 20
397.26239587140299
 30
0.0
 40
1.0
 50
25.38253208106142
 51
156.61747642270331
  0
ARC
  5
1B326
  8
AM_0
 10
207.84787989188109
 20
396.75909187140292
 30
0.0
 40
1.0
 50
35.541602952369153
 51
146.45840555139389
  0
POINT
  5
1B344
  8
AM_0
 10
815.59657621867768
 20
700.36390782235173
 30
0.0
  0
ARC
  5
1B345
  8
ｶｸﾚｾﾝ2
 10
779.09657621867757
 20
666.36390782235173
 30
0.0
 40
2.0
 50
180.0
 51
270.0
  0
LINE
  5
1B346
  8
ｶｸﾚｾﾝ2
 10
779.09657621867746
 20
675.86390782235173
 30
0.0
 11
779.59657621867746
 21
675.86390782235173
 31
0.0
  0
ARC
  5
1B347
  8
ｶｸﾚｾﾝ2
 10
779.09657621867757
 20
673.86390782235173
 30
0.0
 40
2.0
 50
90.0
 51
180.0
  0
LINE
  5
1B348
  8
ｶｸﾚｾﾝ2
 10
777.0965762186778
 20
666.36390782235173
 30
0.0
 11
777.0965762186778
 21
673.86390782235173
 31
0.0
  0
ARC
  5
1B349
  8
ｶｸﾚｾﾝ2
 10
779.59657621867757
 20
677.86390782235173
 30
0.0
 40
2.0
 50
270.0
 51
0.0
  0
ARC
  5
1B34A
  8
ｶｸﾚｾﾝ2
 10
779.09657621867757
 20
734.36390782235173
 30
0.0
 40
2.0
 50
90.0
 51
180.0
  0
LINE
  5
1B34B
  8
ｶｸﾚｾﾝ2
 10
777.0965762186778
 20
734.36390782235173
 30
0.0
 11
777.0965762186778
 21
726.86390782235173
 31
0.0
  0
LINE
  5
1B34C
  8
ｶｸﾚｾﾝ2
 10
779.09657621867757
 20
724.86390782235173
 30
0.0
 11
779.59657621867757
 21
724.86390782235173
 31
0.0
  0
ARC
  5
1B34D
  8
ｶｸﾚｾﾝ2
 10
779.09657621867757
 20
726.86390782235173
 30
0.0
 40
2.0
 50
180.0
 51
270.0
  0
ARC
  5
1B34E
  8
ｶｸﾚｾﾝ2
 10
779.59657621867757
 20
722.86390782235173
 30
0.0
 40
2.0
 50
0.0
 51
90.0
  0
LINE
  5
1B34F
  8
AM_0
 10
1014.396576218677
 20
702.86390782235173
 30
0.0
 11
1014.396576218677
 21
780.34390782235164
 31
0.0
  0
ARC
  5
1B350
  8
AM_0
 10
1040.2186262186769
 20
627.72199682235157
 30
0.0
 40
5.745309999999999
 50
272.8728220000034
 51
349.99567800000131
  0
ARC
  5
1B351
  8
AM_0
 10
1015.177853218677
 20
619.39590182235145
 30
0.0
 40
1.260022999999999
 50
93.242827000000702
 51
144.14698200000089
  0
ARC
  5
1B352
  8
AM_0
 10
1013.146212218678
 20
620.85548082235175
 30
0.0
 40
1.241573
 50
270.01681600000052
 51
324.46666699999912
  0
ARC
  5
1B353
  8
AM_0
 10
1040.2124382186771
 20
772.99880882235163
 30
0.0
 40
5.7526239999999991
 50
10.06237400000038
 51
87.069124999997058
  0
ARC
  5
1B354
  8
AM_0
 10
1015.172782218678
 20
781.32264982235165
 30
0.0
 40
1.2504959999999981
 50
215.64507799999589
 51
266.96511300000299
  0
ARC
  5
1B355
  8
AM_0
 10
1013.141239218677
 20
779.86267682235155
 30
0.0
 40
1.2512430000000001
 50
35.760896999997613
 51
89.755619999999979
  0
ARC
  5
1B356
  8
AM_0
 10
1049.146726218677
 20
763.16836382235147
 30
0.0
 40
2.249854
 50
359.8865100000022
 51
81.569506999999675
  0
ARC
  5
1B357
  8
AM_0
 10
1049.9122962186771
 20
768.36307682235156
 30
0.0
 40
3.0009689999999982
 50
189.96231799999899
 51
261.65154100000308
  0
LINE
  5
1B358
  8
AM_0
 10
1043.326576218677
 20
626.86390782235173
 30
0.0
 11
1043.326576218677
 21
697.71312582235146
 31
0.0
  0
LINE
  5
1B359
  8
AM_0
 10
1047.3965762186781
 20
764.01390782235171
 30
0.0
 11
1047.3965762186781
 21
701.69720082235165
 31
0.0
  0
LINE
  5
1B35A
  8
AM_0
 10
1015.106576218677
 20
620.65390782235147
 30
0.0
 11
1040.5065762186771
 21
621.98390782235163
 31
0.0
  0
LINE
  5
1B35B
  8
AM_0
 10
1046.9565752186779
 20
632.88390782235149
 30
0.0
 11
1045.876576218677
 21
626.72390782235175
 31
0.0
  0
LINE
  5
1B35C
  8
AM_0
 10
1015.106576218677
 20
780.07390782235154
 30
0.0
 11
1040.5065762186771
 21
778.74390782235173
 31
0.0
  0
LINE
  5
1B35D
  8
AM_0
 10
1014.396576218677
 20
620.38446882235178
 30
0.0
 11
1014.396576218677
 21
697.86390782235173
 31
0.0
  0
LINE
  5
1B35E
  8
AM_0
 10
1046.9565762186769
 20
767.84390782235164
 30
0.0
 11
1045.876576218677
 21
774.00390782235172
 31
0.0
  0
LINE
  5
1B35F
  8
AM_0
 10
1051.396576218677
 20
763.16390782235169
 30
0.0
 11
1051.396576218677
 21
699.21996382235159
 31
0.0
  0
LINE
  5
1B360
  8
ﾁｭｳｼﾝｾﾝ1
 10
961.09657621867768
 20
687.64402582235164
 30
0.0
 11
961.09657621867768
 21
713.97166782235172
 31
0.0
  0
LINE
  5
1B361
  8
AM_0
 10
1013.146576218677
 20
781.11390782235173
 30
0.0
 11
1006.096576218677
 21
781.11390782235173
 31
0.0
  0
LINE
  5
1B362
  8
AM_0
 10
1013.146576218677
 20
619.61390782235173
 30
0.0
 11
1006.096576218677
 21
619.61390782235173
 31
0.0
  0
LINE
  5
1B363
  8
ｶｸﾚｾﾝ2
 10
862.59657621867757
 20
736.36390782235173
 30
0.0
 11
779.09657621867757
 21
736.36390782235173
 31
0.0
  0
ARC
  5
1B364
  8
ｶｸﾚｾﾝ2
 10
862.60393221867753
 20
667.85655182235155
 30
0.0
 40
3.4926519999999979
 50
269.87932800000158
 51
0.1206719999985139
  0
LINE
  5
1B365
  8
ｶｸﾚｾﾝ2
 10
862.59657621867757
 20
664.36390782235173
 30
0.0
 11
779.09657621867746
 21
664.36390782235173
 31
0.0
  0
LINE
  5
1B366
  8
ｶｸﾚｾﾝ2
 10
781.59657621867768
 20
722.86390782235173
 30
0.0
 11
781.59657621867768
 21
677.86390782235173
 31
0.0
  0
LINE
  5
1B367
  8
ｶｸﾚｾﾝ2
 10
866.09657621867746
 20
667.86390782235173
 30
0.0
 11
866.09657621867757
 21
732.86390782235173
 31
0.0
  0
ARC
  5
1B368
  8
ｶｸﾚｾﾝ2
 10
862.59607721867769
 20
732.86340882235163
 30
0.0
 40
3.5004989999999978
 50
0.0081640000011518
 51
89.991835999998855
  0
LINE
  5
1B369
  8
AM_0
 10
931.09657621867768
 20
782.36390782235173
 30
0.0
 11
931.09657621867768
 21
618.36390782235173
 31
0.0
  0
LINE
  5
1B36A
  8
AM_0
 10
1006.096576218677
 20
618.36390782235173
 30
0.0
 11
1006.096576218677
 21
697.86390782235173
 31
0.0
  0
LINE
  5
1B36B
  8
AM_0
 10
1006.096576218677
 20
782.36390782235173
 30
0.0
 11
931.09657621867768
 21
782.36390782235173
 31
0.0
  0
LINE
  5
1B36C
  8
AM_0
 10
1006.096576218677
 20
618.36390782235173
 30
0.0
 11
931.09657621867768
 21
618.36390782235173
 31
0.0
  0
LINE
  5
1B36D
  8
AM_0
 10
1006.096576218677
 20
702.86390782235173
 30
0.0
 11
1006.096576218677
 21
782.36390782235173
 31
0.0
  0
LINE
  5
1B36E
  8
AM_0
 10
923.09657621867768
 20
637.00798882235165
 30
0.0
 11
931.09657621867768
 21
637.00798882235165
 31
0.0
  0
LINE
  5
1B36F
  8
AM_0
 10
931.09657621867768
 20
654.43257582235162
 30
0.0
 11
921.09657621867768
 21
654.43257582235162
 31
0.0
  0
LINE
  5
1B370
  8
AM_0
 10
931.09657621867768
 20
654.84390782235175
 30
0.0
 11
921.09657621867768
 21
654.84390782235175
 31
0.0
  0
LINE
  5
1B371
  8
AM_0
 10
931.09657621867768
 20
665.36390782235173
 30
0.0
 11
921.09657621867768
 21
665.36390782235173
 31
0.0
  0
LINE
  5
1B372
  8
AM_0
 10
931.09657621867768
 20
671.08235082235171
 30
0.0
 11
921.09657621867768
 21
671.08235082235171
 31
0.0
  0
LINE
  5
1B373
  8
AM_0
 10
931.09657621867768
 20
654.19390782235155
 30
0.0
 11
767.60152821867723
 21
654.19390782235155
 31
0.0
  0
LINE
  5
1B374
  8
AM_0
 10
921.09657621867768
 20
656.53390782235181
 30
0.0
 11
850.94657621867759
 21
656.53390782235181
 31
0.0
  0
LINE
  5
1B375
  8
AM_0
 10
921.09657621867768
 20
656.18390782235178
 30
0.0
 11
769.55727121867756
 21
656.18390782235178
 31
0.0
  0
LINE
  5
1B376
  8
AM_0
 10
892.44657621867748
 20
696.16390782235169
 30
0.0
 11
931.09657621867768
 21
696.16390782235169
 31
0.0
  0
LINE
  5
1B377
  8
AM_0
 10
892.55657621867761
 20
694.56390782235155
 30
0.0
 11
931.09657621867768
 21
694.56390782235155
 31
0.0
  0
LINE
  5
1B378
  8
AM_0
 10
891.96657621867769
 20
686.16390782235146
 30
0.0
 11
931.09657621867768
 21
686.16390782235146
 31
0.0
  0
LINE
  5
1B379
  8
AM_0
 10
891.60657621867745
 20
684.56390782235167
 30
0.0
 11
931.09657621867768
 21
684.56390782235167
 31
0.0
  0
LINE
  5
1B37A
  8
AM_0
 10
889.00657621867754
 20
676.1639078223518
 30
0.0
 11
931.09657621867768
 21
676.1639078223518
 31
0.0
  0
LINE
  5
1B37B
  8
AM_0
 10
888.4365762186776
 20
674.56390782235178
 30
0.0
 11
931.09657621867768
 21
674.56390782235178
 31
0.0
  0
LINE
  5
1B37C
  8
AM_0
 10
892.42657621867772
 20
696.37390782235173
 30
0.0
 11
931.09657621867768
 21
696.37390782235173
 31
0.0
  0
LINE
  5
1B37D
  8
AM_0
 10
931.09657621867768
 20
694.34390782235164
 30
0.0
 11
768.20657621867736
 21
694.34390782235164
 31
0.0
  0
LINE
  5
1B37E
  8
AM_0
 10
931.09657621867768
 20
686.39390782235148
 30
0.0
 11
767.9565762186777
 21
686.39390782235148
 31
0.0
  0
LINE
  5
1B37F
  8
AM_0
 10
891.54657621867761
 20
684.31390782235178
 30
0.0
 11
931.09657621867768
 21
684.31390782235178
 31
0.0
  0
LINE
  5
1B380
  8
AM_0
 10
889.10657621867745
 20
676.44390782235155
 30
0.0
 11
931.09657621867768
 21
676.44390782235155
 31
0.0
  0
LINE
  5
1B381
  8
AM_0
 10
888.32657621867747
 20
674.26390782235171
 30
0.0
 11
931.09657621867768
 21
674.26390782235171
 31
0.0
  0
LINE
  5
1B382
  8
AM_0
 10
921.09657621867768
 20
664.17390782235145
 30
0.0
 11
799.15294721867735
 21
664.17390782235145
 31
0.0
  0
LINE
  5
1B383
  8
AM_0
 10
921.09657621867768
 20
666.16390782235146
 30
0.0
 11
769.39657621867764
 21
666.16390782235146
 31
0.0
  0
LINE
  5
1B384
  8
AM_0
 10
921.09657621867768
 20
635.00798882235165
 30
0.0
 11
921.09657621867768
 21
633.86390782235173
 31
0.0
  0
ARC
  5
1B385
  8
AM_0
 10
923.09657621867768
 20
635.00798882235165
 30
0.0
 40
2.0
 50
90.0
 51
180.0
  0
ARC
  5
1B386
  8
AM_0
 10
919.09657621867757
 20
633.86390782235173
 30
0.0
 40
2.0
 50
270.0
 51
0.0
  0
LINE
  5
1B387
  8
AM_0
 10
921.09657621867768
 20
635.00798882235165
 30
0.0
 11
921.09657621867768
 21
647.46285782235179
 31
0.0
  0
ARC
  5
1B388
  8
AM_0
 10
923.09657621867768
 20
647.46285782235179
 30
0.0
 40
2.0
 50
90.0
 51
180.0
  0
LINE
  5
1B389
  8
AM_0
 10
921.09657621867768
 20
654.43257582235162
 30
0.0
 11
921.09657621867768
 21
671.08235082235171
 31
0.0
  0
LINE
  5
1B38A
  8
AM_0
 10
919.09657621867757
 20
631.86390782235173
 30
0.0
 11
770.10495121867746
 21
631.86390782235173
 31
0.0
  0
LINE
  5
1B38B
  8
AM_0
 10
931.09657621867768
 20
649.46285782235179
 30
0.0
 11
770.59657621867746
 21
649.46285782235179
 31
0.0
  0
LINE
  5
1B38C
  8
AM_0
 10
921.09657621867768
 20
654.58390782235165
 30
0.0
 11
769.70338221867735
 21
654.58390782235165
 31
0.0
  0
LINE
  5
1B38D
  8
AM_0
 10
770.59657621867757
 20
696.37390782235173
 30
0.0
 11
770.59657621867757
 21
700.36390782235173
 31
0.0
  0
LINE
  5
1B38E
  8
AM_0
 10
767.60152821867723
 20
664.17390782235145
 30
0.0
 11
799.15294721867735
 21
664.17390782235145
 31
0.0
  0
LINE
  5
1B38F
  8
AM_0
 10
888.4365762186776
 20
674.56390782235178
 30
0.0
 11
769.39657621867764
 21
674.56390782235178
 31
0.0
  0
LINE
  5
1B390
  8
AM_0
 10
921.09657621867768
 20
664.56390782235167
 30
0.0
 11
769.39657621867764
 21
664.56390782235167
 31
0.0
  0
LINE
  5
1B391
  8
AM_0
 10
891.60657621867745
 20
684.56390782235167
 30
0.0
 11
769.39657621867764
 21
684.56390782235167
 31
0.0
  0
LINE
  5
1B392
  8
AM_0
 10
892.44657621867748
 20
696.16390782235169
 30
0.0
 11
769.39657621867764
 21
696.16390782235169
 31
0.0
  0
LINE
  5
1B393
  8
AM_0
 10
769.09657621867768
 20
696.37390782235173
 30
0.0
 11
769.09657621867768
 21
700.36390782235173
 31
0.0
  0
LINE
  5
1B394
  8
AM_0
 10
769.18413221867752
 20
627.9514638223518
 30
0.0
 11
769.09657621867768
 21
627.86390782235173
 31
0.0
  0
LINE
  5
1B395
  8
AM_0
 10
769.09657621867768
 20
627.85891382235172
 30
0.0
 11
769.09657621867768
 21
627.86390782235173
 31
0.0
  0
LINE
  5
1B396
  8
AM_0
 10
767.9565762186777
 20
696.39390782235171
 30
0.0
 11
769.39657621867764
 21
696.19676482235172
 31
0.0
  0
LINE
  5
1B397
  8
AM_0
 10
767.94657621867782
 20
694.30390782235168
 30
0.0
 11
769.39657621867764
 21
694.52698482235155
 31
0.0
  0
LINE
  5
1B398
  8
AM_0
 10
767.09657621867757
 20
697.38390782235172
 30
0.0
 11
767.09657621867757
 21
693.31390782235167
 31
0.0
  0
LINE
  5
1B399
  8
AM_0
 10
767.9565762186777
 20
686.39390782235148
 30
0.0
 11
769.39657621867764
 21
686.19676482235161
 31
0.0
  0
LINE
  5
1B39A
  8
AM_0
 10
767.94657621867782
 20
684.30390782235179
 30
0.0
 11
769.39657621867764
 21
684.52698482235155
 31
0.0
  0
LINE
  5
1B39B
  8
AM_0
 10
767.09657621867746
 20
687.38390782235172
 30
0.0
 11
767.09657621867746
 21
683.31390782235167
 31
0.0
  0
LINE
  5
1B39C
  8
AM_0
 10
767.94657621867782
 20
674.30390782235168
 30
0.0
 11
769.39657621867764
 21
674.52698482235155
 31
0.0
  0
LINE
  5
1B39D
  8
AM_0
 10
767.9565762186777
 20
676.39390782235171
 30
0.0
 11
769.39657621867764
 21
676.19676482235161
 31
0.0
  0
LINE
  5
1B39E
  8
AM_0
 10
767.09657621867746
 20
677.38390782235172
 30
0.0
 11
767.09657621867746
 21
673.31390782235167
 31
0.0
  0
ARC
  5
1B39F
  8
AM_0
 10
769.64497121867782
 20
695.36390782235173
 30
0.0
 40
0.8000439999999999
 50
108.08794099999641
 51
251.9120590000035
  0
ARC
  5
1B3A0
  8
AM_0
 10
768.09920821867763
 20
693.31296182235155
 30
0.0
 40
1.0026319999999971
 50
98.756240999999051
 51
179.94591500000149
  0
ARC
  5
1B3A1
  8
AM_0
 10
768.10354321867726
 20
697.39011182235151
 30
0.0
 40
1.0069859999999999
 50
180.35299799999879
 51
261.6078369999978
  0
ARC
  5
1B3A2
  8
AM_0
 10
769.64163821867783
 20
685.3689698223518
 30
0.0
 40
0.8050779999999997
 50
180.3602510000016
 51
252.27820999999719
  0
ARC
  5
1B3A3
  8
AM_0
 10
768.09920821867763
 20
683.31296182235178
 30
0.0
 40
1.0026319999999971
 50
98.756240999999051
 51
179.94591500000149
  0
ARC
  5
1B3A4
  8
AM_0
 10
768.10354321867726
 20
687.39011182235163
 30
0.0
 40
1.0069859999999999
 50
180.35299799999879
 51
261.6078369999978
  0
ARC
  5
1B3A5
  8
AM_0
 10
769.63993221867781
 20
675.36055182235168
 30
0.0
 40
0.8033630000000001
 50
107.6331500000031
 51
179.76067000000199
  0
ARC
  5
1B3A6
  8
AM_0
 10
769.64163821867783
 20
675.36896982235169
 30
0.0
 40
0.8050779999999997
 50
180.3602510000016
 51
252.27820999999719
  0
ARC
  5
1B3A7
  8
AM_0
 10
768.10354321867726
 20
677.39011182235174
 30
0.0
 40
1.0069859999999999
 50
180.35299799999879
 51
261.6078369999978
  0
ARC
  5
1B3A8
  8
AM_0
 10
768.09920821867763
 20
673.31296182235167
 30
0.0
 40
1.0026319999999971
 50
98.756240999999051
 51
179.94591500000149
  0
ARC
  5
1B3A9
  8
AM_0
 10
769.63993221867781
 20
685.36055182235179
 30
0.0
 40
0.8033630000000001
 50
107.6331500000031
 51
179.76067000000199
  0
ARC
  5
1B3AA
  8
AM_0
 10
768.09907321867763
 20
627.86141082235179
 30
0.0
 40
0.9975059999999999
 50
269.85657800000291
 51
0.1434219999970843
  0
LINE
  5
1B3AB
  8
AM_0
 10
769.09657621867768
 20
627.86390782235173
 30
0.0
 11
769.09657621867768
 21
628.27822482235172
 31
0.0
  0
LINE
  5
1B3AC
  8
AM_0
 10
769.09657621867768
 20
686.39390782235148
 30
0.0
 11
769.09657621867768
 21
694.34390782235164
 31
0.0
  0
LINE
  5
1B3AD
  8
AM_0
 10
769.09657621867768
 20
676.44390782235155
 30
0.0
 11
769.09657621867768
 21
684.31390782235178
 31
0.0
  0
LINE
  5
1B3AE
  8
AM_0
 10
770.59657621867746
 20
656.53390782235181
 30
0.0
 11
770.59657621867746
 21
664.17390782235145
 31
0.0
  0
LINE
  5
1B3AF
  8
AM_0
 10
770.59657621867746
 20
649.46285782235179
 30
0.0
 11
770.59657621867746
 21
654.19390782235155
 31
0.0
  0
LINE
  5
1B3B0
  8
AM_0
 10
769.09657621867768
 20
664.17390782235145
 30
0.0
 11
769.09657621867768
 21
656.53390782235181
 31
0.0
  0
LINE
  5
1B3B1
  8
AM_0
 10
770.59657621867746
 20
649.46285782235179
 30
0.0
 11
770.48042121867752
 21
648.25493182235175
 31
0.0
  0
LINE
  5
1B3B2
  8
AM_0
 10
770.59657621867746
 20
686.39390782235148
 30
0.0
 11
770.59657621867757
 21
694.34390782235164
 31
0.0
  0
LINE
  5
1B3B3
  8
AM_0
 10
770.59657621867746
 20
676.44390782235155
 30
0.0
 11
770.59657621867746
 21
684.31390782235178
 31
0.0
  0
LINE
  5
1B3B4
  8
AM_0
 10
770.59657621867746
 20
666.51390782235171
 30
0.0
 11
770.59657621867746
 21
674.26390782235171
 31
0.0
  0
ARC
  5
1B3B5
  8
AM_0
 10
768.10155121867763
 20
667.37952782235186
 30
0.0
 40
1.0069859999999999
 50
180.35299799999879
 51
261.6078369999978
  0
ARC
  5
1B3B6
  8
AM_0
 10
768.09721521867755
 20
663.30237682235179
 30
0.0
 40
1.0026319999999971
 50
98.756240999999051
 51
179.94591500000149
  0
LINE
  5
1B3B7
  8
AM_0
 10
767.0945832186776
 20
667.37332382235149
 30
0.0
 11
767.0945832186776
 21
663.30332382235179
 31
0.0
  0
ARC
  5
1B3B8
  8
AM_0
 10
769.63964521867786
 20
665.35838582235181
 30
0.0
 40
0.8050779999999997
 50
180.3602510000016
 51
252.27820999999719
  0
LINE
  5
1B3B9
  8
AM_0
 10
767.94458321867762
 20
664.29332382235145
 30
0.0
 11
769.39458321867755
 21
664.51640082235178
 31
0.0
  0
ARC
  5
1B3BA
  8
AM_0
 10
769.63793921867784
 20
665.3499678223518
 30
0.0
 40
0.8033630000000001
 50
107.6331500000031
 51
179.76067000000199
  0
LINE
  5
1B3BB
  8
AM_0
 10
767.95458321867784
 20
666.38332382235171
 30
0.0
 11
769.39458321867755
 21
666.18618082235173
 31
0.0
  0
LINE
  5
1B3BC
  8
AM_0
 10
769.09657621867768
 20
666.51390782235171
 30
0.0
 11
769.09657621867768
 21
674.26390782235171
 31
0.0
  0
LINE
  5
1B3BD
  8
AM_0
 10
850.94657621867759
 20
656.53390782235181
 30
0.0
 11
767.58703721867755
 21
656.53390782235181
 31
0.0
  0
LINE
  5
1B3BE
  8
AM_0
 10
888.32657621867747
 20
674.26390782235171
 30
0.0
 11
767.78144721867784
 21
674.26390782235171
 31
0.0
  0
LINE
  5
1B3BF
  8
AM_0
 10
891.54657621867761
 20
684.31390782235178
 30
0.0
 11
768.04109121867759
 21
684.31390782235178
 31
0.0
  0
LINE
  5
1B3C0
  8
AM_0
 10
892.42657621867772
 20
696.37390782235173
 30
0.0
 11
768.10266321867755
 21
696.37390782235173
 31
0.0
  0
LINE
  5
1B3C1
  8
AM_0
 10
892.55657621867761
 20
694.56390782235155
 30
0.0
 11
769.39657621867764
 21
694.56390782235155
 31
0.0
  0
LINE
  5
1B3C2
  8
AM_0
 10
891.96657621867769
 20
686.16390782235146
 30
0.0
 11
769.39657621867764
 21
686.16390782235146
 31
0.0
  0
LINE
  5
1B3C3
  8
AM_0
 10
889.00657621867754
 20
676.1639078223518
 30
0.0
 11
769.39657621867764
 21
676.1639078223518
 31
0.0
  0
LINE
  5
1B3C4
  8
AM_0
 10
923.09657621867768
 20
763.71982682235159
 30
0.0
 11
931.09657621867768
 21
763.71982682235159
 31
0.0
  0
LINE
  5
1B3C5
  8
AM_0
 10
931.09657621867768
 20
746.29523982235173
 30
0.0
 11
921.09657621867768
 21
746.29523982235173
 31
0.0
  0
LINE
  5
1B3C6
  8
AM_0
 10
931.09657621867768
 20
745.88390782235172
 30
0.0
 11
921.09657621867768
 21
745.88390782235172
 31
0.0
  0
LINE
  5
1B3C7
  8
AM_0
 10
931.09657621867768
 20
735.36390782235173
 30
0.0
 11
921.09657621867768
 21
735.36390782235173
 31
0.0
  0
LINE
  5
1B3C8
  8
AM_0
 10
931.09657621867768
 20
729.64546482235164
 30
0.0
 11
921.09657621867768
 21
729.64546482235164
 31
0.0
  0
LINE
  5
1B3C9
  8
AM_0
 10
919.09657621867757
 20
768.86390782235173
 30
0.0
 11
770.10495121867746
 21
768.86390782235173
 31
0.0
  0
LINE
  5
1B3CA
  8
AM_0
 10
931.09657621867768
 20
751.26495782235156
 30
0.0
 11
770.59657621867757
 21
751.26495782235156
 31
0.0
  0
LINE
  5
1B3CB
  8
AM_0
 10
931.09657621867768
 20
746.53390782235158
 30
0.0
 11
767.60152821867746
 21
746.53390782235158
 31
0.0
  0
LINE
  5
1B3CC
  8
AM_0
 10
921.09657621867768
 20
744.19390782235166
 30
0.0
 11
850.94657621867759
 21
744.19390782235166
 31
0.0
  0
LINE
  5
1B3CD
  8
AM_0
 10
921.09657621867768
 20
744.54390782235157
 30
0.0
 11
769.55727121867756
 21
744.54390782235157
 31
0.0
  0
LINE
  5
1B3CE
  8
AM_0
 10
921.09657621867768
 20
746.14390782235159
 30
0.0
 11
769.70338221867746
 21
746.14390782235159
 31
0.0
  0
LINE
  5
1B3CF
  8
AM_0
 10
892.44657621867748
 20
704.56390782235155
 30
0.0
 11
931.09657621867768
 21
704.56390782235155
 31
0.0
  0
LINE
  5
1B3D0
  8
AM_0
 10
892.55657621867761
 20
706.16390782235158
 30
0.0
 11
931.09657621867768
 21
706.16390782235158
 31
0.0
  0
LINE
  5
1B3D1
  8
AM_0
 10
891.96657621867769
 20
714.56390782235155
 30
0.0
 11
931.09657621867768
 21
714.56390782235155
 31
0.0
  0
LINE
  5
1B3D2
  8
AM_0
 10
891.60657621867767
 20
716.16390782235158
 30
0.0
 11
931.09657621867768
 21
716.16390782235158
 31
0.0
  0
LINE
  5
1B3D3
  8
AM_0
 10
889.00657621867754
 20
724.56390782235167
 30
0.0
 11
931.09657621867768
 21
724.56390782235167
 31
0.0
  0
LINE
  5
1B3D4
  8
AM_0
 10
888.4365762186776
 20
726.16390782235169
 30
0.0
 11
931.09657621867768
 21
726.16390782235169
 31
0.0
  0
LINE
  5
1B3D5
  8
AM_0
 10
892.42657621867772
 20
704.35390782235163
 30
0.0
 11
931.09657621867768
 21
704.35390782235163
 31
0.0
  0
LINE
  5
1B3D6
  8
AM_0
 10
892.56657621867782
 20
706.38390782235172
 30
0.0
 11
931.09657621867768
 21
706.38390782235172
 31
0.0
  0
LINE
  5
1B3D7
  8
AM_0
 10
892.01657621867741
 20
714.33390782235165
 30
0.0
 11
931.09657621867768
 21
714.33390782235165
 31
0.0
  0
LINE
  5
1B3D8
  8
AM_0
 10
891.54657621867761
 20
716.41390782235169
 30
0.0
 11
931.09657621867768
 21
716.41390782235169
 31
0.0
  0
LINE
  5
1B3D9
  8
AM_0
 10
889.10657621867779
 20
724.28390782235169
 30
0.0
 11
931.09657621867768
 21
724.28390782235169
 31
0.0
  0
LINE
  5
1B3DA
  8
AM_0
 10
888.32657621867793
 20
726.46390782235164
 30
0.0
 11
931.09657621867768
 21
726.46390782235164
 31
0.0
  0
LINE
  5
1B3DB
  8
AM_0
 10
921.09657621867768
 20
734.56390782235155
 30
0.0
 11
769.39657621867764
 21
734.56390782235155
 31
0.0
  0
LINE
  5
1B3DC
  8
AM_0
 10
921.09657621867768
 20
746.29523982235173
 30
0.0
 11
921.09657621867768
 21
729.64546482235164
 31
0.0
  0
ARC
  5
1B3DD
  8
AM_0
 10
923.09657621867768
 20
753.26495782235168
 30
0.0
 40
2.0
 50
180.0
 51
270.0
  0
LINE
  5
1B3DE
  8
AM_0
 10
921.09657621867768
 20
765.71982682235171
 30
0.0
 11
921.09657621867768
 21
753.26495782235168
 31
0.0
  0
ARC
  5
1B3DF
  8
AM_0
 10
919.09657621867757
 20
766.86390782235173
 30
0.0
 40
2.0
 50
0.0
 51
90.0
  0
ARC
  5
1B3E0
  8
AM_0
 10
923.09657621867768
 20
765.71982682235171
 30
0.0
 40
2.0
 50
180.0
 51
270.0
  0
LINE
  5
1B3E1
  8
AM_0
 10
921.09657621867768
 20
765.71982682235171
 30
0.0
 11
921.09657621867768
 21
766.86390782235173
 31
0.0
  0
LINE
  5
1B3E2
  8
AM_0
 10
888.32657621867793
 20
726.46390782235164
 30
0.0
 11
767.78144721867784
 21
726.46390782235164
 31
0.0
  0
LINE
  5
1B3E3
  8
AM_0
 10
891.54657621867761
 20
716.41390782235169
 30
0.0
 11
768.04109121867759
 21
716.41390782235169
 31
0.0
  0
LINE
  5
1B3E4
  8
AM_0
 10
892.56657621867782
 20
706.38390782235172
 30
0.0
 11
768.20657621867736
 21
706.38390782235172
 31
0.0
  0
LINE
  5
1B3E5
  8
AM_0
 10
892.44657621867748
 20
704.56390782235155
 30
0.0
 11
769.39657621867764
 21
704.56390782235155
 31
0.0
  0
LINE
  5
1B3E6
  8
AM_0
 10
891.96657621867769
 20
714.56390782235155
 30
0.0
 11
769.39657621867764
 21
714.56390782235155
 31
0.0
  0
LINE
  5
1B3E7
  8
AM_0
 10
889.00657621867754
 20
724.56390782235167
 30
0.0
 11
769.39657621867764
 21
724.56390782235167
 31
0.0
  0
LINE
  5
1B3E8
  8
AM_0
 10
850.94657621867759
 20
744.19390782235166
 30
0.0
 11
767.58703721867778
 21
744.19390782235166
 31
0.0
  0
LINE
  5
1B3E9
  8
AM_0
 10
770.59657621867757
 20
744.19390782235166
 30
0.0
 11
770.59657621867757
 21
736.55390782235156
 31
0.0
  0
LINE
  5
1B3EA
  8
AM_0
 10
769.09657621867768
 20
762.36390782235173
 30
0.0
 11
769.09657621867768
 21
746.53390782235158
 31
0.0
  0
LINE
  5
1B3EB
  8
AM_0
 10
770.59657621867757
 20
751.26495782235156
 30
0.0
 11
770.48042121867763
 21
752.47288482235149
 31
0.0
  0
LINE
  5
1B3EC
  8
AM_0
 10
770.59657621867757
 20
751.26495782235156
 30
0.0
 11
770.59657621867757
 21
746.53390782235158
 31
0.0
  0
LINE
  5
1B3ED
  8
AM_0
 10
769.09657621867768
 20
772.86390782235173
 30
0.0
 11
769.09657621867768
 21
772.44959082235164
 31
0.0
  0
ARC
  5
1B3EE
  8
AM_0
 10
768.09907321867763
 20
772.86640482235157
 30
0.0
 40
0.9975059999999999
 50
359.85657800000291
 51
90.143421999997074
  0
LINE
  5
1B3EF
  8
AM_0
 10
769.09657621867768
 20
772.86890182235163
 30
0.0
 11
769.09657621867768
 21
772.86390782235173
 31
0.0
  0
LINE
  5
1B3F0
  8
AM_0
 10
769.18413221867763
 20
772.77635182235156
 30
0.0
 11
769.09657621867768
 21
772.86390782235173
 31
0.0
  0
LINE
  5
1B3F1
  8
AM_0
 10
770.59657621867757
 20
704.35390782235163
 30
0.0
 11
770.59657621867757
 21
700.36390782235173
 31
0.0
  0
LINE
  5
1B3F2
  8
AM_0
 10
921.09657621867768
 20
736.55390782235156
 30
0.0
 11
767.60152821867746
 21
736.55390782235156
 31
0.0
  0
LINE
  5
1B3F3
  8
AM_0
 10
888.4365762186776
 20
726.16390782235169
 30
0.0
 11
769.39657621867764
 21
726.16390782235169
 31
0.0
  0
LINE
  5
1B3F4
  8
AM_0
 10
921.09657621867768
 20
736.16390782235158
 30
0.0
 11
769.39657621867764
 21
736.16390782235158
 31
0.0
  0
LINE
  5
1B3F5
  8
AM_0
 10
892.01657621867741
 20
714.33390782235165
 30
0.0
 11
767.9565762186777
 21
714.33390782235165
 31
0.0
  0
LINE
  5
1B3F6
  8
AM_0
 10
891.60657621867767
 20
716.16390782235158
 30
0.0
 11
769.39657621867764
 21
716.16390782235158
 31
0.0
  0
LINE
  5
1B3F7
  8
AM_0
 10
892.55657621867761
 20
706.16390782235158
 30
0.0
 11
769.39657621867764
 21
706.16390782235158
 31
0.0
  0
LINE
  5
1B3F8
  8
AM_0
 10
769.09657621867768
 20
704.35390782235163
 30
0.0
 11
769.09657621867768
 21
700.36390782235173
 31
0.0
  0
LINE
  5
1B3F9
  8
AM_0
 10
769.09657621867768
 20
734.21390782235164
 30
0.0
 11
769.09657621867768
 21
726.46390782235164
 31
0.0
  0
LINE
  5
1B3FA
  8
AM_0
 10
767.95458321867784
 20
734.34449182235164
 30
0.0
 11
769.39458321867755
 21
734.54163482235174
 31
0.0
  0
ARC
  5
1B3FB
  8
AM_0
 10
769.63793921867784
 20
735.37784782235155
 30
0.0
 40
0.8033630000000001
 50
180.23932999999789
 51
252.36684999999679
  0
LINE
  5
1B3FC
  8
AM_0
 10
767.94458321867785
 20
736.43449182235156
 30
0.0
 11
769.39458321867755
 21
736.21141482235168
 31
0.0
  0
ARC
  5
1B3FD
  8
AM_0
 10
769.63964521867786
 20
735.36942982235155
 30
0.0
 40
0.8050779999999997
 50
107.7217900000028
 51
179.63974899999829
  0
LINE
  5
1B3FE
  8
AM_0
 10
767.0945832186776
 20
733.35449182235163
 30
0.0
 11
767.0945832186776
 21
737.42449182235146
 31
0.0
  0
ARC
  5
1B3FF
  8
AM_0
 10
768.09721521867755
 20
737.42543882235157
 30
0.0
 40
1.0026319999999971
 50
180.05408499999839
 51
261.24375900000098
  0
ARC
  5
1B400
  8
AM_0
 10
768.10155121867763
 20
733.34828782235172
 30
0.0
 40
1.0069859999999999
 50
98.392163000002284
 51
179.64700200000121
  0
LINE
  5
1B401
  8
AM_0
 10
770.59657621867757
 20
734.21390782235164
 30
0.0
 11
770.59657621867757
 21
726.46390782235164
 31
0.0
  0
LINE
  5
1B402
  8
AM_0
 10
770.59657621867757
 20
724.28390782235169
 30
0.0
 11
770.59657621867757
 21
716.41390782235169
 31
0.0
  0
LINE
  5
1B403
  8
AM_0
 10
770.59657621867757
 20
714.33390782235165
 30
0.0
 11
770.59657621867757
 21
706.38390782235172
 31
0.0
  0
LINE
  5
1B404
  8
AM_0
 10
769.09657621867768
 20
724.28390782235169
 30
0.0
 11
769.09657621867768
 21
716.41390782235169
 31
0.0
  0
LINE
  5
1B405
  8
AM_0
 10
769.09657621867768
 20
714.33390782235165
 30
0.0
 11
769.09657621867768
 21
706.38390782235172
 31
0.0
  0
ARC
  5
1B406
  8
AM_0
 10
769.63993221867781
 20
715.36726382235156
 30
0.0
 40
0.8033630000000001
 50
180.23932999999789
 51
252.36684999999679
  0
ARC
  5
1B407
  8
AM_0
 10
768.09920821867763
 20
727.41485382235146
 30
0.0
 40
1.0026319999999971
 50
180.05408499999839
 51
261.24375900000098
  0
ARC
  5
1B408
  8
AM_0
 10
768.10354321867726
 20
723.33770382235173
 30
0.0
 40
1.0069859999999999
 50
98.392163000002284
 51
179.64700200000121
  0
ARC
  5
1B409
  8
AM_0
 10
769.64163821867783
 20
725.35884582235155
 30
0.0
 40
0.8050779999999997
 50
107.7217900000028
 51
179.63974899999829
  0
ARC
  5
1B40A
  8
AM_0
 10
769.63993221867781
 20
725.36726382235156
 30
0.0
 40
0.8033630000000001
 50
180.23932999999789
 51
252.36684999999679
  0
ARC
  5
1B40B
  8
AM_0
 10
768.10354321867726
 20
713.33770382235173
 30
0.0
 40
1.0069859999999999
 50
98.392163000002284
 51
179.64700200000121
  0
ARC
  5
1B40C
  8
AM_0
 10
768.09920821867763
 20
717.41485382235169
 30
0.0
 40
1.0026319999999971
 50
180.05408499999839
 51
261.24375900000098
  0
ARC
  5
1B40D
  8
AM_0
 10
769.64163821867783
 20
715.35884582235155
 30
0.0
 40
0.8050779999999997
 50
107.7217900000028
 51
179.63974899999829
  0
ARC
  5
1B40E
  8
AM_0
 10
768.10354321867726
 20
703.33770382235173
 30
0.0
 40
1.0069859999999999
 50
98.392163000002284
 51
179.64700200000121
  0
ARC
  5
1B40F
  8
AM_0
 10
768.09920821867763
 20
707.41485382235146
 30
0.0
 40
1.0026319999999971
 50
180.05408499999839
 51
261.24375900000098
  0
ARC
  5
1B410
  8
AM_0
 10
769.64497121867782
 20
705.36390782235173
 30
0.0
 40
0.8000439999999999
 50
108.08794099999641
 51
251.9120590000035
  0
LINE
  5
1B411
  8
AM_0
 10
767.09657621867757
 20
723.34390782235164
 30
0.0
 11
767.09657621867757
 21
727.41390782235169
 31
0.0
  0
LINE
  5
1B412
  8
AM_0
 10
767.9565762186777
 20
724.33390782235165
 30
0.0
 11
769.39657621867764
 21
724.53105082235163
 31
0.0
  0
LINE
  5
1B413
  8
AM_0
 10
767.94657621867782
 20
726.42390782235168
 30
0.0
 11
769.39657621867764
 21
726.20083082235158
 31
0.0
  0
LINE
  5
1B414
  8
AM_0
 10
767.09657621867757
 20
713.34390782235164
 30
0.0
 11
767.09657621867757
 21
717.41390782235158
 31
0.0
  0
LINE
  5
1B415
  8
AM_0
 10
767.94657621867782
 20
716.42390782235157
 30
0.0
 11
769.39657621867764
 21
716.20083082235169
 31
0.0
  0
LINE
  5
1B416
  8
AM_0
 10
767.9565762186777
 20
714.33390782235165
 30
0.0
 11
769.39657621867764
 21
714.53105082235163
 31
0.0
  0
LINE
  5
1B417
  8
AM_0
 10
767.09657621867757
 20
703.34390782235164
 30
0.0
 11
767.09657621867757
 21
707.41390782235169
 31
0.0
  0
LINE
  5
1B418
  8
AM_0
 10
767.94657621867782
 20
706.42390782235168
 30
0.0
 11
769.39657621867764
 21
706.20083082235169
 31
0.0
  0
LINE
  5
1B419
  8
AM_0
 10
767.9565762186777
 20
704.33390782235165
 30
0.0
 11
769.39657621867764
 21
704.53105082235186
 31
0.0
  0
LINE
  5
1B41A
  8
AM_0
 10
1051.596576218677
 20
623.36335982235175
 30
0.0
 11
1051.596576218677
 21
687.86390782235173
 31
0.0
  0
LINE
  5
1B41B
  8
AM_0
 10
1056.596576218677
 20
623.36335982235175
 30
0.0
 11
1056.596576218677
 21
687.86390782235173
 31
0.0
  0
ARC
  5
1B41C
  8
AM_0
 10
1054.0965762186779
 20
623.36335982235175
 30
0.0
 40
2.5
 50
180.0
 51
0.0
  0
ARC
  5
1B41D
  8
AM_0
 10
1041.5965762186779
 20
687.86390782235173
 30
0.0
 40
15.0
 50
0.0
 51
90.0
  0
ARC
  5
1B41E
  8
AM_0
 10
1041.5965762186779
 20
687.86390782235173
 30
0.0
 40
10.0
 50
0.0
 51
90.0
  0
LINE
  5
1B41F
  8
AM_0
 10
968.09657621867757
 20
697.86390782235173
 30
0.0
 11
1041.596576218677
 21
697.86390782235173
 31
0.0
  0
LINE
  5
1B420
  8
AM_0
 10
968.09657621867757
 20
702.86390782235173
 30
0.0
 11
1041.596576218677
 21
702.86390782235173
 31
0.0
  0
ARC
  5
1B421
  8
AM_0
 10
961.09657621867768
 20
700.36390782235173
 30
0.0
 40
6.0
 50
199.4712200000001
 51
340.52877899999879
  0
LINE
  5
1B422
  8
AM_0
 10
968.09657621867757
 20
698.36390782235173
 30
0.0
 11
968.09657621867757
 21
697.86390782235173
 31
0.0
  0
ARC
  5
1B423
  8
AM_0
 10
961.09657621867768
 20
700.36390782235173
 30
0.0
 40
7.0
 50
196.60154999999881
 51
343.39845000000122
  0
LINE
  5
1B424
  8
AM_0
 10
952.09657621867757
 20
698.36390782235173
 30
0.0
 11
952.09657621867757
 21
697.86390782235173
 31
0.0
  0
LINE
  5
1B425
  8
AM_0
 10
952.09657621867757
 20
697.86390782235173
 30
0.0
 11
947.09657621867768
 21
697.86390782235173
 31
0.0
  0
LINE
  5
1B426
  8
AM_0
 10
952.09657621867757
 20
698.36390782235173
 30
0.0
 11
968.09657621867757
 21
698.36390782235173
 31
0.0
  0
ARC
  5
1B427
  8
AM_0
 10
1049.9122962186771
 20
632.36473882235146
 30
0.0
 40
3.0009689999999982
 50
98.383608000000606
 51
170.03768200000101
  0
LINE
  5
1B428
  8
AM_0
 10
1047.3965762186781
 20
696.01007282235173
 30
0.0
 11
1047.3965762186781
 21
636.99326782235164
 31
0.0
  0
LINE
  5
1B429
  8
AM_0
 10
1043.326576218677
 20
702.76381082235173
 30
0.0
 11
1043.326576218677
 21
774.3839078223516
 31
0.0
  0
LINE
  5
1B42A
  8
AM_0
 10
947.09657621867768
 20
697.86390782235173
 30
0.0
 11
947.09657621867768
 21
702.86390782235173
 31
0.0
  0
LINE
  5
1B42B
  8
AM_0
 10
952.09657621867757
 20
702.36390782235173
 30
0.0
 11
968.09657621867757
 21
702.36390782235173
 31
0.0
  0
LINE
  5
1B42C
  8
AM_0
 10
952.09657621867757
 20
702.86390782235173
 30
0.0
 11
947.09657621867768
 21
702.86390782235173
 31
0.0
  0
LINE
  5
1B42D
  8
AM_0
 10
952.09657621867757
 20
702.36390782235173
 30
0.0
 11
952.09657621867757
 21
702.86390782235173
 31
0.0
  0
LINE
  5
1B42E
  8
AM_0
 10
968.09657621867757
 20
702.36390782235173
 30
0.0
 11
968.09657621867757
 21
702.86390782235173
 31
0.0
  0
ARC
  5
1B42F
  8
AM_0
 10
961.09657621867768
 20
700.36390782235173
 30
0.0
 40
6.0
 50
19.471221000001229
 51
160.5287799999999
  0
ARC
  5
1B430
  8
AM_0
 10
961.09657621867768
 20
700.36390782235173
 30
0.0
 40
7.0
 50
16.601549999998781
 51
163.39845000000111
  0
ARC
  5
1B431
  8
AM_0
 10
1049.146726218677
 20
637.55945182235166
 30
0.0
 40
2.249854
 50
278.38360800000061
 51
0.1134899999977179
  0
ARC
  5
1B432
  8
AM_0
 10
1054.0965762186779
 20
623.36335982235175
 30
0.0
 40
3.0
 50
146.44268999999861
 51
319.99999999999739
  0
LINE
  5
1B433
  8
AM_0
 10
1055.864343218678
 20
621.59559282235148
 30
0.0
 11
1058.4430232186769
 21
624.17427282235178
 31
0.0
  0
LINE
  5
1B434
  8
AM_0
 10
1056.217896218677
 20
621.24203982235167
 30
0.0
 11
1058.796576218678
 21
623.82071982235163
 31
0.0
  0
LINE
  5
1B435
  8
AM_0
 10
1058.796576218678
 20
623.82071982235163
 30
0.0
 11
1058.4430232186769
 21
624.17427282235178
 31
0.0
  0
LINE
  5
1B436
  8
AM_0
 10
768.0965762186778
 20
773.86390782235173
 30
0.0
 11
759.09657621867757
 21
773.86390782235173
 31
0.0
  0
LINE
  5
1B437
  8
AM_0
 10
768.0965762186778
 20
763.36390782235173
 30
0.0
 11
759.09657621867757
 21
763.36390782235173
 31
0.0
  0
LINE
  5
1B438
  8
AM_0
 10
768.09657621867746
 20
626.86390782235173
 30
0.0
 11
759.09657621867746
 21
626.86390782235173
 31
0.0
  0
LINE
  5
1B439
  8
AM_0
 10
768.09657621867746
 20
637.36390782235173
 30
0.0
 11
759.09657621867746
 21
637.36390782235173
 31
0.0
  0
INSERT
  5
1B43B
  8
AM_0
  2
$6-44
 10
769.09657621867768
 20
756.97288482235138
 30
0.0
 41
-1.0
 42
-1.0
 50
90.0
  0
INSERT
  5
1B43C
  8
AM_0
  2
$6-44
 10
769.09657821867756
 20
643.75493182235175
 30
0.0
 50
270.0
  0
LINE
  5
1B43D
  8
AM_0
 10
889.10657621867779
 20
724.28390782235169
 30
0.0
 11
767.75898621867782
 21
724.28390782235169
 31
0.0
  0
LINE
  5
1B43E
  8
AM_0
 10
892.42657621867772
 20
704.35390782235163
 30
0.0
 11
768.10266321867755
 21
704.35390782235163
 31
0.0
  0
LINE
  5
1B43F
  8
AM_0
 10
921.09657621867768
 20
734.21390782235164
 30
0.0
 11
767.59135921867755
 21
734.21390782235164
 31
0.0
  0
LINE
  5
1B440
  8
AM_0
 10
921.09657621867768
 20
666.51390782235171
 30
0.0
 11
767.59135921867755
 21
666.51390782235171
 31
0.0
  0
LINE
  5
1B441
  8
AM_0
 10
889.10657621867745
 20
676.44390782235155
 30
0.0
 11
767.75898621867782
 21
676.44390782235155
 31
0.0
  0
LINE
  5
1B44C
  8
AM_0
 10
256.36583689188097
 20
236.80398187140301
 30
0.0
 11
256.36583689188097
 21
238.4348933773324
 31
0.0
  0
LINE
  5
1B44D
  8
AM_0
 10
189.3658768918809
 20
236.80398187140301
 30
0.0
 11
189.3658768918809
 21
239.30398187140301
 31
0.0
  0
LINE
  5
1B44E
  8
AM_0
 10
256.36585289188099
 20
236.80398187140301
 30
0.0
 11
189.3658768918809
 21
236.80398187140301
 31
0.0
  0
INSERT
  5
1B452
  8
AM_0
  2
$6-44
 10
769.09652429835103
 20
261.69500587140323
 30
0.0
 41
-1.0
 42
-1.0
 50
90.0
  0
INSERT
  5
1B453
  8
AM_0
  2
$6-44
 10
769.09652229835103
 20
374.91295887140308
 30
0.0
 50
270.0
  0
LINE
  5
1B455
  8
AM_0
 10
258.86586089188103
 20
202.80398187140301
 30
0.0
 11
186.8658568918809
 21
202.80398187140301
 31
0.0
  0
LINE
  5
1B456
  8
AM_0
 10
228.36585689188101
 20
224.80399187140301
 30
0.0
 11
217.36585689188101
 21
224.80399187140301
 31
0.0
  0
LINE
  5
1B457
  8
AM_0
 10
189.3658768918809
 20
215.80399187140301
 30
0.0
 11
256.36585289188099
 21
215.80399187140301
 31
0.0
  0
LINE
  5
1B458
  8
AM_0
 10
186.8658568918809
 20
227.80399187140301
 30
0.0
 11
189.36585689188101
 21
231.80398187140301
 31
0.0
  0
LINE
  5
1B459
  8
AM_0
 10
199.2358668918811
 20
236.80398187140301
 30
0.0
 11
199.2358668918811
 21
202.80398187140301
 31
0.0
  0
LINE
  5
1B45A
  8
AM_0
 10
189.3658768918809
 20
219.80398187140301
 30
0.0
 11
189.3658768918809
 21
236.80398187140301
 31
0.0
  0
LINE
  5
1B45B
  8
AM_0
 10
186.8658568918809
 20
202.80398187140301
 30
0.0
 11
186.8658568918809
 21
227.80399187140301
 31
0.0
  0
LINE
  5
1B45C
  8
AM_0
 10
217.36585689188101
 20
219.80398187140301
 30
0.0
 11
186.8658568918809
 21
219.80398187140301
 31
0.0
  0
LINE
  5
1B45D
  8
AM_0
 10
189.3658768918809
 20
202.80398187140301
 30
0.0
 11
189.3658768918809
 21
215.80399187140301
 31
0.0
  0
LINE
  5
1B45E
  8
AM_0
 10
217.36585689188101
 20
215.80399187140301
 30
0.0
 11
217.36585689188101
 21
224.80399187140301
 31
0.0
  0
LINE
  5
1B45F
  8
AM_0
 10
256.69805989188097
 20
231.27248187140299
 30
0.0
 11
258.86586789188101
 21
227.80398187140301
 31
0.0
  0
LINE
  5
1B460
  8
AM_0
 10
256.36585289188099
 20
219.80398187140301
 30
0.0
 11
256.36585289188099
 21
236.80398187140301
 31
0.0
  0
LINE
  5
1B461
  8
AM_0
 10
246.4958768918811
 20
202.80398187140301
 30
0.0
 11
246.4958768918811
 21
236.80398187140301
 31
0.0
  0
LINE
  5
1B462
  8
AM_0
 10
258.86586089188103
 20
227.80399187140301
 30
0.0
 11
258.86586089188103
 21
202.80398187140301
 31
0.0
  0
LINE
  5
1B463
  8
AM_0
 10
228.36585689188101
 20
215.80399187140301
 30
0.0
 11
228.36585689188101
 21
224.80399187140301
 31
0.0
  0
LINE
  5
1B464
  8
AM_0
 10
258.86586089188103
 20
219.80398187140301
 30
0.0
 11
228.36585689188101
 21
219.80398187140301
 31
0.0
  0
LINE
  5
1B465
  8
AM_0
 10
256.36585289188099
 20
202.80398187140301
 30
0.0
 11
256.36585289188099
 21
215.80399187140301
 31
0.0
  0
ARC
  5
1B5DC
  8
AM_0
 10
921.07764729835117
 20
239.82905187140341
 30
0.0
 40
2.0
 50
90.0
 51
119.6883029999991
  0
LINE
  5
1B5DD
  8
AM_0
 10
931.09652229835103
 20
241.82905187140341
 30
0.0
 11
921.07764729835117
 21
241.82905187140341
 31
0.0
  0
ARC
  5
1B5DE
  8
AM_0
 10
923.0218952983513
 20
242.53492387140309
 30
0.0
 40
2.0
 50
90.0
 51
168.91503000000159
  0
LINE
  5
1B5DF
  8
AM_0
 10
931.09652229835103
 20
244.53492387140309
 30
0.0
 11
923.0218952983513
 21
244.53492387140309
 31
0.0
  0
ARC
  5
1B5E0
  8
AM_0
 10
919.09652229835115
 20
243.30398187140321
 30
0.0
 40
2.0
 50
270.0
 51
0.000000000000007
  0
ARC
  5
1B5E1
  8
AM_0
 10
919.09652229835115
 20
251.8039858714032
 30
0.0
 40
2.0
 50
270.0
 51
0.000000000000007
  0
LINE
  5
1B5E2
  8
AM_0
 10
921.09652229835103
 20
265.50446887140328
 30
0.0
 11
921.09652229835103
 21
243.30398187140321
 31
0.0
  0
LINE
  5
1B5E3
  8
AM_0
 10
931.09652229835103
 20
264.11668487140321
 30
0.0
 11
921.09652229835103
 21
264.11668487140321
 31
0.0
  0
LINE
  5
1B5E4
  8
AM_0
 10
931.09652229835103
 20
252.53998987140329
 30
0.0
 11
921.09652229835103
 21
252.53998987140329
 31
0.0
  0
LINE
  5
1B5E5
  8
AM_0
 10
931.09652229835103
 20
246.47982687140319
 30
0.0
 11
921.09652229835103
 21
246.47982687140319
 31
0.0
  0
ARC
  5
1B5E6
  8
AM_0
 10
771.09652429835103
 20
251.80397787140319
 30
0.0
 40
2.0
 50
180.00000200000281
 51
270.00000200000278
  0
LINE
  5
1B5E7
  8
AM_0
 10
919.09652229835115
 20
267.50446887140339
 30
0.0
 11
771.09652529835103
 21
267.50446887140339
 31
0.0
  0
LINE
  5
1B5E8
  8
AM_0
 10
919.09652229835115
 20
249.8039858714032
 30
0.0
 11
771.09082129835065
 21
249.8039858714032
 31
0.0
  0
LINE
  5
1B5E9
  8
AM_0
 10
769.09652229835103
 20
244.80398187140321
 30
0.0
 11
759.09652529835114
 21
244.80398187140321
 31
0.0
  0
LINE
  5
1B5EA
  8
AM_0
 10
768.09652229835103
 20
255.26517387140319
 30
0.0
 11
759.09652429835103
 21
255.26517387140319
 31
0.0
  0
LINE
  5
1B5EB
  8
AM_0
 10
921.09652229835103
 20
393.25676987140321
 30
0.0
 11
921.09652229835103
 21
390.21796587140318
 31
0.0
  0
ARC
  5
1B5EC
  8
AM_0
 10
919.09652229835115
 20
384.8039858714032
 30
0.0
 40
2.0
 50
0.000000000000007
 51
90.0
  0
LINE
  5
1B5ED
  8
AM_0
 10
931.09652229835103
 20
372.57858287140328
 30
0.0
 11
921.09652229835103
 21
372.57858287140328
 31
0.0
  0
LINE
  5
1B5EE
  8
AM_0
 10
931.09652229835103
 20
384.14460187140321
 30
0.0
 11
921.09652229835103
 21
384.14460187140321
 31
0.0
  0
LINE
  5
1B5EF
  8
AM_0
 10
931.09652229835103
 20
390.21796587140318
 30
0.0
 11
921.09652229835103
 21
390.21796587140318
 31
0.0
  0
LINE
  5
1B5F0
  8
AM_0
 10
921.09652229835103
 20
394.78222787140328
 30
0.0
 11
921.09652229835103
 21
394.17895187140311
 31
0.0
  0
ARC
  5
1B5F1
  8
AM_0
 10
919.09652229835115
 20
393.25676987140321
 30
0.0
 40
2.0
 50
0.000000000000007
 51
90.0
  0
LINE
  5
1B5F2
  8
AM_0
 10
931.09652229835103
 20
396.19712687140321
 30
0.0
 11
922.61585129835055
 21
396.19712687140321
 31
0.0
  0
LINE
  5
1B5F3
  8
AM_0
 10
931.09652229835103
 20
394.88261487140329
 30
0.0
 11
922.94521129835073
 21
394.88261487140329
 31
0.0
  0
ARC
  5
1B5F4
  8
AM_0
 10
922.94521129835073
 20
396.88261487140329
 30
0.0
 40
2.0
 50
195.80962600000129
 51
270.0
  0
ARC
  5
1B5F5
  8
AM_0
 10
919.09652229835115
 20
395.79284787140341
 30
0.0
 40
2.0
 50
15.80962600000136
 51
90.0
  0
ARC
  5
1B5F6
  8
AM_0
 10
922.61585129835055
 20
398.19712687140321
 30
0.0
 40
2.0
 50
208.37785700000401
 51
270.0
  0
ARC
  5
1B5F7
  8
AM_0
 10
919.09652229835115
 20
396.29598987140338
 30
0.0
 40
2.0
 50
28.377856000001401
 51
90.0
  0
ARC
  5
1B5F8
  8
AM_0
 10
771.09652229835103
 20
384.8039858714032
 30
0.0
 40
2.0
 50
90.0
 51
180.0
  0
ARC
  5
1B5F9
  8
AM_0
 10
772.22401429835065
 20
393.25676987140321
 30
0.0
 40
2.0
 50
90.0
 51
164.99999999999881
  0
LINE
  5
1B5FA
  8
AM_0
 10
767.09652229835103
 20
381.84811587140319
 30
0.0
 11
770.29216229835095
 21
393.77440787140313
 31
0.0
  0
ARC
  5
1B5FB
  8
AM_0
 10
771.25949829835065
 20
394.78222787140328
 30
0.0
 40
2.0
 50
90.0
 51
164.99999999999881
  0
LINE
  5
1B5FC
  8
AM_0
 10
767.09652229835103
 20
386.97319887140338
 30
0.0
 11
769.32764629835106
 21
395.29986687140303
 31
0.0
  0
ARC
  5
1B5FD
  8
AM_0
 10
770.71180429835101
 20
395.79284787140341
 30
0.0
 40
2.0
 50
90.0
 51
164.99999999999881
  0
LINE
  5
1B5FE
  8
AM_0
 10
767.09652229835103
 20
390.02783587140311
 30
0.0
 11
768.77995329835073
 21
396.31048587140322
 31
0.0
  0
ARC
  5
1B5FF
  8
AM_0
 10
770.43077029835115
 20
396.29598987140338
 30
0.0
 40
2.0
 50
90.0
 51
164.99999999999881
  0
LINE
  5
1B600
  8
AM_0
 10
767.09652229835103
 20
391.57981387140319
 30
0.0
 11
768.49891829835087
 21
396.81362887140313
 31
0.0
  0
ARC
  5
1B601
  8
AM_0
 10
923.09652229835103
 20
394.17895187140311
 30
0.0
 40
2.0
 50
180.0
 51
270.0
  0
ARC
  5
1B602
  8
AM_0
 10
919.09652229835115
 20
394.78222787140328
 30
0.0
 40
2.0
 50
0.000000000000007
 51
90.0
  0
LINE
  5
1B603
  8
AM_0
 10
931.09652229835103
 20
392.17895187140311
 30
0.0
 11
923.09652229835103
 21
392.17895187140311
 31
0.0
  0
LINE
  5
1B604
  8
AM_0
 10
921.09652229835103
 20
390.21796587140318
 30
0.0
 11
921.09652229835103
 21
371.1753218714033
 31
0.0
  0
LINE
  5
1B605
  8
AM_0
 10
768.09652229835103
 20
381.34278987140323
 30
0.0
 11
759.09652229835103
 21
381.34278987140323
 31
0.0
  0
LINE
  5
1B606
  8
AM_0
 10
919.09652229835115
 20
369.17532187140341
 30
0.0
 11
771.09652229835103
 21
369.17532187140341
 31
0.0
  0
LINE
  5
1B607
  8
AM_0
 10
919.09652229835115
 20
398.29598987140338
 30
0.0
 11
770.43077029835115
 21
398.29598987140338
 31
0.0
  0
LINE
  5
1B608
  8
AM_0
 10
919.09652229835115
 20
386.8039858714032
 30
0.0
 11
771.09652229835103
 21
386.8039858714032
 31
0.0
  0
LINE
  5
1B609
  8
AM_0
 10
919.09652229835115
 20
395.25676987140321
 30
0.0
 11
772.22401429835065
 21
395.25676987140321
 31
0.0
  0
LINE
  5
1B60A
  8
AM_0
 10
919.09652229835115
 20
396.78222787140339
 30
0.0
 11
771.25949829835065
 21
396.78222787140339
 31
0.0
  0
LINE
  5
1B60B
  8
AM_0
 10
919.09652229835115
 20
397.79284787140341
 30
0.0
 11
770.71180429835101
 21
397.79284787140341
 31
0.0
  0
LINE
  5
1B60C
  8
AM_0
 10
782.09652229835103
 20
241.30398187140321
 30
0.0
 11
782.09652229835103
 21
239.30398187140321
 31
0.0
  0
LINE
  5
1B60D
  8
AM_0
 10
849.09652229835058
 20
241.30398187140321
 30
0.0
 11
849.09652229835058
 21
239.30398187140321
 31
0.0
  0
LINE
  5
1B60E
  8
AM_0
 10
849.09652229835058
 20
239.30398187140321
 30
0.0
 11
782.09652229835103
 21
239.30398187140321
 31
0.0
  0
LINE
  5
1B60F
  8
AM_0
 10
919.09652229835115
 20
241.30398187140321
 30
0.0
 11
772.31600229835101
 21
241.30398187140321
 31
0.0
  0
LINE
  5
1B610
  8
AM_0
 10
805.59652229835115
 20
344.30398187140321
 30
0.0
 11
931.09652229835103
 21
344.30398187140321
 31
0.0
  0
LINE
  5
1B611
  8
AM_0
 10
805.59652229835115
 20
292.30398187140321
 30
0.0
 11
931.09652229835103
 21
292.30398187140321
 31
0.0
  0
LINE
  5
1B612
  8
AM_0
 10
789.59652229835103
 20
345.30398187140321
 30
0.0
 11
789.59652229835103
 21
351.30398187140321
 31
0.0
  0
LINE
  5
1B613
  8
AM_0
 10
804.59652229835069
 20
345.30398187140321
 30
0.0
 11
804.59652229835069
 21
351.30398187140321
 31
0.0
  0
LINE
  5
1B614
  8
AM_0
 10
789.59652229835103
 20
291.30398187140321
 30
0.0
 11
789.59652229835103
 21
285.30398187140321
 31
0.0
  0
LINE
  5
1B615
  8
AM_0
 10
804.59652229835069
 20
291.30398187140321
 30
0.0
 11
804.59652229835069
 21
285.30398187140321
 31
0.0
  0
LINE
  5
1B616
  8
AM_0
 10
833.09652229835058
 20
338.80398187140321
 30
0.0
 11
833.09652229835058
 21
297.80398187140321
 31
0.0
  0
LINE
  5
1B617
  8
AM_0
 10
770.09652229835103
 20
338.80398187140321
 30
0.0
 11
770.09652229835103
 21
297.80398187140321
 31
0.0
  0
LINE
  5
1B618
  8
AM_0
 10
833.09652229835058
 20
338.80398187140321
 30
0.0
 11
770.09652229835103
 21
338.80398187140321
 31
0.0
  0
LINE
  5
1B619
  8
AM_0
 10
833.09652229835058
 20
297.80398187140321
 30
0.0
 11
770.09652229835103
 21
297.80398187140321
 31
0.0
  0
LINE
  5
1B61A
  8
AM_0
 10
833.09652229835058
 20
331.30398187140321
 30
0.0
 11
770.09652229835103
 21
331.30398187140321
 31
0.0
  0
LINE
  5
1B61B
  8
AM_0
 10
921.09652229835103
 20
321.30398187140321
 30
0.0
 11
921.09652229835103
 21
315.30398187140321
 31
0.0
  0
LINE
  5
1B61C
  8
AM_0
 10
770.38442229835096
 20
242.7852718714031
 30
0.0
 11
769.39651229835067
 21
246.46395187140331
 31
0.0
  0
LINE
  5
1B61D
  8
AM_0
 10
770.97250229835083
 20
242.7852718714031
 30
0.0
 11
769.39651229835067
 21
248.65399187140329
 31
0.0
  0
LINE
  5
1B61E
  8
AM_0
 10
769.09652229835103
 20
281.34576187140323
 30
0.0
 11
769.09652229835103
 21
244.80398187140321
 31
0.0
  0
LINE
  5
1B61F
  8
AM_0
 10
770.09652229835103
 20
294.30398187140321
 30
0.0
 11
931.09652229835103
 21
294.30398187140321
 31
0.0
  0
LINE
  5
1B620
  8
AM_0
 10
770.09652229835103
 20
292.30398187140321
 30
0.0
 11
788.59652229835103
 21
292.30398187140321
 31
0.0
  0
LINE
  5
1B621
  8
AM_0
 10
837.09652229835103
 20
302.30398187140321
 30
0.0
 11
931.09652229835103
 21
302.30398187140321
 31
0.0
  0
LINE
  5
1B622
  8
AM_0
 10
837.09652229835103
 20
304.30398187140321
 30
0.0
 11
931.09652229835103
 21
304.30398187140321
 31
0.0
  0
LINE
  5
1B623
  8
AM_0
 10
837.09652229835103
 20
312.30398187140321
 30
0.0
 11
931.09652229835103
 21
312.30398187140321
 31
0.0
  0
LINE
  5
1B624
  8
AM_0
 10
837.09652229835103
 20
314.30398187140321
 30
0.0
 11
920.09652229835103
 21
314.30398187140321
 31
0.0
  0
LINE
  5
1B625
  8
AM_0
 10
770.09652229835103
 20
272.30398187140321
 30
0.0
 11
931.09652229835103
 21
272.30398187140321
 31
0.0
  0
LINE
  5
1B626
  8
AM_0
 10
770.09652229835103
 20
284.30398187140321
 30
0.0
 11
931.09652229835103
 21
284.30398187140321
 31
0.0
  0
LINE
  5
1B627
  8
AM_0
 10
770.09652229835103
 20
282.30398187140321
 30
0.0
 11
931.09652229835103
 21
282.30398187140321
 31
0.0
  0
LINE
  5
1B628
  8
AM_0
 10
770.09652229835103
 20
274.30398187140321
 30
0.0
 11
931.09652229835103
 21
274.30398187140321
 31
0.0
  0
LINE
  5
1B629
  8
AM_0
 10
770.09652229835103
 20
362.30398187140321
 30
0.0
 11
931.09652229835103
 21
362.30398187140321
 31
0.0
  0
LINE
  5
1B62A
  8
AM_0
 10
770.09652229835103
 20
354.30398187140321
 30
0.0
 11
931.09652229835103
 21
354.30398187140321
 31
0.0
  0
LINE
  5
1B62B
  8
AM_0
 10
770.09652229835103
 20
352.30398187140321
 30
0.0
 11
931.09652229835103
 21
352.30398187140321
 31
0.0
  0
LINE
  5
1B62C
  8
AM_0
 10
770.09652229835103
 20
364.30398187140321
 30
0.0
 11
931.09652229835103
 21
364.30398187140321
 31
0.0
  0
LINE
  5
1B62D
  8
AM_0
 10
837.09652229835103
 20
322.30398187140321
 30
0.0
 11
920.09652229835103
 21
322.30398187140321
 31
0.0
  0
LINE
  5
1B62E
  8
AM_0
 10
837.09652229835103
 20
324.30398187140321
 30
0.0
 11
931.09652229835103
 21
324.30398187140321
 31
0.0
  0
LINE
  5
1B62F
  8
AM_0
 10
837.09652229835103
 20
332.30398187140321
 30
0.0
 11
931.09652229835103
 21
332.30398187140321
 31
0.0
  0
LINE
  5
1B630
  8
AM_0
 10
837.09652229835103
 20
334.30398187140321
 30
0.0
 11
931.09652229835103
 21
334.30398187140321
 31
0.0
  0
LINE
  5
1B631
  8
AM_0
 10
770.09652229835103
 20
344.30398187140321
 30
0.0
 11
788.59652229835103
 21
344.30398187140321
 31
0.0
  0
LINE
  5
1B632
  8
AM_0
 10
770.09652229835103
 20
342.30398187140321
 30
0.0
 11
931.09652229835103
 21
342.30398187140321
 31
0.0
  0
LINE
  5
1B633
  8
AM_0
 10
769.09652229835103
 20
355.26220187140319
 30
0.0
 11
769.09652229835103
 21
384.8039858714032
 31
0.0
  0
ARC
  5
1B634
  8
AM_0
 10
772.31600229835101
 20
243.30398187140321
 30
0.0
 40
2.0
 50
195.03168999999829
 51
270.000010000001
  0
ARC
  5
1B635
  8
AM_0
 10
772.904082298351
 20
243.30398187140321
 30
0.0
 40
2.0
 50
195.03168999999829
 51
270.000010000001
  0
ARC
  5
1B636
  8
AM_0
 10
788.59652229835103
 20
285.30398187140321
 30
0.0
 40
1.0
 50
270.0
 51
0.0000100000010134
  0
ARC
  5
1B637
  8
AM_0
 10
805.59652229835115
 20
285.30398187140321
 30
0.0
 40
1.0
 50
179.99999899999861
 51
270.000010000001
  0
ARC
  5
1B638
  8
AM_0
 10
805.59652229835115
 20
351.30398187140321
 30
0.0
 40
1.0
 50
89.999997000002296
 51
180.0
  0
ARC
  5
1B639
  8
AM_0
 10
788.59652229835103
 20
351.30398187140321
 30
0.0
 40
1.0
 50
359.999989999999
 51
89.999997000002296
  0
ARC
  5
1B63A
  8
AM_0
 10
788.59652229835103
 20
291.30398187140321
 30
0.0
 40
1.0
 50
359.999989999999
 51
89.999997000002296
  0
ARC
  5
1B63B
  8
AM_0
 10
805.59652229835115
 20
291.30398187140321
 30
0.0
 40
1.0
 50
89.999997000002296
 51
180.0
  0
ARC
  5
1B63C
  8
AM_0
 10
788.59652229835103
 20
345.30398187140321
 30
0.0
 40
1.0
 50
270.0
 51
0.0000100000010134
  0
ARC
  5
1B63D
  8
AM_0
 10
805.59652229835115
 20
345.30398187140321
 30
0.0
 40
1.0
 50
179.99999899999861
 51
270.000010000001
  0
CIRCLE
  5
1B63E
  8
AM_0
 10
794.59652229835103
 20
346.80398187140321
 30
0.0
 40
1.0
  0
CIRCLE
  5
1B63F
  8
AM_0
 10
799.59652229835103
 20
346.80398187140321
 30
0.0
 40
1.149999999999999
  0
CIRCLE
  5
1B640
  8
AM_0
 10
799.59652229835103
 20
346.80398187140321
 30
0.0
 40
1.1000000000000001
  0
CIRCLE
  5
1B641
  8
AM_0
 10
799.59652229835103
 20
289.80398187140321
 30
0.0
 40
1.1000000000000001
  0
CIRCLE
  5
1B642
  8
AM_0
 10
799.59652229835103
 20
289.80398187140321
 30
0.0
 40
1.149999999999999
  0
CIRCLE
  5
1B643
  8
AM_0
 10
794.59652229835103
 20
289.80398187140321
 30
0.0
 40
1.0
  0
ARC
  5
1B644
  8
AM_0
 10
837.09652229835103
 20
333.30398187140321
 30
0.0
 40
1.0
 50
89.999997000002296
 51
270.000010000001
  0
ARC
  5
1B645
  8
AM_0
 10
837.09652229835103
 20
323.30398187140321
 30
0.0
 40
1.0
 50
89.999997000002296
 51
270.000010000001
  0
ARC
  5
1B646
  8
AM_0
 10
837.09652229835103
 20
313.30398187140321
 30
0.0
 40
1.0
 50
89.999997000002296
 51
270.000010000001
  0
ARC
  5
1B647
  8
AM_0
 10
837.09652229835103
 20
303.30398187140321
 30
0.0
 40
1.0
 50
89.999997000002296
 51
270.000010000001
  0
ARC
  5
1B648
  8
AM_0
 10
772.04653229835071
 20
283.30398187140321
 30
0.0
 40
1.0
 50
89.999997000002296
 51
270.000010000001
  0
ARC
  5
1B649
  8
AM_0
 10
770.09652229835103
 20
283.30398187140321
 30
0.0
 40
1.0
 50
89.999997000002296
 51
270.000010000001
  0
ARC
  5
1B64A
  8
AM_0
 10
772.04653229835071
 20
293.30398187140321
 30
0.0
 40
1.0
 50
89.999997000002296
 51
270.000010000001
  0
ARC
  5
1B64B
  8
AM_0
 10
770.09652229835103
 20
293.30398187140321
 30
0.0
 40
1.0
 50
89.999997000002296
 51
270.000010000001
  0
ARC
  5
1B64C
  8
AM_0
 10
772.04653229835071
 20
343.30398187140321
 30
0.0
 40
1.0
 50
89.999997000002296
 51
270.000010000001
  0
ARC
  5
1B64D
  8
AM_0
 10
770.09652229835103
 20
343.30398187140321
 30
0.0
 40
1.0
 50
89.999997000002296
 51
270.000010000001
  0
ARC
  5
1B64E
  8
AM_0
 10
772.04653229835071
 20
353.30398187140321
 30
0.0
 40
1.0
 50
89.999997000002296
 51
270.000010000001
  0
ARC
  5
1B64F
  8
AM_0
 10
770.09652229835103
 20
353.30398187140321
 30
0.0
 40
1.0
 50
89.999997000002296
 51
270.000010000001
  0
ARC
  5
1B650
  8
AM_0
 10
920.09652229835103
 20
321.30398187140321
 30
0.0
 40
1.0
 50
359.999989999999
 51
89.999997000002296
  0
ARC
  5
1B651
  8
AM_0
 10
920.09652229835103
 20
315.30398187140321
 30
0.0
 40
1.0
 50
270.0
 51
0.0000100000010134
  0
ARC
  5
1B652
  8
AM_0
 10
920.09655229835073
 20
303.30398187140321
 30
0.0
 40
1.0
 50
270.0
 51
89.999997000002296
  0
ARC
  5
1B653
  8
AM_0
 10
920.09655229835073
 20
293.30398187140321
 30
0.0
 40
1.0
 50
270.0
 51
89.999997000002296
  0
ARC
  5
1B654
  8
AM_0
 10
772.04653229835071
 20
273.30398187140321
 30
0.0
 40
1.0
 50
89.999997000002296
 51
270.000010000001
  0
ARC
  5
1B655
  8
AM_0
 10
770.09652229835103
 20
273.30398187140321
 30
0.0
 40
1.0
 50
89.999997000002296
 51
270.000010000001
  0
ARC
  5
1B656
  8
AM_0
 10
920.09655229835073
 20
273.30398187140321
 30
0.0
 40
1.0
 50
270.0
 51
89.999997000002296
  0
ARC
  5
1B657
  8
AM_0
 10
920.09655229835073
 20
283.30398187140321
 30
0.0
 40
1.0
 50
270.0
 51
89.999997000002296
  0
ARC
  5
1B658
  8
AM_0
 10
767.95046229835066
 20
246.08358187140331
 30
0.0
 40
1.4952499999999991
 50
14.73739999999794
 51
39.962349999997393
  0
ARC
  5
1B659
  8
AM_0
 10
767.9555322983507
 20
248.25948187140321
 30
0.0
 40
1.4940209999999989
 50
15.30965999999931
 51
40.207419999999743
  0
ARC
  5
1B65A
  8
AM_0
 10
767.95236229835075
 20
392.07104187140328
 30
0.0
 40
1.495147999999999
 50
344.99378700000182
 51
344.99811000000318
  0
ARC
  5
1B65B
  8
AM_0
 10
920.09655229835073
 20
353.30398187140321
 30
0.0
 40
1.0
 50
270.0
 51
89.999997000002296
  0
ARC
  5
1B65C
  8
AM_0
 10
920.09655229835073
 20
363.30398187140321
 30
0.0
 40
1.0
 50
270.0
 51
89.999997000002296
  0
ARC
  5
1B65D
  8
AM_0
 10
770.09652229835103
 20
363.30398187140321
 30
0.0
 40
1.0
 50
89.999997000002296
 51
270.000010000001
  0
ARC
  5
1B65E
  8
AM_0
 10
772.04653229835071
 20
363.30398187140321
 30
0.0
 40
1.0
 50
89.999997000002296
 51
270.000010000001
  0
ARC
  5
1B65F
  8
AM_0
 10
920.09655229835073
 20
343.30398187140321
 30
0.0
 40
1.0
 50
270.0
 51
89.999997000002296
  0
ARC
  5
1B660
  8
AM_0
 10
920.09655229835073
 20
333.30398187140321
 30
0.0
 40
1.0
 50
270.0
 51
89.999997000002296
  0
LINE
  5
1B661
  8
AM_0
 10
759.09651629835082
 20
391.8039868714032
 30
0.0
 11
767.15658929835104
 21
391.8039868714032
 31
0.0
  0
LINE
  5
1B662
  8
ﾁｭｳｼﾝｾﾝ1
 10
815.59652229835103
 20
246.38869787140331
 30
0.0
 11
815.59652229835103
 21
232.40187587140321
 31
0.0
  0
POINT
  5
1B663
  8
AM_0
 10
815.59652229835103
 20
236.30398187140321
 30
0.0
  0
LINE
  5
1B664
  8
AM_0
 10
772.84652229835103
 20
236.80398187140321
 30
0.0
 11
856.84652229835103
 21
236.80398187140321
 31
0.0
  0
LINE
  5
1B665
  8
AM_0
 10
855.24652229835101
 20
206.80398187140321
 30
0.0
 11
778.94652229835083
 21
219.80398187140321
 31
0.0
  0
LINE
  5
1B666
  8
AM_0
 10
855.32652229835105
 20
207.80398187140321
 30
0.0
 11
823.34652229835069
 21
213.2539818714032
 31
0.0
  0
LINE
  5
1B667
  8
AM_0
 10
779.44652229835083
 20
202.80398187140321
 30
0.0
 11
854.91652229835108
 21
202.80398187140321
 31
0.0
  0
LINE
  5
1B668
  8
AM_0
 10
778.61652229835101
 20
215.80398187140321
 30
0.0
 11
854.91652229835108
 21
202.80398187140321
 31
0.0
  0
LINE
  5
1B669
  8
ﾁｭｳｼﾝｾﾝ1
 10
853.49533729835059
 20
220.80398187140321
 30
0.0
 11
863.64620129835112
 21
220.80398187140321
 31
0.0
  0
ARC
  5
1B66A
  8
AM_0
 10
859.53915529835103
 20
211.4966148714033
 30
0.0
 40
0.307456
 50
1.373079999999403
 51
88.626920000000638
  0
ARC
  5
1B66B
  8
AM_0
 10
858.34647729835115
 20
204.30402687140321
 30
0.0
 40
1.5000450000000001
 50
270.00171900000259
 51
359.99828099999741
  0
ARC
  5
1B66C
  8
AM_0
 10
858.64660429835055
 20
211.50389987140329
 30
0.0
 40
0.300082
 50
90.015733000000253
 51
179.9842669999997
  0
ARC
  5
1B66D
  8
AM_0
 10
859.03915529835058
 20
206.4966148714033
 30
0.0
 40
0.307456
 50
1.373079999999403
 51
88.626920000000638
  0
ARC
  5
1B66E
  8
AM_0
 10
857.84647729835103
 20
204.30402687140321
 30
0.0
 40
1.5000450000000001
 50
270.00171900000259
 51
359.99828099999741
  0
ARC
  5
1B66F
  8
AM_0
 10
859.03915529835058
 20
207.4966148714033
 30
0.0
 40
0.307456
 50
1.373079999999403
 51
88.626920000000638
  0
ARC
  5
1B670
  8
AM_0
 10
856.8391122983511
 20
235.7965718714033
 30
0.0
 40
1.0074369999999999
 50
0.4214379999981098
 51
89.578562000001924
  0
LINE
  5
1B671
  8
AM_0
 10
858.34652229835115
 20
202.80398187140321
 30
0.0
 11
858.04652229835085
 21
202.80398187140321
 31
0.0
  0
LINE
  5
1B672
  8
AM_0
 10
859.84652229835058
 20
211.5039818714032
 30
0.0
 11
859.84652229835058
 21
204.30398187140321
 31
0.0
  0
LINE
  5
1B673
  8
AM_0
 10
859.04652229835085
 20
211.80398187140321
 30
0.0
 11
859.54652229835108
 21
211.80398187140321
 31
0.0
  0
LINE
  5
1B674
  8
AM_0
 10
858.64652229835087
 20
211.80398187140321
 30
0.0
 11
859.04652229835085
 21
211.80398187140321
 31
0.0
  0
LINE
  5
1B675
  8
AM_0
 10
859.34652229835103
 20
206.50398187140331
 30
0.0
 11
859.34652229835103
 21
204.30398187140321
 31
0.0
  0
LINE
  5
1B676
  8
AM_0
 10
857.84652229835103
 20
202.80398187140321
 30
0.0
 11
854.91652229835108
 21
202.80398187140321
 31
0.0
  0
LINE
  5
1B677
  8
AM_0
 10
858.14652229835099
 20
212.60398187140319
 30
0.0
 11
857.94652229835106
 21
212.80398187140321
 31
0.0
  0
LINE
  5
1B678
  8
AM_0
 10
859.34652229835103
 20
207.5039818714032
 30
0.0
 11
859.34652229835103
 21
206.80398187140321
 31
0.0
  0
LINE
  5
1B679
  8
AM_0
 10
855.32652229835105
 20
207.80398187140321
 30
0.0
 11
859.04652229835085
 21
207.80398187140321
 31
0.0
  0
LINE
  5
1B67A
  8
AM_0
 10
857.84652229835103
 20
235.80398187140321
 30
0.0
 11
857.84652229835103
 21
212.80398187140321
 31
0.0
  0
LINE
  5
1B67B
  8
AM_0
 10
858.14652229835099
 20
207.80398187140321
 30
0.0
 11
858.14652229835099
 21
208.79398187140319
 31
0.0
  0
LINE
  5
1B67C
  8
AM_0
 10
857.84652229835103
 20
212.80398187140321
 30
0.0
 11
857.84652229835103
 21
207.80398187140321
 31
0.0
  0
LINE
  5
1B67D
  8
AM_0
 10
858.14652229835099
 20
208.79398187140319
 30
0.0
 11
858.34652229835115
 21
208.79398187140319
 31
0.0
  0
LINE
  5
1B67E
  8
AM_0
 10
858.14652229835099
 20
208.79398187140319
 30
0.0
 11
858.14652229835099
 21
209.99398187140329
 31
0.0
  0
LINE
  5
1B67F
  8
AM_0
 10
858.34652229835115
 20
209.99398187140329
 30
0.0
 11
858.14652229835099
 21
209.99398187140329
 31
0.0
  0
LINE
  5
1B680
  8
AM_0
 10
858.14652229835099
 20
209.99398187140329
 30
0.0
 11
858.14652229835099
 21
212.60398187140319
 31
0.0
  0
LINE
  5
1B681
  8
AM_0
 10
857.94652229835106
 20
212.80398187140321
 30
0.0
 11
857.84652229835103
 21
212.80398187140321
 31
0.0
  0
LINE
  5
1B682
  8
AM_0
 10
859.34652229835103
 20
206.80398187140321
 30
0.0
 11
855.24652229835101
 21
206.80398187140321
 31
0.0
  0
LINE
  5
1B683
  8
AM_0
 10
858.34652229835115
 20
207.80398187140321
 30
0.0
 11
858.34652229835115
 21
211.5039818714032
 31
0.0
  0
LINE
  5
1B684
  8
AM_0
 10
771.84652229835103
 20
216.30398187140321
 30
0.0
 11
771.84652229835103
 21
235.80398187140321
 31
0.0
  0
LINE
  5
1B685
  8
AM_0
 10
852.04652229835096
 20
236.80398187140321
 30
0.0
 11
852.04652229835096
 21
219.80398187140321
 31
0.0
  0
LINE
  5
1B686
  8
AM_0
 10
785.56652229835083
 20
219.68398187140329
 30
0.0
 11
785.56652229835083
 21
236.80398187140321
 31
0.0
  0
LINE
  5
1B687
  8
AM_0
 10
833.44652229835071
 20
236.80398187140321
 30
0.0
 11
833.44652229835071
 21
219.80398187140321
 31
0.0
  0
ARC
  5
1B688
  8
AM_0
 10
779.43910329835103
 20
205.29656387140301
 30
0.0
 40
2.4925929999999981
 50
179.82947499999719
 51
270.17052500000273
  0
ARC
  5
1B689
  8
AM_0
 10
776.43910329835103
 20
215.29656387140309
 30
0.0
 40
0.507473
 50
0.8376109999979384
 51
89.162389000002094
  0
CIRCLE
  5
1B68A
  8
AM_0
 10
793.73911729835095
 20
219.79659887140309
 30
0.0
 40
0.75
  0
CIRCLE
  5
1B68B
  8
AM_0
 10
842.73911029835062
 20
219.79659887140309
 30
0.0
 40
6.299999999999998
  0
ARC
  5
1B68C
  8
AM_0
 10
842.74652229835101
 20
219.80398187140321
 30
0.0
 40
9.3000030000000002
 50
180.0
 51
0.000000000000007
  0
LINE
  5
1B68D
  8
ﾁｭｳｼﾝｾﾝ1
 10
842.74652229835101
 20
212.13398187140311
 30
0.0
 11
842.74652229835101
 21
227.83398187140321
 31
0.0
  0
LINE
  5
1B68E
  8
ﾁｭｳｼﾝｾﾝ1
 10
834.98652229835102
 20
219.80398187140321
 30
0.0
 11
850.19652229835094
 21
219.80398187140321
 31
0.0
  0
LINE
  5
1B68F
  8
AM_0
 10
787.21652229835104
 20
202.80398187140321
 30
0.0
 11
787.21652229835104
 21
214.33398187140321
 31
0.0
  0
LINE
  5
1B690
  8
AM_0
 10
786.34652229835103
 20
214.4839818714033
 30
0.0
 11
786.34652229835103
 21
218.54398187140319
 31
0.0
  0
LINE
  5
1B691
  8
AM_0
 10
772.34652229835103
 20
215.80398187140321
 30
0.0
 11
778.61652229835101
 21
215.80398187140321
 31
0.0
  0
LINE
  5
1B692
  8
AM_0
 10
776.94652229835106
 20
215.30398187140321
 30
0.0
 11
776.94652229835106
 21
205.30398187140321
 31
0.0
  0
LINE
  5
1B693
  8
AM_0
 10
821.34652229835103
 20
213.5939818714032
 30
0.0
 11
819.14652229835065
 21
213.96398187140329
 31
0.0
  0
LINE
  5
1B694
  8
AM_0
 10
817.64652229835087
 20
214.22398187140331
 30
0.0
 11
815.44652229835094
 21
214.5939818714032
 31
0.0
  0
LINE
  5
1B695
  8
AM_0
 10
813.94652229835106
 20
214.85398187140319
 30
0.0
 11
811.74652229835101
 21
215.22398187140331
 31
0.0
  0
LINE
  5
1B696
  8
AM_0
 10
809.74652229835101
 20
215.5639818714032
 30
0.0
 11
808.04652229835085
 21
215.85398187140319
 31
0.0
  0
LINE
  5
1B697
  8
AM_0
 10
806.54652229835096
 20
216.11398187140321
 30
0.0
 11
804.33652229835059
 21
216.4839818714033
 31
0.0
  0
LINE
  5
1B698
  8
AM_0
 10
802.83652229835059
 20
216.74398187140329
 30
0.0
 11
800.63652229835088
 21
217.1239818714032
 31
0.0
  0
LINE
  5
1B699
  8
AM_0
 10
799.13652229835088
 20
217.37398187140309
 30
0.0
 11
796.93652229835084
 21
217.7539818714032
 31
0.0
  0
LINE
  5
1B69A
  8
AM_0
 10
795.43652229835095
 20
218.0039818714032
 30
0.0
 11
779.02652229835064
 21
220.80398187140321
 31
0.0
  0
LINE
  5
1B69B
  8
AM_0
 10
771.84652229835103
 20
220.80398187140321
 30
0.0
 11
779.02652229835064
 21
220.80398187140321
 31
0.0
  0
LINE
  5
1B69C
  8
AM_0
 10
795.43652229835095
 20
218.0039818714032
 30
0.0
 11
795.43652229835095
 21
231.80398187140321
 31
0.0
  0
LINE
  5
1B69D
  8
AM_0
 10
795.43652229835095
 20
231.80398187140321
 30
0.0
 11
796.93652229835084
 21
231.80398187140321
 31
0.0
  0
LINE
  5
1B69E
  8
AM_0
 10
796.93652229835084
 20
231.80398187140321
 30
0.0
 11
796.93652229835084
 21
217.7539818714032
 31
0.0
  0
LINE
  5
1B69F
  8
AM_0
 10
799.13652229835088
 20
217.37398187140309
 30
0.0
 11
799.13652229835088
 21
231.80398187140321
 31
0.0
  0
LINE
  5
1B6A0
  8
AM_0
 10
799.13652229835088
 20
231.80398187140321
 30
0.0
 11
800.63652229835088
 21
231.80398187140321
 31
0.0
  0
LINE
  5
1B6A1
  8
AM_0
 10
800.63652229835088
 20
231.80398187140321
 30
0.0
 11
800.63652229835088
 21
217.1239818714032
 31
0.0
  0
LINE
  5
1B6A2
  8
AM_0
 10
802.83652229835059
 20
216.74398187140329
 30
0.0
 11
802.83652229835059
 21
231.80398187140321
 31
0.0
  0
LINE
  5
1B6A3
  8
AM_0
 10
802.83652229835059
 20
231.80398187140321
 30
0.0
 11
804.33652229835059
 21
231.80398187140321
 31
0.0
  0
LINE
  5
1B6A4
  8
AM_0
 10
804.33652229835059
 20
231.80398187140321
 30
0.0
 11
804.33652229835059
 21
216.4839818714033
 31
0.0
  0
LINE
  5
1B6A5
  8
AM_0
 10
806.54652229835096
 20
216.11398187140321
 30
0.0
 11
806.54652229835096
 21
231.80398187140321
 31
0.0
  0
LINE
  5
1B6A6
  8
AM_0
 10
806.54652229835096
 20
231.80398187140321
 30
0.0
 11
808.04652229835085
 21
231.80398187140321
 31
0.0
  0
LINE
  5
1B6A7
  8
AM_0
 10
808.04652229835085
 20
231.80398187140321
 30
0.0
 11
808.04652229835085
 21
215.85398187140319
 31
0.0
  0
LINE
  5
1B6A8
  8
AM_0
 10
809.74652229835101
 20
215.5639818714032
 30
0.0
 11
809.74652229835101
 21
229.0939818714032
 31
0.0
  0
LINE
  5
1B6A9
  8
AM_0
 10
810.44652229835106
 20
231.80398187140321
 30
0.0
 11
811.74652229835101
 21
231.80398187140321
 31
0.0
  0
LINE
  5
1B6AA
  8
AM_0
 10
811.74652229835101
 20
231.80398187140321
 30
0.0
 11
811.74652229835101
 21
215.22398187140331
 31
0.0
  0
LINE
  5
1B6AB
  8
AM_0
 10
813.94652229835106
 20
214.85398187140319
 30
0.0
 11
813.94652229835106
 21
231.80398187140321
 31
0.0
  0
LINE
  5
1B6AC
  8
AM_0
 10
813.94652229835106
 20
231.80398187140321
 30
0.0
 11
815.44652229835094
 21
231.80398187140321
 31
0.0
  0
LINE
  5
1B6AD
  8
AM_0
 10
815.44652229835094
 20
231.80398187140321
 30
0.0
 11
815.44652229835094
 21
214.5939818714032
 31
0.0
  0
LINE
  5
1B6AE
  8
AM_0
 10
817.64652229835087
 20
214.22398187140331
 30
0.0
 11
817.64652229835087
 21
231.80398187140321
 31
0.0
  0
LINE
  5
1B6AF
  8
AM_0
 10
817.64652229835087
 20
231.80398187140321
 30
0.0
 11
819.14652229835065
 21
231.80398187140321
 31
0.0
  0
LINE
  5
1B6B0
  8
AM_0
 10
819.14652229835065
 20
231.80398187140321
 30
0.0
 11
819.14652229835065
 21
213.96398187140329
 31
0.0
  0
LINE
  5
1B6B1
  8
AM_0
 10
821.34652229835103
 20
213.5939818714032
 30
0.0
 11
821.34652229835103
 21
231.80398187140321
 31
0.0
  0
LINE
  5
1B6B2
  8
AM_0
 10
821.34652229835103
 20
231.80398187140321
 30
0.0
 11
822.64652229835099
 21
231.80398187140321
 31
0.0
  0
LINE
  5
1B6B3
  8
AM_0
 10
822.64652229835099
 20
231.80398187140321
 30
0.0
 11
822.64652229835099
 21
229.75398187140331
 31
0.0
  0
LINE
  5
1B6B4
  8
AM_0
 10
795.43652229835095
 20
227.80398187140321
 30
0.0
 11
796.93652229835084
 21
227.80398187140321
 31
0.0
  0
LINE
  5
1B6B5
  8
AM_0
 10
799.13652229835088
 20
227.80398187140321
 30
0.0
 11
800.63652229835088
 21
227.80398187140321
 31
0.0
  0
LINE
  5
1B6B6
  8
AM_0
 10
802.83652229835059
 20
227.80398187140321
 30
0.0
 11
804.33652229835059
 21
227.80398187140321
 31
0.0
  0
LINE
  5
1B6B7
  8
AM_0
 10
806.54652229835096
 20
227.80398187140321
 30
0.0
 11
808.04652229835085
 21
227.80398187140321
 31
0.0
  0
LINE
  5
1B6B8
  8
AM_0
 10
809.74652229835101
 20
227.80398187140321
 30
0.0
 11
811.74652229835101
 21
227.80398187140321
 31
0.0
  0
LINE
  5
1B6B9
  8
AM_0
 10
813.94652229835106
 20
227.80398187140321
 30
0.0
 11
815.44652229835094
 21
227.80398187140321
 31
0.0
  0
LINE
  5
1B6BA
  8
AM_0
 10
817.64652229835087
 20
227.80398187140321
 30
0.0
 11
819.14652229835065
 21
227.80398187140321
 31
0.0
  0
LINE
  5
1B6BB
  8
AM_0
 10
821.34652229835103
 20
227.80398187140321
 30
0.0
 11
823.34652229835069
 21
227.80398187140321
 31
0.0
  0
LINE
  5
1B6BC
  8
AM_0
 10
823.34652229835069
 20
229.0939818714032
 30
0.0
 11
823.34652229835069
 21
213.2539818714032
 31
0.0
  0
LINE
  5
1B6BD
  8
AM_0
 10
822.64652229835099
 20
229.75398187140331
 30
0.0
 11
823.34652229835069
 21
229.0939818714032
 31
0.0
  0
LINE
  5
1B6BE
  8
AM_0
 10
809.74652229835101
 20
229.0939818714032
 30
0.0
 11
810.44652229835106
 21
229.75398187140331
 31
0.0
  0
LINE
  5
1B6BF
  8
AM_0
 10
810.44652229835106
 20
229.75398187140331
 30
0.0
 11
810.44652229835106
 21
231.80398187140321
 31
0.0
  0
LINE
  5
1B6C0
  8
AM_0
 10
778.94652229835083
 20
219.80398187140321
 30
0.0
 11
771.84652229835103
 21
219.80398187140321
 31
0.0
  0
ARC
  5
1B6C1
  8
AM_0
 10
772.34652229835103
 20
216.30398187140321
 30
0.0
 40
0.5
 50
180.0
 51
270.0
  0
ARC
  5
1B6C2
  8
AM_0
 10
772.84652229835103
 20
235.80398187140321
 30
0.0
 40
1.0
 50
90.0
 51
180.0
  0
LINE
  5
1B6C3
  8
AM_0
 10
849.09652229835058
 20
236.80398187140321
 30
0.0
 11
849.09652229835058
 21
239.30398187140321
 31
0.0
  0
LINE
  5
1B6C4
  8
AM_0
 10
782.09652229835103
 20
236.80398187140321
 30
0.0
 11
782.09652229835103
 21
239.30398187140321
 31
0.0
  0
LINE
  5
1B6C5
  8
AM_0
 10
1014.396522298351
 20
238.32454287140331
 30
0.0
 11
1014.396522298351
 21
398.28398187140323
 31
0.0
  0
ARC
  5
1B6C6
  8
AM_0
 10
1040.212384298351
 20
390.93888287140311
 30
0.0
 40
5.7526239999999991
 50
10.062374000000419
 51
87.069124999997058
  0
LINE
  5
1B6C7
  8
AM_0
 10
1006.096522298351
 20
400.3039818714031
 30
0.0
 11
931.09652229835103
 21
400.3039818714031
 31
0.0
  0
LINE
  5
1B6C8
  8
AM_0
 10
1006.096522298351
 20
236.30398187140321
 30
0.0
 11
1006.096522298351
 21
400.3039818714031
 31
0.0
  0
LINE
  5
1B6C9
  8
AM_0
 10
1043.3265222983509
 20
244.80398187140321
 30
0.0
 11
1043.3265222983509
 21
392.32398187140319
 31
0.0
  0
LINE
  5
1B6CA
  8
AM_0
 10
1013.146522298351
 20
399.05398187140321
 30
0.0
 11
1006.096522298351
 21
399.05398187140321
 31
0.0
  0
LINE
  5
1B6CB
  8
AM_0
 10
1015.106522298351
 20
398.01398187140319
 30
0.0
 11
1040.506522298351
 21
396.68398187140332
 31
0.0
  0
ARC
  5
1B6CC
  8
AM_0
 10
1013.141185298351
 20
397.8027508714033
 30
0.0
 40
1.2512430000000001
 50
35.760896999997641
 51
89.755619999999936
  0
ARC
  5
1B6CD
  8
AM_0
 10
1015.172728298351
 20
399.2627238714033
 30
0.0
 40
1.2504959999999981
 50
215.64507799999589
 51
266.96511300000299
  0
LINE
  5
1B6CE
  8
AM_0
 10
1047.3965222983511
 20
254.93334187140309
 30
0.0
 11
1047.3965222983511
 21
381.9539818714033
 31
0.0
  0
LINE
  5
1B6CF
  8
AM_0
 10
1015.106522298351
 20
238.5939818714032
 30
0.0
 11
1040.506522298351
 21
239.9239818714031
 31
0.0
  0
ARC
  5
1B6D1
  8
AM_0
 10
1049.912242298351
 20
250.3048128714033
 30
0.0
 40
3.0009689999999982
 50
109.68644542807129
 51
170.03768200000101
  0
LINE
  5
1B6D2
  8
AM_0
 10
1046.9565212983509
 20
250.82398187140319
 30
0.0
 11
1045.8765222983509
 21
244.66398187140331
 31
0.0
  0
ARC
  5
1B6D3
  8
AM_0
 10
1040.2185722983511
 20
245.6620708714033
 30
0.0
 40
5.745309999999999
 50
272.8728220000034
 51
349.99567800000131
  0
LINE
  5
1B6D4
  8
AM_0
 10
1006.096522298351
 20
236.30398187140321
 30
0.0
 11
931.09652229835103
 21
236.30398187140321
 31
0.0
  0
LINE
  5
1B6D5
  8
AM_0
 10
1013.146522298351
 20
237.55398187140321
 30
0.0
 11
1006.096522298351
 21
237.55398187140321
 31
0.0
  0
ARC
  5
1B6D6
  8
AM_0
 10
1013.146158298351
 20
238.7955548714032
 30
0.0
 40
1.241573
 50
270.01681600000052
 51
324.46666699999912
  0
ARC
  5
1B6D7
  8
AM_0
 10
1015.177799298351
 20
237.33597587140309
 30
0.0
 40
1.260022999999999
 50
93.242827000000744
 51
144.1469820000008
  0
ARC
  5
1B6D8
  8
AM_0
 10
1049.912242298351
 20
386.30315087140337
 30
0.0
 40
3.0009689999999982
 50
189.96231799999899
 51
250.31355457192871
  0
LINE
  5
1B6D9
  8
AM_0
 10
1046.956522298351
 20
385.78398187140323
 30
0.0
 11
1045.8765222983509
 21
391.94398187140308
 31
0.0
  0
LINE
  5
1B6DB
  8
AM_0
 10
931.09652229835103
 20
400.3039818714031
 30
0.0
 11
931.09652229835103
 21
236.30398187140321
 31
0.0
  0
LINE
  5
1B6DC
  8
AM_0
 10
967.09861129835065
 20
410.30398187140321
 30
0.0
 11
967.09861129835065
 21
400.3039818714031
 31
0.0
  0
LINE
  5
1B6DD
  8
AM_0
 10
955.09443329835096
 20
410.30398187140321
 30
0.0
 11
955.09443329835096
 21
400.3039818714031
 31
0.0
  0
LINE
  5
1B6DE
  8
AM_0
 10
1028.9012982983511
 20
405.30398187140293
 30
0.0
 11
967.09861129835065
 21
405.30398187140293
 31
0.0
  0
LINE
  5
1B6DF
  8
AM_0
 10
1028.8973502983511
 20
410.30398187140321
 30
0.0
 11
950.89652229835099
 21
410.30398187140321
 31
0.0
  0
LINE
  5
1B6E0
  8
AM_0
 10
955.09443329835096
 20
405.30398187140293
 30
0.0
 11
950.89652229835099
 21
405.30398187140293
 31
0.0
  0
ARC
  5
1B6E1
  8
AM_0
 10
1028.8973502983511
 20
385.30398187140321
 30
0.0
 40
25.0
 50
0.000000000000007
 51
90.0
  0
LINE
  5
1B6E2
  8
AM_0
 10
955.09443329835096
 20
236.30398187140321
 30
0.0
 11
955.09443329835096
 21
226.30398187140321
 31
0.0
  0
LINE
  5
1B6E3
  8
AM_0
 10
967.09861129835065
 20
236.30398187140321
 30
0.0
 11
967.09861129835065
 21
226.30398187140321
 31
0.0
  0
LINE
  5
1B6E4
  8
AM_0
 10
1028.9012982983511
 20
231.30398187140321
 30
0.0
 11
967.09861129835065
 21
231.30398187140321
 31
0.0
  0
LINE
  5
1B6E5
  8
AM_0
 10
1028.8973502983511
 20
226.30398187140321
 30
0.0
 11
950.89652229835099
 21
226.30398187140321
 31
0.0
  0
LINE
  5
1B6E6
  8
AM_0
 10
955.09443329835096
 20
231.30398187140321
 30
0.0
 11
950.89652229835099
 21
231.30398187140321
 31
0.0
  0
ARC
  5
1B6E7
  8
AM_0
 10
1028.9012982983511
 20
385.30398187140321
 30
0.0
 40
20.0
 50
0.000000000000007
 51
90.0
  0
LINE
  5
1B6E9
  8
AM_0
 10
1056.3712982983509
 20
320.80398187140321
 30
0.0
 11
1048.9012982983511
 21
320.80398187140349
 31
0.0
  0
LINE
  5
1B6EA
  8
AM_0
 10
1053.8973502983511
 20
251.30398187140321
 30
0.0
 11
1053.8973502983511
 21
315.80398187140298
 31
0.0
  0
LINE
  5
1B6EB
  8
AM_0
 10
1056.3712982983509
 20
315.80398187140321
 30
0.0
 11
1048.9012982983511
 21
315.80398187140338
 31
0.0
  0
ARC
  5
1B6EC
  8
AM_0
 10
1028.8973502983511
 20
251.30398187140321
 30
0.0
 40
25.0
 50
270.0
 51
0.000000000000007
  0
ARC
  5
1B6ED
  8
AM_0
 10
1028.9012982983511
 20
251.30398187140321
 30
0.0
 40
20.0
 50
270.0
 51
0.000000000000007
  0
LINE
  5
1B6EE
  8
AM_0
 10
950.89652229835099
 20
405.30398187140293
 30
0.0
 11
950.89652229835099
 21
410.30398187140321
 31
0.0
  0
LINE
  5
1B6EF
  8
AM_0
 10
950.89652229835099
 20
231.30398187140321
 30
0.0
 11
950.89652229835099
 21
226.30398187140321
 31
0.0
  0
LINE
  5
1B6F3
  8
AM_0
 10
1056.3712982983509
 20
320.80398187140321
 30
0.0
 11
1056.3712982983509
 21
315.80398187140321
 31
0.0
  0
LINE
  5
1B6F5
  8
AM_0
 10
1048.9012982983511
 20
385.30398187140321
 30
0.0
 11
1048.9012982983511
 21
251.30398187140321
 31
0.0
  0
LINE
  5
1B6F6
  8
AM_0
 10
768.09652229835103
 20
281.34576187140323
 30
0.0
 11
759.09652229835103
 21
281.34576187140323
 31
0.0
  0
LINE
  5
1B6F7
  8
AM_0
 10
768.09652229835103
 20
355.26220187140319
 30
0.0
 11
759.09652229835103
 21
355.26220187140319
 31
0.0
  0
LINE
  5
1B6FD
  8
AM_0
 10
1053.8973502983511
 20
320.80398187140298
 30
0.0
 11
1053.8973502983511
 21
385.30398187140321
 31
0.0
  0
TEXT
  5
1CDF9
  8
AM_0
 10
121.34715018470411
 20
693.68577269809316
 30
0.0
 40
10.0
  1
VC08-007EFBR~VC08-060EFBR
1001
ACAD
1000
MTEXTBEGIN
1070
    73
1070
     1
1070
    44
1040
1.0
1070
    74
1070
     0
1000
MTEXTEND
  0
VIEWPORT
  5
89
 67
     1
  8
0
 10
210.0
 20
148.5
 30
0.0
 40
420.0
 41
297.0
 68
     1
 69
     1
1001
ACAD
1000
MVIEW
1002
{
1070
    16
1010
0.0
1020
0.0
1030
0.0
1010
0.0
1020
0.0
1030
1.0
1040
0.0
1040
297.0
1040
221.70154043645701
1040
148.5
1040
50.0
1040
0.0
1040
0.0
1070
     0
1070
   100
1070
     1
1070
     1
1070
     0
1070
     0
1070
     0
1070
     0
1040
0.0
1040
0.0
1040
0.0
1040
10.0
1040
10.0
1040
10.0
1040
10.0
1070
     0
1002
{
1002
}
1002
}
1001
GENIUS_GENOREF_13
1005
1B94
1001
GENIUS_GENSCREG_15
1000
PF
1040
1.0
1000
DF
1040
1.0
1000
MIN
1011
0.0
1021
0.0
1031
0.0
1021
0.0
1031
0.0
1000
MAX
1011
420.0
1021
0.0
1031
0.0
1021
297.0
1031
0.0
1000
FLAGS
1070
     4
  0
ENDSEC
  0
EOF
