  0
SECTION
  2
HEADER
  9
$ACADVER
  1
AC1009
  9
$INSBASE
 10
0.0
 20
0.0
 30
0.0
  9
$EXTMIN
 10
27.05389672407637
 20
183.54430510520729
 30
-0.0000000000112498
  9
$EXTMAX
 10
1060.3285853228631
 20
841.60963783453167
 30
0.0000000000002956
  9
$LIMMIN
 10
0.0
 20
0.0
  9
$LIMMAX
 10
1138.0
 20
740.00000000000011
  9
$ORTHOMODE
 70
     1
  9
$REGENMODE
 70
     1
  9
$FILLMODE
 70
     1
  9
$QTEXTMODE
 70
     0
  9
$MIRRTEXT
 70
     1
  9
$DRAGMODE
 70
     2
  9
$LTSCALE
 40
4.0
  9
$OSMODE
 70
   551
  9
$ATTMODE
 70
     1
  9
$TEXTSIZE
 40
2.5
  9
$TRACEWID
 40
1.0
  9
$TEXTSTYLE
  7
STANDARD
  9
$CLAYER
  8
AM_0
  9
$CELTYPE
  6
BYLAYER
  9
$CECOLOR
 62
   256
  9
$DIMSCALE
 40
4.0
  9
$DIMASZ
 40
2.5
  9
$DIMEXO
 40
1.0
  9
$DIMDLI
 40
7.0
  9
$DIMRND
 40
0.0
  9
$DIMDLE
 40
0.0
  9
$DIMEXE
 40
1.0
  9
$DIMTP
 40
0.1
  9
$DIMTM
 40
0.1000000001
  9
$DIMTXT
 40
2.5
  9
$DIMCEN
 40
0.0
  9
$DIMTSZ
 40
0.0
  9
$DIMTOL
 70
     0
  9
$DIMLIM
 70
     0
  9
$DIMTIH
 70
     0
  9
$DIMTOH
 70
     0
  9
$DIMSE1
 70
     0
  9
$DIMSE2
 70
     0
  9
$DIMTAD
 70
     3
  9
$DIMZIN
 70
     8
  9
$DIMBLK
  1

  9
$DIMASO
 70
     1
  9
$DIMSHO
 70
     1
  9
$DIMPOST
  1

  9
$DIMAPOST
  1
"
  9
$DIMALT
 70
     0
  9
$DIMALTD
 70
     2
  9
$DIMALTF
 40
0.0393701
  9
$DIMLFAC
 40
1.0
  9
$DIMTOFL
 70
     1
  9
$DIMTVP
 40
0.0
  9
$DIMTIX
 70
     0
  9
$DIMSOXD
 70
     0
  9
$DIMSAH
 70
     0
  9
$DIMBLK1
  1

  9
$DIMBLK2
  1

  9
$DIMSTYLE
  2
AM_JIS
  9
$DIMCLRD
 70
   256
  9
$DIMCLRE
 70
   256
  9
$DIMCLRT
 70
     4
  9
$DIMTFAC
 40
0.71
  9
$DIMGAP
 40
1.0
  9
$LUNITS
 70
     2
  9
$LUPREC
 70
     2
  9
$SKETCHINC
 40
1.0
  9
$FILLETRAD
 40
0.0
  9
$AUNITS
 70
     0
  9
$AUPREC
 70
     3
  9
$MENU
  1
.
  9
$ELEVATION
 40
0.0
  9
$PELEVATION
 40
0.0
  9
$THICKNESS
 40
0.0
  9
$LIMCHECK
 70
     0
  9
$BLIPMODE
 70
     0
  9
$CHAMFERA
 40
10.0
  9
$CHAMFERB
 40
10.0
  9
$SKPOLY
 70
     0
  9
$TDCREATE
 40
2452753.643349607
  9
$TDUPDATE
 40
2458543.5422509378
  9
$TDINDWG
 40
0.626716794
  9
$TDUSRTIMER
 40
0.6267144329
  9
$USRTIMER
 70
     1
  9
$ANGBASE
 50
0.0
  9
$ANGDIR
 70
     0
  9
$PDMODE
 70
     0
  9
$PDSIZE
 40
0.0
  9
$PLINEWID
 40
0.0
  9
$COORDS
 70
     1
  9
$SPLFRAME
 70
     0
  9
$SPLINETYPE
 70
     6
  9
$SPLINESEGS
 70
     8
  9
$ATTDIA
 70
     1
  9
$ATTREQ
 70
     1
  9
$HANDLING
 70
     1
  9
$HANDSEED
  5
1CC20
  9
$SURFTAB1
 70
     6
  9
$SURFTAB2
 70
     6
  9
$SURFTYPE
 70
     6
  9
$SURFU
 70
     6
  9
$SURFV
 70
     6
  9
$UCSNAME
  2

  9
$UCSORG
 10
0.0
 20
0.0
 30
0.0
  9
$UCSXDIR
 10
1.0
 20
0.0
 30
0.0
  9
$UCSYDIR
 10
0.0
 20
1.0
 30
0.0
  9
$PUCSNAME
  2

  9
$PUCSORG
 10
0.0
 20
0.0
 30
0.0
  9
$PUCSXDIR
 10
1.0
 20
0.0
 30
0.0
  9
$PUCSYDIR
 10
0.0
 20
1.0
 30
0.0
  9
$USERI1
 70
     0
  9
$USERI2
 70
     0
  9
$USERI3
 70
     0
  9
$USERI4
 70
     0
  9
$USERI5
 70
     0
  9
$USERR1
 40
0.0
  9
$USERR2
 40
0.0
  9
$USERR3
 40
0.0
  9
$USERR4
 40
0.0
  9
$USERR5
 40
0.0
  9
$WORLDVIEW
 70
     1
  9
$SHADEDGE
 70
     3
  9
$SHADEDIF
 70
    70
  9
$TILEMODE
 70
     1
  9
$MAXACTVP
 70
    48
  9
$PLIMCHECK
 70
     0
  9
$PEXTMIN
 10
1.0000000000000000E+020
 20
1.0000000000000000E+020
 30
1.0000000000000000E+020
  9
$PEXTMAX
 10
-1.0000000000000000E+020
 20
-1.0000000000000000E+020
 30
-1.0000000000000000E+020
  9
$PLIMMIN
 10
0.0
 20
0.0
  9
$PLIMMAX
 10
420.0
 20
297.0
  9
$UNITMODE
 70
     0
  9
$VISRETAIN
 70
     1
  9
$PLINEGEN
 70
     0
  9
$PSLTSCALE
 70
     1
  0
ENDSEC
  0
SECTION
  2
TABLES
  0
TABLE
  2
VPORT
 70
     1
  0
VPORT
  2
*ACTIVE
 70
     0
 10
0.0
 20
0.0
 11
1.0
 21
1.0
 12
543.69124102346996
 22
512.57697146986936
 13
0.0
 23
0.0
 14
10.0
 24
10.0
 15
40.0
 25
40.0
 16
0.0
 26
0.0
 36
1.0
 17
0.0
 27
0.0
 37
0.0
 40
662.58294370915951
 41
1.757159221076747
 42
50.0
 43
0.0
 44
0.0
 50
0.0
 51
0.0
 71
     0
 72
   100
 73
     1
 74
     1
 75
     0
 76
     0
 77
     0
 78
     0
  0
ENDTAB
  0
TABLE
  2
LTYPE
 70
    21
  0
LTYPE
  2
CONTINUOUS
 70
     0
  3
Solid line
 72
    65
 73
     0
 40
0.0
  0
LTYPE
  2
PHANTOM2
 70
     0
  3
Phantom (.5x) ___ _ _ ___ _ _ ___ _ _ ___ _ _
 72
    65
 73
     6
 40
31.75
 49
15.875
 49
-3.174999999999998
 49
3.174999999999998
 49
-3.174999999999998
 49
3.174999999999998
 49
-3.174999999999998
  0
LTYPE
  2
CENTER
 70
     0
  3
Center ____ _ ____ _ ____ _ ____ _ ____ _ ____
 72
    65
 73
     4
 40
50.799999999999997
 49
31.75
 49
-6.3499999999999979
 49
6.3499999999999979
 49
-6.3499999999999979
  0
LTYPE
  2
GEN3B
 70
     0
  3
 - - - - -
 72
    65
 73
     2
 40
1.0
 49
0.5
 49
-0.5
  0
LTYPE
  2
GEN7A
 70
     0
  3
__ . __ . __
 72
    65
 73
     4
 40
7.375
 49
4.75
 49
-0.875
 49
0.875
 49
-0.875
  0
LTYPE
  2
AM_ISO02W050
 70
     0
  3
__ __ __ __ __ __ __ __ __ __ __ __ __ __ __
 72
    65
 73
     2
 40
7.5
 49
6.0
 49
-1.5
  0
LTYPE
  2
AM_ISO08W050
 70
     0
  3
____ . ____ . ____ . ____ . ____ . ____ . ____
 72
    65
 73
     4
 40
18.0
 49
12.0
 49
-1.5
 49
3.0
 49
-1.5
  0
LTYPE
  2
AM_ISO09W050
 70
     0
  3
_____ . . _____ . . _____ . . ____ .. ____
 72
    65
 73
     6
 40
22.5
 49
12.0
 49
-1.5
 49
3.0
 49
-1.5
 49
3.0
 49
-1.5
  0
LTYPE
  2
AMCONSTR
 70
     0
  3
_______________________
 72
    65
 73
     2
 40
9999.0
 49
9999.0
 49
0.0
  0
LTYPE
  2
AM_ISO02W050X2
 70
     0
  3
 _ _ _ _ _ _ _ _ _ _ _ _
 72
    65
 73
     2
 40
3.75
 49
3.0
 49
-0.75
  0
LTYPE
  2
AM_ISO08W050X2
 70
     0
  3
__ . __ . __ . __ . __ . __
 72
    65
 73
     4
 40
9.0
 49
6.0
 49
-0.75
 49
1.5
 49
-0.75
  0
LTYPE
  2
AMZIGZAG
 70
     0
  3
/\/-/\/-/\/-/\/-/\/-/\/
 72
    65
 73
     2
 40
11.0001
 49
0.0001
 49
-11.0
  0
LTYPE
  2
ACISOWELD
 70
     0
  3
_ _ _ _ _
 72
    65
 73
     2
 40
2.0
 49
2.0
 49
-1.0
  0
LTYPE
  2
ACISOTGB
 70
     0
  3
__ . . __ . .
 72
    65
 73
     6
 40
9.0
 49
4.0
 49
-1.0
 49
1.0
 49
-1.0
 49
1.0
 49
-1.0
  0
LTYPE
  2
ACISOTGL
 70
     0
  3
_ _ _ _ _
 72
    65
 73
     2
 40
3.0
 49
2.0
 49
-1.0
  0
LTYPE
  2
HIDDEN
 70
     0
  3
Hidden __ __ __ __ __ __ __ __ __ __ __ __ __ _
 72
    65
 73
     2
 40
9.5249999999999968
 49
6.349999999999997
 49
-3.174999999999998
  0
LTYPE
  2
ACANSTGBM
 70
     0
  3
__ . . __ . .
 72
    65
 73
     6
 40
9.0
 49
4.0
 49
-1.0
 49
1.0
 49
-1.0
 49
1.0
 49
-1.0
  0
LTYPE
  2
ACANSTGLM
 70
     0
  3
_ _ _ _ _
 72
    65
 73
     2
 40
3.0
 49
2.0
 49
-1.0
  0
LTYPE
  2
ACJISTGB
 70
     0
  3
__ . . __ . .
 72
    65
 73
     6
 40
9.0
 49
4.0
 49
-1.0
 49
1.0
 49
-1.0
 49
1.0
 49
-1.0
  0
LTYPE
  2
ACJISTGL
 70
     0
  3
_ _ _ _ _
 72
    65
 73
     2
 40
3.0
 49
2.0
 49
-1.0
  0
ENDTAB
  0
TABLE
  2
LAYER
 70
     8
  0
LAYER
  2
0
 70
     0
 62
     7
  6
CONTINUOUS
  0
LAYER
  2
ｽﾝﾎﾟｳｾﾝ
 70
     0
 62
     2
  6
CONTINUOUS
  0
LAYER
  2
DEFPOINTS
 70
     0
 62
     7
  6
CONTINUOUS
  0
LAYER
  2
ｶｸﾚｾﾝ2
 70
     0
 62
     3
  6
GEN3B
  0
LAYER
  2
ﾁｭｳｼﾝｾﾝ1
 70
     0
 62
     1
  6
GEN7A
  0
LAYER
  2
AM_0
 70
     0
 62
     7
  6
CONTINUOUS
  0
LAYER
  2
AM_0N
 70
     0
 62
     7
  6
CONTINUOUS
  0
LAYER
  2
AM_5
 70
     0
 62
     2
  6
CONTINUOUS
  0
ENDTAB
  0
TABLE
  2
STYLE
 70
     8
  0
STYLE
  2
STANDARD
 70
     0
 40
0.0
 41
0.8299999999999999
 50
0.0
 71
     0
 42
2.5
  3
txt.shx
  4
bigfont.shx
  0
STYLE
  2

 70
     1
 40
0.0
 41
1.0
 50
0.0
 71
     0
 42
2.5
  3
ltypeshp.shx
  4

  0
STYLE
  2
ACISOTS
 70
     0
 40
1.0
 41
1.0
 50
0.0
 71
     0
 42
2.5
  3
isocp.shx
  4
extfont.shx
  0
STYLE
  2
ACISOGDT
 70
     0
 40
0.0
 41
1.0
 50
0.0
 71
     0
 42
2.5
  3
amgdt.shx
  4

  0
STYLE
  2
ACANSTS
 70
     0
 40
1.0
 41
1.0
 50
0.0
 71
     0
 42
2.5
  3
romans.shx
  4
bigfont.shx
  0
STYLE
  2
ACANSGDT
 70
     0
 40
0.0
 41
1.0
 50
0.0
 71
     0
 42
2.5
  3
amgdtans.shx
  4

  0
STYLE
  2
ACJISGDT
 70
     0
 40
0.0
 41
1.0
 50
0.0
 71
     0
 42
2.5
  3
amgdt.shx
  4

  0
STYLE
  2
ACJISTS
 70
     0
 40
1.0
 41
1.0
 50
0.0
 71
     0
 42
2.5
  3
isocp.shx
  4
extfont.shx
  0
ENDTAB
  0
TABLE
  2
VIEW
 70
    12
  0
VIEW
  2
GEN1
 70
     0
 40
95.824742268041234
 10
71.5
 20
137.08762886597941
 41
143.0
 11
0.0
 21
0.0
 31
1.0
 12
0.0
 22
0.0
 32
0.0
 42
50.0
 43
0.0
 44
0.0
 50
0.0
 71
     0
  0
VIEW
  2
GEN2
 70
     0
 40
95.824742268041234
 10
214.5
 20
137.08762886597941
 41
143.0
 11
0.0
 21
0.0
 31
1.0
 12
0.0
 22
0.0
 32
0.0
 42
50.0
 43
0.0
 44
0.0
 50
0.0
 71
     0
  0
VIEW
  2
GEN3
 70
     0
 40
95.824742268041234
 10
71.5
 20
47.912371134020603
 41
143.0
 11
0.0
 21
0.0
 31
1.0
 12
0.0
 22
0.0
 32
0.0
 42
50.0
 43
0.0
 44
0.0
 50
0.0
 71
     0
  0
VIEW
  2
GEN4
 70
     0
 40
95.824742268041234
 10
214.5
 20
47.912371134020603
 41
143.0
 11
0.0
 21
0.0
 31
1.0
 12
0.0
 22
0.0
 32
0.0
 42
50.0
 43
0.0
 44
0.0
 50
0.0
 71
     0
  0
VIEW
  2
GEN5
 70
     0
 40
95.824742268041234
 10
143.0
 20
92.500000000000057
 41
143.0
 11
0.0
 21
0.0
 31
1.0
 12
0.0
 22
0.0
 32
0.0
 42
50.0
 43
0.0
 44
0.0
 50
0.0
 71
     0
  0
VIEW
  2
GEN6
 70
     0
 40
191.64756804123709
 10
143.0
 20
92.5
 41
285.99714
 11
0.0
 21
0.0
 31
1.0
 12
0.0
 22
0.0
 32
0.0
 42
50.0
 43
0.0
 44
0.0
 50
0.0
 71
     0
  0
VIEW
  2
AM_VIEW1
 70
     0
 40
370.00000000000023
 10
332.86372007366492
 20
555.00000000000011
 41
665.72744014732973
 11
0.0
 21
0.0
 31
1.0
 12
0.0
 22
0.0
 32
0.0
 42
50.0
 43
0.0
 44
0.0
 50
0.0
 71
     0
  0
VIEW
  2
AM_VIEW2
 70
     0
 40
370.00000000000023
 10
805.13627992633508
 20
555.00000000000011
 41
665.72744014732973
 11
0.0
 21
0.0
 31
1.0
 12
0.0
 22
0.0
 32
0.0
 42
50.0
 43
0.0
 44
0.0
 50
0.0
 71
     0
  0
VIEW
  2
AM_VIEW3
 70
     0
 40
370.00000000000023
 10
332.86372007366492
 20
185.0
 41
665.72744014732973
 11
0.0
 21
0.0
 31
1.0
 12
0.0
 22
0.0
 32
0.0
 42
50.0
 43
0.0
 44
0.0
 50
0.0
 71
     0
  0
VIEW
  2
AM_VIEW4
 70
     0
 40
370.00000000000023
 10
805.13627992633508
 20
185.0
 41
665.72744014732973
 11
0.0
 21
0.0
 31
1.0
 12
0.0
 22
0.0
 32
0.0
 42
50.0
 43
0.0
 44
0.0
 50
0.0
 71
     0
  0
VIEW
  2
AM_VIEW5
 70
     0
 40
370.00000000000023
 10
569.0
 20
370.00000000000023
 41
665.72744014732962
 11
0.0
 21
0.0
 31
1.0
 12
0.0
 22
0.0
 32
0.0
 42
50.0
 43
0.0
 44
0.0
 50
0.0
 71
     0
  0
VIEW
  2
AM_VIEW6
 70
     0
 40
739.99260000000015
 10
569.0
 20
370.00000000000023
 41
1331.4415657458569
 11
0.0
 21
0.0
 31
1.0
 12
0.0
 22
0.0
 32
0.0
 42
50.0
 43
0.0
 44
0.0
 50
0.0
 71
     0
  0
ENDTAB
  0
TABLE
  2
UCS
 70
     0
  0
ENDTAB
  0
TABLE
  2
APPID
 70
   101
  0
APPID
  2
ACAD
 70
     0
  0
APPID
  2
MCAD_NO_VIS
 70
     0
  0
APPID
  2
ACAD_TEMP_GRAPHIC
 70
     0
  0
APPID
  2
AD_DRAW
 70
     0
  0
APPID
  2
DESIGNERASSEMBLIES
 70
     0
  0
APPID
  2
ASURF_PCURVE_APPNAME
 70
     0
  0
APPID
  2
GENIUS_GE3SECT_13
 70
     0
  0
APPID
  2
GENIUS_GENCFG_13
 70
     0
  0
APPID
  2
GENIUS_GE3CFG0_13
 70
     0
  0
APPID
  2
GENIUS_GENCFG0_13
 70
     0
  0
APPID
  2
GENIUS_GENCFG1_13
 70
     0
  0
APPID
  2
GENIUS_GENCFG2_13
 70
     0
  0
APPID
  2
GENIUS_GENCFG3_13
 70
     0
  0
APPID
  2
GENIUS_GENCFG4_13
 70
     0
  0
APPID
  2
GENIUS_GEVCFG0_13
 70
     0
  0
APPID
  2
GENIUS_GENOENT_13
 70
     0
  0
APPID
  2
GENIUS_GENREC_14
 70
     0
  0
APPID
  2
GENIUS_GENODEF_13
 70
     0
  0
APPID
  2
GENIUS_GENOBJ-N-REC_13
 70
     0
  0
APPID
  2
GENIUS_GENHINW_13
 70
     0
  0
APPID
  2
GENIUS_FIRSTVISTXT_14
 70
     0
  0
APPID
  2
GENIUS_GENOBJ-N-LEADER_13
 70
     0
  0
APPID
  2
GENIUS_GENOREF_13
 70
     0
  0
APPID
  2
GENIUS_GENOLIS_13
 70
     0
  0
APPID
  2
GEV_VCCNULL_SWITCH_OFF
 70
     0
  0
APPID
  2
GENIUS_GENDTOL_13
 70
     0
  0
APPID
  2
GENIUS_GEFCFG0_13
 70
     0
  0
APPID
  2
GENIUS_GENOBJ-N-TIT_13
 70
     0
  0
APPID
  2
GENIUS_GENTITLE_13
 70
     0
  0
APPID
  2
GENIUS_GENZVEED_13
 70
     0
  0
APPID
  2
GENIUS_GENOBJ-N-SDF_13
 70
     0
  0
APPID
  2
GENIUS_GENSCREG_13
 70
     0
  0
APPID
  2
GENIUS_DUMCFG0_13
 70
     0
  0
APPID
  2
GEVID936201362
 70
     0
  0
APPID
  2
GEVDC
 70
     0
  0
APPID
  2
GEVCON
 70
     0
  0
APPID
  2
VCC
 70
     0
  0
APPID
  2
GEVPT
 70
     0
  0
APPID
  2
GEVIT
 70
     0
  0
APPID
  2
GENBH
 70
     0
  0
APPID
  2
GEVMK
 70
     0
  0
APPID
  2
GENIUS_GENBH_13
 70
     0
  0
APPID
  2
GENIUS_GENOBJ-NBEHI-BHF_13
 70
     0
  0
APPID
  2
GENIUS_GENOBJ-NBEHI-BHB_13
 70
     0
  0
APPID
  2
GENIUS_GENOBJ-F-DESC_13
 70
     0
  0
APPID
  2
GENIUS_GEFDESC_14
 70
     0
  0
APPID
  2
GENIUS_GENOBJ-F-PART_13
 70
     0
  0
APPID
  2
GENIUS_GEFSTDP_13
 70
     0
  0
APPID
  2
GENIUS_GEFPARTINS_13
 70
     0
  0
APPID
  2
GENIUS_GENTRA_14
 70
     0
  0
APPID
  2
GENIUS_GENINF13_13
 70
     0
  0
APPID
  2
GENIUS_GENOBJ-N-INFOPT_13
 70
     0
  0
APPID
  2
GENIUS_GENOBJ-N-RSSYM_13
 70
     0
  0
APPID
  2
GENIUS_GENSYMENT_13
 70
     0
  0
APPID
  2
GENIUS_GENSCSYM_13
 70
     0
  0
APPID
  2
GENIUS_GEFINFNAM_13
 70
     0
  0
APPID
  2
GENIUS_GENSCREG_15
 70
     0
  0
APPID
  2
GENIUS_GENOBJ-N-CEN_13
 70
     0
  0
APPID
  2
GENIUS_GENOBJ-N-CRS_13
 70
     0
  0
APPID
  2
GENIUS_GENOBJ-N-CRC_13
 70
     0
  0
APPID
  2
GENIUS_GENCRC_14
 70
     0
  0
APPID
  2
GEVID942827039
 70
     0
  0
APPID
  2
GEVID942827040
 70
     0
  0
APPID
  2
GEVID942827041
 70
     0
  0
APPID
  2
GENIUS_GENOBJ-F-SCPASSM_13
 70
     0
  0
APPID
  2
GENIUS_GENDIMSH_14
 70
     0
  0
APPID
  2
GENIUS_GENFIL_13
 70
     0
  0
APPID
  2
GENIUS_GENOBJ-N-CHA_13
 70
     0
  0
APPID
  2
GENIUS_GENOBJ-N-FIL_13
 70
     0
  0
APPID
  2
GEVID942827042
 70
     0
  0
APPID
  2
GEVID946020473
 70
     0
  0
APPID
  2
GEVID946020474
 70
     0
  0
APPID
  2
GEVID946020475
 70
     0
  0
APPID
  2
GENIUS_GENOBJ-N-HTC_13
 70
     0
  0
APPID
  2
GENIUS_GENHATCH_13
 70
     0
  0
APPID
  2
GEVID948854295
 70
     0
  0
APPID
  2
GEVID939402019
 70
     0
  0
APPID
  2
GEVID952919491
 70
     0
  0
APPID
  2
GEVID952919492
 70
     0
  0
APPID
  2
GENIUS_GEFWELD_13
 70
     0
  0
APPID
  2
GENIUS_GENOBJ-F-WELS_13
 70
     0
  0
APPID
  2
GEVID952919493
 70
     0
  0
APPID
  2
GENIUS_GENOBJ-N-RSBK_13
 70
     0
  0
APPID
  2
GENIUS_GENOBJ-N-LIB_13
 70
     0
  0
APPID
  2
GENIUS_GENSCALE_13
 70
     0
  0
APPID
  2
GEVID986376691
 70
     0
  0
APPID
  2
ACATTRIBSERVICES
 70
     0
  0
APPID
  2
DCO15
 70
     0
  0
APPID
  2
ACADM_DIM_EDIT
 70
     0
  0
APPID
  2
AMDT_DM_ADJ
 70
     0
  0
APPID
  2
ACAD_MLEADERVER
 70
     0
  0
APPID
  2
CONTENTBLOCKDESCRIPTION
 70
     0
  0
APPID
  2
ACADANNOTATIVE
 70
     0
  0
APPID
  2
GEVID1057795304
 70
     0
  0
APPID
  2
GENIUS_GEFSH_13
 70
     0
  0
APPID
  2
GENIUS_GENOBJ-F-SHS_13
 70
     0
  0
APPID
  2
ACAD_DSTYLE_DIMBREAK
 70
     0
  0
APPID
  2
ACAD_DSTYLE_DIMJAG
 70
     0
  0
APPID
  2
ACAD_NAV_VCDISPLAY
 70
     0
  0
APPID
  2
ACADANNOPO
 70
     0
  0
APPID
  2
ACAD_EXEMPT_FROM_CAD_STANDARDS
 70
     0
  0
ENDTAB
  0
TABLE
  2
DIMSTYLE
 70
    21
  0
DIMSTYLE
  2
STANDARD
 70
     0
  3

  4

  5

  6

  7

 40
1.0
 41
0.18
 42
0.0625
 43
0.38
 44
0.18
 45
0.0
 46
0.0
 47
0.0
 48
0.0
140
0.18
141
0.09
142
0.0
143
25.399999999999999
144
1.0
145
0.0
146
1.0
147
0.09
 71
     0
 72
     0
 73
     1
 74
     1
 75
     0
 76
     0
 77
     0
 78
     0
170
     0
171
     2
172
     0
173
     0
174
     0
175
     0
176
     0
177
     0
178
     0
  0
DIMSTYLE
  2
AM_JIS
 70
     0
  3

  4
"
  5

  6

  7

 40
1.0
 41
2.0
 42
1.0
 43
8.0
 44
1.0
 45
0.0
 46
0.0
 47
0.1
 48
0.1
140
2.5
141
0.0
142
0.0
143
0.0393701
144
1.0
145
0.0
146
0.71
147
1.5
 71
     0
 72
     0
 73
     0
 74
     0
 75
     0
 76
     0
 77
     3
 78
     8
170
     0
171
     2
172
     1
173
     0
174
     0
175
     0
176
     2
177
     2
178
     4
  0
DIMSTYLE
  2
AM_ISO
 70
     0
  3

  4
"
  5

  6

  7

 40
1.0
 41
2.5
 42
1.0
 43
10.0
 44
1.0
 45
0.0
 46
0.0
 47
0.1
 48
0.1
140
3.5
141
0.0
142
0.0
143
0.0393701
144
1.0
145
0.0
146
0.71
147
1.5
 71
     0
 72
     0
 73
     0
 74
     0
 75
     0
 76
     0
 77
     1
 78
     8
170
     0
171
     2
172
     1
173
     0
174
     0
175
     0
176
   256
177
   256
178
     2
  0
DIMSTYLE
  2
AM_ISO$3
 70
     0
  3

  4
"
  5

  6

  7

 40
1.0
 41
2.5
 42
1.0
 43
10.0
 44
1.0
 45
0.0
 46
0.0
 47
0.1
 48
0.1
140
3.5
141
0.0
142
0.0
143
0.0393701
144
1.0
145
0.0
146
0.71
147
1.5
 71
     0
 72
     0
 73
     0
 74
     1
 75
     0
 76
     0
 77
     1
 78
     8
170
     0
171
     2
172
     0
173
     0
174
     0
175
     0
176
   256
177
   256
178
     2
  0
DIMSTYLE
  2
AM_ISO$4
 70
     0
  3

  4
"
  5

  6

  7

 40
1.0
 41
2.5
 42
1.0
 43
10.0
 44
1.0
 45
0.0
 46
0.0
 47
0.1
 48
0.1
140
3.5
141
0.0
142
0.0
143
0.0393701
144
1.0
145
0.0
146
0.71
147
1.5
 71
     0
 72
     0
 73
     0
 74
     1
 75
     0
 76
     0
 77
     1
 78
     8
170
     0
171
     2
172
     0
173
     0
174
     0
175
     0
176
   256
177
   256
178
     2
  0
DIMSTYLE
  2
AM_ISO$6
 70
     0
  3

  4
"
  5

  6

  7

 40
1.0
 41
2.5
 42
1.0
 43
10.0
 44
1.0
 45
0.0
 46
0.0
 47
0.1
 48
0.1
140
3.5
141
0.0
142
0.0
143
0.0393701
144
1.0
145
0.0
146
0.71
147
1.5
 71
     0
 72
     0
 73
     0
 74
     0
 75
     0
 76
     0
 77
     0
 78
     8
170
     0
171
     2
172
     1
173
     0
174
     0
175
     0
176
   256
177
   256
178
     2
  0
DIMSTYLE
  2
AM_ISO$7
 70
     0
  3

  4
"
  5

  6

  7

 40
1.0
 41
2.5
 42
1.0
 43
10.0
 44
1.0
 45
0.0
 46
0.0
 47
0.1
 48
0.1
140
5.0
141
0.0
142
0.0
143
0.0393701
144
1.0
145
0.0
146
0.71
147
1.5
 71
     0
 72
     0
 73
     0
 74
     0
 75
     0
 76
     0
 77
     1
 78
     8
170
     0
171
     2
172
     1
173
     0
174
     0
175
     0
176
   256
177
   256
178
     2
  0
DIMSTYLE
  2
AM_ISO$SF
 70
     0
  3

  4
"
  5

  6

  7

 40
1.0
 41
2.5
 42
1.0
 43
10.0
 44
1.0
 45
0.0
 46
0.0
 47
0.1
 48
0.1
140
3.5
141
0.0
142
0.0
143
0.0393701
144
1.0
145
0.0
146
0.71
147
1.5
 71
     0
 72
     0
 73
     0
 74
     0
 75
     1
 76
     1
 77
     1
 78
     8
170
     0
171
     2
172
     1
173
     0
174
     0
175
     0
176
   256
177
   256
178
     2
  0
DIMSTYLE
  2
AM_ISO$SH
 70
     0
  3

  4
"
  5

  6
GENAXEH
  7

 40
1.0
 41
2.5
 42
1.0
 43
10.0
 44
1.0
 45
0.0
 46
0.0
 47
0.1
 48
0.1
140
3.5
141
0.0
142
0.0
143
0.0393701
144
2.0
145
0.0
146
0.71
147
1.5
 71
     0
 72
     0
 73
     0
 74
     0
 75
     1
 76
     1
 77
     1
 78
     8
170
     0
171
     2
172
     1
173
     1
174
     0
175
     0
176
   256
177
   256
178
     2
  0
DIMSTYLE
  2
AM_ANSI
 70
     0
  3

  4
"
  5

  6

  7

 40
1.0
 41
2.5
 42
1.0
 43
10.0
 44
1.0
 45
0.0
 46
0.0
 47
0.1
 48
0.1
140
3.5
141
0.0
142
0.0
143
0.0393701
144
1.0
145
0.0
146
0.71
147
1.5
 71
     0
 72
     0
 73
     1
 74
     1
 75
     0
 76
     0
 77
     0
 78
     8
170
     0
171
     2
172
     0
173
     0
174
     0
175
     0
176
     2
177
     2
178
     4
  0
DIMSTYLE
  2
AM_ANSI$3
 70
     0
  3

  4
"
  5

  6

  7

 40
1.0
 41
2.5
 42
1.0
 43
10.0
 44
1.0
 45
0.0
 46
0.0
 47
0.1
 48
0.1
140
3.5
141
0.0
142
0.0
143
0.0393701
144
1.0
145
0.0
146
0.71
147
1.5
 71
     0
 72
     0
 73
     1
 74
     1
 75
     0
 76
     0
 77
     0
 78
     8
170
     0
171
     2
172
     0
173
     0
174
     0
175
     0
176
     2
177
     2
178
     4
  0
DIMSTYLE
  2
AM_ANSI$4
 70
     0
  3

  4
"
  5

  6

  7

 40
1.0
 41
2.5
 42
1.0
 43
10.0
 44
1.0
 45
0.0
 46
0.0
 47
0.1
 48
0.1
140
3.5
141
0.0
142
0.0
143
0.0393701
144
1.0
145
0.0
146
0.71
147
1.5
 71
     0
 72
     0
 73
     1
 74
     1
 75
     0
 76
     0
 77
     0
 78
     8
170
     0
171
     2
172
     0
173
     0
174
     0
175
     0
176
     2
177
     2
178
     4
  0
DIMSTYLE
  2
AM_ANSI$7
 70
     0
  3

  4
"
  5

  6

  7

 40
1.0
 41
2.5
 42
1.0
 43
10.0
 44
1.0
 45
0.0
 46
0.0
 47
0.1
 48
0.1
140
5.0
141
0.0
142
0.0
143
0.0393701
144
1.0
145
0.0
146
0.71
147
1.5
 71
     0
 72
     0
 73
     1
 74
     1
 75
     0
 76
     0
 77
     0
 78
     8
170
     0
171
     2
172
     0
173
     0
174
     0
175
     0
176
     2
177
     2
178
     4
  0
DIMSTYLE
  2
AM_ANSI$SF
 70
     0
  3

  4
"
  5

  6

  7

 40
1.0
 41
2.5
 42
1.0
 43
10.0
 44
1.0
 45
0.0
 46
0.0
 47
0.1
 48
0.1
140
3.5
141
0.0
142
0.0
143
0.0393701
144
1.0
145
0.0
146
0.71
147
1.5
 71
     0
 72
     0
 73
     1
 74
     1
 75
     1
 76
     1
 77
     0
 78
     8
170
     0
171
     2
172
     0
173
     0
174
     0
175
     0
176
     2
177
     2
178
     4
  0
DIMSTYLE
  2
AM_ANSI$SH
 70
     0
  3

  4
"
  5

  6
GENAXEH
  7

 40
1.0
 41
2.5
 42
1.0
 43
10.0
 44
1.0
 45
0.0
 46
0.0
 47
0.1
 48
0.1
140
3.5
141
0.0
142
0.0
143
0.0393701
144
1.0
145
0.0
146
0.71
147
1.5
 71
     0
 72
     0
 73
     1
 74
     1
 75
     1
 76
     1
 77
     0
 78
     8
170
     0
171
     2
172
     0
173
     1
174
     0
175
     0
176
     2
177
     2
178
     4
  0
DIMSTYLE
  2
AM_JIS$3
 70
     0
  3

  4
"
  5

  6

  7

 40
1.0
 41
2.0
 42
1.0
 43
10.0
 44
1.0
 45
0.0
 46
0.0
 47
0.1
 48
0.1
140
2.5
141
0.0
142
0.0
143
0.0393701
144
1.0
145
0.0
146
0.71
147
1.5
 71
     0
 72
     0
 73
     0
 74
     1
 75
     0
 76
     0
 77
     3
 78
     8
170
     0
171
     2
172
     0
173
     0
174
     0
175
     0
176
     2
177
     2
178
     4
  0
DIMSTYLE
  2
AM_JIS$4
 70
     0
  3

  4
"
  5

  6

  7

 40
1.0
 41
2.0
 42
1.0
 43
10.0
 44
1.0
 45
0.0
 46
0.0
 47
0.1
 48
0.1
140
2.5
141
0.0
142
0.0
143
0.0393701
144
1.0
145
0.0
146
0.71
147
1.5
 71
     0
 72
     0
 73
     0
 74
     0
 75
     0
 76
     0
 77
     3
 78
     8
170
     0
171
     2
172
     0
173
     0
174
     0
175
     0
176
     2
177
     2
178
     4
  0
DIMSTYLE
  2
AM_JIS$6
 70
     0
  3

  4
"
  5

  6

  7

 40
1.0
 41
2.0
 42
1.0
 43
10.0
 44
1.0
 45
0.0
 46
0.0
 47
0.1
 48
0.1
140
2.5
141
0.0
142
0.0
143
0.0393701
144
1.0
145
0.0
146
0.71
147
1.5
 71
     0
 72
     0
 73
     0
 74
     0
 75
     0
 76
     0
 77
     0
 78
     8
170
     0
171
     2
172
     1
173
     0
174
     0
175
     0
176
     2
177
     2
178
     4
  0
DIMSTYLE
  2
AM_JIS$7
 70
     0
  3

  4
"
  5

  6
OPEN30
  7
OPEN30
 40
1.0
 41
2.0
 42
1.0
 43
10.0
 44
1.0
 45
0.0
 46
0.0
 47
0.1
 48
0.1
140
2.5
141
0.0
142
0.0
143
0.0393701
144
1.0
145
0.0
146
0.71
147
1.5
 71
     0
 72
     0
 73
     0
 74
     0
 75
     0
 76
     0
 77
     3
 78
     8
170
     0
171
     2
172
     1
173
     0
174
     0
175
     0
176
     2
177
     2
178
     4
  0
DIMSTYLE
  2
AM_JIS$SF
 70
     0
  3

  4
"
  5

  6

  7

 40
1.0
 41
2.0
 42
1.0
 43
10.0
 44
1.0
 45
0.0
 46
0.0
 47
0.1
 48
0.1
140
2.5
141
0.0
142
0.0
143
0.0393701
144
1.0
145
0.0
146
0.71
147
1.5
 71
     0
 72
     0
 73
     0
 74
     0
 75
     1
 76
     1
 77
     3
 78
     8
170
     0
171
     2
172
     1
173
     0
174
     0
175
     0
176
     2
177
     2
178
     4
  0
DIMSTYLE
  2
AM_JIS$SH
 70
     0
  3

  4
"
  5

  6
GENAXEH
  7

 40
1.0
 41
2.0
 42
1.0
 43
10.0
 44
1.0
 45
0.0
 46
0.0
 47
0.1
 48
0.1
140
2.5
141
0.0
142
0.0
143
0.0393701
144
2.0
145
0.0
146
0.71
147
1.5
 71
     0
 72
     0
 73
     0
 74
     0
 75
     1
 76
     1
 77
     3
 78
     8
170
     0
171
     2
172
     1
173
     1
174
     0
175
     0
176
     2
177
     2
178
     4
  0
ENDTAB
  0
ENDSEC
  0
SECTION
  2
BLOCKS
  0
BLOCK
  8
0
  2
$MODEL_SPACE
 70
     0
 10
0.0
 20
0.0
 30
0.0
  3
$MODEL_SPACE
  1

  0
ENDBLK
  5
1A
  8
0
  0
BLOCK
 67
     1
  8
0
  2
$PAPER_SPACE
 70
     0
 10
0.0
 20
0.0
 30
0.0
  3
$PAPER_SPACE
  1

  0
ENDBLK
  5
17
 67
     1
  8
0
  0
BLOCK
  8
0
  2
GENAXEH
 70
     0
 10
0.0
 20
0.0
 30
0.0
  3
GENAXEH
  1

  0
LINE
  5
1C90C
  8
0
 10
-1.0
 20
0.0
 30
0.0
 11
1.0
 21
0.0
 31
0.0
  0
ENDBLK
  5
1C90D
  8
0
  0
BLOCK
  8
0
  6
BYBLOCK
 62
     0
  2
$6-44
 70
     0
 10
0.0
 20
0.0
 30
0.0
  3
$6-44
  1

  0
ARC
  5
1ABEF
  8
AM_0
 10
-2.300003000000002
 20
2.3999909999999991
 30
0.0
 40
2.2000009999999981
 50
90.000003000000945
 51
179.99997799999841
  0
ARC
  5
1ABF0
  8
AM_0
 10
2.300003000000002
 20
2.3999909999999991
 30
0.0
 40
2.1999970000000002
 50
0.0
 51
89.999982000000799
  0
LINE
  5
1ABF1
  8
AM_0
 10
-0.0494449999999915
 20
0.0
 30
0.0
 11
-0.8000000000000112
 21
1.30000000000001
 31
0.0
  0
LINE
  5
1ABF2
  8
AM_0
 10
0.9505550000000083
 20
0.0
 30
0.0
 11
0.1999999999999886
 21
1.30000000000001
 31
0.0
  0
LINE
  5
1ABF3
  8
AM_0
 10
4.600000000000021
 20
1.30000000000001
 30
0.0
 11
4.600000000000021
 21
0.0
 31
0.0
  0
LINE
  5
1ABF4
  8
AM_0
 10
-4.600000000000021
 20
1.30000000000001
 30
0.0
 11
-4.600000000000021
 21
0.0
 31
0.0
  0
LINE
  5
1ABF5
  8
AM_0
 10
4.600000000000021
 20
0.0
 30
0.0
 11
-4.600000000000021
 21
0.0
 31
0.0
  0
LINE
  5
1ABF6
  8
AM_0
 10
2.300003000000002
 20
4.6000030000000152
 30
0.0
 11
-2.300003000000002
 21
4.6000030000000152
 31
0.0
  0
LINE
  5
1ABF7
  8
AM_0
 10
4.600000000000021
 20
1.30000000000001
 30
0.0
 11
-4.600000000000021
 21
1.30000000000001
 31
0.0
  0
LINE
  5
1ABF8
  8
AM_0
 10
-4.5
 20
1.30000000000001
 30
0.0
 11
-4.5
 21
2.3999909999999991
 31
0.0
  0
LINE
  5
1ABF9
  8
AM_0
 10
4.5
 20
1.30000000000001
 30
0.0
 11
4.5
 21
2.3999909999999991
 31
0.0
  0
ENDBLK
  5
1ABFA
  8
0
  6
BYBLOCK
 62
     0
  0
BLOCK
  8
0
  2
_OPEN30
 70
     0
 10
0.0
 20
0.0
 30
0.0
  3
_OPEN30
  1

  0
LINE
  5
1C953
  8
0
  6
BYBLOCK
 62
     0
 10
-1.0
 20
0.26794919
 30
0.0
 11
0.0
 21
0.0
 31
0.0
  0
LINE
  5
1C954
  8
0
  6
BYBLOCK
 62
     0
 10
0.0
 20
0.0
 30
0.0
 11
-1.0
 21
-0.26794919
 31
0.0
  0
LINE
  5
1C955
  8
0
  6
BYBLOCK
 62
     0
 10
0.0
 20
0.0
 30
0.0
 11
-1.0
 21
0.0
 31
0.0
  0
ENDBLK
  5
1C956
  8
0
  0
BLOCK
  8
0
  2
_NONE
 70
     0
 10
0.0
 20
0.0
 30
0.0
  3
_NONE
  1

  0
ENDBLK
  5
1CA2F
  8
0
  0
ENDSEC
  0
SECTION
  2
ENTITIES
  0
POINT
  5
1B94
  8
0
 10
0.0
 20
0.0
 30
0.0
1001
GENIUS_GENODEF_13
1002
{
1000
HIER
1070
     1
1002
}
1002
{
1000
MANEDIT
1070
     0
1002
}
1002
{
1000
NOSEL
1070
     0
1002
}
1002
{
1000
BEHIND
1070
     0
1002
}
1002
{
1000
REACTOR
1002
}
1001
GENIUS_GENOBJ-N-SDF_13
1002
{
1000
OWNER
1000
GEN
1002
}
1001
GENIUS_GENOENT_13
1002
{
1000
MYREF
1005
1B94
1002
}
1002
{
1000
GRP
1005
0
1002
}
1001
GENIUS_GENOLIS_13
1002
{
1000
ENT
1005
89
1002
}
  0
LINE
  5
18D34
  8
ﾁｭｳｼﾝｾﾝ1
 10
735.0999249508435
 20
331.07652922917941
 30
0.0
 11
480.29043782611041
 21
331.07652922917941
 31
0.0
  0
POLYLINE
  5
18D36
  8
AM_0
 10
545.75797323263976
 20
331.07652940357144
 30
0.0
 66
     1
 70
     8
  0
VERTEX
  8
AM_0
  5
1CA9A
 10
545.758
 20
331.077
 30
0.000000
  70
    32
  0
VERTEX
  8
AM_0
  5
1CA9B
 10
545.797
 20
332.671
 30
0.000000
  70
    32
  0
VERTEX
  8
AM_0
  5
1CA9C
 10
545.914
 20
334.262
 30
0.000000
  70
    32
  0
VERTEX
  8
AM_0
  5
1CA9D
 10
546.110
 20
335.845
 30
0.000000
  70
    32
  0
VERTEX
  8
AM_0
  5
1CA9E
 10
546.382
 20
337.417
 30
0.000000
  70
    32
  0
VERTEX
  8
AM_0
  5
1CA9F
 10
546.732
 20
338.974
 30
0.000000
  70
    32
  0
VERTEX
  8
AM_0
  5
1CAA0
 10
547.157
 20
340.511
 30
0.000000
  70
    32
  0
VERTEX
  8
AM_0
  5
1CAA1
 10
547.658
 20
342.026
 30
0.000000
  70
    32
  0
VERTEX
  8
AM_0
  5
1CAA2
 10
548.232
 20
343.514
 30
0.000000
  70
    32
  0
VERTEX
  8
AM_0
  5
1CAA3
 10
548.878
 20
344.972
 30
0.000000
  70
    32
  0
VERTEX
  8
AM_0
  5
1CAA4
 10
549.596
 20
346.397
 30
0.000000
  70
    32
  0
VERTEX
  8
AM_0
  5
1CAA5
 10
550.382
 20
347.785
 30
0.000000
  70
    32
  0
VERTEX
  8
AM_0
  5
1CAA6
 10
551.235
 20
349.133
 30
0.000000
  70
    32
  0
VERTEX
  8
AM_0
  5
1CAA7
 10
552.154
 20
350.437
 30
0.000000
  70
    32
  0
VERTEX
  8
AM_0
  5
1CAA8
 10
553.135
 20
351.695
 30
0.000000
  70
    32
  0
VERTEX
  8
AM_0
  5
1CAA9
 10
554.177
 20
352.903
 30
0.000000
  70
    32
  0
VERTEX
  8
AM_0
  5
1CAAA
 10
555.277
 20
354.058
 30
0.000000
  70
    32
  0
VERTEX
  8
AM_0
  5
1CAAB
 10
556.432
 20
355.158
 30
0.000000
  70
    32
  0
VERTEX
  8
AM_0
  5
1CAAC
 10
557.640
 20
356.200
 30
0.000000
  70
    32
  0
VERTEX
  8
AM_0
  5
1CAAD
 10
558.898
 20
357.181
 30
0.000000
  70
    32
  0
VERTEX
  8
AM_0
  5
1CAAE
 10
560.202
 20
358.100
 30
0.000000
  70
    32
  0
VERTEX
  8
AM_0
  5
1CAAF
 10
561.550
 20
358.953
 30
0.000000
  70
    32
  0
VERTEX
  8
AM_0
  5
1CAB0
 10
562.938
 20
359.740
 30
0.000000
  70
    32
  0
VERTEX
  8
AM_0
  5
1CAB1
 10
564.362
 20
360.457
 30
0.000000
  70
    32
  0
VERTEX
  8
AM_0
  5
1CAB2
 10
565.821
 20
361.103
 30
0.000000
  70
    32
  0
VERTEX
  8
AM_0
  5
1CAB3
 10
567.309
 20
361.677
 30
0.000000
  70
    32
  0
VERTEX
  8
AM_0
  5
1CAB4
 10
568.824
 20
362.178
 30
0.000000
  70
    32
  0
VERTEX
  8
AM_0
  5
1CAB5
 10
570.361
 20
362.603
 30
0.000000
  70
    32
  0
VERTEX
  8
AM_0
  5
1CAB6
 10
571.918
 20
362.953
 30
0.000000
  70
    32
  0
VERTEX
  8
AM_0
  5
1CAB7
 10
573.489
 20
363.225
 30
0.000000
  70
    32
  0
VERTEX
  8
AM_0
  5
1CAB8
 10
575.072
 20
363.421
 30
0.000000
  70
    32
  0
VERTEX
  8
AM_0
  5
1CAB9
 10
576.663
 20
363.538
 30
0.000000
  70
    32
  0
VERTEX
  8
AM_0
  5
1CABA
 10
578.258
 20
363.577
 30
0.000000
  70
    32
  0
VERTEX
  8
AM_0
  5
1CABB
 10
579.853
 20
363.538
 30
0.000000
  70
    32
  0
VERTEX
  8
AM_0
  5
1CABC
 10
581.444
 20
363.421
 30
0.000000
  70
    32
  0
VERTEX
  8
AM_0
  5
1CABD
 10
583.027
 20
363.225
 30
0.000000
  70
    32
  0
VERTEX
  8
AM_0
  5
1CABE
 10
584.598
 20
362.953
 30
0.000000
  70
    32
  0
VERTEX
  8
AM_0
  5
1CABF
 10
586.155
 20
362.603
 30
0.000000
  70
    32
  0
VERTEX
  8
AM_0
  5
1CAC0
 10
587.692
 20
362.178
 30
0.000000
  70
    32
  0
VERTEX
  8
AM_0
  5
1CAC1
 10
589.207
 20
361.677
 30
0.000000
  70
    32
  0
VERTEX
  8
AM_0
  5
1CAC2
 10
590.695
 20
361.103
 30
0.000000
  70
    32
  0
VERTEX
  8
AM_0
  5
1CAC3
 10
592.154
 20
360.457
 30
0.000000
  70
    32
  0
VERTEX
  8
AM_0
  5
1CAC4
 10
593.578
 20
359.740
 30
0.000000
  70
    32
  0
VERTEX
  8
AM_0
  5
1CAC5
 10
594.966
 20
358.953
 30
0.000000
  70
    32
  0
VERTEX
  8
AM_0
  5
1CAC6
 10
596.314
 20
358.100
 30
0.000000
  70
    32
  0
VERTEX
  8
AM_0
  5
1CAC7
 10
597.618
 20
357.181
 30
0.000000
  70
    32
  0
VERTEX
  8
AM_0
  5
1CAC8
 10
598.876
 20
356.200
 30
0.000000
  70
    32
  0
VERTEX
  8
AM_0
  5
1CAC9
 10
600.084
 20
355.158
 30
0.000000
  70
    32
  0
VERTEX
  8
AM_0
  5
1CACA
 10
601.239
 20
354.058
 30
0.000000
  70
    32
  0
VERTEX
  8
AM_0
  5
1CACB
 10
602.339
 20
352.903
 30
0.000000
  70
    32
  0
VERTEX
  8
AM_0
  5
1CACC
 10
603.381
 20
351.695
 30
0.000000
  70
    32
  0
VERTEX
  8
AM_0
  5
1CACD
 10
604.362
 20
350.437
 30
0.000000
  70
    32
  0
VERTEX
  8
AM_0
  5
1CACE
 10
605.281
 20
349.133
 30
0.000000
  70
    32
  0
VERTEX
  8
AM_0
  5
1CACF
 10
606.134
 20
347.785
 30
0.000000
  70
    32
  0
VERTEX
  8
AM_0
  5
1CAD0
 10
606.920
 20
346.397
 30
0.000000
  70
    32
  0
VERTEX
  8
AM_0
  5
1CAD1
 10
607.638
 20
344.972
 30
0.000000
  70
    32
  0
VERTEX
  8
AM_0
  5
1CAD2
 10
608.284
 20
343.514
 30
0.000000
  70
    32
  0
VERTEX
  8
AM_0
  5
1CAD3
 10
608.858
 20
342.026
 30
0.000000
  70
    32
  0
VERTEX
  8
AM_0
  5
1CAD4
 10
609.359
 20
340.511
 30
0.000000
  70
    32
  0
VERTEX
  8
AM_0
  5
1CAD5
 10
609.784
 20
338.974
 30
0.000000
  70
    32
  0
VERTEX
  8
AM_0
  5
1CAD6
 10
610.133
 20
337.417
 30
0.000000
  70
    32
  0
VERTEX
  8
AM_0
  5
1CAD7
 10
610.406
 20
335.845
 30
0.000000
  70
    32
  0
VERTEX
  8
AM_0
  5
1CAD8
 10
610.601
 20
334.262
 30
0.000000
  70
    32
  0
VERTEX
  8
AM_0
  5
1CAD9
 10
610.719
 20
332.671
 30
0.000000
  70
    32
  0
VERTEX
  8
AM_0
  5
1CADA
 10
610.758
 20
331.077
 30
0.000000
  70
    32
  0
VERTEX
  8
AM_0
  5
1CADB
 10
610.719
 20
329.482
 30
0.000000
  70
    32
  0
VERTEX
  8
AM_0
  5
1CADC
 10
610.601
 20
327.891
 30
0.000000
  70
    32
  0
VERTEX
  8
AM_0
  5
1CADD
 10
610.406
 20
326.308
 30
0.000000
  70
    32
  0
VERTEX
  8
AM_0
  5
1CADE
 10
610.133
 20
324.736
 30
0.000000
  70
    32
  0
VERTEX
  8
AM_0
  5
1CADF
 10
609.784
 20
323.180
 30
0.000000
  70
    32
  0
VERTEX
  8
AM_0
  5
1CAE0
 10
609.359
 20
321.642
 30
0.000000
  70
    32
  0
VERTEX
  8
AM_0
  5
1CAE1
 10
608.858
 20
320.127
 30
0.000000
  70
    32
  0
VERTEX
  8
AM_0
  5
1CAE2
 10
608.284
 20
318.639
 30
0.000000
  70
    32
  0
VERTEX
  8
AM_0
  5
1CAE3
 10
607.638
 20
317.181
 30
0.000000
  70
    32
  0
VERTEX
  8
AM_0
  5
1CAE4
 10
606.920
 20
315.756
 30
0.000000
  70
    32
  0
VERTEX
  8
AM_0
  5
1CAE5
 10
606.134
 20
314.368
 30
0.000000
  70
    32
  0
VERTEX
  8
AM_0
  5
1CAE6
 10
605.281
 20
313.020
 30
0.000000
  70
    32
  0
VERTEX
  8
AM_0
  5
1CAE7
 10
604.362
 20
311.716
 30
0.000000
  70
    32
  0
VERTEX
  8
AM_0
  5
1CAE8
 10
603.381
 20
310.458
 30
0.000000
  70
    32
  0
VERTEX
  8
AM_0
  5
1CAE9
 10
602.339
 20
309.250
 30
0.000000
  70
    32
  0
VERTEX
  8
AM_0
  5
1CAEA
 10
601.239
 20
308.095
 30
0.000000
  70
    32
  0
VERTEX
  8
AM_0
  5
1CAEB
 10
600.084
 20
306.995
 30
0.000000
  70
    32
  0
VERTEX
  8
AM_0
  5
1CAEC
 10
598.876
 20
305.953
 30
0.000000
  70
    32
  0
VERTEX
  8
AM_0
  5
1CAED
 10
597.618
 20
304.972
 30
0.000000
  70
    32
  0
VERTEX
  8
AM_0
  5
1CAEE
 10
596.314
 20
304.053
 30
0.000000
  70
    32
  0
VERTEX
  8
AM_0
  5
1CAEF
 10
594.966
 20
303.200
 30
0.000000
  70
    32
  0
VERTEX
  8
AM_0
  5
1CAF0
 10
593.578
 20
302.414
 30
0.000000
  70
    32
  0
VERTEX
  8
AM_0
  5
1CAF1
 10
592.154
 20
301.696
 30
0.000000
  70
    32
  0
VERTEX
  8
AM_0
  5
1CAF2
 10
590.695
 20
301.050
 30
0.000000
  70
    32
  0
VERTEX
  8
AM_0
  5
1CAF3
 10
589.207
 20
300.476
 30
0.000000
  70
    32
  0
VERTEX
  8
AM_0
  5
1CAF4
 10
587.692
 20
299.975
 30
0.000000
  70
    32
  0
VERTEX
  8
AM_0
  5
1CAF5
 10
586.155
 20
299.550
 30
0.000000
  70
    32
  0
VERTEX
  8
AM_0
  5
1CAF6
 10
584.598
 20
299.200
 30
0.000000
  70
    32
  0
VERTEX
  8
AM_0
  5
1CAF7
 10
583.027
 20
298.928
 30
0.000000
  70
    32
  0
VERTEX
  8
AM_0
  5
1CAF8
 10
581.444
 20
298.732
 30
0.000000
  70
    32
  0
VERTEX
  8
AM_0
  5
1CAF9
 10
579.853
 20
298.615
 30
0.000000
  70
    32
  0
VERTEX
  8
AM_0
  5
1CAFA
 10
578.258
 20
298.576
 30
0.000000
  70
    32
  0
VERTEX
  8
AM_0
  5
1CAFB
 10
576.663
 20
298.615
 30
0.000000
  70
    32
  0
VERTEX
  8
AM_0
  5
1CAFC
 10
575.072
 20
298.732
 30
0.000000
  70
    32
  0
VERTEX
  8
AM_0
  5
1CAFD
 10
573.489
 20
298.928
 30
0.000000
  70
    32
  0
VERTEX
  8
AM_0
  5
1CAFE
 10
571.918
 20
299.200
 30
0.000000
  70
    32
  0
VERTEX
  8
AM_0
  5
1CAFF
 10
570.361
 20
299.550
 30
0.000000
  70
    32
  0
VERTEX
  8
AM_0
  5
1CB00
 10
568.824
 20
299.975
 30
0.000000
  70
    32
  0
VERTEX
  8
AM_0
  5
1CB01
 10
567.309
 20
300.476
 30
0.000000
  70
    32
  0
VERTEX
  8
AM_0
  5
1CB02
 10
565.821
 20
301.050
 30
0.000000
  70
    32
  0
VERTEX
  8
AM_0
  5
1CB03
 10
564.362
 20
301.696
 30
0.000000
  70
    32
  0
VERTEX
  8
AM_0
  5
1CB04
 10
562.938
 20
302.414
 30
0.000000
  70
    32
  0
VERTEX
  8
AM_0
  5
1CB05
 10
561.550
 20
303.200
 30
0.000000
  70
    32
  0
VERTEX
  8
AM_0
  5
1CB06
 10
560.202
 20
304.053
 30
0.000000
  70
    32
  0
VERTEX
  8
AM_0
  5
1CB07
 10
558.898
 20
304.972
 30
0.000000
  70
    32
  0
VERTEX
  8
AM_0
  5
1CB08
 10
557.640
 20
305.953
 30
0.000000
  70
    32
  0
VERTEX
  8
AM_0
  5
1CB09
 10
556.432
 20
306.995
 30
0.000000
  70
    32
  0
VERTEX
  8
AM_0
  5
1CB0A
 10
555.277
 20
308.095
 30
0.000000
  70
    32
  0
VERTEX
  8
AM_0
  5
1CB0B
 10
554.177
 20
309.250
 30
0.000000
  70
    32
  0
VERTEX
  8
AM_0
  5
1CB0C
 10
553.135
 20
310.458
 30
0.000000
  70
    32
  0
VERTEX
  8
AM_0
  5
1CB0D
 10
552.154
 20
311.716
 30
0.000000
  70
    32
  0
VERTEX
  8
AM_0
  5
1CB0E
 10
551.235
 20
313.020
 30
0.000000
  70
    32
  0
VERTEX
  8
AM_0
  5
1CB0F
 10
550.382
 20
314.368
 30
0.000000
  70
    32
  0
VERTEX
  8
AM_0
  5
1CB10
 10
549.596
 20
315.756
 30
0.000000
  70
    32
  0
VERTEX
  8
AM_0
  5
1CB11
 10
548.878
 20
317.181
 30
0.000000
  70
    32
  0
VERTEX
  8
AM_0
  5
1CB12
 10
548.232
 20
318.639
 30
0.000000
  70
    32
  0
VERTEX
  8
AM_0
  5
1CB13
 10
547.658
 20
320.127
 30
0.000000
  70
    32
  0
VERTEX
  8
AM_0
  5
1CB14
 10
547.157
 20
321.642
 30
0.000000
  70
    32
  0
VERTEX
  8
AM_0
  5
1CB15
 10
546.732
 20
323.180
 30
0.000000
  70
    32
  0
VERTEX
  8
AM_0
  5
1CB16
 10
546.382
 20
324.736
 30
0.000000
  70
    32
  0
VERTEX
  8
AM_0
  5
1CB17
 10
546.110
 20
326.308
 30
0.000000
  70
    32
  0
VERTEX
  8
AM_0
  5
1CB18
 10
545.914
 20
327.891
 30
0.000000
  70
    32
  0
VERTEX
  8
AM_0
  5
1CB19
 10
545.797
 20
329.482
 30
0.000000
  70
    32
  0
VERTEX
  8
AM_0
  5
1CB1A
 10
545.758
 20
331.077
 30
0.000000
  70
    32
  0
SEQEND
  8
AM_0
  5
1CB1B
  0
LINE
  5
18D38
  8
0
 10
696.25797420826188
 20
193.0765292291795
 30
0.0
 11
526.25794568284346
 21
193.0765292291795
 31
0.0
  0
LINE
  5
18D39
  8
0
 10
674.69411555298996
 20
200.0765292291795
 30
0.0
 11
547.82180433669419
 21
200.07652922917941
 31
0.0
  0
CIRCLE
  5
18D3A
  8
0
 10
578.25797421096524
 20
331.07652922917941
 30
0.0
 40
52.5
  0
LINE
  5
18D3B
  8
0
 10
594.3760311948314
 20
244.076536858574
 30
0.0
 11
560.75795331494135
 21
244.076536858574
 31
0.0
  0
LINE
  5
18D3C
  8
0
 10
594.37603119483151
 20
418.07652159978483
 30
0.0
 11
560.75795331494169
 21
418.07652159978483
 31
0.0
  0
LINE
  5
18D3D
  8
0
 10
674.69411555298996
 20
462.0765292291793
 30
0.0
 11
547.82180433669464
 21
462.0765292291793
 31
0.0
  0
LINE
  5
18D3E
  8
0
 10
696.257974208262
 20
469.0765292291793
 30
0.0
 11
526.25794568284357
 21
469.0765292291793
 31
0.0
  0
LINE
  5
18D5A
  8
ﾁｭｳｼﾝｾﾝ1
 10
188.98881344088471
 20
471.85214780472108
 30
0.0
 11
188.98884209969461
 21
210.0751861742153
 31
0.0
  0
LINE
  5
18D5E
  8
AM_0
 10
118.98883477602131
 20
239.04709804410609
 30
0.0
 11
118.98883477602131
 21
423.10594515515822
 31
0.0
  0
LINE
  5
18D5F
  8
AM_0
 10
231.9888419922811
 20
237.07464642770549
 30
0.0
 11
231.9888419922811
 21
425.07841203065379
 31
0.0
  0
LINE
  5
18D61
  8
AM_0
 10
113.98883844020681
 20
281.07552773903348
 30
0.0
 11
113.98883844020681
 21
381.0775307193253
 31
0.0
  0
LINE
  5
18D62
  8
ｶｸﾚｾﾝ2
 10
263.98884677025262
 20
284.07552773903348
 30
0.0
 11
263.98884677025262
 21
378.07753071932541
 31
0.0
  0
LINE
  5
18D63
  8
AM_0
 10
288.98882701886419
 20
193.07652922464521
 30
0.0
 11
288.98882688902779
 21
469.0765292291793
 31
0.0
  0
LINE
  5
18D66
  8
AM_0
 10
499.25797168237023
 20
252.0749468747486
 30
0.0
 11
499.2579716823704
 21
410.07811158360983
 31
0.0
  0
LINE
  5
18D67
  8
AM_0
 10
492.25797168237023
 20
255.07651397039069
 30
0.0
 11
492.2579716823704
 21
407.076521599785
 31
0.0
  0
LINE
  5
18D6B
  8
ﾁｭｳｼﾝｾﾝ1
 10
369.38470348399511
 20
331.07652922917941
 30
0.0
 11
96.013694598022084
 21
331.07652922917941
 31
0.0
  0
LINE
  5
18D6C
  8
ﾁｭｳｼﾝｾﾝ1
 10
273.9303421324903
 20
344.07652922917941
 30
0.0
 11
104.0473127265094
 21
344.07652922917941
 31
0.0
  0
LINE
  5
18D6E
  8
AM_0
 10
118.98883477602131
 20
239.04709804410609
 30
0.0
 11
231.9888419922811
 21
237.07464642770549
 31
0.0
  0
LINE
  5
18D76
  8
0
 10
115.98883477602131
 20
240.07500696415781
 30
0.0
 11
115.98883477602131
 21
270.07500696415758
 31
0.0
  0
LINE
  5
18D77
  8
0
 10
99.988834776021335
 20
243.07500696415781
 30
0.0
 11
99.988834776021335
 21
267.07500696415758
 31
0.0
  0
LINE
  5
18D78
  8
0
 10
115.98883477602131
 20
243.07500696415781
 30
0.0
 11
99.988834776021335
 21
243.07500696415781
 31
0.0
  0
LINE
  5
18D7D
  8
0
 10
115.98883477602131
 20
240.07500696415781
 30
0.0
 11
118.98883477602131
 21
240.07500696415781
 31
0.0
  0
LINE
  5
18D82
  8
AM_0
 10
108.989133663658
 20
363.57718019777423
 30
0.0
 11
113.98913381416951
 21
363.57718019777423
 31
0.0
  0
LINE
  5
18D84
  8
AM_0
 10
108.98883828969539
 20
298.57587826058437
 30
0.0
 11
113.98883844020681
 21
298.57587826058437
 31
0.0
  0
LINE
  5
18D85
  8
0
 10
99.988834776021335
 20
267.07500696415758
 30
0.0
 11
115.98883477602131
 21
267.07500696415758
 31
0.0
  0
LINE
  5
18D86
  8
AM_0
 10
108.98883828969539
 20
298.57587826058437
 30
0.0
 11
108.98883828969539
 21
363.57718019777428
 31
0.0
  0
LINE
  5
18D8C
  8
AM_0
 10
113.98883844020681
 20
281.07552773903348
 30
0.0
 11
118.9888385907186
 21
281.07552773903348
 31
0.0
  0
LINE
  5
18D8D
  8
0
 10
115.98883477602131
 20
270.07500696415758
 30
0.0
 11
118.98883477602131
 21
270.07500696415758
 31
0.0
  0
LINE
  5
18D99
  8
ﾁｭｳｼﾝｾﾝ1
 10
256.74991022125118
 20
213.0765292291795
 30
0.0
 11
296.21166815632182
 21
213.0765292291795
 31
0.0
  0
ARC
  5
18D9A
  8
0
 10
266.98882689080119
 20
196.8466147908326
 30
0.0
 40
3.0
 50
179.99999997304599
 51
267.99999999999642
1001
GENIUS_GENOBJ-N-FIL_13
1002
{
1000
OWNER
1000
GEN
1002
}
1001
GENIUS_GENODEF_13
1002
{
1000
HIER
1070
     0
1002
}
1002
{
1000
MANEDIT
1070
     0
1002
}
1002
{
1000
NOSEL
1070
     0
1002
}
1002
{
1000
BEHIND
1070
     0
1002
}
1002
{
1000
OTHER
1070
     0
1002
}
1002
{
1000
REACTOR
1002
}
  0
LINE
  5
18D9C
  8
0
 10
266.88412840069373
 20
193.84844230977529
 30
0.0
 11
288.98882688902779
 21
193.0765292291795
 31
0.0
  0
LINE
  5
18D9D
  8
0
 10
231.9888419922811
 20
237.07464642770549
 30
0.0
 11
259.16332439044089
 21
236.1256925918216
 31
0.0
  0
LINE
  5
18DA4
  8
AM_0
 10
263.98882690692858
 20
231.128738454374
 30
0.0
 11
263.98882689080119
 21
196.84661479224371
 31
0.0
  0
ARC
  5
18DA8
  8
0
 10
258.98882690692858
 20
231.1287384567259
 30
0.0
 40
5.0
 50
359.9999999730461
 51
88.000000000002842
1001
GENIUS_GENOBJ-N-FIL_13
1002
{
1000
OWNER
1000
GEN
1002
}
1001
GENIUS_GENODEF_13
1002
{
1000
HIER
1070
     0
1002
}
1002
{
1000
MANEDIT
1070
     0
1002
}
1002
{
1000
NOSEL
1070
     0
1002
}
1002
{
1000
BEHIND
1070
     0
1002
}
1002
{
1000
OTHER
1070
     0
1002
}
1002
{
1000
REACTOR
1002
}
  0
ARC
  5
18DBD
  8
0
 10
512.2579742109657
 20
255.07651397039049
 30
0.0
 40
20.0
 50
180.0
 51
198.4349200441674
  0
CIRCLE
  5
18DBF
  8
0
 10
512.25793571511156
 20
255.0765582989626
 30
0.0
 40
6.5
  0
CIRCLE
  5
18DC0
  8
0
  6
CONTINUOUS
 62
     2
 10
512.2579742109657
 20
255.07651397039049
 30
0.0
 40
8.0
  0
ARC
  5
18DC4
  8
0
 10
526.25794568284346
 20
213.07652922647591
 30
0.0
 40
19.99999999729641
 50
198.4349200441674
 51
270.0
  0
CIRCLE
  5
18DC7
  8
0
 10
526.25794568284346
 20
213.07652922647591
 30
0.0
 40
9.0
  0
LINE
  5
18DC9
  8
0
 10
552.30820584663536
 20
244.076536858574
 30
0.0
 11
509.25797168237028
 21
244.076536858574
 31
0.0
  0
ARC
  5
18DCA
  8
0
 10
526.25794568284346
 20
213.07652922647591
 30
0.0
 40
18.0
 50
339.64559360894788
 51
129.86377856364891
  0
ARC
  5
18DCB
  8
0
 10
511.51576185150321
 20
230.73065100817229
 30
0.0
 40
5.0
 50
199.5093721725961
 51
309.86377856364879
1001
GENIUS_GENODEF_13
1002
{
1000
HIER
1070
     0
1002
}
1002
{
1000
MANEDIT
1070
     0
1002
}
1002
{
1000
NOSEL
1070
     0
1002
}
1002
{
1000
BEHIND
1070
     0
1002
}
1002
{
1000
OTHER
1070
     0
1002
}
1002
{
1000
REACTOR
1002
}
1001
GENIUS_GENOBJ-N-FIL_13
1002
{
1000
OWNER
1000
GEN
1002
}
  0
LINE
  5
18DCC
  8
0
 10
507.28427654729057
 20
206.75198343832369
 30
0.0
 11
493.2843050728481
 21
248.75196818138329
 31
0.0
  0
LINE
  5
18DCD
  8
0
 10
499.83210294895161
 20
248.7353362479187
 30
0.0
 11
506.80282747183128
 21
229.0608457701546
 31
0.0
  0
ARC
  5
18DCE
  8
0
 10
509.25797168237023
 20
254.07651397039041
 30
0.0
 40
10.0
 50
180.0
 51
270.0
1001
GENIUS_GENOBJ-N-FIL_13
1002
{
1000
OWNER
1000
GEN
1002
}
1001
GENIUS_GENODEF_13
1002
{
1000
HIER
1070
     0
1002
}
1002
{
1000
MANEDIT
1070
     0
1002
}
1002
{
1000
NOSEL
1070
     0
1002
}
1002
{
1000
BEHIND
1070
     0
1002
}
1002
{
1000
OTHER
1070
     0
1002
}
1002
{
1000
REACTOR
1002
}
  0
ARC
  5
18DCF
  8
0
 10
509.25797213390518
 20
252.074946874749
 30
0.0
 40
10.0000004515349
 50
180.0
 51
199.5093721725961
  0
ARC
  5
18DD0
  8
0
 10
547.38043458263633
 20
222.17820284609761
 30
0.0
 40
5.0
 50
134.99999999999969
 51
203.3111943818586
1001
GENIUS_GENOBJ-N-FIL_13
1002
{
1000
OWNER
1000
GEN
1002
}
1001
GENIUS_GENODEF_13
1002
{
1000
HIER
1070
     0
1002
}
1002
{
1000
MANEDIT
1070
     0
1002
}
1002
{
1000
NOSEL
1070
     0
1002
}
1002
{
1000
BEHIND
1070
     0
1002
}
1002
{
1000
OTHER
1070
     0
1002
}
1002
{
1000
REACTOR
1002
}
  0
ARC
  5
18DD1
  8
0
 10
547.82180433669419
 20
205.07652922917961
 30
0.0
 40
5.0
 50
159.64559360894779
 51
270.0
1001
GENIUS_GENODEF_13
1002
{
1000
HIER
1070
     0
1002
}
1002
{
1000
MANEDIT
1070
     0
1002
}
1002
{
1000
NOSEL
1070
     0
1002
}
1002
{
1000
BEHIND
1070
     0
1002
}
1002
{
1000
OTHER
1070
     0
1002
}
1002
{
1000
REACTOR
1002
}
1001
GENIUS_GENOBJ-N-FIL_13
1002
{
1000
OWNER
1000
GEN
1002
}
  0
LINE
  5
18DD2
  8
0
 10
543.84490067670367
 20
225.71373675203051
 30
0.0
 11
559.73282704909434
 21
241.60166312442109
 31
0.0
  0
LINE
  5
18DD3
  8
0
 10
538.89515320839803
 20
230.66348422033619
 30
0.0
 11
554.78307958078835
 21
246.5514105927268
 31
0.0
  0
ARC
  5
18DD4
  8
0
 10
535.35961930246515
 20
234.1990181262689
 30
0.0
 40
5.0
 50
246.6888056181416
 51
314.99999999999989
1001
GENIUS_GENODEF_13
1002
{
1000
HIER
1070
     0
1002
}
1002
{
1000
MANEDIT
1070
     0
1002
}
1002
{
1000
NOSEL
1070
     0
1002
}
1002
{
1000
BEHIND
1070
     0
1002
}
1002
{
1000
OTHER
1070
     0
1002
}
1002
{
1000
REACTOR
1002
}
1001
GENIUS_GENOBJ-N-FIL_13
1002
{
1000
OWNER
1000
GEN
1002
}
  0
ARC
  5
18DD5
  8
0
 10
557.25795331494169
 20
244.076536858574
 30
0.0
 40
3.499999999999988
 50
314.99999999999989
 51
134.99999999999969
  0
ARC
  5
18DD7
  8
0
 10
502.25797168237023
 20
301.07652922917941
 30
0.0
 40
3.0
 50
0.0
 51
90.0
  0
ARC
  5
18DD8
  8
0
 10
502.25797168237023
 20
301.07652922917941
 30
0.0
 40
3.0
 50
270.0
 51
0.0
  0
ARC
  5
18DD9
  8
0
 10
502.25797168237023
 20
295.0765292291793
 30
0.0
 40
3.0
 50
90.0
 51
180.0
1001
GENIUS_GENODEF_13
1002
{
1000
HIER
1070
     0
1002
}
1002
{
1000
MANEDIT
1070
     0
1002
}
1002
{
1000
NOSEL
1070
     0
1002
}
1002
{
1000
BEHIND
1070
     0
1002
}
1002
{
1000
OTHER
1070
     0
1002
}
1002
{
1000
REACTOR
1002
}
1001
GENIUS_GENOBJ-N-FIL_13
1002
{
1000
OWNER
1000
GEN
1002
}
  0
ARC
  5
18DDA
  8
0
 10
502.25797168237023
 20
307.07652922917941
 30
0.0
 40
3.0
 50
180.0
 51
270.0
1001
GENIUS_GENOBJ-N-FIL_13
1002
{
1000
OWNER
1000
GEN
1002
}
1001
GENIUS_GENODEF_13
1002
{
1000
HIER
1070
     0
1002
}
1002
{
1000
MANEDIT
1070
     0
1002
}
1002
{
1000
NOSEL
1070
     0
1002
}
1002
{
1000
BEHIND
1070
     0
1002
}
1002
{
1000
OTHER
1070
     0
1002
}
1002
{
1000
REACTOR
1002
}
  0
ARC
  5
18DDB
  8
0
 10
502.25797168237023
 20
361.07652922917941
 30
0.0
 40
3.0
 50
270.0
 51
0.0
  0
ARC
  5
18DDC
  8
0
 10
502.25797168237023
 20
361.07652922917941
 30
0.0
 40
3.0
 50
0.0
 51
90.0
  0
ARC
  5
18DDD
  8
0
 10
502.25797168237023
 20
355.07652922917941
 30
0.0
 40
3.0
 50
90.0
 51
180.0
1001
GENIUS_GENODEF_13
1002
{
1000
HIER
1070
     0
1002
}
1002
{
1000
MANEDIT
1070
     0
1002
}
1002
{
1000
NOSEL
1070
     0
1002
}
1002
{
1000
BEHIND
1070
     0
1002
}
1002
{
1000
OTHER
1070
     0
1002
}
1002
{
1000
REACTOR
1002
}
1001
GENIUS_GENOBJ-N-FIL_13
1002
{
1000
OWNER
1000
GEN
1002
}
  0
ARC
  5
18DDE
  8
0
 10
502.25797168237023
 20
367.07652922917941
 30
0.0
 40
3.0
 50
180.0
 51
270.0
1001
GENIUS_GENOBJ-N-FIL_13
1002
{
1000
OWNER
1000
GEN
1002
}
1001
GENIUS_GENODEF_13
1002
{
1000
HIER
1070
     0
1002
}
1002
{
1000
MANEDIT
1070
     0
1002
}
1002
{
1000
NOSEL
1070
     0
1002
}
1002
{
1000
BEHIND
1070
     0
1002
}
1002
{
1000
OTHER
1070
     0
1002
}
1002
{
1000
REACTOR
1002
}
  0
LINE
  5
18DE0
  8
ﾁｭｳｼﾝｾﾝ1
 10
213.5557957869903
 20
446.07652966078689
 30
0.0
 11
164.25735266203009
 21
446.07652966078689
 31
0.0
  0
ARC
  5
18DE1
  8
AM_0
 10
188.98882825861449
 20
446.07652966078689
 30
0.0
 40
17.000000002124999
 50
0.0
 51
180.0
  0
LINE
  5
18DE3
  8
AM_0
 10
118.98883477602131
 20
423.10594515515822
 30
0.0
 11
231.9888419922811
 21
425.07841203065379
 31
0.0
  0
LINE
  5
18DE4
  8
AM_0
 10
243.98884071438101
 20
433.07856964642031
 30
0.0
 11
133.98884068138111
 21
433.07856964642031
 31
0.0
  0
LINE
  5
18DE9
  8
0
 10
115.98883477602131
 20
419.07805149420102
 30
0.0
 11
99.988834776021335
 21
419.07805149420102
 31
0.0
  0
LINE
  5
18DEA
  8
0
 10
99.988834776021335
 20
395.07805149420119
 30
0.0
 11
115.98883477602131
 21
395.07805149420119
 31
0.0
  0
LINE
  5
18DEB
  8
0
 10
99.988834776021335
 20
419.07805149420102
 30
0.0
 11
99.988834776021335
 21
395.07805149420119
 31
0.0
  0
POLYLINE
  5
18DEE
  8
AM_0
 10
133.98884068138111
 20
433.07856964642036
 30
0.0
 66
     1
 70
     8
  0
VERTEX
  8
AM_0
  5
1CB1C
 10
133.989
 20
433.079
 30
0.000000
  70
    32
  0
VERTEX
  8
AM_0
  5
1CB1D
 10
133.891
 20
433.078
 30
0.000000
  70
    32
  0
VERTEX
  8
AM_0
  5
1CB1E
 10
133.793
 20
433.076
 30
0.000000
  70
    32
  0
VERTEX
  8
AM_0
  5
1CB1F
 10
133.694
 20
433.073
 30
0.000000
  70
    32
  0
VERTEX
  8
AM_0
  5
1CB20
 10
133.596
 20
433.069
 30
0.000000
  70
    32
  0
VERTEX
  8
AM_0
  5
1CB21
 10
133.498
 20
433.064
 30
0.000000
  70
    32
  0
VERTEX
  8
AM_0
  5
1CB22
 10
133.400
 20
433.057
 30
0.000000
  70
    32
  0
VERTEX
  8
AM_0
  5
1CB23
 10
133.302
 20
433.049
 30
0.000000
  70
    32
  0
VERTEX
  8
AM_0
  5
1CB24
 10
133.205
 20
433.040
 30
0.000000
  70
    32
  0
VERTEX
  8
AM_0
  5
1CB25
 10
133.107
 20
433.030
 30
0.000000
  70
    32
  0
VERTEX
  8
AM_0
  5
1CB26
 10
133.010
 20
433.018
 30
0.000000
  70
    32
  0
VERTEX
  8
AM_0
  5
1CB27
 10
132.912
 20
433.006
 30
0.000000
  70
    32
  0
VERTEX
  8
AM_0
  5
1CB28
 10
132.815
 20
432.992
 30
0.000000
  70
    32
  0
VERTEX
  8
AM_0
  5
1CB29
 10
132.718
 20
432.977
 30
0.000000
  70
    32
  0
VERTEX
  8
AM_0
  5
1CB2A
 10
132.621
 20
432.961
 30
0.000000
  70
    32
  0
VERTEX
  8
AM_0
  5
1CB2B
 10
132.525
 20
432.943
 30
0.000000
  70
    32
  0
VERTEX
  8
AM_0
  5
1CB2C
 10
132.428
 20
432.925
 30
0.000000
  70
    32
  0
VERTEX
  8
AM_0
  5
1CB2D
 10
132.332
 20
432.905
 30
0.000000
  70
    32
  0
VERTEX
  8
AM_0
  5
1CB2E
 10
132.236
 20
432.884
 30
0.000000
  70
    32
  0
VERTEX
  8
AM_0
  5
1CB2F
 10
132.140
 20
432.862
 30
0.000000
  70
    32
  0
VERTEX
  8
AM_0
  5
1CB30
 10
132.045
 20
432.839
 30
0.000000
  70
    32
  0
VERTEX
  8
AM_0
  5
1CB31
 10
131.950
 20
432.814
 30
0.000000
  70
    32
  0
VERTEX
  8
AM_0
  5
1CB32
 10
131.855
 20
432.789
 30
0.000000
  70
    32
  0
VERTEX
  8
AM_0
  5
1CB33
 10
131.761
 20
432.762
 30
0.000000
  70
    32
  0
VERTEX
  8
AM_0
  5
1CB34
 10
131.667
 20
432.734
 30
0.000000
  70
    32
  0
VERTEX
  8
AM_0
  5
1CB35
 10
131.573
 20
432.705
 30
0.000000
  70
    32
  0
VERTEX
  8
AM_0
  5
1CB36
 10
131.479
 20
432.675
 30
0.000000
  70
    32
  0
VERTEX
  8
AM_0
  5
1CB37
 10
131.386
 20
432.643
 30
0.000000
  70
    32
  0
VERTEX
  8
AM_0
  5
1CB38
 10
131.294
 20
432.611
 30
0.000000
  70
    32
  0
VERTEX
  8
AM_0
  5
1CB39
 10
131.201
 20
432.577
 30
0.000000
  70
    32
  0
VERTEX
  8
AM_0
  5
1CB3A
 10
131.110
 20
432.543
 30
0.000000
  70
    32
  0
VERTEX
  8
AM_0
  5
1CB3B
 10
131.018
 20
432.507
 30
0.000000
  70
    32
  0
VERTEX
  8
AM_0
  5
1CB3C
 10
130.927
 20
432.470
 30
0.000000
  70
    32
  0
VERTEX
  8
AM_0
  5
1CB3D
 10
130.837
 20
432.431
 30
0.000000
  70
    32
  0
VERTEX
  8
AM_0
  5
1CB3E
 10
130.747
 20
432.392
 30
0.000000
  70
    32
  0
VERTEX
  8
AM_0
  5
1CB3F
 10
130.657
 20
432.352
 30
0.000000
  70
    32
  0
VERTEX
  8
AM_0
  5
1CB40
 10
130.568
 20
432.310
 30
0.000000
  70
    32
  0
VERTEX
  8
AM_0
  5
1CB41
 10
130.480
 20
432.268
 30
0.000000
  70
    32
  0
VERTEX
  8
AM_0
  5
1CB42
 10
130.392
 20
432.224
 30
0.000000
  70
    32
  0
VERTEX
  8
AM_0
  5
1CB43
 10
130.305
 20
432.180
 30
0.000000
  70
    32
  0
VERTEX
  8
AM_0
  5
1CB44
 10
130.218
 20
432.134
 30
0.000000
  70
    32
  0
VERTEX
  8
AM_0
  5
1CB45
 10
130.131
 20
432.087
 30
0.000000
  70
    32
  0
VERTEX
  8
AM_0
  5
1CB46
 10
130.046
 20
432.039
 30
0.000000
  70
    32
  0
VERTEX
  8
AM_0
  5
1CB47
 10
129.961
 20
431.990
 30
0.000000
  70
    32
  0
VERTEX
  8
AM_0
  5
1CB48
 10
129.876
 20
431.940
 30
0.000000
  70
    32
  0
VERTEX
  8
AM_0
  5
1CB49
 10
129.792
 20
431.889
 30
0.000000
  70
    32
  0
VERTEX
  8
AM_0
  5
1CB4A
 10
129.709
 20
431.837
 30
0.000000
  70
    32
  0
VERTEX
  8
AM_0
  5
1CB4B
 10
129.626
 20
431.784
 30
0.000000
  70
    32
  0
VERTEX
  8
AM_0
  5
1CB4C
 10
129.544
 20
431.730
 30
0.000000
  70
    32
  0
VERTEX
  8
AM_0
  5
1CB4D
 10
129.463
 20
431.675
 30
0.000000
  70
    32
  0
VERTEX
  8
AM_0
  5
1CB4E
 10
129.382
 20
431.619
 30
0.000000
  70
    32
  0
VERTEX
  8
AM_0
  5
1CB4F
 10
129.302
 20
431.562
 30
0.000000
  70
    32
  0
VERTEX
  8
AM_0
  5
1CB50
 10
129.223
 20
431.504
 30
0.000000
  70
    32
  0
VERTEX
  8
AM_0
  5
1CB51
 10
129.145
 20
431.445
 30
0.000000
  70
    32
  0
VERTEX
  8
AM_0
  5
1CB52
 10
129.067
 20
431.385
 30
0.000000
  70
    32
  0
VERTEX
  8
AM_0
  5
1CB53
 10
128.990
 20
431.324
 30
0.000000
  70
    32
  0
VERTEX
  8
AM_0
  5
1CB54
 10
128.914
 20
431.263
 30
0.000000
  70
    32
  0
VERTEX
  8
AM_0
  5
1CB55
 10
128.838
 20
431.200
 30
0.000000
  70
    32
  0
VERTEX
  8
AM_0
  5
1CB56
 10
128.763
 20
431.136
 30
0.000000
  70
    32
  0
VERTEX
  8
AM_0
  5
1CB57
 10
128.690
 20
431.072
 30
0.000000
  70
    32
  0
VERTEX
  8
AM_0
  5
1CB58
 10
128.616
 20
431.006
 30
0.000000
  70
    32
  0
VERTEX
  8
AM_0
  5
1CB59
 10
128.544
 20
430.940
 30
0.000000
  70
    32
  0
VERTEX
  8
AM_0
  5
1CB5A
 10
128.473
 20
430.873
 30
0.000000
  70
    32
  0
VERTEX
  8
AM_0
  5
1CB5B
 10
128.402
 20
430.804
 30
0.000000
  70
    32
  0
VERTEX
  8
AM_0
  5
1CB5C
 10
128.332
 20
430.735
 30
0.000000
  70
    32
  0
VERTEX
  8
AM_0
  5
1CB5D
 10
128.263
 20
430.666
 30
0.000000
  70
    32
  0
VERTEX
  8
AM_0
  5
1CB5E
 10
128.195
 20
430.595
 30
0.000000
  70
    32
  0
VERTEX
  8
AM_0
  5
1CB5F
 10
128.128
 20
430.523
 30
0.000000
  70
    32
  0
VERTEX
  8
AM_0
  5
1CB60
 10
128.061
 20
430.451
 30
0.000000
  70
    32
  0
VERTEX
  8
AM_0
  5
1CB61
 10
127.996
 20
430.378
 30
0.000000
  70
    32
  0
VERTEX
  8
AM_0
  5
1CB62
 10
127.931
 20
430.304
 30
0.000000
  70
    32
  0
VERTEX
  8
AM_0
  5
1CB63
 10
127.868
 20
430.229
 30
0.000000
  70
    32
  0
VERTEX
  8
AM_0
  5
1CB64
 10
127.805
 20
430.154
 30
0.000000
  70
    32
  0
VERTEX
  8
AM_0
  5
1CB65
 10
127.743
 20
430.077
 30
0.000000
  70
    32
  0
VERTEX
  8
AM_0
  5
1CB66
 10
127.682
 20
430.000
 30
0.000000
  70
    32
  0
VERTEX
  8
AM_0
  5
1CB67
 10
127.622
 20
429.923
 30
0.000000
  70
    32
  0
VERTEX
  8
AM_0
  5
1CB68
 10
127.563
 20
429.844
 30
0.000000
  70
    32
  0
VERTEX
  8
AM_0
  5
1CB69
 10
127.505
 20
429.765
 30
0.000000
  70
    32
  0
VERTEX
  8
AM_0
  5
1CB6A
 10
127.448
 20
429.685
 30
0.000000
  70
    32
  0
VERTEX
  8
AM_0
  5
1CB6B
 10
127.392
 20
429.604
 30
0.000000
  70
    32
  0
VERTEX
  8
AM_0
  5
1CB6C
 10
127.337
 20
429.523
 30
0.000000
  70
    32
  0
VERTEX
  8
AM_0
  5
1CB6D
 10
127.283
 20
429.441
 30
0.000000
  70
    32
  0
VERTEX
  8
AM_0
  5
1CB6E
 10
127.230
 20
429.358
 30
0.000000
  70
    32
  0
VERTEX
  8
AM_0
  5
1CB6F
 10
127.178
 20
429.275
 30
0.000000
  70
    32
  0
VERTEX
  8
AM_0
  5
1CB70
 10
127.127
 20
429.191
 30
0.000000
  70
    32
  0
VERTEX
  8
AM_0
  5
1CB71
 10
127.077
 20
429.107
 30
0.000000
  70
    32
  0
VERTEX
  8
AM_0
  5
1CB72
 10
127.028
 20
429.022
 30
0.000000
  70
    32
  0
VERTEX
  8
AM_0
  5
1CB73
 10
126.980
 20
428.936
 30
0.000000
  70
    32
  0
VERTEX
  8
AM_0
  5
1CB74
 10
126.933
 20
428.850
 30
0.000000
  70
    32
  0
VERTEX
  8
AM_0
  5
1CB75
 10
126.888
 20
428.763
 30
0.000000
  70
    32
  0
VERTEX
  8
AM_0
  5
1CB76
 10
126.843
 20
428.675
 30
0.000000
  70
    32
  0
VERTEX
  8
AM_0
  5
1CB77
 10
126.799
 20
428.587
 30
0.000000
  70
    32
  0
VERTEX
  8
AM_0
  5
1CB78
 10
126.757
 20
428.499
 30
0.000000
  70
    32
  0
VERTEX
  8
AM_0
  5
1CB79
 10
126.715
 20
428.410
 30
0.000000
  70
    32
  0
VERTEX
  8
AM_0
  5
1CB7A
 10
126.675
 20
428.320
 30
0.000000
  70
    32
  0
VERTEX
  8
AM_0
  5
1CB7B
 10
126.636
 20
428.230
 30
0.000000
  70
    32
  0
VERTEX
  8
AM_0
  5
1CB7C
 10
126.598
 20
428.140
 30
0.000000
  70
    32
  0
VERTEX
  8
AM_0
  5
1CB7D
 10
126.561
 20
428.049
 30
0.000000
  70
    32
  0
VERTEX
  8
AM_0
  5
1CB7E
 10
126.525
 20
427.958
 30
0.000000
  70
    32
  0
VERTEX
  8
AM_0
  5
1CB7F
 10
126.490
 20
427.866
 30
0.000000
  70
    32
  0
VERTEX
  8
AM_0
  5
1CB80
 10
126.456
 20
427.774
 30
0.000000
  70
    32
  0
VERTEX
  8
AM_0
  5
1CB81
 10
126.424
 20
427.681
 30
0.000000
  70
    32
  0
VERTEX
  8
AM_0
  5
1CB82
 10
126.393
 20
427.588
 30
0.000000
  70
    32
  0
VERTEX
  8
AM_0
  5
1CB83
 10
126.362
 20
427.495
 30
0.000000
  70
    32
  0
VERTEX
  8
AM_0
  5
1CB84
 10
126.333
 20
427.401
 30
0.000000
  70
    32
  0
VERTEX
  8
AM_0
  5
1CB85
 10
126.305
 20
427.307
 30
0.000000
  70
    32
  0
VERTEX
  8
AM_0
  5
1CB86
 10
126.279
 20
427.212
 30
0.000000
  70
    32
  0
VERTEX
  8
AM_0
  5
1CB87
 10
126.253
 20
427.117
 30
0.000000
  70
    32
  0
VERTEX
  8
AM_0
  5
1CB88
 10
126.229
 20
427.022
 30
0.000000
  70
    32
  0
VERTEX
  8
AM_0
  5
1CB89
 10
126.205
 20
426.927
 30
0.000000
  70
    32
  0
VERTEX
  8
AM_0
  5
1CB8A
 10
126.183
 20
426.831
 30
0.000000
  70
    32
  0
VERTEX
  8
AM_0
  5
1CB8B
 10
126.162
 20
426.735
 30
0.000000
  70
    32
  0
VERTEX
  8
AM_0
  5
1CB8C
 10
126.143
 20
426.639
 30
0.000000
  70
    32
  0
VERTEX
  8
AM_0
  5
1CB8D
 10
126.124
 20
426.543
 30
0.000000
  70
    32
  0
VERTEX
  8
AM_0
  5
1CB8E
 10
126.107
 20
426.446
 30
0.000000
  70
    32
  0
VERTEX
  8
AM_0
  5
1CB8F
 10
126.090
 20
426.349
 30
0.000000
  70
    32
  0
VERTEX
  8
AM_0
  5
1CB90
 10
126.075
 20
426.252
 30
0.000000
  70
    32
  0
VERTEX
  8
AM_0
  5
1CB91
 10
126.062
 20
426.155
 30
0.000000
  70
    32
  0
VERTEX
  8
AM_0
  5
1CB92
 10
126.049
 20
426.058
 30
0.000000
  70
    32
  0
VERTEX
  8
AM_0
  5
1CB93
 10
126.038
 20
425.960
 30
0.000000
  70
    32
  0
VERTEX
  8
AM_0
  5
1CB94
 10
126.027
 20
425.863
 30
0.000000
  70
    32
  0
VERTEX
  8
AM_0
  5
1CB95
 10
126.018
 20
425.765
 30
0.000000
  70
    32
  0
VERTEX
  8
AM_0
  5
1CB96
 10
126.011
 20
425.667
 30
0.000000
  70
    32
  0
VERTEX
  8
AM_0
  5
1CB97
 10
126.004
 20
425.569
 30
0.000000
  70
    32
  0
VERTEX
  8
AM_0
  5
1CB98
 10
125.998
 20
425.471
 30
0.000000
  70
    32
  0
VERTEX
  8
AM_0
  5
1CB99
 10
125.994
 20
425.373
 30
0.000000
  70
    32
  0
VERTEX
  8
AM_0
  5
1CB9A
 10
125.991
 20
425.275
 30
0.000000
  70
    32
  0
VERTEX
  8
AM_0
  5
1CB9B
 10
125.989
 20
425.177
 30
0.000000
  70
    32
  0
VERTEX
  8
AM_0
  5
1CB9C
 10
125.989
 20
425.078
 30
0.000000
  70
    32
  0
SEQEND
  8
AM_0
  5
1CB9D
  0
LINE
  5
18DEF
  8
0
 10
115.98883477602131
 20
422.07805149420119
 30
0.0
 11
115.98883477602131
 21
392.07805149420119
 31
0.0
  0
LINE
  5
18DF1
  8
AM_0
 10
113.98883844020681
 20
381.0775307193253
 30
0.0
 11
118.9888385907186
 21
381.0775307193253
 31
0.0
  0
LINE
  5
18DF2
  8
0
 10
115.98883477602131
 20
392.07805149420119
 30
0.0
 11
118.98883477602131
 21
392.07805149420119
 31
0.0
  0
LINE
  5
18DF3
  8
0
 10
115.98883477602131
 20
422.07805149420119
 30
0.0
 11
118.98883477602131
 21
422.07805149420119
 31
0.0
  0
LINE
  5
18DF4
  8
AM_0
 10
125.98884067898121
 20
425.07840964642043
 30
0.0
 11
125.98884067898121
 21
423.22813346392007
 31
0.0
  0
CIRCLE
  5
18DF6
  8
AM_0
 10
188.98882825861449
 20
446.07652966078689
 30
0.0
 40
10.000000001249999
  0
LINE
  5
18DF7
  8
AM_0
 10
171.98882825649
 20
446.07652966078689
 30
0.0
 11
171.9888282564896
 21
436.64795823103708
 31
0.0
  0
ARC
  5
18DF8
  8
AM_0
 10
166.98882825586469
 20
436.64795823103708
 30
0.0
 40
5.0000000006249961
 50
314.4153085971879
 51
0.0
1001
GENIUS_GENOBJ-N-FIL_13
1002
{
1000
OWNER
1000
GEN
1002
}
1001
GENIUS_GENODEF_13
1002
{
1000
HIER
1070
     0
1002
}
1002
{
1000
MANEDIT
1070
     0
1002
}
1002
{
1000
NOSEL
1070
     0
1002
}
1002
{
1000
BEHIND
1070
     0
1002
}
1002
{
1000
OTHER
1070
     0
1002
}
1002
{
1000
REACTOR
1002
}
  0
LINE
  5
18DFD
  8
ﾁｭｳｼﾝｾﾝ1
 10
256.74991022125118
 20
449.0765292291793
 30
0.0
 11
296.21166815632182
 21
449.0765292291793
 31
0.0
  0
POLYLINE
  5
18DFE
  8
AM_0
 10
251.9583900350564
 20
425.77576401471003
 30
0.0
 66
     1
 70
     8
  0
VERTEX
  8
AM_0
  5
1CB9E
 10
251.958
 20
425.776
 30
0.000000
  70
    32
  0
VERTEX
  8
AM_0
  5
1CB9F
 10
251.950
 20
425.868
 30
0.000000
  70
    32
  0
VERTEX
  8
AM_0
  5
1CBA0
 10
251.940
 20
425.960
 30
0.000000
  70
    32
  0
VERTEX
  8
AM_0
  5
1CBA1
 10
251.929
 20
426.052
 30
0.000000
  70
    32
  0
VERTEX
  8
AM_0
  5
1CBA2
 10
251.918
 20
426.144
 30
0.000000
  70
    32
  0
VERTEX
  8
AM_0
  5
1CBA3
 10
251.905
 20
426.236
 30
0.000000
  70
    32
  0
VERTEX
  8
AM_0
  5
1CBA4
 10
251.891
 20
426.328
 30
0.000000
  70
    32
  0
VERTEX
  8
AM_0
  5
1CBA5
 10
251.876
 20
426.419
 30
0.000000
  70
    32
  0
VERTEX
  8
AM_0
  5
1CBA6
 10
251.860
 20
426.511
 30
0.000000
  70
    32
  0
VERTEX
  8
AM_0
  5
1CBA7
 10
251.842
 20
426.602
 30
0.000000
  70
    32
  0
VERTEX
  8
AM_0
  5
1CBA8
 10
251.824
 20
426.693
 30
0.000000
  70
    32
  0
VERTEX
  8
AM_0
  5
1CBA9
 10
251.805
 20
426.783
 30
0.000000
  70
    32
  0
VERTEX
  8
AM_0
  5
1CBAA
 10
251.785
 20
426.874
 30
0.000000
  70
    32
  0
VERTEX
  8
AM_0
  5
1CBAB
 10
251.763
 20
426.964
 30
0.000000
  70
    32
  0
VERTEX
  8
AM_0
  5
1CBAC
 10
251.741
 20
427.054
 30
0.000000
  70
    32
  0
VERTEX
  8
AM_0
  5
1CBAD
 10
251.718
 20
427.144
 30
0.000000
  70
    32
  0
VERTEX
  8
AM_0
  5
1CBAE
 10
251.693
 20
427.233
 30
0.000000
  70
    32
  0
VERTEX
  8
AM_0
  5
1CBAF
 10
251.668
 20
427.322
 30
0.000000
  70
    32
  0
VERTEX
  8
AM_0
  5
1CBB0
 10
251.641
 20
427.411
 30
0.000000
  70
    32
  0
VERTEX
  8
AM_0
  5
1CBB1
 10
251.614
 20
427.500
 30
0.000000
  70
    32
  0
VERTEX
  8
AM_0
  5
1CBB2
 10
251.585
 20
427.588
 30
0.000000
  70
    32
  0
VERTEX
  8
AM_0
  5
1CBB3
 10
251.555
 20
427.676
 30
0.000000
  70
    32
  0
VERTEX
  8
AM_0
  5
1CBB4
 10
251.525
 20
427.763
 30
0.000000
  70
    32
  0
VERTEX
  8
AM_0
  5
1CBB5
 10
251.493
 20
427.851
 30
0.000000
  70
    32
  0
VERTEX
  8
AM_0
  5
1CBB6
 10
251.461
 20
427.937
 30
0.000000
  70
    32
  0
VERTEX
  8
AM_0
  5
1CBB7
 10
251.427
 20
428.024
 30
0.000000
  70
    32
  0
VERTEX
  8
AM_0
  5
1CBB8
 10
251.392
 20
428.110
 30
0.000000
  70
    32
  0
VERTEX
  8
AM_0
  5
1CBB9
 10
251.357
 20
428.195
 30
0.000000
  70
    32
  0
VERTEX
  8
AM_0
  5
1CBBA
 10
251.320
 20
428.281
 30
0.000000
  70
    32
  0
VERTEX
  8
AM_0
  5
1CBBB
 10
251.282
 20
428.365
 30
0.000000
  70
    32
  0
VERTEX
  8
AM_0
  5
1CBBC
 10
251.244
 20
428.450
 30
0.000000
  70
    32
  0
VERTEX
  8
AM_0
  5
1CBBD
 10
251.204
 20
428.533
 30
0.000000
  70
    32
  0
VERTEX
  8
AM_0
  5
1CBBE
 10
251.164
 20
428.617
 30
0.000000
  70
    32
  0
VERTEX
  8
AM_0
  5
1CBBF
 10
251.122
 20
428.700
 30
0.000000
  70
    32
  0
VERTEX
  8
AM_0
  5
1CBC0
 10
251.080
 20
428.782
 30
0.000000
  70
    32
  0
VERTEX
  8
AM_0
  5
1CBC1
 10
251.036
 20
428.864
 30
0.000000
  70
    32
  0
VERTEX
  8
AM_0
  5
1CBC2
 10
250.992
 20
428.946
 30
0.000000
  70
    32
  0
VERTEX
  8
AM_0
  5
1CBC3
 10
250.947
 20
429.026
 30
0.000000
  70
    32
  0
VERTEX
  8
AM_0
  5
1CBC4
 10
250.901
 20
429.107
 30
0.000000
  70
    32
  0
VERTEX
  8
AM_0
  5
1CBC5
 10
250.853
 20
429.187
 30
0.000000
  70
    32
  0
VERTEX
  8
AM_0
  5
1CBC6
 10
250.805
 20
429.266
 30
0.000000
  70
    32
  0
VERTEX
  8
AM_0
  5
1CBC7
 10
250.756
 20
429.345
 30
0.000000
  70
    32
  0
VERTEX
  8
AM_0
  5
1CBC8
 10
250.706
 20
429.423
 30
0.000000
  70
    32
  0
VERTEX
  8
AM_0
  5
1CBC9
 10
250.656
 20
429.500
 30
0.000000
  70
    32
  0
VERTEX
  8
AM_0
  5
1CBCA
 10
250.604
 20
429.577
 30
0.000000
  70
    32
  0
VERTEX
  8
AM_0
  5
1CBCB
 10
250.551
 20
429.654
 30
0.000000
  70
    32
  0
VERTEX
  8
AM_0
  5
1CBCC
 10
250.498
 20
429.730
 30
0.000000
  70
    32
  0
VERTEX
  8
AM_0
  5
1CBCD
 10
250.444
 20
429.805
 30
0.000000
  70
    32
  0
VERTEX
  8
AM_0
  5
1CBCE
 10
250.388
 20
429.879
 30
0.000000
  70
    32
  0
VERTEX
  8
AM_0
  5
1CBCF
 10
250.332
 20
429.953
 30
0.000000
  70
    32
  0
VERTEX
  8
AM_0
  5
1CBD0
 10
250.275
 20
430.026
 30
0.000000
  70
    32
  0
VERTEX
  8
AM_0
  5
1CBD1
 10
250.218
 20
430.099
 30
0.000000
  70
    32
  0
VERTEX
  8
AM_0
  5
1CBD2
 10
250.159
 20
430.171
 30
0.000000
  70
    32
  0
VERTEX
  8
AM_0
  5
1CBD3
 10
250.100
 20
430.242
 30
0.000000
  70
    32
  0
VERTEX
  8
AM_0
  5
1CBD4
 10
250.039
 20
430.312
 30
0.000000
  70
    32
  0
VERTEX
  8
AM_0
  5
1CBD5
 10
249.978
 20
430.382
 30
0.000000
  70
    32
  0
VERTEX
  8
AM_0
  5
1CBD6
 10
249.916
 20
430.451
 30
0.000000
  70
    32
  0
VERTEX
  8
AM_0
  5
1CBD7
 10
249.854
 20
430.519
 30
0.000000
  70
    32
  0
VERTEX
  8
AM_0
  5
1CBD8
 10
249.790
 20
430.587
 30
0.000000
  70
    32
  0
VERTEX
  8
AM_0
  5
1CBD9
 10
249.726
 20
430.654
 30
0.000000
  70
    32
  0
VERTEX
  8
AM_0
  5
1CBDA
 10
249.661
 20
430.720
 30
0.000000
  70
    32
  0
VERTEX
  8
AM_0
  5
1CBDB
 10
249.595
 20
430.785
 30
0.000000
  70
    32
  0
VERTEX
  8
AM_0
  5
1CBDC
 10
249.529
 20
430.850
 30
0.000000
  70
    32
  0
VERTEX
  8
AM_0
  5
1CBDD
 10
249.462
 20
430.914
 30
0.000000
  70
    32
  0
VERTEX
  8
AM_0
  5
1CBDE
 10
249.394
 20
430.977
 30
0.000000
  70
    32
  0
VERTEX
  8
AM_0
  5
1CBDF
 10
249.325
 20
431.039
 30
0.000000
  70
    32
  0
VERTEX
  8
AM_0
  5
1CBE0
 10
249.255
 20
431.100
 30
0.000000
  70
    32
  0
VERTEX
  8
AM_0
  5
1CBE1
 10
249.185
 20
431.161
 30
0.000000
  70
    32
  0
VERTEX
  8
AM_0
  5
1CBE2
 10
249.114
 20
431.221
 30
0.000000
  70
    32
  0
VERTEX
  8
AM_0
  5
1CBE3
 10
249.043
 20
431.280
 30
0.000000
  70
    32
  0
VERTEX
  8
AM_0
  5
1CBE4
 10
248.971
 20
431.338
 30
0.000000
  70
    32
  0
VERTEX
  8
AM_0
  5
1CBE5
 10
248.898
 20
431.395
 30
0.000000
  70
    32
  0
VERTEX
  8
AM_0
  5
1CBE6
 10
248.824
 20
431.452
 30
0.000000
  70
    32
  0
VERTEX
  8
AM_0
  5
1CBE7
 10
248.750
 20
431.507
 30
0.000000
  70
    32
  0
VERTEX
  8
AM_0
  5
1CBE8
 10
248.675
 20
431.562
 30
0.000000
  70
    32
  0
VERTEX
  8
AM_0
  5
1CBE9
 10
248.600
 20
431.616
 30
0.000000
  70
    32
  0
VERTEX
  8
AM_0
  5
1CBEA
 10
248.524
 20
431.669
 30
0.000000
  70
    32
  0
VERTEX
  8
AM_0
  5
1CBEB
 10
248.447
 20
431.721
 30
0.000000
  70
    32
  0
VERTEX
  8
AM_0
  5
1CBEC
 10
248.370
 20
431.772
 30
0.000000
  70
    32
  0
VERTEX
  8
AM_0
  5
1CBED
 10
248.292
 20
431.823
 30
0.000000
  70
    32
  0
VERTEX
  8
AM_0
  5
1CBEE
 10
248.213
 20
431.872
 30
0.000000
  70
    32
  0
VERTEX
  8
AM_0
  5
1CBEF
 10
248.134
 20
431.921
 30
0.000000
  70
    32
  0
VERTEX
  8
AM_0
  5
1CBF0
 10
248.055
 20
431.968
 30
0.000000
  70
    32
  0
VERTEX
  8
AM_0
  5
1CBF1
 10
247.975
 20
432.015
 30
0.000000
  70
    32
  0
VERTEX
  8
AM_0
  5
1CBF2
 10
247.894
 20
432.061
 30
0.000000
  70
    32
  0
VERTEX
  8
AM_0
  5
1CBF3
 10
247.813
 20
432.105
 30
0.000000
  70
    32
  0
VERTEX
  8
AM_0
  5
1CBF4
 10
247.731
 20
432.149
 30
0.000000
  70
    32
  0
VERTEX
  8
AM_0
  5
1CBF5
 10
247.649
 20
432.192
 30
0.000000
  70
    32
  0
VERTEX
  8
AM_0
  5
1CBF6
 10
247.566
 20
432.234
 30
0.000000
  70
    32
  0
VERTEX
  8
AM_0
  5
1CBF7
 10
247.483
 20
432.275
 30
0.000000
  70
    32
  0
VERTEX
  8
AM_0
  5
1CBF8
 10
247.399
 20
432.315
 30
0.000000
  70
    32
  0
VERTEX
  8
AM_0
  5
1CBF9
 10
247.315
 20
432.354
 30
0.000000
  70
    32
  0
VERTEX
  8
AM_0
  5
1CBFA
 10
247.231
 20
432.392
 30
0.000000
  70
    32
  0
VERTEX
  8
AM_0
  5
1CBFB
 10
247.146
 20
432.429
 30
0.000000
  70
    32
  0
VERTEX
  8
AM_0
  5
1CBFC
 10
247.060
 20
432.465
 30
0.000000
  70
    32
  0
VERTEX
  8
AM_0
  5
1CBFD
 10
246.975
 20
432.501
 30
0.000000
  70
    32
  0
VERTEX
  8
AM_0
  5
1CBFE
 10
246.888
 20
432.535
 30
0.000000
  70
    32
  0
VERTEX
  8
AM_0
  5
1CBFF
 10
246.802
 20
432.568
 30
0.000000
  70
    32
  0
VERTEX
  8
AM_0
  5
1CC00
 10
246.715
 20
432.600
 30
0.000000
  70
    32
  0
VERTEX
  8
AM_0
  5
1CC01
 10
246.627
 20
432.631
 30
0.000000
  70
    32
  0
VERTEX
  8
AM_0
  5
1CC02
 10
246.540
 20
432.661
 30
0.000000
  70
    32
  0
VERTEX
  8
AM_0
  5
1CC03
 10
246.452
 20
432.690
 30
0.000000
  70
    32
  0
VERTEX
  8
AM_0
  5
1CC04
 10
246.363
 20
432.718
 30
0.000000
  70
    32
  0
VERTEX
  8
AM_0
  5
1CC05
 10
246.275
 20
432.745
 30
0.000000
  70
    32
  0
VERTEX
  8
AM_0
  5
1CC06
 10
246.186
 20
432.771
 30
0.000000
  70
    32
  0
VERTEX
  8
AM_0
  5
1CC07
 10
246.096
 20
432.796
 30
0.000000
  70
    32
  0
VERTEX
  8
AM_0
  5
1CC08
 10
246.007
 20
432.820
 30
0.000000
  70
    32
  0
VERTEX
  8
AM_0
  5
1CC09
 10
245.917
 20
432.843
 30
0.000000
  70
    32
  0
VERTEX
  8
AM_0
  5
1CC0A
 10
245.827
 20
432.865
 30
0.000000
  70
    32
  0
VERTEX
  8
AM_0
  5
1CC0B
 10
245.736
 20
432.885
 30
0.000000
  70
    32
  0
VERTEX
  8
AM_0
  5
1CC0C
 10
245.646
 20
432.905
 30
0.000000
  70
    32
  0
VERTEX
  8
AM_0
  5
1CC0D
 10
245.555
 20
432.924
 30
0.000000
  70
    32
  0
VERTEX
  8
AM_0
  5
1CC0E
 10
245.464
 20
432.941
 30
0.000000
  70
    32
  0
VERTEX
  8
AM_0
  5
1CC0F
 10
245.373
 20
432.958
 30
0.000000
  70
    32
  0
VERTEX
  8
AM_0
  5
1CC10
 10
245.281
 20
432.973
 30
0.000000
  70
    32
  0
VERTEX
  8
AM_0
  5
1CC11
 10
245.190
 20
432.988
 30
0.000000
  70
    32
  0
VERTEX
  8
AM_0
  5
1CC12
 10
245.098
 20
433.001
 30
0.000000
  70
    32
  0
VERTEX
  8
AM_0
  5
1CC13
 10
245.006
 20
433.014
 30
0.000000
  70
    32
  0
VERTEX
  8
AM_0
  5
1CC14
 10
244.914
 20
433.025
 30
0.000000
  70
    32
  0
VERTEX
  8
AM_0
  5
1CC15
 10
244.822
 20
433.035
 30
0.000000
  70
    32
  0
VERTEX
  8
AM_0
  5
1CC16
 10
244.730
 20
433.044
 30
0.000000
  70
    32
  0
VERTEX
  8
AM_0
  5
1CC17
 10
244.637
 20
433.052
 30
0.000000
  70
    32
  0
VERTEX
  8
AM_0
  5
1CC18
 10
244.545
 20
433.059
 30
0.000000
  70
    32
  0
VERTEX
  8
AM_0
  5
1CC19
 10
244.452
 20
433.065
 30
0.000000
  70
    32
  0
VERTEX
  8
AM_0
  5
1CC1A
 10
244.360
 20
433.070
 30
0.000000
  70
    32
  0
VERTEX
  8
AM_0
  5
1CC1B
 10
244.267
 20
433.074
 30
0.000000
  70
    32
  0
VERTEX
  8
AM_0
  5
1CC1C
 10
244.174
 20
433.076
 30
0.000000
  70
    32
  0
VERTEX
  8
AM_0
  5
1CC1D
 10
244.082
 20
433.078
 30
0.000000
  70
    32
  0
VERTEX
  8
AM_0
  5
1CC1E
 10
243.989
 20
433.079
 30
0.000000
  70
    32
  0
SEQEND
  8
AM_0
  5
1CC1F
  0
ARC
  5
18E01
  8
0
 10
258.9888269069283
 20
431.02432000163282
 30
0.0
 40
5.0
 50
271.9999999999971
 51
0.000000026954005
1001
GENIUS_GENOBJ-N-FIL_13
1002
{
1000
OWNER
1000
GEN
1002
}
1001
GENIUS_GENODEF_13
1002
{
1000
HIER
1070
     0
1002
}
1002
{
1000
MANEDIT
1070
     0
1002
}
1002
{
1000
NOSEL
1070
     0
1002
}
1002
{
1000
BEHIND
1070
     0
1002
}
1002
{
1000
OTHER
1070
     0
1002
}
1002
{
1000
REACTOR
1002
}
  0
LINE
  5
18E02
  8
0
 10
231.9888419922811
 20
425.07841203065379
 30
0.0
 11
259.16332439044089
 21
426.02736586653731
 31
0.0
  0
LINE
  5
18E12
  8
AM_0
 10
205.98882826073961
 20
446.07652966078689
 30
0.0
 11
205.98882826073961
 21
436.64795823103708
 31
0.0
  0
ARC
  5
18E13
  8
AM_0
 10
210.98882826136489
 20
436.64795823103708
 30
0.0
 40
5.0000000006249961
 50
180.0
 51
225.58469140281031
1001
GENIUS_GENOBJ-N-FIL_13
1002
{
1000
OWNER
1000
GEN
1002
}
1001
GENIUS_GENODEF_13
1002
{
1000
HIER
1070
     0
1002
}
1002
{
1000
MANEDIT
1070
     0
1002
}
1002
{
1000
NOSEL
1070
     0
1002
}
1002
{
1000
BEHIND
1070
     0
1002
}
1002
{
1000
OTHER
1070
     0
1002
}
1002
{
1000
REACTOR
1002
}
  0
LINE
  5
18E17
  8
AM_0
 10
263.98882690692841
 20
431.02432000398483
 30
0.0
 11
263.98882689080119
 21
465.30644366611517
 31
0.0
  0
LINE
  5
18E19
  8
0
 10
266.88412840069373
 20
468.30461614858359
 30
0.0
 11
288.98882688902779
 21
469.0765292291793
 31
0.0
  0
ARC
  5
18E1A
  8
0
 10
266.98882689080119
 20
465.30644366752682
 30
0.0
 40
3.0
 50
92.000000000003624
 51
180.00000002695401
1001
GENIUS_GENOBJ-N-FIL_13
1002
{
1000
OWNER
1000
GEN
1002
}
1001
GENIUS_GENODEF_13
1002
{
1000
HIER
1070
     0
1002
}
1002
{
1000
MANEDIT
1070
     0
1002
}
1002
{
1000
NOSEL
1070
     0
1002
}
1002
{
1000
BEHIND
1070
     0
1002
}
1002
{
1000
OTHER
1070
     0
1002
}
1002
{
1000
REACTOR
1002
}
  0
LINE
  5
18E1F
  8
0
 10
499.83210294895167
 20
413.41772221044022
 30
0.0
 11
506.80282747183139
 21
433.09221268820431
 31
0.0
  0
LINE
  5
18E20
  8
0
 10
543.84490067670367
 20
436.43932170632809
 30
0.0
 11
559.73282704909457
 21
420.55139533393771
 31
0.0
  0
LINE
  5
18E21
  8
0
 10
538.89515320839814
 20
431.48957423802278
 30
0.0
 11
554.78307958078881
 21
415.601647865632
 31
0.0
  0
ARC
  5
18E22
  8
0
 10
526.25794568284357
 20
449.07652923188311
 30
0.0
 40
18.0
 50
230.13622143635109
 51
20.354406391052141
  0
LINE
  5
18E23
  8
0
 10
507.28427654729057
 20
455.40107502003502
 30
0.0
 11
493.2843050728481
 21
413.40109027697542
 31
0.0
  0
LINE
  5
18E24
  8
0
 10
552.30820584663536
 20
418.07652159978483
 30
0.0
 11
509.25797168237051
 21
418.07652159978483
 31
0.0
  0
ARC
  5
18E25
  8
0
 10
509.25797168237051
 20
408.076521599785
 30
0.0
 40
10.0
 50
90.0
 51
180.0
1001
GENIUS_GENOBJ-N-FIL_13
1002
{
1000
OWNER
1000
GEN
1002
}
1001
GENIUS_GENODEF_13
1002
{
1000
HIER
1070
     0
1002
}
1002
{
1000
MANEDIT
1070
     0
1002
}
1002
{
1000
NOSEL
1070
     0
1002
}
1002
{
1000
BEHIND
1070
     0
1002
}
1002
{
1000
OTHER
1070
     0
1002
}
1002
{
1000
REACTOR
1002
}
  0
ARC
  5
18E26
  8
0
 10
509.25797213390541
 20
410.07811158361
 30
0.0
 40
10.0000004515349
 50
160.49062782740381
 51
180.0
  0
ARC
  5
18E27
  8
0
 10
512.2579742109657
 20
407.07654448796819
 30
0.0
 40
20.0
 50
161.56507995583269
 51
180.0
  0
CIRCLE
  5
18E28
  8
0
 10
512.25793571511156
 20
407.07656592835701
 30
0.0
 40
6.5
  0
CIRCLE
  5
18E29
  8
0
  6
CONTINUOUS
 62
     2
 10
512.2579742109657
 20
407.0765215997846
 30
0.0
 40
8.0
  0
ARC
  5
18E2A
  8
0
 10
557.25795331494169
 20
418.07652159978483
 30
0.0
 40
3.499999999999988
 50
225.00000000000031
 51
45.00000000000027
  0
CIRCLE
  5
18E2B
  8
0
 10
526.25794568284357
 20
449.07652923188311
 30
0.0
 40
9.0
  0
ARC
  5
18E2C
  8
0
 10
526.25794568284346
 20
449.07652923188272
 30
0.0
 40
19.99999999729641
 50
90.0
 51
161.56507995583269
  0
ARC
  5
18E2E
  8
0
 10
511.51576185150321
 20
431.42240745018682
 30
0.0
 40
5.0
 50
50.136221436351072
 51
160.49062782741061
1001
GENIUS_GENODEF_13
1002
{
1000
HIER
1070
     0
1002
}
1002
{
1000
MANEDIT
1070
     0
1002
}
1002
{
1000
NOSEL
1070
     0
1002
}
1002
{
1000
BEHIND
1070
     0
1002
}
1002
{
1000
OTHER
1070
     0
1002
}
1002
{
1000
REACTOR
1002
}
1001
GENIUS_GENOBJ-N-FIL_13
1002
{
1000
OWNER
1000
GEN
1002
}
  0
ARC
  5
18E2F
  8
0
 10
547.82180433669419
 20
457.07652922917941
 30
0.0
 40
5.0
 50
89.999999999996732
 51
200.35440639105209
1001
GENIUS_GENODEF_13
1002
{
1000
HIER
1070
     0
1002
}
1002
{
1000
MANEDIT
1070
     0
1002
}
1002
{
1000
NOSEL
1070
     0
1002
}
1002
{
1000
BEHIND
1070
     0
1002
}
1002
{
1000
OTHER
1070
     0
1002
}
1002
{
1000
REACTOR
1002
}
1001
GENIUS_GENOBJ-N-FIL_13
1002
{
1000
OWNER
1000
GEN
1002
}
  0
ARC
  5
18E30
  8
0
 10
535.35961930246515
 20
427.95404033209002
 30
0.0
 40
5.0
 50
45.00000000000027
 51
113.3111943818583
1001
GENIUS_GENODEF_13
1002
{
1000
HIER
1070
     0
1002
}
1002
{
1000
MANEDIT
1070
     0
1002
}
1002
{
1000
NOSEL
1070
     0
1002
}
1002
{
1000
BEHIND
1070
     0
1002
}
1002
{
1000
OTHER
1070
     0
1002
}
1002
{
1000
REACTOR
1002
}
1001
GENIUS_GENOBJ-N-FIL_13
1002
{
1000
OWNER
1000
GEN
1002
}
  0
ARC
  5
18E31
  8
0
 10
547.38043458263655
 20
439.97485561226108
 30
0.0
 40
5.0
 50
156.6888056181414
 51
225.00000000000031
1001
GENIUS_GENOBJ-N-FIL_13
1002
{
1000
OWNER
1000
GEN
1002
}
1001
GENIUS_GENODEF_13
1002
{
1000
HIER
1070
     0
1002
}
1002
{
1000
MANEDIT
1070
     0
1002
}
1002
{
1000
NOSEL
1070
     0
1002
}
1002
{
1000
BEHIND
1070
     0
1002
}
1002
{
1000
OTHER
1070
     0
1002
}
1002
{
1000
REACTOR
1002
}
  0
LINE
  5
18E3E
  8
AM_0
 10
754.25794213686186
 20
462.07914961661749
 30
0.0
 11
754.25794213686152
 21
344.0767724377983
 31
0.0
  0
LINE
  5
18E3F
  8
AM_0
 10
740.25794213266136
 20
344.07678961661719
 30
0.0
 11
740.25794213266136
 21
432.07854961661718
 31
0.0
  0
LINE
  5
18E40
  8
AM_0
 10
723.25794820873489
 20
252.0749468747486
 30
0.0
 11
723.25794820873523
 21
410.07811158360983
 31
0.0
  0
LINE
  5
18E41
  8
AM_0
 10
730.25794820873489
 20
255.07651397039061
 30
0.0
 11
730.25794820873523
 21
407.07652159978511
 31
0.0
  0
LINE
  5
18E42
  8
ﾁｭｳｼﾝｾﾝ1
 10
578.25797421096524
 20
478.58683694833962
 30
0.0
 11
578.25797421096524
 21
183.5662215100192
 31
0.0
  0
LINE
  5
18E45
  8
ﾁｭｳｼﾝｾﾝ1
 10
1060.29
 20
344.07677423375952
 30
0.0
 11
705.45450183392518
 21
344.0767911426048
 31
0.0
  0
LINE
  5
18E4F
  8
AM_0
 10
740.25794213266136
 20
305.01503881650569
 30
0.0
 11
754.25794213686152
 21
305.01503881650569
 31
0.0
  0
LINE
  5
18E50
  8
AM_0
 10
754.25794213686152
 20
256.07502961661748
 30
0.0
 11
740.25794213266136
 21
256.07502961661748
 31
0.0
  0
ARC
  5
18E51
  8
0
 10
710.25797421096547
 20
255.07651397039049
 30
0.0
 40
20.0
 50
341.56507995583269
 51
0.0
  0
CIRCLE
  5
18E52
  8
AM_0
 10
611.2579742109657
 20
247.076536858574
 30
0.0
 40
8.0
  0
ARC
  5
18E53
  8
0
 10
611.25797421096524
 20
247.07653685857409
 30
0.0
 40
12.0
 50
6.7563270305881966
 51
173.24367296941179
  0
CIRCLE
  5
18E54
  8
0
 10
710.25793571511167
 20
255.0765582989624
 30
0.0
 40
6.5
  0
CIRCLE
  5
18E55
  8
0
  6
CONTINUOUS
 62
     2
 10
710.25797421096547
 20
255.07651397039029
 30
0.0
 40
8.0
  0
CIRCLE
  5
18E56
  8
AM_0
 10
611.2579742109657
 20
247.076536858574
 30
0.0
 40
8.5
  0
LINE
  5
18E58
  8
0
 10
661.75799510698971
 20
244.076536858574
 30
0.0
 11
628.13991722709966
 21
244.076536858574
 31
0.0
  0
POLYLINE
  5
18E5C
  8
AM_0
 66
     1
 10
0.0
 20
0.0
 30
0.0
 70
     1
  0
VERTEX
  5
18E5D
  8
AM_0
 10
615.2579742109657
 20
244.76713578181551
 30
0.0
  0
VERTEX
  5
18E5E
  8
AM_0
 10
611.2579742109657
 20
242.45773470505699
 30
0.0
  0
VERTEX
  5
18E5F
  8
AM_0
 10
607.2579742109657
 20
244.76713578181551
 30
0.0
  0
VERTEX
  5
18E60
  8
AM_0
 10
607.2579742109657
 20
249.38593793533249
 30
0.0
  0
VERTEX
  5
18E61
  8
AM_0
 10
611.2579742109657
 20
251.69533901209101
 30
0.0
  0
VERTEX
  5
18E62
  8
AM_0
 10
615.2579742109657
 20
249.38593793533249
 30
0.0
  0
SEQEND
  5
18E63
  8
AM_0
  0
ARC
  5
18E64
  8
0
 10
594.37603119483151
 20
249.07653685857409
 30
0.0
 40
5.0
 50
270.0
 51
353.24367296941188
1001
GENIUS_GENOBJ-N-FIL_13
1002
{
1000
OWNER
1000
GEN
1002
}
1001
GENIUS_GENODEF_13
1002
{
1000
HIER
1070
     0
1002
}
1002
{
1000
MANEDIT
1070
     0
1002
}
1002
{
1000
NOSEL
1070
     0
1002
}
1002
{
1000
BEHIND
1070
     0
1002
}
1002
{
1000
OTHER
1070
     0
1002
}
1002
{
1000
REACTOR
1002
}
  0
ARC
  5
18E65
  8
0
 10
628.13991722709966
 20
249.07653685857409
 30
0.0
 40
5.0
 50
186.75632703058821
 51
270.0
1001
GENIUS_GENODEF_13
1002
{
1000
HIER
1070
     0
1002
}
1002
{
1000
MANEDIT
1070
     0
1002
}
1002
{
1000
NOSEL
1070
     0
1002
}
1002
{
1000
BEHIND
1070
     0
1002
}
1002
{
1000
OTHER
1070
     0
1002
}
1002
{
1000
REACTOR
1002
}
1001
GENIUS_GENOBJ-N-FIL_13
1002
{
1000
OWNER
1000
GEN
1002
}
  0
ARC
  5
18E67
  8
0
 10
696.25800273908771
 20
213.07652922647591
 30
0.0
 40
19.99999999729641
 50
270.0
 51
341.56507995583269
  0
CIRCLE
  5
18E68
  8
0
 10
696.25797420826188
 20
213.07652922647571
 30
0.0
 40
9.0
  0
LINE
  5
18E6A
  8
0
 10
670.2077425752957
 20
244.076536858574
 30
0.0
 11
713.25797673956072
 21
244.0765368585738
 31
0.0
  0
ARC
  5
18E6B
  8
0
 10
696.25797420826188
 20
213.07652922264521
 30
0.0
 40
18.0
 50
50.136221439750997
 51
200.35440638087391
  0
ARC
  5
18E6C
  8
0
 10
675.13551383929462
 20
222.17820284609761
 30
0.0
 40
5.0
 50
336.68880561814137
 51
45.00000000000027
1001
GENIUS_GENOBJ-N-FIL_13
1002
{
1000
OWNER
1000
GEN
1002
}
1001
GENIUS_GENODEF_13
1002
{
1000
HIER
1070
     0
1002
}
1002
{
1000
MANEDIT
1070
     0
1002
}
1002
{
1000
NOSEL
1070
     0
1002
}
1002
{
1000
BEHIND
1070
     0
1002
}
1002
{
1000
OTHER
1070
     0
1002
}
1002
{
1000
REACTOR
1002
}
  0
ARC
  5
18E6D
  8
0
 10
674.69411555298996
 20
205.07652922917961
 30
0.0
 40
5.0
 50
270.0
 51
20.354406380873922
1001
GENIUS_GENODEF_13
1002
{
1000
HIER
1070
     0
1002
}
1002
{
1000
MANEDIT
1070
     0
1002
}
1002
{
1000
NOSEL
1070
     0
1002
}
1002
{
1000
BEHIND
1070
     0
1002
}
1002
{
1000
OTHER
1070
     0
1002
}
1002
{
1000
REACTOR
1002
}
1001
GENIUS_GENOBJ-N-FIL_13
1002
{
1000
OWNER
1000
GEN
1002
}
  0
LINE
  5
18E6E
  8
0
 10
683.62079521353326
 20
230.66348422033619
 30
0.0
 11
667.73286884114236
 21
246.5514105927268
 31
0.0
  0
LINE
  5
18E6F
  8
0
 10
678.6710477452275
 20
225.71373675203051
 30
0.0
 11
662.78312137283672
 21
241.60166312442109
 31
0.0
  0
ARC
  5
18E70
  8
0
 10
665.25799510698948
 20
244.076536858574
 30
0.0
 40
3.499999999999988
 50
45.00000000000027
 51
225.00000000000031
  0
ARC
  5
18E71
  8
0
 10
687.15632911946614
 20
234.1990181262689
 30
0.0
 40
5.0
 50
225.00000000000031
 51
293.3111943818584
1001
GENIUS_GENODEF_13
1002
{
1000
HIER
1070
     0
1002
}
1002
{
1000
MANEDIT
1070
     0
1002
}
1002
{
1000
NOSEL
1070
     0
1002
}
1002
{
1000
BEHIND
1070
     0
1002
}
1002
{
1000
OTHER
1070
     0
1002
}
1002
{
1000
REACTOR
1002
}
1001
GENIUS_GENOBJ-N-FIL_13
1002
{
1000
OWNER
1000
GEN
1002
}
  0
ARC
  5
18E72
  8
0
 10
711.00015803855513
 20
230.7306510052162
 30
0.0
 40
5.0
 50
230.13622143975101
 51
340.49062782740378
1001
GENIUS_GENOBJ-N-FIL_13
1002
{
1000
OWNER
1000
GEN
1002
}
1001
GENIUS_GENODEF_13
1002
{
1000
HIER
1070
     0
1002
}
1002
{
1000
MANEDIT
1070
     0
1002
}
1002
{
1000
NOSEL
1070
     0
1002
}
1002
{
1000
BEHIND
1070
     0
1002
}
1002
{
1000
OTHER
1070
     0
1002
}
1002
{
1000
REACTOR
1002
}
  0
LINE
  5
18E73
  8
0
 10
715.23167187464014
 20
206.75198343832369
 30
0.0
 11
729.2316433490829
 21
248.75196818138329
 31
0.0
  0
ARC
  5
18E74
  8
0
 10
713.25794820873489
 20
254.07651397039029
 30
0.0
 40
10.0
 50
270.0
 51
0.0
1001
GENIUS_GENODEF_13
1002
{
1000
HIER
1070
     0
1002
}
1002
{
1000
MANEDIT
1070
     0
1002
}
1002
{
1000
NOSEL
1070
     0
1002
}
1002
{
1000
BEHIND
1070
     0
1002
}
1002
{
1000
OTHER
1070
     0
1002
}
1002
{
1000
REACTOR
1002
}
1001
GENIUS_GENOBJ-N-FIL_13
1002
{
1000
OWNER
1000
GEN
1002
}
  0
LINE
  5
18E75
  8
0
 10
722.68381694215373
 20
248.7353362479185
 30
0.0
 11
715.71309241822632
 21
229.06084576719849
 31
0.0
  0
ARC
  5
18E76
  8
0
 10
713.25794775720033
 20
252.074946874749
 30
0.0
 40
10.0000004515349
 50
340.49062782740378
 51
0.0
  0
LINE
  5
18E7B
  8
AM_0
 10
740.25794213266136
 20
344.07678961661719
 30
0.0
 11
740.25794213266136
 21
256.07502961661748
 31
0.0
  0
LINE
  5
18E7D
  8
AM_0
 10
730.25794820873466
 20
256.075029791009
 30
0.0
 11
740.25794213266136
 21
256.075029791009
 31
0.0
  0
LINE
  5
18E7E
  8
AM_0
 10
740.25794213266124
 20
272.0753497910091
 30
0.0
 11
730.25794820873489
 21
272.0753497910091
 31
0.0
  0
LINE
  5
18E7F
  8
AM_0
 10
738.8293707036612
 20
280.16135355704591
 30
0.0
 11
730.25794820873466
 21
280.16127993347692
 31
0.0
  0
ARC
  5
18E80
  8
0
 10
720.25797673956117
 20
301.07652922917941
 30
0.0
 40
3.0
 50
180.0
 51
270.0
  0
ARC
  5
18E81
  8
0
 10
720.25797673956117
 20
295.0765292291793
 30
0.0
 40
3.0
 50
0.0
 51
90.0
1001
GENIUS_GENODEF_13
1002
{
1000
HIER
1070
     0
1002
}
1002
{
1000
MANEDIT
1070
     0
1002
}
1002
{
1000
NOSEL
1070
     0
1002
}
1002
{
1000
BEHIND
1070
     0
1002
}
1002
{
1000
OTHER
1070
     0
1002
}
1002
{
1000
REACTOR
1002
}
1001
GENIUS_GENOBJ-N-FIL_13
1002
{
1000
OWNER
1000
GEN
1002
}
  0
ARC
  5
18E82
  8
0
 10
720.25797673956117
 20
301.07652922917941
 30
0.0
 40
3.0
 50
90.0
 51
180.0
  0
ARC
  5
18E83
  8
0
 10
720.25797673956117
 20
307.07652922917941
 30
0.0
 40
3.0
 50
270.0
 51
0.0
1001
GENIUS_GENOBJ-N-FIL_13
1002
{
1000
OWNER
1000
GEN
1002
}
1001
GENIUS_GENODEF_13
1002
{
1000
HIER
1070
     0
1002
}
1002
{
1000
MANEDIT
1070
     0
1002
}
1002
{
1000
NOSEL
1070
     0
1002
}
1002
{
1000
BEHIND
1070
     0
1002
}
1002
{
1000
OTHER
1070
     0
1002
}
1002
{
1000
REACTOR
1002
}
  0
ARC
  5
18E84
  8
0
 10
720.25797673956117
 20
355.07652922917941
 30
0.0
 40
3.0
 50
0.0
 51
90.0
1001
GENIUS_GENODEF_13
1002
{
1000
HIER
1070
     0
1002
}
1002
{
1000
MANEDIT
1070
     0
1002
}
1002
{
1000
NOSEL
1070
     0
1002
}
1002
{
1000
BEHIND
1070
     0
1002
}
1002
{
1000
OTHER
1070
     0
1002
}
1002
{
1000
REACTOR
1002
}
1001
GENIUS_GENOBJ-N-FIL_13
1002
{
1000
OWNER
1000
GEN
1002
}
  0
ARC
  5
18E85
  8
0
 10
720.25797673956117
 20
361.07652922917941
 30
0.0
 40
3.0
 50
180.0
 51
270.0
  0
ARC
  5
18E86
  8
0
 10
720.25797673956117
 20
361.07652922917941
 30
0.0
 40
3.0
 50
90.0
 51
180.0
  0
ARC
  5
18E87
  8
0
 10
720.25797673956117
 20
367.07652922917941
 30
0.0
 40
3.0
 50
270.0
 51
0.0
1001
GENIUS_GENOBJ-N-FIL_13
1002
{
1000
OWNER
1000
GEN
1002
}
1001
GENIUS_GENODEF_13
1002
{
1000
HIER
1070
     0
1002
}
1002
{
1000
MANEDIT
1070
     0
1002
}
1002
{
1000
NOSEL
1070
     0
1002
}
1002
{
1000
BEHIND
1070
     0
1002
}
1002
{
1000
OTHER
1070
     0
1002
}
1002
{
1000
REACTOR
1002
}
  0
LINE
  5
18EB5
  8
AM_0
 10
754.25794213686152
 20
256.07502961661748
 30
0.0
 11
754.25794213686152
 21
344.0767724377983
 31
0.0
  0
LINE
  5
18F09
  8
AM_0
 10
754.25794213686152
 20
432.07854961661718
 30
0.0
 11
740.25794213266136
 21
432.07854961661718
 31
0.0
  0
LINE
  5
18F0A
  8
AM_0
 10
754.25794213686152
 20
383.13850605909101
 30
0.0
 11
740.25794213266136
 21
383.13850605909101
 31
0.0
  0
LINE
  5
18F0B
  8
AM_0
 10
740.25794213266136
 20
383.13850605909101
 30
0.0
 11
754.25794213686152
 21
383.13850605909101
 31
0.0
  0
LINE
  5
18F0D
  8
0
 10
661.75799510698971
 20
418.07652159978483
 30
0.0
 11
628.13991722709966
 21
418.07652159978483
 31
0.0
  0
ARC
  5
18F0E
  8
0
 10
611.2579742109657
 20
415.0765215997846
 30
0.0
 40
12.0
 50
186.75632703058821
 51
353.24367296941188
  0
CIRCLE
  5
18F0F
  8
AM_0
 10
611.2579742109657
 20
415.0765215997846
 30
0.0
 40
8.5
  0
CIRCLE
  5
18F10
  8
AM_0
 10
611.2579742109657
 20
415.0765215997846
 30
0.0
 40
8.0
  0
POLYLINE
  5
18F11
  8
AM_0
 66
     1
 10
0.0
 20
0.0
 30
0.0
 70
     1
  0
VERTEX
  5
18F12
  8
AM_0
 10
615.2579742109657
 20
417.38592267654337
 30
0.0
  0
VERTEX
  5
18F13
  8
AM_0
 10
611.2579742109657
 20
419.69532375330158
 30
0.0
  0
VERTEX
  5
18F14
  8
AM_0
 10
607.2579742109657
 20
417.38592267654337
 30
0.0
  0
VERTEX
  5
18F15
  8
AM_0
 10
607.2579742109657
 20
412.76712052302622
 30
0.0
  0
VERTEX
  5
18F16
  8
AM_0
 10
611.2579742109657
 20
410.45771944626762
 30
0.0
  0
VERTEX
  5
18F17
  8
AM_0
 10
615.2579742109657
 20
412.76712052302622
 30
0.0
  0
SEQEND
  5
18F18
  8
AM_0
  0
ARC
  5
18F19
  8
0
 10
594.37603119483151
 20
413.076521599785
 30
0.0
 40
5.0
 50
6.7563270305881966
 51
90.0
1001
GENIUS_GENOBJ-N-FIL_13
1002
{
1000
OWNER
1000
GEN
1002
}
1001
GENIUS_GENODEF_13
1002
{
1000
HIER
1070
     0
1002
}
1002
{
1000
MANEDIT
1070
     0
1002
}
1002
{
1000
NOSEL
1070
     0
1002
}
1002
{
1000
BEHIND
1070
     0
1002
}
1002
{
1000
OTHER
1070
     0
1002
}
1002
{
1000
REACTOR
1002
}
  0
ARC
  5
18F1A
  8
0
 10
628.13991722709966
 20
413.076521599785
 30
0.0
 40
5.0
 50
90.0
 51
173.24367296941179
1001
GENIUS_GENODEF_13
1002
{
1000
HIER
1070
     0
1002
}
1002
{
1000
MANEDIT
1070
     0
1002
}
1002
{
1000
NOSEL
1070
     0
1002
}
1002
{
1000
BEHIND
1070
     0
1002
}
1002
{
1000
OTHER
1070
     0
1002
}
1002
{
1000
REACTOR
1002
}
1001
GENIUS_GENOBJ-N-FIL_13
1002
{
1000
OWNER
1000
GEN
1002
}
  0
LINE
  5
18F1C
  8
0
 10
722.68381694215395
 20
413.41772221044022
 30
0.0
 11
715.71309241822632
 21
433.09221269116028
 31
0.0
  0
LINE
  5
18F1D
  8
0
 10
715.23167187464014
 20
455.40107502003502
 30
0.0
 11
729.2316433490829
 21
413.40109027697542
 31
0.0
  0
ARC
  5
18F1E
  8
0
 10
696.257974208262
 20
449.07652923571351
 30
0.0
 40
18.0
 50
159.64559361912609
 51
309.86377856024899
  0
LINE
  5
18F1F
  8
0
 10
683.62079521353326
 20
431.48957423802278
 30
0.0
 11
667.7328688411427
 21
415.601647865632
 31
0.0
  0
LINE
  5
18F20
  8
0
 10
678.6710477452275
 20
436.43932170632809
 30
0.0
 11
662.78312137283672
 21
420.55139533393771
 31
0.0
  0
CIRCLE
  5
18F21
  8
0
  6
CONTINUOUS
 62
     2
 10
710.25797421096547
 20
407.0765215997846
 30
0.0
 40
8.0
  0
LINE
  5
18F22
  8
0
 10
670.2077425752957
 20
418.07652159978483
 30
0.0
 11
713.25797673956072
 21
418.07652159978483
 31
0.0
  0
ARC
  5
18F23
  8
0
 10
665.25799510698948
 20
418.07652159978483
 30
0.0
 40
3.499999999999988
 50
134.99999999999969
 51
314.99999999999989
  0
ARC
  5
18F24
  8
0
 10
713.25794820873523
 20
408.07652159978471
 30
0.0
 40
10.0
 50
0.0
 51
90.0
1001
GENIUS_GENOBJ-N-FIL_13
1002
{
1000
OWNER
1000
GEN
1002
}
1001
GENIUS_GENODEF_13
1002
{
1000
HIER
1070
     0
1002
}
1002
{
1000
MANEDIT
1070
     0
1002
}
1002
{
1000
NOSEL
1070
     0
1002
}
1002
{
1000
BEHIND
1070
     0
1002
}
1002
{
1000
OTHER
1070
     0
1002
}
1002
{
1000
REACTOR
1002
}
  0
ARC
  5
18F25
  8
0
 10
713.25794775720033
 20
410.07811158360971
 30
0.0
 40
10.0000004515349
 50
0.0
 51
19.509372172589359
  0
CIRCLE
  5
18F26
  8
0
 10
710.25793571511167
 20
407.07656592835701
 30
0.0
 40
6.5
  0
ARC
  5
18F27
  8
0
 10
710.25797421096547
 20
407.07654448796819
 30
0.0
 40
20.0
 50
0.0
 51
18.434920044167299
  0
LINE
  5
18F28
  8
AM_0
 10
738.8293707036612
 20
407.99222602497213
 30
0.0
 11
730.23699801485304
 21
407.99229982849181
 31
0.0
  0
LINE
  5
18F29
  8
AM_0
 10
740.25794213266124
 20
416.07822979100911
 30
0.0
 11
728.11769598105536
 21
416.07822979100911
 31
0.0
  0
LINE
  5
18F2A
  8
AM_0
 10
726.00588810721911
 20
423.07837220504598
 30
0.0
 11
740.25794213266136
 21
423.07837220504598
 31
0.0
  0
CIRCLE
  5
18F2B
  8
0
 10
696.257974208262
 20
449.07652923188272
 30
0.0
 40
9.0
  0
ARC
  5
18F2C
  8
0
 10
696.25800273908771
 20
449.07652923188272
 30
0.0
 40
19.99999999729641
 50
18.434920044167299
 51
90.0
  0
ARC
  5
18F2E
  8
0
 10
674.69411555298996
 20
457.07652922917941
 30
0.0
 40
5.0
 50
339.64559361912598
 51
90.0
1001
GENIUS_GENODEF_13
1002
{
1000
HIER
1070
     0
1002
}
1002
{
1000
MANEDIT
1070
     0
1002
}
1002
{
1000
NOSEL
1070
     0
1002
}
1002
{
1000
BEHIND
1070
     0
1002
}
1002
{
1000
OTHER
1070
     0
1002
}
1002
{
1000
REACTOR
1002
}
1001
GENIUS_GENOBJ-N-FIL_13
1002
{
1000
OWNER
1000
GEN
1002
}
  0
ARC
  5
18F2F
  8
0
 10
675.13551383929473
 20
439.97485561226108
 30
0.0
 40
5.0
 50
314.99999999999989
 51
23.311194381858591
1001
GENIUS_GENOBJ-N-FIL_13
1002
{
1000
OWNER
1000
GEN
1002
}
1001
GENIUS_GENODEF_13
1002
{
1000
HIER
1070
     0
1002
}
1002
{
1000
MANEDIT
1070
     0
1002
}
1002
{
1000
NOSEL
1070
     0
1002
}
1002
{
1000
BEHIND
1070
     0
1002
}
1002
{
1000
OTHER
1070
     0
1002
}
1002
{
1000
REACTOR
1002
}
  0
ARC
  5
18F30
  8
0
 10
687.15632911946614
 20
427.95404033208979
 30
0.0
 40
5.0
 50
66.688805618141615
 51
134.99999999999969
1001
GENIUS_GENODEF_13
1002
{
1000
HIER
1070
     0
1002
}
1002
{
1000
MANEDIT
1070
     0
1002
}
1002
{
1000
NOSEL
1070
     0
1002
}
1002
{
1000
BEHIND
1070
     0
1002
}
1002
{
1000
OTHER
1070
     0
1002
}
1002
{
1000
REACTOR
1002
}
1001
GENIUS_GENOBJ-N-FIL_13
1002
{
1000
OWNER
1000
GEN
1002
}
  0
ARC
  5
18F31
  8
0
 10
711.00015803855513
 20
431.42240745314263
 30
0.0
 40
5.0
 50
19.509372172589359
 51
129.86377856024899
1001
GENIUS_GENOBJ-N-FIL_13
1002
{
1000
OWNER
1000
GEN
1002
}
1001
GENIUS_GENODEF_13
1002
{
1000
HIER
1070
     0
1002
}
1002
{
1000
MANEDIT
1070
     0
1002
}
1002
{
1000
NOSEL
1070
     0
1002
}
1002
{
1000
BEHIND
1070
     0
1002
}
1002
{
1000
OTHER
1070
     0
1002
}
1002
{
1000
REACTOR
1002
}
  0
LINE
  5
18F3F
  8
AM_0
 10
756.55794213755178
 20
462.07914961661749
 30
0.0
 11
756.55794213755178
 21
409.57809961661718
 31
0.0
  0
LINE
  5
18F51
  8
AM_0
 10
756.55794213755178
 20
409.57809961661718
 30
0.0
 11
754.25794213686152
 21
409.57809961661718
 31
0.0
  0
LINE
  5
18F67
  8
AM_0
 10
756.55794213755178
 20
432.57855961661733
 30
0.0
 11
754.25794213686152
 21
432.57855961661681
 31
0.0
  0
LINE
  5
18F68
  8
AM_0
 10
756.55794213755178
 20
462.07914961661749
 30
0.0
 11
754.25794213686152
 21
462.07914961661749
 31
0.0
  0
LINE
  5
1945B
  8
ｶｸﾚｾﾝ2
 10
285.98882633349763
 20
356.07652922917941
 30
0.0
 11
285.98882633349763
 21
306.07652922917941
 31
0.0
  0
LINE
  5
1945C
  8
ｶｸﾚｾﾝ2
 10
268.9888463003158
 20
298.57587826058437
 30
0.0
 11
268.9888463003158
 21
363.57718019777428
 31
0.0
  0
LINE
  5
1945D
  8
ｶｸﾚｾﾝ2
 10
263.9888461498042
 20
298.57587826058437
 30
0.0
 11
268.9888463003158
 21
298.57587826058437
 31
0.0
  0
LINE
  5
1945E
  8
ｶｸﾚｾﾝ2
 10
285.98882633349763
 20
306.07652922917941
 30
0.0
 11
268.9888463003158
 21
298.57587826058437
 31
0.0
  0
LINE
  5
1945F
  8
0
 10
355.98882633349763
 20
310.0765292291793
 30
0.0
 11
288.98882634337662
 21
310.0765292291793
 31
0.0
  0
LINE
  5
19460
  8
0
 10
355.98882633349763
 20
352.07652922917941
 30
0.0
 11
288.9888263236187
 21
352.07652923059101
 31
0.0
  0
LINE
  5
19461
  8
ｶｸﾚｾﾝ2
 10
263.9888461498042
 20
363.57718019777428
 30
0.0
 11
268.9888463003158
 21
363.57718019777428
 31
0.0
  0
LINE
  5
19462
  8
ｶｸﾚｾﾝ2
 10
285.98882633349763
 20
356.07652922917941
 30
0.0
 11
268.9888463003158
 21
363.57718019777428
 31
0.0
  0
LINE
  5
19463
  8
0
 10
355.98882633349763
 20
355.07652922917941
 30
0.0
 11
299.98882633349763
 21
355.07652922917941
 31
0.0
  0
LINE
  5
19464
  8
0
 10
299.98882633349763
 20
355.07652922917941
 30
0.0
 11
299.98882633349763
 21
352.07652923035897
 31
0.0
  0
LINE
  5
19465
  8
AM_0
 10
355.98882634337627
 20
310.0765292291793
 30
0.0
 11
355.98882632220739
 21
355.07652922917941
 31
0.0
  0
ARC
  5
1950D
  8
AM_0
 10
578.25797421096524
 20
331.07652922917941
 30
0.0
 40
21.0
 50
106.6015495990211
 51
73.398450400978902
  0
CIRCLE
  5
1950E
  8
ｽﾝﾎﾟｳｾﾝ
 10
578.25797421096524
 20
331.07652922917941
 30
0.0
 40
5.0
  0
LINE
  5
1950F
  8
AM_0
 10
584.2579742109657
 20
355.07652922917941
 30
0.0
 11
584.2579742109657
 21
347.0765292291793
 31
0.0
  0
LINE
  5
19510
  8
AM_0
 10
572.25797421096559
 20
347.0765292291793
 30
0.0
 11
572.25797421096559
 21
355.07652922917941
 31
0.0
  0
LINE
  5
19511
  8
AM_0
 10
584.2579742109657
 20
347.0765292291793
 30
0.0
 11
572.25797421096559
 21
347.0765292291793
 31
0.0
  0
LINE
  5
19512
  8
AM_0
 10
572.25797421096559
 20
355.07652922917941
 30
0.0
 11
584.2579742109657
 21
355.07652922917941
 31
0.0
  0
LINE
  5
195F4
  8
ｶｸﾚｾﾝ2
 10
288.98882694406711
 20
352.07652923059101
 30
0.0
 11
285.98882633349763
 21
352.07652923059101
 31
0.0
  0
LINE
  5
195F6
  8
ｶｸﾚｾﾝ2
 10
288.98882696382481
 20
310.0765292291793
 30
0.0
 11
285.98882633349763
 21
310.0765292291793
 31
0.0
  0
CIRCLE
  5
195FA
  8
AM_0
 10
578.25797421096524
 20
331.07652922917941
 30
0.0
 40
4.25
  0
LINE
  5
19604
  8
ﾁｭｳｼﾝｾﾝ1
 10
526.25794568284357
 20
467.07652923188277
 30
0.0
 11
526.25794568284357
 21
431.076529231883
 31
0.0
  0
LINE
  5
19606
  8
ﾁｭｳｼﾝｾﾝ1
 10
508.25794568284329
 20
449.07652923188311
 30
0.0
 11
544.25794568284346
 21
449.07652923188311
 31
0.0
  0
LINE
  5
19607
  8
ﾁｭｳｼﾝｾﾝ1
 10
696.257974208262
 20
467.07652923188277
 30
0.0
 11
696.257974208262
 21
431.0765292318826
 31
0.0
  0
LINE
  5
19608
  8
ﾁｭｳｼﾝｾﾝ1
 10
678.257974208262
 20
449.07652923188272
 30
0.0
 11
714.25797420826177
 21
449.07652923188272
 31
0.0
  0
LINE
  5
19609
  8
ﾁｭｳｼﾝｾﾝ1
 10
696.25797420826188
 20
231.0765292264758
 30
0.0
 11
696.25797420826188
 21
195.07652922647571
 31
0.0
  0
LINE
  5
1960A
  8
ﾁｭｳｼﾝｾﾝ1
 10
678.25797420826166
 20
213.07652922647571
 30
0.0
 11
714.25797420826177
 21
213.07652922647571
 31
0.0
  0
LINE
  5
1960B
  8
ﾁｭｳｼﾝｾﾝ1
 10
526.25794568284346
 20
231.07652922647591
 30
0.0
 11
526.25794568284346
 21
195.07652922647591
 31
0.0
  0
LINE
  5
1960C
  8
ﾁｭｳｼﾝｾﾝ1
 10
508.25794568284329
 20
213.07652922647591
 30
0.0
 11
544.25794568284346
 21
213.07652922647591
 31
0.0
  0
LINE
  5
196BB
  8
AM_0
 10
263.98882690919982
 20
426.19587612540971
 30
0.0
 11
288.98882690919982
 21
426.19587612540971
 31
0.0
  0
LINE
  5
196BC
  8
AM_0
 10
263.98882690919982
 20
235.957182328415
 30
0.0
 11
288.98882690919982
 21
235.957182328415
 31
0.0
  0
LINE
  5
196BD
  8
AM_0
 10
628.25897570111124
 20
827.55604567377566
 30
0.0
 11
528.2569727208197
 21
827.55604567377566
 31
0.0
  0
LINE
  5
196BE
  8
AM_0
 10
726.28549659233363
 20
822.55604933796144
 30
0.0
 11
496.23043855786591
 21
822.55604933796144
 31
0.0
  0
LINE
  5
196BF
  8
AM_0
 10
728.25794820873466
 20
709.55604212170158
 30
0.0
 11
494.25797168237023
 21
709.55604212170158
 31
0.0
  0
LINE
  5
196C0
  8
ﾁｭｳｼﾝｾﾝ1
 10
1057.45
 20
752.55637556076374
 30
0.0
 11
476.49534538087153
 21
752.55638056076373
 31
0.0
  0
LINE
  5
196C1
  8
AM_0
 10
740.25800213686125
 20
689.5563778295334
 30
0.0
 11
740.25800213686125
 21
819.74153423444966
 31
0.0
  0
LINE
  5
196C2
  8
AM_0
 10
726.28549659233363
 20
822.55604933796144
 30
0.0
 11
728.25794820873466
 21
709.55604212170158
 31
0.0
  0
LINE
  5
196C3
  8
AM_0
 10
754.25800213686125
 20
679.05639156076381
 30
0.0
 11
754.25800213686125
 21
826.0563805607635
 31
0.0
  0
LINE
  5
196C4
  8
AM_0
 10
738.25800215862409
 20
750.0563778512967
 30
0.0
 11
729.58621710109185
 21
750.0563779456578
 31
0.0
  0
LINE
  5
196C5
  8
AM_0
 10
738.25800211509829
 20
755.0563778512967
 30
0.0
 11
729.4291191512184
 21
755.05637794736685
 31
0.0
  0
LINE
  5
196C6
  8
AM_0
 10
737.4885378426211
 20
713.55604212170158
 30
0.0
 11
730.2233422279794
 21
713.55604212170158
 31
0.0
  0
LINE
  5
196C7
  8
AM_0
 10
740.55726563259554
 20
680.98659256735891
 30
0.0
 11
739.48731949665921
 21
711.62584111510682
 31
0.0
  0
LINE
  5
196C8
  8
AM_0
 10
754.25794213686106
 20
679.05639156076381
 30
0.0
 11
742.55604728663377
 21
679.05639156076381
 31
0.0
  0
ARC
  5
196C9
  8
AM_0
 10
742.55604728663377
 20
681.05639156076359
 30
0.0
 40
2.0
 50
181.9999999999971
 51
270.0
1001
GENIUS_GENODEF_13
1002
{
1000
HIER
1070
     0
1002
}
1002
{
1000
MANEDIT
1070
     0
1002
}
1002
{
1000
NOSEL
1070
     0
1002
}
1002
{
1000
BEHIND
1070
     0
1002
}
1002
{
1000
OTHER
1070
     0
1002
}
1002
{
1000
REACTOR
1002
}
1001
GENIUS_GENOBJ-N-FIL_13
1002
{
1000
OWNER
1000
GEN
1002
}
  0
ARC
  5
196CA
  8
AM_0
 10
737.4885378426211
 20
711.55604212170124
 30
0.0
 40
2.0
 50
1.999999999997115
 51
90.0
1001
GENIUS_GENODEF_13
1002
{
1000
HIER
1070
     0
1002
}
1002
{
1000
MANEDIT
1070
     0
1002
}
1002
{
1000
NOSEL
1070
     0
1002
}
1002
{
1000
BEHIND
1070
     0
1002
}
1002
{
1000
OTHER
1070
     0
1002
}
1002
{
1000
REACTOR
1002
}
1001
GENIUS_GENOBJ-N-FIL_13
1002
{
1000
OWNER
1000
GEN
1002
}
  0
ARC
  5
196CB
  8
AM_0
 10
738.25800213686159
 20
748.05637785129625
 30
0.0
 40
2.0
 50
0.0
 51
89.999999376540472
1001
GENIUS_GENOBJ-N-FIL_13
1002
{
1000
OWNER
1000
GEN
1002
}
1001
GENIUS_GENODEF_13
1002
{
1000
HIER
1070
     0
1002
}
1002
{
1000
MANEDIT
1070
     0
1002
}
1002
{
1000
NOSEL
1070
     0
1002
}
1002
{
1000
BEHIND
1070
     0
1002
}
1002
{
1000
OTHER
1070
     0
1002
}
1002
{
1000
REACTOR
1002
}
  0
ARC
  5
196CC
  8
AM_0
 10
738.25800213686125
 20
757.05637785129625
 30
0.0
 40
2.0
 50
269.99999937654042
 51
0.0
1001
GENIUS_GENOBJ-N-FIL_13
1002
{
1000
OWNER
1000
GEN
1002
}
1001
GENIUS_GENODEF_13
1002
{
1000
HIER
1070
     0
1002
}
1002
{
1000
MANEDIT
1070
     0
1002
}
1002
{
1000
NOSEL
1070
     0
1002
}
1002
{
1000
BEHIND
1070
     0
1002
}
1002
{
1000
OTHER
1070
     0
1002
}
1002
{
1000
REACTOR
1002
}
  0
ARC
  5
196CD
  8
AM_0
 10
730.22334222797963
 20
711.55604212170124
 30
0.0
 40
2.0
 50
90.0
 51
181.00001477758079
1001
GENIUS_GENOBJ-N-FIL_13
1002
{
1000
OWNER
1000
GEN
1002
}
1001
GENIUS_GENODEF_13
1002
{
1000
HIER
1070
     0
1002
}
1002
{
1000
MANEDIT
1070
     0
1002
}
1002
{
1000
NOSEL
1070
     0
1002
}
1002
{
1000
BEHIND
1070
     0
1002
}
1002
{
1000
OTHER
1070
     0
1002
}
1002
{
1000
REACTOR
1002
}
  0
ARC
  5
196CE
  8
AM_0
 10
729.58621707932923
 20
748.05637794565735
 30
0.0
 40
2.0
 50
89.999999376540472
 51
181.00001477758079
1001
GENIUS_GENOBJ-N-FIL_13
1002
{
1000
OWNER
1000
GEN
1002
}
1001
GENIUS_GENODEF_13
1002
{
1000
HIER
1070
     0
1002
}
1002
{
1000
MANEDIT
1070
     0
1002
}
1002
{
1000
NOSEL
1070
     0
1002
}
1002
{
1000
BEHIND
1070
     0
1002
}
1002
{
1000
OTHER
1070
     0
1002
}
1002
{
1000
REACTOR
1002
}
  0
ARC
  5
196CF
  8
AM_0
 10
729.42911917298125
 20
757.05637794736685
 30
0.0
 40
2.0
 50
181.00001477758079
 51
269.99999937654042
1001
GENIUS_GENODEF_13
1002
{
1000
HIER
1070
     0
1002
}
1002
{
1000
MANEDIT
1070
     0
1002
}
1002
{
1000
NOSEL
1070
     0
1002
}
1002
{
1000
BEHIND
1070
     0
1002
}
1002
{
1000
OTHER
1070
     0
1002
}
1002
{
1000
REACTOR
1002
}
1001
GENIUS_GENOBJ-N-FIL_13
1002
{
1000
OWNER
1000
GEN
1002
}
  0
LINE
  5
196D0
  8
AM_0
 10
738.43137542454372
 20
818.55604933796155
 30
0.0
 11
728.32071190327531
 21
818.55604933796155
 31
0.0
  0
LINE
  5
196D1
  8
AM_0
 10
740.43015707858171
 20
820.4862503445562
 30
0.0
 11
740.55726620747726
 21
824.12617955416886
 31
0.0
  0
ARC
  5
196D2
  8
AM_0
 10
738.43137542454394
 20
820.5560493379611
 30
0.0
 40
2.0
 50
270.0
 51
358.0000000000029
1001
GENIUS_GENODEF_13
1002
{
1000
HIER
1070
     0
1002
}
1002
{
1000
MANEDIT
1070
     0
1002
}
1002
{
1000
NOSEL
1070
     0
1002
}
1002
{
1000
BEHIND
1070
     0
1002
}
1002
{
1000
OTHER
1070
     0
1002
}
1002
{
1000
REACTOR
1002
}
1001
GENIUS_GENOBJ-N-FIL_13
1002
{
1000
OWNER
1000
GEN
1002
}
  0
LINE
  5
196D3
  8
AM_0
 10
754.25794213686106
 20
826.0563805607635
 30
0.0
 11
742.55604786151525
 21
826.0563805607635
 31
0.0
  0
ARC
  5
196D4
  8
AM_0
 10
742.55604786151582
 20
824.0563805607635
 30
0.0
 40
2.0
 50
90.0
 51
178.00000000000281
1001
GENIUS_GENODEF_13
1002
{
1000
HIER
1070
     0
1002
}
1002
{
1000
MANEDIT
1070
     0
1002
}
1002
{
1000
NOSEL
1070
     0
1002
}
1002
{
1000
BEHIND
1070
     0
1002
}
1002
{
1000
OTHER
1070
     0
1002
}
1002
{
1000
REACTOR
1002
}
1001
GENIUS_GENOBJ-N-FIL_13
1002
{
1000
OWNER
1000
GEN
1002
}
  0
ARC
  5
196D5
  8
AM_0
 10
728.32071190327565
 20
820.5560493379611
 30
0.0
 40
2.0
 50
181.00001477758079
 51
270.0
1001
GENIUS_GENOBJ-N-FIL_13
1002
{
1000
OWNER
1000
GEN
1002
}
1001
GENIUS_GENODEF_13
1002
{
1000
HIER
1070
     0
1002
}
1002
{
1000
MANEDIT
1070
     0
1002
}
1002
{
1000
NOSEL
1070
     0
1002
}
1002
{
1000
BEHIND
1070
     0
1002
}
1002
{
1000
OTHER
1070
     0
1002
}
1002
{
1000
REACTOR
1002
}
  0
LINE
  5
196D6
  8
AM_0
 10
628.25897570111124
 20
827.55604567377566
 30
0.0
 11
628.25897570111124
 21
822.55604552326417
 31
0.0
  0
LINE
  5
196D7
  8
ﾁｭｳｼﾝｾﾝ1
 10
578.25797421096524
 20
841.01492562483907
 30
0.0
 11
578.25797421096524
 21
576.97551619162266
 31
0.0
  0
LINE
  5
196D8
  8
AM_0
 10
496.23043855786591
 20
822.55604933796144
 30
0.0
 11
494.25797168237023
 21
709.55604212170158
 31
0.0
  0
LINE
  5
196D9
  8
AM_0
 10
528.2569727208197
 20
827.55604567377566
 30
0.0
 11
528.2569727208197
 21
822.55604552326372
 31
0.0
  0
LINE
  5
1973A
  8
AM_0
 10
756.55800213686132
 20
685.55637765216693
 30
0.0
 11
756.55800213686143
 21
819.55637765216659
 31
0.0
  0
LINE
  5
1973B
  8
AM_0
 10
756.55800213686143
 20
685.55637765216693
 30
0.0
 11
754.25800213686125
 21
685.55637767719406
 31
0.0
  0
LINE
  5
1973C
  8
AM_0
 10
756.55800213686143
 20
735.55637765216693
 30
0.0
 11
754.25800213686125
 21
735.55637767719406
 31
0.0
  0
LINE
  5
1973D
  8
AM_0
 10
756.5580035949713
 20
819.55637765216659
 30
0.0
 11
754.25800359497157
 21
819.55637767719395
 31
0.0
  0
LINE
  5
1973E
  8
AM_0
 10
756.55800250682955
 20
769.55637765216693
 30
0.0
 11
754.25800250682948
 21
769.55637767719395
 31
0.0
  0
LINE
  5
1973F
  8
0
 10
524.25833221882283
 20
825.55604933796155
 30
0.0
 11
524.25833221882283
 21
841.55604933796133
 31
0.0
  0
LINE
  5
19740
  8
0
 10
500.25833221882272
 20
841.55604933796133
 30
0.0
 11
500.25833221882272
 21
825.55604933796155
 31
0.0
  0
LINE
  5
19741
  8
0
 10
524.25833221882283
 20
841.55604933796133
 30
0.0
 11
500.25833221882272
 21
841.55604933796133
 31
0.0
  0
LINE
  5
19742
  8
0
 10
527.25833221882283
 20
825.55604933796155
 30
0.0
 11
497.25833221882289
 21
825.55604933796155
 31
0.0
  0
LINE
  5
19743
  8
0
 10
497.25833221882289
 20
825.55604933796155
 30
0.0
 11
497.25833221882289
 21
822.55604933796144
 31
0.0
  0
LINE
  5
19744
  8
0
 10
527.25833221882283
 20
825.55604933796155
 30
0.0
 11
527.25833221882283
 21
822.55604933796144
 31
0.0
  0
LINE
  5
19745
  8
0
 10
722.25794766689273
 20
825.55604933796155
 30
0.0
 11
722.25794766689273
 21
841.55604933796133
 31
0.0
  0
LINE
  5
19746
  8
0
 10
698.2579476668933
 20
841.55604933796133
 30
0.0
 11
698.25794766689273
 21
825.55604933796155
 31
0.0
  0
LINE
  5
19747
  8
0
 10
722.25794766689273
 20
841.55604933796133
 30
0.0
 11
698.2579476668933
 21
841.55604933796133
 31
0.0
  0
LINE
  5
19748
  8
0
 10
725.25794766689273
 20
825.55604933796155
 30
0.0
 11
695.25794766689296
 21
825.55604933796155
 31
0.0
  0
LINE
  5
19749
  8
0
 10
695.25794766689296
 20
825.55604933796155
 30
0.0
 11
695.25794766689296
 21
822.55604933796144
 31
0.0
  0
LINE
  5
1974A
  8
0
 10
725.25794766689273
 20
825.55604933796155
 30
0.0
 11
725.25794766689273
 21
822.55604933796144
 31
0.0
  0
LINE
  5
1974B
  8
AM_0
 10
492.25797168237023
 20
652.55604212170169
 30
0.0
 11
730.24843206976425
 21
652.55604212170124
 31
0.0
  0
LINE
  5
1974C
  8
AM_0
 10
728.25794820873466
 20
709.55604212170158
 30
0.0
 11
730.24843206976425
 21
652.55604212170124
 31
0.0
  0
LINE
  5
1974D
  8
AM_0
 10
494.25797168237023
 20
709.55604212170158
 30
0.0
 11
492.25797168237023
 21
652.55604212170169
 31
0.0
  0
LINE
  5
1974E
  8
AM_0
 10
729.37541283253222
 20
677.55604211992829
 30
0.0
 11
493.13516466476398
 21
677.55604211992829
 31
0.0
  0
LINE
  5
1974F
  8
AM_0
 10
514.5637359164092
 20
652.55604212170169
 30
0.0
 11
514.5637359164092
 21
677.55604211992863
 31
0.0
  0
LINE
  5
19750
  8
ﾁｭｳｼﾝｾﾝ1
 10
526.25794568324875
 20
642.55604212170158
 30
0.0
 11
526.25794568324875
 21
687.55604211992841
 31
0.0
  0
LINE
  5
19751
  8
AM_0
 10
707.94266783572516
 20
652.55604212170169
 30
0.0
 11
707.94266783572516
 21
677.55604211992829
 31
0.0
  0
LINE
  5
19752
  8
ﾁｭｳｼﾝｾﾝ1
 10
696.24845806888561
 20
642.55604212170135
 30
0.0
 11
696.24845806888561
 21
687.55604211992807
 31
0.0
  0
LINE
  5
19754
  8
0
 10
599.25797418272987
 20
585.55671103449174
 30
0.0
 11
599.25797418414072
 21
652.55604212170169
 31
0.0
  0
LINE
  5
19755
  8
0
 10
557.25797418272975
 20
585.55671103449174
 30
0.0
 11
557.25797418272975
 21
652.55604212170169
 31
0.0
  0
LINE
  5
19756
  8
AM_0
 10
557.25797418272975
 20
585.55671102461315
 30
0.0
 11
599.25797418272975
 21
585.55671104437067
 31
0.0
  0
LINE
  5
19758
  8
AM_0
 10
545.75732321413466
 20
832.55604582428725
 30
0.0
 11
610.75862515132474
 21
832.55604582428725
 31
0.0
  0
LINE
  5
1975A
  8
AM_0
 10
545.75732321413466
 20
832.55604582428725
 30
0.0
 11
545.75732321413466
 21
827.55604567377566
 31
0.0
  0
LINE
  5
1975C
  8
AM_0
 10
610.75862515132474
 20
832.55604582428725
 30
0.0
 11
610.75862515132474
 21
827.55604567377566
 31
0.0
  0
LINE
  5
1975D
  8
AM_0
 10
584.25797418272975
 20
585.55671103449197
 30
0.0
 11
584.25797418272975
 21
641.55671103449197
 31
0.0
  0
LINE
  5
1975E
  8
AM_0
 10
572.25797418272975
 20
585.55671103449197
 30
0.0
 11
572.25797418272975
 21
641.55671103449197
 31
0.0
  0
LINE
  5
1975F
  8
AM_0
 10
584.25797418272975
 20
641.55671103449197
 30
0.0
 11
572.25797418272975
 21
641.55671103449197
 31
0.0
  0
ARC
  5
19760
  8
AM_0
 10
578.25797418272975
 20
641.55671103449197
 30
0.0
 40
6.0
 50
0.0
 51
180.0
  0
LINE
  5
19763
  8
ｶｸﾚｾﾝ2
 10
531.25697272308673
 20
677.55602230539523
 30
0.0
 11
625.25897570337861
 21
677.55602230539432
 31
0.0
  0
LINE
  5
19764
  8
ｶｸﾚｾﾝ2
 10
603.2579742132325
 20
655.55604274214977
 30
0.0
 11
553.2579742132325
 21
655.55604274215023
 31
0.0
  0
LINE
  5
19765
  8
ｶｸﾚｾﾝ2
 10
545.75732324463763
 20
672.55602277533205
 30
0.0
 11
610.75862518182748
 21
672.55602277533114
 31
0.0
  0
LINE
  5
19766
  8
ｶｸﾚｾﾝ2
 10
545.75732324463763
 20
677.55602292584365
 30
0.0
 11
545.75732324463763
 21
672.55602277533205
 31
0.0
  0
LINE
  5
19767
  8
ｶｸﾚｾﾝ2
 10
553.2579742132325
 20
655.55604274215023
 30
0.0
 11
545.75732324463763
 21
672.55602277533205
 31
0.0
  0
LINE
  5
19768
  8
ｶｸﾚｾﾝ2
 10
610.75862518182748
 20
677.55602292584274
 30
0.0
 11
610.75862518182748
 21
672.55602277533114
 31
0.0
  0
LINE
  5
19769
  8
ｶｸﾚｾﾝ2
 10
603.2579742132325
 20
655.55604274214977
 30
0.0
 11
610.75862518182748
 21
672.55602277533114
 31
0.0
  0
LINE
  5
1976A
  8
ｶｸﾚｾﾝ2
 10
599.25797421464404
 20
652.55604213158028
 30
0.0
 11
599.25797421464404
 21
655.55604274214977
 31
0.0
  0
LINE
  5
1976B
  8
ｶｸﾚｾﾝ2
 10
557.2579742132325
 20
652.55604211182265
 30
0.0
 11
557.2579742132325
 21
655.55604274215023
 31
0.0
  0
ARC
  5
1B13E
  8
AM_0
 10
763.2579421368614
 20
282.03796193779817
 30
0.0
 40
1.0
 50
270.0
 51
0.000000000000007
  0
ARC
  5
1B13F
  8
AM_0
 10
763.2579421368614
 20
406.11557793779821
 30
0.0
 40
1.0
 50
0.000000000000007
 51
90.0
  0
ARC
  5
1B140
  8
AM_0
 10
765.26637713686125
 20
819.05637799344731
 30
0.0
 40
2.0
 50
90.0
 51
164.99999999999889
  0
LINE
  5
1B141
  8
AM_0
 10
762.25800213686125
 20
815.55637799344731
 30
0.0
 11
763.33452513686143
 21
819.57401599344712
 31
0.0
  0
LINE
  5
1B142
  8
AM_0
 10
762.25800213686125
 20
817.17795899344731
 30
0.0
 11
765.14976913686132
 21
827.97018099344746
 31
0.0
  0
ARC
  5
1B143
  8
AM_0
 10
767.08162113686114
 20
827.4525429934472
 30
0.0
 40
2.0
 50
90.0
 51
165.0000029999984
  0
LINE
  5
1B144
  8
AM_0
 10
831.25800213686125
 20
830.41857599344735
 30
0.0
 11
831.25800213686125
 21
829.45254299344731
 31
0.0
  0
ARC
  5
1B145
  8
AM_0
 10
833.25800213686114
 20
828.98594699344756
 30
0.0
 40
2.0
 50
90.0
 51
166.5086889999981
  0
ARC
  5
1B146
  8
AM_0
 10
833.25800213686114
 20
829.99129799344723
 30
0.0
 40
2.0
 50
90.0
 51
180.0
  0
ARC
  5
1B147
  8
AM_0
 10
833.25800213686114
 20
830.41857599344735
 30
0.0
 40
2.0
 50
90.0
 51
180.0
  0
ARC
  5
1B148
  8
AM_0
 10
918.25800213686125
 20
831.07837299344737
 30
0.0
 40
2.0
 50
195.7695470000001
 51
270.0
  0
ARC
  5
1B149
  8
AM_0
 10
918.25800213686125
 20
828.44073399344711
 30
0.0
 40
2.0
 50
180.0
 51
270.0
  0
LINE
  5
1B14A
  8
AM_0
 10
916.25800213686114
 20
824.08474499344743
 30
0.0
 11
916.25800213686114
 21
827.4525429934472
 31
0.0
  0
ARC
  5
1B14B
  8
AM_0
 10
914.25800213686125
 20
827.4525429934472
 30
0.0
 40
2.0
 50
0.0
 51
90.0
  0
ARC
  5
1B14C
  8
AM_0
 10
914.25800213686125
 20
828.98594699344756
 30
0.0
 40
2.0
 50
0.0
 51
90.0
  0
ARC
  5
1B14D
  8
AM_0
 10
914.4085521368612
 20
829.99129799344723
 30
0.0
 40
2.0
 50
15.76954700000012
 51
90.0
  0
LINE
  5
1B14E
  8
AM_0
 10
916.25800213686114
 20
828.44073399344711
 30
0.0
 11
916.25800213686114
 21
828.98594699344756
 31
0.0
  0
ARC
  5
1B14F
  8
AM_0
 10
914.25800213686125
 20
830.41857599344735
 30
0.0
 40
2.0
 50
0.0
 51
90.0
  0
ARC
  5
1B150
  8
AM_0
 10
918.25800213686125
 20
824.08474499344743
 30
0.0
 40
2.0
 50
180.0
 51
270.0
  0
LINE
  5
1B151
  8
AM_0
 10
914.25800213686125
 20
829.45254299344731
 30
0.0
 11
767.08162113686114
 21
829.45254299344731
 31
0.0
  0
LINE
  5
1B152
  8
AM_0
 10
914.25800213686125
 20
830.98594699344744
 30
0.0
 11
833.25800213686114
 21
830.98594699344744
 31
0.0
  0
LINE
  5
1B153
  8
AM_0
 10
914.4085521368612
 20
831.99129799344712
 30
0.0
 11
833.25800213686114
 21
831.99129799344712
 31
0.0
  0
LINE
  5
1B154
  8
AM_0
 10
914.25800213686125
 20
832.41857599344735
 30
0.0
 11
833.25800213686114
 21
832.41857599344735
 31
0.0
  0
LINE
  5
1B155
  8
AM_0
 10
918.25800213686125
 20
822.08474499344743
 30
0.0
 11
926.25800213686125
 21
822.08474499344743
 31
0.0
  0
LINE
  5
1B156
  8
AM_0
 10
918.25800213686125
 20
826.44073399344711
 30
0.0
 11
926.25800213686125
 21
826.44073399344711
 31
0.0
  0
LINE
  5
1B157
  8
AM_0
 10
918.25800213686125
 20
829.07837299344726
 30
0.0
 11
926.25800213686125
 21
829.07837299344726
 31
0.0
  0
ARC
  5
1B158
  8
AM_0
 10
765.26637713686125
 20
686.05637799344731
 30
0.0
 40
2.0
 50
195.00000000000111
 51
270.0
  0
LINE
  5
1B159
  8
AM_0
 10
762.25800213686125
 20
689.55637799344731
 30
0.0
 11
763.33452513686132
 21
685.53873999344717
 31
0.0
  0
ARC
  5
1B15A
  8
AM_0
 10
767.08162113686114
 20
677.66021299344732
 30
0.0
 40
2.0
 50
194.9999970000016
 51
270.0
  0
LINE
  5
1B15B
  8
AM_0
 10
762.25800213686125
 20
687.93479699344732
 30
0.0
 11
765.14976913686132
 21
677.14257499344706
 31
0.0
  0
ARC
  5
1B15C
  8
AM_0
 10
833.25800213686114
 20
674.69417999344716
 30
0.0
 40
2.0
 50
180.0
 51
270.0
  0
ARC
  5
1B15D
  8
AM_0
 10
833.25800213686114
 20
675.12145799344717
 30
0.0
 40
2.0
 50
180.0
 51
270.0
  0
ARC
  5
1B15E
  8
AM_0
 10
833.25800213686114
 20
676.12680899344696
 30
0.0
 40
2.0
 50
193.49131100000179
 51
270.0
  0
LINE
  5
1B15F
  8
AM_0
 10
831.25800213686125
 20
674.69417999344716
 30
0.0
 11
831.25800213686125
 21
675.6602129934472
 31
0.0
  0
ARC
  5
1B160
  8
AM_0
 10
918.25800213686125
 20
681.02801099344697
 30
0.0
 40
2.0
 50
90.0
 51
180.0
  0
LINE
  5
1B161
  8
AM_0
 10
918.25800213686125
 20
683.02801099344731
 30
0.0
 11
926.25800213686125
 21
683.02801099344731
 31
0.0
  0
LINE
  5
1B162
  8
AM_0
 10
918.25800213686125
 20
678.67202199344729
 30
0.0
 11
926.25800213686125
 21
678.67202199344729
 31
0.0
  0
ARC
  5
1B163
  8
AM_0
 10
914.25800213686125
 20
674.69417999344716
 30
0.0
 40
2.0
 50
270.0
 51
0.0
  0
LINE
  5
1B164
  8
AM_0
 10
916.25800213686114
 20
676.67202199344752
 30
0.0
 11
916.25800213686114
 21
676.12680899344696
 31
0.0
  0
ARC
  5
1B165
  8
AM_0
 10
914.4085521368612
 20
675.12145799344717
 30
0.0
 40
2.0
 50
270.0
 51
344.2304529999999
  0
ARC
  5
1B166
  8
AM_0
 10
918.25800213686125
 20
674.03438299344725
 30
0.0
 40
2.0
 50
90.0
 51
164.2304529999999
  0
ARC
  5
1B167
  8
AM_0
 10
914.25800213686125
 20
676.12680899344696
 30
0.0
 40
2.0
 50
270.0
 51
0.0
  0
ARC
  5
1B168
  8
AM_0
 10
914.25800213686125
 20
677.66021299344732
 30
0.0
 40
2.0
 50
270.0
 51
0.0
  0
LINE
  5
1B169
  8
AM_0
 10
916.25800213686114
 20
681.02801099344697
 30
0.0
 11
916.25800213686114
 21
677.66021299344732
 31
0.0
  0
ARC
  5
1B16A
  8
AM_0
 10
918.25800213686125
 20
676.67202199344752
 30
0.0
 40
2.0
 50
90.0
 51
180.0
  0
LINE
  5
1B16B
  8
AM_0
 10
914.25800213686125
 20
675.6602129934472
 30
0.0
 11
767.08162113686114
 21
675.6602129934472
 31
0.0
  0
LINE
  5
1B16C
  8
AM_0
 10
914.25800213686125
 20
674.1268089934473
 30
0.0
 11
833.25800213686114
 21
674.1268089934473
 31
0.0
  0
LINE
  5
1B16D
  8
AM_0
 10
914.4085521368612
 20
673.12145799344739
 30
0.0
 11
833.25800213686114
 21
673.12145799344739
 31
0.0
  0
LINE
  5
1B16E
  8
AM_0
 10
914.25800213686125
 20
672.69417999344716
 30
0.0
 11
833.25800213686114
 21
672.69417999344716
 31
0.0
  0
LINE
  5
1B16F
  8
AM_0
 10
918.25800213686125
 20
676.03438299344725
 30
0.0
 11
926.25800213686125
 21
676.03438299344725
 31
0.0
  0
ARC
  5
1B172
  8
AM_0
 10
763.25800213686125
 20
690.55637799344731
 30
0.0
 40
1.0
 50
270.0
 51
0.0
  0
ARC
  5
1B173
  8
AM_0
 10
763.25800213686125
 20
814.55637799344731
 30
0.0
 40
1.0
 50
0.0
 51
90.0
  0
LINE
  5
1B1A0
  8
AM_0
 10
764.25800213686125
 20
796.38637799344758
 30
0.0
 11
764.25800213686125
 21
788.74637799344725
 31
0.0
  0
ARC
  5
1B1A1
  8
AM_0
 10
763.26297713686131
 20
795.52075799344743
 30
0.0
 40
1.0069859999999999
 50
98.392163000002213
 51
179.64700200000121
  0
ARC
  5
1B1A2
  8
AM_0
 10
763.25864113686123
 20
799.59790899344739
 30
0.0
 40
1.0026319999999971
 50
180.05408499999839
 51
261.24375900000098
  0
LINE
  5
1B1A3
  8
AM_0
 10
762.25600913686128
 20
795.52696199344723
 30
0.0
 11
762.25600913686139
 21
799.59696199344739
 31
0.0
  0
ARC
  5
1B1A4
  8
AM_0
 10
764.79936513686118
 20
797.55031799344738
 30
0.0
 40
0.8033630000000001
 50
180.23932999999789
 51
269.76067000000211
  0
LINE
  5
1B1A5
  8
AM_0
 10
763.11600913686129
 20
796.51696199344735
 30
0.0
 11
764.71869713686124
 21
796.73637799344738
 31
0.0
  0
ARC
  5
1B1A6
  8
AM_0
 10
764.80107113686131
 20
797.54189999344715
 30
0.0
 40
0.8050779999999997
 50
90.360251000001654
 51
179.63974899999829
  0
LINE
  5
1B1A7
  8
AM_0
 10
763.10600913686119
 20
798.60696199344704
 30
0.0
 11
764.86480813686126
 21
798.33637799344729
 31
0.0
  0
LINE
  5
1B1A8
  8
AM_0
 10
764.25800213686125
 20
706.38637799344735
 30
0.0
 11
764.25800213686125
 21
690.55637799344731
 31
0.0
  0
ARC
  5
1B1A9
  8
AM_0
 10
763.26297713686131
 20
709.59199799344685
 30
0.0
 40
1.0069859999999999
 50
180.35299799999879
 51
261.6078369999978
  0
ARC
  5
1B1AA
  8
AM_0
 10
764.80107113686131
 20
707.57085599344725
 30
0.0
 40
0.8050779999999997
 50
180.3602510000016
 51
269.6397489999984
  0
ARC
  5
1B1AB
  8
AM_0
 10
764.79936513686118
 20
707.56243799344725
 30
0.0
 40
0.8033630000000001
 50
90.239329999997864
 51
179.76067000000199
  0
ARC
  5
1B1AC
  8
AM_0
 10
763.25864113686123
 20
705.51484699344724
 30
0.0
 40
1.0026319999999971
 50
98.756240999999051
 51
179.94591500000149
  0
LINE
  5
1B1AD
  8
AM_0
 10
762.25600913686128
 20
709.58579399344728
 30
0.0
 11
762.25600913686128
 21
705.51579399344723
 31
0.0
  0
LINE
  5
1B1AE
  8
AM_0
 10
763.10600913686119
 20
706.50579399344736
 30
0.0
 11
764.86480813686126
 21
706.77637799344723
 31
0.0
  0
LINE
  5
1B1AF
  8
AM_0
 10
763.11600913686129
 20
708.59579399344716
 30
0.0
 11
764.71869713686124
 21
708.37637799344725
 31
0.0
  0
LINE
  5
1B1B0
  8
AM_0
 10
764.25800213686125
 20
714.69243299344726
 30
0.0
 11
756.55800213686132
 21
714.69243299344714
 31
0.0
  0
LINE
  5
1B1B1
  8
AM_0
 10
764.25800213686125
 20
790.41032299344738
 30
0.0
 11
756.55800213686143
 21
790.41032299344738
 31
0.0
  0
LINE
  5
1B23C
  8
AM_0
 10
113.98883844020681
 20
377.98627061586842
 30
0.0
 11
113.0065114294998
 21
378.08116222917943
 31
0.0
  0
LINE
  5
1B23D
  8
AM_0
 10
113.98883844020681
 20
380.15129416363959
 30
0.0
 11
113.0222254294999
 21
380.07328922917941
 31
0.0
  0
ARC
  5
1B250
  8
AM_0
 10
113.1026624295
 20
379.07652922917941
 30
0.0
 40
1.0
 50
94.613730000001567
 51
264.4824159999979
  0
LINE
  5
1B253
  8
AM_0
 10
111.54230442949969
 20
370.07592022917947
 30
0.0
 11
113.98883844020681
 21
370.16135491244108
 31
0.0
  0
ARC
  5
1B254
  8
AM_0
 10
111.5772034294999
 20
369.07652922917941
 30
0.0
 40
1.0
 50
91.999999999997158
 51
268.0000000000029
  0
LINE
  5
1B255
  8
AM_0
 10
111.54230442949969
 20
368.07713822917941
 30
0.0
 11
113.98883844020681
 21
367.9917033294351
 31
0.0
  0
POINT
  5
1B2B1
  8
AM_0
 10
810.75800213686125
 20
752.55637799344731
 30
0.0
  0
ARC
  5
1B2B2
  8
ｶｸﾚｾﾝ2
 10
774.25800213686125
 20
718.55637799344731
 30
0.0
 40
2.0
 50
180.0
 51
270.0
  0
LINE
  5
1B2B3
  8
ｶｸﾚｾﾝ2
 10
774.25800213686125
 20
728.05637799344731
 30
0.0
 11
774.75800213686125
 21
728.05637799344731
 31
0.0
  0
ARC
  5
1B2B4
  8
ｶｸﾚｾﾝ2
 10
774.25800213686125
 20
726.0563779934472
 30
0.0
 40
2.0
 50
90.0
 51
180.0
  0
LINE
  5
1B2B5
  8
ｶｸﾚｾﾝ2
 10
772.25800213686125
 20
718.55637799344731
 30
0.0
 11
772.25800213686125
 21
726.0563779934472
 31
0.0
  0
ARC
  5
1B2B6
  8
ｶｸﾚｾﾝ2
 10
774.75800213686125
 20
730.0563779934472
 30
0.0
 40
2.0
 50
270.0
 51
0.0
  0
ARC
  5
1B2B7
  8
ｶｸﾚｾﾝ2
 10
774.25800213686125
 20
786.55637799344731
 30
0.0
 40
2.0
 50
90.0
 51
180.0
  0
LINE
  5
1B2B8
  8
ｶｸﾚｾﾝ2
 10
772.25800213686125
 20
786.55637799344731
 30
0.0
 11
772.25800213686125
 21
779.05637799344731
 31
0.0
  0
LINE
  5
1B2B9
  8
ｶｸﾚｾﾝ2
 10
774.25800213686125
 20
777.05637799344731
 30
0.0
 11
774.75800213686125
 21
777.05637799344731
 31
0.0
  0
ARC
  5
1B2BA
  8
ｶｸﾚｾﾝ2
 10
774.25800213686125
 20
779.05637799344731
 30
0.0
 40
2.0
 50
180.0
 51
270.0
  0
ARC
  5
1B2BB
  8
ｶｸﾚｾﾝ2
 10
774.75800213686125
 20
775.05637799344731
 30
0.0
 40
2.0
 50
0.0
 51
90.0
  0
LINE
  5
1B2BC
  8
AM_0
 10
1009.558002136861
 20
755.0563779934472
 30
0.0
 11
1009.558002136861
 21
832.5363779934471
 31
0.0
  0
ARC
  5
1B2BD
  8
AM_0
 10
1035.380052136861
 20
679.91446699344738
 30
0.0
 40
5.745309999999999
 50
272.8728220000034
 51
349.99567800000131
  0
ARC
  5
1B2BE
  8
AM_0
 10
1010.339279136861
 20
671.58837199344725
 30
0.0
 40
1.260022999999999
 50
93.242827000000702
 51
144.14698200000041
  0
ARC
  5
1B2BF
  8
AM_0
 10
1008.307638136861
 20
673.04795099344722
 30
0.0
 40
1.241573
 50
270.01681600000052
 51
324.46666699999952
  0
ARC
  5
1B2C0
  8
AM_0
 10
1035.3738641368609
 20
825.19127899344744
 30
0.0
 40
5.7526239999999991
 50
10.06237400000038
 51
87.069124999996973
  0
ARC
  5
1B2C1
  8
AM_0
 10
1010.334208136861
 20
833.51511999344746
 30
0.0
 40
1.2504959999999981
 50
215.64507799999609
 51
266.96511300000299
  0
ARC
  5
1B2C2
  8
AM_0
 10
1008.302665136861
 20
832.05514699344712
 30
0.0
 40
1.2512430000000001
 50
35.760896999997861
 51
89.755619999999979
  0
ARC
  5
1B2C3
  8
AM_0
 10
1044.3081521368611
 20
815.36083399344727
 30
0.0
 40
2.249854
 50
359.8865100000022
 51
81.569506999999675
  0
ARC
  5
1B2C4
  8
AM_0
 10
1045.0737221368611
 20
820.55554699344725
 30
0.0
 40
3.0009689999999982
 50
189.96231799999899
 51
261.65154100000302
  0
LINE
  5
1B2C5
  8
AM_0
 10
1038.488002136861
 20
679.05637799344731
 30
0.0
 11
1038.488002136861
 21
749.90559599344715
 31
0.0
  0
LINE
  5
1B2C6
  8
AM_0
 10
1042.558002136861
 20
816.20637799344718
 30
0.0
 11
1042.558002136861
 21
753.88967099344723
 31
0.0
  0
LINE
  5
1B2C7
  8
AM_0
 10
1010.268002136861
 20
672.84637799344728
 30
0.0
 11
1035.6680021368611
 21
674.17637799344732
 31
0.0
  0
LINE
  5
1B2C8
  8
AM_0
 10
1042.118001136861
 20
685.0763779934473
 30
0.0
 11
1041.038002136861
 21
678.9163779934471
 31
0.0
  0
LINE
  5
1B2C9
  8
AM_0
 10
1010.268002136861
 20
832.26637799344724
 30
0.0
 11
1035.6680021368611
 21
830.93637799344697
 31
0.0
  0
LINE
  5
1B2CA
  8
AM_0
 10
1009.558002136861
 20
672.57693899344724
 30
0.0
 11
1009.558002136861
 21
750.05637799344731
 31
0.0
  0
LINE
  5
1B2CB
  8
AM_0
 10
1042.1180021368609
 20
820.0363779934471
 30
0.0
 11
1041.038002136861
 21
826.19637799344741
 31
0.0
  0
LINE
  5
1B2CC
  8
AM_0
 10
1046.558002136861
 20
815.35637799344715
 30
0.0
 11
1046.558002136861
 21
751.41243399344705
 31
0.0
  0
LINE
  5
1B2CD
  8
ﾁｭｳｼﾝｾﾝ1
 10
956.25800213686125
 20
739.83649599344722
 30
0.0
 11
956.25800213686125
 21
766.16413799344741
 31
0.0
  0
LINE
  5
1B2CE
  8
AM_0
 10
1008.308002136861
 20
833.30637799344731
 30
0.0
 11
1001.258002136861
 21
833.30637799344731
 31
0.0
  0
LINE
  5
1B2CF
  8
AM_0
 10
1008.308002136861
 20
671.80637799344731
 30
0.0
 11
1001.258002136861
 21
671.80637799344731
 31
0.0
  0
LINE
  5
1B2D0
  8
ｶｸﾚｾﾝ2
 10
857.75800213686125
 20
788.5563779934472
 30
0.0
 11
774.25800213686125
 21
788.5563779934472
 31
0.0
  0
ARC
  5
1B2D1
  8
ｶｸﾚｾﾝ2
 10
857.7653581368611
 20
720.04902199344735
 30
0.0
 40
3.4926519999999979
 50
269.87932800000158
 51
0.1206719999985139
  0
LINE
  5
1B2D2
  8
ｶｸﾚｾﾝ2
 10
857.75800213686125
 20
716.55637799344731
 30
0.0
 11
774.25800213686125
 21
716.55637799344731
 31
0.0
  0
LINE
  5
1B2D3
  8
ｶｸﾚｾﾝ2
 10
776.75800213686125
 20
775.05637799344731
 30
0.0
 11
776.75800213686125
 21
730.0563779934472
 31
0.0
  0
LINE
  5
1B2D4
  8
ｶｸﾚｾﾝ2
 10
861.25800213686125
 20
720.05637799344731
 30
0.0
 11
861.25800213686125
 21
785.05637799344731
 31
0.0
  0
ARC
  5
1B2D5
  8
ｶｸﾚｾﾝ2
 10
857.75750313686115
 20
785.0558789934471
 30
0.0
 40
3.5004989999999978
 50
0.0081640000011518
 51
89.991835999998855
  0
LINE
  5
1B2D6
  8
AM_0
 10
926.25800213686125
 20
834.5563779934472
 30
0.0
 11
926.25800213686125
 21
670.55637799344731
 31
0.0
  0
LINE
  5
1B2D7
  8
AM_0
 10
1001.258002136861
 20
670.55637799344731
 30
0.0
 11
1001.258002136861
 21
750.05637799344731
 31
0.0
  0
LINE
  5
1B2D8
  8
AM_0
 10
1001.258002136861
 20
834.5563779934472
 30
0.0
 11
926.25800213686125
 21
834.5563779934472
 31
0.0
  0
LINE
  5
1B2D9
  8
AM_0
 10
1001.258002136861
 20
670.55637799344731
 30
0.0
 11
926.25800213686125
 21
670.55637799344731
 31
0.0
  0
LINE
  5
1B2DA
  8
AM_0
 10
1001.258002136861
 20
755.0563779934472
 30
0.0
 11
1001.258002136861
 21
834.5563779934472
 31
0.0
  0
LINE
  5
1B2DB
  8
AM_0
 10
918.25800213686125
 20
689.20045899344723
 30
0.0
 11
926.25800213686125
 21
689.20045899344723
 31
0.0
  0
LINE
  5
1B2DC
  8
AM_0
 10
926.25800213686125
 20
706.62504599344743
 30
0.0
 11
916.25800213686114
 21
706.62504599344743
 31
0.0
  0
LINE
  5
1B2DD
  8
AM_0
 10
926.25800213686125
 20
707.03637799344722
 30
0.0
 11
916.25800213686114
 21
707.03637799344722
 31
0.0
  0
LINE
  5
1B2DE
  8
AM_0
 10
926.25800213686125
 20
717.5563779934472
 30
0.0
 11
916.25800213686114
 21
717.5563779934472
 31
0.0
  0
LINE
  5
1B2DF
  8
AM_0
 10
926.25800213686125
 20
723.27482099344729
 30
0.0
 11
916.25800213686114
 21
723.27482099344729
 31
0.0
  0
LINE
  5
1B2E0
  8
AM_0
 10
926.25800213686125
 20
706.38637799344735
 30
0.0
 11
762.76295413686125
 21
706.38637799344735
 31
0.0
  0
LINE
  5
1B2E1
  8
AM_0
 10
916.25800213686114
 20
708.72637799344704
 30
0.0
 11
846.10800213686116
 21
708.72637799344704
 31
0.0
  0
LINE
  5
1B2E2
  8
AM_0
 10
916.25800213686114
 20
708.37637799344725
 30
0.0
 11
764.71869713686124
 21
708.37637799344725
 31
0.0
  0
LINE
  5
1B2E3
  8
AM_0
 10
887.60800213686127
 20
748.35637799344715
 30
0.0
 11
926.25800213686125
 21
748.35637799344715
 31
0.0
  0
LINE
  5
1B2E4
  8
AM_0
 10
887.71800213686117
 20
746.75637799344724
 30
0.0
 11
926.25800213686125
 21
746.75637799344724
 31
0.0
  0
LINE
  5
1B2E5
  8
AM_0
 10
887.12800213686126
 20
738.35637799344727
 30
0.0
 11
926.25800213686125
 21
738.35637799344727
 31
0.0
  0
LINE
  5
1B2E6
  8
AM_0
 10
886.76800213686113
 20
736.75637799344724
 30
0.0
 11
926.25800213686125
 21
736.75637799344724
 31
0.0
  0
LINE
  5
1B2E7
  8
AM_0
 10
884.16800213686111
 20
728.35637799344715
 30
0.0
 11
926.25800213686125
 21
728.35637799344715
 31
0.0
  0
LINE
  5
1B2E8
  8
AM_0
 10
883.59800213686117
 20
726.75637799344724
 30
0.0
 11
926.25800213686125
 21
726.75637799344724
 31
0.0
  0
LINE
  5
1B2E9
  8
AM_0
 10
887.58800213686129
 20
748.5663779934473
 30
0.0
 11
926.25800213686125
 21
748.5663779934473
 31
0.0
  0
LINE
  5
1B2EA
  8
AM_0
 10
926.25800213686125
 20
746.53637799344722
 30
0.0
 11
763.36800213686115
 21
746.53637799344722
 31
0.0
  0
LINE
  5
1B2EB
  8
AM_0
 10
926.25800213686125
 20
738.58637799344729
 30
0.0
 11
763.11800213686126
 21
738.58637799344729
 31
0.0
  0
LINE
  5
1B2EC
  8
AM_0
 10
886.7080021368613
 20
736.50637799344724
 30
0.0
 11
926.25800213686125
 21
736.50637799344724
 31
0.0
  0
LINE
  5
1B2ED
  8
AM_0
 10
884.26800213686136
 20
728.63637799344735
 30
0.0
 11
926.25800213686125
 21
728.63637799344735
 31
0.0
  0
LINE
  5
1B2EE
  8
AM_0
 10
883.48800213686127
 20
726.45637799344695
 30
0.0
 11
926.25800213686125
 21
726.45637799344695
 31
0.0
  0
LINE
  5
1B2EF
  8
AM_0
 10
916.25800213686114
 20
716.36637799344726
 30
0.0
 11
794.31437313686115
 21
716.36637799344726
 31
0.0
  0
LINE
  5
1B2F0
  8
AM_0
 10
916.25800213686114
 20
718.35637799344715
 30
0.0
 11
764.55800213686132
 21
718.35637799344715
 31
0.0
  0
LINE
  5
1B2F1
  8
AM_0
 10
916.25800213686114
 20
687.20045899344723
 30
0.0
 11
916.25800213686114
 21
686.05637799344731
 31
0.0
  0
ARC
  5
1B2F2
  8
AM_0
 10
918.25800213686125
 20
687.20045899344723
 30
0.0
 40
2.0
 50
90.0
 51
180.0
  0
ARC
  5
1B2F3
  8
AM_0
 10
914.25800213686125
 20
686.05637799344731
 30
0.0
 40
2.0
 50
270.0
 51
0.0
  0
LINE
  5
1B2F4
  8
AM_0
 10
916.25800213686114
 20
687.20045899344723
 30
0.0
 11
916.25800213686114
 21
699.65532799344714
 31
0.0
  0
ARC
  5
1B2F5
  8
AM_0
 10
918.25800213686125
 20
699.65532799344714
 30
0.0
 40
2.0
 50
90.0
 51
180.0
  0
LINE
  5
1B2F6
  8
AM_0
 10
916.25800213686114
 20
706.62504599344743
 30
0.0
 11
916.25800213686114
 21
723.27482099344729
 31
0.0
  0
LINE
  5
1B2F7
  8
AM_0
 10
914.25800213686125
 20
684.0563779934472
 30
0.0
 11
765.26637713686125
 21
684.0563779934472
 31
0.0
  0
LINE
  5
1B2F8
  8
AM_0
 10
926.25800213686125
 20
701.65532799344714
 30
0.0
 11
765.75800213686125
 21
701.65532799344714
 31
0.0
  0
LINE
  5
1B2F9
  8
AM_0
 10
916.25800213686114
 20
706.77637799344723
 30
0.0
 11
764.86480813686126
 21
706.77637799344723
 31
0.0
  0
LINE
  5
1B2FA
  8
AM_0
 10
765.75800213686125
 20
748.5663779934473
 30
0.0
 11
765.75800213686125
 21
752.55637799344731
 31
0.0
  0
LINE
  5
1B2FB
  8
AM_0
 10
762.76295413686125
 20
716.36637799344726
 30
0.0
 11
794.31437313686115
 21
716.36637799344726
 31
0.0
  0
LINE
  5
1B2FC
  8
AM_0
 10
883.59800213686117
 20
726.75637799344724
 30
0.0
 11
764.55800213686132
 21
726.75637799344724
 31
0.0
  0
LINE
  5
1B2FD
  8
AM_0
 10
916.25800213686114
 20
716.75637799344724
 30
0.0
 11
764.55800213686132
 21
716.75637799344724
 31
0.0
  0
LINE
  5
1B2FE
  8
AM_0
 10
886.76800213686113
 20
736.75637799344724
 30
0.0
 11
764.55800213686132
 21
736.75637799344724
 31
0.0
  0
LINE
  5
1B2FF
  8
AM_0
 10
887.60800213686127
 20
748.35637799344715
 30
0.0
 11
764.55800213686132
 21
748.35637799344715
 31
0.0
  0
LINE
  5
1B300
  8
AM_0
 10
764.25800213686125
 20
748.5663779934473
 30
0.0
 11
764.25800213686125
 21
752.55637799344731
 31
0.0
  0
LINE
  5
1B301
  8
AM_0
 10
764.34555813686131
 20
680.14393399344715
 30
0.0
 11
764.25800213686125
 21
680.0563779934472
 31
0.0
  0
LINE
  5
1B302
  8
AM_0
 10
764.25800213686125
 20
680.05138399344696
 30
0.0
 11
764.25800213686125
 21
680.0563779934472
 31
0.0
  0
LINE
  5
1B303
  8
AM_0
 10
763.11800213686126
 20
748.58637799344717
 30
0.0
 11
764.55800213686132
 21
748.38923499344742
 31
0.0
  0
LINE
  5
1B304
  8
AM_0
 10
763.10800213686116
 20
746.49637799344725
 30
0.0
 11
764.55800213686132
 21
746.71945499344724
 31
0.0
  0
LINE
  5
1B305
  8
AM_0
 10
762.25800213686125
 20
749.57637799344718
 30
0.0
 11
762.25800213686125
 21
745.50637799344724
 31
0.0
  0
LINE
  5
1B306
  8
AM_0
 10
763.11800213686126
 20
738.58637799344729
 30
0.0
 11
764.55800213686132
 21
738.38923499344742
 31
0.0
  0
LINE
  5
1B307
  8
AM_0
 10
763.10800213686116
 20
736.49637799344725
 30
0.0
 11
764.55800213686132
 21
736.71945499344724
 31
0.0
  0
LINE
  5
1B308
  8
AM_0
 10
762.25800213686125
 20
739.5763779934473
 30
0.0
 11
762.25800213686125
 21
735.50637799344724
 31
0.0
  0
LINE
  5
1B309
  8
AM_0
 10
763.10800213686116
 20
726.49637799344737
 30
0.0
 11
764.55800213686132
 21
726.71945499344724
 31
0.0
  0
LINE
  5
1B30A
  8
AM_0
 10
763.11800213686126
 20
728.58637799344729
 30
0.0
 11
764.55800213686132
 21
728.38923499344742
 31
0.0
  0
LINE
  5
1B30B
  8
AM_0
 10
762.25800213686125
 20
729.5763779934473
 30
0.0
 11
762.25800213686125
 21
725.50637799344747
 31
0.0
  0
ARC
  5
1B30C
  8
AM_0
 10
764.80639713686116
 20
747.55637799344731
 30
0.0
 40
0.8000439999999999
 50
108.0879409999967
 51
251.91205900000321
  0
ARC
  5
1B30D
  8
AM_0
 10
763.26063413686131
 20
745.50543199344725
 30
0.0
 40
1.0026319999999971
 50
98.756240999999051
 51
179.94591500000149
  0
ARC
  5
1B30E
  8
AM_0
 10
763.26496913686117
 20
749.58258199344732
 30
0.0
 40
1.0069859999999999
 50
180.35299799999879
 51
261.6078369999978
  0
ARC
  5
1B30F
  8
AM_0
 10
764.80306413686117
 20
737.56143999344715
 30
0.0
 40
0.8050779999999997
 50
180.3602510000016
 51
252.27820999999739
  0
ARC
  5
1B310
  8
AM_0
 10
763.26063413686131
 20
735.50543199344725
 30
0.0
 40
1.0026319999999971
 50
98.756240999999051
 51
179.94591500000149
  0
ARC
  5
1B311
  8
AM_0
 10
763.26496913686117
 20
739.58258199344732
 30
0.0
 40
1.0069859999999999
 50
180.35299799999879
 51
261.6078369999978
  0
ARC
  5
1B312
  8
AM_0
 10
764.80135813686115
 20
727.55302199344737
 30
0.0
 40
0.8033630000000001
 50
107.6331500000029
 51
179.76067000000199
  0
ARC
  5
1B313
  8
AM_0
 10
764.80306413686117
 20
727.56143999344727
 30
0.0
 40
0.8050779999999997
 50
180.3602510000016
 51
252.27820999999739
  0
ARC
  5
1B314
  8
AM_0
 10
763.26496913686117
 20
729.58258199344721
 30
0.0
 40
1.0069859999999999
 50
180.35299799999879
 51
261.6078369999978
  0
ARC
  5
1B315
  8
AM_0
 10
763.26063413686131
 20
725.50543199344725
 30
0.0
 40
1.0026319999999971
 50
98.756240999999051
 51
179.94591500000149
  0
ARC
  5
1B316
  8
AM_0
 10
764.80135813686115
 20
737.55302199344715
 30
0.0
 40
0.8033630000000001
 50
107.6331500000029
 51
179.76067000000199
  0
ARC
  5
1B317
  8
AM_0
 10
763.26049913686097
 20
680.05388099344725
 30
0.0
 40
0.9975059999999999
 50
269.85657800000291
 51
0.1434219999970843
  0
LINE
  5
1B318
  8
AM_0
 10
764.25800213686125
 20
680.0563779934472
 30
0.0
 11
764.25800213686125
 21
680.47069499344718
 31
0.0
  0
LINE
  5
1B319
  8
AM_0
 10
764.25800213686125
 20
738.58637799344729
 30
0.0
 11
764.25800213686125
 21
746.53637799344722
 31
0.0
  0
LINE
  5
1B31A
  8
AM_0
 10
764.25800213686125
 20
728.63637799344735
 30
0.0
 11
764.25800213686125
 21
736.50637799344724
 31
0.0
  0
LINE
  5
1B31B
  8
AM_0
 10
765.75800213686125
 20
708.72637799344704
 30
0.0
 11
765.75800213686125
 21
716.36637799344726
 31
0.0
  0
LINE
  5
1B31C
  8
AM_0
 10
765.75800213686125
 20
701.65532799344714
 30
0.0
 11
765.75800213686125
 21
706.38637799344735
 31
0.0
  0
LINE
  5
1B31D
  8
AM_0
 10
764.25800213686125
 20
716.36637799344726
 30
0.0
 11
764.25800213686125
 21
708.72637799344704
 31
0.0
  0
LINE
  5
1B31E
  8
AM_0
 10
765.75800213686125
 20
701.65532799344714
 30
0.0
 11
765.6418471368612
 21
700.4474019934471
 31
0.0
  0
LINE
  5
1B31F
  8
AM_0
 10
765.75800213686125
 20
738.58637799344729
 30
0.0
 11
765.75800213686125
 21
746.53637799344722
 31
0.0
  0
LINE
  5
1B320
  8
AM_0
 10
765.75800213686125
 20
728.63637799344735
 30
0.0
 11
765.75800213686125
 21
736.50637799344724
 31
0.0
  0
LINE
  5
1B321
  8
AM_0
 10
765.75800213686125
 20
718.70637799344695
 30
0.0
 11
765.75800213686125
 21
726.45637799344695
 31
0.0
  0
ARC
  5
1B322
  8
AM_0
 10
763.26297713686131
 20
719.57199799344721
 30
0.0
 40
1.0069859999999999
 50
180.35299799999879
 51
261.6078369999978
  0
ARC
  5
1B323
  8
AM_0
 10
763.25864113686123
 20
715.49484699344725
 30
0.0
 40
1.0026319999999971
 50
98.756240999999051
 51
179.94591500000149
  0
LINE
  5
1B324
  8
AM_0
 10
762.25600913686128
 20
719.56579399344741
 30
0.0
 11
762.25600913686128
 21
715.49579399344725
 31
0.0
  0
ARC
  5
1B325
  8
AM_0
 10
764.80107113686131
 20
717.55085599344716
 30
0.0
 40
0.8050779999999997
 50
180.3602510000016
 51
252.27820999999739
  0
LINE
  5
1B326
  8
AM_0
 10
763.10600913686119
 20
716.48579399344715
 30
0.0
 11
764.55600913686123
 21
716.70887099344714
 31
0.0
  0
ARC
  5
1B327
  8
AM_0
 10
764.79936513686118
 20
717.54243799344715
 30
0.0
 40
0.8033630000000001
 50
107.6331500000029
 51
179.76067000000199
  0
LINE
  5
1B328
  8
AM_0
 10
763.11600913686129
 20
718.57579399344729
 30
0.0
 11
764.55600913686123
 21
718.3786509934472
 31
0.0
  0
LINE
  5
1B329
  8
AM_0
 10
764.25800213686125
 20
718.70637799344695
 30
0.0
 11
764.25800213686125
 21
726.45637799344695
 31
0.0
  0
LINE
  5
1B32A
  8
AM_0
 10
846.10800213686116
 20
708.72637799344704
 30
0.0
 11
762.74846313686123
 21
708.72637799344704
 31
0.0
  0
LINE
  5
1B32B
  8
AM_0
 10
883.48800213686127
 20
726.45637799344695
 30
0.0
 11
762.94287313686095
 21
726.45637799344695
 31
0.0
  0
LINE
  5
1B32C
  8
AM_0
 10
886.7080021368613
 20
736.50637799344724
 30
0.0
 11
763.20251713686127
 21
736.50637799344724
 31
0.0
  0
LINE
  5
1B32D
  8
AM_0
 10
887.58800213686129
 20
748.5663779934473
 30
0.0
 11
763.26408913686123
 21
748.5663779934473
 31
0.0
  0
LINE
  5
1B32E
  8
AM_0
 10
887.71800213686117
 20
746.75637799344724
 30
0.0
 11
764.55800213686132
 21
746.75637799344724
 31
0.0
  0
LINE
  5
1B32F
  8
AM_0
 10
887.12800213686126
 20
738.35637799344727
 30
0.0
 11
764.55800213686132
 21
738.35637799344727
 31
0.0
  0
LINE
  5
1B330
  8
AM_0
 10
884.16800213686111
 20
728.35637799344715
 30
0.0
 11
764.55800213686132
 21
728.35637799344715
 31
0.0
  0
LINE
  5
1B331
  8
AM_0
 10
918.25800213686125
 20
815.9122969934474
 30
0.0
 11
926.25800213686125
 21
815.9122969934474
 31
0.0
  0
LINE
  5
1B332
  8
AM_0
 10
926.25800213686125
 20
798.48770999344731
 30
0.0
 11
916.25800213686114
 21
798.48770999344731
 31
0.0
  0
LINE
  5
1B333
  8
AM_0
 10
926.25800213686125
 20
798.0763779934473
 30
0.0
 11
916.25800213686114
 21
798.0763779934473
 31
0.0
  0
LINE
  5
1B334
  8
AM_0
 10
926.25800213686125
 20
787.55637799344731
 30
0.0
 11
916.25800213686114
 21
787.55637799344731
 31
0.0
  0
LINE
  5
1B335
  8
AM_0
 10
926.25800213686125
 20
781.83793499344722
 30
0.0
 11
916.25800213686114
 21
781.83793499344722
 31
0.0
  0
LINE
  5
1B336
  8
AM_0
 10
914.25800213686125
 20
821.05637799344731
 30
0.0
 11
765.26637713686125
 21
821.05637799344731
 31
0.0
  0
LINE
  5
1B337
  8
AM_0
 10
926.25800213686125
 20
803.45742799344725
 30
0.0
 11
765.75800213686125
 21
803.45742799344725
 31
0.0
  0
LINE
  5
1B338
  8
AM_0
 10
926.25800213686125
 20
798.72637799344727
 30
0.0
 11
762.76295413686125
 21
798.72637799344727
 31
0.0
  0
LINE
  5
1B339
  8
AM_0
 10
916.25800213686114
 20
796.38637799344758
 30
0.0
 11
846.10800213686116
 21
796.38637799344758
 31
0.0
  0
LINE
  5
1B33A
  8
AM_0
 10
916.25800213686114
 20
796.73637799344738
 30
0.0
 11
764.71869713686124
 21
796.73637799344738
 31
0.0
  0
LINE
  5
1B33B
  8
AM_0
 10
916.25800213686114
 20
798.33637799344729
 30
0.0
 11
764.86480813686126
 21
798.33637799344729
 31
0.0
  0
LINE
  5
1B33C
  8
AM_0
 10
887.60800213686127
 20
756.75637799344747
 30
0.0
 11
926.25800213686125
 21
756.75637799344747
 31
0.0
  0
LINE
  5
1B33D
  8
AM_0
 10
887.71800213686117
 20
758.35637799344715
 30
0.0
 11
926.25800213686125
 21
758.35637799344715
 31
0.0
  0
LINE
  5
1B33E
  8
AM_0
 10
887.12800213686126
 20
766.75637799344724
 30
0.0
 11
926.25800213686125
 21
766.75637799344724
 31
0.0
  0
LINE
  5
1B33F
  8
AM_0
 10
886.76800213686113
 20
768.35637799344715
 30
0.0
 11
926.25800213686125
 21
768.35637799344715
 31
0.0
  0
LINE
  5
1B340
  8
AM_0
 10
884.16800213686111
 20
776.75637799344724
 30
0.0
 11
926.25800213686125
 21
776.75637799344724
 31
0.0
  0
LINE
  5
1B341
  8
AM_0
 10
883.59800213686117
 20
778.35637799344715
 30
0.0
 11
926.25800213686125
 21
778.35637799344715
 31
0.0
  0
LINE
  5
1B342
  8
AM_0
 10
887.58800213686129
 20
756.54637799344732
 30
0.0
 11
926.25800213686125
 21
756.54637799344732
 31
0.0
  0
LINE
  5
1B343
  8
AM_0
 10
887.72800213686116
 20
758.5763779934473
 30
0.0
 11
926.25800213686125
 21
758.5763779934473
 31
0.0
  0
LINE
  5
1B344
  8
AM_0
 10
887.17800213686121
 20
766.52637799344723
 30
0.0
 11
926.25800213686125
 21
766.52637799344723
 31
0.0
  0
LINE
  5
1B345
  8
AM_0
 10
886.7080021368613
 20
768.60637799344715
 30
0.0
 11
926.25800213686125
 21
768.60637799344715
 31
0.0
  0
LINE
  5
1B346
  8
AM_0
 10
884.26800213686136
 20
776.47637799344704
 30
0.0
 11
926.25800213686125
 21
776.47637799344704
 31
0.0
  0
LINE
  5
1B347
  8
AM_0
 10
883.48800213686127
 20
778.65637799344745
 30
0.0
 11
926.25800213686125
 21
778.65637799344745
 31
0.0
  0
LINE
  5
1B348
  8
AM_0
 10
916.25800213686114
 20
786.75637799344724
 30
0.0
 11
764.55800213686132
 21
786.75637799344724
 31
0.0
  0
LINE
  5
1B349
  8
AM_0
 10
916.25800213686114
 20
798.48770999344731
 30
0.0
 11
916.25800213686114
 21
781.83793499344722
 31
0.0
  0
ARC
  5
1B34A
  8
AM_0
 10
918.25800213686125
 20
805.45742799344737
 30
0.0
 40
2.0
 50
180.0
 51
270.0
  0
LINE
  5
1B34B
  8
AM_0
 10
916.25800213686114
 20
817.91229699344728
 30
0.0
 11
916.25800213686114
 21
805.45742799344737
 31
0.0
  0
ARC
  5
1B34C
  8
AM_0
 10
914.25800213686125
 20
819.05637799344731
 30
0.0
 40
2.0
 50
0.0
 51
90.0
  0
ARC
  5
1B34D
  8
AM_0
 10
918.25800213686125
 20
817.91229699344728
 30
0.0
 40
2.0
 50
180.0
 51
270.0
  0
LINE
  5
1B34E
  8
AM_0
 10
916.25800213686114
 20
817.91229699344728
 30
0.0
 11
916.25800213686114
 21
819.05637799344731
 31
0.0
  0
LINE
  5
1B34F
  8
AM_0
 10
883.48800213686127
 20
778.65637799344745
 30
0.0
 11
762.94287313686095
 21
778.65637799344745
 31
0.0
  0
LINE
  5
1B350
  8
AM_0
 10
886.7080021368613
 20
768.60637799344715
 30
0.0
 11
763.20251713686127
 21
768.60637799344715
 31
0.0
  0
LINE
  5
1B351
  8
AM_0
 10
887.72800213686116
 20
758.5763779934473
 30
0.0
 11
763.36800213686115
 21
758.5763779934473
 31
0.0
  0
LINE
  5
1B352
  8
AM_0
 10
887.60800213686127
 20
756.75637799344747
 30
0.0
 11
764.55800213686132
 21
756.75637799344747
 31
0.0
  0
LINE
  5
1B353
  8
AM_0
 10
887.12800213686126
 20
766.75637799344724
 30
0.0
 11
764.55800213686132
 21
766.75637799344724
 31
0.0
  0
LINE
  5
1B354
  8
AM_0
 10
884.16800213686111
 20
776.75637799344724
 30
0.0
 11
764.55800213686132
 21
776.75637799344724
 31
0.0
  0
LINE
  5
1B355
  8
AM_0
 10
846.10800213686116
 20
796.38637799344758
 30
0.0
 11
762.74846313686123
 21
796.38637799344758
 31
0.0
  0
LINE
  5
1B356
  8
AM_0
 10
765.75800213686125
 20
796.38637799344758
 30
0.0
 11
765.75800213686125
 21
788.74637799344725
 31
0.0
  0
LINE
  5
1B357
  8
AM_0
 10
764.25800213686125
 20
814.55637799344731
 30
0.0
 11
764.25800213686125
 21
798.72637799344727
 31
0.0
  0
LINE
  5
1B358
  8
AM_0
 10
765.75800213686125
 20
803.45742799344725
 30
0.0
 11
765.6418471368612
 21
804.66535499344741
 31
0.0
  0
LINE
  5
1B359
  8
AM_0
 10
765.75800213686125
 20
803.45742799344725
 30
0.0
 11
765.75800213686125
 21
798.72637799344727
 31
0.0
  0
LINE
  5
1B35A
  8
AM_0
 10
764.25800213686125
 20
825.05637799344731
 30
0.0
 11
764.25800213686125
 21
824.6420609934471
 31
0.0
  0
ARC
  5
1B35B
  8
AM_0
 10
763.26049913686097
 20
825.05887499344715
 30
0.0
 40
0.9975059999999999
 50
359.85657800000291
 51
90.143421999997017
  0
LINE
  5
1B35C
  8
AM_0
 10
764.25800213686125
 20
825.06137199344744
 30
0.0
 11
764.25800213686125
 21
825.05637799344731
 31
0.0
  0
LINE
  5
1B35D
  8
AM_0
 10
764.34555813686131
 20
824.96882199344725
 30
0.0
 11
764.25800213686125
 21
825.05637799344731
 31
0.0
  0
LINE
  5
1B35E
  8
AM_0
 10
765.75800213686125
 20
756.54637799344732
 30
0.0
 11
765.75800213686125
 21
752.55637799344731
 31
0.0
  0
LINE
  5
1B35F
  8
AM_0
 10
916.25800213686114
 20
788.74637799344725
 30
0.0
 11
762.76295413686125
 21
788.74637799344725
 31
0.0
  0
LINE
  5
1B360
  8
AM_0
 10
883.59800213686117
 20
778.35637799344715
 30
0.0
 11
764.55800213686132
 21
778.35637799344715
 31
0.0
  0
LINE
  5
1B361
  8
AM_0
 10
916.25800213686114
 20
788.35637799344727
 30
0.0
 11
764.55800213686132
 21
788.35637799344727
 31
0.0
  0
LINE
  5
1B362
  8
AM_0
 10
887.17800213686121
 20
766.52637799344723
 30
0.0
 11
763.11800213686126
 21
766.52637799344723
 31
0.0
  0
LINE
  5
1B363
  8
AM_0
 10
886.76800213686113
 20
768.35637799344715
 30
0.0
 11
764.55800213686132
 21
768.35637799344715
 31
0.0
  0
LINE
  5
1B364
  8
AM_0
 10
887.71800213686117
 20
758.35637799344715
 30
0.0
 11
764.55800213686132
 21
758.35637799344715
 31
0.0
  0
LINE
  5
1B365
  8
AM_0
 10
764.25800213686125
 20
756.54637799344732
 30
0.0
 11
764.25800213686125
 21
752.55637799344731
 31
0.0
  0
LINE
  5
1B366
  8
AM_0
 10
764.25800213686125
 20
786.40637799344745
 30
0.0
 11
764.25800213686125
 21
778.65637799344745
 31
0.0
  0
LINE
  5
1B367
  8
AM_0
 10
763.11600913686129
 20
786.53696199344745
 30
0.0
 11
764.55600913686123
 21
786.73410499344732
 31
0.0
  0
ARC
  5
1B368
  8
AM_0
 10
764.79936513686118
 20
787.57031799344736
 30
0.0
 40
0.8033630000000001
 50
180.23932999999789
 51
252.3668499999971
  0
LINE
  5
1B369
  8
AM_0
 10
763.10600913686119
 20
788.62696199344714
 30
0.0
 11
764.55600913686123
 21
788.4038849934476
 31
0.0
  0
ARC
  5
1B36A
  8
AM_0
 10
764.80107113686131
 20
787.56189999344724
 30
0.0
 40
0.8050779999999997
 50
107.7217900000025
 51
179.63974899999829
  0
LINE
  5
1B36B
  8
AM_0
 10
762.25600913686128
 20
785.54696199344721
 30
0.0
 11
762.25600913686128
 21
789.61696199344726
 31
0.0
  0
ARC
  5
1B36C
  8
AM_0
 10
763.25864113686123
 20
789.61790899344737
 30
0.0
 40
1.0026319999999971
 50
180.05408499999839
 51
261.24375900000098
  0
ARC
  5
1B36D
  8
AM_0
 10
763.26297713686131
 20
785.54075799344741
 30
0.0
 40
1.0069859999999999
 50
98.392163000002213
 51
179.64700200000121
  0
LINE
  5
1B36E
  8
AM_0
 10
765.75800213686125
 20
786.40637799344745
 30
0.0
 11
765.75800213686125
 21
778.65637799344745
 31
0.0
  0
LINE
  5
1B36F
  8
AM_0
 10
765.75800213686125
 20
776.47637799344704
 30
0.0
 11
765.75800213686125
 21
768.60637799344715
 31
0.0
  0
LINE
  5
1B370
  8
AM_0
 10
765.75800213686125
 20
766.52637799344723
 30
0.0
 11
765.75800213686125
 21
758.5763779934473
 31
0.0
  0
LINE
  5
1B371
  8
AM_0
 10
764.25800213686125
 20
776.47637799344704
 30
0.0
 11
764.25800213686125
 21
768.60637799344715
 31
0.0
  0
LINE
  5
1B372
  8
AM_0
 10
764.25800213686125
 20
766.52637799344723
 30
0.0
 11
764.25800213686125
 21
758.5763779934473
 31
0.0
  0
ARC
  5
1B373
  8
AM_0
 10
764.80135813686115
 20
767.55973399344725
 30
0.0
 40
0.8033630000000001
 50
180.23932999999789
 51
252.3668499999971
  0
ARC
  5
1B374
  8
AM_0
 10
763.26063413686131
 20
779.60732399344715
 30
0.0
 40
1.0026319999999971
 50
180.05408499999839
 51
261.24375900000098
  0
ARC
  5
1B375
  8
AM_0
 10
763.26496913686117
 20
775.53017399344731
 30
0.0
 40
1.0069859999999999
 50
98.392163000002213
 51
179.64700200000121
  0
ARC
  5
1B376
  8
AM_0
 10
764.80306413686117
 20
777.55131599344725
 30
0.0
 40
0.8050779999999997
 50
107.7217900000025
 51
179.63974899999829
  0
ARC
  5
1B377
  8
AM_0
 10
764.80135813686115
 20
777.55973399344725
 30
0.0
 40
0.8033630000000001
 50
180.23932999999789
 51
252.3668499999971
  0
ARC
  5
1B378
  8
AM_0
 10
763.26496913686117
 20
765.53017399344731
 30
0.0
 40
1.0069859999999999
 50
98.392163000002213
 51
179.64700200000121
  0
ARC
  5
1B379
  8
AM_0
 10
763.26063413686131
 20
769.60732399344738
 30
0.0
 40
1.0026319999999971
 50
180.05408499999839
 51
261.24375900000098
  0
ARC
  5
1B37A
  8
AM_0
 10
764.80306413686117
 20
767.55131599344747
 30
0.0
 40
0.8050779999999997
 50
107.7217900000025
 51
179.63974899999829
  0
ARC
  5
1B37B
  8
AM_0
 10
763.26496913686117
 20
755.53017399344719
 30
0.0
 40
1.0069859999999999
 50
98.392163000002213
 51
179.64700200000121
  0
ARC
  5
1B37C
  8
AM_0
 10
763.26063413686131
 20
759.60732399344715
 30
0.0
 40
1.0026319999999971
 50
180.05408499999839
 51
261.24375900000098
  0
ARC
  5
1B37D
  8
AM_0
 10
764.80639713686116
 20
757.55637799344731
 30
0.0
 40
0.8000439999999999
 50
108.0879409999967
 51
251.91205900000321
  0
LINE
  5
1B37E
  8
AM_0
 10
762.25800213686125
 20
775.53637799344722
 30
0.0
 11
762.25800213686125
 21
779.60637799344715
 31
0.0
  0
LINE
  5
1B37F
  8
AM_0
 10
763.11800213686126
 20
776.52637799344723
 30
0.0
 11
764.55800213686132
 21
776.7235209934471
 31
0.0
  0
LINE
  5
1B380
  8
AM_0
 10
763.10800213686116
 20
778.61637799344714
 30
0.0
 11
764.55800213686132
 21
778.39330099344727
 31
0.0
  0
LINE
  5
1B381
  8
AM_0
 10
762.25800213686125
 20
765.53637799344722
 30
0.0
 11
762.25800213686125
 21
769.60637799344727
 31
0.0
  0
LINE
  5
1B382
  8
AM_0
 10
763.10800213686116
 20
768.61637799344726
 30
0.0
 11
764.55800213686132
 21
768.39330099344738
 31
0.0
  0
LINE
  5
1B383
  8
AM_0
 10
763.11800213686126
 20
766.52637799344723
 30
0.0
 11
764.55800213686132
 21
766.72352099344721
 31
0.0
  0
LINE
  5
1B384
  8
AM_0
 10
762.25800213686125
 20
755.53637799344722
 30
0.0
 11
762.25800213686125
 21
759.60637799344715
 31
0.0
  0
LINE
  5
1B385
  8
AM_0
 10
763.10800213686116
 20
758.61637799344714
 30
0.0
 11
764.55800213686132
 21
758.39330099344716
 31
0.0
  0
LINE
  5
1B386
  8
AM_0
 10
763.11800213686126
 20
756.52637799344723
 30
0.0
 11
764.55800213686132
 21
756.72352099344721
 31
0.0
  0
LINE
  5
1B387
  8
AM_0
 10
1046.758002136861
 20
675.55582999344676
 30
0.0
 11
1046.758002136861
 21
740.05637799344731
 31
0.0
  0
LINE
  5
1B388
  8
AM_0
 10
1051.758002136861
 20
675.55582999344676
 30
0.0
 11
1051.758002136861
 21
740.05637799344731
 31
0.0
  0
ARC
  5
1B389
  8
AM_0
 10
1049.258002136861
 20
675.55582999344676
 30
0.0
 40
2.5
 50
180.0
 51
0.0
  0
ARC
  5
1B38A
  8
AM_0
 10
1036.758002136861
 20
740.05637799344731
 30
0.0
 40
15.0
 50
0.0
 51
90.0
  0
ARC
  5
1B38B
  8
AM_0
 10
1036.758002136861
 20
740.05637799344731
 30
0.0
 40
10.0
 50
0.0
 51
90.0
  0
LINE
  5
1B38C
  8
AM_0
 10
963.25800213686125
 20
750.05637799344731
 30
0.0
 11
1036.758002136861
 21
750.05637799344731
 31
0.0
  0
LINE
  5
1B38D
  8
AM_0
 10
963.25800213686125
 20
755.0563779934472
 30
0.0
 11
1036.758002136861
 21
755.0563779934472
 31
0.0
  0
ARC
  5
1B38E
  8
AM_0
 10
956.25800213686125
 20
752.55637799344731
 30
0.0
 40
6.0
 50
199.47121999999999
 51
340.52877899999862
  0
LINE
  5
1B38F
  8
AM_0
 10
963.25800213686125
 20
750.5563779934472
 30
0.0
 11
963.25800213686125
 21
750.05637799344731
 31
0.0
  0
ARC
  5
1B390
  8
AM_0
 10
956.25800213686125
 20
752.55637799344731
 30
0.0
 40
7.0
 50
196.60154999999861
 51
343.39845000000128
  0
LINE
  5
1B391
  8
AM_0
 10
947.25800213686125
 20
750.5563779934472
 30
0.0
 11
947.25800213686125
 21
750.05637799344731
 31
0.0
  0
LINE
  5
1B392
  8
AM_0
 10
947.25800213686125
 20
750.05637799344731
 30
0.0
 11
942.25800213686125
 21
750.05637799344731
 31
0.0
  0
LINE
  5
1B393
  8
AM_0
 10
947.25800213686125
 20
750.5563779934472
 30
0.0
 11
963.25800213686125
 21
750.5563779934472
 31
0.0
  0
ARC
  5
1B394
  8
AM_0
 10
1045.0737221368611
 20
684.55720899344715
 30
0.0
 40
3.0009689999999982
 50
98.383608000000535
 51
170.03768200000101
  0
LINE
  5
1B395
  8
AM_0
 10
1042.558002136861
 20
748.20254299344731
 30
0.0
 11
1042.558002136861
 21
689.18573799344722
 31
0.0
  0
LINE
  5
1B396
  8
AM_0
 10
1038.488002136861
 20
754.95628099344731
 30
0.0
 11
1038.488002136861
 21
826.57637799344718
 31
0.0
  0
LINE
  5
1B397
  8
AM_0
 10
942.25800213686125
 20
750.05637799344731
 30
0.0
 11
942.25800213686125
 21
755.0563779934472
 31
0.0
  0
LINE
  5
1B398
  8
AM_0
 10
947.25800213686125
 20
754.55637799344731
 30
0.0
 11
963.25800213686125
 21
754.55637799344731
 31
0.0
  0
LINE
  5
1B399
  8
AM_0
 10
947.25800213686125
 20
755.0563779934472
 30
0.0
 11
942.25800213686125
 21
755.0563779934472
 31
0.0
  0
LINE
  5
1B39A
  8
AM_0
 10
947.25800213686125
 20
754.55637799344731
 30
0.0
 11
947.25800213686125
 21
755.0563779934472
 31
0.0
  0
LINE
  5
1B39B
  8
AM_0
 10
963.25800213686125
 20
754.55637799344731
 30
0.0
 11
963.25800213686125
 21
755.0563779934472
 31
0.0
  0
ARC
  5
1B39C
  8
AM_0
 10
956.25800213686125
 20
752.55637799344731
 30
0.0
 40
6.0
 50
19.471221000001481
 51
160.52878000000001
  0
ARC
  5
1B39D
  8
AM_0
 10
956.25800213686125
 20
752.55637799344731
 30
0.0
 40
7.0
 50
16.601549999998628
 51
163.3984500000013
  0
ARC
  5
1B39E
  8
AM_0
 10
1044.3081521368611
 20
689.75192199344724
 30
0.0
 40
2.249854
 50
278.38360800000061
 51
0.1134899999977179
  0
ARC
  5
1B39F
  8
AM_0
 10
1049.258002136861
 20
675.55582999344676
 30
0.0
 40
3.0
 50
146.44268999999821
 51
319.99999999999761
  0
LINE
  5
1B3A0
  8
AM_0
 10
1051.0257691368611
 20
673.78806299344728
 30
0.0
 11
1053.6044491368609
 21
676.36674299344725
 31
0.0
  0
LINE
  5
1B3A1
  8
AM_0
 10
1051.379322136861
 20
673.43450999344725
 30
0.0
 11
1053.9580021368611
 21
676.01318999344721
 31
0.0
  0
LINE
  5
1B3A2
  8
AM_0
 10
1053.9580021368611
 20
676.01318999344721
 30
0.0
 11
1053.6044491368609
 21
676.36674299344725
 31
0.0
  0
LINE
  5
1B3A3
  8
AM_0
 10
763.25800213686125
 20
826.05637799344731
 30
0.0
 11
754.25800213686125
 21
826.05637799344731
 31
0.0
  0
LINE
  5
1B3A4
  8
AM_0
 10
763.25800213686125
 20
815.55637799344731
 30
0.0
 11
756.55800213686143
 21
815.55637799344754
 31
0.0
  0
LINE
  5
1B3A5
  8
AM_0
 10
763.25800213686125
 20
679.05637799344731
 30
0.0
 11
754.25800213686125
 21
679.05637799344731
 31
0.0
  0
LINE
  5
1B3A6
  8
AM_0
 10
763.25800213686125
 20
689.55637799344731
 30
0.0
 11
756.55800213686143
 21
689.55637799344731
 31
0.0
  0
LINE
  5
1B3A7
  8
AM_0
 10
754.25800213686125
 20
679.05637799344731
 30
0.0
 11
754.25800213686125
 21
826.05631999344746
 31
0.0
  0
INSERT
  5
1B3A8
  8
AM_0
  2
$6-44
 10
764.25800213686125
 20
809.16535499344695
 30
0.0
 41
-1.0
 42
-1.0
 50
90.0
  0
INSERT
  5
1B3A9
  8
AM_0
  2
$6-44
 10
764.25800413686125
 20
695.94740199344722
 30
0.0
 50
270.0
  0
LINE
  5
1B3AA
  8
AM_0
 10
884.26800213686136
 20
776.47637799344704
 30
0.0
 11
762.92041213686105
 21
776.47637799344704
 31
0.0
  0
LINE
  5
1B3AB
  8
AM_0
 10
887.58800213686129
 20
756.54637799344732
 30
0.0
 11
763.26408913686123
 21
756.54637799344732
 31
0.0
  0
LINE
  5
1B3AC
  8
AM_0
 10
916.25800213686114
 20
786.40637799344745
 30
0.0
 11
762.75278513686123
 21
786.40637799344745
 31
0.0
  0
LINE
  5
1B3AD
  8
AM_0
 10
916.25800213686114
 20
718.70637799344695
 30
0.0
 11
762.75278513686123
 21
718.70637799344695
 31
0.0
  0
LINE
  5
1B3AE
  8
AM_0
 10
884.26800213686136
 20
728.63637799344735
 30
0.0
 11
762.92041213686105
 21
728.63637799344735
 31
0.0
  0
INSERT
  5
1B3BF
  8
AM_0
  2
$6-44
 10
764.2579441368614
 20
400.68578834741129
 30
0.0
 41
-1.0
 42
-1.0
 50
90.0
  0
INSERT
  5
1B3C0
  8
AM_0
  2
$6-44
 10
764.2579421368614
 20
287.46783534741138
 30
0.0
 50
270.0
  0
LINE
  5
1B3C2
  8
AM_0
 10
224.98883142949981
 20
228.57652922917941
 30
0.0
 11
152.98882742949979
 21
228.57652922917941
 31
0.0
  0
LINE
  5
1B3C6
  8
AM_0
 10
165.35883742949991
 20
238.23769467379199
 30
0.0
 11
165.35883742949991
 21
228.57652922917941
 31
0.0
  0
LINE
  5
1B3C8
  8
AM_0
 10
152.98882742949979
 20
228.57652922917941
 30
0.0
 11
152.98882742949979
 21
238.4536171929181
 31
0.0
  0
LINE
  5
1B3CA
  8
AM_0
 10
155.4888474294998
 20
228.57652922917941
 30
0.0
 11
155.4888474294998
 21
238.409978536501
 31
0.0
  0
LINE
  5
1B3CE
  8
AM_0
 10
212.61884742949991
 20
228.57652922917941
 30
0.0
 11
212.61884742949991
 21
237.41275593783951
 31
0.0
  0
LINE
  5
1B3CF
  8
AM_0
 10
224.98883142949981
 20
237.19683387255191
 30
0.0
 11
224.98883142949981
 21
228.57652922917941
 31
0.0
  0
LINE
  5
1B3D2
  8
AM_0
 10
222.4888234294998
 20
228.57652922917941
 30
0.0
 11
222.4888234294998
 21
237.24047231950499
 31
0.0
  0
LINE
  5
1B549
  8
AM_0
 10
754.25794213686152
 20
270.57676993779819
 30
0.0
 11
754.25794213686152
 21
417.57677493779829
 31
0.0
  0
ARC
  5
1B54A
  8
AM_0
 10
916.23906713686142
 20
265.6018399377981
 30
0.0
 40
2.0
 50
90.0
 51
119.68830299999949
  0
LINE
  5
1B54B
  8
AM_0
 10
926.25794213686129
 20
267.6018399377981
 30
0.0
 11
916.23906713686142
 21
267.6018399377981
 31
0.0
  0
ARC
  5
1B54C
  8
AM_0
 10
918.18331513686144
 20
268.3077119377981
 30
0.0
 40
2.0
 50
90.0
 51
168.91503000000159
  0
LINE
  5
1B54D
  8
AM_0
 10
926.25794213686129
 20
270.3077119377981
 30
0.0
 11
918.18331513686144
 21
270.3077119377981
 31
0.0
  0
ARC
  5
1B54E
  8
AM_0
 10
914.2579421368614
 20
269.07676993779819
 30
0.0
 40
2.0
 50
270.0
 51
0.000000000000007
  0
ARC
  5
1B54F
  8
AM_0
 10
914.2579421368614
 20
277.57677393779818
 30
0.0
 40
2.0
 50
270.0
 51
0.000000000000007
  0
LINE
  5
1B550
  8
AM_0
 10
916.25794213686129
 20
291.2772569377982
 30
0.0
 11
916.25794213686129
 21
269.07676993779819
 31
0.0
  0
LINE
  5
1B551
  8
AM_0
 10
926.25794213686129
 20
289.88947293779819
 30
0.0
 11
916.25794213686129
 21
289.88947293779819
 31
0.0
  0
LINE
  5
1B552
  8
AM_0
 10
926.25794213686129
 20
278.31277793779827
 30
0.0
 11
916.25794213686129
 21
278.31277793779827
 31
0.0
  0
LINE
  5
1B553
  8
AM_0
 10
926.25794213686129
 20
272.25261493779823
 30
0.0
 11
916.25794213686129
 21
272.25261493779823
 31
0.0
  0
ARC
  5
1B554
  8
AM_0
 10
766.25794413686117
 20
277.5767659377982
 30
0.0
 40
2.0
 50
180.00000200000281
 51
270.00000200000278
  0
LINE
  5
1B555
  8
AM_0
 10
914.2579421368614
 20
293.2772569377982
 30
0.0
 11
766.25794513686162
 21
293.2772569377982
 31
0.0
  0
LINE
  5
1B556
  8
AM_0
 10
914.2579421368614
 20
275.57677393779818
 30
0.0
 11
766.25224113686136
 21
275.57677393779818
 31
0.0
  0
LINE
  5
1B557
  8
AM_0
 10
764.2579421368614
 20
270.57676993779819
 30
0.0
 11
754.25794513686162
 21
270.57676993779819
 31
0.0
  0
LINE
  5
1B558
  8
AM_0
 10
763.2579421368614
 20
281.03796193779817
 30
0.0
 11
754.2579441368614
 21
281.03796193779817
 31
0.0
  0
LINE
  5
1B559
  8
AM_0
 10
916.25794213686129
 20
419.02955793779802
 30
0.0
 11
916.25794213686129
 21
415.9907539377981
 31
0.0
  0
ARC
  5
1B55A
  8
AM_0
 10
914.2579421368614
 20
410.57677393779818
 30
0.0
 40
2.0
 50
0.000000000000007
 51
90.0
  0
LINE
  5
1B55B
  8
AM_0
 10
926.25794213686129
 20
398.35137093779821
 30
0.0
 11
916.25794213686129
 21
398.35137093779821
 31
0.0
  0
LINE
  5
1B55C
  8
AM_0
 10
926.25794213686129
 20
409.91738993779842
 30
0.0
 11
916.25794213686129
 21
409.91738993779842
 31
0.0
  0
LINE
  5
1B55D
  8
AM_0
 10
926.25794213686129
 20
415.9907539377981
 30
0.0
 11
916.25794213686129
 21
415.9907539377981
 31
0.0
  0
LINE
  5
1B55E
  8
AM_0
 10
916.25794213686129
 20
420.55501593779798
 30
0.0
 11
916.25794213686129
 21
419.9517399377981
 31
0.0
  0
ARC
  5
1B55F
  8
AM_0
 10
914.2579421368614
 20
419.02955793779802
 30
0.0
 40
2.0
 50
0.000000000000007
 51
90.0
  0
LINE
  5
1B560
  8
AM_0
 10
926.25794213686129
 20
421.96991493779808
 30
0.0
 11
917.77727113686137
 21
421.96991493779808
 31
0.0
  0
LINE
  5
1B561
  8
AM_0
 10
926.25794213686129
 20
420.65540293779782
 30
0.0
 11
918.10663113686121
 21
420.65540293779782
 31
0.0
  0
ARC
  5
1B562
  8
AM_0
 10
918.10663113686121
 20
422.65540293779799
 30
0.0
 40
2.0
 50
195.8096260000016
 51
270.0
  0
ARC
  5
1B563
  8
AM_0
 10
914.2579421368614
 20
421.56563593779788
 30
0.0
 40
2.0
 50
15.8096260000016
 51
90.0
  0
ARC
  5
1B564
  8
AM_0
 10
917.77727113686137
 20
423.96991493779808
 30
0.0
 40
2.0
 50
208.37785700000379
 51
270.0
  0
ARC
  5
1B565
  8
AM_0
 10
914.2579421368614
 20
422.06877793779807
 30
0.0
 40
2.0
 50
28.377856000001199
 51
90.0
  0
ARC
  5
1B566
  8
AM_0
 10
766.25794213686117
 20
410.57677393779818
 30
0.0
 40
2.0
 50
90.0
 51
180.0
  0
ARC
  5
1B567
  8
AM_0
 10
767.38543413686125
 20
419.02955793779802
 30
0.0
 40
2.0
 50
90.0
 51
164.99999999999889
  0
LINE
  5
1B568
  8
AM_0
 10
762.25794213686117
 20
407.62090393779818
 30
0.0
 11
765.45358213686154
 21
419.54719593779811
 31
0.0
  0
ARC
  5
1B569
  8
AM_0
 10
766.42091813686136
 20
420.55501593779798
 30
0.0
 40
2.0
 50
90.0
 51
164.99999999999889
  0
LINE
  5
1B56A
  8
AM_0
 10
762.25794213686117
 20
412.74598693779808
 30
0.0
 11
764.48906613686154
 21
421.07265493779812
 31
0.0
  0
ARC
  5
1B56B
  8
AM_0
 10
765.87322413686161
 20
421.56563593779788
 30
0.0
 40
2.0
 50
90.0
 51
164.99999999999889
  0
LINE
  5
1B56C
  8
AM_0
 10
762.25794213686117
 20
415.80062393779809
 30
0.0
 11
763.94137313686144
 21
422.08327393779808
 31
0.0
  0
ARC
  5
1B56D
  8
AM_0
 10
765.59219013686152
 20
422.06877793779807
 30
0.0
 40
2.0
 50
90.0
 51
164.99999999999889
  0
LINE
  5
1B56E
  8
AM_0
 10
762.25794213686117
 20
417.35260193779811
 30
0.0
 11
763.66033813686136
 21
422.58641693779828
 31
0.0
  0
ARC
  5
1B56F
  8
AM_0
 10
918.25794213686129
 20
419.9517399377981
 30
0.0
 40
2.0
 50
180.0
 51
270.0
  0
ARC
  5
1B570
  8
AM_0
 10
914.2579421368614
 20
420.55501593779798
 30
0.0
 40
2.0
 50
0.000000000000007
 51
90.0
  0
LINE
  5
1B571
  8
AM_0
 10
926.25794213686129
 20
417.9517399377981
 30
0.0
 11
918.25794213686129
 21
417.9517399377981
 31
0.0
  0
LINE
  5
1B572
  8
AM_0
 10
916.25794213686129
 20
415.9907539377981
 30
0.0
 11
916.25794213686129
 21
396.94810993779822
 31
0.0
  0
LINE
  5
1B573
  8
AM_0
 10
763.2579421368614
 20
407.11557793779809
 30
0.0
 11
754.25794213686152
 21
407.11557793779809
 31
0.0
  0
LINE
  5
1B574
  8
AM_0
 10
914.2579421368614
 20
394.94810993779822
 30
0.0
 11
766.25794213686117
 21
394.94810993779822
 31
0.0
  0
LINE
  5
1B575
  8
AM_0
 10
914.2579421368614
 20
424.06877793779807
 30
0.0
 11
765.59219013686152
 21
424.06877793779807
 31
0.0
  0
LINE
  5
1B576
  8
AM_0
 10
914.2579421368614
 20
412.57677393779812
 30
0.0
 11
766.25794213686117
 21
412.57677393779812
 31
0.0
  0
LINE
  5
1B577
  8
AM_0
 10
914.2579421368614
 20
421.02955793779802
 30
0.0
 11
767.38543413686125
 21
421.02955793779802
 31
0.0
  0
LINE
  5
1B578
  8
AM_0
 10
914.2579421368614
 20
422.55501593779809
 30
0.0
 11
766.42091813686136
 21
422.55501593779809
 31
0.0
  0
LINE
  5
1B579
  8
AM_0
 10
914.2579421368614
 20
423.56563593779822
 30
0.0
 11
765.87322413686161
 21
423.56563593779822
 31
0.0
  0
LINE
  5
1B57A
  8
AM_0
 10
777.2579421368614
 20
267.07676993779819
 30
0.0
 11
777.2579421368614
 21
265.07676993779819
 31
0.0
  0
LINE
  5
1B57B
  8
AM_0
 10
844.2579421368614
 20
267.07676993779819
 30
0.0
 11
844.2579421368614
 21
265.07676993779819
 31
0.0
  0
LINE
  5
1B57C
  8
AM_0
 10
844.2579421368614
 20
265.07676993779819
 30
0.0
 11
777.2579421368614
 21
265.07676993779819
 31
0.0
  0
LINE
  5
1B57D
  8
AM_0
 10
914.2579421368614
 20
267.07676993779819
 30
0.0
 11
767.47742213686138
 21
267.07676993779819
 31
0.0
  0
LINE
  5
1B57E
  8
AM_0
 10
800.7579421368614
 20
370.07676993779808
 30
0.0
 11
926.25794213686129
 21
370.07676993779808
 31
0.0
  0
LINE
  5
1B57F
  8
AM_0
 10
800.7579421368614
 20
318.07676993779819
 30
0.0
 11
926.25794213686129
 21
318.07676993779819
 31
0.0
  0
LINE
  5
1B580
  8
AM_0
 10
784.7579421368614
 20
371.07676993779808
 30
0.0
 11
784.7579421368614
 21
377.07676993779808
 31
0.0
  0
LINE
  5
1B581
  8
AM_0
 10
799.75794213686117
 20
371.07676993779808
 30
0.0
 11
799.75794213686117
 21
377.07676993779808
 31
0.0
  0
LINE
  5
1B582
  8
AM_0
 10
784.7579421368614
 20
317.07676993779819
 30
0.0
 11
784.7579421368614
 21
311.07676993779819
 31
0.0
  0
LINE
  5
1B583
  8
AM_0
 10
799.75794213686117
 20
317.07676993779819
 30
0.0
 11
799.75794213686117
 21
311.07676993779819
 31
0.0
  0
LINE
  5
1B584
  8
AM_0
 10
828.2579421368614
 20
364.57676993779808
 30
0.0
 11
828.2579421368614
 21
323.57676993779819
 31
0.0
  0
LINE
  5
1B585
  8
AM_0
 10
765.2579421368614
 20
364.57676993779808
 30
0.0
 11
765.2579421368614
 21
323.57676993779819
 31
0.0
  0
LINE
  5
1B586
  8
AM_0
 10
828.2579421368614
 20
364.57676993779808
 30
0.0
 11
765.2579421368614
 21
364.57676993779808
 31
0.0
  0
LINE
  5
1B587
  8
AM_0
 10
828.2579421368614
 20
323.57676993779819
 30
0.0
 11
765.2579421368614
 21
323.57676993779819
 31
0.0
  0
LINE
  5
1B588
  8
AM_0
 10
828.2579421368614
 20
357.07676993779808
 30
0.0
 11
765.2579421368614
 21
357.07676993779808
 31
0.0
  0
LINE
  5
1B589
  8
AM_0
 10
916.25794213686129
 20
347.07676993779808
 30
0.0
 11
916.25794213686129
 21
341.07676993779819
 31
0.0
  0
LINE
  5
1B58A
  8
AM_0
 10
765.54584213686144
 20
268.55805993779808
 30
0.0
 11
764.55793213686138
 21
272.23673993779812
 31
0.0
  0
LINE
  5
1B58B
  8
AM_0
 10
766.13392213686143
 20
268.55805993779808
 30
0.0
 11
764.55793213686138
 21
274.42677993779807
 31
0.0
  0
LINE
  5
1B58C
  8
AM_0
 10
764.2579421368614
 20
307.11854993779821
 30
0.0
 11
764.2579421368614
 21
270.57676993779819
 31
0.0
  0
LINE
  5
1B58D
  8
AM_0
 10
765.2579421368614
 20
320.07676993779819
 30
0.0
 11
926.25794213686129
 21
320.07676993779819
 31
0.0
  0
LINE
  5
1B58E
  8
AM_0
 10
765.2579421368614
 20
318.07676993779819
 30
0.0
 11
783.7579421368614
 21
318.07676993779819
 31
0.0
  0
LINE
  5
1B58F
  8
AM_0
 10
832.25794213686117
 20
328.07676993779819
 30
0.0
 11
926.25794213686129
 21
328.07676993779819
 31
0.0
  0
LINE
  5
1B590
  8
AM_0
 10
832.25794213686117
 20
330.07676993779819
 30
0.0
 11
926.25794213686129
 21
330.07676993779819
 31
0.0
  0
LINE
  5
1B591
  8
AM_0
 10
832.25794213686117
 20
338.07676993779819
 30
0.0
 11
926.25794213686129
 21
338.07676993779819
 31
0.0
  0
LINE
  5
1B592
  8
AM_0
 10
832.25794213686117
 20
340.07676993779819
 30
0.0
 11
915.2579421368614
 21
340.07676993779819
 31
0.0
  0
LINE
  5
1B593
  8
AM_0
 10
765.2579421368614
 20
298.07676993779819
 30
0.0
 11
926.25794213686129
 21
298.07676993779819
 31
0.0
  0
LINE
  5
1B594
  8
AM_0
 10
765.2579421368614
 20
310.07676993779819
 30
0.0
 11
926.25794213686129
 21
310.07676993779819
 31
0.0
  0
LINE
  5
1B595
  8
AM_0
 10
765.2579421368614
 20
308.07676993779819
 30
0.0
 11
926.25794213686129
 21
308.07676993779819
 31
0.0
  0
LINE
  5
1B596
  8
AM_0
 10
765.2579421368614
 20
300.07676993779819
 30
0.0
 11
926.25794213686129
 21
300.07676993779819
 31
0.0
  0
LINE
  5
1B597
  8
AM_0
 10
765.2579421368614
 20
388.07676993779808
 30
0.0
 11
926.25794213686129
 21
388.07676993779808
 31
0.0
  0
LINE
  5
1B598
  8
AM_0
 10
765.2579421368614
 20
380.07676993779808
 30
0.0
 11
926.25794213686129
 21
380.07676993779808
 31
0.0
  0
LINE
  5
1B599
  8
AM_0
 10
765.2579421368614
 20
378.07676993779808
 30
0.0
 11
926.25794213686129
 21
378.07676993779808
 31
0.0
  0
LINE
  5
1B59A
  8
AM_0
 10
765.2579421368614
 20
390.07676993779808
 30
0.0
 11
926.25794213686129
 21
390.07676993779808
 31
0.0
  0
LINE
  5
1B59B
  8
AM_0
 10
832.25794213686117
 20
348.07676993779808
 30
0.0
 11
915.2579421368614
 21
348.07676993779808
 31
0.0
  0
LINE
  5
1B59C
  8
AM_0
 10
832.25794213686117
 20
350.07676993779808
 30
0.0
 11
926.25794213686129
 21
350.07676993779808
 31
0.0
  0
LINE
  5
1B59D
  8
AM_0
 10
832.25794213686117
 20
358.07676993779819
 30
0.0
 11
926.25794213686129
 21
358.07676993779819
 31
0.0
  0
LINE
  5
1B59E
  8
AM_0
 10
832.25794213686117
 20
360.07676993779819
 30
0.0
 11
926.25794213686129
 21
360.07676993779819
 31
0.0
  0
LINE
  5
1B59F
  8
AM_0
 10
765.2579421368614
 20
370.07676993779808
 30
0.0
 11
783.7579421368614
 21
370.07676993779808
 31
0.0
  0
LINE
  5
1B5A0
  8
AM_0
 10
765.2579421368614
 20
368.07676993779808
 30
0.0
 11
926.25794213686129
 21
368.07676993779808
 31
0.0
  0
LINE
  5
1B5A1
  8
AM_0
 10
764.2579421368614
 20
381.03498993779817
 30
0.0
 11
764.2579421368614
 21
410.57677393779818
 31
0.0
  0
ARC
  5
1B5A2
  8
AM_0
 10
767.47742213686138
 20
269.07676993779819
 30
0.0
 40
2.0
 50
195.03168999999829
 51
270.000010000001
  0
ARC
  5
1B5A3
  8
AM_0
 10
768.06550213686137
 20
269.07676993779819
 30
0.0
 40
2.0
 50
195.03168999999829
 51
270.000010000001
  0
ARC
  5
1B5A4
  8
AM_0
 10
783.7579421368614
 20
311.07676993779819
 30
0.0
 40
1.0
 50
270.0
 51
0.0000100000010134
  0
ARC
  5
1B5A5
  8
AM_0
 10
800.7579421368614
 20
311.07676993779819
 30
0.0
 40
1.0
 50
179.99999899999861
 51
270.000010000001
  0
ARC
  5
1B5A6
  8
AM_0
 10
800.7579421368614
 20
377.07676993779808
 30
0.0
 40
1.0
 50
89.999997000002296
 51
180.0
  0
ARC
  5
1B5A7
  8
AM_0
 10
783.7579421368614
 20
377.07676993779808
 30
0.0
 40
1.0
 50
359.999989999999
 51
89.999997000002296
  0
ARC
  5
1B5A8
  8
AM_0
 10
783.7579421368614
 20
317.07676993779819
 30
0.0
 40
1.0
 50
359.999989999999
 51
89.999997000002296
  0
ARC
  5
1B5A9
  8
AM_0
 10
800.7579421368614
 20
317.07676993779819
 30
0.0
 40
1.0
 50
89.999997000002296
 51
180.0
  0
ARC
  5
1B5AA
  8
AM_0
 10
783.7579421368614
 20
371.07676993779808
 30
0.0
 40
1.0
 50
270.0
 51
0.0000100000010134
  0
ARC
  5
1B5AB
  8
AM_0
 10
800.7579421368614
 20
371.07676993779808
 30
0.0
 40
1.0
 50
179.99999899999861
 51
270.000010000001
  0
CIRCLE
  5
1B5AC
  8
AM_0
 10
789.7579421368614
 20
372.57676993779819
 30
0.0
 40
1.0
  0
CIRCLE
  5
1B5AD
  8
AM_0
 10
794.75794213686129
 20
372.57676993779819
 30
0.0
 40
1.149999999999999
  0
CIRCLE
  5
1B5AE
  8
AM_0
 10
794.75794213686129
 20
372.57676993779819
 30
0.0
 40
1.1000000000000001
  0
CIRCLE
  5
1B5AF
  8
AM_0
 10
794.75794213686129
 20
315.57676993779819
 30
0.0
 40
1.1000000000000001
  0
CIRCLE
  5
1B5B0
  8
AM_0
 10
794.75794213686129
 20
315.57676993779819
 30
0.0
 40
1.149999999999999
  0
CIRCLE
  5
1B5B1
  8
AM_0
 10
789.7579421368614
 20
315.57676993779819
 30
0.0
 40
1.0
  0
ARC
  5
1B5B2
  8
AM_0
 10
832.25794213686117
 20
359.07676993779808
 30
0.0
 40
1.0
 50
89.999997000002296
 51
270.000010000001
  0
ARC
  5
1B5B3
  8
AM_0
 10
832.25794213686117
 20
349.07676993779808
 30
0.0
 40
1.0
 50
89.999997000002296
 51
270.000010000001
  0
ARC
  5
1B5B4
  8
AM_0
 10
832.25794213686117
 20
339.07676993779819
 30
0.0
 40
1.0
 50
89.999997000002296
 51
270.000010000001
  0
ARC
  5
1B5B5
  8
AM_0
 10
832.25794213686117
 20
329.07676993779819
 30
0.0
 40
1.0
 50
89.999997000002296
 51
270.000010000001
  0
ARC
  5
1B5B6
  8
AM_0
 10
767.20795213686142
 20
309.07676993779819
 30
0.0
 40
1.0
 50
89.999997000002296
 51
270.000010000001
  0
ARC
  5
1B5B7
  8
AM_0
 10
765.2579421368614
 20
309.07676993779819
 30
0.0
 40
1.0
 50
89.999997000002296
 51
270.000010000001
  0
ARC
  5
1B5B8
  8
AM_0
 10
767.20795213686142
 20
319.07676993779819
 30
0.0
 40
1.0
 50
89.999997000002296
 51
270.000010000001
  0
ARC
  5
1B5B9
  8
AM_0
 10
765.2579421368614
 20
319.07676993779819
 30
0.0
 40
1.0
 50
89.999997000002296
 51
270.000010000001
  0
ARC
  5
1B5BA
  8
AM_0
 10
767.20795213686142
 20
369.07676993779808
 30
0.0
 40
1.0
 50
89.999997000002296
 51
270.000010000001
  0
ARC
  5
1B5BB
  8
AM_0
 10
765.2579421368614
 20
369.07676993779808
 30
0.0
 40
1.0
 50
89.999997000002296
 51
270.000010000001
  0
ARC
  5
1B5BC
  8
AM_0
 10
767.20795213686142
 20
379.07676993779808
 30
0.0
 40
1.0
 50
89.999997000002296
 51
270.000010000001
  0
ARC
  5
1B5BD
  8
AM_0
 10
765.2579421368614
 20
379.07676993779808
 30
0.0
 40
1.0
 50
89.999997000002296
 51
270.000010000001
  0
ARC
  5
1B5BE
  8
AM_0
 10
915.2579421368614
 20
347.07676993779808
 30
0.0
 40
1.0
 50
359.999989999999
 51
89.999997000002296
  0
ARC
  5
1B5BF
  8
AM_0
 10
915.2579421368614
 20
341.07676993779819
 30
0.0
 40
1.0
 50
270.0
 51
0.0000100000010134
  0
ARC
  5
1B5C0
  8
AM_0
 10
915.25797213686155
 20
329.07676993779819
 30
0.0
 40
1.0
 50
270.0
 51
89.999997000002296
  0
ARC
  5
1B5C1
  8
AM_0
 10
915.25797213686155
 20
319.07676993779819
 30
0.0
 40
1.0
 50
270.0
 51
89.999997000002296
  0
ARC
  5
1B5C2
  8
AM_0
 10
767.20795213686142
 20
299.07676993779819
 30
0.0
 40
1.0
 50
89.999997000002296
 51
270.000010000001
  0
ARC
  5
1B5C3
  8
AM_0
 10
765.2579421368614
 20
299.07676993779819
 30
0.0
 40
1.0
 50
89.999997000002296
 51
270.000010000001
  0
ARC
  5
1B5C4
  8
AM_0
 10
915.25797213686155
 20
299.07676993779819
 30
0.0
 40
1.0
 50
270.0
 51
89.999997000002296
  0
ARC
  5
1B5C5
  8
AM_0
 10
915.25797213686155
 20
309.07676993779819
 30
0.0
 40
1.0
 50
270.0
 51
89.999997000002296
  0
ARC
  5
1B5C6
  8
AM_0
 10
763.11188213686125
 20
271.85636993779832
 30
0.0
 40
1.4952499999999991
 50
14.7373999999979
 51
39.962349999997052
  0
ARC
  5
1B5C7
  8
AM_0
 10
763.1169521368613
 20
274.03226993779822
 30
0.0
 40
1.4940209999999989
 50
15.30965999999955
 51
40.207419999999502
  0
ARC
  5
1B5C8
  8
AM_0
 10
763.11378213686146
 20
417.84382993779798
 30
0.0
 40
1.495147999999999
 50
344.99378700000182
 51
344.99811000000329
  0
ARC
  5
1B5C9
  8
AM_0
 10
915.25797213686155
 20
379.07676993779808
 30
0.0
 40
1.0
 50
270.0
 51
89.999997000002296
  0
ARC
  5
1B5CA
  8
AM_0
 10
915.25797213686155
 20
389.07676993779808
 30
0.0
 40
1.0
 50
270.0
 51
89.999997000002296
  0
ARC
  5
1B5CB
  8
AM_0
 10
765.2579421368614
 20
389.07676993779808
 30
0.0
 40
1.0
 50
89.999997000002296
 51
270.000010000001
  0
ARC
  5
1B5CC
  8
AM_0
 10
767.20795213686142
 20
389.07676993779808
 30
0.0
 40
1.0
 50
89.999997000002296
 51
270.000010000001
  0
ARC
  5
1B5CD
  8
AM_0
 10
915.25797213686155
 20
369.07676993779808
 30
0.0
 40
1.0
 50
270.0
 51
89.999997000002296
  0
ARC
  5
1B5CE
  8
AM_0
 10
915.25797213686155
 20
359.07676993779808
 30
0.0
 40
1.0
 50
270.0
 51
89.999997000002296
  0
LINE
  5
1B5CF
  8
AM_0
 10
756.55794213755178
 20
417.57677493779829
 30
0.0
 11
762.31800913686152
 21
417.57677493779829
 31
0.0
  0
LINE
  5
1B5D0
  8
ﾁｭｳｼﾝｾﾝ1
 10
810.7579421368614
 20
272.16148593779832
 30
0.0
 11
810.7579421368614
 21
258.17466393779819
 31
0.0
  0
POINT
  5
1B5D1
  8
AM_0
 10
810.7579421368614
 20
262.07676993779819
 30
0.0
  0
LINE
  5
1B5D2
  8
AM_0
 10
768.00794213686117
 20
262.57676993779819
 30
0.0
 11
852.00794213686129
 21
262.57676993779819
 31
0.0
  0
LINE
  5
1B5D3
  8
AM_0
 10
850.40794213686149
 20
232.57676993779819
 30
0.0
 11
774.10794213686154
 21
245.57676993779819
 31
0.0
  0
LINE
  5
1B5D4
  8
AM_0
 10
850.48794213686131
 20
233.57676993779819
 30
0.0
 11
818.5079421368614
 21
239.02676993779821
 31
0.0
  0
LINE
  5
1B5D5
  8
AM_0
 10
774.60794213686154
 20
228.57676993779819
 30
0.0
 11
850.07794213686157
 21
228.57676993779819
 31
0.0
  0
LINE
  5
1B5D6
  8
AM_0
 10
773.77794213686138
 20
241.57676993779819
 30
0.0
 11
850.07794213686157
 21
228.57676993779819
 31
0.0
  0
LINE
  5
1B5D7
  8
ﾁｭｳｼﾝｾﾝ1
 10
848.6567571368613
 20
246.57676993779819
 30
0.0
 11
858.80762113686137
 21
246.57676993779819
 31
0.0
  0
ARC
  5
1B5D8
  8
AM_0
 10
854.70057513686152
 20
237.26940293779811
 30
0.0
 40
0.307456
 50
1.373079999999403
 51
88.626920000000638
  0
ARC
  5
1B5D9
  8
AM_0
 10
853.5078971368614
 20
230.07681493779819
 30
0.0
 40
1.5000450000000001
 50
270.00171900000259
 51
359.99828099999741
  0
ARC
  5
1B5DA
  8
AM_0
 10
853.80802413686138
 20
237.27668793779819
 30
0.0
 40
0.300082
 50
90.015733000000253
 51
179.9842669999997
  0
ARC
  5
1B5DB
  8
AM_0
 10
854.2005751368614
 20
232.26940293779811
 30
0.0
 40
0.307456
 50
1.373079999999403
 51
88.626920000000638
  0
ARC
  5
1B5DC
  8
AM_0
 10
853.00789713686129
 20
230.07681493779819
 30
0.0
 40
1.5000450000000001
 50
270.00171900000259
 51
359.99828099999741
  0
ARC
  5
1B5DD
  8
AM_0
 10
854.2005751368614
 20
233.26940293779811
 30
0.0
 40
0.307456
 50
1.373079999999403
 51
88.626920000000638
  0
ARC
  5
1B5DE
  8
AM_0
 10
852.00053213686135
 20
261.56935993779831
 30
0.0
 40
1.0074369999999999
 50
0.42143799999811
 51
89.578562000001924
  0
LINE
  5
1B5DF
  8
AM_0
 10
853.5079421368614
 20
228.57676993779819
 30
0.0
 11
853.20794213686145
 21
228.57676993779819
 31
0.0
  0
LINE
  5
1B5E0
  8
AM_0
 10
855.0079421368614
 20
237.27676993779821
 30
0.0
 11
855.0079421368614
 21
230.07676993779819
 31
0.0
  0
LINE
  5
1B5E1
  8
AM_0
 10
854.20794213686122
 20
237.57676993779819
 30
0.0
 11
854.70794213686145
 21
237.57676993779819
 31
0.0
  0
LINE
  5
1B5E2
  8
AM_0
 10
853.80794213686136
 20
237.57676993779819
 30
0.0
 11
854.20794213686122
 21
237.57676993779819
 31
0.0
  0
LINE
  5
1B5E3
  8
AM_0
 10
854.5079421368614
 20
232.27676993779821
 30
0.0
 11
854.5079421368614
 21
230.07676993779819
 31
0.0
  0
LINE
  5
1B5E4
  8
AM_0
 10
853.00794213686129
 20
228.57676993779819
 30
0.0
 11
850.07794213686157
 21
228.57676993779819
 31
0.0
  0
LINE
  5
1B5E5
  8
AM_0
 10
853.30794213686113
 20
238.37676993779809
 30
0.0
 11
853.10794213686142
 21
238.57676993779819
 31
0.0
  0
LINE
  5
1B5E6
  8
AM_0
 10
854.5079421368614
 20
233.27676993779821
 30
0.0
 11
854.5079421368614
 21
232.57676993779819
 31
0.0
  0
LINE
  5
1B5E7
  8
AM_0
 10
850.48794213686131
 20
233.57676993779819
 30
0.0
 11
854.20794213686122
 21
233.57676993779819
 31
0.0
  0
LINE
  5
1B5E8
  8
AM_0
 10
853.00794213686129
 20
261.57676993779819
 30
0.0
 11
853.00794213686129
 21
238.57676993779819
 31
0.0
  0
LINE
  5
1B5E9
  8
AM_0
 10
853.30794213686113
 20
233.57676993779819
 30
0.0
 11
853.30794213686113
 21
234.5667699377982
 31
0.0
  0
LINE
  5
1B5EA
  8
AM_0
 10
853.00794213686129
 20
238.57676993779819
 30
0.0
 11
853.00794213686129
 21
233.57676993779819
 31
0.0
  0
LINE
  5
1B5EB
  8
AM_0
 10
853.30794213686113
 20
234.5667699377982
 30
0.0
 11
853.5079421368614
 21
234.5667699377982
 31
0.0
  0
LINE
  5
1B5EC
  8
AM_0
 10
853.30794213686113
 20
234.5667699377982
 30
0.0
 11
853.30794213686113
 21
235.76676993779819
 31
0.0
  0
LINE
  5
1B5ED
  8
AM_0
 10
853.5079421368614
 20
235.76676993779819
 30
0.0
 11
853.30794213686113
 21
235.76676993779819
 31
0.0
  0
LINE
  5
1B5EE
  8
AM_0
 10
853.30794213686113
 20
235.76676993779819
 30
0.0
 11
853.30794213686113
 21
238.37676993779809
 31
0.0
  0
LINE
  5
1B5EF
  8
AM_0
 10
853.10794213686142
 20
238.57676993779819
 30
0.0
 11
853.00794213686129
 21
238.57676993779819
 31
0.0
  0
LINE
  5
1B5F0
  8
AM_0
 10
854.5079421368614
 20
232.57676993779819
 30
0.0
 11
850.40794213686149
 21
232.57676993779819
 31
0.0
  0
LINE
  5
1B5F1
  8
AM_0
 10
853.5079421368614
 20
233.57676993779819
 30
0.0
 11
853.5079421368614
 21
237.27676993779821
 31
0.0
  0
LINE
  5
1B5F2
  8
AM_0
 10
767.0079421368614
 20
242.07676993779819
 30
0.0
 11
767.0079421368614
 21
261.57676993779819
 31
0.0
  0
LINE
  5
1B5F3
  8
AM_0
 10
847.20794213686145
 20
262.57676993779819
 30
0.0
 11
847.20794213686145
 21
245.57676993779819
 31
0.0
  0
LINE
  5
1B5F4
  8
AM_0
 10
780.72794213686143
 20
245.4567699377981
 30
0.0
 11
780.72794213686143
 21
262.57676993779819
 31
0.0
  0
LINE
  5
1B5F5
  8
AM_0
 10
828.60794213686154
 20
262.57676993779819
 30
0.0
 11
828.60794213686154
 21
245.57676993779819
 31
0.0
  0
ARC
  5
1B5F6
  8
AM_0
 10
774.60052313686163
 20
231.0693519377983
 30
0.0
 40
2.4925929999999981
 50
179.82947499999719
 51
270.17052500000273
  0
ARC
  5
1B5F7
  8
AM_0
 10
771.6005231368614
 20
241.0693519377983
 30
0.0
 40
0.507473
 50
0.8376109999979133
 51
89.162389000002094
  0
CIRCLE
  5
1B5F8
  8
AM_0
 10
788.90053713686143
 20
245.5693869377983
 30
0.0
 40
0.75
  0
CIRCLE
  5
1B5F9
  8
AM_0
 10
837.90053013686122
 20
245.5693869377983
 30
0.0
 40
6.299999999999998
  0
ARC
  5
1B5FA
  8
AM_0
 10
837.90794213686149
 20
245.57676993779819
 30
0.0
 40
9.3000030000000002
 50
180.0
 51
0.000000000000007
  0
LINE
  5
1B5FB
  8
ﾁｭｳｼﾝｾﾝ1
 10
837.90794213686149
 20
237.90676993779809
 30
0.0
 11
837.90794213686149
 21
253.60676993779819
 31
0.0
  0
LINE
  5
1B5FC
  8
ﾁｭｳｼﾝｾﾝ1
 10
830.14794213686162
 20
245.57676993779819
 30
0.0
 11
845.35794213686154
 21
245.57676993779819
 31
0.0
  0
LINE
  5
1B5FD
  8
AM_0
 10
782.37794213686152
 20
228.57676993779819
 30
0.0
 11
782.37794213686152
 21
240.10676993779819
 31
0.0
  0
LINE
  5
1B5FE
  8
AM_0
 10
781.5079421368614
 20
240.2567699377982
 30
0.0
 11
781.5079421368614
 21
244.3167699377982
 31
0.0
  0
LINE
  5
1B5FF
  8
AM_0
 10
767.50794213686129
 20
241.57676993779819
 30
0.0
 11
773.77794213686138
 21
241.57676993779819
 31
0.0
  0
LINE
  5
1B600
  8
AM_0
 10
772.10794213686154
 20
241.07676993779819
 30
0.0
 11
772.10794213686154
 21
231.07676993779819
 31
0.0
  0
LINE
  5
1B601
  8
AM_0
 10
816.50794213686129
 20
239.3667699377981
 30
0.0
 11
814.30794213686136
 21
239.7367699377983
 31
0.0
  0
LINE
  5
1B602
  8
AM_0
 10
812.80794213686136
 20
239.99676993779829
 30
0.0
 11
810.60794213686154
 21
240.36676993779821
 31
0.0
  0
LINE
  5
1B603
  8
AM_0
 10
809.10794213686154
 20
240.62676993779809
 30
0.0
 11
806.90794213686161
 21
240.99676993779829
 31
0.0
  0
LINE
  5
1B604
  8
AM_0
 10
804.90794213686149
 20
241.33676993779821
 30
0.0
 11
803.20794213686145
 21
241.6267699377982
 31
0.0
  0
LINE
  5
1B605
  8
AM_0
 10
801.70794213686145
 20
241.88676993779811
 30
0.0
 11
799.49794213686141
 21
242.2567699377982
 31
0.0
  0
LINE
  5
1B606
  8
AM_0
 10
797.9979421368613
 20
242.5167699377983
 30
0.0
 11
795.79794213686125
 21
242.8967699377981
 31
0.0
  0
LINE
  5
1B607
  8
AM_0
 10
794.29794213686137
 20
243.1467699377981
 30
0.0
 11
792.09794213686155
 21
243.52676993779821
 31
0.0
  0
LINE
  5
1B608
  8
AM_0
 10
790.59794213686155
 20
243.77676993779821
 30
0.0
 11
774.18794213686135
 21
246.57676993779819
 31
0.0
  0
LINE
  5
1B609
  8
AM_0
 10
767.0079421368614
 20
246.57676993779819
 30
0.0
 11
774.18794213686135
 21
246.57676993779819
 31
0.0
  0
LINE
  5
1B60A
  8
AM_0
 10
790.59794213686155
 20
243.77676993779821
 30
0.0
 11
790.59794213686155
 21
257.57676993779819
 31
0.0
  0
LINE
  5
1B60B
  8
AM_0
 10
790.59794213686155
 20
257.57676993779819
 30
0.0
 11
792.09794213686155
 21
257.57676993779819
 31
0.0
  0
LINE
  5
1B60C
  8
AM_0
 10
792.09794213686155
 20
257.57676993779819
 30
0.0
 11
792.09794213686155
 21
243.52676993779821
 31
0.0
  0
LINE
  5
1B60D
  8
AM_0
 10
794.29794213686137
 20
243.1467699377981
 30
0.0
 11
794.29794213686137
 21
257.57676993779819
 31
0.0
  0
LINE
  5
1B60E
  8
AM_0
 10
794.29794213686137
 20
257.57676993779819
 30
0.0
 11
795.79794213686125
 21
257.57676993779819
 31
0.0
  0
LINE
  5
1B60F
  8
AM_0
 10
795.79794213686125
 20
257.57676993779819
 30
0.0
 11
795.79794213686125
 21
242.8967699377981
 31
0.0
  0
LINE
  5
1B610
  8
AM_0
 10
797.9979421368613
 20
242.5167699377983
 30
0.0
 11
797.9979421368613
 21
257.57676993779819
 31
0.0
  0
LINE
  5
1B611
  8
AM_0
 10
797.9979421368613
 20
257.57676993779819
 30
0.0
 11
799.49794213686141
 21
257.57676993779819
 31
0.0
  0
LINE
  5
1B612
  8
AM_0
 10
799.49794213686141
 20
257.57676993779819
 30
0.0
 11
799.49794213686141
 21
242.2567699377982
 31
0.0
  0
LINE
  5
1B613
  8
AM_0
 10
801.70794213686145
 20
241.88676993779811
 30
0.0
 11
801.70794213686145
 21
257.57676993779819
 31
0.0
  0
LINE
  5
1B614
  8
AM_0
 10
801.70794213686145
 20
257.57676993779819
 30
0.0
 11
803.20794213686145
 21
257.57676993779819
 31
0.0
  0
LINE
  5
1B615
  8
AM_0
 10
803.20794213686145
 20
257.57676993779819
 30
0.0
 11
803.20794213686145
 21
241.6267699377982
 31
0.0
  0
LINE
  5
1B616
  8
AM_0
 10
804.90794213686149
 20
241.33676993779821
 30
0.0
 11
804.90794213686149
 21
254.86676993779821
 31
0.0
  0
LINE
  5
1B617
  8
AM_0
 10
805.60794213686154
 20
257.57676993779819
 30
0.0
 11
806.90794213686161
 21
257.57676993779819
 31
0.0
  0
LINE
  5
1B618
  8
AM_0
 10
806.90794213686161
 20
257.57676993779819
 30
0.0
 11
806.90794213686161
 21
240.99676993779829
 31
0.0
  0
LINE
  5
1B619
  8
AM_0
 10
809.10794213686154
 20
240.62676993779809
 30
0.0
 11
809.10794213686154
 21
257.57676993779819
 31
0.0
  0
LINE
  5
1B61A
  8
AM_0
 10
809.10794213686154
 20
257.57676993779819
 30
0.0
 11
810.60794213686154
 21
257.57676993779819
 31
0.0
  0
LINE
  5
1B61B
  8
AM_0
 10
810.60794213686154
 20
257.57676993779819
 30
0.0
 11
810.60794213686154
 21
240.36676993779821
 31
0.0
  0
LINE
  5
1B61C
  8
AM_0
 10
812.80794213686136
 20
239.99676993779829
 30
0.0
 11
812.80794213686136
 21
257.57676993779819
 31
0.0
  0
LINE
  5
1B61D
  8
AM_0
 10
812.80794213686136
 20
257.57676993779819
 30
0.0
 11
814.30794213686136
 21
257.57676993779819
 31
0.0
  0
LINE
  5
1B61E
  8
AM_0
 10
814.30794213686136
 20
257.57676993779819
 30
0.0
 11
814.30794213686136
 21
239.7367699377983
 31
0.0
  0
LINE
  5
1B61F
  8
AM_0
 10
816.50794213686129
 20
239.3667699377981
 30
0.0
 11
816.50794213686129
 21
257.57676993779819
 31
0.0
  0
LINE
  5
1B620
  8
AM_0
 10
816.50794213686129
 20
257.57676993779819
 30
0.0
 11
817.80794213686136
 21
257.57676993779819
 31
0.0
  0
LINE
  5
1B621
  8
AM_0
 10
817.80794213686136
 20
257.57676993779819
 30
0.0
 11
817.80794213686136
 21
255.52676993779821
 31
0.0
  0
LINE
  5
1B622
  8
AM_0
 10
790.59794213686155
 20
253.57676993779819
 30
0.0
 11
792.09794213686155
 21
253.57676993779819
 31
0.0
  0
LINE
  5
1B623
  8
AM_0
 10
794.29794213686137
 20
253.57676993779819
 30
0.0
 11
795.79794213686125
 21
253.57676993779819
 31
0.0
  0
LINE
  5
1B624
  8
AM_0
 10
797.9979421368613
 20
253.57676993779819
 30
0.0
 11
799.49794213686141
 21
253.57676993779819
 31
0.0
  0
LINE
  5
1B625
  8
AM_0
 10
801.70794213686145
 20
253.57676993779819
 30
0.0
 11
803.20794213686145
 21
253.57676993779819
 31
0.0
  0
LINE
  5
1B626
  8
AM_0
 10
804.90794213686149
 20
253.57676993779819
 30
0.0
 11
806.90794213686161
 21
253.57676993779819
 31
0.0
  0
LINE
  5
1B627
  8
AM_0
 10
809.10794213686154
 20
253.57676993779819
 30
0.0
 11
810.60794213686154
 21
253.57676993779819
 31
0.0
  0
LINE
  5
1B628
  8
AM_0
 10
812.80794213686136
 20
253.57676993779819
 30
0.0
 11
814.30794213686136
 21
253.57676993779819
 31
0.0
  0
LINE
  5
1B629
  8
AM_0
 10
816.50794213686129
 20
253.57676993779819
 30
0.0
 11
818.5079421368614
 21
253.57676993779819
 31
0.0
  0
LINE
  5
1B62A
  8
AM_0
 10
818.5079421368614
 20
254.86676993779821
 30
0.0
 11
818.5079421368614
 21
239.02676993779821
 31
0.0
  0
LINE
  5
1B62B
  8
AM_0
 10
817.80794213686136
 20
255.52676993779821
 30
0.0
 11
818.5079421368614
 21
254.86676993779821
 31
0.0
  0
LINE
  5
1B62C
  8
AM_0
 10
804.90794213686149
 20
254.86676993779821
 30
0.0
 11
805.60794213686154
 21
255.52676993779821
 31
0.0
  0
LINE
  5
1B62D
  8
AM_0
 10
805.60794213686154
 20
255.52676993779821
 30
0.0
 11
805.60794213686154
 21
257.57676993779819
 31
0.0
  0
LINE
  5
1B62E
  8
AM_0
 10
774.10794213686154
 20
245.57676993779819
 30
0.0
 11
767.0079421368614
 21
245.57676993779819
 31
0.0
  0
ARC
  5
1B62F
  8
AM_0
 10
767.50794213686129
 20
242.07676993779819
 30
0.0
 40
0.5
 50
180.0
 51
270.0
  0
ARC
  5
1B630
  8
AM_0
 10
768.00794213686117
 20
261.57676993779819
 30
0.0
 40
1.0
 50
90.0
 51
180.0
  0
LINE
  5
1B631
  8
AM_0
 10
844.2579421368614
 20
262.57676993779819
 30
0.0
 11
844.2579421368614
 21
265.07676993779819
 31
0.0
  0
LINE
  5
1B632
  8
AM_0
 10
777.2579421368614
 20
262.57676993779819
 30
0.0
 11
777.2579421368614
 21
265.07676993779819
 31
0.0
  0
LINE
  5
1B633
  8
AM_0
 10
1009.557942136861
 20
264.09733093779829
 30
0.0
 11
1009.557942136861
 21
424.05676993779809
 31
0.0
  0
ARC
  5
1B634
  8
AM_0
 10
1035.3738041368611
 20
416.71167093779832
 30
0.0
 40
5.7526239999999991
 50
10.0623740000004
 51
87.069124999997058
  0
LINE
  5
1B635
  8
AM_0
 10
1001.2579421368609
 20
426.07676993779808
 30
0.0
 11
926.25794213686129
 21
426.07676993779808
 31
0.0
  0
LINE
  5
1B636
  8
AM_0
 10
1001.2579421368609
 20
262.07676993779819
 30
0.0
 11
1001.2579421368609
 21
426.07676993779808
 31
0.0
  0
LINE
  5
1B637
  8
AM_0
 10
1038.487942136861
 20
270.57676993779819
 30
0.0
 11
1038.487942136861
 21
418.09676993779817
 31
0.0
  0
LINE
  5
1B638
  8
AM_0
 10
1008.307942136861
 20
424.82676993779808
 30
0.0
 11
1001.2579421368609
 21
424.82676993779808
 31
0.0
  0
LINE
  5
1B639
  8
AM_0
 10
1010.2679421368611
 20
423.78676993779811
 30
0.0
 11
1035.667942136861
 21
422.45676993779779
 31
0.0
  0
ARC
  5
1B63A
  8
AM_0
 10
1008.302605136861
 20
423.57553893779811
 30
0.0
 40
1.2512430000000001
 50
35.760896999997861
 51
89.755619999999936
  0
ARC
  5
1B63B
  8
AM_0
 10
1010.334148136861
 20
425.03551193779822
 30
0.0
 40
1.2504959999999981
 50
215.64507799999609
 51
266.96511300000299
  0
LINE
  5
1B63D
  8
AM_0
 10
1010.2679421368611
 20
264.3667699377981
 30
0.0
 11
1035.667942136861
 21
265.69676993779831
 31
0.0
  0
ARC
  5
1B63F
  8
AM_0
 10
1045.073662136861
 20
276.07760093779831
 30
0.0
 40
3.0009689999999982
 50
109.68644542807181
 51
170.03768200000101
  0
LINE
  5
1B640
  8
AM_0
 10
1042.117941136861
 20
276.59676993779817
 30
0.0
 11
1041.0379421368609
 21
270.43676993779809
 31
0.0
  0
ARC
  5
1B641
  8
AM_0
 10
1035.3799921368609
 20
271.43485893779831
 30
0.0
 40
5.745309999999999
 50
272.8728220000034
 51
349.99567800000131
  0
LINE
  5
1B642
  8
AM_0
 10
1001.2579421368609
 20
262.07676993779819
 30
0.0
 11
926.25794213686129
 21
262.07676993779819
 31
0.0
  0
LINE
  5
1B643
  8
AM_0
 10
1008.307942136861
 20
263.32676993779819
 30
0.0
 11
1001.2579421368609
 21
263.32676993779819
 31
0.0
  0
ARC
  5
1B644
  8
AM_0
 10
1008.307578136861
 20
264.56834293779821
 30
0.0
 40
1.241573
 50
270.01681600000052
 51
324.46666699999952
  0
ARC
  5
1B645
  8
AM_0
 10
1010.3392191368609
 20
263.10876393779807
 30
0.0
 40
1.260022999999999
 50
93.242827000000744
 51
144.14698200000041
  0
ARC
  5
1B646
  8
AM_0
 10
1045.073662136861
 20
412.07593893779813
 30
0.0
 40
3.0009689999999982
 50
189.96231799999899
 51
250.31355457192819
  0
LINE
  5
1B647
  8
AM_0
 10
1042.1179421368611
 20
411.55676993779809
 30
0.0
 11
1041.0379421368609
 21
417.71676993779818
 31
0.0
  0
LINE
  5
1B649
  8
AM_0
 10
926.25794213686129
 20
426.07676993779808
 30
0.0
 11
926.25794213686129
 21
262.07676993779819
 31
0.0
  0
LINE
  5
1B64A
  8
AM_0
 10
962.26003113686136
 20
436.07676993779808
 30
0.0
 11
962.26003113686136
 21
426.07676993779808
 31
0.0
  0
LINE
  5
1B64B
  8
AM_0
 10
950.25585313686145
 20
436.07676993779808
 30
0.0
 11
950.25585313686145
 21
426.07676993779808
 31
0.0
  0
LINE
  5
1B64C
  8
AM_0
 10
1024.0627181368609
 20
431.07676993779808
 30
0.0
 11
962.26003113686136
 21
431.07676993779808
 31
0.0
  0
LINE
  5
1B64D
  8
AM_0
 10
1024.0587701368611
 20
436.07676993779808
 30
0.0
 11
946.05794213686124
 21
436.07676993779808
 31
0.0
  0
LINE
  5
1B64E
  8
AM_0
 10
950.25585313686145
 20
431.07676993779808
 30
0.0
 11
946.05794213686124
 21
431.07676993779808
 31
0.0
  0
ARC
  5
1B64F
  8
AM_0
 10
1024.0587701368611
 20
411.07676993779808
 30
0.0
 40
25.0
 50
0.000000000000007
 51
90.0
  0
LINE
  5
1B650
  8
AM_0
 10
950.25585313686145
 20
262.07676993779819
 30
0.0
 11
950.25585313686145
 21
252.07676993779819
 31
0.0
  0
LINE
  5
1B651
  8
AM_0
 10
962.26003113686136
 20
262.07676993779819
 30
0.0
 11
962.26003113686136
 21
252.07676993779819
 31
0.0
  0
LINE
  5
1B652
  8
AM_0
 10
1024.0627181368609
 20
257.07676993779819
 30
0.0
 11
962.26003113686136
 21
257.07676993779819
 31
0.0
  0
LINE
  5
1B653
  8
AM_0
 10
1024.0587701368611
 20
252.07676993779819
 30
0.0
 11
946.05794213686124
 21
252.07676993779819
 31
0.0
  0
LINE
  5
1B654
  8
AM_0
 10
950.25585313686145
 20
257.07676993779819
 30
0.0
 11
946.05794213686124
 21
257.07676993779819
 31
0.0
  0
ARC
  5
1B655
  8
AM_0
 10
1024.0627181368609
 20
411.07676993779808
 30
0.0
 40
20.0
 50
0.000000000000007
 51
90.0
  0
LINE
  5
1B657
  8
AM_0
 10
1051.5327181368609
 20
346.57676993779808
 30
0.0
 11
1044.0627181368609
 21
346.57676993779808
 31
0.0
  0
LINE
  5
1B658
  8
AM_0
 10
1049.0587701368611
 20
277.07676993779819
 30
0.0
 11
1049.0587701368611
 21
341.57676993779819
 31
0.0
  0
LINE
  5
1B659
  8
AM_0
 10
1051.5327181368609
 20
341.57676993779819
 30
0.0
 11
1044.0627181368609
 21
341.57676993779819
 31
0.0
  0
ARC
  5
1B65A
  8
AM_0
 10
1024.0587701368611
 20
277.07676993779819
 30
0.0
 40
25.0
 50
270.0
 51
0.000000000000007
  0
ARC
  5
1B65B
  8
AM_0
 10
1024.0627181368609
 20
277.07676993779819
 30
0.0
 40
20.0
 50
270.0
 51
0.000000000000007
  0
LINE
  5
1B65C
  8
AM_0
 10
946.05794213686124
 20
431.07676993779808
 30
0.0
 11
946.05794213686124
 21
436.07676993779808
 31
0.0
  0
LINE
  5
1B65D
  8
AM_0
 10
946.05794213686124
 20
257.07676993779819
 30
0.0
 11
946.05794213686124
 21
252.07676993779819
 31
0.0
  0
LINE
  5
1B661
  8
AM_0
 10
1051.5327181368609
 20
346.57676993779808
 30
0.0
 11
1051.5327181368609
 21
341.57676993779819
 31
0.0
  0
LINE
  5
1B662
  8
AM_0
 10
1044.0627181368609
 20
411.07676993779808
 30
0.0
 11
1044.0627181368609
 21
277.07676993779819
 31
0.0
  0
LINE
  5
1B664
  8
AM_0
 10
763.2579421368614
 20
307.11854993779821
 30
0.0
 11
754.25794213686152
 21
307.11854993779821
 31
0.0
  0
LINE
  5
1B665
  8
AM_0
 10
763.2579421368614
 20
381.03498993779817
 30
0.0
 11
754.25794213686152
 21
381.03498993779817
 31
0.0
  0
LINE
  5
1C976
  8
AM_0
 10
1049.0587701368611
 20
346.57676993779808
 30
0.0
 11
1049.0587701368611
 21
411.07676993779808
 31
0.0
  0
TEXT
  5
1CA3D
  8
AM_0
 10
27.134408589677609
 20
725.78322919382072
 30
0.0
 40
15.0
  1
VC08-080EFBR~VC08-160EFBR
1001
ACAD
1000
MTEXTBEGIN
1070
    73
1070
     1
1070
    44
1040
1.0
1070
    74
1070
     0
1000
MTEXTEND
  0
VIEWPORT
  5
89
 67
     1
  8
0
 10
210.0
 20
148.5
 30
0.0
 40
420.0
 41
297.0
 68
     1
 69
     1
1001
ACAD
1000
MVIEW
1002
{
1070
    16
1010
0.0
1020
0.0
1030
0.0
1010
0.0
1020
0.0
1030
1.0
1040
0.0
1040
297.0
1040
221.70154043645701
1040
148.5
1040
50.0
1040
0.0
1040
0.0
1070
     0
1070
   100
1070
     1
1070
     1
1070
     0
1070
     0
1070
     0
1070
     0
1040
0.0
1040
0.0
1040
0.0
1040
10.0
1040
10.0
1040
10.0
1040
10.0
1070
     0
1002
{
1002
}
1002
}
1001
GENIUS_GENOREF_13
1005
1B94
1001
GENIUS_GENSCREG_15
1000
PF
1040
1.0
1000
DF
1040
1.0
1000
MIN
1011
0.0
1021
0.0
1031
0.0
1021
0.0
1031
0.0
1000
MAX
1011
420.0
1021
0.0
1031
0.0
1021
297.0
1031
0.0
1000
FLAGS
1070
     4
  0
ENDSEC
  0
EOF
