  0
SECTION
  2
HEADER
  9
$ACADVER
  1
AC1009
  9
$INSBASE
 10
0.0
 20
0.0
 30
0.0
  9
$EXTMIN
 10
74.011850523077783
 20
135.5192819037768
 30
-0.0015258207003583
  9
$EXTMAX
 10
845.84225661696655
 20
669.15261098805388
 30
0.0000000349246037
  9
$LIMMIN
 10
0.0
 20
0.0
  9
$LIMMAX
 10
853.5
 20
555.00000000000011
  9
$ORTHOMODE
 70
     0
  9
$REGENMODE
 70
     1
  9
$FILLMODE
 70
     1
  9
$QTEXTMODE
 70
     0
  9
$MIRRTEXT
 70
     1
  9
$DRAGMODE
 70
     2
  9
$LTSCALE
 40
3.0
  9
$OSMODE
 70
   551
  9
$ATTMODE
 70
     1
  9
$TEXTSIZE
 40
2.5
  9
$TRACEWID
 40
1.0
  9
$TEXTSTYLE
  7
STANDARD
  9
$CLAYER
  8
AM_0
  9
$CELTYPE
  6
BYLAYER
  9
$CECOLOR
 62
   256
  9
$DIMSCALE
 40
3.0
  9
$DIMASZ
 40
2.5
  9
$DIMEXO
 40
1.0
  9
$DIMDLI
 40
7.0
  9
$DIMRND
 40
0.0
  9
$DIMDLE
 40
0.0
  9
$DIMEXE
 40
1.0
  9
$DIMTP
 40
0.1
  9
$DIMTM
 40
0.1000000001
  9
$DIMTXT
 40
2.5
  9
$DIMCEN
 40
0.0
  9
$DIMTSZ
 40
0.0
  9
$DIMTOL
 70
     0
  9
$DIMLIM
 70
     0
  9
$DIMTIH
 70
     0
  9
$DIMTOH
 70
     0
  9
$DIMSE1
 70
     0
  9
$DIMSE2
 70
     0
  9
$DIMTAD
 70
     3
  9
$DIMZIN
 70
     8
  9
$DIMBLK
  1

  9
$DIMASO
 70
     1
  9
$DIMSHO
 70
     1
  9
$DIMPOST
  1

  9
$DIMAPOST
  1
"
  9
$DIMALT
 70
     0
  9
$DIMALTD
 70
     2
  9
$DIMALTF
 40
0.0393701
  9
$DIMLFAC
 40
1.0
  9
$DIMTOFL
 70
     1
  9
$DIMTVP
 40
0.0
  9
$DIMTIX
 70
     0
  9
$DIMSOXD
 70
     0
  9
$DIMSAH
 70
     0
  9
$DIMBLK1
  1

  9
$DIMBLK2
  1

  9
$DIMSTYLE
  2
AM_JIS
  9
$DIMCLRD
 70
   256
  9
$DIMCLRE
 70
   256
  9
$DIMCLRT
 70
     4
  9
$DIMTFAC
 40
0.71
  9
$DIMGAP
 40
1.0
  9
$LUNITS
 70
     2
  9
$LUPREC
 70
     2
  9
$SKETCHINC
 40
1.0
  9
$FILLETRAD
 40
5.0
  9
$AUNITS
 70
     0
  9
$AUPREC
 70
     3
  9
$MENU
  1
.
  9
$ELEVATION
 40
0.0
  9
$PELEVATION
 40
0.0
  9
$THICKNESS
 40
0.0
  9
$LIMCHECK
 70
     0
  9
$BLIPMODE
 70
     0
  9
$CHAMFERA
 40
7.5
  9
$CHAMFERB
 40
7.5
  9
$SKPOLY
 70
     0
  9
$TDCREATE
 40
2452753.643349607
  9
$TDUPDATE
 40
2458543.545153195
  9
$TDINDWG
 40
0.4417636227
  9
$TDUSRTIMER
 40
0.4417634259
  9
$USRTIMER
 70
     1
  9
$ANGBASE
 50
0.0
  9
$ANGDIR
 70
     0
  9
$PDMODE
 70
     0
  9
$PDSIZE
 40
0.0
  9
$PLINEWID
 40
0.0
  9
$COORDS
 70
     1
  9
$SPLFRAME
 70
     0
  9
$SPLINETYPE
 70
     6
  9
$SPLINESEGS
 70
     8
  9
$ATTDIA
 70
     1
  9
$ATTREQ
 70
     1
  9
$HANDLING
 70
     1
  9
$HANDSEED
  5
195F2
  9
$SURFTAB1
 70
     6
  9
$SURFTAB2
 70
     6
  9
$SURFTYPE
 70
     6
  9
$SURFU
 70
     6
  9
$SURFV
 70
     6
  9
$UCSNAME
  2

  9
$UCSORG
 10
0.0
 20
0.0
 30
0.0
  9
$UCSXDIR
 10
1.0
 20
0.0
 30
0.0
  9
$UCSYDIR
 10
0.0
 20
1.0
 30
0.0
  9
$PUCSNAME
  2

  9
$PUCSORG
 10
0.0
 20
0.0
 30
0.0
  9
$PUCSXDIR
 10
1.0
 20
0.0
 30
0.0
  9
$PUCSYDIR
 10
0.0
 20
1.0
 30
0.0
  9
$USERI1
 70
     0
  9
$USERI2
 70
     0
  9
$USERI3
 70
     0
  9
$USERI4
 70
     0
  9
$USERI5
 70
     0
  9
$USERR1
 40
0.0
  9
$USERR2
 40
0.0
  9
$USERR3
 40
0.0
  9
$USERR4
 40
0.0
  9
$USERR5
 40
0.0
  9
$WORLDVIEW
 70
     1
  9
$SHADEDGE
 70
     3
  9
$SHADEDIF
 70
    70
  9
$TILEMODE
 70
     1
  9
$MAXACTVP
 70
    48
  9
$PLIMCHECK
 70
     0
  9
$PEXTMIN
 10
1.0000000000000000E+020
 20
1.0000000000000000E+020
 30
1.0000000000000000E+020
  9
$PEXTMAX
 10
-1.0000000000000000E+020
 20
-1.0000000000000000E+020
 30
-1.0000000000000000E+020
  9
$PLIMMIN
 10
0.0
 20
0.0
  9
$PLIMMAX
 10
420.0
 20
297.0
  9
$UNITMODE
 70
     0
  9
$VISRETAIN
 70
     1
  9
$PLINEGEN
 70
     0
  9
$PSLTSCALE
 70
     1
  0
ENDSEC
  0
SECTION
  2
TABLES
  0
TABLE
  2
VPORT
 70
     1
  0
VPORT
  2
*ACTIVE
 70
     0
 10
0.0
 20
0.0
 11
1.0
 21
1.0
 12
459.92705357002211
 22
402.3359464459154
 13
0.0
 23
0.0
 14
7.5
 24
7.5
 15
30.0
 25
30.0
 16
0.0
 26
0.0
 36
1.0
 17
0.0
 27
0.0
 37
0.0
 40
537.29671578279635
 41
1.7571592210767459
 42
50.0
 43
0.0
 44
0.0
 50
0.0
 51
0.0
 71
    16
 72
   100
 73
     1
 74
     1
 75
     0
 76
     0
 77
     0
 78
     0
  0
ENDTAB
  0
TABLE
  2
LTYPE
 70
    22
  0
LTYPE
  2
CONTINUOUS
 70
     0
  3
Solid line
 72
    65
 73
     0
 40
0.0
  0
LTYPE
  2
PHANTOM2
 70
     0
  3
Phantom (.5x) ___ _ _ ___ _ _ ___ _ _ ___ _ _
 72
    65
 73
     6
 40
31.75
 49
15.875
 49
-3.174999999999998
 49
3.174999999999998
 49
-3.174999999999998
 49
3.174999999999998
 49
-3.174999999999998
  0
LTYPE
  2
CENTER
 70
     0
  3
Center ____ _ ____ _ ____ _ ____ _ ____ _ ____
 72
    65
 73
     4
 40
50.799999999999997
 49
31.75
 49
-6.3499999999999979
 49
6.3499999999999979
 49
-6.3499999999999979
  0
LTYPE
  2
ACANSTGBM
 70
     0
  3
__ . . __ . .
 72
    65
 73
     6
 40
9.0
 49
4.0
 49
-1.0
 49
1.0
 49
-1.0
 49
1.0
 49
-1.0
  0
LTYPE
  2
ACANSTGLM
 70
     0
  3
_ _ _ _ _
 72
    65
 73
     2
 40
3.0
 49
2.0
 49
-1.0
  0
LTYPE
  2
GEN3B
 70
     0
  3
 - - - - -
 72
    65
 73
     2
 40
1.0
 49
0.5
 49
-0.5
  0
LTYPE
  2
GEN7A
 70
     0
  3
__ . __ . __
 72
    65
 73
     4
 40
7.375
 49
4.75
 49
-0.875
 49
0.875
 49
-0.875
  0
LTYPE
  2
AM_ISO02W050
 70
     0
  3
__ __ __ __ __ __ __ __ __ __ __ __ __ __ __
 72
    65
 73
     2
 40
7.5
 49
6.0
 49
-1.5
  0
LTYPE
  2
AM_ISO08W050
 70
     0
  3
____ . ____ . ____ . ____ . ____ . ____ . ____
 72
    65
 73
     4
 40
18.0
 49
12.0
 49
-1.5
 49
3.0
 49
-1.5
  0
LTYPE
  2
AM_ISO09W050
 70
     0
  3
_____ . . _____ . . _____ . . ____ .. ____
 72
    65
 73
     6
 40
22.5
 49
12.0
 49
-1.5
 49
3.0
 49
-1.5
 49
3.0
 49
-1.5
  0
LTYPE
  2
AMCONSTR
 70
     0
  3
_______________________
 72
    65
 73
     2
 40
9999.0
 49
9999.0
 49
0.0
  0
LTYPE
  2
AM_ISO02W050X2
 70
     0
  3
 _ _ _ _ _ _ _ _ _ _ _ _
 72
    65
 73
     2
 40
3.75
 49
3.0
 49
-0.75
  0
LTYPE
  2
AM_ISO08W050X2
 70
     0
  3
__ . __ . __ . __ . __ . __
 72
    65
 73
     4
 40
9.0
 49
6.0
 49
-0.75
 49
1.5
 49
-0.75
  0
LTYPE
  2
AMZIGZAG
 70
     0
  3
/\/-/\/-/\/-/\/-/\/-/\/
 72
    65
 73
     2
 40
11.0001
 49
0.0001
 49
-11.0
  0
LTYPE
  2
ACJISTGB
 70
     0
  3
__ . . __ . .
 72
    65
 73
     6
 40
9.0
 49
4.0
 49
-1.0
 49
1.0
 49
-1.0
 49
1.0
 49
-1.0
  0
LTYPE
  2
ACJISTGL
 70
     0
  3
_ _ _ _ _
 72
    65
 73
     2
 40
3.0
 49
2.0
 49
-1.0
  0
LTYPE
  2
ACISOWELD
 70
     0
  3
_ _ _ _ _
 72
    65
 73
     2
 40
2.0
 49
2.0
 49
-1.0
  0
LTYPE
  2
ACISOTGB
 70
     0
  3
__ . . __ . .
 72
    65
 73
     6
 40
9.0
 49
4.0
 49
-1.0
 49
1.0
 49
-1.0
 49
1.0
 49
-1.0
  0
LTYPE
  2
ACISOTGL
 70
     0
  3
_ _ _ _ _
 72
    65
 73
     2
 40
3.0
 49
2.0
 49
-1.0
  0
LTYPE
  2
GEN7
 70
     0
  3
____ . ____ . ____ . ____ . ____ . ____ . ____
 72
    65
 73
     4
 40
14.25
 49
9.75
 49
-1.5
 49
1.5
 49
-1.5
  0
LTYPE
  2
HIDDEN
 70
     0
  3
Hidden __ __ __ __ __ __ __ __ __ __ __ __ __ _
 72
    65
 73
     2
 40
9.5249999999999968
 49
6.3499999999999979
 49
-3.174999999999998
  0
ENDTAB
  0
TABLE
  2
LAYER
 70
    11
  0
LAYER
  2
0
 70
     0
 62
     7
  6
CONTINUOUS
  0
LAYER
  2
ｽﾝﾎﾟｳｾﾝ
 70
     0
 62
     2
  6
CONTINUOUS
  0
LAYER
  2
DEFPOINTS
 70
     0
 62
     7
  6
CONTINUOUS
  0
LAYER
  2
ｶｸﾚｾﾝ2
 70
     0
 62
     3
  6
GEN3B
  0
LAYER
  2
ﾁｭｳｼﾝｾﾝ1
 70
     0
 62
     1
  6
GEN7A
  0
LAYER
  2
AM_0
 70
     0
 62
     7
  6
CONTINUOUS
  0
LAYER
  2
AM_0N
 70
     0
 62
     7
  6
CONTINUOUS
  0
LAYER
  2
AM_5
 70
     0
 62
     2
  6
CONTINUOUS
  0
LAYER
  2
ﾁｭｳｼﾝｾﾝ
 70
     0
 62
     1
  6
GEN7
  0
LAYER
  2
AM_7
 70
     0
 62
     1
  6
AM_ISO08W050
  0
LAYER
  2
1
 70
     0
 62
     7
  6
CONTINUOUS
  0
ENDTAB
  0
TABLE
  2
STYLE
 70
     8
  0
STYLE
  2
STANDARD
 70
     0
 40
0.0
 41
0.8299999999999999
 50
0.0
 71
     0
 42
2.5
  3
txt.shx
  4
bigfont.shx
  0
STYLE
  2
ACANSTS
 70
     0
 40
1.0
 41
1.0
 50
0.0
 71
     0
 42
2.5
  3
romans.shx
  4
bigfont.shx
  0
STYLE
  2
ACANSGDT
 70
     0
 40
0.0
 41
1.0
 50
0.0
 71
     0
 42
2.5
  3
amgdtans.shx
  4

  0
STYLE
  2

 70
     1
 40
0.0
 41
1.0
 50
0.0
 71
     0
 42
2.5
  3
ltypeshp.shx
  4

  0
STYLE
  2
ACJISTS
 70
     0
 40
1.0
 41
1.0
 50
0.0
 71
     0
 42
2.5
  3
isocp.shx
  4
bigfont.shx
  0
STYLE
  2
ACJISGDT
 70
     0
 40
0.0
 41
1.0
 50
0.0
 71
     0
 42
2.5
  3
amgdt.shx
  4

  0
STYLE
  2
ACISOTS
 70
     0
 40
3.0
 41
1.0
 50
0.0
 71
     0
 42
2.5
  3
isocp.shx
  4
extfont.shx
  0
STYLE
  2
ACISOGDT
 70
     0
 40
0.0
 41
1.0
 50
0.0
 71
     0
 42
2.5
  3
amgdt.shx
  4

  0
ENDTAB
  0
TABLE
  2
VIEW
 70
    12
  0
VIEW
  2
GEN1
 70
     0
 40
95.824742268041234
 10
71.5
 20
137.08762886597941
 41
143.0
 11
0.0
 21
0.0
 31
1.0
 12
0.0
 22
0.0
 32
0.0
 42
50.0
 43
0.0
 44
0.0
 50
0.0
 71
     0
  0
VIEW
  2
GEN2
 70
     0
 40
95.824742268041234
 10
214.5
 20
137.08762886597941
 41
143.0
 11
0.0
 21
0.0
 31
1.0
 12
0.0
 22
0.0
 32
0.0
 42
50.0
 43
0.0
 44
0.0
 50
0.0
 71
     0
  0
VIEW
  2
GEN3
 70
     0
 40
95.824742268041234
 10
71.5
 20
47.912371134020603
 41
143.0
 11
0.0
 21
0.0
 31
1.0
 12
0.0
 22
0.0
 32
0.0
 42
50.0
 43
0.0
 44
0.0
 50
0.0
 71
     0
  0
VIEW
  2
GEN4
 70
     0
 40
95.824742268041234
 10
214.5
 20
47.912371134020603
 41
143.0
 11
0.0
 21
0.0
 31
1.0
 12
0.0
 22
0.0
 32
0.0
 42
50.0
 43
0.0
 44
0.0
 50
0.0
 71
     0
  0
VIEW
  2
GEN5
 70
     0
 40
95.824742268041234
 10
143.0
 20
92.500000000000057
 41
143.0
 11
0.0
 21
0.0
 31
1.0
 12
0.0
 22
0.0
 32
0.0
 42
50.0
 43
0.0
 44
0.0
 50
0.0
 71
     0
  0
VIEW
  2
GEN6
 70
     0
 40
191.64756804123709
 10
143.0
 20
92.5
 41
285.99714
 11
0.0
 21
0.0
 31
1.0
 12
0.0
 22
0.0
 32
0.0
 42
50.0
 43
0.0
 44
0.0
 50
0.0
 71
     0
  0
VIEW
  2
AM_VIEW1
 70
     0
 40
277.50000000000011
 10
249.64779005524869
 20
416.25000000000011
 41
499.29558011049721
 11
0.0
 21
0.0
 31
1.0
 12
0.0
 22
0.0
 32
0.0
 42
50.0
 43
0.0
 44
0.0
 50
0.0
 71
    16
  0
VIEW
  2
AM_VIEW2
 70
     0
 40
277.50000000000011
 10
603.85220994475117
 20
416.25000000000011
 41
499.29558011049721
 11
0.0
 21
0.0
 31
1.0
 12
0.0
 22
0.0
 32
0.0
 42
50.0
 43
0.0
 44
0.0
 50
0.0
 71
    16
  0
VIEW
  2
AM_VIEW3
 70
     0
 40
277.50000000000011
 10
249.64779005524869
 20
138.75
 41
499.29558011049721
 11
0.0
 21
0.0
 31
1.0
 12
0.0
 22
0.0
 32
0.0
 42
50.0
 43
0.0
 44
0.0
 50
0.0
 71
    16
  0
VIEW
  2
AM_VIEW4
 70
     0
 40
277.50000000000011
 10
603.85220994475117
 20
138.75
 41
499.29558011049721
 11
0.0
 21
0.0
 31
1.0
 12
0.0
 22
0.0
 32
0.0
 42
50.0
 43
0.0
 44
0.0
 50
0.0
 71
    16
  0
VIEW
  2
AM_VIEW5
 70
     0
 40
277.50000000000011
 10
426.75
 20
277.50000000000011
 41
499.2955801104971
 11
0.0
 21
0.0
 31
1.0
 12
0.0
 22
0.0
 32
0.0
 42
50.0
 43
0.0
 44
0.0
 50
0.0
 71
    16
  0
VIEW
  2
AM_VIEW6
 70
     0
 40
554.99445000000014
 10
426.75
 20
277.5
 41
998.5811743093924
 11
0.0
 21
0.0
 31
1.0
 12
0.0
 22
0.0
 32
0.0
 42
50.0
 43
0.0
 44
0.0
 50
0.0
 71
    16
  0
ENDTAB
  0
TABLE
  2
UCS
 70
     0
  0
ENDTAB
  0
TABLE
  2
APPID
 70
    97
  0
APPID
  2
ACAD
 70
     0
  0
APPID
  2
MCAD_NO_VIS
 70
     0
  0
APPID
  2
ACAD_TEMP_GRAPHIC
 70
     0
  0
APPID
  2
AD_DRAW
 70
     0
  0
APPID
  2
DESIGNERASSEMBLIES
 70
     0
  0
APPID
  2
ASURF_PCURVE_APPNAME
 70
     0
  0
APPID
  2
GENIUS_GE3SECT_13
 70
     0
  0
APPID
  2
GENIUS_GENCFG_13
 70
     0
  0
APPID
  2
GENIUS_GE3CFG0_13
 70
     0
  0
APPID
  2
GENIUS_GENCFG0_13
 70
     0
  0
APPID
  2
GENIUS_GENCFG1_13
 70
     0
  0
APPID
  2
GENIUS_GENCFG2_13
 70
     0
  0
APPID
  2
GENIUS_GENCFG3_13
 70
     0
  0
APPID
  2
GENIUS_GENCFG4_13
 70
     0
  0
APPID
  2
GENIUS_GEVCFG0_13
 70
     0
  0
APPID
  2
GENIUS_GENOENT_13
 70
     0
  0
APPID
  2
GENIUS_GENREC_14
 70
     0
  0
APPID
  2
GENIUS_GENODEF_13
 70
     0
  0
APPID
  2
GENIUS_GENOBJ-N-REC_13
 70
     0
  0
APPID
  2
GENIUS_GENHINW_13
 70
     0
  0
APPID
  2
GENIUS_FIRSTVISTXT_14
 70
     0
  0
APPID
  2
GENIUS_GENOBJ-N-LEADER_13
 70
     0
  0
APPID
  2
GENIUS_GENOREF_13
 70
     0
  0
APPID
  2
GENIUS_GENOLIS_13
 70
     0
  0
APPID
  2
GEV_VCCNULL_SWITCH_OFF
 70
     0
  0
APPID
  2
GENIUS_GENDTOL_13
 70
     0
  0
APPID
  2
GENIUS_GEFCFG0_13
 70
     0
  0
APPID
  2
GENIUS_GENOBJ-N-TIT_13
 70
     0
  0
APPID
  2
GENIUS_GENTITLE_13
 70
     0
  0
APPID
  2
GENIUS_GENZVEED_13
 70
     0
  0
APPID
  2
GENIUS_GENOBJ-N-SDF_13
 70
     0
  0
APPID
  2
GENIUS_GENSCREG_13
 70
     0
  0
APPID
  2
GENIUS_DUMCFG0_13
 70
     0
  0
APPID
  2
GEVID936201362
 70
     0
  0
APPID
  2
GEVDC
 70
     0
  0
APPID
  2
GEVCON
 70
     0
  0
APPID
  2
VCC
 70
     0
  0
APPID
  2
GEVPT
 70
     0
  0
APPID
  2
GEVIT
 70
     0
  0
APPID
  2
GENBH
 70
     0
  0
APPID
  2
GEVMK
 70
     0
  0
APPID
  2
GENIUS_GENBH_13
 70
     0
  0
APPID
  2
GENIUS_GENOBJ-NBEHI-BHF_13
 70
     0
  0
APPID
  2
GENIUS_GENOBJ-NBEHI-BHB_13
 70
     0
  0
APPID
  2
GENIUS_GENOBJ-F-DESC_13
 70
     0
  0
APPID
  2
GENIUS_GEFDESC_14
 70
     0
  0
APPID
  2
GENIUS_GENOBJ-F-PART_13
 70
     0
  0
APPID
  2
GENIUS_GEFSTDP_13
 70
     0
  0
APPID
  2
GENIUS_GEFPARTINS_13
 70
     0
  0
APPID
  2
GENIUS_GENTRA_14
 70
     0
  0
APPID
  2
GENIUS_GENINF13_13
 70
     0
  0
APPID
  2
GENIUS_GENOBJ-N-INFOPT_13
 70
     0
  0
APPID
  2
GENIUS_GENOBJ-N-RSSYM_13
 70
     0
  0
APPID
  2
GENIUS_GENSYMENT_13
 70
     0
  0
APPID
  2
GENIUS_GENSCSYM_13
 70
     0
  0
APPID
  2
GENIUS_GEFINFNAM_13
 70
     0
  0
APPID
  2
GENIUS_GENSCREG_15
 70
     0
  0
APPID
  2
GENIUS_GENOBJ-N-CEN_13
 70
     0
  0
APPID
  2
GENIUS_GENOBJ-N-CRS_13
 70
     0
  0
APPID
  2
GENIUS_GENOBJ-N-CRC_13
 70
     0
  0
APPID
  2
GENIUS_GENCRC_14
 70
     0
  0
APPID
  2
GEVID942827039
 70
     0
  0
APPID
  2
GEVID942827040
 70
     0
  0
APPID
  2
GEVID942827041
 70
     0
  0
APPID
  2
GENIUS_GENOBJ-F-SCPASSM_13
 70
     0
  0
APPID
  2
GENIUS_GENDIMSH_14
 70
     0
  0
APPID
  2
GENIUS_GENFIL_13
 70
     0
  0
APPID
  2
GENIUS_GENOBJ-N-CHA_13
 70
     0
  0
APPID
  2
GENIUS_GENOBJ-N-FIL_13
 70
     0
  0
APPID
  2
GEVID942827042
 70
     0
  0
APPID
  2
GEVID946020473
 70
     0
  0
APPID
  2
GEVID946020474
 70
     0
  0
APPID
  2
GEVID946020475
 70
     0
  0
APPID
  2
GENIUS_GENOBJ-N-HTC_13
 70
     0
  0
APPID
  2
GENIUS_GENHATCH_13
 70
     0
  0
APPID
  2
GEVID948854295
 70
     0
  0
APPID
  2
GEVID939402019
 70
     0
  0
APPID
  2
GEVID952919491
 70
     0
  0
APPID
  2
GEVID952919492
 70
     0
  0
APPID
  2
GENIUS_GEFWELD_13
 70
     0
  0
APPID
  2
GENIUS_GENOBJ-F-WELS_13
 70
     0
  0
APPID
  2
GEVID952919493
 70
     0
  0
APPID
  2
GENIUS_GENOBJ-N-RSBK_13
 70
     0
  0
APPID
  2
GENIUS_GENOBJ-N-LIB_13
 70
     0
  0
APPID
  2
GENIUS_GENSCALE_13
 70
     0
  0
APPID
  2
GEVID986376691
 70
     0
  0
APPID
  2
ACATTRIBSERVICES
 70
     0
  0
APPID
  2
DCO15
 70
     0
  0
APPID
  2
GEVID1088155249
 70
     0
  0
APPID
  2
ACADM_DIM_EDIT
 70
     0
  0
APPID
  2
AMDT_DM_ADJ
 70
     0
  0
APPID
  2
ACAD_MLEADERVER
 70
     0
  0
APPID
  2
ACAD_DSTYLE_DIMBREAK
 70
     0
  0
APPID
  2
ACAD_DSTYLE_DIMJAG
 70
     0
  0
APPID
  2
ACAD_NAV_VCDISPLAY
 70
     0
  0
APPID
  2
ACADANNOPO
 70
     0
  0
APPID
  2
ACAD_EXEMPT_FROM_CAD_STANDARDS
 70
     0
  0
ENDTAB
  0
TABLE
  2
DIMSTYLE
 70
    16
  0
DIMSTYLE
  2
STANDARD
 70
     0
  3

  4

  5

  6

  7

 40
1.0
 41
0.18
 42
0.0625
 43
0.38
 44
0.18
 45
0.0
 46
0.0
 47
0.0
 48
0.0
140
0.18
141
0.09
142
0.0
143
25.399999999999999
144
1.0
145
0.0
146
1.0
147
0.09
 71
     0
 72
     0
 73
     1
 74
     1
 75
     0
 76
     0
 77
     0
 78
     0
170
     0
171
     2
172
     0
173
     0
174
     0
175
     0
176
     0
177
     0
178
     0
  0
DIMSTYLE
  2
AM_JIS
 70
     0
  3

  4
"
  5

  6

  7

 40
1.0
 41
2.5
 42
1.0
 43
7.0
 44
1.0
 45
0.0
 46
0.0
 47
0.1
 48
0.1000000001
140
2.5
141
0.0
142
0.0
143
0.0393701
144
1.0
145
0.0
146
0.71
147
1.0
 71
     0
 72
     0
 73
     0
 74
     0
 75
     0
 76
     0
 77
     3
 78
     8
170
     0
171
     2
172
     1
173
     0
174
     0
175
     0
176
   256
177
   256
178
     4
  0
DIMSTYLE
  2
AM_JIS$3
 70
     0
  3

  4
"
  5

  6

  7

 40
1.0
 41
2.5
 42
1.0
 43
7.0
 44
1.0
 45
0.0
 46
0.0
 47
0.1
 48
0.1000000001
140
2.5
141
0.0
142
0.0
143
0.0393701
144
1.0
145
0.0
146
0.71
147
1.0
 71
     0
 72
     0
 73
     0
 74
     1
 75
     0
 76
     0
 77
     3
 78
     8
170
     0
171
     2
172
     0
173
     0
174
     0
175
     0
176
   256
177
   256
178
     4
  0
DIMSTYLE
  2
AM_JIS$4
 70
     0
  3

  4
"
  5

  6

  7

 40
1.0
 41
2.5
 42
1.0
 43
7.0
 44
1.0
 45
0.0
 46
0.0
 47
0.1
 48
0.1000000001
140
2.5
141
0.0
142
0.0
143
0.0393701
144
1.0
145
0.0
146
0.71
147
1.0
 71
     0
 72
     0
 73
     0
 74
     0
 75
     0
 76
     0
 77
     3
 78
     8
170
     0
171
     2
172
     0
173
     0
174
     0
175
     0
176
   256
177
   256
178
     4
  0
DIMSTYLE
  2
AM_JIS$6
 70
     0
  3

  4
"
  5

  6

  7

 40
1.0
 41
2.5
 42
1.0
 43
7.0
 44
1.0
 45
0.0
 46
0.0
 47
0.1
 48
0.1000000001
140
2.5
141
0.0
142
0.0
143
0.0393701
144
1.0
145
0.0
146
0.71
147
1.0
 71
     0
 72
     0
 73
     0
 74
     0
 75
     0
 76
     0
 77
     0
 78
     8
170
     0
171
     2
172
     1
173
     0
174
     0
175
     0
176
   256
177
   256
178
     4
  0
DIMSTYLE
  2
AM_JIS$7
 70
     0
  3

  4
"
  5

  6

  7

 40
1.0
 41
2.5
 42
1.0
 43
7.0
 44
1.0
 45
0.0
 46
0.0
 47
0.1
 48
0.1000000001
140
2.5
141
0.0
142
0.0
143
0.0393701
144
1.0
145
0.0
146
0.71
147
1.0
 71
     0
 72
     0
 73
     0
 74
     0
 75
     0
 76
     0
 77
     3
 78
     8
170
     0
171
     2
172
     1
173
     0
174
     0
175
     0
176
   256
177
   256
178
     4
  0
DIMSTYLE
  2
AM_JIS$SF
 70
     0
  3

  4
"
  5
OPEN30
  6
OPEN30
  7
OPEN30
 40
1.0
 41
2.5
 42
1.0
 43
10.0
 44
1.0
 45
0.0
 46
0.0
 47
0.1
 48
0.1
140
3.5
141
0.0
142
0.0
143
0.0393701
144
1.0
145
0.0
146
0.71
147
1.5
 71
     0
 72
     0
 73
     0
 74
     0
 75
     1
 76
     1
 77
     3
 78
     8
170
     0
171
     2
172
     1
173
     0
174
     0
175
     0
176
   256
177
   256
178
     4
  0
DIMSTYLE
  2
AM_JIS$SH
 70
     0
  3

  4
"
  5

  6
NONE
  7

 40
1.0
 41
2.5
 42
1.0
 43
10.0
 44
1.0
 45
0.0
 46
0.0
 47
0.1
 48
0.1
140
3.5
141
0.0
142
0.0
143
0.0393701
144
1.0
145
0.0
146
0.71
147
1.5
 71
     0
 72
     0
 73
     0
 74
     0
 75
     1
 76
     0
 77
     3
 78
     8
170
     0
171
     2
172
     1
173
     1
174
     0
175
     0
176
   256
177
   256
178
     4
  0
DIMSTYLE
  2
AM_ISO
 70
     0
  3

  4
"
  5

  6

  7

 40
1.0
 41
2.5
 42
1.0
 43
10.0
 44
1.0
 45
0.0
 46
0.0
 47
0.0
 48
0.000000001
140
3.0
141
0.0
142
0.0
143
0.0393701
144
1.0
145
0.0
146
0.71
147
1.299999999999998
 71
     1
 72
     0
 73
     0
 74
     0
 75
     0
 76
     0
 77
     1
 78
     8
170
     0
171
     2
172
     1
173
     0
174
     0
175
     0
176
   256
177
   256
178
     4
  0
DIMSTYLE
  2
AM_ISO$3
 70
     0
  3

  4
"
  5

  6

  7

 40
1.0
 41
2.5
 42
1.0
 43
10.0
 44
1.0
 45
0.0
 46
0.0
 47
0.0
 48
0.000000001
140
2.5
141
0.0
142
0.0
143
0.0393701
144
1.0
145
0.0
146
0.71
147
1.299999999999998
 71
     1
 72
     0
 73
     0
 74
     1
 75
     0
 76
     0
 77
     1
 78
     8
170
     0
171
     2
172
     0
173
     0
174
     0
175
     0
176
   256
177
   256
178
     4
  0
DIMSTYLE
  2
AM_ISO$4
 70
     0
  3

  4
"
  5

  6

  7

 40
1.0
 41
2.5
 42
1.0
 43
10.0
 44
1.0
 45
0.0
 46
0.0
 47
0.0
 48
0.000000001
140
2.5
141
0.0
142
0.0
143
0.0393701
144
1.0
145
0.0
146
0.71
147
1.299999999999998
 71
     1
 72
     0
 73
     0
 74
     1
 75
     0
 76
     0
 77
     1
 78
     8
170
     0
171
     2
172
     0
173
     0
174
     0
175
     0
176
   256
177
   256
178
     4
  0
DIMSTYLE
  2
AM_ISO$6
 70
     0
  3

  4
"
  5

  6

  7

 40
1.0
 41
2.5
 42
1.0
 43
10.0
 44
1.0
 45
0.0
 46
0.0
 47
0.0
 48
0.000000001
140
2.5
141
0.0
142
0.0
143
0.0393701
144
1.0
145
0.0
146
0.71
147
1.299999999999998
 71
     1
 72
     0
 73
     0
 74
     0
 75
     0
 76
     0
 77
     0
 78
     8
170
     0
171
     2
172
     1
173
     0
174
     0
175
     0
176
   256
177
   256
178
     4
  0
DIMSTYLE
  2
AM_ISO$7
 70
     0
  3

  4
"
  5

  6

  7

 40
1.0
 41
2.5
 42
1.0
 43
10.0
 44
1.0
 45
0.0
 46
0.0
 47
0.0
 48
0.000000001
140
2.5
141
0.0
142
0.0
143
0.0393701
144
1.0
145
0.0
146
0.71
147
1.299999999999998
 71
     1
 72
     0
 73
     0
 74
     0
 75
     0
 76
     0
 77
     1
 78
     8
170
     0
171
     2
172
     1
173
     0
174
     0
175
     0
176
   256
177
   256
178
     4
  0
DIMSTYLE
  2
AM_ISO$SF
 70
     0
  3

  4
"
  5

  6

  7

 40
1.0
 41
2.5
 42
1.0
 43
10.0
 44
1.0
 45
0.0
 46
0.0
 47
0.1
 48
0.1
140
3.5
141
0.0
142
0.0
143
0.0393701
144
1.0
145
0.0
146
0.71
147
1.5
 71
     0
 72
     0
 73
     0
 74
     0
 75
     1
 76
     1
 77
     1
 78
     8
170
     0
171
     2
172
     1
173
     0
174
     0
175
     0
176
   256
177
   256
178
     4
  0
DIMSTYLE
  2
AM_ISO$SH
 70
     0
  3

  4
"
  5

  6
GENAXEH
  7

 40
1.0
 41
2.5
 42
1.0
 43
10.0
 44
1.0
 45
0.0
 46
0.0
 47
0.1
 48
0.1
140
3.5
141
0.0
142
0.0
143
0.0393701
144
2.0
145
0.0
146
0.71
147
1.5
 71
     0
 72
     0
 73
     0
 74
     0
 75
     1
 76
     1
 77
     1
 78
     8
170
     0
171
     2
172
     1
173
     1
174
     0
175
     0
176
   256
177
   256
178
     4
  0
DIMSTYLE
  2
AM_JIS$0
 70
     0
  3

  4
"
  5

  6

  7

 40
1.0
 41
2.5
 42
1.0
 43
7.0
 44
1.0
 45
0.0
 46
0.0
 47
0.1
 48
0.1000000001
140
2.5
141
0.0
142
0.0
143
0.0393701
144
1.0
145
0.0
146
0.71
147
1.0
 71
     0
 72
     0
 73
     0
 74
     0
 75
     0
 76
     0
 77
     3
 78
     8
170
     0
171
     2
172
     1
173
     0
174
     0
175
     0
176
   256
177
   256
178
     4
  0
ENDTAB
  0
ENDSEC
  0
SECTION
  2
BLOCKS
  0
BLOCK
  8
0
  2
$MODEL_SPACE
 70
     0
 10
0.0
 20
0.0
 30
0.0
  3
$MODEL_SPACE
  1

  0
ENDBLK
  5
1A
  8
0
  0
BLOCK
 67
     1
  8
0
  2
$PAPER_SPACE
 70
     0
 10
0.0
 20
0.0
 30
0.0
  3
$PAPER_SPACE
  1

  0
ENDBLK
  5
17
 67
     1
  8
0
  0
BLOCK
  8
0
  2
_OPEN30
 70
     0
 10
0.0
 20
0.0
 30
0.0
  3
_OPEN30
  1

  0
LINE
  5
21C5
  8
0
 62
     0
 10
-1.0
 20
0.26794919
 30
0.0
 11
0.0
 21
0.0
 31
0.0
  0
LINE
  5
21C6
  8
0
 62
     0
 10
0.0
 20
0.0
 30
0.0
 11
-1.0
 21
-0.26794919
 31
0.0
  0
LINE
  5
21C7
  8
0
 62
     0
 10
0.0
 20
0.0
 30
0.0
 11
-1.0
 21
0.0
 31
0.0
  0
ENDBLK
  5
21C9
  8
0
  0
BLOCK
  8
0
  2
GENAXEH
 70
     0
 10
0.0
 20
0.0
 30
0.0
  3
GENAXEH
  1

  0
LINE
  5
21D0
  8
0
 10
-1.0
 20
0.0
 30
0.0
 11
1.0
 21
0.0
 31
0.0
  0
ENDBLK
  5
21D2
  8
0
  0
BLOCK
  8
0
  2
_NONE
 70
     0
 10
0.0
 20
0.0
 30
0.0
  3
_NONE
  1

  0
ENDBLK
  5
8193
  8
0
  0
ENDSEC
  0
SECTION
  2
ENTITIES
  0
POINT
  5
1B94
  8
0
 10
0.0
 20
0.0
 30
0.0
1001
GENIUS_GENODEF_13
1002
{
1000
HIER
1070
     1
1002
}
1002
{
1000
MANEDIT
1070
     0
1002
}
1002
{
1000
NOSEL
1070
     0
1002
}
1002
{
1000
BEHIND
1070
     0
1002
}
1002
{
1000
REACTOR
1002
}
1001
GENIUS_GENOBJ-N-SDF_13
1002
{
1000
OWNER
1000
GEN
1002
}
1001
GENIUS_GENOENT_13
1002
{
1000
MYREF
1005
1B94
1002
}
1002
{
1000
GRP
1005
0
1002
}
1001
GENIUS_GENOLIS_13
1002
{
1000
ENT
1005
89
1002
}
  0
LINE
  5
16BBF
  8
AM_0
 10
358.77700559056581
 20
159.09443604451391
 30
0.0
 11
474.77697370207869
 21
159.09443604451391
 31
0.0
  0
LINE
  5
16BC0
  8
AM_0
 10
358.77700559056581
 20
349.09444151647119
 30
0.0
 11
474.77697370207869
 21
349.09444151647119
 31
0.0
  0
CIRCLE
  5
16BC1
  8
AM_0
 10
439.77700915338539
 20
254.09444151647131
 30
0.0
 40
37.500001117587061
  0
LINE
  5
16BC2
  8
AM_0
 10
342.77697574498092
 20
190.09443960912299
 30
0.0
 11
490.77701067330349
 21
190.09443960912299
 31
0.0
  0
LINE
  5
16BC3
  8
AM_0
 10
342.77697574498092
 20
318.09444342381988
 30
0.0
 11
490.77701067330349
 21
318.09444342381988
 31
0.0
  0
LINE
  5
16BC4
  8
AM_0
 10
359.74753848292221
 20
196.09443978793689
 30
0.0
 11
439.77700915338539
 21
196.09443978793689
 31
0.0
  0
LINE
  5
16BC5
  8
AM_0
 10
359.74753848292221
 20
312.094443245006
 30
0.0
 11
439.77700915338539
 21
312.094443245006
 31
0.0
  0
LINE
  5
16BC6
  8
ﾁｭｳｼﾝｾﾝ1
 10
74.049178637026671
 20
254.09443336272329
 30
0.0
 11
515.07391878249166
 21
254.0944411199535
 31
0.0
  0
LINE
  5
16BCB
  8
ｶｸﾚｾﾝ2
 10
328.77697538735271
 20
306.09444306619241
 30
0.0
 11
328.77697538735271
 21
202.09443449479309
 31
0.0
  0
LINE
  5
16BDC
  8
AM_0
 10
336.77697556616693
 20
289.12388032825078
 30
0.0
 11
336.77697556616693
 21
219.06500270469209
 31
0.0
  0
LINE
  5
16BDD
  8
AM_0
 10
330.77697538735322
 20
306.09444306619213
 30
0.0
 11
330.77697538735322
 21
202.09443996675051
 31
0.0
  0
LINE
  5
16BDE
  8
AM_0
 10
293.27697538735327
 20
190.09444151647111
 30
0.0
 11
293.27697538735327
 21
318.09443151647122
 31
0.0
  0
LINE
  5
16BDF
  8
AM_0
 10
304.27697538735322
 20
315.59443151647167
 30
0.0
 11
304.27697538735322
 21
192.59445151647111
 31
0.0
  0
LINE
  5
16BE0
  8
AM_0
 10
322.68749856160309
 20
299.82316015456541
 30
0.0
 11
322.68749856160451
 21
208.3657228783776
 31
0.0
  0
ARC
  5
16BE1
  8
AM_0
 10
716.93550191335589
 20
254.09444151646591
 30
0.0
 40
397.24800335175217
 50
173.3392856796832
 51
186.6607143203168
  0
LINE
  5
16CD8
  8
0
 10
346.51892727593088
 20
166.33134396968541
 30
0.0
 11
332.02890497835227
 21
192.59445151647159
 31
0.0
  0
ARC
  5
16CDA
  8
AM_0
 10
342.77697574498092
 20
202.09443996675051
 30
0.0
 40
12.000000357627901
 50
180.00000500895689
 51
270.000000683243
  0
CIRCLE
  5
16CDB
  8
AM_0
 10
342.77697574498092
 20
202.09443996675051
 30
0.0
 40
10.499999999999989
  0
ARC
  5
16CDC
  8
AM_0
 10
307.27697538735299
 20
189.59445151647111
 30
0.0
 40
2.999999999999996
 50
90.0
 51
144.31466528734541
1001
GENIUS_GENOBJ-N-FIL_13
1002
{
1000
OWNER
1000
GEN
1002
}
1001
GENIUS_GENODEF_13
1002
{
1000
HIER
1070
     0
1002
}
1002
{
1000
MANEDIT
1070
     0
1002
}
1002
{
1000
NOSEL
1070
     0
1002
}
1002
{
1000
BEHIND
1070
     0
1002
}
1002
{
1000
OTHER
1070
     0
1002
}
1002
{
1000
REACTOR
1002
}
  0
LINE
  5
16CDD
  8
AM_0
 10
293.27697538735327
 20
190.09441151647121
 30
0.0
 11
293.27697538735327
 21
194.09441151647141
 31
0.0
  0
LINE
  5
16CE0
  8
AM_0
 10
293.27697538735327
 20
190.09445151647151
 30
0.0
 11
302.40357821494871
 21
190.09445151647151
 31
0.0
  0
ARC
  5
16CE1
  8
AM_0
 10
302.40357821494871
 20
193.09445151647111
 30
0.0
 40
2.999999999999996
 50
270.0
 51
324.31466528734541
1001
GENIUS_GENOBJ-N-FIL_13
1002
{
1000
OWNER
1000
GEN
1002
}
1001
GENIUS_GENODEF_13
1002
{
1000
HIER
1070
     0
1002
}
1002
{
1000
MANEDIT
1070
     0
1002
}
1002
{
1000
NOSEL
1070
     0
1002
}
1002
{
1000
BEHIND
1070
     0
1002
}
1002
{
1000
OTHER
1070
     0
1002
}
1002
{
1000
REACTOR
1002
}
  0
CIRCLE
  5
16CE3
  8
0
 10
358.77700915338568
 20
173.09444151647131
 30
0.0
 40
5.4999999999999947
  0
LINE
  5
16CE4
  8
ﾁｭｳｼﾝｾﾝ
 10
358.7770091533859
 20
186.59444151647131
 30
0.0
 11
358.7770091533859
 21
159.95762800652051
 31
0.0
1001
GENIUS_GENODEF_13
1002
{
1000
HIER
1070
     0
1002
}
1002
{
1000
MANEDIT
1070
     0
1002
}
1002
{
1000
NOSEL
1070
     0
1002
}
1002
{
1000
BEHIND
1070
     0
1002
}
1002
{
1000
OTHER
1070
     0
1002
}
1002
{
1000
REACTOR
1002
}
1001
GENIUS_GENOBJ-N-CEN_13
1002
{
1000
OWNER
1000
GEN
1002
}
  0
ARC
  5
16CE5
  8
0
 10
358.77701219115829
 20
173.0944402038549
 30
0.0
 40
14.00000415934084
 50
208.8866351646578
 51
270.0
  0
LINE
  5
16CE6
  8
ﾁｭｳｼﾝｾﾝ
 10
372.20419564343439
 20
173.09444151647131
 30
0.0
 11
345.64019564343459
 21
173.09444151647131
 31
0.0
1001
GENIUS_GENODEF_13
1002
{
1000
HIER
1070
     0
1002
}
1002
{
1000
MANEDIT
1070
     0
1002
}
1002
{
1000
NOSEL
1070
     0
1002
}
1002
{
1000
BEHIND
1070
     0
1002
}
1002
{
1000
OTHER
1070
     0
1002
}
1002
{
1000
REACTOR
1002
}
1001
GENIUS_GENOBJ-N-CEN_13
1002
{
1000
OWNER
1000
GEN
1002
}
  0
LINE
  5
16CE7
  8
AM_7
  6
AM_ISO08W050X2
 10
358.77700915338568
 20
173.09444151647131
 30
0.0
 11
358.77700915338568
 21
173.09444151647131
 31
0.0
1001
GENIUS_GENODEF_13
1002
{
1000
HIER
1070
     0
1002
}
1002
{
1000
MANEDIT
1070
     0
1002
}
1002
{
1000
NOSEL
1070
     0
1002
}
1002
{
1000
BEHIND
1070
     0
1002
}
1002
{
1000
OTHER
1070
     0
1002
}
1002
{
1000
REACTOR
1002
}
1001
GENIUS_GENOBJ-N-CEN_13
1002
{
1000
OWNER
1000
GEN
1002
}
  0
POLYLINE
  5
16CE9
  8
AM_0
 66
     1
 10
0.0
 20
0.0
 30
0.0
 70
     1
  0
VERTEX
  5
1959B
  8
AM_0
 10
342.77697574498097
 20
207.59443996675051
 30
0.0
  0
VERTEX
  5
1959C
  8
AM_0
 10
338.01383602416649
 20
204.84443996675051
 30
0.0
  0
VERTEX
  5
1959D
  8
AM_0
 10
338.01383602416649
 20
199.3444399667504
 30
0.0
  0
VERTEX
  5
1959E
  8
AM_0
 10
342.77697574498097
 20
196.59443996675051
 30
0.0
  0
VERTEX
  5
1959F
  8
AM_0
 10
347.54011546579522
 20
199.3444399667504
 30
0.0
  0
VERTEX
  5
195A0
  8
AM_0
 10
347.54011546579522
 20
204.84443996675051
 30
0.0
  0
SEQEND
  5
195A1
  8
AM_0
  0
CIRCLE
  5
16CEA
  8
AM_0
 10
342.77697574498092
 20
202.09443996675051
 30
0.0
 40
7.9999999999999929
  0
ARC
  5
16CEB
  8
AM_0
 10
342.77697574498092
 20
202.09443996675051
 30
0.0
 40
11.999999999999989
 50
356.62771271285618
 51
93.37228728714382
  0
LINE
  5
16CEC
  8
AM_0
 10
307.27697538735299
 20
192.59445151647111
 30
0.0
 11
334.48539833591661
 21
192.59445151647159
 31
0.0
  0
LINE
  5
16CFF
  8
AM_0
 10
293.27691756513588
 20
202.054441516503
 30
0.0
 11
303.27691756512968
 21
202.05443040539191
 31
0.0
  0
LINE
  5
16D00
  8
AM_0
 10
293.27697538735327
 20
202.05445151647149
 30
0.0
 11
303.27697538735327
 21
202.05445151647149
 31
0.0
  0
LINE
  5
16D0A
  8
AM_0
 10
293.27693412070278
 20
216.9544515164938
 30
0.0
 11
303.27693412069658
 21
216.9544404053828
 31
0.0
  0
LINE
  5
16D0B
  8
AM_0
 10
293.27697538735327
 20
216.95446151647161
 30
0.0
 11
303.27697538735327
 21
216.95446151647161
 31
0.0
  0
ARC
  5
16D0C
  8
AM_0
 10
341.77697556616698
 20
219.06500270469209
 30
0.0
 40
4.9999999999999947
 50
180.0
 51
273.37228728714382
1001
GENIUS_GENODEF_13
1002
{
1000
HIER
1070
     0
1002
}
1002
{
1000
MANEDIT
1070
     0
1002
}
1002
{
1000
NOSEL
1070
     0
1002
}
1002
{
1000
BEHIND
1070
     0
1002
}
1002
{
1000
OTHER
1070
     0
1002
}
1002
{
1000
REACTOR
1002
}
1001
GENIUS_GENOBJ-N-FIL_13
1002
{
1000
OWNER
1000
GEN
1002
}
  0
LINE
  5
16D0D
  8
AM_0
 10
325.34850974103961
 20
205.3657228783776
 30
0.0
 11
329.77697538735322
 21
205.3657228783776
 31
0.0
  0
ARC
  5
16D0E
  8
AM_0
 10
325.34850974103961
 20
208.3657228783776
 30
0.0
 40
2.999999999999996
 50
186.6607143203168
 51
270.0
1001
GENIUS_GENOBJ-N-FIL_13
1002
{
1000
OWNER
1000
GEN
1002
}
1001
GENIUS_GENODEF_13
1002
{
1000
HIER
1070
     0
1002
}
1002
{
1000
MANEDIT
1070
     0
1002
}
1002
{
1000
NOSEL
1070
     0
1002
}
1002
{
1000
BEHIND
1070
     0
1002
}
1002
{
1000
OTHER
1070
     0
1002
}
1002
{
1000
REACTOR
1002
}
  0
ARC
  5
16D0F
  8
ｶｸﾚｾﾝ2
 10
342.77697574498069
 20
202.09443449479309
 30
0.0
 40
14.00000035762786
 50
180.0
 51
208.8866351646578
  0
ARC
  5
16D10
  8
AM_0
 10
334.48539833591673
 20
189.59445151647191
 30
0.0
 40
2.999999999999996
 50
56.442621136825217
 51
90.0
1001
GENIUS_GENOBJ-N-FIL_13
1002
{
1000
OWNER
1000
GEN
1002
}
1001
GENIUS_GENODEF_13
1002
{
1000
HIER
1070
     0
1002
}
1002
{
1000
MANEDIT
1070
     0
1002
}
1002
{
1000
NOSEL
1070
     0
1002
}
1002
{
1000
BEHIND
1070
     0
1002
}
1002
{
1000
OTHER
1070
     0
1002
}
1002
{
1000
REACTOR
1002
}
  0
ARC
  5
16D11
  8
AM_0
 10
359.74753848292221
 20
201.09443978793681
 30
0.0
 40
4.9999999999999947
 50
176.62771271285609
 51
270.0
1001
GENIUS_GENOBJ-N-FIL_13
1002
{
1000
OWNER
1000
GEN
1002
}
1001
GENIUS_GENODEF_13
1002
{
1000
HIER
1070
     0
1002
}
1002
{
1000
MANEDIT
1070
     0
1002
}
1002
{
1000
NOSEL
1070
     0
1002
}
1002
{
1000
BEHIND
1070
     0
1002
}
1002
{
1000
OTHER
1070
     0
1002
}
1002
{
1000
REACTOR
1002
}
  0
LINE
  5
16D80
  8
0
 10
346.51892727593088
 20
341.85753359129978
 30
0.0
 11
332.02890799736991
 21
315.5944315164711
 31
0.0
  0
POLYLINE
  5
16D81
  8
AM_0
 66
     1
 10
0.0
 20
0.0
 30
0.0
 70
     1
  0
VERTEX
  5
195A2
  8
AM_0
 10
342.77697574498097
 20
311.59444306619213
 30
0.0
  0
VERTEX
  5
195A3
  8
AM_0
 10
338.01383602416649
 20
308.84444306619213
 30
0.0
  0
VERTEX
  5
195A4
  8
AM_0
 10
338.01383602416649
 20
303.34444306619213
 30
0.0
  0
VERTEX
  5
195A5
  8
AM_0
 10
342.77697574498097
 20
300.59444306619213
 30
0.0
  0
VERTEX
  5
195A6
  8
AM_0
 10
347.54011546579522
 20
303.34444306619213
 30
0.0
  0
VERTEX
  5
195A7
  8
AM_0
 10
347.54011546579522
 20
308.84444306619213
 30
0.0
  0
SEQEND
  5
195A8
  8
AM_0
  0
CIRCLE
  5
16D83
  8
AM_0
 10
342.77697574498092
 20
306.09444306619213
 30
0.0
 40
7.9999999999999929
  0
ARC
  5
16D84
  8
AM_0
 10
342.77697574498092
 20
306.09444306619213
 30
0.0
 40
11.999999999999989
 50
266.62771271285618
 51
3.3722872871437932
  0
ARC
  5
16D85
  8
AM_0
 10
342.77697574498092
 20
306.09444306619213
 30
0.0
 40
12.00000035762787
 50
90.000002504475205
 51
180.00000500895689
  0
CIRCLE
  5
16D86
  8
AM_0
 10
342.77697574498092
 20
306.09444306619213
 30
0.0
 40
10.499999999999989
  0
LINE
  5
16D87
  8
AM_0
 10
307.27697538735299
 20
315.59443151647127
 30
0.0
 11
334.48539833591673
 21
315.59443151647099
 31
0.0
  0
LINE
  5
16D96
  8
AM_0
 10
293.27697538735327
 20
291.2344215164714
 30
0.0
 11
303.27697538735327
 21
291.2344215164714
 31
0.0
  0
LINE
  5
16DB0
  8
AM_0
 10
293.27697538735327
 20
306.1344315164713
 30
0.0
 11
303.27697538735327
 21
306.1344315164713
 31
0.0
  0
LINE
  5
16DB1
  8
AM_0
 10
293.27697538735327
 20
318.09443151647139
 30
0.0
 11
302.40357821494871
 21
318.09443151647139
 31
0.0
  0
ARC
  5
16DB2
  8
AM_0
 10
307.27697538735299
 20
318.59443151647127
 30
0.0
 40
2.999999999999996
 50
215.68533471265459
 51
270.0
1001
GENIUS_GENOBJ-N-FIL_13
1002
{
1000
OWNER
1000
GEN
1002
}
1001
GENIUS_GENODEF_13
1002
{
1000
HIER
1070
     0
1002
}
1002
{
1000
MANEDIT
1070
     0
1002
}
1002
{
1000
NOSEL
1070
     0
1002
}
1002
{
1000
BEHIND
1070
     0
1002
}
1002
{
1000
OTHER
1070
     0
1002
}
1002
{
1000
REACTOR
1002
}
  0
ARC
  5
16DB3
  8
AM_0
 10
302.40357821494871
 20
315.0944315164715
 30
0.0
 40
2.999999999999996
 50
35.68533471265463
 51
90.0
1001
GENIUS_GENOBJ-N-FIL_13
1002
{
1000
OWNER
1000
GEN
1002
}
1001
GENIUS_GENODEF_13
1002
{
1000
HIER
1070
     0
1002
}
1002
{
1000
MANEDIT
1070
     0
1002
}
1002
{
1000
NOSEL
1070
     0
1002
}
1002
{
1000
BEHIND
1070
     0
1002
}
1002
{
1000
OTHER
1070
     0
1002
}
1002
{
1000
REACTOR
1002
}
  0
ARC
  5
16DB4
  8
AM_0
 10
325.34850974104103
 20
299.82316015456541
 30
0.0
 40
2.999999999999996
 50
90.0
 51
173.3392856796832
1001
GENIUS_GENODEF_13
1002
{
1000
HIER
1070
     0
1002
}
1002
{
1000
MANEDIT
1070
     0
1002
}
1002
{
1000
NOSEL
1070
     0
1002
}
1002
{
1000
BEHIND
1070
     0
1002
}
1002
{
1000
OTHER
1070
     0
1002
}
1002
{
1000
REACTOR
1002
}
1001
GENIUS_GENOBJ-N-FIL_13
1002
{
1000
OWNER
1000
GEN
1002
}
  0
ARC
  5
16DB5
  8
AM_0
 10
341.77697556616721
 20
289.12388032825078
 30
0.0
 40
4.9999999999999947
 50
86.627712712856194
 51
180.0
1001
GENIUS_GENOBJ-N-FIL_13
1002
{
1000
OWNER
1000
GEN
1002
}
1001
GENIUS_GENODEF_13
1002
{
1000
HIER
1070
     0
1002
}
1002
{
1000
MANEDIT
1070
     0
1002
}
1002
{
1000
NOSEL
1070
     0
1002
}
1002
{
1000
BEHIND
1070
     0
1002
}
1002
{
1000
OTHER
1070
     0
1002
}
1002
{
1000
REACTOR
1002
}
  0
LINE
  5
16DB6
  8
AM_0
 10
325.34850974104103
 20
302.82316015456541
 30
0.0
 11
329.77697538735322
 21
302.82316015456541
 31
0.0
  0
ARC
  5
16DB7
  8
ｶｸﾚｾﾝ2
 10
342.77697574498069
 20
306.09444306619241
 30
0.0
 40
14.00000035762786
 50
151.11336483534211
 51
180.0
  0
ARC
  5
16DB8
  8
AM_0
 10
334.48539833591673
 20
318.59443151647099
 30
0.0
 40
2.999999999999996
 50
270.0
 51
303.5573788631749
1001
GENIUS_GENOBJ-N-FIL_13
1002
{
1000
OWNER
1000
GEN
1002
}
1001
GENIUS_GENODEF_13
1002
{
1000
HIER
1070
     0
1002
}
1002
{
1000
MANEDIT
1070
     0
1002
}
1002
{
1000
NOSEL
1070
     0
1002
}
1002
{
1000
BEHIND
1070
     0
1002
}
1002
{
1000
OTHER
1070
     0
1002
}
1002
{
1000
REACTOR
1002
}
  0
LINE
  5
16DB9
  8
ﾁｭｳｼﾝｾﾝ
 10
358.77700662190892
 20
321.5944330067411
 30
0.0
 11
358.77700562293847
 21
348.23124651669218
 31
0.0
1001
GENIUS_GENODEF_13
1002
{
1000
HIER
1070
     0
1002
}
1002
{
1000
MANEDIT
1070
     0
1002
}
1002
{
1000
NOSEL
1070
     0
1002
}
1002
{
1000
BEHIND
1070
     0
1002
}
1002
{
1000
OTHER
1070
     0
1002
}
1002
{
1000
REACTOR
1002
}
1001
GENIUS_GENOBJ-N-CEN_13
1002
{
1000
OWNER
1000
GEN
1002
}
  0
ARC
  5
16DBB
  8
AM_0
 10
359.74753848292221
 20
307.09444324500578
 30
0.0
 40
4.9999999999999947
 50
90.0
 51
183.37228728714379
1001
GENIUS_GENOBJ-N-FIL_13
1002
{
1000
OWNER
1000
GEN
1002
}
1001
GENIUS_GENODEF_13
1002
{
1000
HIER
1070
     0
1002
}
1002
{
1000
MANEDIT
1070
     0
1002
}
1002
{
1000
NOSEL
1070
     0
1002
}
1002
{
1000
BEHIND
1070
     0
1002
}
1002
{
1000
OTHER
1070
     0
1002
}
1002
{
1000
REACTOR
1002
}
  0
ARC
  5
16DBC
  8
0
 10
358.77701219115829
 20
335.09443735713018
 30
0.0
 40
14.00000415934084
 50
90.0
 51
151.11336483534211
  0
CIRCLE
  5
16DBD
  8
0
 10
358.77700611561312
 20
335.09443300674099
 30
0.0
 40
5.4999999999999947
  0
LINE
  5
16DBE
  8
ﾁｭｳｼﾝｾﾝ
 10
372.20419260566177
 20
335.09443351030569
 30
0.0
 11
345.64019260566192
 21
335.09443251406623
 31
0.0
1001
GENIUS_GENODEF_13
1002
{
1000
HIER
1070
     0
1002
}
1002
{
1000
MANEDIT
1070
     0
1002
}
1002
{
1000
NOSEL
1070
     0
1002
}
1002
{
1000
BEHIND
1070
     0
1002
}
1002
{
1000
OTHER
1070
     0
1002
}
1002
{
1000
REACTOR
1002
}
1001
GENIUS_GENOBJ-N-CEN_13
1002
{
1000
OWNER
1000
GEN
1002
}
  0
LINE
  5
16DC3
  8
AM_0
 10
504.7770110309317
 20
306.09444306619241
 30
0.0
 11
504.7770110309317
 21
202.09443449479309
 31
0.0
  0
LINE
  5
16DC4
  8
AM_0
 10
496.77701085211743
 20
289.12388032825078
 30
0.0
 11
496.77701085211743
 21
219.06500270469181
 31
0.0
  0
LINE
  5
16DC5
  8
ﾁｭｳｼﾝｾﾝ1
 10
439.77700915338539
 20
356.18305327949372
 30
0.0
 11
439.77700915338528
 21
152.00582596912491
 31
0.0
  0
LINE
  5
16DC6
  8
AM_0
 10
502.77701103093131
 20
306.09444306619213
 30
0.0
 11
502.77701103093131
 21
202.09443996675051
 31
0.0
  0
LINE
  5
16DCD
  8
0
 10
487.03505914235308
 20
166.33134396968541
 30
0.0
 11
503.03509225983731
 21
195.3313400971478
 31
0.0
  0
ARC
  5
16DCE
  8
AM_0
 10
490.77701067330349
 20
202.09443996675051
 30
0.0
 40
12.00000035762787
 50
269.99999749551819
 51
0.0
  0
CIRCLE
  5
16DCF
  8
AM_0
 10
490.77701067330349
 20
202.09443996675051
 30
0.0
 40
10.499999999999989
  0
ARC
  5
16DD1
  8
0
 10
474.77697422712572
 20
173.0944402038549
 30
0.0
 40
14.00000415934084
 50
270.0
 51
331.11336483534222
  0
CIRCLE
  5
16DD2
  8
0
 10
474.77697726489862
 20
173.09444151647131
 30
0.0
 40
5.4999999999999947
  0
LINE
  5
16DD3
  8
ﾁｭｳｼﾝｾﾝ
 10
461.34979077484979
 20
173.09444151647131
 30
0.0
 11
487.91379077484959
 21
173.09444151647131
 31
0.0
1001
GENIUS_GENODEF_13
1002
{
1000
HIER
1070
     0
1002
}
1002
{
1000
MANEDIT
1070
     0
1002
}
1002
{
1000
NOSEL
1070
     0
1002
}
1002
{
1000
BEHIND
1070
     0
1002
}
1002
{
1000
OTHER
1070
     0
1002
}
1002
{
1000
REACTOR
1002
}
1001
GENIUS_GENOBJ-N-CEN_13
1002
{
1000
OWNER
1000
GEN
1002
}
  0
LINE
  5
16DD5
  8
ﾁｭｳｼﾝｾﾝ
 10
474.77697726489862
 20
186.59444151647131
 30
0.0
 11
474.77697726489862
 21
159.95762800652051
 31
0.0
1001
GENIUS_GENODEF_13
1002
{
1000
HIER
1070
     0
1002
}
1002
{
1000
MANEDIT
1070
     0
1002
}
1002
{
1000
NOSEL
1070
     0
1002
}
1002
{
1000
BEHIND
1070
     0
1002
}
1002
{
1000
OTHER
1070
     0
1002
}
1002
{
1000
REACTOR
1002
}
1001
GENIUS_GENOBJ-N-CEN_13
1002
{
1000
OWNER
1000
GEN
1002
}
  0
ARC
  5
16DD7
  8
AM_0
 10
473.80644793536197
 20
201.09443978793681
 30
0.0
 40
4.9999999999999947
 50
270.0
 51
3.3722872871437932
1001
GENIUS_GENODEF_13
1002
{
1000
HIER
1070
     0
1002
}
1002
{
1000
MANEDIT
1070
     0
1002
}
1002
{
1000
NOSEL
1070
     0
1002
}
1002
{
1000
BEHIND
1070
     0
1002
}
1002
{
1000
OTHER
1070
     0
1002
}
1002
{
1000
REACTOR
1002
}
1001
GENIUS_GENOBJ-N-FIL_13
1002
{
1000
OWNER
1000
GEN
1002
}
  0
ARC
  5
16DD8
  8
AM_0
 10
490.77701067330349
 20
202.09443996675051
 30
0.0
 40
11.999999999999989
 50
86.627712712856194
 51
183.37228728714379
  0
CIRCLE
  5
16DD9
  8
AM_0
 10
439.77700915338539
 20
254.09444151647131
 30
0.0
 40
22.50000067055224
  0
LINE
  5
16DDA
  8
AM_0
 10
439.77700915338539
 20
196.09443978793689
 30
0.0
 11
473.80644793536197
 21
196.09443978793689
 31
0.0
  0
CIRCLE
  5
16DDB
  8
ｽﾝﾎﾟｳｾﾝ
 10
439.77700915338539
 20
254.09443915827589
 30
0.0
 40
4.0
  0
LINE
  5
16DDC
  8
0
 10
435.77700915338528
 20
264.09443915827569
 30
0.0
 11
443.77700915338528
 21
264.09443915827569
 31
0.0
  0
ARC
  5
16DDD
  8
0
 10
439.77700915338539
 20
254.09443915827589
 30
0.0
 40
14.00000000000014
 50
106.6015495990207
 51
73.3984504009793
  0
LINE
  5
16DDE
  8
0
 10
435.77700915338528
 20
271.09443915827552
 30
0.0
 11
443.77700915338522
 21
271.09443915827552
 31
0.0
  0
LINE
  5
16DDF
  8
0
 10
435.77700915338528
 20
271.09443915827552
 30
0.0
 11
435.77700915338528
 21
264.09443915827569
 31
0.0
  0
LINE
  5
16DE0
  8
0
 10
443.77700915338528
 20
271.09443915827552
 30
0.0
 11
443.77700915338528
 21
264.09443915827569
 31
0.0
  0
ARC
  5
16DE1
  8
AM_0
 10
491.7770108521176
 20
219.06500270469181
 30
0.0
 40
4.9999999999999947
 50
266.62771271285618
 51
0.0
1001
GENIUS_GENODEF_13
1002
{
1000
HIER
1070
     0
1002
}
1002
{
1000
MANEDIT
1070
     0
1002
}
1002
{
1000
NOSEL
1070
     0
1002
}
1002
{
1000
BEHIND
1070
     0
1002
}
1002
{
1000
OTHER
1070
     0
1002
}
1002
{
1000
REACTOR
1002
}
1001
GENIUS_GENOBJ-N-FIL_13
1002
{
1000
OWNER
1000
GEN
1002
}
  0
POLYLINE
  5
16DE3
  8
AM_0
 66
     1
 10
0.0
 20
0.0
 30
0.0
 70
     1
  0
VERTEX
  5
195A9
  8
AM_0
 10
490.77701067330349
 20
207.59443996675051
 30
0.0
  0
VERTEX
  5
195AA
  8
AM_0
 10
486.01387095248919
 20
204.84443996675051
 30
0.0
  0
VERTEX
  5
195AB
  8
AM_0
 10
486.01387095248919
 20
199.3444399667504
 30
0.0
  0
VERTEX
  5
195AC
  8
AM_0
 10
490.77701067330349
 20
196.59443996675051
 30
0.0
  0
VERTEX
  5
195AD
  8
AM_0
 10
495.54015039411757
 20
199.3444399667504
 30
0.0
  0
VERTEX
  5
195AE
  8
AM_0
 10
495.54015039411757
 20
204.84443996675051
 30
0.0
  0
SEQEND
  5
195AF
  8
AM_0
  0
CIRCLE
  5
16DE4
  8
AM_0
 10
490.77701067330349
 20
202.09443996675051
 30
0.0
 40
7.9999999999999929
  0
ARC
  5
16DE6
  8
AM_0
 10
490.77701067330349
 20
202.09443449479309
 30
0.0
 40
14.00000035762786
 50
331.11336483534222
 51
0.0
  0
ARC
  5
16DE8
  8
0
 10
474.77697422712572
 20
335.09443735713018
 30
0.0
 40
14.00000415934084
 50
28.886635164657829
 51
90.0
  0
CIRCLE
  5
16DE9
  8
0
 10
474.77697422712617
 20
335.09443735713018
 30
0.0
 40
5.4999999999999947
  0
LINE
  5
16DEA
  8
ﾁｭｳｼﾝｾﾝ
 10
461.34978773707729
 20
335.09443685356558
 30
0.0
 11
487.91378773707731
 21
335.0944378498051
 31
0.0
1001
GENIUS_GENODEF_13
1002
{
1000
HIER
1070
     0
1002
}
1002
{
1000
MANEDIT
1070
     0
1002
}
1002
{
1000
NOSEL
1070
     0
1002
}
1002
{
1000
BEHIND
1070
     0
1002
}
1002
{
1000
OTHER
1070
     0
1002
}
1002
{
1000
REACTOR
1002
}
1001
GENIUS_GENOBJ-N-CEN_13
1002
{
1000
OWNER
1000
GEN
1002
}
  0
ARC
  5
16DEB
  8
AM_0
 10
473.80644793536197
 20
307.09444324500612
 30
0.0
 40
4.9999999999999947
 50
356.62771271285618
 51
90.0
1001
GENIUS_GENOBJ-N-FIL_13
1002
{
1000
OWNER
1000
GEN
1002
}
1001
GENIUS_GENODEF_13
1002
{
1000
HIER
1070
     0
1002
}
1002
{
1000
MANEDIT
1070
     0
1002
}
1002
{
1000
NOSEL
1070
     0
1002
}
1002
{
1000
BEHIND
1070
     0
1002
}
1002
{
1000
OTHER
1070
     0
1002
}
1002
{
1000
REACTOR
1002
}
  0
ARC
  5
16DEC
  8
AM_0
 10
490.77701067330349
 20
306.09444306619213
 30
0.0
 40
11.999999999999989
 50
176.62771271285609
 51
273.37228728714382
  0
LINE
  5
16DED
  8
ﾁｭｳｼﾝｾﾝ
 10
474.7769747334213
 20
321.59443735713057
 30
0.0
 11
474.77697373445091
 21
348.23125086708143
 31
0.0
1001
GENIUS_GENODEF_13
1002
{
1000
HIER
1070
     0
1002
}
1002
{
1000
MANEDIT
1070
     0
1002
}
1002
{
1000
NOSEL
1070
     0
1002
}
1002
{
1000
BEHIND
1070
     0
1002
}
1002
{
1000
OTHER
1070
     0
1002
}
1002
{
1000
REACTOR
1002
}
1001
GENIUS_GENOBJ-N-CEN_13
1002
{
1000
OWNER
1000
GEN
1002
}
  0
LINE
  5
16DEE
  8
AM_0
 10
439.77700915338539
 20
312.094443245006
 30
0.0
 11
473.80644793536197
 21
312.094443245006
 31
0.0
  0
LINE
  5
16DEF
  8
AM_7
  6
AM_ISO08W050X2
 10
474.77697422712617
 20
335.09443735713018
 30
0.0
 11
474.77697422712617
 21
335.09443735713018
 31
0.0
1001
GENIUS_GENODEF_13
1002
{
1000
HIER
1070
     0
1002
}
1002
{
1000
MANEDIT
1070
     0
1002
}
1002
{
1000
NOSEL
1070
     0
1002
}
1002
{
1000
BEHIND
1070
     0
1002
}
1002
{
1000
OTHER
1070
     0
1002
}
1002
{
1000
REACTOR
1002
}
1001
GENIUS_GENOBJ-N-CEN_13
1002
{
1000
OWNER
1000
GEN
1002
}
  0
LINE
  5
16DF0
  8
0
 10
487.03505914235308
 20
341.85753359129978
 30
0.0
 11
503.03509225983731
 21
312.85753746383728
 31
0.0
  0
CIRCLE
  5
16DF2
  8
AM_0
 10
490.77701067330349
 20
306.09444306619213
 30
0.0
 40
7.9999999999999929
  0
CIRCLE
  5
16DF3
  8
AM_0
 10
490.77701067330349
 20
306.09444306619213
 30
0.0
 40
10.499999999999989
  0
ARC
  5
16DF4
  8
AM_0
 10
491.7770108521176
 20
289.12388032825078
 30
0.0
 40
4.9999999999999947
 50
0.0
 51
93.37228728714382
1001
GENIUS_GENODEF_13
1002
{
1000
HIER
1070
     0
1002
}
1002
{
1000
MANEDIT
1070
     0
1002
}
1002
{
1000
NOSEL
1070
     0
1002
}
1002
{
1000
BEHIND
1070
     0
1002
}
1002
{
1000
OTHER
1070
     0
1002
}
1002
{
1000
REACTOR
1002
}
1001
GENIUS_GENOBJ-N-FIL_13
1002
{
1000
OWNER
1000
GEN
1002
}
  0
POLYLINE
  5
16DF6
  8
AM_0
 66
     1
 10
0.0
 20
0.0
 30
0.0
 70
     1
  0
VERTEX
  5
195B0
  8
AM_0
 10
490.77701067330349
 20
311.59444306619213
 30
0.0
  0
VERTEX
  5
195B1
  8
AM_0
 10
486.01387095248919
 20
308.84444306619213
 30
0.0
  0
VERTEX
  5
195B2
  8
AM_0
 10
486.01387095248919
 20
303.34444306619213
 30
0.0
  0
VERTEX
  5
195B3
  8
AM_0
 10
490.77701067330349
 20
300.59444306619213
 30
0.0
  0
VERTEX
  5
195B4
  8
AM_0
 10
495.54015039411757
 20
303.34444306619213
 30
0.0
  0
VERTEX
  5
195B5
  8
AM_0
 10
495.54015039411757
 20
308.84444306619213
 30
0.0
  0
SEQEND
  5
195B6
  8
AM_0
  0
ARC
  5
16DF7
  8
AM_0
 10
490.77701067330349
 20
306.09444306619213
 30
0.0
 40
12.00000035762786
 50
0.0
 51
90.000002504475205
  0
ARC
  5
16DF8
  8
AM_0
 10
490.77701067330349
 20
306.09444306619241
 30
0.0
 40
14.00000035762786
 50
0.0
 51
28.886635164657829
  0
LINE
  5
16DFF
  8
AM_0
 10
799.92976693568312
 20
159.0944415164717
 30
0.0
 11
799.92976693568312
 21
349.09444151647119
 31
0.0
  0
ARC
  5
16E00
  8
AM_0
 10
667.06578302468802
 20
279.09386151647118
 30
0.0
 40
1.0006207999999981
 50
90.515970000001047
 51
267.19250000000471
  0
ARC
  5
16E01
  8
AM_0
 10
669.540303024688
 20
279.08487151647142
 30
0.0
 40
1.090437399999999
 50
92.287669999999238
 51
269.81468999999669
  0
LINE
  5
16E03
  8
AM_0
 10
680.93676393497924
 20
191.4559508801679
 30
0.0
 11
680.93676393497924
 21
316.73296267035403
 31
0.0
  0
LINE
  5
16E04
  8
AM_0
 10
758.93677388895503
 20
190.09443960912299
 30
0.0
 11
758.93677388895503
 21
318.09444342381988
 31
0.0
  0
LINE
  5
16E05
  8
AM_0
 10
676.93677144516505
 20
216.59444039888459
 30
0.0
 11
676.93677144516505
 21
291.5944426340584
 31
0.0
  0
ARC
  5
16E06
  8
AM_0
 10
729.95368302468785
 20
254.08444151647171
 30
0.0
 40
64.014987999999931
 50
145.91379204811599
 51
160.91677546541911
  0
LINE
  5
16E07
  8
ﾁｭｳｼﾝｾﾝ1
 10
729.92976693569301
 20
135.52702774269889
 30
0.0
 11
729.92976693569301
 21
325.0370180036723
 31
0.0
  0
ARC
  5
16E08
  8
AM_0
 10
729.95368302468785
 20
254.08444151647171
 30
0.0
 40
64.014987999999931
 50
199.06075530302539
 51
214.08620795188389
  0
LINE
  5
16E09
  8
AM_0
 10
672.93677132595553
 20
276.59444218702362
 30
0.0
 11
676.93677144516505
 21
276.59444218702362
 31
0.0
  0
LINE
  5
16E0B
  8
AM_0
 10
672.93677132595553
 20
231.59444084591939
 30
0.0
 11
676.93677144516505
 21
231.59444084591939
 31
0.0
  0
LINE
  5
16E0C
  8
AM_0
 10
676.93677302468825
 20
217.80797763264459
 30
0.0
 11
669.07678302468798
 21
218.09444651647161
 31
0.0
  0
LINE
  5
16E0D
  8
AM_0
 10
678.93676393497924
 20
210.0944399667504
 30
0.0
 11
668.93676393497924
 21
210.0944399667504
 31
0.0
  0
LINE
  5
16E0E
  8
AM_0
 10
668.93676393497924
 20
194.0944399667506
 30
0.0
 11
678.93676393497924
 21
194.0944399667506
 31
0.0
  0
LINE
  5
16E10
  8
0
 10
661.92976693570324
 20
236.59444151647151
 30
0.0
 11
672.93677132595553
 21
231.59444084591939
 31
0.0
  0
LINE
  5
16E11
  8
AM_0
 10
672.93677132595553
 20
276.59444218702362
 30
0.0
 11
672.93677132595553
 21
231.59444084591939
 31
0.0
  0
LINE
  5
16E12
  8
AM_0
 10
668.93676393497924
 20
210.0944399667504
 30
0.0
 11
668.93676393497924
 21
194.0944399667506
 31
0.0
  0
LINE
  5
16E13
  8
AM_0
 10
668.43677302468802
 20
224.31443951647151
 30
0.0
 11
666.41678302468802
 21
224.45443951647169
 31
0.0
  0
ARC
  5
16E14
  8
AM_0
 10
666.45101302468777
 20
224.96769151647149
 30
0.0
 40
0.5143923799999997
 50
181.47632999999809
 51
266.1853900000005
  0
LINE
  5
16E15
  8
AM_0
 10
668.436783024688
 20
229.09443851647151
 30
0.0
 11
668.436783024688
 21
219.83444451647179
 31
0.0
  0
ARC
  5
16E16
  8
AM_0
 10
669.12267302468808
 20
219.09495751647151
 30
0.0
 40
1.000534899999999
 50
92.628309999997001
 51
269.66321999999968
  0
LINE
  5
16E17
  8
AM_0
 10
675.53825927302478
 20
220.31347739483959
 30
0.0
 11
669.07678302468798
 21
220.09443851647151
 31
0.0
  0
LINE
  5
16E18
  8
AM_0
 10
668.436783024688
 20
228.03444051647151
 30
0.0
 11
667.01679302468801
 21
228.0944385164718
 31
0.0
  0
LINE
  5
16E19
  8
AM_0
 10
670.52293427047675
 20
230.21474652188579
 30
0.0
 11
667.01677302468795
 21
230.0944385164716
 31
0.0
  0
LINE
  5
16E1A
  8
AM_0
 10
668.436783024688
 20
226.8544405164715
 30
0.0
 11
666.41678302468802
 21
226.7144415164716
 31
0.0
  0
ARC
  5
16E1B
  8
AM_0
 10
667.06595302468804
 20
229.09502651647179
 30
0.0
 40
1.000625599999998
 50
92.817069999998438
 51
269.4744600000011
  0
ARC
  5
16E1C
  8
AM_0
 10
666.43714302468788
 20
226.21450251647161
 30
0.0
 40
0.5003520299999995
 50
92.331169999999688
 51
180.00710999999771
  0
LINE
  5
16E1D
  8
AM_0
 10
665.93678302468777
 20
225.59443851647131
 30
0.0
 11
665.93678302468777
 21
226.2144415164714
 31
0.0
  0
LINE
  5
16E1E
  8
AM_0
 10
665.93678302468777
 20
225.59443851647131
 30
0.0
 11
665.93678302468777
 21
224.9544395164715
 31
0.0
  0
LINE
  5
16E1F
  8
AM_0
 10
671.49138099957656
 20
227.9330718708226
 30
0.0
 11
669.49678302468783
 21
227.99444051647151
 31
0.0
  0
ARC
  5
16E20
  8
AM_0
 10
669.540303024688
 20
229.08487151647179
 30
0.0
 40
1.090437399999999
 50
92.287669999999238
 51
269.814680000002
  0
LINE
  5
16E21
  8
0
 10
619.92976693570324
 20
271.09444151647148
 30
0.0
 11
651.92976693570324
 21
271.09444151647148
 31
0.0
  0
LINE
  5
16E22
  8
0
 10
619.92976693570324
 20
268.09444151647148
 30
0.0
 11
661.92976693570324
 21
268.09444151647148
 31
0.0
  0
LINE
  5
16E23
  8
0
 10
619.92976693570324
 20
240.09444151647139
 30
0.0
 11
661.92976693570324
 21
240.09444151647139
 31
0.0
  0
LINE
  5
16E24
  8
AM_0
 10
619.92976693570324
 20
240.09444151647139
 30
0.0
 11
619.92976693570324
 21
271.09444151647148
 31
0.0
  0
LINE
  5
16E26
  8
0
 10
661.92976693570324
 20
271.59444151647142
 30
0.0
 11
661.92976693570324
 21
236.59444151647151
 31
0.0
  0
LINE
  5
16E2D
  8
0
 10
651.92976693570324
 20
271.09444151647148
 30
0.0
 11
651.92976693570324
 21
268.09444151647148
 31
0.0
  0
LINE
  5
16E31
  8
0
 10
661.92976693570324
 20
271.59444151647142
 30
0.0
 11
672.93677132595553
 21
276.59444218702362
 31
0.0
  0
LINE
  5
16E32
  8
AM_0
 10
670.54034858742796
 20
277.97353460546151
 30
0.0
 11
667.01679302468801
 21
278.09444151647131
 31
0.0
  0
LINE
  5
16E3A
  8
AM_0
 10
678.93676393497924
 20
191.59443996675051
 30
0.0
 11
678.93676393497924
 21
212.59443996675051
 31
0.0
  0
LINE
  5
16E42
  8
AM_0
 10
758.93677388895503
 20
190.09443960912299
 30
0.0
 11
680.93676393497924
 21
191.4559508801679
 31
0.0
  0
LINE
  5
17132
  8
AM_0
 10
678.93676393497924
 20
191.59443996675051
 30
0.0
 11
680.93676393497924
 21
191.59443996675051
 31
0.0
  0
LINE
  5
173EC
  8
0
 10
758.93677388895503
 20
190.09443960912259
 30
0.0
 11
781.03446542579059
 21
189.32277121666499
 31
0.0
  0
LINE
  5
173FD
  8
AM_0
 10
783.92976693568312
 20
186.32459873560759
 30
0.0
 11
783.92976693568312
 21
161.5845513779536
 31
0.0
  0
LINE
  5
17400
  8
0
 10
785.8599679422781
 20
159.58576972391529
 30
0.0
 11
799.92976693568312
 21
159.0944415164717
 31
0.0
  0
ARC
  5
17401
  8
0
 10
785.92976693568312
 20
161.5845513779536
 30
0.0
 40
1.9999999999999989
 50
180.0
 51
267.99999999999949
1001
GENIUS_GENOBJ-N-FIL_13
1002
{
1000
OWNER
1000
GEN
1002
}
1001
GENIUS_GENODEF_13
1002
{
1000
HIER
1070
     0
1002
}
1002
{
1000
MANEDIT
1070
     0
1002
}
1002
{
1000
NOSEL
1070
     0
1002
}
1002
{
1000
BEHIND
1070
     0
1002
}
1002
{
1000
OTHER
1070
     0
1002
}
1002
{
1000
REACTOR
1002
}
  0
ARC
  5
17405
  8
0
 10
780.92976693568312
 20
186.32459873560759
 30
0.0
 40
3.0
 50
0.0
 51
87.999999999999517
1001
GENIUS_GENOBJ-N-FIL_13
1002
{
1000
OWNER
1000
GEN
1002
}
1001
GENIUS_GENODEF_13
1002
{
1000
HIER
1070
     0
1002
}
1002
{
1000
MANEDIT
1070
     0
1002
}
1002
{
1000
NOSEL
1070
     0
1002
}
1002
{
1000
BEHIND
1070
     0
1002
}
1002
{
1000
OTHER
1070
     0
1002
}
1002
{
1000
REACTOR
1002
}
  0
LINE
  5
17408
  8
AM_0
 10
678.43678302468777
 20
210.0944399667504
 30
0.0
 11
678.43678302468777
 21
215.111165659416
 31
0.0
  0
LINE
  5
17409
  8
AM_0
 10
678.93676393497924
 20
212.59443996675051
 30
0.0
 11
680.93676393497924
 21
212.59443996675051
 31
0.0
  0
ARC
  5
1740A
  8
AM_0
 10
675.43678302468766
 20
215.111165659416
 30
0.0
 40
2.999999999999996
 50
0.0
 51
29.631860164016359
1001
GENIUS_GENOBJ-N-FIL_13
1002
{
1000
OWNER
1000
GEN
1002
}
1001
GENIUS_GENODEF_13
1002
{
1000
HIER
1070
     0
1002
}
1002
{
1000
MANEDIT
1070
     0
1002
}
1002
{
1000
NOSEL
1070
     0
1002
}
1002
{
1000
BEHIND
1070
     0
1002
}
1002
{
1000
OTHER
1070
     0
1002
}
1002
{
1000
REACTOR
1002
}
  0
LINE
  5
1740B
  8
AM_0
 10
676.93677144516505
 20
216.59444039888459
 30
0.0
 11
680.93677156437423
 21
216.59444039888459
 31
0.0
  0
LINE
  5
1741D
  8
AM_0
 10
678.93676393497924
 20
314.0944430661923
 30
0.0
 11
668.93676393497924
 21
314.0944430661923
 31
0.0
  0
LINE
  5
1741E
  8
AM_0
 10
668.93676393497924
 20
298.09444306619253
 30
0.0
 11
678.93676393497924
 21
298.09444306619253
 31
0.0
  0
LINE
  5
1741F
  8
AM_0
 10
676.93677302468768
 20
290.36300551910023
 30
0.0
 11
669.0767730246879
 21
290.09444151647131
 31
0.0
  0
LINE
  5
17420
  8
AM_0
 10
668.93676393497924
 20
314.0944430661923
 30
0.0
 11
668.93676393497924
 21
298.09444306619253
 31
0.0
  0
ARC
  5
17421
  8
AM_0
 10
669.12250302468794
 20
289.09392151647148
 30
0.0
 40
1.000530599999998
 50
90.327200000001042
 51
267.38127000000139
  0
LINE
  5
17422
  8
AM_0
 10
668.43677302468802
 20
283.87444151647151
 30
0.0
 11
666.41678302468802
 21
283.71443151647128
 31
0.0
  0
LINE
  5
17423
  8
AM_0
 10
668.436783024688
 20
280.13445151647147
 30
0.0
 11
667.01679302468801
 21
280.09444151647148
 31
0.0
  0
LINE
  5
17424
  8
AM_0
 10
668.43677302468802
 20
281.31444151647139
 30
0.0
 11
666.41678302468802
 21
281.4544415164716
 31
0.0
  0
ARC
  5
17425
  8
AM_0
 10
666.43714302468788
 20
283.2145115164713
 30
0.0
 40
0.5003520299999995
 50
92.331169999999688
 51
180.00710999999771
  0
LINE
  5
17426
  8
AM_0
 10
665.93678302468777
 20
282.59444151647131
 30
0.0
 11
665.93678302468777
 21
283.21443151647151
 31
0.0
  0
ARC
  5
17427
  8
AM_0
 10
666.45101302468777
 20
281.96770151647149
 30
0.0
 40
0.5143923799999997
 50
181.47632999999809
 51
266.1853900000005
  0
LINE
  5
17428
  8
AM_0
 10
665.93678302468777
 20
282.59444151647131
 30
0.0
 11
665.93678302468777
 21
281.95444151647149
 31
0.0
  0
LINE
  5
17429
  8
AM_0
 10
671.50926759954473
 20
280.25184506705671
 30
0.0
 11
669.49678302468783
 21
280.17444151647152
 31
0.0
  0
LINE
  5
1742A
  8
AM_0
 10
668.436783024688
 20
288.3544515164715
 30
0.0
 11
668.436783024688
 21
279.09444151647142
 31
0.0
  0
LINE
  5
1742B
  8
AM_0
 10
675.55383941512912
 20
287.85658317747499
 30
0.0
 11
669.07678302468798
 21
288.09444151647142
 31
0.0
  0
LINE
  5
17430
  8
AM_0
 10
758.93677388895503
 20
318.09444342381988
 30
0.0
 11
680.93676393497924
 21
316.73296267035403
 31
0.0
  0
LINE
  5
17431
  8
AM_0
 10
678.93676393497924
 20
295.59444306619213
 30
0.0
 11
678.93676393497924
 21
316.59444306619213
 31
0.0
  0
LINE
  5
17432
  8
AM_0
 10
678.43678302468777
 20
293.057717373527
 30
0.0
 11
678.43678302468777
 21
298.09444306619253
 31
0.0
  0
LINE
  5
17433
  8
AM_0
 10
678.93676393497924
 20
295.59444306619213
 30
0.0
 11
680.93676393497924
 21
295.59444306619213
 31
0.0
  0
LINE
  5
17434
  8
AM_0
 10
676.93677144516505
 20
291.5944426340584
 30
0.0
 11
680.93677156437423
 21
291.5944426340584
 31
0.0
  0
ARC
  5
17435
  8
AM_0
 10
675.43678302468766
 20
293.057717373527
 30
0.0
 40
2.999999999999996
 50
330.80663173194762
 51
0.0
1001
GENIUS_GENOBJ-N-FIL_13
1002
{
1000
OWNER
1000
GEN
1002
}
1001
GENIUS_GENODEF_13
1002
{
1000
HIER
1070
     0
1002
}
1002
{
1000
MANEDIT
1070
     0
1002
}
1002
{
1000
NOSEL
1070
     0
1002
}
1002
{
1000
BEHIND
1070
     0
1002
}
1002
{
1000
OTHER
1070
     0
1002
}
1002
{
1000
REACTOR
1002
}
  0
LINE
  5
17436
  8
AM_0
 10
678.93676393497924
 20
316.59444306619213
 30
0.0
 11
680.93676393497924
 21
316.59444306619213
 31
0.0
  0
ARC
  5
17437
  8
AM_0
 10
704.93701302468821
 20
316.9782295164714
 30
0.0
 40
1.000393499999997
 50
10.993529635258341
 51
179.0714379999965
  0
ARC
  5
17439
  8
AM_0
 10
729.92673302468791
 20
254.08809151647131
 30
0.0
 40
64.00635100000008
 50
89.991012616410785
 51
98.280567367618005
  0
LINE
  5
1743A
  8
AM_0
 10
715.97226767464508
 20
317.34448438127117
 30
0.0
 11
715.9367430246881
 21
318.3744435164715
 31
0.0
  0
LINE
  5
1743B
  8
AM_0
 10
713.89922893306755
 20
317.30829892578578
 30
0.0
 11
713.93677302468814
 21
318.37444751647149
 31
0.0
  0
ARC
  5
1743C
  8
AM_0
 10
714.93717302468815
 20
318.33375151647118
 30
0.0
 40
1.000413999999999
 50
2.331049999997953
 51
179.96048300000029
  0
ARC
  5
1743D
  8
AM_0
 10
724.93732302468811
 20
319.00669851647137
 30
0.0
 40
1.0005847999999991
 50
2.7350400000044188
 51
179.5564910000007
  0
LINE
  5
1743E
  8
AM_0
 10
723.89427878816196
 20
317.82210594897202
 30
0.0
 11
723.93677302468791
 21
319.05443951647158
 31
0.0
  0
LINE
  5
1743F
  8
AM_0
 10
725.96381789579334
 20
317.98563535148639
 30
0.0
 11
725.9367730246878
 21
319.05444351647162
 31
0.0
  0
ARC
  5
17440
  8
AM_0
 10
734.93619302468801
 20
319.00601951647138
 30
0.0
 40
1.000603799999999
 50
0.4821899999981744
 51
177.2262829999969
  0
ARC
  5
17441
  8
AM_0
 10
729.92673302468791
 20
254.08809151647131
 30
0.0
 40
64.00635100000008
 50
83.719456375074856
 51
89.991012616410785
  0
LINE
  5
17443
  8
AM_0
 10
733.89637067563569
 20
317.99051233817499
 30
0.0
 11
733.93677302468814
 21
319.05443951647158
 31
0.0
  0
LINE
  5
17447
  8
AM_0
 10
735.97905346536174
 20
317.82830814627818
 30
0.0
 11
735.93677302468768
 21
319.05443951647158
 31
0.0
  0
LINE
  5
1744A
  8
AM_0
 10
783.92976693568312
 20
321.86428429733502
 30
0.0
 11
783.92976693568312
 21
346.60433165498898
 31
0.0
  0
LINE
  5
1744B
  8
0
 10
758.93677388895503
 20
318.09444342382028
 30
0.0
 11
781.03446542579059
 21
318.86611181627779
 31
0.0
  0
LINE
  5
1744D
  8
AM_0
 10
745.95461315831233
 20
317.86783438244811
 30
0.0
 11
745.93677302468791
 21
318.3744435164715
 31
0.0
  0
LINE
  5
1744E
  8
AM_0
 10
743.91808031210667
 20
317.83228614730302
 30
0.0
 11
743.93677302468814
 21
318.3744435164715
 31
0.0
  0
ARC
  5
1744F
  8
AM_0
 10
744.93634302468786
 20
318.33307651647118
 30
0.0
 40
1.0004281999999971
 50
0.078219999997982
 51
177.63024800000301
  0
ARC
  5
1745D
  8
0
 10
780.92976693568312
 20
321.86428429733502
 30
0.0
 40
3.0
 50
272.00000000000051
 51
0.0
1001
GENIUS_GENODEF_13
1002
{
1000
HIER
1070
     0
1002
}
1002
{
1000
MANEDIT
1070
     0
1002
}
1002
{
1000
NOSEL
1070
     0
1002
}
1002
{
1000
BEHIND
1070
     0
1002
}
1002
{
1000
OTHER
1070
     0
1002
}
1002
{
1000
REACTOR
1002
}
1001
GENIUS_GENOBJ-N-FIL_13
1002
{
1000
OWNER
1000
GEN
1002
}
  0
LINE
  5
17467
  8
0
 10
785.8599679422781
 20
348.60311330902732
 30
0.0
 11
799.92976693568312
 21
349.09444151647119
 31
0.0
  0
ARC
  5
17468
  8
0
 10
785.92976693568312
 20
346.60433165498898
 30
0.0
 40
1.9999999999999989
 50
92.000000000000483
 51
180.0
1001
GENIUS_GENOBJ-N-FIL_13
1002
{
1000
OWNER
1000
GEN
1002
}
1001
GENIUS_GENODEF_13
1002
{
1000
HIER
1070
     0
1002
}
1002
{
1000
MANEDIT
1070
     0
1002
}
1002
{
1000
NOSEL
1070
     0
1002
}
1002
{
1000
BEHIND
1070
     0
1002
}
1002
{
1000
OTHER
1070
     0
1002
}
1002
{
1000
REACTOR
1002
}
  0
LINE
  5
17869
  8
AM_0
 10
758.92976693569324
 20
190.09444151647151
 30
0.0
 11
736.84416641604207
 21
190.47994736441549
 31
0.0
  0
ARC
  5
17873
  8
AM_0
 10
697.76097693569318
 20
188.17209151647151
 30
0.0
 40
2.0097484999999988
 50
1.7779099999986701
 51
157.0903460000016
  0
LINE
  5
17874
  8
AM_0
 10
695.98916108795584
 20
191.19307461027631
 30
0.0
 11
695.90977693569323
 21
188.95444151647149
 31
0.0
  0
LINE
  5
17875
  8
AM_0
 10
693.8565672825157
 20
191.23029919842159
 30
0.0
 11
693.92976693569324
 21
189.17443151647149
 31
0.0
  0
ARC
  5
17876
  8
AM_0
 10
694.92988693569305
 20
189.20167151647161
 30
0.0
 40
1.000226099999999
 50
179.26866700000079
 51
358.43981999999937
  0
LINE
  5
17878
  8
AM_0
 10
720.74634732877973
 20
190.76093602903271
 30
0.0
 11
736.84416641604264
 21
190.47994736441549
 31
0.0
  0
ARC
  5
17879
  8
AM_0
 10
729.90315693569323
 20
254.0919515164716
 30
0.0
 40
63.989566999999987
 50
261.77281830828667
 51
270.02382639558658
  0
ARC
  5
1787A
  8
AM_0
 10
729.90315693569323
 20
254.0919515164716
 30
0.0
 40
63.989566999999987
 50
270.02382639558658
 51
276.22718035921872
  0
ARC
  5
17885
  8
AM_0
 10
764.92961693569305
 20
189.20235151647159
 30
0.0
 40
1.000231299999998
 50
181.598942999999
 51
0.6925799999989853
  0
LINE
  5
17886
  8
AM_0
 10
763.895452785374
 20
189.9212787263973
 30
0.0
 11
763.92973693569309
 21
188.95444151647149
 31
0.0
  0
ARC
  5
17887
  8
AM_0
 10
762.08812693569303
 20
188.17646151647159
 30
0.0
 40
1.9992131999999989
 50
22.901329999994228
 51
62.658139821750957
  0
ARC
  5
17888
  8
AM_0
 10
762.08812693569303
 20
188.17646151647159
 30
0.0
 40
1.9992131999999989
 50
113.34186017824941
 51
161.78296234542691
  0
LINE
  5
17889
  8
AM_0
 10
765.95272440541714
 20
189.84943721837189
 30
0.0
 11
765.92973693569309
 21
189.1744415164716
 31
0.0
  0
LINE
  5
179B1
  8
ｶｸﾚｾﾝ2
 10
332.02890799736991
 20
315.5944315164711
 30
0.0
 11
330.5188941584467
 21
312.85753746383728
 31
0.0
  0
LINE
  5
179B3
  8
ｶｸﾚｾﾝ2
 10
332.02890497835227
 20
192.59445151647159
 30
0.0
 11
330.5188941584467
 21
195.331340097148
 31
0.0
  0
CIRCLE
  5
179B5
  8
AM_0
 10
439.77700915338539
 20
254.09444151647131
 30
0.0
 40
3.399999999999999
  0
LINE
  5
17B4E
  8
AM_0
 10
783.92976693568312
 20
318.967217972914
 30
0.0
 11
799.92976693568312
 21
318.967217972914
 31
0.0
  0
LINE
  5
17B4F
  8
AM_0
 10
783.92976693568312
 20
189.22166506002881
 30
0.0
 11
799.92976693568312
 21
189.22166506002881
 31
0.0
  0
LINE
  5
17B51
  8
AM_0
 10
402.2770080357983
 20
500.09894675451721
 30
0.0
 11
477.2770102709726
 21
500.09894675451721
 31
0.0
  0
LINE
  5
17B52
  8
AM_0
 10
332.13848665839828
 20
504.09893924433129
 30
0.0
 11
501.41553027746562
 21
504.0989392443314
 31
0.0
  0
LINE
  5
17B53
  8
AM_0
 10
330.77697538735339
 20
582.09894919830754
 30
0.0
 11
502.7770110309317
 21
582.09894919830754
 31
0.0
  0
LINE
  5
17B54
  8
ﾁｭｳｼﾝｾﾝ1
 10
79.58219179185879
 20
553.0989483340403
 30
0.0
 11
509.0270110309317
 21
553.0989483340403
 31
0.0
1001
GENIUS_GENODEF_13
1002
{
1000
HIER
1070
     0
1002
}
1002
{
1000
MANEDIT
1070
     0
1002
}
1002
{
1000
NOSEL
1070
     0
1002
}
1002
{
1000
BEHIND
1070
     0
1002
}
1002
{
1000
REACTOR
1002
}
1001
GENIUS_GENOBJ-N-CEN_13
1002
{
1000
OWNER
1000
GEN
1002
}
  0
LINE
  5
17B55
  8
AM_0
 10
304.27697538735339
 20
491.59895333403961
 30
0.0
 11
304.27697538735339
 21
614.59893333404011
 31
0.0
  0
LINE
  5
17B56
  8
AM_0
 10
330.77697538742927
 20
582.09894919830754
 30
0.0
 11
332.13848665839828
 21
504.0989392443314
 31
0.0
  0
LINE
  5
17B57
  8
AM_0
 10
293.27697538735339
 20
489.09891833403992
 30
0.0
 11
293.27697538735339
 21
617.09893333404011
 31
0.0
  0
LINE
  5
17B58
  8
AM_0
 10
293.27697538735339
 20
590.23892333403978
 30
0.0
 11
303.27697538735339
 21
590.23892333403978
 31
0.0
  0
LINE
  5
17B59
  8
AM_0
 10
293.276934120703
 20
590.23893333401759
 30
0.0
 11
303.27693412069681
 21
590.23894444512848
 31
0.0
  0
LINE
  5
17B5A
  8
AM_0
 10
293.27697538735339
 20
605.13893333403996
 30
0.0
 11
303.27697538735339
 21
605.13893333403996
 31
0.0
  0
LINE
  5
17B5B
  8
AM_0
 10
293.27691756513627
 20
605.13894333400845
 30
0.0
 11
303.27691756513002
 21
605.13895444511979
 31
0.0
  0
LINE
  5
17B5C
  8
AM_0
 10
293.27697538735339
 20
617.09893333404011
 30
0.0
 11
302.40357821494899
 21
617.09893333404011
 31
0.0
  0
LINE
  5
17B5D
  8
AM_0
 10
323.13560584290559
 20
581.92463771281223
 30
0.0
 11
320.43670243550218
 21
612.77324481953508
 31
0.0
  0
LINE
  5
17B5E
  8
AM_0
 10
307.27697538735339
 20
614.59893333404011
 30
0.0
 11
318.44431303931862
 21
614.59893333403977
 31
0.0
  0
ARC
  5
17B5F
  8
AM_0
 10
307.27697538735322
 20
617.59893333404011
 30
0.0
 40
2.9999999999999978
 50
215.68533471265459
 51
270.0
1001
GENIUS_GENOBJ-N-FIL_13
1002
{
1000
OWNER
1000
GEN
1002
}
1001
GENIUS_GENODEF_13
1002
{
1000
HIER
1070
     0
1002
}
1002
{
1000
MANEDIT
1070
     0
1002
}
1002
{
1000
NOSEL
1070
     0
1002
}
1002
{
1000
BEHIND
1070
     0
1002
}
1002
{
1000
OTHER
1070
     0
1002
}
1002
{
1000
REACTOR
1002
}
  0
ARC
  5
17B60
  8
AM_0
 10
302.40357821494888
 20
614.09893333404
 30
0.0
 40
2.9999999999999978
 50
35.685334712654601
 51
90.0
1001
GENIUS_GENOBJ-N-FIL_13
1002
{
1000
OWNER
1000
GEN
1002
}
1001
GENIUS_GENODEF_13
1002
{
1000
HIER
1070
     0
1002
}
1002
{
1000
MANEDIT
1070
     0
1002
}
1002
{
1000
NOSEL
1070
     0
1002
}
1002
{
1000
BEHIND
1070
     0
1002
}
1002
{
1000
OTHER
1070
     0
1002
}
1002
{
1000
REACTOR
1002
}
  0
ARC
  5
17B61
  8
AM_0
 10
318.4443130393185
 20
612.59893333403988
 30
0.0
 40
2.0
 50
4.9999999999999813
 51
90.0
1001
GENIUS_GENOBJ-N-FIL_13
1002
{
1000
OWNER
1000
GEN
1002
}
1001
GENIUS_GENODEF_13
1002
{
1000
HIER
1070
     0
1002
}
1002
{
1000
MANEDIT
1070
     0
1002
}
1002
{
1000
NOSEL
1070
     0
1002
}
1002
{
1000
BEHIND
1070
     0
1002
}
1002
{
1000
OTHER
1070
     0
1002
}
1002
{
1000
REACTOR
1002
}
  0
ARC
  5
17B62
  8
AM_0
 10
325.12799523908899
 20
582.09894919830754
 30
0.0
 40
2.0
 50
185.0
 51
270.0
1001
GENIUS_GENOBJ-N-FIL_13
1002
{
1000
OWNER
1000
GEN
1002
}
1001
GENIUS_GENODEF_13
1002
{
1000
HIER
1070
     0
1002
}
1002
{
1000
MANEDIT
1070
     0
1002
}
1002
{
1000
NOSEL
1070
     0
1002
}
1002
{
1000
BEHIND
1070
     0
1002
}
1002
{
1000
OTHER
1070
     0
1002
}
1002
{
1000
REACTOR
1002
}
  0
ARC
  5
17B63
  8
AM_0
 10
329.79427832627528
 20
581.09894919830754
 30
0.0
 40
1.0
 50
270.0
 51
1.0000117734974521
1001
GENIUS_GENOBJ-N-FIL_13
1002
{
1000
OWNER
1000
GEN
1002
}
1001
GENIUS_GENODEF_13
1002
{
1000
HIER
1070
     0
1002
}
1002
{
1000
MANEDIT
1070
     0
1002
}
1002
{
1000
NOSEL
1070
     0
1002
}
1002
{
1000
BEHIND
1070
     0
1002
}
1002
{
1000
OTHER
1070
     0
1002
}
1002
{
1000
REACTOR
1002
}
  0
LINE
  5
17B64
  8
AM_0
 10
325.12799523908899
 20
580.09894919830754
 30
0.0
 11
329.7942783262755
 21
580.09894919830754
 31
0.0
  0
LINE
  5
17B65
  8
AM_0
 10
293.27697538735339
 20
489.09895333403978
 30
0.0
 11
302.40357821494899
 21
489.09895333403978
 31
0.0
  0
LINE
  5
17B66
  8
AM_0
 10
293.27697538735339
 20
501.05895333403981
 30
0.0
 11
303.27697538735339
 21
501.05895333403981
 31
0.0
  0
LINE
  5
17B67
  8
AM_0
 10
293.27697538735339
 20
515.95896333404005
 30
0.0
 11
303.27697538735339
 21
515.95896333404005
 31
0.0
  0
LINE
  5
17B68
  8
AM_0
 10
317.10967150142051
 20
506.09893924433118
 30
0.0
 11
330.13818199513599
 21
506.09893924433118
 31
0.0
  0
LINE
  5
17B69
  8
AM_0
 10
314.1681518130984
 20
493.42464184854458
 30
0.0
 11
315.11728210523722
 21
504.27325072982683
 31
0.0
  0
ARC
  5
17B6A
  8
AM_0
 10
317.10967150142028
 20
504.0989392443314
 30
0.0
 40
2.0
 50
90.0
 51
174.99999999999989
1001
GENIUS_GENOBJ-N-FIL_13
1002
{
1000
OWNER
1000
GEN
1002
}
1001
GENIUS_GENODEF_13
1002
{
1000
HIER
1070
     0
1002
}
1002
{
1000
MANEDIT
1070
     0
1002
}
1002
{
1000
NOSEL
1070
     0
1002
}
1002
{
1000
BEHIND
1070
     0
1002
}
1002
{
1000
OTHER
1070
     0
1002
}
1002
{
1000
REACTOR
1002
}
  0
LINE
  5
17B6B
  8
AM_0
 10
307.27697538735339
 20
491.59895333404
 30
0.0
 11
312.17576241691478
 21
491.59895333404
 31
0.0
  0
ARC
  5
17B6C
  8
AM_0
 10
302.40357821494888
 20
492.09895333403978
 30
0.0
 40
2.9999999999999978
 50
270.0
 51
324.31466528734541
1001
GENIUS_GENOBJ-N-FIL_13
1002
{
1000
OWNER
1000
GEN
1002
}
1001
GENIUS_GENODEF_13
1002
{
1000
HIER
1070
     0
1002
}
1002
{
1000
MANEDIT
1070
     0
1002
}
1002
{
1000
NOSEL
1070
     0
1002
}
1002
{
1000
BEHIND
1070
     0
1002
}
1002
{
1000
OTHER
1070
     0
1002
}
1002
{
1000
REACTOR
1002
}
  0
ARC
  5
17B6D
  8
AM_0
 10
307.27697538735322
 20
488.59895333403978
 30
0.0
 40
2.9999999999999978
 50
90.0
 51
144.31466528734541
1001
GENIUS_GENOBJ-N-FIL_13
1002
{
1000
OWNER
1000
GEN
1002
}
1001
GENIUS_GENODEF_13
1002
{
1000
HIER
1070
     0
1002
}
1002
{
1000
MANEDIT
1070
     0
1002
}
1002
{
1000
NOSEL
1070
     0
1002
}
1002
{
1000
BEHIND
1070
     0
1002
}
1002
{
1000
OTHER
1070
     0
1002
}
1002
{
1000
REACTOR
1002
}
  0
ARC
  5
17B6E
  8
AM_0
 10
312.17576241691461
 20
493.59895333404
 30
0.0
 40
2.0
 50
270.0
 51
355.0
1001
GENIUS_GENOBJ-N-FIL_13
1002
{
1000
OWNER
1000
GEN
1002
}
1001
GENIUS_GENODEF_13
1002
{
1000
HIER
1070
     0
1002
}
1002
{
1000
MANEDIT
1070
     0
1002
}
1002
{
1000
NOSEL
1070
     0
1002
}
1002
{
1000
BEHIND
1070
     0
1002
}
1002
{
1000
OTHER
1070
     0
1002
}
1002
{
1000
REACTOR
1002
}
  0
ARC
  5
17B6F
  8
AM_0
 10
330.13818199513582
 20
504.0989392443314
 30
0.0
 40
2.0
 50
1.000011773556045
 51
90.0
1001
GENIUS_GENOBJ-N-FIL_13
1002
{
1000
OWNER
1000
GEN
1002
}
1001
GENIUS_GENODEF_13
1002
{
1000
HIER
1070
     0
1002
}
1002
{
1000
MANEDIT
1070
     0
1002
}
1002
{
1000
NOSEL
1070
     0
1002
}
1002
{
1000
BEHIND
1070
     0
1002
}
1002
{
1000
OTHER
1070
     0
1002
}
1002
{
1000
REACTOR
1002
}
  0
LINE
  5
17B70
  8
AM_0
 10
402.2770080357983
 20
500.09894675451721
 30
0.0
 11
402.2770080357983
 21
504.09894687372628
 31
0.0
  0
LINE
  5
17B72
  8
AM_0
 10
502.7770110309317
 20
582.09894919830754
 30
0.0
 11
501.41553027746562
 21
504.0989392443314
 31
0.0
  0
LINE
  5
17B75
  8
AM_0
 10
477.2770102709726
 20
500.09894675451721
 30
0.0
 11
477.2770102709726
 21
504.09894687372628
 31
0.0
  0
LINE
  5
17CCC
  8
AM_0
 10
501.27701062230381
 20
502.09893932233177
 30
0.0
 11
480.27701062230392
 21
502.09893932233177
 31
0.0
  0
LINE
  5
17CCD
  8
AM_0
 10
482.77701062230381
 20
492.09893932233138
 30
0.0
 11
498.77701062230358
 21
492.09893932233138
 31
0.0
  0
LINE
  5
17CCE
  8
AM_0
 10
501.27701062230381
 20
502.09893932233177
 30
0.0
 11
501.27701062230381
 21
504.09893932233138
 31
0.0
  0
LINE
  5
17CCF
  8
AM_0
 10
498.77701062230358
 20
492.09893932233138
 30
0.0
 11
498.77701062230358
 21
502.09893932233177
 31
0.0
  0
LINE
  5
17CD0
  8
AM_0
 10
480.27701062230392
 20
502.09893932233177
 30
0.0
 11
480.27701062230392
 21
504.09893932233138
 31
0.0
  0
LINE
  5
17CD1
  8
AM_0
 10
482.77701062230381
 20
502.09893932233177
 30
0.0
 11
482.77701062230381
 21
492.09893932233138
 31
0.0
  0
LINE
  5
17CD2
  8
AM_0
 10
353.27697584198108
 20
502.09893932233177
 30
0.0
 11
332.27697584198108
 21
502.09893932233177
 31
0.0
  0
LINE
  5
17CD3
  8
AM_0
 10
334.77697584198108
 20
492.09893932233138
 30
0.0
 11
350.77697584198108
 21
492.09893932233138
 31
0.0
  0
LINE
  5
17CD4
  8
AM_0
 10
353.27697584198108
 20
502.09893932233177
 30
0.0
 11
353.27697584198108
 21
504.09893932233138
 31
0.0
  0
LINE
  5
17CD5
  8
AM_0
 10
350.77697584198108
 20
492.09893932233138
 30
0.0
 11
350.77697584198108
 21
502.09893932233177
 31
0.0
  0
LINE
  5
17CD6
  8
AM_0
 10
332.27697584198108
 20
502.09893932233177
 30
0.0
 11
332.27697584198108
 21
504.09893932233138
 31
0.0
  0
LINE
  5
17CD7
  8
AM_0
 10
334.77697584198108
 20
502.09893932233177
 30
0.0
 11
334.77697584198108
 21
492.09893932233138
 31
0.0
  0
LINE
  5
17CD8
  8
AM_0
 10
330.77697549635337
 20
582.09894919830754
 30
0.0
 11
328.77702521323351
 21
623.09894919830754
 31
0.0
  0
LINE
  5
17CD9
  8
AM_0
 10
504.77709342761261
 20
623.09894919830731
 30
0.0
 11
328.77702521323351
 21
623.09894919830754
 31
0.0
  0
LINE
  5
17CDA
  8
AM_0
 10
502.5306868749866
 20
582.09894919830754
 30
0.0
 11
504.77709342761261
 21
623.09894919830731
 31
0.0
  0
LINE
  5
17CDB
  8
AM_0
 10
329.55749361640238
 20
607.0989491983072
 30
0.0
 11
503.9004469680512
 21
607.0989491983072
 31
0.0
  0
LINE
  5
17CDC
  8
AM_0
 10
481.89449344363891
 20
623.09894919830731
 30
0.0
 11
481.89449344363879
 21
607.0989491983072
 31
0.0
  0
LINE
  5
17CDD
  8
ﾁｭｳｼﾝｾﾝ1
 10
474.7769737344513
 20
628.0989491983072
 30
0.0
 11
474.77697373445108
 21
602.09894919830731
 31
0.0
  0
LINE
  5
17CDE
  8
ﾁｭｳｼﾝｾﾝ1
 10
358.77700562293859
 20
628.0989491983072
 30
0.0
 11
358.77700562293859
 21
602.09894919830731
 31
0.0
  0
LINE
  5
17CDF
  8
AM_0
 10
351.6595926264074
 20
623.09894919830754
 30
0.0
 11
351.6595926264074
 21
607.0989491983072
 31
0.0
  0
LINE
  5
17CE1
  8
AM_0
 10
417.27700848283342
 20
496.09894663530758
 30
0.0
 11
417.27700848283342
 21
500.09894675451721
 31
0.0
  0
LINE
  5
17CE2
  8
AM_0
 10
462.27700982393748
 20
496.09894663530758
 30
0.0
 11
462.27700982393748
 21
500.09894675451721
 31
0.0
  0
LINE
  5
17CE3
  8
0
 10
457.27700915338539
 20
485.09194224505529
 30
0.0
 11
462.27700982393748
 21
496.09894663530758
 31
0.0
  0
LINE
  5
17CE4
  8
AM_0
 10
417.27700848283342
 20
496.09894663530758
 30
0.0
 11
462.27700982393748
 21
496.09894663530758
 31
0.0
  0
LINE
  5
17CE6
  8
0
 10
425.77700915338539
 20
443.09194224505541
 30
0.0
 11
425.77700915338539
 21
485.09194224505541
 31
0.0
  0
LINE
  5
17CE7
  8
0
 10
453.77700915338562
 20
443.09194224505529
 30
0.0
 11
453.77700915338562
 21
485.09194224505529
 31
0.0
  0
LINE
  5
17CE8
  8
AM_0
 10
453.77700915338562
 20
443.09194224505529
 30
0.0
 11
425.77700915338539
 21
443.09194224505529
 31
0.0
  0
LINE
  5
17CE9
  8
0
 10
422.27700915338562
 20
485.09194224505541
 30
0.0
 11
457.27700915338539
 21
485.09194224505529
 31
0.0
  0
LINE
  5
17CEB
  8
0
 10
422.27700915338562
 20
485.09194224505541
 30
0.0
 11
417.27700848283342
 21
496.09894663530758
 31
0.0
  0
LINE
  5
17D60
  8
AM_0
 10
443.77700915338539
 20
443.09194224505529
 30
0.0
 11
443.77700915338539
 21
475.09194224505552
 31
0.0
  0
LINE
  5
17D66
  8
AM_0
 10
435.77700915338539
 20
443.09194224505529
 30
0.0
 11
435.77700915338539
 21
475.09194224505552
 31
0.0
  0
LINE
  5
17D67
  8
AM_0
 10
435.77700915338539
 20
475.09194224505552
 30
0.0
 11
443.77700915338539
 21
475.09194224505552
 31
0.0
  0
ARC
  5
17D68
  8
AM_0
 10
439.77700915338539
 20
475.09194224505552
 30
0.0
 40
4.0
 50
0.0
 51
180.0
  0
LINE
  5
180B0
  8
ﾁｭｳｼﾝｾﾝ
 10
805.68126560683413
 20
173.09444151647139
 30
0.0
 11
779.11726560683439
 21
173.09444151647139
 31
0.0
1001
GENIUS_GENODEF_13
1002
{
1000
HIER
1070
     0
1002
}
1002
{
1000
MANEDIT
1070
     0
1002
}
1002
{
1000
NOSEL
1070
     0
1002
}
1002
{
1000
BEHIND
1070
     0
1002
}
1002
{
1000
OTHER
1070
     0
1002
}
1002
{
1000
REACTOR
1002
}
1001
GENIUS_GENOBJ-N-CEN_13
1002
{
1000
OWNER
1000
GEN
1002
}
  0
LINE
  5
180B1
  8
ﾁｭｳｼﾝｾﾝ
 10
805.6812686446068
 20
335.09443685356553
 30
0.0
 11
779.11726864460707
 21
335.09443784980499
 31
0.0
1001
GENIUS_GENODEF_13
1002
{
1000
HIER
1070
     0
1002
}
1002
{
1000
MANEDIT
1070
     0
1002
}
1002
{
1000
NOSEL
1070
     0
1002
}
1002
{
1000
BEHIND
1070
     0
1002
}
1002
{
1000
OTHER
1070
     0
1002
}
1002
{
1000
REACTOR
1002
}
1001
GENIUS_GENOBJ-N-CEN_13
1002
{
1000
OWNER
1000
GEN
1002
}
  0
LINE
  5
18B87
  8
AM_0
 10
160.88257706049481
 20
489.20896833404032
 30
0.0
 11
213.88257706049481
 21
489.20896833404032
 31
0.0
  0
LINE
  5
18B88
  8
AM_0
 10
160.88257706049481
 20
487.85895833404032
 30
0.0
 11
213.88257706049481
 21
487.85895833404032
 31
0.0
  0
LINE
  5
18B89
  8
AM_0
 10
160.88257706049481
 20
487.17896833404018
 30
0.0
 11
213.88257706049481
 21
487.17896833404018
 31
0.0
  0
LINE
  5
18B8A
  8
AM_0
 10
160.88257706049481
 20
616.98895933404015
 30
0.0
 11
213.88257706049481
 21
616.98895933404015
 31
0.0
  0
LINE
  5
18B8B
  8
AM_0
 10
160.88257706049481
 20
618.33897333404025
 30
0.0
 11
213.88257706049481
 21
618.33897333404025
 31
0.0
  0
LINE
  5
18B8C
  8
AM_0
 10
160.88257706049481
 20
619.00895533404037
 30
0.0
 11
213.88257706049481
 21
619.00895533404037
 31
0.0
  0
LINE
  5
18B8D
  8
AM_0
 10
182.88257706049481
 20
599.44896833404016
 30
0.0
 11
284.88257706049478
 21
599.44896833404016
 31
0.0
  0
LINE
  5
18B8E
  8
AM_0
 10
182.88257706049481
 20
506.74895833404008
 30
0.0
 11
284.88257706049478
 21
506.74895833404008
 31
0.0
  0
LINE
  5
18B8F
  8
AM_0
 10
278.2326070604949
 20
589.09894833404041
 30
0.0
 11
143.43262706049489
 21
589.09894833404041
 31
0.0
  0
LINE
  5
18B90
  8
AM_0
 10
151.56256706049481
 20
516.37896833404034
 30
0.0
 11
281.70257706049489
 21
516.37896833404034
 31
0.0
  0
LINE
  5
18B91
  8
AM_0
 10
278.2326070604949
 20
517.09894833404041
 30
0.0
 11
152.43262706049489
 21
517.09894833404041
 31
0.0
  0
LINE
  5
18B92
  8
AM_0
 10
160.88257706049481
 20
491.23896833404029
 30
0.0
 11
277.69256706049492
 21
491.23896833404029
 31
0.0
  0
LINE
  5
18B93
  8
AM_0
 10
160.88257706049481
 20
614.95896033404017
 30
0.0
 11
277.69256706049492
 21
614.95896033404017
 31
0.0
  0
LINE
  5
18B94
  8
AM_0
 10
137.88257706049481
 20
495.66895833404033
 30
0.0
 11
137.88257706049481
 21
553.09894833404041
 31
0.0
  0
ARC
  5
18B95
  8
AM_0
 10
157.38220706049481
 20
607.57932933404015
 30
0.0
 40
1.5003600999999991
 50
270.01381500000002
 51
359.98618399999862
  0
LINE
  5
18B96
  8
AM_0
 10
142.1026070604949
 20
609.77896733404009
 30
0.0
 11
141.1425870604948
 21
605.31895333404009
 31
0.0
  0
LINE
  5
18B97
  8
AM_0
 10
137.88257706049481
 20
610.52895233404024
 30
0.0
 11
137.88257706049481
 21
553.09894833404041
 31
0.0
  0
ARC
  5
18B98
  8
AM_0
 10
160.8836770604949
 20
617.01253433404008
 30
0.0
 40
1.996427999999999
 50
90.032390000001968
 51
165.30536999999919
  0
ARC
  5
18B99
  8
AM_0
 10
160.88238706049481
 20
616.33914033404039
 30
0.0
 40
1.999824
 50
89.994939999998735
 51
180.00506000000121
  0
ARC
  5
18B9A
  8
AM_0
 10
160.88507706049489
 20
614.98644933404023
 30
0.0
 40
2.0025157999999981
 50
90.071899999999786
 51
179.9281000000002
  0
ARC
  5
18B9B
  8
AM_0
 10
160.88421706049479
 20
612.95732033404022
 30
0.0
 40
2.001640099999999
 50
90.046959999998165
 51
179.9530399999953
  0
LINE
  5
18B9C
  8
AM_0
 10
144.0225870604948
 20
614.7689653340401
 30
0.0
 11
157.38257706049481
 21
614.7689653340401
 31
0.0
  0
LINE
  5
18B9D
  8
AM_0
 10
143.9925570604949
 20
616.39897033404009
 30
0.0
 11
157.4925570604949
 21
616.39897033404009
 31
0.0
  0
LINE
  5
18B9E
  8
AM_0
 10
144.05261706049481
 20
611.35896933404024
 30
0.0
 11
157.38257706049481
 21
611.35896933404024
 31
0.0
  0
LINE
  5
18B9F
  8
AM_0
 10
142.05261706049481
 20
614.88895333404025
 30
0.0
 11
141.17261706049479
 21
611.3489523340404
 31
0.0
  0
ARC
  5
18BA0
  8
AM_0
 10
144.0205170604948
 20
612.76702733404022
 30
0.0
 40
2.001947899999998
 50
89.940519999998955
 51
166.65886000000151
  0
ARC
  5
18BA1
  8
AM_0
 10
143.9949970604948
 20
614.39465233404007
 30
0.0
 40
2.0043239999999991
 50
90.068910000001068
 51
165.72195000000079
  0
LINE
  5
18BA2
  8
AM_0
 10
139.69256706049481
 20
608.19895833404007
 30
0.0
 11
141.75256706049481
 21
608.19895833404007
 31
0.0
  0
LINE
  5
18BA3
  8
AM_0
 10
139.7125870604948
 20
610.21895533404017
 30
0.0
 11
141.36261706049481
 21
610.21895533404017
 31
0.0
  0
LINE
  5
18BA4
  8
AM_0
 10
137.88257706049481
 20
610.5289673340402
 30
0.0
 11
140.70257706049489
 21
610.59896733404025
 31
0.0
  0
ARC
  5
18BA5
  8
AM_0
 10
139.71753706049481
 20
611.72074033404022
 30
0.0
 40
1.501779999999999
 50
269.81061700000078
 51
345.66716400000092
  0
ARC
  5
18BA6
  8
AM_0
 10
139.69690706049491
 20
609.69529633404022
 30
0.0
 40
1.4963319999999991
 50
269.83540999999917
 51
346.617561999999
  0
LINE
  5
18BA7
  8
AM_0
 10
142.07257706049489
 20
613.22897233404024
 30
0.0
 11
141.15253706049481
 21
609.34897533404023
 31
0.0
  0
ARC
  5
18BA8
  8
AM_0
 10
144.05450706049481
 20
609.36325733404021
 30
0.0
 40
1.995695899999999
 50
90.05521999999722
 51
167.97747000000001
  0
ARC
  5
18BA9
  8
AM_0
 10
157.3839770604948
 20
616.26752333404022
 30
0.0
 40
1.498559999999999
 50
269.94488499999687
 51
0.055119999999415
  0
LINE
  5
18BAA
  8
AM_0
 10
158.88257706049481
 20
614.98896633404024
 30
0.0
 11
158.88257706049481
 21
607.57896333404005
 31
0.0
  0
ARC
  5
18BAB
  8
AM_0
 10
157.5012870604948
 20
617.89924533404042
 30
0.0
 40
1.5003120000000001
 50
269.66833699999898
 51
345.31696600000072
  0
ARC
  5
18BAC
  8
AM_0
 10
157.38104706049481
 20
612.8604803340404
 30
0.0
 40
1.5015080999999979
 50
270.05754899999692
 51
359.94245300200021
  0
ARC
  5
18BAD
  8
AM_0
 10
142.3425970604948
 20
578.11896833404023
 30
0.0
 40
1.4599999999999991
 50
90.0
 51
269.99999700000228
  0
LINE
  5
18BAE
  8
AM_0
 10
278.2326070604949
 20
587.09895833404039
 30
0.0
 11
143.43262706049489
 21
587.09895833404039
 31
0.0
  0
LINE
  5
18BAF
  8
AM_0
 10
280.82754706049479
 20
579.09896243404023
 30
0.0
 11
143.43262706049489
 21
579.09896833404025
 31
0.0
  0
LINE
  5
18BB0
  8
AM_0
 10
280.82754711285492
 20
577.09895423404021
 30
0.0
 11
143.43262706049489
 21
577.09894833404041
 31
0.0
  0
LINE
  5
18BB1
  8
AM_0
 10
142.3425970604948
 20
579.57895833404041
 30
0.0
 11
281.91757706049492
 21
579.57896833404027
 31
0.0
  0
LINE
  5
18BB2
  8
AM_0
 10
182.8826370604948
 20
599.44895833404019
 30
0.0
 11
147.8826370604948
 21
597.41895833404021
 31
0.0
  0
LINE
  5
18BB3
  8
AM_0
 10
147.88257706049481
 20
601.44895833404007
 30
0.0
 11
147.88257706049481
 21
589.75895794617156
 31
0.0
  0
ARC
  5
18BB4
  8
AM_0
 10
147.05279706049481
 20
594.6918383340402
 30
0.0
 40
5.0021839000000003
 50
279.54857499999838
 51
354.57547400000232
  0
LINE
  5
18BB5
  8
AM_0
 10
137.88257706049481
 20
595.78895833404022
 30
0.0
 11
147.88257706049481
 21
595.78895833404022
 31
0.0
  0
LINE
  5
18BB6
  8
AM_0
 10
137.88257706049481
 20
601.44895833404007
 30
0.0
 11
147.88257706049481
 21
601.44895833404007
 31
0.0
  0
LINE
  5
18BB7
  8
AM_0
 10
144.11255706049479
 20
606.07896333404017
 30
0.0
 11
157.38257706049481
 21
606.07896333404017
 31
0.0
  0
LINE
  5
18BB8
  8
AM_0
 10
139.67254706049479
 20
604.12895833404025
 30
0.0
 11
142.0925970604948
 21
604.12895833404025
 31
0.0
  0
ARC
  5
18BB9
  8
AM_0
 10
139.6727370604948
 20
605.63175133404025
 30
0.0
 40
1.5027881000000001
 50
269.9953320000032
 51
347.98665799999719
  0
LINE
  5
18BBA
  8
AM_0
 10
141.6026070604949
 20
601.44895833404007
 30
0.0
 11
142.14264706049491
 21
604.43897933404025
 31
0.0
  0
ARC
  5
18BBB
  8
AM_0
 10
144.10956706049481
 20
604.07933733404025
 30
0.0
 40
1.9996280999999989
 50
89.914670000000115
 51
169.63923999999719
  0
ARC
  5
18BBC
  8
AM_0
 10
147.51282706049491
 20
590.75245833404017
 30
0.0
 40
6.007896399999999
 50
45.382730000005701
 51
86.471550000001656
  0
ARC
  5
18BBD
  8
AM_0
 10
151.0291170604948
 20
594.30786833404011
 30
0.0
 40
1.007376
 50
354.93659510000271
 51
45.709679999997569
  0
LINE
  5
18BBE
  8
AM_0
 10
137.88257706049481
 20
587.39895833404023
 30
0.0
 11
141.05261706049481
 21
587.39895833404023
 31
0.0
  0
ARC
  5
18BBF
  8
AM_0
 10
143.4326296904166
 20
588.09896538404007
 30
0.0
 40
1.000007050003423
 50
90.000150682346145
 51
269.99984931765391
  0
ARC
  5
18BC0
  8
AM_0
 10
142.56256706049481
 20
588.14396833404021
 30
0.0
 40
1.6750081000000001
 50
90.0
 51
269.99999700000228
  0
ARC
  5
18BC1
  8
AM_0
 10
143.43262706049489
 20
578.09895833404039
 30
0.0
 40
1.0000040999999991
 50
90.0
 51
269.99999700000228
  0
ARC
  5
18BC2
  8
AM_0
 10
159.88257706049481
 20
588.09896833404025
 30
0.0
 40
1.0000040999999991
 50
90.0
 51
269.99999700000228
  0
ARC
  5
18BC3
  8
AM_0
 10
159.88257706049481
 20
578.09895833404039
 30
0.0
 40
1.0000040999999991
 50
90.0
 51
269.99999700000228
  0
LINE
  5
18BC4
  8
AM_0
 10
280.81755270737341
 20
557.09897030336947
 30
0.0
 11
143.44256706049481
 21
557.09894833404041
 31
0.0
  0
LINE
  5
18BC5
  8
AM_0
 10
142.15259706049491
 20
556.82895833404041
 30
0.0
 11
282.107577126992
 21
556.82896433404039
 31
0.0
  0
LINE
  5
18BC6
  8
AM_0
 10
142.15259706049491
 20
549.35895833404015
 30
0.0
 11
282.10757706049492
 21
549.35898233404032
 31
0.0
  0
LINE
  5
18BC7
  8
AM_0
 10
142.15259706049491
 20
546.82895833404029
 30
0.0
 11
282.10757712673018
 21
546.82897433404025
 31
0.0
  0
LINE
  5
18BC8
  8
AM_0
 10
280.81755260265379
 20
549.09896636379858
 30
0.0
 11
143.44256706049481
 21
549.09896833404025
 31
0.0
  0
LINE
  5
18BC9
  8
AM_0
 10
280.81755270737341
 20
547.09897030336936
 30
0.0
 11
143.44256706049481
 21
547.09894833404041
 31
0.0
  0
LINE
  5
18BCA
  8
AM_0
 10
142.15259706049491
 20
559.36895833404026
 30
0.0
 11
282.10757706049492
 21
559.36897233404034
 31
0.0
  0
LINE
  5
18BCB
  8
AM_0
 10
142.3425970604948
 20
576.65894833404025
 30
0.0
 11
281.91757713694022
 21
576.65896833404008
 31
0.0
  0
LINE
  5
18BCC
  8
AM_0
 10
142.2125870604948
 20
569.43896833404017
 30
0.0
 11
282.04758706049489
 21
569.43894833404022
 31
0.0
  0
LINE
  5
18BCD
  8
AM_0
 10
280.81755260265379
 20
569.09894636379863
 30
0.0
 11
143.44256706049481
 21
569.09894833404041
 31
0.0
  0
LINE
  5
18BCE
  8
AM_0
 10
142.2125870604948
 20
566.77895833404023
 30
0.0
 11
282.04758713013342
 21
566.77894833404025
 31
0.0
  0
LINE
  5
18BCF
  8
AM_0
 10
280.81755260265379
 20
559.09896636379835
 30
0.0
 11
143.44256706049481
 21
559.09894833404041
 31
0.0
  0
LINE
  5
18BD0
  8
AM_0
 10
280.81755270737341
 20
567.09895030336952
 30
0.0
 11
143.44256706049481
 21
567.09896833404025
 31
0.0
  0
ARC
  5
18BD1
  8
AM_0
 10
143.43390706049479
 20
568.09894833404041
 30
0.0
 40
1.000035999999999
 50
89.500709999998392
 51
270.49928399999988
  0
ARC
  5
18BD2
  8
AM_0
 10
142.2125870604948
 20
568.10894833404041
 30
0.0
 40
1.3300000000000001
 50
90.0
 51
269.99999700000228
  0
ARC
  5
18BD3
  8
AM_0
 10
159.88257706049481
 20
568.09894833404041
 30
0.0
 40
1.0000040999999991
 50
90.0
 51
269.99999700000228
  0
ARC
  5
18BD4
  8
AM_0
 10
142.15259706049491
 20
558.09896833404025
 30
0.0
 40
1.270003999999999
 50
90.0
 51
269.99999700000228
  0
ARC
  5
18BD5
  8
AM_0
 10
143.43390706049479
 20
558.09896833404025
 30
0.0
 40
1.000035999999999
 50
89.500709999998392
 51
270.49928399999988
  0
ARC
  5
18BD6
  8
AM_0
 10
143.43390706049479
 20
548.09896833404025
 30
0.0
 40
1.000035999999999
 50
89.500709999998392
 51
270.49928399999988
  0
ARC
  5
18BD7
  8
AM_0
 10
142.15259706049491
 20
548.09397833404023
 30
0.0
 40
1.265004
 50
90.0
 51
269.99999700000228
  0
ARC
  5
18BD8
  8
AM_0
 10
159.88257706049481
 20
558.09896833404025
 30
0.0
 40
1.0000040999999991
 50
90.0
 51
269.99999700000228
  0
ARC
  5
18BD9
  8
AM_0
 10
159.88257706049481
 20
548.09896833404025
 30
0.0
 40
1.0000040999999991
 50
90.0
 51
269.99999700000228
  0
ARC
  5
18BDA
  8
AM_0
 10
147.0474870604948
 20
511.50118833404031
 30
0.0
 40
5.0078917000000001
 50
5.4746799999994851
 51
80.401279999998863
  0
LINE
  5
18BDB
  8
AM_0
 10
147.88257706049481
 20
504.74897833404009
 30
0.0
 11
147.88257706049481
 21
518.78896833404042
 31
0.0
  0
LINE
  5
18BDC
  8
AM_0
 10
142.2125870604948
 20
539.41895833404033
 30
0.0
 11
282.04758706049489
 21
539.41895833404033
 31
0.0
  0
LINE
  5
18BDD
  8
AM_0
 10
142.2125870604948
 20
536.75896833404022
 30
0.0
 11
282.04758713013342
 21
536.75895833404024
 31
0.0
  0
LINE
  5
18BDE
  8
AM_0
 10
151.3425970604948
 20
529.53895833404033
 30
0.0
 11
281.9125870604949
 21
529.53895833404033
 31
0.0
  0
LINE
  5
18BDF
  8
AM_0
 10
151.3425970604948
 20
526.60897833404033
 30
0.0
 11
281.91258713720202
 21
526.60895833404015
 31
0.0
  0
LINE
  5
18BE0
  8
AM_0
 10
280.81755260265379
 20
539.09894636379863
 30
0.0
 11
143.44256706049481
 21
539.09896833404036
 31
0.0
  0
LINE
  5
18BE1
  8
AM_0
 10
280.81755270737341
 20
537.09895030336952
 30
0.0
 11
143.44256706049481
 21
537.09896833404025
 31
0.0
  0
LINE
  5
18BE2
  8
AM_0
 10
280.82255706049477
 20
529.09897243404032
 30
0.0
 11
152.43262706049489
 21
529.09894833404019
 31
0.0
  0
LINE
  5
18BE3
  8
AM_0
 10
280.82255711285489
 20
527.0989642340403
 30
0.0
 11
152.43262706049489
 21
527.09896833404025
 31
0.0
  0
LINE
  5
18BE4
  8
AM_0
 10
278.23258806037262
 20
519.09896668830834
 30
0.0
 11
152.43262706049489
 21
519.09896833404025
 31
0.0
  0
ARC
  5
18BE5
  8
AM_0
 10
142.2125870604948
 20
538.0889583340404
 30
0.0
 40
1.3300000000000001
 50
90.0
 51
269.99999700000228
  0
ARC
  5
18BE6
  8
AM_0
 10
143.43390706049479
 20
538.09894833404041
 30
0.0
 40
1.000035999999999
 50
89.500709999998392
 51
270.49928399999988
  0
ARC
  5
18BE7
  8
AM_0
 10
159.88257706049481
 20
538.09894833404041
 30
0.0
 40
1.0000040999999991
 50
90.0
 51
269.99999700000228
  0
LINE
  5
18BE8
  8
AM_0
 10
137.88257706049481
 20
518.78896833404042
 30
0.0
 11
147.88257706049481
 21
518.78896833404042
 31
0.0
  0
ARC
  5
18BE9
  8
AM_0
 10
152.43262706049489
 20
528.09896833404025
 30
0.0
 40
1.0000040999999991
 50
90.0
 51
269.99999700000228
  0
ARC
  5
18BEA
  8
AM_0
 10
151.3425970604948
 20
528.0739583340403
 30
0.0
 40
1.4650000000000001
 50
90.0
 51
269.99999700000228
  0
ARC
  5
18BEB
  8
AM_0
 10
159.88257706049481
 20
528.09896833404025
 30
0.0
 40
1.0000040999999991
 50
90.0
 51
269.99999700000228
  0
ARC
  5
18BEC
  8
AM_0
 10
152.43262706049489
 20
518.09896833404036
 30
0.0
 40
1.0000040999999991
 50
90.0
 51
269.99999700000228
  0
ARC
  5
18BED
  8
AM_0
 10
151.56256706049481
 20
518.05396833404029
 30
0.0
 40
1.6750081000000001
 50
90.0
 51
269.99999700000228
  0
ARC
  5
18BEE
  8
AM_0
 10
159.88257706049481
 20
518.09896833404036
 30
0.0
 40
1.0000040999999991
 50
90.0
 51
269.99999700000228
  0
LINE
  5
18BEF
  8
AM_0
 10
182.88257706049481
 20
506.74897833404032
 30
0.0
 11
147.88257706049481
 21
508.77897833404029
 31
0.0
  0
ARC
  5
18BF0
  8
AM_0
 10
160.88507706049489
 20
489.1738083340403
 30
0.0
 40
1.994844099999999
 50
194.36279999999999
 51
269.92834200000209
  0
ARC
  5
18BF1
  8
AM_0
 10
160.87713706049479
 20
489.85352833404039
 30
0.0
 40
1.9945760999999991
 50
179.84400999999721
 51
270.15599200000003
  0
ARC
  5
18BF2
  8
AM_0
 10
160.87982706049479
 20
491.20617833404032
 30
0.0
 40
1.9972080000000001
 50
179.91986000000111
 51
270.08014299999962
  0
ARC
  5
18BF3
  8
AM_0
 10
160.8789770604948
 20
493.23534833404028
 30
0.0
 40
1.996383999999999
 50
179.89615999999739
 51
270.103837
  0
ARC
  5
18BF4
  8
AM_0
 10
157.3768970604948
 20
498.61329833404028
 30
0.0
 40
1.505676
 50
0.2155299999989916
 51
89.784480000001125
  0
ARC
  5
18BF5
  8
AM_0
 10
144.1044370604948
 20
502.11239833404028
 30
0.0
 40
1.993431999999999
 50
190.21196999999981
 51
270.23411600000071
  0
LINE
  5
18BF6
  8
AM_0
 10
142.1026070604949
 20
496.40896833404031
 30
0.0
 11
141.1425870604948
 21
500.87896833404028
 31
0.0
  0
LINE
  5
18BF7
  8
AM_0
 10
137.88257706049481
 20
504.74897833404009
 30
0.0
 11
147.88257706049481
 21
504.74897833404009
 31
0.0
  0
LINE
  5
18BF8
  8
AM_0
 10
137.88257706049481
 20
510.40896833404031
 30
0.0
 11
147.88257706049481
 21
510.40896833404031
 31
0.0
  0
LINE
  5
18BF9
  8
AM_0
 10
139.67254706049479
 20
502.05897833404032
 30
0.0
 11
142.0925970604948
 21
502.05897833404032
 31
0.0
  0
ARC
  5
18BFA
  8
AM_0
 10
139.67377706049481
 20
500.55482833404022
 30
0.0
 40
1.50414
 50
12.44475000000339
 51
90.045750000001433
  0
LINE
  5
18BFB
  8
AM_0
 10
141.6026070604949
 20
504.74895833404031
 30
0.0
 11
142.14264706049491
 21
501.75895833404019
 31
0.0
  0
ARC
  5
18BFC
  8
AM_0
 10
151.03247706049481
 20
511.88880833404028
 30
0.0
 40
1.004135999999999
 50
314.20256399999818
 51
5.1511600000045297
  0
ARC
  5
18BFD
  8
AM_0
 10
147.5037870604948
 20
515.4309083340404
 30
0.0
 40
6.0039081999999979
 50
273.61728599999782
 51
314.77630699999833
  0
LINE
  5
18BFE
  8
AM_0
 10
143.9925570604949
 20
489.79896833404018
 30
0.0
 11
157.4925570604949
 21
489.79896833404018
 31
0.0
  0
LINE
  5
18BFF
  8
AM_0
 10
144.0225870604948
 20
491.42896833404029
 30
0.0
 11
157.38257706049481
 21
491.42896833404029
 31
0.0
  0
LINE
  5
18C00
  8
AM_0
 10
144.05261706049481
 20
494.82895833404029
 30
0.0
 11
157.38257706049481
 21
494.82895833404029
 31
0.0
  0
LINE
  5
18C01
  8
AM_0
 10
144.11255706049479
 20
500.11896833404029
 30
0.0
 11
157.38257706049481
 21
500.11896833404029
 31
0.0
  0
LINE
  5
18C02
  8
AM_0
 10
142.05255706049479
 20
491.30894833404039
 30
0.0
 11
141.17254706049491
 21
494.83893833404022
 31
0.0
  0
ARC
  5
18C03
  8
AM_0
 10
144.0153870604949
 20
493.42441833404018
 30
0.0
 40
1.9954841000000001
 50
193.19407999999891
 51
270.20654200000092
  0
LINE
  5
18C04
  8
AM_0
 10
139.7125870604948
 20
495.97895833404021
 30
0.0
 11
141.36261706049481
 21
495.97895833404021
 31
0.0
  0
LINE
  5
18C05
  8
AM_0
 10
137.88251706049491
 20
495.66895833404033
 30
0.0
 11
140.70257706049489
 21
495.59896833404031
 31
0.0
  0
ARC
  5
18C06
  8
AM_0
 10
139.71087706049479
 20
494.47185833404018
 30
0.0
 40
1.5070961
 50
14.09782000000418
 51
89.935179999998283
  0
LINE
  5
18C07
  8
AM_0
 10
139.69256706049481
 20
497.9989783340402
 30
0.0
 11
141.75256706049481
 21
497.9989783340402
 31
0.0
  0
ARC
  5
18C08
  8
AM_0
 10
139.69177706049479
 20
496.49615833404027
 30
0.0
 40
1.5028081
 50
13.577820000002809
 51
89.969209999998441
  0
ARC
  5
18C09
  8
AM_0
 10
144.05426706049479
 20
496.8243583340402
 30
0.0
 40
1.9953879999999991
 50
192.01538000000019
 51
269.9519330000021
  0
LINE
  5
18C0A
  8
AM_0
 10
142.07257706049489
 20
492.96895833404028
 30
0.0
 11
141.15253706049481
 21
496.84894833404041
 31
0.0
  0
ARC
  5
18C0B
  8
AM_0
 10
143.98987706049479
 20
491.79673833404019
 30
0.0
 40
1.9977800999999991
 50
194.13223000000309
 51
270.07691900000231
  0
LINE
  5
18C0C
  8
AM_0
 10
158.88257706049481
 20
491.20896833404032
 30
0.0
 11
158.88257706049481
 21
498.61896833404029
 31
0.0
  0
ARC
  5
18C0D
  8
AM_0
 10
157.3808070604949
 20
493.32717833404018
 30
0.0
 40
1.5017959999999979
 50
0.0685499999989552
 51
89.931450000001036
  0
ARC
  5
18C0E
  8
AM_0
 10
157.4962170604949
 20
488.29206833404021
 30
0.0
 40
1.506888
 50
14.87693000000551
 51
90.137770000000501
  0
ARC
  5
18C0F
  8
AM_0
 10
157.3787270604949
 20
489.92512833404038
 30
0.0
 40
1.503848099999999
 50
0.1464000000030023
 51
89.853599999996987
  0
LINE
  5
18C10
  8
AM_0
 10
284.88257706049478
 20
490.09895333403978
 30
0.0
 11
284.8825770766876
 21
616.09892230987487
 31
0.0
  0
LINE
  5
18C11
  8
ﾁｭｳｼﾝｾﾝ1
 10
233.88257706049481
 20
514.09894833404041
 30
0.0
 11
233.88257706049481
 21
592.09894833404041
 31
0.0
1001
GENIUS_GENODEF_13
1002
{
1000
HIER
1070
     0
1002
}
1002
{
1000
MANEDIT
1070
     0
1002
}
1002
{
1000
NOSEL
1070
     0
1002
}
1002
{
1000
BEHIND
1070
     0
1002
}
1002
{
1000
REACTOR
1002
}
1001
GENIUS_GENOBJ-N-CEN_13
1002
{
1000
OWNER
1000
GEN
1002
}
  0
LINE
  5
18C12
  8
AM_0
 10
281.69259706049479
 20
612.0189733340402
 30
0.0
 11
283.13260706049488
 21
605.31897633404026
 31
0.0
  0
LINE
  5
18C13
  8
AM_0
 10
279.62259706049491
 20
613.47897233404024
 30
0.0
 11
283.0825870604948
 21
600.55896633404041
 31
0.0
  0
ARC
  5
18C14
  8
AM_0
 10
213.88171706049479
 20
617.00809333404015
 30
0.0
 40
2.0008759
 50
0.0251100000023957
 51
89.9748899999976
  0
ARC
  5
18C15
  8
AM_0
 10
213.8802570604949
 20
616.33662333404015
 30
0.0
 40
2.002332
 50
0.0667400000013121
 51
89.933259999998697
  0
ARC
  5
18C16
  8
AM_0
 10
213.8775670604949
 20
614.98395433404016
 30
0.0
 40
2.0050240000000001
 50
0.1434100000013002
 51
89.856589999998704
  0
LINE
  5
18C17
  8
AM_0
 10
215.88257706049481
 20
617.00896333404023
 30
0.0
 11
215.88257706049481
 21
614.95896033404017
 31
0.0
  0
LINE
  5
18C18
  8
AM_0
 10
279.5925670604949
 20
613.59896733404025
 30
0.0
 11
284.88257706049478
 21
613.59896733404025
 31
0.0
  0
ARC
  5
18C19
  8
AM_0
 10
277.68799706049481
 20
612.95455033404016
 30
0.0
 40
2.0044159999999991
 50
15.16665999999886
 51
89.868520000001183
  0
ARC
  5
18C1A
  8
AM_0
 10
279.73190706049479
 20
611.59242933404039
 30
0.0
 40
2.0065319999999991
 50
12.273130000004571
 51
89.980730000003206
  0
LINE
  5
18C1B
  8
AM_0
 10
285.8825770604949
 20
617.09893333404011
 30
0.0
 11
292.88260706049488
 21
617.09893333404011
 31
0.0
  0
ARC
  5
18C1C
  8
AM_0
 10
285.8827570604949
 20
616.09874233404003
 30
0.0
 40
1.000179999999999
 50
90.010320000000135
 51
179.98968999999451
  0
LINE
  5
18C1D
  8
AM_0
 10
142.56256706049481
 20
589.81896833404039
 30
0.0
 11
281.70257706049489
 21
589.81896833404039
 31
0.0
  0
LINE
  5
18C1E
  8
AM_0
 10
284.59259706049482
 20
604.12895833404025
 30
0.0
 11
282.1825970604948
 21
604.12895833404025
 31
0.0
  0
ARC
  5
18C1F
  8
AM_0
 10
284.52789706049492
 20
600.94496033404039
 30
0.0
 40
1.495995999999999
 50
194.95233999999431
 51
270.17829300000022
  0
LINE
  5
18C20
  8
AM_0
 10
285.88257706049478
 20
605.13896833404021
 30
0.0
 11
292.88260706049488
 21
605.13896833404021
 31
0.0
  0
ARC
  5
18C21
  8
AM_0
 10
285.8820570604949
 20
604.13948733404027
 30
0.0
 40
0.9994760199999999
 50
89.970079999999669
 51
180.0299099999979
  0
ARC
  5
18C22
  8
AM_0
 10
284.58966706049478
 20
605.62829433404022
 30
0.0
 40
1.499328
 50
191.90615999999861
 51
270.11184899999989
  0
ARC
  5
18C23
  8
AM_0
 10
281.70257706049489
 20
588.14396833404021
 30
0.0
 40
1.675
 50
269.99999700000228
 51
90.0
  0
LINE
  5
18C24
  8
AM_0
 10
281.70257706049489
 20
586.46895833404017
 30
0.0
 11
142.56256706049481
 21
586.46895833404017
 31
0.0
  0
ARC
  5
18C25
  8
AM_0
 10
278.22439706049482
 20
588.09896833404025
 30
0.0
 40
1.000031899999998
 50
270.46929999999787
 51
89.530700000002156
  0
LINE
  5
18C26
  8
AM_0
 10
284.88257706049478
 20
590.24896833404023
 30
0.0
 11
292.88260706049488
 21
590.24896833404023
 31
0.0
  0
ARC
  5
18C27
  8
AM_0
 10
213.8819670604949
 20
489.17957833404029
 30
0.0
 40
2.000623899999999
 50
270.01782400000212
 51
359.9821759990013
  0
ARC
  5
18C28
  8
AM_0
 10
213.8855070604948
 20
489.85604833404028
 30
0.0
 40
1.9970881
 50
269.91637499999922
 51
0.0836200000014629
  0
ARC
  5
18C29
  8
AM_0
 10
213.8828170604948
 20
491.20869833404032
 30
0.0
 40
1.9997199999999991
 50
269.99193799999972
 51
0.0080600000040013
  0
LINE
  5
18C2A
  8
AM_0
 10
215.88257706049481
 20
489.17896833404029
 30
0.0
 11
215.88257706049481
 21
491.23896833404029
 31
0.0
  0
ARC
  5
18C2B
  8
AM_0
 10
281.70257706049489
 20
518.05396833404029
 30
0.0
 40
1.675
 50
269.99999700000228
 51
90.0
  0
LINE
  5
18C2C
  8
AM_0
 10
281.70257706049489
 20
519.72896833404025
 30
0.0
 11
151.56256706049481
 21
519.72896833404025
 31
0.0
  0
ARC
  5
18C2D
  8
AM_0
 10
278.22439706049482
 20
518.09896833404036
 30
0.0
 40
1.000031899999998
 50
270.46929999999787
 51
89.530700000002156
  0
LINE
  5
18C2E
  8
AM_0
 10
284.88257706049478
 20
515.9489583340403
 30
0.0
 11
292.88260706049488
 21
515.9489583340403
 31
0.0
  0
LINE
  5
18C2F
  8
AM_0
 10
279.62259706049491
 20
492.71895833404022
 30
0.0
 11
283.0825870604948
 21
505.6389783340403
 31
0.0
  0
LINE
  5
18C30
  8
AM_0
 10
281.69256706049492
 20
494.17892833404022
 30
0.0
 11
283.13257706049478
 21
500.87891833404029
 31
0.0
  0
LINE
  5
18C31
  8
AM_0
 10
284.59259706049482
 20
502.05897833404032
 30
0.0
 11
282.1825970604948
 21
502.05897833404032
 31
0.0
  0
LINE
  5
18C32
  8
AM_0
 10
285.88257706049478
 20
501.05895833404031
 30
0.0
 11
292.88260706049488
 21
501.05895833404031
 31
0.0
  0
ARC
  5
18C33
  8
AM_0
 10
284.53284706049487
 20
505.24656833404032
 30
0.0
 40
1.502391899999999
 50
90.009360000000058
 51
164.8599899999985
  0
ARC
  5
18C34
  8
AM_0
 10
285.87698706049491
 20
502.05334833404032
 30
0.0
 40
0.9944000200000001
 50
179.6764900000021
 51
270.323509
  0
ARC
  5
18C35
  8
AM_0
 10
284.58841706049492
 20
500.55848833404031
 30
0.0
 40
1.500475999999999
 50
89.841720000000251
 51
167.6677700000013
  0
LINE
  5
18C36
  8
AM_0
 10
279.5925670604949
 20
492.59896833404031
 30
0.0
 11
284.88257706049478
 21
492.59896833404031
 31
0.0
  0
ARC
  5
18C37
  8
AM_0
 10
279.7370370604948
 20
494.59913833404028
 30
0.0
 40
2.0001799999999981
 50
269.87248500000197
 51
347.8736480000029
  0
ARC
  5
18C38
  8
AM_0
 10
277.6930270604949
 20
493.23676833404028
 30
0.0
 40
1.997795899999999
 50
269.9864190000028
 51
344.9784029999978
  0
LINE
  5
18C39
  8
AM_0
 10
285.88257706049478
 20
489.09895333403978
 30
0.0
 11
292.88260706049488
 21
489.09895333403978
 31
0.0
  0
ARC
  5
18C3A
  8
AM_0
 10
285.87762706049477
 20
490.09399333403979
 30
0.0
 40
0.9950640200000001
 50
179.714940000002
 51
270.28506199999953
  0
ARC
  5
18C3B
  8
AM_0
 10
281.9125870604949
 20
528.0739583340403
 30
0.0
 40
1.4650000000000001
 50
270.00000299999761
 51
90.0
  0
ARC
  5
18C3C
  8
AM_0
 10
280.82255706049477
 20
528.09896833404025
 30
0.0
 40
1.0000040999999991
 50
270.00000299999761
 51
90.0
  0
ARC
  5
18C3D
  8
AM_0
 10
280.8262670604949
 20
538.09894833404041
 30
0.0
 40
1.000035999999999
 50
269.50071600000012
 51
90.499290000001594
  0
ARC
  5
18C3E
  8
AM_0
 10
282.04758706049489
 20
538.0889583340404
 30
0.0
 40
1.3300000000000001
 50
270.00000299999761
 51
90.0
  0
ARC
  5
18C3F
  8
AM_0
 10
282.10757706049492
 20
548.09397833404023
 30
0.0
 40
1.265004
 50
270.00000299999761
 51
90.0
  0
ARC
  5
18C40
  8
AM_0
 10
280.8262670604949
 20
548.09896833404025
 30
0.0
 40
1.000035999999999
 50
269.50071600000012
 51
90.499290000001594
  0
ARC
  5
18C41
  8
AM_0
 10
280.8262670604949
 20
558.09896833404025
 30
0.0
 40
1.000035999999999
 50
269.50071600000012
 51
90.499290000001594
  0
ARC
  5
18C42
  8
AM_0
 10
282.10757706049492
 20
558.09896833404025
 30
0.0
 40
1.270003999999999
 50
270.00000299999761
 51
90.0
  0
ARC
  5
18C43
  8
AM_0
 10
282.04758706049489
 20
568.10894833404041
 30
0.0
 40
1.3300000000000001
 50
270.00000299999761
 51
90.0
  0
ARC
  5
18C44
  8
AM_0
 10
280.8262670604949
 20
568.09894833404041
 30
0.0
 40
1.000035999999999
 50
269.50071600000012
 51
90.499290000001594
  0
ARC
  5
18C45
  8
AM_0
 10
280.82754706049479
 20
578.09895833404039
 30
0.0
 40
1.0000040999999991
 50
270.00000299999761
 51
90.0
  0
ARC
  5
18C46
  8
AM_0
 10
281.91757706049492
 20
578.11896833404023
 30
0.0
 40
1.4599999999999991
 50
270.00000299999761
 51
90.0
  0
LINE
  5
18C47
  8
ｶｸﾚｾﾝ2
 10
186.38257706049481
 20
589.09892501934348
 30
0.0
 11
269.88257706049478
 21
589.09892501934348
 31
0.0
  0
LINE
  5
18C48
  8
ｶｸﾚｾﾝ2
 10
269.88257706049478
 20
517.0989250193436
 30
0.0
 11
186.38257706049481
 21
517.0989250193436
 31
0.0
  0
ARC
  5
18C49
  8
ｶｸﾚｾﾝ2
 10
186.38257706049481
 20
520.5989250193436
 30
0.0
 40
3.5
 50
180.0
 51
270.0
  0
ARC
  5
18C4A
  8
ｶｸﾚｾﾝ2
 10
186.38257706049481
 20
585.59892501934337
 30
0.0
 40
3.5
 50
90.0
 51
180.0
  0
LINE
  5
18C4B
  8
ｶｸﾚｾﾝ2
 10
182.88257706049481
 20
520.5989250193436
 30
0.0
 11
182.88257706049581
 21
585.59892501934337
 31
0.0
  0
ARC
  5
18C4C
  8
ｶｸﾚｾﾝ2
 10
269.3825770604949
 20
530.5989250193436
 30
0.0
 40
2.0
 50
180.0
 51
270.0
  0
ARC
  5
18C4D
  8
ｶｸﾚｾﾝ2
 10
269.88257706049478
 20
519.09892501934337
 30
0.0
 40
2.0
 50
270.0
 51
0.0
  0
LINE
  5
18C4E
  8
ｶｸﾚｾﾝ2
 10
269.88257706049478
 20
528.5989250193436
 30
0.0
 11
269.3825770604949
 21
528.5989250193436
 31
0.0
  0
ARC
  5
18C4F
  8
ｶｸﾚｾﾝ2
 10
269.88257706049478
 20
526.59892501934348
 30
0.0
 40
2.0
 50
0.0
 51
90.0
  0
LINE
  5
18C50
  8
ｶｸﾚｾﾝ2
 10
271.8825770604949
 20
519.09892501934337
 30
0.0
 11
271.8825770604949
 21
526.59892501934348
 31
0.0
  0
ARC
  5
18C51
  8
ｶｸﾚｾﾝ2
 10
269.3825770604949
 20
575.5989250193436
 30
0.0
 40
2.0
 50
90.0
 51
180.0
  0
LINE
  5
18C52
  8
ｶｸﾚｾﾝ2
 10
267.3825770604949
 20
575.5989250193436
 30
0.0
 11
267.3825770604949
 21
530.5989250193436
 31
0.0
  0
LINE
  5
18C53
  8
ｶｸﾚｾﾝ2
 10
254.4328295921888
 20
589.09892501934348
 30
0.0
 11
255.88257706049481
 21
589.09892501934348
 31
0.0
  0
LINE
  5
18C54
  8
ｶｸﾚｾﾝ2
 10
254.4328295921888
 20
589.09892501934348
 30
0.0
 11
255.88257706049481
 21
589.09892501934348
 31
0.0
  0
ARC
  5
18C55
  8
ｶｸﾚｾﾝ2
 10
269.88257706049478
 20
579.5989250193436
 30
0.0
 40
2.0
 50
270.0
 51
0.0
  0
LINE
  5
18C56
  8
ｶｸﾚｾﾝ2
 10
269.3825770604949
 20
577.59892501934337
 30
0.0
 11
269.88257706049478
 21
577.59892501934337
 31
0.0
  0
ARC
  5
18C57
  8
ｶｸﾚｾﾝ2
 10
269.88257706049478
 20
587.0989250193436
 30
0.0
 40
2.0
 50
0.0
 51
90.0
  0
LINE
  5
18C58
  8
ｶｸﾚｾﾝ2
 10
271.8825770604949
 20
579.5989250193436
 30
0.0
 11
271.8825770604949
 21
587.0989250193436
 31
0.0
  0
LINE
  5
18C59
  8
ｶｸﾚｾﾝ2
 10
271.8825770604949
 20
579.5989250193436
 30
0.0
 11
271.8825770604949
 21
587.0989250193436
 31
0.0
  0
LINE
  5
18C5A
  8
AM_0
 10
179.27703538735341
 20
300.44440151647098
 30
0.0
 11
148.2769753873531
 21
298.414401516471
 31
0.0
  0
LINE
  5
18C5B
  8
AM_0
 10
161.2769753873533
 20
190.2044115164708
 30
0.0
 11
202.6033953873532
 21
190.2044115164708
 31
0.0
  0
LINE
  5
18C5C
  8
AM_0
 10
179.27703538735341
 20
207.74451151647099
 30
0.0
 11
148.2770353873531
 21
209.77451151647111
 31
0.0
  0
LINE
  5
18C5D
  8
AM_0
 10
246.2769753873531
 20
280.09443151647099
 30
0.0
 11
152.82696538735331
 21
280.09443151647099
 31
0.0
  0
LINE
  5
18C5E
  8
AM_0
 10
246.2769753873531
 20
288.09443151647099
 30
0.0
 11
152.82696538735331
 21
288.09443151647099
 31
0.0
  0
LINE
  5
18C5F
  8
AM_0
 10
246.2769753873531
 20
228.09443151647099
 30
0.0
 11
152.81262538735311
 21
228.09443151647099
 31
0.0
  0
LINE
  5
18C60
  8
AM_0
 10
142.54699538735301
 20
247.82441151647109
 30
0.0
 11
215.01208538735341
 21
247.82441151647109
 31
0.0
  0
LINE
  5
18C61
  8
AM_0
 10
151.73699538735309
 20
230.53437151647111
 30
0.0
 11
282.311215387353
 21
230.53437151647111
 31
0.0
  0
LINE
  5
18C62
  8
AM_0
 10
278.60980538735322
 20
230.09443151647099
 30
0.0
 11
152.81262538735311
 21
230.09443151647099
 31
0.0
  0
LINE
  5
18C63
  8
AM_0
 10
142.60699538735321
 20
237.754461516471
 30
0.0
 11
214.9482453873531
 21
237.754461516471
 31
0.0
  0
LINE
  5
18C64
  8
AM_0
 10
213.71905538735311
 20
238.09443151647099
 30
0.0
 11
143.82696538735331
 21
238.09443151647099
 31
0.0
  0
LINE
  5
18C65
  8
AM_0
 10
142.60699538735321
 20
240.41437151647111
 30
0.0
 11
214.9482453873531
 21
240.41437151647111
 31
0.0
  0
LINE
  5
18C66
  8
AM_0
 10
213.71905538735311
 20
250.09443151647099
 30
0.0
 11
143.82696538735331
 21
250.09443151647099
 31
0.0
  0
LINE
  5
18C67
  8
AM_0
 10
213.71905538735311
 20
248.09443151647099
 30
0.0
 11
143.82696538735331
 21
248.09443151647099
 31
0.0
  0
LINE
  5
18C68
  8
AM_0
 10
142.54699538735301
 20
250.36445151647089
 30
0.0
 11
215.01208538735341
 21
250.36445151647089
 31
0.0
  0
LINE
  5
18C69
  8
AM_0
 10
142.54699538735301
 20
257.83442151647102
 30
0.0
 11
215.01208538735341
 21
257.83442151647102
 31
0.0
  0
LINE
  5
18C6A
  8
AM_0
 10
142.54699538735301
 20
260.374461516471
 30
0.0
 11
215.01208538735341
 21
260.374461516471
 31
0.0
  0
LINE
  5
18C6B
  8
AM_0
 10
142.60699538735321
 20
267.77448151647093
 30
0.0
 11
214.9356653873534
 21
267.77448151647093
 31
0.0
  0
LINE
  5
18C6C
  8
AM_0
 10
142.60699538735321
 20
270.44440151647109
 30
0.0
 11
214.9482453873531
 21
270.44440151647109
 31
0.0
  0
LINE
  5
18C6D
  8
AM_0
 10
151.73699538735309
 20
277.66437151647108
 30
0.0
 11
282.311215387353
 21
277.66437151647108
 31
0.0
  0
LINE
  5
18C6E
  8
AM_0
 10
151.73699538735309
 20
280.58442151647108
 30
0.0
 11
246.2769753873531
 21
280.58442151647108
 31
0.0
  0
LINE
  5
18C6F
  8
AM_0
 10
151.9469553873532
 20
287.46442151647102
 30
0.0
 11
246.29699538735329
 21
287.46442151647102
 31
0.0
  0
LINE
  5
18C70
  8
AM_0
 10
151.9469553873532
 20
290.82441151647112
 30
0.0
 11
282.0969853873529
 21
290.82441151647112
 31
0.0
  0
LINE
  5
18C71
  8
AM_0
 10
246.2769753873531
 20
220.09443151647099
 30
0.0
 11
152.81262538735311
 21
220.09443151647099
 31
0.0
  0
LINE
  5
18C72
  8
AM_0
 10
151.73699538735309
 20
227.61445151647089
 30
0.0
 11
246.2769753873531
 21
227.61445151647089
 31
0.0
  0
LINE
  5
18C73
  8
AM_0
 10
213.71905538735311
 20
258.09443151647099
 30
0.0
 11
143.82696538735331
 21
258.09443151647099
 31
0.0
  0
LINE
  5
18C74
  8
AM_0
 10
213.71905538735311
 20
260.09443151647099
 30
0.0
 11
143.82696538735331
 21
260.09443151647099
 31
0.0
  0
LINE
  5
18C75
  8
AM_0
 10
213.71569538735321
 20
268.09443151647099
 30
0.0
 11
143.82696538735331
 21
268.09443151647099
 31
0.0
  0
LINE
  5
18C76
  8
AM_0
 10
213.71569538735321
 20
270.09443151647099
 30
0.0
 11
143.82696538735331
 21
270.09443151647099
 31
0.0
  0
LINE
  5
18C77
  8
AM_0
 10
278.60980538735322
 20
278.09443151647099
 30
0.0
 11
152.82696538735331
 21
278.09443151647099
 31
0.0
  0
LINE
  5
18C78
  8
AM_0
 10
278.61700538735317
 20
290.09443151647099
 30
0.0
 11
152.82696538735331
 21
290.09443151647099
 31
0.0
  0
LINE
  5
18C79
  8
AM_0
 10
161.2769753873533
 20
317.98444151647101
 30
0.0
 11
279.79693538735319
 21
317.98444151647101
 31
0.0
  0
LINE
  5
18C7A
  8
AM_0
 10
161.2769753873533
 20
319.34443151647088
 30
0.0
 11
279.50463538735312
 21
319.34443151647088
 31
0.0
  0
LINE
  5
18C7B
  8
AM_0
 10
161.2769753873533
 20
320.01447151647091
 30
0.0
 11
279.36065538735312
 21
320.01447151647091
 31
0.0
  0
LINE
  5
18C7C
  8
AM_0
 10
161.2769753873533
 20
315.954411516471
 30
0.0
 11
278.08697538735311
 21
315.954411516471
 31
0.0
  0
LINE
  5
18C7D
  8
AM_0
 10
213.71905538735311
 20
240.09443151647099
 30
0.0
 11
143.82696538735331
 21
240.09443151647099
 31
0.0
  0
LINE
  5
18C7E
  8
AM_0
 10
161.2769753873533
 20
192.23444151647101
 30
0.0
 11
278.08697538735311
 21
192.23444151647101
 31
0.0
  0
LINE
  5
18C7F
  8
AM_0
 10
151.9469553873532
 20
217.374461516471
 30
0.0
 11
234.2769753873531
 21
217.374461516471
 31
0.0
  0
LINE
  5
18C80
  8
AM_0
 10
234.2769753873531
 20
218.09443151647099
 30
0.0
 11
152.81262538735311
 21
218.09443151647099
 31
0.0
  0
LINE
  5
18C81
  8
AM_0
 10
151.9469553873532
 20
220.73444151647109
 30
0.0
 11
246.29699538735329
 21
220.73444151647109
 31
0.0
  0
LINE
  5
18C82
  8
AM_0
 10
87.775545287353196
 20
288.83289261217823
 30
0.0
 11
87.775545287353196
 21
219.35597042076361
 31
0.0
  0
LINE
  5
18C83
  8
AM_0
 10
88.276975387353346
 20
219.56537151647089
 30
0.0
 11
88.276975387353346
 21
288.6234815164712
 31
0.0
  0
LINE
  5
18C84
  8
AM_0
 10
133.2769753873533
 20
216.909371516471
 30
0.0
 11
133.2769753873533
 21
291.28046151647078
 31
0.0
  0
LINE
  5
18C85
  8
AM_0
 10
90.776975387353346
 20
201.31244151647101
 30
0.0
 11
90.776975387353346
 21
306.84443151647082
 31
0.0
  0
LINE
  5
18C86
  8
AM_0
 10
82.775545287353225
 20
310.09443151647099
 30
0.0
 11
82.775545287353225
 21
198.09443151647099
 31
0.0
  0
LINE
  5
18C87
  8
AM_0
 10
138.2769753873533
 20
195.34443151647079
 30
0.0
 11
138.2769753873533
 21
254.09443151647099
 31
0.0
  0
LINE
  5
18C88
  8
AM_0
 10
90.276975387353289
 20
201.34443151647099
 30
0.0
 11
138.2769753873533
 21
201.34443151647099
 31
0.0
  0
LINE
  5
18C89
  8
AM_0
 10
90.776975387353346
 20
220.45344151647089
 30
0.0
 11
133.2769753873533
 21
220.45344151647089
 31
0.0
  0
LINE
  5
18C8A
  8
AM_0
 10
90.776975387353346
 20
210.20344151647089
 30
0.0
 11
133.2769753873533
 21
210.20344151647089
 31
0.0
  0
LINE
  5
18C8B
  8
AM_0
 10
126.2769753873533
 20
194.09443151647099
 30
0.0
 11
129.2769753873533
 21
194.09443151647099
 31
0.0
  0
LINE
  5
18C8C
  8
AM_0
 10
113.2769753873533
 20
195.34443151647091
 30
0.0
 11
138.2769753873533
 21
195.34443151647091
 31
0.0
  0
LINE
  5
18C8D
  8
AM_0
 10
91.775545287353211
 20
189.09443151647091
 30
0.0
 11
129.2769753873533
 21
189.09443151647091
 31
0.0
  0
LINE
  5
18C8E
  8
AM_0
 10
86.177005387353105
 20
216.70344151647089
 30
0.0
 11
86.177005387353105
 21
213.70344151647089
 31
0.0
  0
LINE
  5
18C8F
  8
AM_0
 10
89.476985387353139
 20
219.80341151647099
 30
0.0
 11
89.476985387353139
 21
210.6034615164709
 31
0.0
  0
LINE
  5
18C90
  8
AM_0
 10
92.775545287353196
 20
194.09443151647099
 30
0.0
 11
116.2769753873533
 21
194.09443151647099
 31
0.0
  0
LINE
  5
18C91
  8
AM_0
 10
87.775545287353196
 20
211.05091261217819
 30
0.0
 11
87.775545287353196
 21
199.09443151647099
 31
0.0
  0
ARC
  5
18C92
  8
AM_0
 10
92.775545287353196
 20
199.09443151647099
 30
0.0
 40
5.0
 50
179.99997999999789
 51
269.99995000000149
  0
ARC
  5
18C93
  8
AM_0
 10
91.775545287353211
 20
198.09443151647099
 30
0.0
 40
9.0
 50
179.99997999999789
 51
269.99995000000149
  0
LINE
  5
18C94
  8
AM_0
 10
88.276975387353346
 20
210.841501516471
 30
0.0
 11
88.276975387353346
 21
203.34443151647099
 31
0.0
  0
ARC
  5
18C95
  8
AM_0
 10
90.276975387353289
 20
203.34443151647099
 30
0.0
 40
2.0
 50
179.99997999999789
 51
269.99995000000149
  0
ARC
  5
18C96
  8
AM_0
 10
89.177005387353134
 20
213.70344151647089
 30
0.0
 40
3.0
 50
179.99997999999789
 51
269.99995000000149
  0
LINE
  5
18C97
  8
AM_0
 10
89.177005387353134
 20
210.70344151647089
 30
0.0
 11
89.476985387353139
 21
210.70344151647089
 31
0.0
  0
LINE
  5
18C98
  8
AM_0
 10
89.476985387353139
 20
210.6034615164709
 30
0.0
 11
90.776975387353346
 21
210.6034615164709
 31
0.0
  0
LINE
  5
18C99
  8
AM_0
 10
113.2769753873533
 20
195.34443151647091
 30
0.0
 11
113.2769753873533
 21
201.34443151647099
 31
0.0
  0
LINE
  5
18C9A
  8
AM_0
 10
126.2769753873533
 20
195.34443151647091
 30
0.0
 11
126.2769753873533
 21
189.09443151647091
 31
0.0
  0
LINE
  5
18C9B
  8
AM_0
 10
116.2769753873533
 20
195.34443151647091
 30
0.0
 11
116.2769753873533
 21
189.09443151647091
 31
0.0
  0
ARC
  5
18C9C
  8
AM_0
 10
89.177005387353134
 20
216.70344151647089
 30
0.0
 40
3.0
 50
89.999988999997555
 51
179.99997999999789
  0
LINE
  5
18C9D
  8
AM_0
 10
89.177005387353134
 20
219.70344151647089
 30
0.0
 11
89.476985387353139
 21
219.70344151647089
 31
0.0
  0
LINE
  5
18C9E
  8
AM_0
 10
89.476985387353139
 20
219.80341151647099
 30
0.0
 11
90.776975387353346
 21
219.80341151647099
 31
0.0
  0
LINE
  5
18C9F
  8
AM_0
 10
148.2769753873531
 20
205.74445151647089
 30
0.0
 11
148.2769753873531
 21
219.79438151647099
 31
0.0
  0
ARC
  5
18CA0
  8
AM_0
 10
147.43981538735301
 20
212.50592151647089
 30
0.0
 40
4.9991421999999961
 50
5.378026899999572
 51
80.360064999998514
  0
ARC
  5
18CA1
  8
AM_0
 10
151.41778538735309
 20
212.88410151647099
 30
0.0
 40
1.0032491999999991
 50
314.98119000000219
 51
5.1676434000007099
  0
LINE
  5
18CA2
  8
AM_0
 10
143.9775953873534
 20
192.4243815164709
 30
0.0
 11
158.01971538735319
 21
192.4243815164709
 31
0.0
  0
LINE
  5
18CA3
  8
AM_0
 10
152.03680538735301
 20
201.11445151647089
 30
0.0
 11
157.7769753873533
 21
201.11445151647089
 31
0.0
  0
LINE
  5
18CA4
  8
AM_0
 10
151.97460538735319
 20
195.834421516471
 30
0.0
 11
157.7769753873533
 21
195.834421516471
 31
0.0
  0
LINE
  5
18CA5
  8
AM_0
 10
150.22125538735301
 20
197.4044815164709
 30
0.0
 11
149.2612953873529
 21
201.87446151647089
 31
0.0
  0
ARC
  5
18CA6
  8
AM_0
 10
140.09020538735311
 20
197.49677151647111
 30
0.0
 40
1.497715799999999
 50
13.42437900000316
 51
90.122644999997888
  0
LINE
  5
18CA7
  8
AM_0
 10
140.10699538735321
 20
196.97443151647099
 30
0.0
 11
141.7569553873532
 21
196.97443151647099
 31
0.0
  0
LINE
  5
18CA8
  8
AM_0
 10
138.2769753873533
 20
196.66446151647099
 30
0.0
 11
141.0969853873529
 21
196.60447151647091
 31
0.0
  0
LINE
  5
18CA9
  8
AM_0
 10
140.08697538735299
 20
198.99445151647089
 30
0.0
 11
149.87975538735299
 21
198.99445151647089
 31
0.0
  0
ARC
  5
18CAA
  8
AM_0
 10
140.1046753873531
 20
195.47614151647099
 30
0.0
 40
1.4982997
 50
14.22974000000514
 51
89.910950000001193
  0
LINE
  5
18CAB
  8
AM_0
 10
129.2769753873533
 20
194.09443151647099
 30
0.0
 11
129.2769753873533
 21
189.09443151647091
 31
0.0
  0
LINE
  5
18CAC
  8
AM_0
 10
142.0383253873533
 20
193.93546151647089
 30
0.0
 11
141.5570053873532
 21
195.84449151647081
 31
0.0
  0
ARC
  5
18CAD
  8
AM_0
 10
143.9775953873534
 20
194.4243815164709
 30
0.0
 40
2.0
 50
194.15074999999919
 51
269.999989999999
  0
ARC
  5
18CAE
  8
AM_0
 10
144.4138153873532
 20
194.42499151647101
 30
0.0
 40
2.0005671999999981
 50
193.30958999999521
 51
269.80430999999942
  0
LINE
  5
18CAF
  8
AM_0
 10
142.4669753873531
 20
193.96439151647101
 30
0.0
 11
141.54699538735301
 21
197.84446151647089
 31
0.0
  0
ARC
  5
18CB0
  8
AM_0
 10
152.17431538735329
 20
197.82148151647081
 30
0.0
 40
1.997119399999999
 50
192.05524000000179
 51
270.1986299999989
  0
LINE
  5
18CB1
  8
AM_0
 10
138.2769753873533
 20
211.4044815164709
 30
0.0
 11
148.2769753873531
 21
211.4044815164709
 31
0.0
  0
LINE
  5
18CB2
  8
AM_0
 10
138.2769753873533
 20
205.74445151647089
 30
0.0
 11
148.2769753873531
 21
205.74445151647089
 31
0.0
  0
LINE
  5
18CB3
  8
AM_0
 10
133.2769753873533
 20
210.20344151647089
 30
0.0
 11
133.2769753873533
 21
201.34443151647099
 31
0.0
  0
ARC
  5
18CB4
  8
AM_0
 10
148.0101353873529
 20
206.834421516471
 30
0.0
 40
1.5
 50
10.23737899999913
 51
79.75211000000192
  0
ARC
  5
18CB5
  8
AM_0
 10
152.23638538735301
 20
203.09967151647109
 30
0.0
 40
1.9952742999999991
 50
189.9647800000009
 51
269.85141999999991
  0
LINE
  5
18CB6
  8
AM_0
 10
147.7912553873532
 20
203.05439151647099
 30
0.0
 11
150.2112453873533
 21
203.05439151647099
 31
0.0
  0
ARC
  5
18CB7
  8
AM_0
 10
147.79382538735311
 20
201.5520715164711
 30
0.0
 40
1.502416299999999
 50
12.391887000000411
 51
90.098617000002335
  0
LINE
  5
18CB8
  8
AM_0
 10
149.48620538735301
 20
207.101081516471
 30
0.0
 11
150.27123538735299
 21
202.75440151647089
 31
0.0
  0
ARC
  5
18CB9
  8
AM_0
 10
147.89666538735329
 20
216.43976151647101
 30
0.0
 40
6.0073843
 50
273.62973999999741
 51
314.76384999999499
  0
LINE
  5
18CBA
  8
AM_0
 10
159.2769753873533
 20
192.20539151647111
 30
0.0
 11
159.2769753873533
 21
199.61445151647089
 31
0.0
  0
ARC
  5
18CBB
  8
AM_0
 10
161.277895387353
 20
192.20539151647111
 30
0.0
 40
2.0009109999999981
 50
180.00001000000091
 51
269.97390999999652
  0
ARC
  5
18CBC
  8
AM_0
 10
158.01971538735319
 20
190.92438151647099
 30
0.0
 40
1.5
 50
21.46170899999715
 51
90.00000299999769
  0
ARC
  5
18CBD
  8
AM_0
 10
157.7738653873532
 20
194.33124151647101
 30
0.0
 40
1.503128599999999
 50
0.1191296499956856
 51
89.880869999998822
  0
ARC
  5
18CBE
  8
AM_0
 10
161.27703538735321
 20
194.23444151647101
 30
0.0
 40
2.0000371999999991
 50
180.0010599999959
 51
269.99892999999639
  0
ARC
  5
18CBF
  8
AM_0
 10
157.775025387353
 20
199.61249151647101
 30
0.0
 40
1.501982699999999
 50
0.0755872020005832
 51
89.924413000004805
  0
ARC
  5
18CC0
  8
AM_0
 10
151.7312653873532
 20
229.06440151647101
 30
0.0
 40
1.460011199999999
 50
89.775248000004495
 51
270.22473999999698
  0
ARC
  5
18CC1
  8
AM_0
 10
152.81982538735309
 20
229.09443151647099
 30
0.0
 40
1.000025599999997
 50
89.589474000000749
 51
270.41051999999962
  0
ARC
  5
18CC2
  8
AM_0
 10
152.81982538735309
 20
219.09443151647099
 30
0.0
 40
1.000025599999997
 50
89.589474000000749
 51
270.41051999999962
  0
LINE
  5
18CC3
  8
AM_0
 10
138.2769753873533
 20
219.79438151647099
 30
0.0
 11
148.2769753873531
 21
219.79438151647099
 31
0.0
  0
ARC
  5
18CC4
  8
AM_0
 10
151.9469553873532
 20
219.04438151647091
 30
0.0
 40
1.6800002000000001
 50
90.00000299999769
 51
270.0
  0
ARC
  5
18CC5
  8
AM_0
 10
143.82696538735331
 20
239.09443151647099
 30
0.0
 40
1.000005699999998
 50
90.00000299999769
 51
270.0
  0
ARC
  5
18CC6
  8
AM_0
 10
142.60070538735309
 20
239.084421516471
 30
0.0
 40
1.3300148000000001
 50
89.729417999999555
 51
270.27059000000321
  0
ARC
  5
18CC7
  8
AM_0
 10
160.26977538735349
 20
219.09443151647099
 30
0.0
 40
1.0000259
 50
89.587534000000247
 51
270.4124599999987
  0
ARC
  5
18CC8
  8
AM_0
 10
160.26977538735349
 20
229.09443151647099
 30
0.0
 40
1.0000259
 50
89.587534000000247
 51
270.4124599999987
  0
ARC
  5
18CC9
  8
AM_0
 10
160.26977538735349
 20
239.09443151647099
 30
0.0
 40
1.0000259
 50
89.587534000000247
 51
270.4124599999987
  0
LINE
  5
18CCA
  8
AM_0
 10
113.2769753873533
 20
312.84443151647082
 30
0.0
 11
113.2769753873533
 21
306.84443151647082
 31
0.0
  0
ARC
  5
18CCB
  8
AM_0
 10
92.775545287353196
 20
309.09443151647122
 30
0.0
 40
5.0
 50
89.999988999997555
 51
180.0
  0
ARC
  5
18CCC
  8
AM_0
 10
91.775545287353211
 20
310.09443151647099
 30
0.0
 40
9.0
 50
89.999988999997555
 51
179.99997999999789
  0
ARC
  5
18CCD
  8
AM_0
 10
152.17431538735329
 20
310.367371516471
 30
0.0
 40
1.997119399999999
 50
89.801366999998493
 51
167.94475999999821
  0
ARC
  5
18CCE
  8
AM_0
 10
140.09655538735339
 20
312.71979151647099
 30
0.0
 40
1.505448699999999
 50
270.39686999999992
 51
345.95247000000018
  0
LINE
  5
18CCF
  8
AM_0
 10
142.4669753873531
 20
314.2244315164711
 30
0.0
 11
141.54693538735339
 21
310.35444151647101
 31
0.0
  0
LINE
  5
18CD0
  8
AM_0
 10
138.2769753873533
 20
312.84443151647099
 30
0.0
 11
138.2769753873533
 21
254.09443151647099
 31
0.0
  0
LINE
  5
18CD1
  8
AM_0
 10
159.2769753873533
 20
315.98444151647101
 30
0.0
 11
159.2769753873533
 21
308.5844215164708
 31
0.0
  0
LINE
  5
18CD2
  8
AM_0
 10
90.276975387353289
 20
306.84443151647082
 30
0.0
 11
138.2769753873533
 21
306.84443151647082
 31
0.0
  0
LINE
  5
18CD3
  8
AM_0
 10
90.776975387353346
 20
287.73542151647092
 30
0.0
 11
133.2769753873533
 21
287.73542151647092
 31
0.0
  0
LINE
  5
18CD4
  8
AM_0
 10
90.776975387353346
 20
297.98542151647092
 30
0.0
 11
133.2769753873533
 21
297.98542151647092
 31
0.0
  0
LINE
  5
18CD5
  8
AM_0
 10
81.777005387353285
 20
249.09443151647099
 30
0.0
 11
81.777005387353285
 21
259.09443151647099
 31
0.0
  0
LINE
  5
18CD6
  8
AM_0
 10
82.775545287353225
 20
249.09443151647099
 30
0.0
 11
81.777005387353285
 21
249.09443151647099
 31
0.0
  0
LINE
  5
18CD7
  8
AM_0
 10
88.276975387353346
 20
249.09443151647099
 30
0.0
 11
87.775545287353196
 21
249.09443151647099
 31
0.0
  0
LINE
  5
18CD8
  8
AM_0
 10
82.775545287353225
 20
259.09443151647099
 30
0.0
 11
81.777005387353285
 21
259.09443151647099
 31
0.0
  0
LINE
  5
18CD9
  8
AM_0
 10
88.276975387353346
 20
259.09443151647099
 30
0.0
 11
87.775545287353196
 21
259.09443151647099
 31
0.0
  0
LINE
  5
18CDA
  8
AM_0
 10
89.476985387353139
 20
288.38545151647088
 30
0.0
 11
89.476985387353139
 21
297.58540151647082
 31
0.0
  0
ARC
  5
18CDB
  8
AM_0
 10
89.177005387353134
 20
294.48542151647081
 30
0.0
 40
3.0
 50
90.000049999998495
 51
180.000020000002
  0
ARC
  5
18CDC
  8
AM_0
 10
89.177005387353134
 20
291.48542151647092
 30
0.0
 40
3.0
 50
180.000020000002
 51
270.00001100000242
  0
LINE
  5
18CDD
  8
AM_0
 10
86.177005387353105
 20
291.48542151647092
 30
0.0
 11
86.177005387353105
 21
294.48542151647081
 31
0.0
  0
LINE
  5
18CDE
  8
AM_0
 10
89.177005387353134
 20
288.48542151647081
 30
0.0
 11
89.476985387353139
 21
288.48542151647081
 31
0.0
  0
LINE
  5
18CDF
  8
AM_0
 10
89.476985387353139
 20
288.38545151647088
 30
0.0
 11
90.776975387353346
 21
288.38545151647088
 31
0.0
  0
LINE
  5
18CE0
  8
AM_0
 10
87.775545287353196
 20
297.13795042076362
 30
0.0
 11
87.775545287353196
 21
309.09443151647082
 31
0.0
  0
LINE
  5
18CE1
  8
AM_0
 10
88.276975387353346
 20
297.34736151647093
 30
0.0
 11
88.276975387353346
 21
304.84443151647082
 31
0.0
  0
LINE
  5
18CE2
  8
AM_0
 10
89.177005387353134
 20
297.48542151647092
 30
0.0
 11
89.476985387353139
 21
297.48542151647092
 31
0.0
  0
LINE
  5
18CE3
  8
AM_0
 10
89.476985387353139
 20
297.58540151647082
 30
0.0
 11
90.776975387353346
 21
297.58540151647082
 31
0.0
  0
ARC
  5
18CE4
  8
AM_0
 10
90.276975387353289
 20
304.84443151647082
 30
0.0
 40
2.0
 50
90.000049999998495
 51
180.000020000002
  0
ARC
  5
18CE5
  8
AM_0
 10
160.26977538735349
 20
279.09443151647099
 30
0.0
 40
1.0000259
 50
89.587534000000247
 51
270.4124599999987
  0
ARC
  5
18CE6
  8
AM_0
 10
152.81982538735309
 20
279.09443151647099
 30
0.0
 40
1.000025599999997
 50
89.589474000000749
 51
270.41051999999962
  0
ARC
  5
18CE7
  8
AM_0
 10
151.7312653873532
 20
279.12446151647111
 30
0.0
 40
1.460011199999999
 50
89.775248000004495
 51
270.22473999999698
  0
ARC
  5
18CE8
  8
AM_0
 10
143.82696538735331
 20
249.09443151647099
 30
0.0
 40
1.000005699999998
 50
90.00000299999769
 51
270.0
  0
ARC
  5
18CE9
  8
AM_0
 10
142.53875538735309
 20
249.09443151647099
 30
0.0
 40
1.2700266
 50
89.629321000002761
 51
270.37068999999542
  0
ARC
  5
18CEA
  8
AM_0
 10
143.82696538735331
 20
259.09443151647099
 30
0.0
 40
1.000005699999998
 50
90.00000299999769
 51
270.0
  0
ARC
  5
18CEB
  8
AM_0
 10
142.53875538735309
 20
259.1044415164709
 30
0.0
 40
1.2700266
 50
89.629327999996249
 51
270.37065999999629
  0
ARC
  5
18CEC
  8
AM_0
 10
143.82696538735331
 20
269.09443151647099
 30
0.0
 40
1.000005699999998
 50
90.00000299999769
 51
270.0
  0
ARC
  5
18CED
  8
AM_0
 10
142.60070538735309
 20
269.10944151647112
 30
0.0
 40
1.3350147999999991
 50
89.730434999997087
 51
270.2695700000001
  0
ARC
  5
18CEE
  8
AM_0
 10
160.26977538735349
 20
249.09443151647099
 30
0.0
 40
1.0000259
 50
89.587534000000247
 51
270.4124599999987
  0
ARC
  5
18CEF
  8
AM_0
 10
160.26977538735349
 20
259.09443151647099
 30
0.0
 40
1.0000259
 50
89.587534000000247
 51
270.4124599999987
  0
ARC
  5
18CF0
  8
AM_0
 10
160.26977538735349
 20
269.09443151647099
 30
0.0
 40
1.0000259
 50
89.587534000000247
 51
270.4124599999987
  0
ARC
  5
18CF1
  8
AM_0
 10
151.4188853873531
 20
295.31513151647101
 30
0.0
 40
1.002184699999999
 50
354.8038600000034
 51
45.047307000000579
  0
ARC
  5
18CF2
  8
AM_0
 10
152.81982538735309
 20
289.09443151647099
 30
0.0
 40
1.000025599999997
 50
89.589474000000749
 51
270.41051999999962
  0
ARC
  5
18CF3
  8
AM_0
 10
147.4325553873534
 20
295.68866151647097
 30
0.0
 40
5.0059714
 50
279.7109799999979
 51
354.67887999999817
  0
LINE
  5
18CF4
  8
AM_0
 10
152.2312653873532
 20
307.08442151647102
 30
0.0
 11
157.7769753873533
 21
307.08442151647102
 31
0.0
  0
LINE
  5
18CF5
  8
AM_0
 10
148.2769753873531
 20
302.44440151647098
 30
0.0
 11
148.2769753873531
 21
288.40448151647092
 31
0.0
  0
LINE
  5
18CF6
  8
AM_0
 10
138.2769753873533
 20
288.40448151647092
 30
0.0
 11
148.2769753873531
 21
288.40448151647092
 31
0.0
  0
ARC
  5
18CF7
  8
AM_0
 10
151.9469553873532
 20
289.14447151647113
 30
0.0
 40
1.6800002000000001
 50
90.00000299999769
 51
270.0
  0
LINE
  5
18CF8
  8
AM_0
 10
140.10699538735321
 20
311.21442151647079
 30
0.0
 11
141.7569553873532
 21
311.21442151647079
 31
0.0
  0
LINE
  5
18CF9
  8
AM_0
 10
138.2769753873533
 20
311.5244215164708
 30
0.0
 11
141.0969853873529
 21
311.5944315164711
 31
0.0
  0
LINE
  5
18CFA
  8
AM_0
 10
140.08697538735299
 20
309.19440151647092
 30
0.0
 11
149.87975538735299
 21
309.19440151647092
 31
0.0
  0
LINE
  5
18CFB
  8
AM_0
 10
138.2769753873533
 20
302.44440151647098
 30
0.0
 11
148.2769753873531
 21
302.44440151647098
 31
0.0
  0
LINE
  5
18CFC
  8
AM_0
 10
138.2769753873533
 20
296.78437151647108
 30
0.0
 11
148.2769753873531
 21
296.78437151647108
 31
0.0
  0
ARC
  5
18CFD
  8
AM_0
 10
140.0821553873532
 20
310.69928151647099
 30
0.0
 40
1.5048382
 50
270.18264000000067
 51
346.75308000000211
  0
LINE
  5
18CFE
  8
AM_0
 10
133.2769753873533
 20
297.98542151647092
 30
0.0
 11
133.2769753873533
 21
306.84443151647082
 31
0.0
  0
LINE
  5
18CFF
  8
AM_0
 10
149.486265387353
 20
301.08780151647079
 30
0.0
 11
150.27130538735329
 21
305.43448151647101
 31
0.0
  0
ARC
  5
18D00
  8
AM_0
 10
147.89794538735299
 20
291.76191151647112
 30
0.0
 40
6.0044340999999992
 50
45.225577999994172
 51
86.380821999995916
  0
ARC
  5
18D01
  8
AM_0
 10
148.0101353873529
 20
301.35444151647113
 30
0.0
 40
1.5
 50
280.24788999999811
 51
349.76261999999872
  0
ARC
  5
18D02
  8
AM_0
 10
152.23638538735301
 20
305.08918151647089
 30
0.0
 40
1.9952742999999991
 50
90.148580000000095
 51
170.03521999999899
  0
LINE
  5
18D03
  8
AM_0
 10
147.7912553873532
 20
305.13446151647099
 30
0.0
 11
150.2112453873533
 21
305.13446151647099
 31
0.0
  0
ARC
  5
18D04
  8
AM_0
 10
147.79382538735311
 20
306.63678151647099
 30
0.0
 40
1.502416299999999
 50
269.90137999999553
 51
347.60813000000007
  0
LINE
  5
18D05
  8
AM_0
 10
150.22125538735301
 20
310.78443151647099
 30
0.0
 11
149.2612953873529
 21
306.314461516471
 31
0.0
  0
ARC
  5
18D06
  8
AM_0
 10
160.26977538735349
 20
289.09443151647099
 30
0.0
 40
1.0000259
 50
89.587534000000247
 51
270.4124599999987
  0
ARC
  5
18D07
  8
AM_0
 10
157.7732553873532
 20
308.58820151647092
 30
0.0
 40
1.5037541000000001
 50
270.14287000000098
 51
359.85713999999871
  0
LINE
  5
18D08
  8
AM_0
 10
126.2769753873533
 20
314.09443151647099
 30
0.0
 11
129.2769753873533
 21
314.09443151647099
 31
0.0
  0
LINE
  5
18D09
  8
AM_0
 10
91.775545287353211
 20
319.09443151647099
 30
0.0
 11
129.2769753873533
 21
319.09443151647099
 31
0.0
  0
LINE
  5
18D0A
  8
AM_0
 10
113.2769753873533
 20
312.84443151647082
 30
0.0
 11
138.2769753873533
 21
312.84443151647082
 31
0.0
  0
LINE
  5
18D0B
  8
AM_0
 10
92.775545287353196
 20
314.09443151647099
 30
0.0
 11
116.2769753873533
 21
314.09443151647099
 31
0.0
  0
LINE
  5
18D0C
  8
AM_0
 10
116.2769753873533
 20
312.84443151647099
 30
0.0
 11
116.2769753873533
 21
319.09443151647099
 31
0.0
  0
LINE
  5
18D0D
  8
AM_0
 10
126.2769753873533
 20
312.84443151647099
 30
0.0
 11
126.2769753873533
 21
319.09443151647099
 31
0.0
  0
LINE
  5
18D0E
  8
AM_0
 10
144.3869653873532
 20
317.39447151647101
 30
0.0
 11
157.88696538735351
 21
317.39447151647101
 31
0.0
  0
LINE
  5
18D0F
  8
AM_0
 10
144.40698538735319
 20
315.76447151647102
 30
0.0
 11
157.7769753873533
 21
315.76447151647102
 31
0.0
  0
LINE
  5
18D10
  8
AM_0
 10
152.1674153873532
 20
312.36445151647092
 30
0.0
 11
157.7769753873533
 21
312.36445151647092
 31
0.0
  0
LINE
  5
18D11
  8
AM_0
 10
129.2769753873533
 20
314.09443151647099
 30
0.0
 11
129.2769753873533
 21
319.09443151647099
 31
0.0
  0
LINE
  5
18D12
  8
AM_0
 10
142.4469553873532
 20
315.88446151647099
 30
0.0
 11
141.5569453873531
 21
312.35444151647101
 31
0.0
  0
ARC
  5
18D13
  8
AM_0
 10
144.38183538735299
 20
315.3998515164709
 30
0.0
 40
1.994612099999999
 50
89.851991999995747
 51
165.93886000000339
  0
ARC
  5
18D14
  8
AM_0
 10
144.40722538735301
 20
313.77216151647087
 30
0.0
 40
1.9922863
 50
90.007721000000544
 51
166.8783900000042
  0
ARC
  5
18D15
  8
AM_0
 10
161.27075538735309
 20
318.01789151647102
 30
0.0
 40
1.9964978999999961
 50
89.821482000000245
 51
165.60060999999891
  0
ARC
  5
18D16
  8
AM_0
 10
157.8818953873533
 20
318.8996015164708
 30
0.0
 40
1.505230099999999
 50
270.19421
 51
345.17177999999791
  0
ARC
  5
18D17
  8
AM_0
 10
157.77007538735299
 20
317.27131151647097
 30
0.0
 40
1.506942899999999
 50
270.26336999999921
 51
359.73663000000079
  0
ARC
  5
18D18
  8
AM_0
 10
157.77209538735309
 20
313.86933151647122
 30
0.0
 40
1.504891299999997
 50
270.18592999999731
 51
359.81406999999621
  0
ARC
  5
18D19
  8
AM_0
 10
161.27111538735309
 20
315.99030151647099
 30
0.0
 40
1.994130499999996
 50
89.831106000002478
 51
180.16889000000049
  0
ARC
  5
18D1A
  8
AM_0
 10
161.27026538735319
 20
313.961121516471
 30
0.0
 40
1.9933081999999991
 50
89.807323000004203
 51
180.19266999999849
  0
ARC
  5
18D1B
  8
AM_0
 10
161.27343538735309
 20
317.34797151647098
 30
0.0
 40
1.996488899999999
 50
89.899148000001659
 51
180.1008499999989
  0
LINE
  5
18D1C
  8
AM_0
 10
285.2769753873531
 20
191.59443151647099
 30
0.0
 11
285.2769753873531
 21
316.59443151647099
 31
0.0
  0
LINE
  5
18D1D
  8
AM_0
 10
264.25695538735317
 20
220.73444151647109
 30
0.0
 11
282.0969853873529
 21
220.73444151647109
 31
0.0
  0
LINE
  5
18D1E
  8
AM_0
 10
264.27697538735327
 20
227.61445151647089
 30
0.0
 11
282.311215387353
 21
227.61445151647089
 31
0.0
  0
LINE
  5
18D1F
  8
AM_0
 10
278.61700538735317
 20
220.09443151647099
 30
0.0
 11
264.27697538735327
 21
220.09443151647099
 31
0.0
  0
LINE
  5
18D20
  8
AM_0
 10
278.60980538735322
 20
228.09443151647099
 30
0.0
 11
264.27697538735327
 21
228.09443151647099
 31
0.0
  0
LINE
  5
18D21
  8
AM_0
 10
265.79058538735308
 20
184.09443151647091
 30
0.0
 11
277.29315538735318
 21
184.09443151647091
 31
0.0
  0
LINE
  5
18D22
  8
AM_0
 10
278.61700538735317
 20
218.09443151647099
 30
0.0
 11
234.2769753873531
 21
218.09443151647099
 31
0.0
  0
LINE
  5
18D23
  8
AM_0
 10
234.2769753873531
 20
217.374461516471
 30
0.0
 11
282.0969853873529
 21
217.374461516471
 31
0.0
  0
LINE
  5
18D24
  8
AM_0
 10
179.2769753873533
 20
207.74445151647089
 30
0.0
 11
285.2769753873531
 21
207.74445151647089
 31
0.0
  0
ARC
  5
18D25
  8
AM_0
 10
265.79058538735308
 20
182.59443151647091
 30
0.0
 40
1.5
 50
90.00000299999769
 51
178.4999999999973
  0
LINE
  5
18D26
  8
AM_0
 10
264.21153739748712
 20
179.59443151647119
 30
0.0
 11
264.54254538735319
 21
192.23450151647091
 31
0.0
  0
LINE
  5
18D27
  8
AM_0
 10
204.34250888927349
 20
179.59443151647119
 30
0.0
 11
204.0114753873531
 21
192.23441151647091
 31
0.0
  0
LINE
  5
18D28
  8
AM_0
 10
267.77697538735327
 20
179.5944315164713
 30
0.0
 11
200.7769753873533
 21
179.5944315164713
 31
0.0
  0
LINE
  5
18D29
  8
AM_0
 10
225.198495076027
 20
172.0944315164711
 30
0.0
 11
223.698495076027
 21
172.0944315164711
 31
0.0
  0
LINE
  5
18D2A
  8
AM_0
 10
225.198495076027
 20
168.09443151647059
 30
0.0
 11
223.698495076027
 21
168.09443151647119
 31
0.0
  0
LINE
  5
18D2B
  8
AM_0
 10
263.4018491215063
 20
143.0944315164711
 30
0.0
 11
187.92754425834659
 21
143.0944315164715
 31
0.0
  0
LINE
  5
18D2C
  8
AM_0
 10
187.60184912150521
 20
147.0944315164715
 30
0.0
 11
263.90184912150579
 21
160.09443151647071
 31
0.0
  0
LINE
  5
18D2D
  8
AM_0
 10
187.60184912150521
 20
147.0944315164715
 30
0.0
 11
263.90184912150579
 21
160.09443151647071
 31
0.0
  0
LINE
  5
18D2E
  8
AM_0
 10
264.22754425834739
 20
156.09443151647091
 30
0.0
 11
187.92754425834659
 21
143.0944315164715
 31
0.0
  0
LINE
  5
18D2F
  8
AM_0
 10
190.80184912150571
 20
177.0944315164715
 30
0.0
 11
271.27697538735288
 21
177.0944315164711
 31
0.0
  0
LINE
  5
18D30
  8
ﾁｭｳｼﾝｾﾝ1
 10
200.10184912150581
 20
172.09443151647139
 30
0.0
 11
200.10184912150581
 21
148.09443151647139
 31
0.0
  0
LINE
  5
18D31
  8
AM_0
 10
185.00184912150539
 20
176.09443151647139
 30
0.0
 11
185.00184912150559
 21
148.0944315164715
 31
0.0
  0
LINE
  5
18D32
  8
AM_0
 10
183.00184912150641
 20
152.0944315164715
 30
0.0
 11
183.0018491215065
 21
144.5944315164715
 31
0.0
  0
ARC
  5
18D33
  8
AM_0
 10
200.10184912150581
 20
160.09443151647139
 30
0.0
 40
9.2999999999997076
 50
180.0
 51
0.0
  0
LINE
  5
18D34
  8
AM_0
 10
187.52042533729491
 20
148.0944315164715
 30
0.0
 11
219.49849507602701
 21
153.54285755321459
 31
0.0
  0
ARC
  5
18D35
  8
AM_0
 10
185.0018491215059
 20
144.5944315164715
 30
0.0
 40
1.499999999999998
 50
180.0
 51
270.0
  0
ARC
  5
18D36
  8
AM_0
 10
184.50184912150641
 20
144.5944315164715
 30
0.0
 40
1.5000000000001099
 50
180.0
 51
269.99999999999352
  0
LINE
  5
18D37
  8
AM_0
 10
183.5018491215053
 20
147.0944315164715
 30
0.0
 11
187.60184912150521
 21
147.0944315164715
 31
0.0
  0
LINE
  5
18D38
  8
AM_0
 10
187.52042533729491
 20
148.0944315164715
 30
0.0
 11
183.5018491215053
 21
148.0944315164715
 31
0.0
  0
LINE
  5
18D39
  8
AM_0
 10
183.801849121506
 20
147.0944315164715
 30
0.0
 11
187.60184912150521
 21
147.0944315164715
 31
0.0
  0
LINE
  5
18D3A
  8
AM_0
 10
184.50184912150641
 20
143.0944315164715
 30
0.0
 11
184.80033501766329
 21
143.0944315164715
 31
0.0
  0
LINE
  5
18D3B
  8
AM_0
 10
185.0018491215059
 20
143.0944315164715
 30
0.0
 11
187.92754425834659
 21
143.0944315164715
 31
0.0
  0
LINE
  5
18D3C
  8
AM_0
 10
183.5018491215053
 20
148.0944315164715
 30
0.0
 11
183.5018491215053
 21
144.5944315164715
 31
0.0
  0
LINE
  5
18D3D
  8
ﾁｭｳｼﾝｾﾝ1
 10
188.10184912150589
 20
160.09443151647139
 30
0.0
 11
212.10184912150589
 21
160.09443151647139
 31
0.0
  0
CIRCLE
  5
18D3E
  8
AM_0
 10
200.10184912150581
 20
160.09443151647139
 30
0.0
 40
6.2999999999996117
  0
LINE
  5
18D3F
  8
AM_0
 10
190.80184912150571
 20
177.0944315164715
 30
0.0
 11
190.80184912150531
 21
160.09443151647139
 31
0.0
  0
LINE
  5
18D40
  8
AM_0
 10
185.0018491215055
 20
152.0944315164715
 30
0.0
 11
183.801849121506
 21
152.0944315164715
 31
0.0
  0
LINE
  5
18D41
  8
AM_0
 10
183.801849121506
 20
152.0944315164715
 30
0.0
 11
183.00184912150641
 21
152.0944315164715
 31
0.0
  0
LINE
  5
18D42
  8
AM_0
 10
186.0018491215053
 20
177.0944315164715
 30
0.0
 11
190.80184912150571
 21
177.0944315164715
 31
0.0
  0
ARC
  5
18D43
  8
AM_0
 10
186.0018491215053
 20
176.09443151647139
 30
0.0
 40
1.0
 50
90.0
 51
180.0
  0
LINE
  5
18D44
  8
AM_0
 10
221.49849507602721
 20
153.88361771048869
 30
0.0
 11
221.49849507602721
 21
172.0944315164715
 31
0.0
  0
LINE
  5
18D45
  8
AM_0
 10
219.49849507602701
 20
172.0944315164711
 30
0.0
 11
219.49849507602701
 21
153.54285755321459
 31
0.0
  0
LINE
  5
18D46
  8
AM_0
 10
223.698495076027
 20
172.0944315164711
 30
0.0
 11
223.698495076027
 21
154.25845388349029
 31
0.0
  0
LINE
  5
18D47
  8
AM_0
 10
209.40184912150551
 20
177.0944315164711
 30
0.0
 11
209.40184912150551
 21
160.0944315164711
 31
0.0
  0
LINE
  5
18D48
  8
AM_0
 10
221.49849507602721
 20
153.88361771048869
 30
0.0
 11
223.698495076027
 21
154.25845388349029
 31
0.0
  0
LINE
  5
18D49
  8
AM_0
 10
200.7769753873533
 20
179.5944315164713
 30
0.0
 11
200.7769753873533
 21
177.0944315164711
 31
0.0
  0
LINE
  5
18D4A
  8
AM_0
 10
221.49849507602721
 20
172.0944315164715
 30
0.0
 11
219.49849507602701
 21
172.0944315164711
 31
0.0
  0
LINE
  5
18D4B
  8
AM_0
 10
221.49849507602721
 20
168.09443151647119
 30
0.0
 11
219.49849507602701
 21
168.09443151647119
 31
0.0
  0
LINE
  5
18D4C
  8
AM_0
 10
265.90184912150647
 20
155.5944315164711
 30
0.0
 11
265.90184912150647
 21
145.5944315164711
 31
0.0
  0
LINE
  5
18D4D
  8
AM_0
 10
255.6320006405231
 20
143.0944315164711
 30
0.0
 11
255.6320006405231
 21
154.62992211893919
 31
0.0
  0
ARC
  5
18D4E
  8
AM_0
 10
263.4018491215063
 20
145.5944315164711
 30
0.0
 40
2.5
 50
270.0
 51
0.0
  0
LINE
  5
18D4F
  8
AM_0
 10
247.41526530341389
 20
158.2993190598462
 30
0.0
 11
257.27697538735259
 21
159.97955799944279
 31
0.0
  0
LINE
  5
18D50
  8
AM_0
 10
242.21191125793641
 20
172.0944315164711
 30
0.0
 11
242.21191125793621
 21
157.4127711884021
 31
0.0
  0
LINE
  5
18D51
  8
AM_0
 10
243.71191125793641
 20
157.66834130635741
 30
0.0
 11
243.71191125793641
 21
172.0944315164711
 31
0.0
  0
LINE
  5
18D52
  8
AM_0
 10
245.91526530341389
 20
172.0944315164711
 30
0.0
 11
245.91526530341389
 21
158.04374894189081
 31
0.0
  0
LINE
  5
18D53
  8
AM_0
 10
247.41526530341389
 20
158.2993190598462
 30
0.0
 11
247.41526530341389
 21
172.0944315164711
 31
0.0
  0
LINE
  5
18D54
  8
AM_0
 10
231.1018491215045
 20
172.0944315164711
 30
0.0
 11
231.1018491215045
 21
155.5198379279351
 31
0.0
  0
LINE
  5
18D55
  8
AM_0
 10
233.10184912150771
 20
155.8605980852096
 30
0.0
 11
233.10184912150791
 21
172.09443151647389
 31
0.0
  0
LINE
  5
18D56
  8
AM_0
 10
234.80520316698201
 20
172.0944315164711
 30
0.0
 11
234.8052031669817
 21
156.15081568142429
 31
0.0
  0
LINE
  5
18D57
  8
AM_0
 10
236.30520316698181
 20
156.40638579937939
 30
0.0
 11
236.30520316698201
 21
172.0944315164711
 31
0.0
  0
LINE
  5
18D58
  8
AM_0
 10
238.50855721245941
 20
172.0944315164711
 30
0.0
 11
238.50855721245921
 21
156.78179343491291
 31
0.0
  0
LINE
  5
18D59
  8
AM_0
 10
240.00855721245921
 20
157.0373635528685
 30
0.0
 11
240.00855721245921
 21
172.0944315164711
 31
0.0
  0
LINE
  5
18D5A
  8
AM_0
 10
225.198495076027
 20
154.51402400144539
 30
0.0
 11
225.198495076027
 21
172.0944315164711
 31
0.0
  0
LINE
  5
18D5B
  8
AM_0
 10
227.3984950760271
 20
172.0944315164711
 30
0.0
 11
227.3984950760271
 21
154.88886017444639
 31
0.0
  0
LINE
  5
18D5C
  8
AM_0
 10
228.8984950760271
 20
155.14443029240181
 30
0.0
 11
228.8984950760271
 21
172.0944315164711
 31
0.0
  0
LINE
  5
18D5D
  8
AM_0
 10
236.30520316698181
 20
156.40638579937939
 30
0.0
 11
238.50855721245921
 21
156.78179343491291
 31
0.0
  0
LINE
  5
18D5E
  8
AM_0
 10
228.8984950760271
 20
155.14443029240181
 30
0.0
 11
231.1018491215045
 21
155.5198379279351
 31
0.0
  0
LINE
  5
18D5F
  8
AM_0
 10
225.198495076027
 20
154.51402400144539
 30
0.0
 11
227.3984950760271
 21
154.88886017444639
 31
0.0
  0
LINE
  5
18D60
  8
AM_0
 10
233.10184912150771
 20
155.8605980852096
 30
0.0
 11
234.8052031669817
 21
156.15081568142429
 31
0.0
  0
LINE
  5
18D61
  8
AM_0
 10
240.00855721245921
 20
157.0373635528685
 30
0.0
 11
242.21191125793621
 21
157.4127711884021
 31
0.0
  0
LINE
  5
18D62
  8
AM_0
 10
243.71191125793641
 20
157.66834130635741
 30
0.0
 11
245.91526530341389
 21
158.04374894189081
 31
0.0
  0
LINE
  5
18D63
  8
AM_0
 10
228.8984950760271
 20
172.0944315164711
 30
0.0
 11
227.3984950760271
 21
172.0944315164711
 31
0.0
  0
LINE
  5
18D64
  8
AM_0
 10
228.8984950760271
 20
168.09443151647059
 30
0.0
 11
227.3984950760271
 21
168.09443151647059
 31
0.0
  0
LINE
  5
18D65
  8
AM_0
 10
233.10184912150791
 20
172.0944315164711
 30
0.0
 11
231.1018491215045
 21
172.0944315164711
 31
0.0
  0
LINE
  5
18D66
  8
AM_0
 10
233.10184912150791
 20
168.09443151647059
 30
0.0
 11
231.1018491215045
 21
168.09443151647059
 31
0.0
  0
LINE
  5
18D67
  8
AM_0
 10
236.30520316698201
 20
172.0944315164711
 30
0.0
 11
234.80520316698201
 21
172.0944315164711
 31
0.0
  0
LINE
  5
18D68
  8
AM_0
 10
236.30520316698221
 20
168.09443151647059
 30
0.0
 11
234.80520316698201
 21
168.09443151647059
 31
0.0
  0
LINE
  5
18D69
  8
AM_0
 10
243.71191125793641
 20
172.0944315164711
 30
0.0
 11
242.21191125793641
 21
172.0944315164711
 31
0.0
  0
LINE
  5
18D6A
  8
AM_0
 10
243.71191125793641
 20
168.09443151647059
 30
0.0
 11
242.21191125793641
 21
168.09443151647059
 31
0.0
  0
LINE
  5
18D6B
  8
AM_0
 10
240.00855721245921
 20
172.0944315164711
 30
0.0
 11
238.50855721245941
 21
172.0944315164711
 31
0.0
  0
LINE
  5
18D6C
  8
AM_0
 10
240.00855721245921
 20
168.09443151647059
 30
0.0
 11
238.50855721245941
 21
168.09443151647059
 31
0.0
  0
LINE
  5
18D6D
  8
AM_0
 10
247.41526530341389
 20
172.0944315164711
 30
0.0
 11
245.91526530341389
 21
172.0944315164711
 31
0.0
  0
LINE
  5
18D6E
  8
AM_0
 10
247.41526530341389
 20
168.09443151647059
 30
0.0
 11
245.91526530341389
 21
168.09443151647059
 31
0.0
  0
LINE
  5
18D6F
  8
AM_0
 10
272.27697538735271
 20
160.0944315164711
 30
0.0
 11
272.27697538735271
 21
176.09443151647091
 31
0.0
  0
LINE
  5
18D70
  8
AM_0
 10
257.27697538735259
 20
159.97955799944279
 30
0.0
 11
257.27697538735259
 21
177.0944315164711
 31
0.0
  0
LINE
  5
18D71
  8
AM_0
 10
256.50184912150672
 20
154.78022628917361
 30
0.0
 11
256.50184912150638
 21
158.83361893455731
 31
0.0
  0
LINE
  5
18D72
  8
AM_0
 10
272.27697538735271
 20
160.0944315164711
 30
0.0
 11
272.27697538735271
 21
156.59443151647099
 31
0.0
  0
LINE
  5
18D73
  8
AM_0
 10
266.4018491215063
 20
156.09443151647091
 30
0.0
 11
271.77697538735288
 21
156.09443151647091
 31
0.0
  0
ARC
  5
18D74
  8
AM_0
 10
266.4018491215063
 20
155.5944315164711
 30
0.0
 40
0.5
 50
90.0
 51
180.0
  0
LINE
  5
18D75
  8
AM_0
 10
266.4018491215063
 20
156.09443151647091
 30
0.0
 11
264.22754425834739
 21
156.09443151647091
 31
0.0
  0
ARC
  5
18D76
  8
AM_0
 10
271.77697538735288
 20
156.59443151647099
 30
0.0
 40
0.5
 50
270.0
 51
0.0
  0
LINE
  5
18D77
  8
AM_0
 10
272.27697538735271
 20
160.0944315164711
 30
0.0
 11
263.90184912150579
 21
160.09443151647071
 31
0.0
  0
ARC
  5
18D78
  8
AM_0
 10
271.27697538735288
 20
176.09443151647091
 30
0.0
 40
1.0
 50
0.0
 51
90.0
  0
LINE
  5
18D79
  8
AM_0
 10
267.77697538735327
 20
179.5944315164713
 30
0.0
 11
267.77697538735327
 21
177.0944315164711
 31
0.0
  0
ARC
  5
18D7A
  8
AM_0
 10
202.6033953873532
 20
188.7044115164708
 30
0.0
 40
1.5
 50
1.5000027000022329
 51
90.00000299999769
  0
ARC
  5
18D7B
  8
AM_0
 10
213.71569538735321
 20
239.09443151647099
 30
0.0
 40
1.000005699999998
 50
269.999989999999
 51
90.00000299999769
  0
ARC
  5
18D7C
  8
AM_0
 10
214.94195538735309
 20
239.084421516471
 30
0.0
 40
1.3300148000000001
 50
269.7294199999987
 51
90.270567000000995
  0
LINE
  5
18D7D
  8
AM_0
 10
247.29699538735329
 20
226.59443151647099
 30
0.0
 11
247.29699538735329
 21
221.73444151647109
 31
0.0
  0
LINE
  5
18D7E
  8
AM_0
 10
247.7769753873531
 20
226.59443151647099
 30
0.0
 11
247.7769753873531
 21
221.59443151647099
 31
0.0
  0
ARC
  5
18D7F
  8
AM_0
 10
246.29699538735329
 20
221.73444151647109
 30
0.0
 40
1.0
 50
269.999989999999
 51
0.0000006832495047
  0
ARC
  5
18D80
  8
AM_0
 10
246.2769753873531
 20
221.59443151647099
 30
0.0
 40
1.5
 50
269.999989999999
 51
0.0000006832495047
  0
ARC
  5
18D81
  8
AM_0
 10
246.2769753873531
 20
226.59443151647099
 30
0.0
 40
1.02
 50
0.0
 51
90.00000299999769
  0
ARC
  5
18D82
  8
AM_0
 10
246.2769753873531
 20
226.59443151647099
 30
0.0
 40
1.5
 50
0.0
 51
90.00000299999769
  0
CIRCLE
  5
18D83
  8
AM_0
 10
252.7769753873531
 20
225.59443151647099
 30
0.0
 40
1.149999999999999
  0
CIRCLE
  5
18D84
  8
AM_0
 10
252.7769753873531
 20
225.59443151647099
 30
0.0
 40
1.1000000000000001
  0
CIRCLE
  5
18D85
  8
AM_0
 10
257.7769753873531
 20
225.59443151647099
 30
0.0
 40
1.0
  0
LINE
  5
18D86
  8
AM_0
 10
263.25695538735317
 20
226.59443151647099
 30
0.0
 11
263.25695538735317
 21
221.73444151647109
 31
0.0
  0
LINE
  5
18D87
  8
AM_0
 10
262.7769753873531
 20
226.59443151647099
 30
0.0
 11
262.7769753873531
 21
221.59443151647099
 31
0.0
  0
ARC
  5
18D88
  8
AM_0
 10
264.25695538735317
 20
221.73444151647109
 30
0.0
 40
1.0
 50
179.999989999999
 51
270.0
  0
ARC
  5
18D89
  8
AM_0
 10
264.27697538735327
 20
221.59443151647099
 30
0.0
 40
1.5
 50
179.999989999999
 51
270.0
  0
ARC
  5
18D8A
  8
AM_0
 10
264.27697538735327
 20
226.59443151647099
 30
0.0
 40
1.02
 50
90.00000299999769
 51
180.00001000000091
  0
ARC
  5
18D8B
  8
AM_0
 10
264.27697538735327
 20
226.59443151647099
 30
0.0
 40
1.5
 50
90.00000299999769
 51
180.00001000000091
  0
LINE
  5
18D8C
  8
AM_0
 10
280.01696538735308
 20
193.72449151647089
 30
0.0
 11
283.4769553873532
 21
206.63446151647099
 31
0.0
  0
ARC
  5
18D8D
  8
AM_0
 10
286.27001538735323
 20
191.5874715164708
 30
0.0
 40
0.99304521
 50
179.5973099999994
 51
270.40268000000009
  0
LINE
  5
18D8E
  8
AM_0
 10
279.98699538735309
 20
193.59443151647099
 30
0.0
 11
285.2769753873531
 21
193.59443151647099
 31
0.0
  0
LINE
  5
18D8F
  8
AM_0
 10
284.27697538735322
 20
193.59449151647109
 30
0.0
 11
278.5511753873534
 21
184.77756151647091
 31
0.0
  0
ARC
  5
18D90
  8
AM_0
 10
277.29315538735318
 20
185.59443151647099
 30
0.0
 40
1.5
 50
269.999989999999
 51
326.99999999999892
  0
ARC
  5
18D91
  8
AM_0
 10
278.07824538735309
 20
194.240671516471
 30
0.0
 40
2.0062942999999991
 50
270.24932999999891
 51
345.08843999999777
  0
LINE
  5
18D92
  8
AM_0
 10
286.27697538735322
 20
190.59443151647091
 30
0.0
 11
293.27697538735327
 21
190.59443151647091
 31
0.0
  0
ARC
  5
18D93
  8
AM_0
 10
286.26934538735298
 20
203.046821516471
 30
0.0
 40
0.99237448
 50
179.55801999999801
 51
270.4419699999965
  0
ARC
  5
18D94
  8
AM_0
 10
284.92065538735318
 20
206.25068151647099
 30
0.0
 40
1.4937901
 50
89.756423999995206
 51
165.1129200000008
  0
LINE
  5
18D95
  8
AM_0
 10
286.27697538735322
 20
202.05439151647099
 30
0.0
 11
293.27697538735327
 21
202.05439151647099
 31
0.0
  0
ARC
  5
18D96
  8
AM_0
 10
278.61700538735317
 20
219.09443151647099
 30
0.0
 40
1.0000040999999991
 50
269.999989999999
 51
90.00000299999769
  0
ARC
  5
18D97
  8
AM_0
 10
282.0969853873529
 20
219.05439151647099
 30
0.0
 40
1.6800077
 50
269.999989999999
 51
90.00000299999769
  0
ARC
  5
18D98
  8
AM_0
 10
278.6169453873531
 20
229.09443151647099
 30
0.0
 40
1.000025599999997
 50
269.5894700000033
 51
90.410530999997775
  0
ARC
  5
18D99
  8
AM_0
 10
282.31695538735312
 20
229.06440151647101
 30
0.0
 40
1.460011199999999
 50
269.77524999999667
 51
90.224750000003354
  0
LINE
  5
18D9A
  8
AM_0
 10
285.2769753873531
 20
216.944401516471
 30
0.0
 11
293.27697538735327
 21
216.944401516471
 31
0.0
  0
LINE
  5
18D9B
  8
AM_0
 10
264.27697538735327
 20
280.58442151647108
 30
0.0
 11
282.32269538735318
 21
280.58442151647108
 31
0.0
  0
LINE
  5
18D9C
  8
AM_0
 10
264.25695538735317
 20
287.46442151647102
 30
0.0
 11
282.0969853873529
 21
287.46442151647102
 31
0.0
  0
LINE
  5
18D9D
  8
AM_0
 10
278.62414538735328
 20
280.09443151647099
 30
0.0
 11
264.27697538735327
 21
280.09443151647099
 31
0.0
  0
LINE
  5
18D9E
  8
AM_0
 10
278.61700538735317
 20
288.09443151647099
 30
0.0
 11
264.27697538735327
 21
288.09443151647099
 31
0.0
  0
LINE
  5
18D9F
  8
AM_0
 10
179.2769753873533
 20
300.44440151647098
 30
0.0
 11
285.2769753873531
 21
300.44440151647098
 31
0.0
  0
ARC
  5
18DA0
  8
AM_0
 10
213.71569538735321
 20
249.09443151647099
 30
0.0
 40
1.000005699999998
 50
269.999989999999
 51
90.00000299999769
  0
ARC
  5
18DA1
  8
AM_0
 10
215.00390538735309
 20
249.09443151647099
 30
0.0
 40
1.2700266
 50
269.62932000000001
 51
90.370670000004694
  0
ARC
  5
18DA2
  8
AM_0
 10
213.71569538735321
 20
259.09443151647099
 30
0.0
 40
1.000005699999998
 50
269.999989999999
 51
90.00000299999769
  0
ARC
  5
18DA3
  8
AM_0
 10
215.00390538735309
 20
259.1044415164709
 30
0.0
 40
1.2700266
 50
269.62932000000001
 51
90.370670000004694
  0
ARC
  5
18DA4
  8
AM_0
 10
213.71569538735321
 20
269.09443151647099
 30
0.0
 40
1.000005699999998
 50
269.999989999999
 51
90.00000299999769
  0
ARC
  5
18DA5
  8
AM_0
 10
214.94195538735309
 20
269.10944151647112
 30
0.0
 40
1.3350147999999991
 50
269.7304299999999
 51
90.269556000001415
  0
ARC
  5
18DA6
  8
AM_0
 10
246.29699538735329
 20
286.45441151647111
 30
0.0
 40
1.0
 50
0.0
 51
90.00000299999769
  0
ARC
  5
18DA7
  8
AM_0
 10
246.2769753873531
 20
286.59443151647099
 30
0.0
 40
1.5
 50
0.0
 51
90.00000299999769
  0
LINE
  5
18DA8
  8
AM_0
 10
247.7769753873531
 20
281.59443151647099
 30
0.0
 11
247.7769753873531
 21
286.59443151647099
 31
0.0
  0
LINE
  5
18DA9
  8
AM_0
 10
247.29699538735329
 20
281.59443151647099
 30
0.0
 11
247.29699538735329
 21
286.45441151647111
 31
0.0
  0
ARC
  5
18DAA
  8
AM_0
 10
246.2769753873531
 20
281.59443151647099
 30
0.0
 40
1.02
 50
269.999989999999
 51
0.0000006832429909
  0
ARC
  5
18DAB
  8
AM_0
 10
246.2769753873531
 20
281.59443151647099
 30
0.0
 40
1.5
 50
269.999989999999
 51
0.0000006832495047
  0
CIRCLE
  5
18DAC
  8
AM_0
 10
252.7769753873531
 20
282.59443151647099
 30
0.0
 40
1.1000000000000001
  0
CIRCLE
  5
18DAD
  8
AM_0
 10
252.7769753873531
 20
282.59443151647099
 30
0.0
 40
1.149999999999999
  0
CIRCLE
  5
18DAE
  8
AM_0
 10
257.7769753873531
 20
282.59443151647099
 30
0.0
 40
1.0
  0
ARC
  5
18DAF
  8
AM_0
 10
264.25695538735317
 20
286.45441151647111
 30
0.0
 40
1.0
 50
90.00000299999769
 51
180.00001000000091
  0
ARC
  5
18DB0
  8
AM_0
 10
264.27697538735327
 20
286.59443151647099
 30
0.0
 40
1.5
 50
90.00000299999769
 51
180.00001000000091
  0
LINE
  5
18DB1
  8
AM_0
 10
263.25695538735317
 20
281.59443151647099
 30
0.0
 11
263.25695538735317
 21
286.45441151647111
 31
0.0
  0
ARC
  5
18DB2
  8
AM_0
 10
264.27697538735327
 20
281.59443151647099
 30
0.0
 40
1.02
 50
179.999989999999
 51
270.0
  0
LINE
  5
18DB3
  8
AM_0
 10
262.7769753873531
 20
281.59443151647099
 30
0.0
 11
262.7769753873531
 21
286.59443151647099
 31
0.0
  0
ARC
  5
18DB4
  8
AM_0
 10
264.27697538735327
 20
281.59443151647099
 30
0.0
 40
1.5
 50
179.999989999999
 51
270.0
  0
LINE
  5
18DB5
  8
AM_0
 10
280.82717538735318
 20
318.82962151647081
 30
0.0
 11
283.51702538735299
 21
306.31440151647098
 31
0.0
  0
LINE
  5
18DB6
  8
AM_0
 10
280.01699538735312
 20
314.4743715164708
 30
0.0
 11
283.47698538735312
 21
301.55442151647122
 31
0.0
  0
ARC
  5
18DB7
  8
AM_0
 10
278.6169453873531
 20
279.09443151647099
 30
0.0
 40
1.000025599999997
 50
269.5894700000033
 51
90.410530999997775
  0
ARC
  5
18DB8
  8
AM_0
 10
282.31695538735312
 20
279.12446151647111
 30
0.0
 40
1.460011199999999
 50
269.77524999999667
 51
90.224750000003354
  0
ARC
  5
18DB9
  8
AM_0
 10
282.0969853873529
 20
289.14447151647113
 30
0.0
 40
1.6800077
 50
269.999989999999
 51
90.00000299999769
  0
ARC
  5
18DBA
  8
AM_0
 10
278.61700538735317
 20
289.09443151647099
 30
0.0
 40
1.0000040999999991
 50
269.999989999999
 51
90.00000299999769
  0
LINE
  5
18DBB
  8
AM_0
 10
285.2769753873531
 20
291.2444515164708
 30
0.0
 11
293.27697538735327
 21
291.2444515164708
 31
0.0
  0
ARC
  5
18DBC
  8
AM_0
 10
286.27606538735313
 20
305.13532151647098
 30
0.0
 40
0.9990923399999999
 50
89.947921999999295
 51
180.05208000000431
  0
ARC
  5
18DBD
  8
AM_0
 10
284.92712538735299
 20
301.94672151647097
 30
0.0
 40
1.5022733999999991
 50
195.1365099999957
 51
269.99411999999722
  0
ARC
  5
18DBE
  8
AM_0
 10
284.98266538735328
 20
306.6347115164711
 30
0.0
 40
1.500286
 50
192.32630999999469
 51
270.16416999999529
  0
LINE
  5
18DBF
  8
AM_0
 10
284.98699538735332
 20
305.13446151647099
 30
0.0
 11
282.56701538735319
 21
305.13446151647099
 31
0.0
  0
LINE
  5
18DC0
  8
AM_0
 10
286.27697538735322
 20
306.13446151647099
 30
0.0
 11
293.27697538735327
 21
306.13446151647099
 31
0.0
  0
ARC
  5
18DC1
  8
AM_0
 10
286.27679538735327
 20
316.59467151647101
 30
0.0
 40
0.99980682
 50
89.988930999997422
 51
180.0110699999974
  0
LINE
  5
18DC2
  8
AM_0
 10
281.7374253873532
 20
314.59443151647088
 30
0.0
 11
285.2769753873531
 21
314.59443151647088
 31
0.0
  0
ARC
  5
18DC3
  8
AM_0
 10
279.36065538735312
 20
318.51447151647079
 30
0.0
 40
1.5
 50
12.1297920000024
 51
90.00000299999769
  0
ARC
  5
18DC4
  8
AM_0
 10
278.0864253873533
 20
313.95527151647099
 30
0.0
 40
1.9991226
 50
15.05079100000003
 51
89.984388999999666
  0
ARC
  5
18DC5
  8
AM_0
 10
279.79693538735319
 20
316.48444151647101
 30
0.0
 40
1.5
 50
12.1297920000024
 51
90.00000299999769
  0
ARC
  5
18DC6
  8
AM_0
 10
279.50463538735312
 20
317.8444315164711
 30
0.0
 40
1.5
 50
12.1297920000024
 51
90.00000299999769
  0
LINE
  5
18DC7
  8
AM_0
 10
286.27697538735322
 20
317.59443151647088
 30
0.0
 11
293.27697538735327
 21
317.59443151647088
 31
0.0
  0
LINE
  5
18DC8
  8
AM_0
 10
90.382607060494877
 20
577.07311997996464
 30
0.0
 11
90.382607060494877
 21
496.09895433404017
 31
0.0
  0
LINE
  5
18DC9
  8
AM_0
 10
87.882647060495003
 20
509.8489443340402
 30
0.0
 11
87.882647060495003
 21
498.09893433404022
 31
0.0
  0
LINE
  5
18DCA
  8
AM_0
 10
132.882647060495
 20
545.0989473340403
 30
0.0
 11
132.882647060495
 21
496.09895433404017
 31
0.0
  0
LINE
  5
18DCB
  8
AM_0
 10
96.962597060495085
 20
556.81894833404021
 30
0.0
 11
82.502597060495034
 21
601.3289433340401
 31
0.0
  0
LINE
  5
18DCC
  8
AM_0
 10
101.72260706049499
 20
558.36893733404031
 30
0.0
 11
87.262607060494972
 21
602.86893933404008
 31
0.0
  0
LINE
  5
18DCD
  8
AM_0
 10
90.382607060494877
 20
610.09893333404
 30
0.0
 11
90.382607060494877
 21
593.26727915146853
 31
0.0
  0
LINE
  5
18DCE
  8
AM_0
 10
132.882647060495
 20
596.98893333404021
 30
0.0
 11
132.882647060495
 21
610.09893333404
 31
0.0
  0
LINE
  5
18DCF
  8
AM_0
 10
89.882597060494902
 20
610.09893333404
 30
0.0
 11
137.8825970604949
 21
610.09893333404
 31
0.0
  0
ARC
  5
18DD0
  8
AM_0
 10
84.882647060495003
 20
602.09894733403996
 30
0.0
 40
2.5014680099999991
 50
17.92793000000216
 51
197.92792000000091
  0
ARC
  5
18DD1
  8
AM_0
 10
84.881747060495002
 20
602.10436533404015
 30
0.0
 40
3.0008441999999982
 50
359.89645599999858
 51
174.94180999999989
  0
LINE
  5
18DD2
  8
AM_0
 10
81.382607060494877
 20
601.59893433404022
 30
0.0
 11
81.592607060494913
 21
601.59893433404022
 31
0.0
  0
LINE
  5
18DD3
  8
AM_0
 10
81.382607060494877
 20
601.59893433404022
 30
0.0
 11
81.382607060494877
 21
602.09894733403996
 31
0.0
  0
ARC
  5
18DD4
  8
AM_0
 10
81.590237060494985
 20
602.40327033404014
 30
0.0
 40
0.304344
 50
270.4521829999976
 51
353.52224090000072
  0
ARC
  5
18DD5
  8
AM_0
 10
81.591017060494806
 20
602.40401733404008
 30
0.0
 40
0.8050760400000001
 50
270.11153400000148
 51
354.64936809999898
  0
ARC
  5
18DD6
  8
AM_0
 10
89.877347060494969
 20
608.10422733404016
 30
0.0
 40
1.9947200399999989
 50
89.848120000002893
 51
180.15187
  0
LINE
  5
18DD7
  8
AM_0
 10
87.882647060495003
 20
600.95893533404046
 30
0.0
 11
87.882647060495003
 21
608.09895033404041
 31
0.0
  0
LINE
  5
18DD8
  8
AM_0
 10
90.382607060494877
 20
596.98893333404021
 30
0.0
 11
137.8825970604949
 21
596.98893333404021
 31
0.0
  0
LINE
  5
18DD9
  8
AM_0
 10
90.382607060494877
 20
509.2089543340403
 30
0.0
 11
137.8825970604949
 21
509.2089543340403
 31
0.0
  0
LINE
  5
18DDA
  8
AM_0
 10
120.882647060495
 20
561.09894633404008
 30
0.0
 11
137.8825970604949
 21
561.09894633404008
 31
0.0
  0
LINE
  5
18DDB
  8
AM_0
 10
120.882647060495
 20
545.0989473340403
 30
0.0
 11
137.8825970604949
 21
545.0989473340403
 31
0.0
  0
LINE
  5
18DDC
  8
AM_0
 10
87.882647060495003
 20
584.77892433403997
 30
0.0
 11
87.882647060495003
 21
518.56894833404021
 31
0.0
  0
ARC
  5
18DDD
  8
AM_0
 10
105.5250470604949
 20
559.60245633404008
 30
0.0
 40
9.0035201999999952
 50
198.00854999999899
 51
269.98447199999538
  0
LINE
  5
18DDE
  8
ﾁｭｳｼﾝｾﾝ1
 10
120.882647060495
 20
565.90647906635866
 30
0.0
 11
120.882647060495
 21
540.29141760172183
 31
0.0
  0
LINE
  5
18DDF
  8
AM_0
 10
115.3825970604949
 20
555.59894733404008
 30
0.0
 11
115.3825970604949
 21
550.59894633404019
 31
0.0
  0
LINE
  5
18DE0
  8
AM_0
 10
128.8825970604949
 20
555.59894733404008
 30
0.0
 11
128.8825970604949
 21
550.59894633404019
 31
0.0
  0
LINE
  5
18DE1
  8
AM_0
 10
126.38260706049491
 20
555.59894733404008
 30
0.0
 11
126.38260706049491
 21
550.59894633404019
 31
0.0
  0
LINE
  5
18DE2
  8
AM_0
 10
105.52261706049489
 20
555.59894733404008
 30
0.0
 11
115.3825970604949
 21
555.59894733404008
 31
0.0
  0
ARC
  5
18DE3
  8
AM_0
 10
87.930677060494943
 20
590.59882533404004
 30
0.0
 40
4.0504481999999991
 50
135.07940000000309
 51
260.93647999999888
  0
LINE
  5
18DE4
  8
AM_0
 10
90.382607060494877
 20
593.25893733404018
 30
0.0
 11
90.382607060494877
 21
596.98893333404021
 31
0.0
  0
ARC
  5
18DE5
  8
AM_0
 10
105.52918706049491
 20
559.59946533404047
 30
0.0
 40
4.0005161999999981
 50
197.91392999999971
 51
269.90591199999182
  0
LINE
  5
18DE6
  8
AM_0
 10
115.3825970604949
 20
555.09894633404008
 30
0.0
 11
126.38260706049491
 21
555.09894633404008
 31
0.0
  0
ARC
  5
18DE7
  8
AM_0
 10
120.8775770604948
 20
553.10492733404021
 30
0.0
 40
7.9940046000000002
 50
89.964180000002173
 51
161.82115999999709
  0
ARC
  5
18DE8
  8
AM_0
 10
120.882647060495
 20
553.10496033404036
 30
0.0
 40
4.9952319000000003
 50
23.526710000002321
 51
156.4732999999961
  0
LINE
  5
18DE9
  8
AM_0
 10
126.38260706049491
 20
555.59894733404008
 30
0.0
 11
128.8825970604949
 21
555.59894733404008
 31
0.0
  0
LINE
  5
18DEA
  8
AM_0
 10
90.382607060494877
 20
519.45893133404024
 30
0.0
 11
132.882647060495
 21
519.45893133404024
 31
0.0
  0
LINE
  5
18DEB
  8
AM_0
 10
105.52261706049489
 20
550.59894633404019
 30
0.0
 11
115.3825970604949
 21
550.59894633404019
 31
0.0
  0
LINE
  5
18DEC
  8
AM_0
 10
85.782617060494928
 20
515.70893433404046
 30
0.0
 11
85.782617060494928
 21
512.70893433404046
 31
0.0
  0
LINE
  5
18DED
  8
AM_0
 10
89.082617060494897
 20
518.80893633404025
 30
0.0
 11
89.082617060494897
 21
509.60894433404019
 31
0.0
  0
ARC
  5
18DEE
  8
AM_0
 10
88.780367060494939
 20
515.71643433404029
 30
0.0
 40
2.9977641899999981
 50
84.213409999996756
 51
180.14354999999841
  0
LINE
  5
18DEF
  8
AM_0
 10
89.082617060494897
 20
518.80893633404025
 30
0.0
 11
90.382607060494877
 21
518.80893633404025
 31
0.0
  0
ARC
  5
18DF0
  8
AM_0
 10
88.780427060495015
 20
512.71145433404058
 30
0.0
 40
2.99777994
 50
180.04789
 51
275.78611700000209
  0
LINE
  5
18DF1
  8
AM_0
 10
89.082617060494897
 20
509.60894433404019
 30
0.0
 11
90.382607060494877
 21
509.60894433404019
 31
0.0
  0
ARC
  5
18DF2
  8
AM_0
 10
120.8833370604948
 20
553.10083833404019
 30
0.0
 40
8.0019083999999996
 50
198.21983999999711
 51
269.99482700000908
  0
LINE
  5
18DF3
  8
AM_0
 10
115.3825970604949
 20
551.09894733404008
 30
0.0
 11
126.38260706049491
 21
551.09894733404008
 31
0.0
  0
ARC
  5
18DF4
  8
AM_0
 10
120.882647060495
 20
553.10496033404036
 30
0.0
 40
5.0000519999999984
 50
203.65323000000009
 51
336.34676999999988
  0
LINE
  5
18DF5
  8
AM_0
 10
126.38260706049491
 20
550.59894633404019
 30
0.0
 11
128.8825970604949
 21
550.59894633404019
 31
0.0
  0
LINE
  5
18DF6
  8
AM_0
 10
89.882597060494902
 20
496.09895433404017
 30
0.0
 11
137.8825970604949
 21
496.09895433404017
 31
0.0
  0
ARC
  5
18DF7
  8
AM_0
 10
89.883137060494903
 20
498.09950433404049
 30
0.0
 40
2.0005360199999989
 50
180.0153199999981
 51
269.98467100000192
  0
LINE
  5
18DF8
  8
AM_0
 10
735.96399055830409
 20
319.08444200820981
 30
0.0
 11
744.30090835011868
 21
319.08444200820981
 31
0.0
  0
ARC
  5
18DF9
  8
AM_0
 10
729.96493202461863
 20
316.58444200820998
 30
0.0
 40
2.4999999999999969
 50
36.318373132786803
 51
143.66321700904109
  0
LINE
  5
18DFA
  8
AM_0
 10
729.96493202461863
 20
319.08444200820981
 30
0.0
 11
733.96661755652622
 21
319.08444200820981
 31
0.0
  0
LINE
  5
18DFB
  8
AM_0
 10
728.16493202461822
 20
319.08444200820981
 30
0.0
 11
728.16493202461811
 21
318.31937716549919
 31
0.0
  0
LINE
  5
18DFC
  8
AM_0
 10
728.16493202461845
 20
319.08444200821009
 30
0.0
 11
725.96324649271082
 21
319.08444200820981
 31
0.0
  0
LINE
  5
18DFD
  8
AM_0
 10
731.7649320246187
 20
319.08444200820981
 30
0.0
 11
731.76493202461904
 21
318.31937716549919
 31
0.0
  0
ARC
  5
18DFE
  8
AM_0
 10
750.96493202461863
 20
289.09650809269277
 30
0.0
 40
29.999999999999979
 50
75.043338795978215
 51
88.374920016412489
1001
GENIUS_GENOBJ-N-FIL_13
1002
{
1000
OWNER
1000
GEN
1002
}
1001
GENIUS_GENODEF_13
1002
{
1000
HIER
1070
     0
1002
}
1002
{
1000
MANEDIT
1070
     0
1002
}
1002
{
1000
NOSEL
1070
     0
1002
}
1002
{
1000
BEHIND
1070
     0
1002
}
1002
{
1000
OTHER
1070
     0
1002
}
1002
{
1000
REACTOR
1002
}
  0
LINE
  5
18DFF
  8
AM_0
 10
745.62809569911815
 20
319.08444200820981
 30
0.0
 11
751.81570783444442
 21
319.08444200820981
 31
0.0
  0
LINE
  5
18E00
  8
AM_0
 10
699.94802202461858
 20
184.08456151647161
 30
0.0
 11
759.99803202461874
 21
184.08456151647161
 31
0.0
  0
LINE
  5
18E01
  8
1
  6
CONTINUOUS
 62
     7
 10
748.82976693569583
 20
177.09444151646699
 30
0.0
 11
711.02976693569599
 21
177.09444151646699
 31
0.0
  0
LINE
  5
18E02
  8
1
  6
CONTINUOUS
 62
     7
 10
698.52976693569235
 20
143.09444151646721
 30
0.0
 11
761.32976693569219
 21
143.09444151646721
 31
0.0
  0
LINE
  5
18E03
  8
1
  6
CONTINUOUS
 62
     7
 10
765.92976693569426
 20
156.09444151646699
 30
0.0
 11
693.92976693569426
 21
156.09444151646699
 31
0.0
  0
LINE
  5
18E04
  8
0
 10
696.42977456508709
 20
179.6071415164719
 30
0.0
 11
763.42975930629746
 21
179.6071415164719
 31
0.0
  0
LINE
  5
18E05
  8
1
  6
CONTINUOUS
 62
     7
 10
693.92976693569301
 20
160.0944415164671
 30
0.0
 11
724.42976693569301
 21
160.0944415164671
 31
0.0
  0
LINE
  5
18E06
  8
1
  6
CONTINUOUS
 62
     7
 10
693.92976693569426
 20
176.0944415164671
 30
0.0
 11
693.92976693569426
 21
143.5944415164671
 31
0.0
  0
LINE
  5
18E07
  8
1
  6
CONTINUOUS
 62
     7
 10
705.42976693569415
 20
176.0944415164671
 30
0.0
 11
705.42976693569415
 21
160.0944415164671
 31
0.0
  0
LINE
  5
18E08
  8
1
  6
CONTINUOUS
 62
     7
 10
696.02976693569258
 20
154.6294415164673
 30
0.0
 11
696.02976693569258
 21
145.59444151646699
 31
0.0
  0
LINE
  5
18E09
  8
1
  6
CONTINUOUS
 62
     7
 10
706.29961541667535
 20
156.09444151646699
 30
0.0
 11
706.29961541667535
 21
145.59444151646289
 31
0.0
  0
POLYLINE
  5
18E0A
  8
1
 62
     7
 66
     1
 10
0.0
 20
0.0
 30
0.0
 70
     8
  0
VERTEX
  5
18E0B
  8
1
 62
     7
 10
706.29935213265003
 20
145.5943944513931
 30
0.0
 70
    32
  0
VERTEX
  5
18E0C
  8
1
 62
     7
 10
706.29935213265003
 20
145.59039445139291
 30
0.0
 70
    32
  0
VERTEX
  5
18E0D
  8
1
 62
     7
 10
706.29935213265003
 20
145.5863944513932
 30
0.0
 70
    32
  0
VERTEX
  5
18E0E
  8
1
 62
     7
 10
706.29935213265003
 20
145.58139445139309
 30
0.0
 70
    32
  0
VERTEX
  5
18E0F
  8
1
 62
     7
 10
706.29935213265003
 20
145.57739445139299
 30
0.0
 70
    32
  0
VERTEX
  5
18E10
  8
1
 62
     7
 10
706.29935213265003
 20
145.5733944513936
 30
0.0
 70
    32
  0
VERTEX
  5
18E11
  8
1
 62
     7
 10
706.29935213265003
 20
145.5683944513932
 30
0.0
 70
    32
  0
VERTEX
  5
18E12
  8
1
 62
     7
 10
706.30035213265
 20
145.5643944513931
 30
0.0
 70
    32
  0
VERTEX
  5
18E13
  8
1
 62
     7
 10
706.30035213265
 20
145.56039445139299
 30
0.0
 70
    32
  0
VERTEX
  5
18E14
  8
1
 62
     7
 10
706.30035213265
 20
145.55639445139309
 30
0.0
 70
    32
  0
VERTEX
  5
18E15
  8
1
 62
     7
 10
706.30035213265
 20
145.55139445139309
 30
0.0
 70
    32
  0
VERTEX
  5
18E16
  8
1
 62
     7
 10
706.30035213265
 20
145.5473944513931
 30
0.0
 70
    32
  0
VERTEX
  5
18E17
  8
1
 62
     7
 10
706.30035213265
 20
145.54339445139291
 30
0.0
 70
    32
  0
VERTEX
  5
18E18
  8
1
 62
     7
 10
706.30035213265
 20
145.53939445139309
 30
0.0
 70
    32
  0
VERTEX
  5
18E19
  8
1
 62
     7
 10
706.30035213265
 20
145.5343944513931
 30
0.0
 70
    32
  0
VERTEX
  5
18E1A
  8
1
 62
     7
 10
706.30035213265
 20
145.53039445139299
 30
0.0
 70
    32
  0
VERTEX
  5
18E1B
  8
1
 62
     7
 10
706.30035213265
 20
145.52639445139309
 30
0.0
 70
    32
  0
VERTEX
  5
18E1C
  8
1
 62
     7
 10
706.30035213265
 20
145.52139445139321
 30
0.0
 70
    32
  0
VERTEX
  5
18E1D
  8
1
 62
     7
 10
706.30035213265
 20
145.5173944513931
 30
0.0
 70
    32
  0
VERTEX
  5
18E1E
  8
1
 62
     7
 10
706.30035213265
 20
145.513394451393
 30
0.0
 70
    32
  0
VERTEX
  5
18E1F
  8
1
 62
     7
 10
706.30035213265
 20
145.50939445139309
 30
0.0
 70
    32
  0
VERTEX
  5
18E20
  8
1
 62
     7
 10
706.30035213265
 20
145.5043944513931
 30
0.0
 70
    32
  0
VERTEX
  5
18E21
  8
1
 62
     7
 10
706.30035213265
 20
145.50039445139299
 30
0.0
 70
    32
  0
VERTEX
  5
18E22
  8
1
 62
     7
 10
706.30035213265
 20
145.49639445139289
 30
0.0
 70
    32
  0
VERTEX
  5
18E23
  8
1
 62
     7
 10
706.30035213265
 20
145.49239445139341
 30
0.0
 70
    32
  0
VERTEX
  5
18E24
  8
1
 62
     7
 10
706.30135213264964
 20
145.4873944513931
 30
0.0
 70
    32
  0
VERTEX
  5
18E25
  8
1
 62
     7
 10
706.30135213264964
 20
145.483394451393
 30
0.0
 70
    32
  0
VERTEX
  5
18E26
  8
1
 62
     7
 10
706.30135213264964
 20
145.47939445139309
 30
0.0
 70
    32
  0
VERTEX
  5
18E27
  8
1
 62
     7
 10
706.30135213264964
 20
145.47539445139341
 30
0.0
 70
    32
  0
VERTEX
  5
18E28
  8
1
 62
     7
 10
706.30135213264964
 20
145.47039445139299
 30
0.0
 70
    32
  0
VERTEX
  5
18E29
  8
1
 62
     7
 10
706.30135213264964
 20
145.46639445139289
 30
0.0
 70
    32
  0
VERTEX
  5
18E2A
  8
1
 62
     7
 10
706.30135213264964
 20
145.4623944513931
 30
0.0
 70
    32
  0
VERTEX
  5
18E2B
  8
1
 62
     7
 10
706.30135213264964
 20
145.4573944513931
 30
0.0
 70
    32
  0
VERTEX
  5
18E2C
  8
1
 62
     7
 10
706.30135213264964
 20
145.453394451393
 30
0.0
 70
    32
  0
VERTEX
  5
18E2D
  8
1
 62
     7
 10
706.30135213264964
 20
145.44939445139289
 30
0.0
 70
    32
  0
VERTEX
  5
18E2E
  8
1
 62
     7
 10
706.30235213264984
 20
145.44539445139341
 30
0.0
 70
    32
  0
VERTEX
  5
18E2F
  8
1
 62
     7
 10
706.30235213264984
 20
145.4403944513931
 30
0.0
 70
    32
  0
VERTEX
  5
18E30
  8
1
 62
     7
 10
706.30235213264984
 20
145.436394451393
 30
0.0
 70
    32
  0
VERTEX
  5
18E31
  8
1
 62
     7
 10
706.30235213264984
 20
145.43239445139309
 30
0.0
 70
    32
  0
VERTEX
  5
18E32
  8
1
 62
     7
 10
706.30235213264984
 20
145.42839445139299
 30
0.0
 70
    32
  0
VERTEX
  5
18E33
  8
1
 62
     7
 10
706.30235213264984
 20
145.42339445139299
 30
0.0
 70
    32
  0
VERTEX
  5
18E34
  8
1
 62
     7
 10
706.30235213264984
 20
145.41939445139289
 30
0.0
 70
    32
  0
VERTEX
  5
18E35
  8
1
 62
     7
 10
706.30335213264982
 20
145.41539445139341
 30
0.0
 70
    32
  0
VERTEX
  5
18E36
  8
1
 62
     7
 10
706.30335213264982
 20
145.41139445139299
 30
0.0
 70
    32
  0
VERTEX
  5
18E37
  8
1
 62
     7
 10
706.30335213264982
 20
145.406394451393
 30
0.0
 70
    32
  0
VERTEX
  5
18E38
  8
1
 62
     7
 10
706.30335213264982
 20
145.40239445139321
 30
0.0
 70
    32
  0
VERTEX
  5
18E39
  8
1
 62
     7
 10
706.30335213264982
 20
145.39839445139339
 30
0.0
 70
    32
  0
VERTEX
  5
18E3A
  8
1
 62
     7
 10
706.30335213264982
 20
145.39339445139311
 30
0.0
 70
    32
  0
VERTEX
  5
18E3B
  8
1
 62
     7
 10
706.30335213264982
 20
145.38939445139289
 30
0.0
 70
    32
  0
VERTEX
  5
18E3C
  8
1
 62
     7
 10
706.30435213265002
 20
145.3853944513931
 30
0.0
 70
    32
  0
VERTEX
  5
18E3D
  8
1
 62
     7
 10
706.30435213265002
 20
145.38139445139331
 30
0.0
 70
    32
  0
VERTEX
  5
18E3E
  8
1
 62
     7
 10
706.30435213265002
 20
145.376394451393
 30
0.0
 70
    32
  0
VERTEX
  5
18E3F
  8
1
 62
     7
 10
706.30435213265002
 20
145.37239445139321
 30
0.0
 70
    32
  0
VERTEX
  5
18E40
  8
1
 62
     7
 10
706.30435213265002
 20
145.36839445139341
 30
0.0
 70
    32
  0
VERTEX
  5
18E41
  8
1
 62
     7
 10
706.30535213264955
 20
145.36439445139331
 30
0.0
 70
    32
  0
VERTEX
  5
18E42
  8
1
 62
     7
 10
706.30535213264955
 20
145.35939445139289
 30
0.0
 70
    32
  0
VERTEX
  5
18E43
  8
1
 62
     7
 10
706.30535213264955
 20
145.35539445139281
 30
0.0
 70
    32
  0
VERTEX
  5
18E44
  8
1
 62
     7
 10
706.30535213264955
 20
145.35139445139299
 30
0.0
 70
    32
  0
VERTEX
  5
18E45
  8
1
 62
     7
 10
706.30535213264955
 20
145.34739445139309
 30
0.0
 70
    32
  0
VERTEX
  5
18E46
  8
1
 62
     7
 10
706.30535213264955
 20
145.34239445139289
 30
0.0
 70
    32
  0
VERTEX
  5
18E47
  8
1
 62
     7
 10
706.30635213264964
 20
145.33839445139341
 30
0.0
 70
    32
  0
VERTEX
  5
18E48
  8
1
 62
     7
 10
706.30635213264964
 20
145.33439445139331
 30
0.0
 70
    32
  0
VERTEX
  5
18E49
  8
1
 62
     7
 10
706.30635213264964
 20
145.33039445139309
 30
0.0
 70
    32
  0
VERTEX
  5
18E4A
  8
1
 62
     7
 10
706.30635213264964
 20
145.32539445139321
 30
0.0
 70
    32
  0
VERTEX
  5
18E4B
  8
1
 62
     7
 10
706.30735213264984
 20
145.32139445139339
 30
0.0
 70
    32
  0
VERTEX
  5
18E4C
  8
1
 62
     7
 10
706.30735213264984
 20
145.31739445139331
 30
0.0
 70
    32
  0
VERTEX
  5
18E4D
  8
1
 62
     7
 10
706.30735213264984
 20
145.31239445139289
 30
0.0
 70
    32
  0
VERTEX
  5
18E4E
  8
1
 62
     7
 10
706.30735213264984
 20
145.3083944513931
 30
0.0
 70
    32
  0
VERTEX
  5
18E4F
  8
1
 62
     7
 10
706.30735213264984
 20
145.30439445139299
 30
0.0
 70
    32
  0
VERTEX
  5
18E50
  8
1
 62
     7
 10
706.30835213264982
 20
145.30039445139309
 30
0.0
 70
    32
  0
VERTEX
  5
18E51
  8
1
 62
     7
 10
706.30835213264982
 20
145.29539445139289
 30
0.0
 70
    32
  0
VERTEX
  5
18E52
  8
1
 62
     7
 10
706.30835213264982
 20
145.29139445139339
 30
0.0
 70
    32
  0
VERTEX
  5
18E53
  8
1
 62
     7
 10
706.30835213264982
 20
145.28739445139331
 30
0.0
 70
    32
  0
VERTEX
  5
18E54
  8
1
 62
     7
 10
706.30935213265002
 20
145.28339445139309
 30
0.0
 70
    32
  0
VERTEX
  5
18E55
  8
1
 62
     7
 10
706.30935213265002
 20
145.27839445139321
 30
0.0
 70
    32
  0
VERTEX
  5
18E56
  8
1
 62
     7
 10
706.30935213265002
 20
145.27439445139299
 30
0.0
 70
    32
  0
VERTEX
  5
18E57
  8
1
 62
     7
 10
706.31035213264965
 20
145.2703944513932
 30
0.0
 70
    32
  0
VERTEX
  5
18E58
  8
1
 62
     7
 10
706.31035213264965
 20
145.2663944513931
 30
0.0
 70
    32
  0
VERTEX
  5
18E59
  8
1
 62
     7
 10
706.31035213264965
 20
145.26139445139339
 30
0.0
 70
    32
  0
VERTEX
  5
18E5A
  8
1
 62
     7
 10
706.31035213264965
 20
145.257394451393
 30
0.0
 70
    32
  0
VERTEX
  5
18E5B
  8
1
 62
     7
 10
706.31135213264974
 20
145.25339445139309
 30
0.0
 70
    32
  0
VERTEX
  5
18E5C
  8
1
 62
     7
 10
706.31135213264974
 20
145.24939445139299
 30
0.0
 70
    32
  0
VERTEX
  5
18E5D
  8
1
 62
     7
 10
706.31135213264974
 20
145.24439445139339
 30
0.0
 70
    32
  0
VERTEX
  5
18E5E
  8
1
 62
     7
 10
706.31135213264974
 20
145.24039445139331
 30
0.0
 70
    32
  0
VERTEX
  5
18E5F
  8
1
 62
     7
 10
706.31235213264983
 20
145.2363944513931
 30
0.0
 70
    32
  0
VERTEX
  5
18E60
  8
1
 62
     7
 10
706.31235213264983
 20
145.23239445139299
 30
0.0
 70
    32
  0
VERTEX
  5
18E61
  8
1
 62
     7
 10
706.31235213264983
 20
145.227394451393
 30
0.0
 70
    32
  0
VERTEX
  5
18E62
  8
1
 62
     7
 10
706.3133521326497
 20
145.2233944513932
 30
0.0
 70
    32
  0
VERTEX
  5
18E63
  8
1
 62
     7
 10
706.3133521326497
 20
145.2193944513931
 30
0.0
 70
    32
  0
VERTEX
  5
18E64
  8
1
 62
     7
 10
706.3133521326497
 20
145.21439445139339
 30
0.0
 70
    32
  0
VERTEX
  5
18E65
  8
1
 62
     7
 10
706.31435213265001
 20
145.21039445139331
 30
0.0
 70
    32
  0
VERTEX
  5
18E66
  8
1
 62
     7
 10
706.31435213265001
 20
145.20639445139321
 30
0.0
 70
    32
  0
VERTEX
  5
18E67
  8
1
 62
     7
 10
706.31435213265001
 20
145.20239445139299
 30
0.0
 70
    32
  0
VERTEX
  5
18E68
  8
1
 62
     7
 10
706.31535213264965
 20
145.19739445139339
 30
0.0
 70
    32
  0
VERTEX
  5
18E69
  8
1
 62
     7
 10
706.31535213264965
 20
145.1933944513932
 30
0.0
 70
    32
  0
VERTEX
  5
18E6A
  8
1
 62
     7
 10
706.31535213264965
 20
145.1893944513931
 30
0.0
 70
    32
  0
VERTEX
  5
18E6B
  8
1
 62
     7
 10
706.31635213264974
 20
145.18539445139299
 30
0.0
 70
    32
  0
VERTEX
  5
18E6C
  8
1
 62
     7
 10
706.31635213264974
 20
145.18039445139331
 30
0.0
 70
    32
  0
VERTEX
  5
18E6D
  8
1
 62
     7
 10
706.31635213264974
 20
145.17639445139321
 30
0.0
 70
    32
  0
VERTEX
  5
18E6E
  8
1
 62
     7
 10
706.31735213264983
 20
145.17239445139299
 30
0.0
 70
    32
  0
VERTEX
  5
18E6F
  8
1
 62
     7
 10
706.31735213264983
 20
145.16839445139291
 30
0.0
 70
    32
  0
VERTEX
  5
18E70
  8
1
 62
     7
 10
706.31735213264983
 20
145.16339445139329
 30
0.0
 70
    32
  0
VERTEX
  5
18E71
  8
1
 62
     7
 10
706.31835213264969
 20
145.1593944513931
 30
0.0
 70
    32
  0
VERTEX
  5
18E72
  8
1
 62
     7
 10
706.31835213264969
 20
145.15539445139299
 30
0.0
 70
    32
  0
VERTEX
  5
18E73
  8
1
 62
     7
 10
706.31935213264956
 20
145.15139445139289
 30
0.0
 70
    32
  0
VERTEX
  5
18E74
  8
1
 62
     7
 10
706.31935213264956
 20
145.14639445139321
 30
0.0
 70
    32
  0
VERTEX
  5
18E75
  8
1
 62
     7
 10
706.31935213264956
 20
145.1423944513931
 30
0.0
 70
    32
  0
VERTEX
  5
18E76
  8
1
 62
     7
 10
706.32035213264965
 20
145.138394451393
 30
0.0
 70
    32
  0
VERTEX
  5
18E77
  8
1
 62
     7
 10
706.32035213264965
 20
145.13439445139321
 30
0.0
 70
    32
  0
VERTEX
  5
18E78
  8
1
 62
     7
 10
706.32135213264974
 20
145.12939445139321
 30
0.0
 70
    32
  0
VERTEX
  5
18E79
  8
1
 62
     7
 10
706.32135213264974
 20
145.12539445139299
 30
0.0
 70
    32
  0
VERTEX
  5
18E7A
  8
1
 62
     7
 10
706.32135213264974
 20
145.12139445139289
 30
0.0
 70
    32
  0
VERTEX
  5
18E7B
  8
1
 62
     7
 10
706.32235213264994
 20
145.11739445139341
 30
0.0
 70
    32
  0
VERTEX
  5
18E7C
  8
1
 62
     7
 10
706.32235213264994
 20
145.1123944513931
 30
0.0
 70
    32
  0
VERTEX
  5
18E7D
  8
1
 62
     7
 10
706.32335213264957
 20
145.108394451393
 30
0.0
 70
    32
  0
VERTEX
  5
18E7E
  8
1
 62
     7
 10
706.32335213264957
 20
145.1043944513932
 30
0.0
 70
    32
  0
VERTEX
  5
18E7F
  8
1
 62
     7
 10
706.32435213264955
 20
145.10039445139299
 30
0.0
 70
    32
  0
VERTEX
  5
18E80
  8
1
 62
     7
 10
706.32435213264955
 20
145.0953944513931
 30
0.0
 70
    32
  0
VERTEX
  5
18E81
  8
1
 62
     7
 10
706.32435213264955
 20
145.09139445139289
 30
0.0
 70
    32
  0
VERTEX
  5
18E82
  8
1
 62
     7
 10
706.32535213264975
 20
145.0873944513931
 30
0.0
 70
    32
  0
VERTEX
  5
18E83
  8
1
 62
     7
 10
706.32535213264975
 20
145.0833944513933
 30
0.0
 70
    32
  0
VERTEX
  5
18E84
  8
1
 62
     7
 10
706.32635213265019
 20
145.078394451393
 30
0.0
 70
    32
  0
VERTEX
  5
18E85
  8
1
 62
     7
 10
706.32635213265019
 20
145.07439445139289
 30
0.0
 70
    32
  0
VERTEX
  5
18E86
  8
1
 62
     7
 10
706.32735213265005
 20
145.0703944513931
 30
0.0
 70
    32
  0
VERTEX
  5
18E87
  8
1
 62
     7
 10
706.32735213265005
 20
145.06639445139331
 30
0.0
 70
    32
  0
VERTEX
  5
18E88
  8
1
 62
     7
 10
706.32835213264957
 20
145.06239445139309
 30
0.0
 70
    32
  0
VERTEX
  5
18E89
  8
1
 62
     7
 10
706.32835213264957
 20
145.05739445139321
 30
0.0
 70
    32
  0
VERTEX
  5
18E8A
  8
1
 62
     7
 10
706.32935213265
 20
145.0533944513933
 30
0.0
 70
    32
  0
VERTEX
  5
18E8B
  8
1
 62
     7
 10
706.32935213265
 20
145.0493944513932
 30
0.0
 70
    32
  0
VERTEX
  5
18E8C
  8
1
 62
     7
 10
706.33035213265032
 20
145.04539445139309
 30
0.0
 70
    32
  0
VERTEX
  5
18E8D
  8
1
 62
     7
 10
706.33035213265032
 20
145.04039445139341
 30
0.0
 70
    32
  0
VERTEX
  5
18E8E
  8
1
 62
     7
 10
706.33135213265007
 20
145.03639445139331
 30
0.0
 70
    32
  0
VERTEX
  5
18E8F
  8
1
 62
     7
 10
706.33135213265007
 20
145.03239445139309
 30
0.0
 70
    32
  0
VERTEX
  5
18E90
  8
1
 62
     7
 10
706.3323521326497
 20
145.02839445139301
 30
0.0
 70
    32
  0
VERTEX
  5
18E91
  8
1
 62
     7
 10
706.3323521326497
 20
145.02339445139299
 30
0.0
 70
    32
  0
VERTEX
  5
18E92
  8
1
 62
     7
 10
706.33335213264957
 20
145.01939445139331
 30
0.0
 70
    32
  0
VERTEX
  5
18E93
  8
1
 62
     7
 10
706.33335213264957
 20
145.01539445139309
 30
0.0
 70
    32
  0
VERTEX
  5
18E94
  8
1
 62
     7
 10
706.33435213264988
 20
145.01139445139299
 30
0.0
 70
    32
  0
VERTEX
  5
18E95
  8
1
 62
     7
 10
706.33435213264988
 20
145.00639445139331
 30
0.0
 70
    32
  0
VERTEX
  5
18E96
  8
1
 62
     7
 10
706.33535213264975
 20
145.00239445139309
 30
0.0
 70
    32
  0
VERTEX
  5
18E97
  8
1
 62
     7
 10
706.33535213264975
 20
144.9983944513931
 30
0.0
 70
    32
  0
VERTEX
  5
18E98
  8
1
 62
     7
 10
706.33635213264972
 20
144.99439445139291
 30
0.0
 70
    32
  0
VERTEX
  5
18E99
  8
1
 62
     7
 10
706.33635213264972
 20
144.98939445139291
 30
0.0
 70
    32
  0
VERTEX
  5
18E9A
  8
1
 62
     7
 10
706.33735213264958
 20
144.9853944513932
 30
0.0
 70
    32
  0
VERTEX
  5
18E9B
  8
1
 62
     7
 10
706.33735213264958
 20
144.98139445139299
 30
0.0
 70
    32
  0
VERTEX
  5
18E9C
  8
1
 62
     7
 10
706.33835213265013
 20
144.97739445139291
 30
0.0
 70
    32
  0
VERTEX
  5
18E9D
  8
1
 62
     7
 10
706.33835213265013
 20
144.97339445139309
 30
0.0
 70
    32
  0
VERTEX
  5
18E9E
  8
1
 62
     7
 10
706.33935213264965
 20
144.9683944513931
 30
0.0
 70
    32
  0
VERTEX
  5
18E9F
  8
1
 62
     7
 10
706.3403521326502
 20
144.96439445139299
 30
0.0
 70
    32
  0
VERTEX
  5
18EA0
  8
1
 62
     7
 10
706.3403521326502
 20
144.9603944513928
 30
0.0
 70
    32
  0
VERTEX
  5
18EA1
  8
1
 62
     7
 10
706.34135213264972
 20
144.95639445139309
 30
0.0
 70
    32
  0
VERTEX
  5
18EA2
  8
1
 62
     7
 10
706.34135213264972
 20
144.9513944513929
 30
0.0
 70
    32
  0
VERTEX
  5
18EA3
  8
1
 62
     7
 10
706.34235213264958
 20
144.94739445139291
 30
0.0
 70
    32
  0
VERTEX
  5
18EA4
  8
1
 62
     7
 10
706.34235213264958
 20
144.94339445139349
 30
0.0
 70
    32
  0
VERTEX
  5
18EA5
  8
1
 62
     7
 10
706.3433521326499
 20
144.9393944513933
 30
0.0
 70
    32
  0
VERTEX
  5
18EA6
  8
1
 62
     7
 10
706.34435213264976
 20
144.93439445139299
 30
0.0
 70
    32
  0
VERTEX
  5
18EA7
  8
1
 62
     7
 10
706.34435213264976
 20
144.9303944513932
 30
0.0
 70
    32
  0
VERTEX
  5
18EA8
  8
1
 62
     7
 10
706.34535213264974
 20
144.92639445139309
 30
0.0
 70
    32
  0
VERTEX
  5
18EA9
  8
1
 62
     7
 10
706.34535213264974
 20
144.9223944513933
 30
0.0
 70
    32
  0
VERTEX
  5
18EAA
  8
1
 62
     7
 10
706.34635213264971
 20
144.91839445139311
 30
0.0
 70
    32
  0
VERTEX
  5
18EAB
  8
1
 62
     7
 10
706.34735213264946
 20
144.91339445139349
 30
0.0
 70
    32
  0
VERTEX
  5
18EAC
  8
1
 62
     7
 10
706.34735213264946
 20
144.90939445139341
 30
0.0
 70
    32
  0
VERTEX
  5
18EAD
  8
1
 62
     7
 10
706.34835213264989
 20
144.90539445139319
 30
0.0
 70
    32
  0
VERTEX
  5
18EAE
  8
1
 62
     7
 10
706.34835213264989
 20
144.90139445139309
 30
0.0
 70
    32
  0
VERTEX
  5
18EAF
  8
1
 62
     7
 10
706.3493521326501
 20
144.89639445139309
 30
0.0
 70
    32
  0
VERTEX
  5
18EB0
  8
1
 62
     7
 10
706.35035213264996
 20
144.8923944513933
 30
0.0
 70
    32
  0
VERTEX
  5
18EB1
  8
1
 62
     7
 10
706.35035213264996
 20
144.8883944513932
 30
0.0
 70
    32
  0
VERTEX
  5
18EB2
  8
1
 62
     7
 10
706.35135213264971
 20
144.88439445139301
 30
0.0
 70
    32
  0
VERTEX
  5
18EB3
  8
1
 62
     7
 10
706.35235213265003
 20
144.8803944513929
 30
0.0
 70
    32
  0
VERTEX
  5
18EB4
  8
1
 62
     7
 10
706.35235213265003
 20
144.87539445139319
 30
0.0
 70
    32
  0
VERTEX
  5
18EB5
  8
1
 62
     7
 10
706.35335213265012
 20
144.87139445139309
 30
0.0
 70
    32
  0
VERTEX
  5
18EB6
  8
1
 62
     7
 10
706.35335213265012
 20
144.86739445139301
 30
0.0
 70
    32
  0
VERTEX
  5
18EB7
  8
1
 62
     7
 10
706.35435213264998
 20
144.8633944513935
 30
0.0
 70
    32
  0
VERTEX
  5
18EB8
  8
1
 62
     7
 10
706.35535213264973
 20
144.8583944513932
 30
0.0
 70
    32
  0
VERTEX
  5
18EB9
  8
1
 62
     7
 10
706.35535213264973
 20
144.85439445139309
 30
0.0
 70
    32
  0
VERTEX
  5
18EBA
  8
1
 62
     7
 10
706.35635213264959
 20
144.8503944513933
 30
0.0
 70
    32
  0
VERTEX
  5
18EBB
  8
1
 62
     7
 10
706.35735213265002
 20
144.84639445139319
 30
0.0
 70
    32
  0
VERTEX
  5
18EBC
  8
1
 62
     7
 10
706.35735213265002
 20
144.84239445139329
 30
0.0
 70
    32
  0
VERTEX
  5
18EBD
  8
1
 62
     7
 10
706.35835213265034
 20
144.83739445139301
 30
0.0
 70
    32
  0
VERTEX
  5
18EBE
  8
1
 62
     7
 10
706.35935213264997
 20
144.83339445139291
 30
0.0
 70
    32
  0
VERTEX
  5
18EBF
  8
1
 62
     7
 10
706.35935213264997
 20
144.8293944513934
 30
0.0
 70
    32
  0
VERTEX
  5
18EC0
  8
1
 62
     7
 10
706.36035213264972
 20
144.82539445139329
 30
0.0
 70
    32
  0
VERTEX
  5
18EC1
  8
1
 62
     7
 10
706.36135213265004
 20
144.82039445139301
 30
0.0
 70
    32
  0
VERTEX
  5
18EC2
  8
1
 62
     7
 10
706.36135213265004
 20
144.81639445139319
 30
0.0
 70
    32
  0
VERTEX
  5
18EC3
  8
1
 62
     7
 10
706.36235213264979
 20
144.812394451393
 30
0.0
 70
    32
  0
VERTEX
  5
18EC4
  8
1
 62
     7
 10
706.36335213264965
 20
144.80839445139321
 30
0.0
 70
    32
  0
VERTEX
  5
18EC5
  8
1
 62
     7
 10
706.36435213264974
 20
144.80439445139311
 30
0.0
 70
    32
  0
VERTEX
  5
18EC6
  8
1
 62
     7
 10
706.36435213264974
 20
144.79939445139311
 30
0.0
 70
    32
  0
VERTEX
  5
18EC7
  8
1
 62
     7
 10
706.36535213264972
 20
144.79539445139301
 30
0.0
 70
    32
  0
VERTEX
  5
18EC8
  8
1
 62
     7
 10
706.36635213264958
 20
144.79139445139319
 30
0.0
 70
    32
  0
VERTEX
  5
18EC9
  8
1
 62
     7
 10
706.36635213264958
 20
144.78739445139311
 30
0.0
 70
    32
  0
VERTEX
  5
18ECA
  8
1
 62
     7
 10
706.36735213265035
 20
144.78339445139289
 30
0.0
 70
    32
  0
VERTEX
  5
18ECB
  8
1
 62
     7
 10
706.36835213264965
 20
144.7783944513933
 30
0.0
 70
    32
  0
VERTEX
  5
18ECC
  8
1
 62
     7
 10
706.36935213264974
 20
144.77439445139311
 30
0.0
 70
    32
  0
VERTEX
  5
18ECD
  8
1
 62
     7
 10
706.36935213264974
 20
144.770394451393
 30
0.0
 70
    32
  0
VERTEX
  5
18ECE
  8
1
 62
     7
 10
706.37035213264983
 20
144.7663944513929
 30
0.0
 70
    32
  0
VERTEX
  5
18ECF
  8
1
 62
     7
 10
706.37135213264969
 20
144.76239445139299
 30
0.0
 70
    32
  0
VERTEX
  5
18ED0
  8
1
 62
     7
 10
706.37235213265001
 20
144.75739445139311
 30
0.0
 70
    32
  0
VERTEX
  5
18ED1
  8
1
 62
     7
 10
706.37235213265001
 20
144.75339445139301
 30
0.0
 70
    32
  0
VERTEX
  5
18ED2
  8
1
 62
     7
 10
706.37335213264964
 20
144.74939445139319
 30
0.0
 70
    32
  0
VERTEX
  5
18ED3
  8
1
 62
     7
 10
706.37435213264973
 20
144.74539445139339
 30
0.0
 70
    32
  0
VERTEX
  5
18ED4
  8
1
 62
     7
 10
706.37535213264982
 20
144.74139445139321
 30
0.0
 70
    32
  0
VERTEX
  5
18ED5
  8
1
 62
     7
 10
706.37535213264982
 20
144.7363944513929
 30
0.0
 70
    32
  0
VERTEX
  5
18ED6
  8
1
 62
     7
 10
706.3763521326498
 20
144.73239445139339
 30
0.0
 70
    32
  0
VERTEX
  5
18ED7
  8
1
 62
     7
 10
706.37735213265
 20
144.72839445139331
 30
0.0
 70
    32
  0
VERTEX
  5
18ED8
  8
1
 62
     7
 10
706.37835213264964
 20
144.72439445139321
 30
0.0
 70
    32
  0
VERTEX
  5
18ED9
  8
1
 62
     7
 10
706.37835213264964
 20
144.7203944513931
 30
0.0
 70
    32
  0
VERTEX
  5
18EDA
  8
1
 62
     7
 10
706.37935213264984
 20
144.71539445139339
 30
0.0
 70
    32
  0
VERTEX
  5
18EDB
  8
1
 62
     7
 10
706.38035213264982
 20
144.71139445139329
 30
0.0
 70
    32
  0
VERTEX
  5
18EDC
  8
1
 62
     7
 10
706.38135213265002
 20
144.7073944513931
 30
0.0
 70
    32
  0
VERTEX
  5
18EDD
  8
1
 62
     7
 10
706.38235213264954
 20
144.703394451393
 30
0.0
 70
    32
  0
VERTEX
  5
18EDE
  8
1
 62
     7
 10
706.38235213264954
 20
144.69939445139289
 30
0.0
 70
    32
  0
VERTEX
  5
18EDF
  8
1
 62
     7
 10
706.38335213264963
 20
144.69439445139321
 30
0.0
 70
    32
  0
VERTEX
  5
18EE0
  8
1
 62
     7
 10
706.38435213264984
 20
144.69039445139299
 30
0.0
 70
    32
  0
VERTEX
  5
18EE1
  8
1
 62
     7
 10
706.38535213264981
 20
144.68639445139291
 30
0.0
 70
    32
  0
VERTEX
  5
18EE2
  8
1
 62
     7
 10
706.38635213265002
 20
144.68239445139321
 30
0.0
 70
    32
  0
VERTEX
  5
18EE3
  8
1
 62
     7
 10
706.38635213265002
 20
144.67839445139339
 30
0.0
 70
    32
  0
VERTEX
  5
18EE4
  8
1
 62
     7
 10
706.38735213264999
 20
144.67339445139339
 30
0.0
 70
    32
  0
VERTEX
  5
18EE5
  8
1
 62
     7
 10
706.38835213264974
 20
144.66939445139309
 30
0.0
 70
    32
  0
VERTEX
  5
18EE6
  8
1
 62
     7
 10
706.38935213264983
 20
144.6653944513935
 30
0.0
 70
    32
  0
VERTEX
  5
18EE7
  8
1
 62
     7
 10
706.39035213264981
 20
144.66139445139331
 30
0.0
 70
    32
  0
VERTEX
  5
18EE8
  8
1
 62
     7
 10
706.39135213265001
 20
144.6573944513932
 30
0.0
 70
    32
  0
VERTEX
  5
18EE9
  8
1
 62
     7
 10
706.39135213265001
 20
144.6533944513929
 30
0.0
 70
    32
  0
VERTEX
  5
18EEA
  8
1
 62
     7
 10
706.39235213264965
 20
144.64839445139299
 30
0.0
 70
    32
  0
VERTEX
  5
18EEB
  8
1
 62
     7
 10
706.39335213264974
 20
144.64439445139331
 30
0.0
 70
    32
  0
VERTEX
  5
18EEC
  8
1
 62
     7
 10
706.39435213264983
 20
144.64039445139309
 30
0.0
 70
    32
  0
VERTEX
  5
18EED
  8
1
 62
     7
 10
706.3953521326498
 20
144.63639445139299
 30
0.0
 70
    32
  0
VERTEX
  5
18EEE
  8
1
 62
     7
 10
706.39635213264955
 20
144.63239445139291
 30
0.0
 70
    32
  0
VERTEX
  5
18EEF
  8
1
 62
     7
 10
706.39735213264987
 20
144.62739445139309
 30
0.0
 70
    32
  0
VERTEX
  5
18EF0
  8
1
 62
     7
 10
706.39735213264987
 20
144.6233944513931
 30
0.0
 70
    32
  0
VERTEX
  5
18EF1
  8
1
 62
     7
 10
706.39835213264973
 20
144.6193944513933
 30
0.0
 70
    32
  0
VERTEX
  5
18EF2
  8
1
 62
     7
 10
706.39935213265005
 20
144.61539445139351
 30
0.0
 70
    32
  0
VERTEX
  5
18EF3
  8
1
 62
     7
 10
706.40035213264969
 20
144.61139445139341
 30
0.0
 70
    32
  0
VERTEX
  5
18EF4
  8
1
 62
     7
 10
706.40135213264955
 20
144.60739445139319
 30
0.0
 70
    32
  0
VERTEX
  5
18EF5
  8
1
 62
     7
 10
706.40235213264987
 20
144.60239445139291
 30
0.0
 70
    32
  0
VERTEX
  5
18EF6
  8
1
 62
     7
 10
706.40335213264996
 20
144.59839445139309
 30
0.0
 70
    32
  0
VERTEX
  5
18EF7
  8
1
 62
     7
 10
706.40435213265005
 20
144.59439445139299
 30
0.0
 70
    32
  0
VERTEX
  5
18EF8
  8
1
 62
     7
 10
706.40535213264957
 20
144.59039445139319
 30
0.0
 70
    32
  0
VERTEX
  5
18EF9
  8
1
 62
     7
 10
706.40535213264957
 20
144.58639445139309
 30
0.0
 70
    32
  0
VERTEX
  5
18EFA
  8
1
 62
     7
 10
706.40635213264943
 20
144.5823944513929
 30
0.0
 70
    32
  0
VERTEX
  5
18EFB
  8
1
 62
     7
 10
706.40735213265032
 20
144.57739445139319
 30
0.0
 70
    32
  0
VERTEX
  5
18EFC
  8
1
 62
     7
 10
706.40835213265018
 20
144.573394451393
 30
0.0
 70
    32
  0
VERTEX
  5
18EFD
  8
1
 62
     7
 10
706.4093521326497
 20
144.56939445139301
 30
0.0
 70
    32
  0
VERTEX
  5
18EFE
  8
1
 62
     7
 10
706.41035213264956
 20
144.56539445139319
 30
0.0
 70
    32
  0
VERTEX
  5
18EFF
  8
1
 62
     7
 10
706.41135213264999
 20
144.5613944513934
 30
0.0
 70
    32
  0
VERTEX
  5
18F00
  8
1
 62
     7
 10
706.41235213264974
 20
144.55739445139329
 30
0.0
 70
    32
  0
VERTEX
  5
18F01
  8
1
 62
     7
 10
706.41335213264972
 20
144.5523944513929
 30
0.0
 70
    32
  0
VERTEX
  5
18F02
  8
1
 62
     7
 10
706.4143521326497
 20
144.54839445139311
 30
0.0
 70
    32
  0
VERTEX
  5
18F03
  8
1
 62
     7
 10
706.41535213264945
 20
144.54439445139329
 30
0.0
 70
    32
  0
VERTEX
  5
18F04
  8
1
 62
     7
 10
706.41635213264988
 20
144.54039445139321
 30
0.0
 70
    32
  0
VERTEX
  5
18F05
  8
1
 62
     7
 10
706.41735213265031
 20
144.53639445139311
 30
0.0
 70
    32
  0
VERTEX
  5
18F06
  8
1
 62
     7
 10
706.41835213264972
 20
144.532394451393
 30
0.0
 70
    32
  0
VERTEX
  5
18F07
  8
1
 62
     7
 10
706.41935213264969
 20
144.52739445139289
 30
0.0
 70
    32
  0
VERTEX
  5
18F08
  8
1
 62
     7
 10
706.4203521326499
 20
144.52339445139319
 30
0.0
 70
    32
  0
VERTEX
  5
18F09
  8
1
 62
     7
 10
706.42135213264976
 20
144.5193944513934
 30
0.0
 70
    32
  0
VERTEX
  5
18F0A
  8
1
 62
     7
 10
706.42235213264973
 20
144.51539445139289
 30
0.0
 70
    32
  0
VERTEX
  5
18F0B
  8
1
 62
     7
 10
706.42335213264971
 20
144.51139445139339
 30
0.0
 70
    32
  0
VERTEX
  5
18F0C
  8
1
 62
     7
 10
706.42435213264957
 20
144.50739445139331
 30
0.0
 70
    32
  0
VERTEX
  5
18F0D
  8
1
 62
     7
 10
706.42535213264989
 20
144.50339445139309
 30
0.0
 70
    32
  0
VERTEX
  5
18F0E
  8
1
 62
     7
 10
706.42635213265009
 20
144.49839445139281
 30
0.0
 70
    32
  0
VERTEX
  5
18F0F
  8
1
 62
     7
 10
706.42735213264984
 20
144.49439445139299
 30
0.0
 70
    32
  0
VERTEX
  5
18F10
  8
1
 62
     7
 10
706.42835213264971
 20
144.49039445139331
 30
0.0
 70
    32
  0
VERTEX
  5
18F11
  8
1
 62
     7
 10
706.42935213265002
 20
144.4863944513931
 30
0.0
 70
    32
  0
VERTEX
  5
18F12
  8
1
 62
     7
 10
706.43035213264989
 20
144.48239445139299
 30
0.0
 70
    32
  0
VERTEX
  5
18F13
  8
1
 62
     7
 10
706.43135213264975
 20
144.47839445139289
 30
0.0
 70
    32
  0
VERTEX
  5
18F14
  8
1
 62
     7
 10
706.43235213264973
 20
144.4733944513932
 30
0.0
 70
    32
  0
VERTEX
  5
18F15
  8
1
 62
     7
 10
706.43335213264959
 20
144.4693944513931
 30
0.0
 70
    32
  0
VERTEX
  5
18F16
  8
1
 62
     7
 10
706.43435213265002
 20
144.46539445139331
 30
0.0
 70
    32
  0
VERTEX
  5
18F17
  8
1
 62
     7
 10
706.43535213264965
 20
144.46139445139349
 30
0.0
 70
    32
  0
VERTEX
  5
18F18
  8
1
 62
     7
 10
706.43635213264974
 20
144.45739445139341
 30
0.0
 70
    32
  0
VERTEX
  5
18F19
  8
1
 62
     7
 10
706.43735213264972
 20
144.45339445139319
 30
0.0
 70
    32
  0
VERTEX
  5
18F1A
  8
1
 62
     7
 10
706.43835213265004
 20
144.44939445139309
 30
0.0
 70
    32
  0
VERTEX
  5
18F1B
  8
1
 62
     7
 10
706.43935213264979
 20
144.44539445139301
 30
0.0
 70
    32
  0
VERTEX
  5
18F1C
  8
1
 62
     7
 10
706.44035213264965
 20
144.44039445139299
 30
0.0
 70
    32
  0
VERTEX
  5
18F1D
  8
1
 62
     7
 10
706.44135213264974
 20
144.4363944513932
 30
0.0
 70
    32
  0
VERTEX
  5
18F1E
  8
1
 62
     7
 10
706.44235213264972
 20
144.4323944513929
 30
0.0
 70
    32
  0
VERTEX
  5
18F1F
  8
1
 62
     7
 10
706.44435213264956
 20
144.4283944513929
 30
0.0
 70
    32
  0
VERTEX
  5
18F20
  8
1
 62
     7
 10
706.44535213264965
 20
144.4243944513934
 30
0.0
 70
    32
  0
VERTEX
  5
18F21
  8
1
 62
     7
 10
706.44635213264974
 20
144.42039445139329
 30
0.0
 70
    32
  0
VERTEX
  5
18F22
  8
1
 62
     7
 10
706.44735213264971
 20
144.41639445139319
 30
0.0
 70
    32
  0
VERTEX
  5
18F23
  8
1
 62
     7
 10
706.44835213264957
 20
144.41239445139311
 30
0.0
 70
    32
  0
VERTEX
  5
18F24
  8
1
 62
     7
 10
706.44935213264978
 20
144.4073944513934
 30
0.0
 70
    32
  0
VERTEX
  5
18F25
  8
1
 62
     7
 10
706.45035213264964
 20
144.4033944513933
 30
0.0
 70
    32
  0
VERTEX
  5
18F26
  8
1
 62
     7
 10
706.45135213264973
 20
144.39939445139299
 30
0.0
 70
    32
  0
VERTEX
  5
18F27
  8
1
 62
     7
 10
706.45235213264982
 20
144.395394451393
 30
0.0
 70
    32
  0
VERTEX
  5
18F28
  8
1
 62
     7
 10
706.45435213264977
 20
144.3913944513929
 30
0.0
 70
    32
  0
VERTEX
  5
18F29
  8
1
 62
     7
 10
706.45535213264964
 20
144.38739445139339
 30
0.0
 70
    32
  0
VERTEX
  5
18F2A
  8
1
 62
     7
 10
706.45635213264984
 20
144.38339445139329
 30
0.0
 70
    32
  0
VERTEX
  5
18F2B
  8
1
 62
     7
 10
706.45735213264982
 20
144.37939445139321
 30
0.0
 70
    32
  0
VERTEX
  5
18F2C
  8
1
 62
     7
 10
706.45835213265002
 20
144.37439445139319
 30
0.0
 70
    32
  0
VERTEX
  5
18F2D
  8
1
 62
     7
 10
706.45935213264966
 20
144.37039445139339
 30
0.0
 70
    32
  0
VERTEX
  5
18F2E
  8
1
 62
     7
 10
706.46035213264963
 20
144.36639445139321
 30
0.0
 70
    32
  0
VERTEX
  5
18F2F
  8
1
 62
     7
 10
706.46235213264981
 20
144.3623944513931
 30
0.0
 70
    32
  0
VERTEX
  5
18F30
  8
1
 62
     7
 10
706.46335213264979
 20
144.358394451393
 30
0.0
 70
    32
  0
VERTEX
  5
18F31
  8
1
 62
     7
 10
706.46435213264965
 20
144.35439445139309
 30
0.0
 70
    32
  0
VERTEX
  5
18F32
  8
1
 62
     7
 10
706.46535213264974
 20
144.3503944513931
 30
0.0
 70
    32
  0
VERTEX
  5
18F33
  8
1
 62
     7
 10
706.46635213264983
 20
144.34639445139331
 30
0.0
 70
    32
  0
VERTEX
  5
18F34
  8
1
 62
     7
 10
706.46735213264981
 20
144.34239445139309
 30
0.0
 70
    32
  0
VERTEX
  5
18F35
  8
1
 62
     7
 10
706.46935213264965
 20
144.33839445139299
 30
0.0
 70
    32
  0
VERTEX
  5
18F36
  8
1
 62
     7
 10
706.47035213264985
 20
144.3333944513933
 30
0.0
 70
    32
  0
VERTEX
  5
18F37
  8
1
 62
     7
 10
706.47135213264983
 20
144.32939445139311
 30
0.0
 70
    32
  0
VERTEX
  5
18F38
  8
1
 62
     7
 10
706.4723521326498
 20
144.32539445139309
 30
0.0
 70
    32
  0
VERTEX
  5
18F39
  8
1
 62
     7
 10
706.47335213264967
 20
144.32139445139291
 30
0.0
 70
    32
  0
VERTEX
  5
18F3A
  8
1
 62
     7
 10
706.47535213264973
 20
144.31739445139311
 30
0.0
 70
    32
  0
VERTEX
  5
18F3B
  8
1
 62
     7
 10
706.47635213265005
 20
144.31339445139329
 30
0.0
 70
    32
  0
VERTEX
  5
18F3C
  8
1
 62
     7
 10
706.4773521326498
 20
144.30939445139319
 30
0.0
 70
    32
  0
VERTEX
  5
18F3D
  8
1
 62
     7
 10
706.47835213264955
 20
144.305394451393
 30
0.0
 70
    32
  0
VERTEX
  5
18F3E
  8
1
 62
     7
 10
706.48035213264995
 20
144.30139445139301
 30
0.0
 70
    32
  0
VERTEX
  5
18F3F
  8
1
 62
     7
 10
706.48135213265004
 20
144.29739445139279
 30
0.0
 70
    32
  0
VERTEX
  5
18F40
  8
1
 62
     7
 10
706.48235213264945
 20
144.2933944513934
 30
0.0
 70
    32
  0
VERTEX
  5
18F41
  8
1
 62
     7
 10
706.48335213265
 20
144.288394451393
 30
0.0
 70
    32
  0
VERTEX
  5
18F42
  8
1
 62
     7
 10
706.48535213265029
 20
144.2843944513929
 30
0.0
 70
    32
  0
VERTEX
  5
18F43
  8
1
 62
     7
 10
706.4863521326497
 20
144.28039445139311
 30
0.0
 70
    32
  0
VERTEX
  5
18F44
  8
1
 62
     7
 10
706.48735213264968
 20
144.27639445139329
 30
0.0
 70
    32
  0
VERTEX
  5
18F45
  8
1
 62
     7
 10
706.48835213264999
 20
144.27239445139321
 30
0.0
 70
    32
  0
VERTEX
  5
18F46
  8
1
 62
     7
 10
706.49035213264995
 20
144.26839445139299
 30
0.0
 70
    32
  0
VERTEX
  5
18F47
  8
1
 62
     7
 10
706.49135213264969
 20
144.26439445139289
 30
0.0
 70
    32
  0
VERTEX
  5
18F48
  8
1
 62
     7
 10
706.49235213265013
 20
144.26039445139349
 30
0.0
 70
    32
  0
VERTEX
  5
18F49
  8
1
 62
     7
 10
706.49335213264999
 20
144.25639445139331
 30
0.0
 70
    32
  0
VERTEX
  5
18F4A
  8
1
 62
     7
 10
706.49535213264971
 20
144.25239445139309
 30
0.0
 70
    32
  0
VERTEX
  5
18F4B
  8
1
 62
     7
 10
706.49635213264969
 20
144.2483944513931
 30
0.0
 70
    32
  0
VERTEX
  5
18F4C
  8
1
 62
     7
 10
706.49735213264989
 20
144.24439445139291
 30
0.0
 70
    32
  0
VERTEX
  5
18F4D
  8
1
 62
     7
 10
706.49935213264973
 20
144.2403944513932
 30
0.0
 70
    32
  0
VERTEX
  5
18F4E
  8
1
 62
     7
 10
706.50035213264971
 20
144.23539445139309
 30
0.0
 70
    32
  0
VERTEX
  5
18F4F
  8
1
 62
     7
 10
706.50135213264969
 20
144.23139445139299
 30
0.0
 70
    32
  0
VERTEX
  5
18F50
  8
1
 62
     7
 10
706.50335213264987
 20
144.22739445139291
 30
0.0
 70
    32
  0
VERTEX
  5
18F51
  8
1
 62
     7
 10
706.50435213264984
 20
144.22339445139309
 30
0.0
 70
    32
  0
VERTEX
  5
18F52
  8
1
 62
     7
 10
706.5053521326497
 20
144.2193944513929
 30
0.0
 70
    32
  0
VERTEX
  5
18F53
  8
1
 62
     7
 10
706.50735213265011
 20
144.21539445139319
 30
0.0
 70
    32
  0
VERTEX
  5
18F54
  8
1
 62
     7
 10
706.50835213264975
 20
144.21139445139301
 30
0.0
 70
    32
  0
VERTEX
  5
18F55
  8
1
 62
     7
 10
706.50935213264972
 20
144.2073944513929
 30
0.0
 70
    32
  0
VERTEX
  5
18F56
  8
1
 62
     7
 10
706.51135213265002
 20
144.203394451393
 30
0.0
 70
    32
  0
VERTEX
  5
18F57
  8
1
 62
     7
 10
706.51235213265034
 20
144.199394451393
 30
0.0
 70
    32
  0
VERTEX
  5
18F58
  8
1
 62
     7
 10
706.51335213264986
 20
144.1953944513931
 30
0.0
 70
    32
  0
VERTEX
  5
18F59
  8
1
 62
     7
 10
706.51535213265004
 20
144.19139445139311
 30
0.0
 70
    32
  0
VERTEX
  5
18F5A
  8
1
 62
     7
 10
706.51635213264967
 20
144.18739445139289
 30
0.0
 70
    32
  0
VERTEX
  5
18F5B
  8
1
 62
     7
 10
706.51735213264988
 20
144.1833944513935
 30
0.0
 70
    32
  0
VERTEX
  5
18F5C
  8
1
 62
     7
 10
706.51935213264971
 20
144.17939445139331
 30
0.0
 70
    32
  0
VERTEX
  5
18F5D
  8
1
 62
     7
 10
706.52035213264958
 20
144.1753944513932
 30
0.0
 70
    32
  0
VERTEX
  5
18F5E
  8
1
 62
     7
 10
706.52235213264964
 20
144.1713944513931
 30
0.0
 70
    32
  0
VERTEX
  5
18F5F
  8
1
 62
     7
 10
706.52335213264973
 20
144.16739445139291
 30
0.0
 70
    32
  0
VERTEX
  5
18F60
  8
1
 62
     7
 10
706.52435213264982
 20
144.16339445139309
 30
0.0
 70
    32
  0
VERTEX
  5
18F61
  8
1
 62
     7
 10
706.52635213264989
 20
144.15939445139301
 30
0.0
 70
    32
  0
VERTEX
  5
18F62
  8
1
 62
     7
 10
706.52735213264964
 20
144.15539445139319
 30
0.0
 70
    32
  0
VERTEX
  5
18F63
  8
1
 62
     7
 10
706.52935213264982
 20
144.15139445139309
 30
0.0
 70
    32
  0
VERTEX
  5
18F64
  8
1
 62
     7
 10
706.53035213265002
 20
144.14739445139301
 30
0.0
 70
    32
  0
VERTEX
  5
18F65
  8
1
 62
     7
 10
706.53135213264989
 20
144.14339445139319
 30
0.0
 70
    32
  0
VERTEX
  5
18F66
  8
1
 62
     7
 10
706.53335213264995
 20
144.1393944513934
 30
0.0
 70
    32
  0
VERTEX
  5
18F67
  8
1
 62
     7
 10
706.5343521326497
 20
144.13539445139321
 30
0.0
 70
    32
  0
VERTEX
  5
18F68
  8
1
 62
     7
 10
706.53635213264965
 20
144.1303944513929
 30
0.0
 70
    32
  0
VERTEX
  5
18F69
  8
1
 62
     7
 10
706.53735213264974
 20
144.12639445139311
 30
0.0
 70
    32
  0
VERTEX
  5
18F6A
  8
1
 62
     7
 10
706.53935213264981
 20
144.12239445139329
 30
0.0
 70
    32
  0
VERTEX
  5
18F6B
  8
1
 62
     7
 10
706.54035213265001
 20
144.11839445139319
 30
0.0
 70
    32
  0
VERTEX
  5
18F6C
  8
1
 62
     7
 10
706.54235213264974
 20
144.11439445139311
 30
0.0
 70
    32
  0
VERTEX
  5
18F6D
  8
1
 62
     7
 10
706.54335213264983
 20
144.11039445139289
 30
0.0
 70
    32
  0
VERTEX
  5
18F6E
  8
1
 62
     7
 10
706.5453521326499
 20
144.1063944513935
 30
0.0
 70
    32
  0
VERTEX
  5
18F6F
  8
1
 62
     7
 10
706.54635213264964
 20
144.10239445139331
 30
0.0
 70
    32
  0
VERTEX
  5
18F70
  8
1
 62
     7
 10
706.54835213264982
 20
144.0983944513932
 30
0.0
 70
    32
  0
VERTEX
  5
18F71
  8
1
 62
     7
 10
706.5493521326498
 20
144.0943944513931
 30
0.0
 70
    32
  0
VERTEX
  5
18F72
  8
1
 62
     7
 10
706.55135213264964
 20
144.09039445139291
 30
0.0
 70
    32
  0
VERTEX
  5
18F73
  8
1
 62
     7
 10
706.55235213264973
 20
144.08639445139349
 30
0.0
 70
    32
  0
VERTEX
  5
18F74
  8
1
 62
     7
 10
706.5543521326498
 20
144.08239445139299
 30
0.0
 70
    32
  0
VERTEX
  5
18F75
  8
1
 62
     7
 10
706.55535213264966
 20
144.07839445139319
 30
0.0
 70
    32
  0
VERTEX
  5
18F76
  8
1
 62
     7
 10
706.55735213264995
 20
144.07439445139309
 30
0.0
 70
    32
  0
VERTEX
  5
18F77
  8
1
 62
     7
 10
706.55835213265004
 20
144.07039445139301
 30
0.0
 70
    32
  0
VERTEX
  5
18F78
  8
1
 62
     7
 10
706.56035213264943
 20
144.067394451393
 30
0.0
 70
    32
  0
VERTEX
  5
18F79
  8
1
 62
     7
 10
706.56135213265009
 20
144.0633944513929
 30
0.0
 70
    32
  0
VERTEX
  5
18F7A
  8
1
 62
     7
 10
706.56335213264958
 20
144.0593944513935
 30
0.0
 70
    32
  0
VERTEX
  5
18F7B
  8
1
 62
     7
 10
706.56435213264967
 20
144.05539445139331
 30
0.0
 70
    32
  0
VERTEX
  5
18F7C
  8
1
 62
     7
 10
706.56635213264985
 20
144.05139445139321
 30
0.0
 70
    32
  0
VERTEX
  5
18F7D
  8
1
 62
     7
 10
706.56735213264994
 20
144.04739445139299
 30
0.0
 70
    32
  0
VERTEX
  5
18F7E
  8
1
 62
     7
 10
706.56935213264956
 20
144.04339445139291
 30
0.0
 70
    32
  0
VERTEX
  5
18F7F
  8
1
 62
     7
 10
706.57135213265008
 20
144.03939445139349
 30
0.0
 70
    32
  0
VERTEX
  5
18F80
  8
1
 62
     7
 10
706.5723521326496
 20
144.0353944513933
 30
0.0
 70
    32
  0
VERTEX
  5
18F81
  8
1
 62
     7
 10
706.57435213264955
 20
144.0313944513932
 30
0.0
 70
    32
  0
VERTEX
  5
18F82
  8
1
 62
     7
 10
706.57535213264998
 20
144.02739445139309
 30
0.0
 70
    32
  0
VERTEX
  5
18F83
  8
1
 62
     7
 10
706.57735213264971
 20
144.0233944513929
 30
0.0
 70
    32
  0
VERTEX
  5
18F84
  8
1
 62
     7
 10
706.57935213264955
 20
144.01939445139311
 30
0.0
 70
    32
  0
VERTEX
  5
18F85
  8
1
 62
     7
 10
706.58035213264998
 20
144.01539445139301
 30
0.0
 70
    32
  0
VERTEX
  5
18F86
  8
1
 62
     7
 10
706.5823521326497
 20
144.01139445139319
 30
0.0
 70
    32
  0
VERTEX
  5
18F87
  8
1
 62
     7
 10
706.58335213265002
 20
144.00739445139311
 30
0.0
 70
    32
  0
VERTEX
  5
18F88
  8
1
 62
     7
 10
706.58535213264986
 20
144.00339445139329
 30
0.0
 70
    32
  0
VERTEX
  5
18F89
  8
1
 62
     7
 10
706.58735213264924
 20
143.9993944513935
 30
0.0
 70
    32
  0
VERTEX
  5
18F8A
  8
1
 62
     7
 10
706.58835213265024
 20
143.99539445139339
 30
0.0
 70
    32
  0
VERTEX
  5
18F8B
  8
1
 62
     7
 10
706.59035213264985
 20
143.99139445139309
 30
0.0
 70
    32
  0
VERTEX
  5
18F8C
  8
1
 62
     7
 10
706.59235213265003
 20
143.9873944513931
 30
0.0
 70
    32
  0
VERTEX
  5
18F8D
  8
1
 62
     7
 10
706.5933521326499
 20
143.983394451393
 30
0.0
 70
    32
  0
VERTEX
  5
18F8E
  8
1
 62
     7
 10
706.59535213264974
 20
143.9793944513932
 30
0.0
 70
    32
  0
VERTEX
  5
18F8F
  8
1
 62
     7
 10
706.59735213265003
 20
143.97639445139291
 30
0.0
 70
    32
  0
VERTEX
  5
18F90
  8
1
 62
     7
 10
706.59835213264989
 20
143.97239445139309
 30
0.0
 70
    32
  0
VERTEX
  5
18F91
  8
1
 62
     7
 10
706.60035213264973
 20
143.96839445139329
 30
0.0
 70
    32
  0
VERTEX
  5
18F92
  8
1
 62
     7
 10
706.60235213264968
 20
143.96439445139319
 30
0.0
 70
    32
  0
VERTEX
  5
18F93
  8
1
 62
     7
 10
706.60335213264989
 20
143.96039445139311
 30
0.0
 70
    32
  0
VERTEX
  5
18F94
  8
1
 62
     7
 10
706.6053521326495
 20
143.9563944513929
 30
0.0
 70
    32
  0
VERTEX
  5
18F95
  8
1
 62
     7
 10
706.60735213265002
 20
143.9523944513935
 30
0.0
 70
    32
  0
VERTEX
  5
18F96
  8
1
 62
     7
 10
706.60835213265
 20
143.94839445139331
 30
0.0
 70
    32
  0
VERTEX
  5
18F97
  8
1
 62
     7
 10
706.61035213264984
 20
143.94439445139309
 30
0.0
 70
    32
  0
VERTEX
  5
18F98
  8
1
 62
     7
 10
706.61235213265013
 20
143.9403944513931
 30
0.0
 70
    32
  0
VERTEX
  5
18F99
  8
1
 62
     7
 10
706.61435213264974
 20
143.93639445139291
 30
0.0
 70
    32
  0
VERTEX
  5
18F9A
  8
1
 62
     7
 10
706.61535213264983
 20
143.93239445139321
 30
0.0
 70
    32
  0
VERTEX
  5
18F9B
  8
1
 62
     7
 10
706.61735213265001
 20
143.92939445139291
 30
0.0
 70
    32
  0
VERTEX
  5
18F9C
  8
1
 62
     7
 10
706.61935213264974
 20
143.92539445139309
 30
0.0
 70
    32
  0
VERTEX
  5
18F9D
  8
1
 62
     7
 10
706.62135213264969
 20
143.9213944513933
 30
0.0
 70
    32
  0
VERTEX
  5
18F9E
  8
1
 62
     7
 10
706.62235213265001
 20
143.91739445139319
 30
0.0
 70
    32
  0
VERTEX
  5
18F9F
  8
1
 62
     7
 10
706.62435213264973
 20
143.913394451393
 30
0.0
 70
    32
  0
VERTEX
  5
18FA0
  8
1
 62
     7
 10
706.62635213264969
 20
143.9093944513929
 30
0.0
 70
    32
  0
VERTEX
  5
18FA1
  8
1
 62
     7
 10
706.62835213264964
 20
143.90539445139339
 30
0.0
 70
    32
  0
VERTEX
  5
18FA2
  8
1
 62
     7
 10
706.62935213264973
 20
143.90139445139329
 30
0.0
 70
    32
  0
VERTEX
  5
18FA3
  8
1
 62
     7
 10
706.63135213264979
 20
143.8973944513931
 30
0.0
 70
    32
  0
VERTEX
  5
18FA4
  8
1
 62
     7
 10
706.63335213264975
 20
143.89439445139331
 30
0.0
 70
    32
  0
VERTEX
  5
18FA5
  8
1
 62
     7
 10
706.63535213265004
 20
143.89039445139309
 30
0.0
 70
    32
  0
VERTEX
  5
18FA6
  8
1
 62
     7
 10
706.63735213264977
 20
143.88639445139299
 30
0.0
 70
    32
  0
VERTEX
  5
18FA7
  8
1
 62
     7
 10
706.63835213264997
 20
143.88239445139291
 30
0.0
 70
    32
  0
VERTEX
  5
18FA8
  8
1
 62
     7
 10
706.64035213264958
 20
143.8783944513934
 30
0.0
 70
    32
  0
VERTEX
  5
18FA9
  8
1
 62
     7
 10
706.64235213264976
 20
143.8743944513933
 30
0.0
 70
    32
  0
VERTEX
  5
18FAA
  8
1
 62
     7
 10
706.64435213264994
 20
143.8703944513932
 30
0.0
 70
    32
  0
VERTEX
  5
18FAB
  8
1
 62
     7
 10
706.64635213265012
 20
143.86739445139321
 30
0.0
 70
    32
  0
VERTEX
  5
18FAC
  8
1
 62
     7
 10
706.6473521326501
 20
143.86339445139311
 30
0.0
 70
    32
  0
VERTEX
  5
18FAD
  8
1
 62
     7
 10
706.6493521326496
 20
143.859394451393
 30
0.0
 70
    32
  0
VERTEX
  5
18FAE
  8
1
 62
     7
 10
706.65135213264966
 20
143.85539445139281
 30
0.0
 70
    32
  0
VERTEX
  5
18FAF
  8
1
 62
     7
 10
706.65335213264973
 20
143.85139445139299
 30
0.0
 70
    32
  0
VERTEX
  5
18FB0
  8
1
 62
     7
 10
706.65535213264945
 20
143.8473944513932
 30
0.0
 70
    32
  0
VERTEX
  5
18FB1
  8
1
 62
     7
 10
706.65735213265009
 20
143.8433944513931
 30
0.0
 70
    32
  0
VERTEX
  5
18FB2
  8
1
 62
     7
 10
706.65935213264959
 20
143.84039445139319
 30
0.0
 70
    32
  0
VERTEX
  5
18FB3
  8
1
 62
     7
 10
706.66135213265011
 20
143.83639445139301
 30
0.0
 70
    32
  0
VERTEX
  5
18FB4
  8
1
 62
     7
 10
706.66235213264997
 20
143.8323944513929
 30
0.0
 70
    32
  0
VERTEX
  5
18FB5
  8
1
 62
     7
 10
706.66435213264936
 20
143.82839445139311
 30
0.0
 70
    32
  0
VERTEX
  5
18FB6
  8
1
 62
     7
 10
706.66635213265033
 20
143.82439445139329
 30
0.0
 70
    32
  0
VERTEX
  5
18FB7
  8
1
 62
     7
 10
706.66835213264983
 20
143.8213944513931
 30
0.0
 70
    32
  0
VERTEX
  5
18FB8
  8
1
 62
     7
 10
706.67035213264967
 20
143.8173944513932
 30
0.0
 70
    32
  0
VERTEX
  5
18FB9
  8
1
 62
     7
 10
706.67235213264973
 20
143.81339445139309
 30
0.0
 70
    32
  0
VERTEX
  5
18FBA
  8
1
 62
     7
 10
706.67435213265003
 20
143.80939445139299
 30
0.0
 70
    32
  0
VERTEX
  5
18FBB
  8
1
 62
     7
 10
706.67635213264987
 20
143.80539445139351
 30
0.0
 70
    32
  0
VERTEX
  5
18FBC
  8
1
 62
     7
 10
706.67835213264982
 20
143.8023944513929
 30
0.0
 70
    32
  0
VERTEX
  5
18FBD
  8
1
 62
     7
 10
706.68035213264955
 20
143.79839445139311
 30
0.0
 70
    32
  0
VERTEX
  5
18FBE
  8
1
 62
     7
 10
706.68235213264973
 20
143.79439445139329
 30
0.0
 70
    32
  0
VERTEX
  5
18FBF
  8
1
 62
     7
 10
706.68435213265002
 20
143.79039445139321
 30
0.0
 70
    32
  0
VERTEX
  5
18FC0
  8
1
 62
     7
 10
706.68635213264974
 20
143.78639445139311
 30
0.0
 70
    32
  0
VERTEX
  5
18FC1
  8
1
 62
     7
 10
706.68835213264981
 20
143.78339445139321
 30
0.0
 70
    32
  0
VERTEX
  5
18FC2
  8
1
 62
     7
 10
706.69035213264965
 20
143.77939445139299
 30
0.0
 70
    32
  0
VERTEX
  5
18FC3
  8
1
 62
     7
 10
706.69235213264983
 20
143.77539445139291
 30
0.0
 70
    32
  0
VERTEX
  5
18FC4
  8
1
 62
     7
 10
706.69435213265001
 20
143.77139445139309
 30
0.0
 70
    32
  0
VERTEX
  5
18FC5
  8
1
 62
     7
 10
706.69635213264974
 20
143.7673944513933
 30
0.0
 70
    32
  0
VERTEX
  5
18FC6
  8
1
 62
     7
 10
706.69835213264969
 20
143.764394451393
 30
0.0
 70
    32
  0
VERTEX
  5
18FC7
  8
1
 62
     7
 10
706.70035213264964
 20
143.7603944513933
 30
0.0
 70
    32
  0
VERTEX
  5
18FC8
  8
1
 62
     7
 10
706.70235213264982
 20
143.75639445139299
 30
0.0
 70
    32
  0
VERTEX
  5
18FC9
  8
1
 62
     7
 10
706.70435213265
 20
143.752394451393
 30
0.0
 70
    32
  0
VERTEX
  5
18FCA
  8
1
 62
     7
 10
706.70635213264973
 20
143.74939445139299
 30
0.0
 70
    32
  0
VERTEX
  5
18FCB
  8
1
 62
     7
 10
706.70835213264968
 20
143.74539445139291
 30
0.0
 70
    32
  0
VERTEX
  5
18FCC
  8
1
 62
     7
 10
706.71035213264975
 20
143.74139445139309
 30
0.0
 70
    32
  0
VERTEX
  5
18FCD
  8
1
 62
     7
 10
706.71235213265004
 20
143.73739445139299
 30
0.0
 70
    32
  0
VERTEX
  5
18FCE
  8
1
 62
     7
 10
706.71435213264942
 20
143.73439445139309
 30
0.0
 70
    32
  0
VERTEX
  5
18FCF
  8
1
 62
     7
 10
706.71635213265006
 20
143.73039445139329
 30
0.0
 70
    32
  0
VERTEX
  5
18FD0
  8
1
 62
     7
 10
706.71835213264956
 20
143.72639445139299
 30
0.0
 70
    32
  0
VERTEX
  5
18FD1
  8
1
 62
     7
 10
706.72035213264985
 20
143.72339445139309
 30
0.0
 70
    32
  0
VERTEX
  5
18FD2
  8
1
 62
     7
 10
706.72335213264955
 20
143.7193944513931
 30
0.0
 70
    32
  0
VERTEX
  5
18FD3
  8
1
 62
     7
 10
706.72535213265007
 20
143.71539445139291
 30
0.0
 70
    32
  0
VERTEX
  5
18FD4
  8
1
 62
     7
 10
706.72735213264957
 20
143.7113944513932
 30
0.0
 70
    32
  0
VERTEX
  5
18FD5
  8
1
 62
     7
 10
706.72935213264975
 20
143.70839445139291
 30
0.0
 70
    32
  0
VERTEX
  5
18FD6
  8
1
 62
     7
 10
706.7313521326497
 20
143.7043944513934
 30
0.0
 70
    32
  0
VERTEX
  5
18FD7
  8
1
 62
     7
 10
706.73335213265011
 20
143.70039445139329
 30
0.0
 70
    32
  0
VERTEX
  5
18FD8
  8
1
 62
     7
 10
706.73535213264984
 20
143.697394451393
 30
0.0
 70
    32
  0
VERTEX
  5
18FD9
  8
1
 62
     7
 10
706.73735213265002
 20
143.69339445139309
 30
0.0
 70
    32
  0
VERTEX
  5
18FDA
  8
1
 62
     7
 10
706.74035213264972
 20
143.6893944513931
 30
0.0
 70
    32
  0
VERTEX
  5
18FDB
  8
1
 62
     7
 10
706.74235213264978
 20
143.6863944513932
 30
0.0
 70
    32
  0
VERTEX
  5
18FDC
  8
1
 62
     7
 10
706.74435213264996
 20
143.68239445139301
 30
0.0
 70
    32
  0
VERTEX
  5
18FDD
  8
1
 62
     7
 10
706.74635213265003
 20
143.6783944513929
 30
0.0
 70
    32
  0
VERTEX
  5
18FDE
  8
1
 62
     7
 10
706.74835213264964
 20
143.675394451393
 30
0.0
 70
    32
  0
VERTEX
  5
18FDF
  8
1
 62
     7
 10
706.75135213265003
 20
143.67139445139321
 30
0.0
 70
    32
  0
VERTEX
  5
18FE0
  8
1
 62
     7
 10
706.75335213264964
 20
143.66739445139299
 30
0.0
 70
    32
  0
VERTEX
  5
18FE1
  8
1
 62
     7
 10
706.75535213264982
 20
143.66439445139309
 30
0.0
 70
    32
  0
VERTEX
  5
18FE2
  8
1
 62
     7
 10
706.75735213264954
 20
143.66039445139299
 30
0.0
 70
    32
  0
VERTEX
  5
18FE3
  8
1
 62
     7
 10
706.75935213264972
 20
143.6563944513932
 30
0.0
 70
    32
  0
VERTEX
  5
18FE4
  8
1
 62
     7
 10
706.76235213264999
 20
143.6533944513933
 30
0.0
 70
    32
  0
VERTEX
  5
18FE5
  8
1
 62
     7
 10
706.76435213264995
 20
143.64939445139311
 30
0.0
 70
    32
  0
VERTEX
  5
18FE6
  8
1
 62
     7
 10
706.76635213265013
 20
143.645394451393
 30
0.0
 70
    32
  0
VERTEX
  5
18FE7
  8
1
 62
     7
 10
706.76835213264974
 20
143.6423944513931
 30
0.0
 70
    32
  0
VERTEX
  5
18FE8
  8
1
 62
     7
 10
706.77135213265001
 20
143.63839445139291
 30
0.0
 70
    32
  0
VERTEX
  5
18FE9
  8
1
 62
     7
 10
706.77335213264973
 20
143.63539445139301
 30
0.0
 70
    32
  0
VERTEX
  5
18FEA
  8
1
 62
     7
 10
706.7753521326498
 20
143.63139445139359
 30
0.0
 70
    32
  0
VERTEX
  5
18FEB
  8
1
 62
     7
 10
706.77735213264964
 20
143.6273944513934
 30
0.0
 70
    32
  0
VERTEX
  5
18FEC
  8
1
 62
     7
 10
706.78035213264968
 20
143.62439445139319
 30
0.0
 70
    32
  0
VERTEX
  5
18FED
  8
1
 62
     7
 10
706.78235213264986
 20
143.620394451393
 30
0.0
 70
    32
  0
VERTEX
  5
18FEE
  8
1
 62
     7
 10
706.78435213264981
 20
143.6173944513931
 30
0.0
 70
    32
  0
VERTEX
  5
18FEF
  8
1
 62
     7
 10
706.78735213264974
 20
143.6133944513933
 30
0.0
 70
    32
  0
VERTEX
  5
18FF0
  8
1
 62
     7
 10
706.78935213265004
 20
143.6093944513932
 30
0.0
 70
    32
  0
VERTEX
  5
18FF1
  8
1
 62
     7
 10
706.79135213264999
 20
143.60639445139319
 30
0.0
 70
    32
  0
VERTEX
  5
18FF2
  8
1
 62
     7
 10
706.79435213264969
 20
143.60239445139311
 30
0.0
 70
    32
  0
VERTEX
  5
18FF3
  8
1
 62
     7
 10
706.79635213264987
 20
143.5993944513931
 30
0.0
 70
    32
  0
VERTEX
  5
18FF4
  8
1
 62
     7
 10
706.79835213264994
 20
143.5953944513931
 30
0.0
 70
    32
  0
VERTEX
  5
18FF5
  8
1
 62
     7
 10
706.80135213264987
 20
143.59239445139309
 30
0.0
 70
    32
  0
VERTEX
  5
18FF6
  8
1
 62
     7
 10
706.80335213264971
 20
143.58839445139299
 30
0.0
 70
    32
  0
VERTEX
  5
18FF7
  8
1
 62
     7
 10
706.80635213264975
 20
143.58539445139311
 30
0.0
 70
    32
  0
VERTEX
  5
18FF8
  8
1
 62
     7
 10
706.8083521326497
 20
143.5813944513929
 30
0.0
 70
    32
  0
VERTEX
  5
18FF9
  8
1
 62
     7
 10
706.81035213264965
 20
143.5773944513935
 30
0.0
 70
    32
  0
VERTEX
  5
18FFA
  8
1
 62
     7
 10
706.8133521326497
 20
143.57439445139289
 30
0.0
 70
    32
  0
VERTEX
  5
18FFB
  8
1
 62
     7
 10
706.81535213264988
 20
143.57039445139341
 30
0.0
 70
    32
  0
VERTEX
  5
18FFC
  8
1
 62
     7
 10
706.81835213264958
 20
143.56739445139311
 30
0.0
 70
    32
  0
VERTEX
  5
18FFD
  8
1
 62
     7
 10
706.82035213265033
 20
143.56339445139341
 30
0.0
 70
    32
  0
VERTEX
  5
18FFE
  8
1
 62
     7
 10
706.82335213265003
 20
143.56039445139311
 30
0.0
 70
    32
  0
VERTEX
  5
18FFF
  8
1
 62
     7
 10
706.82535213264964
 20
143.55639445139329
 30
0.0
 70
    32
  0
VERTEX
  5
19000
  8
1
 62
     7
 10
706.82735213264971
 20
143.55339445139339
 30
0.0
 70
    32
  0
VERTEX
  5
19001
  8
1
 62
     7
 10
706.83035213264964
 20
143.5493944513932
 30
0.0
 70
    32
  0
VERTEX
  5
19002
  8
1
 62
     7
 10
706.8323521326497
 20
143.5463944513933
 30
0.0
 70
    32
  0
VERTEX
  5
19003
  8
1
 62
     7
 10
706.83535213264963
 20
143.54239445139319
 30
0.0
 70
    32
  0
VERTEX
  5
19004
  8
1
 62
     7
 10
706.83735213264958
 20
143.53939445139329
 30
0.0
 70
    32
  0
VERTEX
  5
19005
  8
1
 62
     7
 10
706.84035213264974
 20
143.53639445139299
 30
0.0
 70
    32
  0
VERTEX
  5
19006
  8
1
 62
     7
 10
706.84235213264981
 20
143.5323944513932
 30
0.0
 70
    32
  0
VERTEX
  5
19007
  8
1
 62
     7
 10
706.84535213264951
 20
143.52939445139319
 30
0.0
 70
    32
  0
VERTEX
  5
19008
  8
1
 62
     7
 10
706.8473521326498
 20
143.52539445139311
 30
0.0
 70
    32
  0
VERTEX
  5
19009
  8
1
 62
     7
 10
706.85035213264973
 20
143.52239445139321
 30
0.0
 70
    32
  0
VERTEX
  5
1900A
  8
1
 62
     7
 10
706.8523521326498
 20
143.51839445139299
 30
0.0
 70
    32
  0
VERTEX
  5
1900B
  8
1
 62
     7
 10
706.85535213264973
 20
143.51539445139309
 30
0.0
 70
    32
  0
VERTEX
  5
1900C
  8
1
 62
     7
 10
706.85835213265
 20
143.51239445139319
 30
0.0
 70
    32
  0
VERTEX
  5
1900D
  8
1
 62
     7
 10
706.86035213264972
 20
143.50839445139309
 30
0.0
 70
    32
  0
VERTEX
  5
1900E
  8
1
 62
     7
 10
706.86335213264965
 20
143.5053944513931
 30
0.0
 70
    32
  0
VERTEX
  5
1900F
  8
1
 62
     7
 10
706.86535213264995
 20
143.501394451393
 30
0.0
 70
    32
  0
VERTEX
  5
19010
  8
1
 62
     7
 10
706.86835213264999
 20
143.4983944513931
 30
0.0
 70
    32
  0
VERTEX
  5
19011
  8
1
 62
     7
 10
706.87135213265003
 20
143.49539445139311
 30
0.0
 70
    32
  0
VERTEX
  5
19012
  8
1
 62
     7
 10
706.87335213264998
 20
143.49139445139301
 30
0.0
 70
    32
  0
VERTEX
  5
19013
  8
1
 62
     7
 10
706.87635213264969
 20
143.48839445139311
 30
0.0
 70
    32
  0
VERTEX
  5
19014
  8
1
 62
     7
 10
706.87835213264998
 20
143.484394451393
 30
0.0
 70
    32
  0
VERTEX
  5
19015
  8
1
 62
     7
 10
706.88135213264968
 20
143.48139445139299
 30
0.0
 70
    32
  0
VERTEX
  5
19016
  8
1
 62
     7
 10
706.88435213264972
 20
143.47839445139309
 30
0.0
 70
    32
  0
VERTEX
  5
19017
  8
1
 62
     7
 10
706.88635213264956
 20
143.47439445139301
 30
0.0
 70
    32
  0
VERTEX
  5
19018
  8
1
 62
     7
 10
706.88935213264983
 20
143.471394451393
 30
0.0
 70
    32
  0
VERTEX
  5
19019
  8
1
 62
     7
 10
706.89235213264999
 20
143.4683944513931
 30
0.0
 70
    32
  0
VERTEX
  5
1901A
  8
1
 62
     7
 10
706.89435213264971
 20
143.4643944513933
 30
0.0
 70
    32
  0
VERTEX
  5
1901B
  8
1
 62
     7
 10
706.89735213265033
 20
143.46139445139301
 30
0.0
 70
    32
  0
VERTEX
  5
1901C
  8
1
 62
     7
 10
706.90035213265003
 20
143.4583944513931
 30
0.0
 70
    32
  0
VERTEX
  5
1901D
  8
1
 62
     7
 10
706.90335213264973
 20
143.45539445139309
 30
0.0
 70
    32
  0
VERTEX
  5
1901E
  8
1
 62
     7
 10
706.90535213265002
 20
143.45139445139301
 30
0.0
 70
    32
  0
VERTEX
  5
1901F
  8
1
 62
     7
 10
706.90835213264984
 20
143.44839445139311
 30
0.0
 70
    32
  0
VERTEX
  5
19020
  8
1
 62
     7
 10
706.91135213264988
 20
143.44539445139321
 30
0.0
 70
    32
  0
VERTEX
  5
19021
  8
1
 62
     7
 10
706.9143521326497
 20
143.44139445139311
 30
0.0
 70
    32
  0
VERTEX
  5
19022
  8
1
 62
     7
 10
706.91635213264976
 20
143.43839445139309
 30
0.0
 70
    32
  0
VERTEX
  5
19023
  8
1
 62
     7
 10
706.91935213264969
 20
143.43539445139319
 30
0.0
 70
    32
  0
VERTEX
  5
19024
  8
1
 62
     7
 10
706.92235213264939
 20
143.43239445139329
 30
0.0
 70
    32
  0
VERTEX
  5
19025
  8
1
 62
     7
 10
706.92535213264989
 20
143.4283944513931
 30
0.0
 70
    32
  0
VERTEX
  5
19026
  8
1
 62
     7
 10
706.92735213264973
 20
143.42539445139309
 30
0.0
 70
    32
  0
VERTEX
  5
19027
  8
1
 62
     7
 10
706.93035213264955
 20
143.4223944513929
 30
0.0
 70
    32
  0
VERTEX
  5
19028
  8
1
 62
     7
 10
706.93335213264982
 20
143.4193944513934
 30
0.0
 70
    32
  0
VERTEX
  5
19029
  8
1
 62
     7
 10
706.93635213264974
 20
143.4163944513931
 30
0.0
 70
    32
  0
VERTEX
  5
1902A
  8
1
 62
     7
 10
706.93935213264979
 20
143.41239445139331
 30
0.0
 70
    32
  0
VERTEX
  5
1902B
  8
1
 62
     7
 10
706.94235213264994
 20
143.40939445139301
 30
0.0
 70
    32
  0
VERTEX
  5
1902C
  8
1
 62
     7
 10
706.94435213264956
 20
143.4063944513934
 30
0.0
 70
    32
  0
VERTEX
  5
1902D
  8
1
 62
     7
 10
706.94735213265005
 20
143.40339445139321
 30
0.0
 70
    32
  0
VERTEX
  5
1902E
  8
1
 62
     7
 10
706.95035213264998
 20
143.40039445139291
 30
0.0
 70
    32
  0
VERTEX
  5
1902F
  8
1
 62
     7
 10
706.95335213264946
 20
143.39739445139301
 30
0.0
 70
    32
  0
VERTEX
  5
19030
  8
1
 62
     7
 10
706.95635213265007
 20
143.394394451393
 30
0.0
 70
    32
  0
VERTEX
  5
19031
  8
1
 62
     7
 10
706.95935213264966
 20
143.39039445139289
 30
0.0
 70
    32
  0
VERTEX
  5
19032
  8
1
 62
     7
 10
706.9623521326497
 20
143.38739445139331
 30
0.0
 70
    32
  0
VERTEX
  5
19033
  8
1
 62
     7
 10
706.96535213264985
 20
143.38439445139301
 30
0.0
 70
    32
  0
VERTEX
  5
19034
  8
1
 62
     7
 10
706.96835213265001
 20
143.38139445139311
 30
0.0
 70
    32
  0
VERTEX
  5
19035
  8
1
 62
     7
 10
706.97135213264971
 20
143.37839445139309
 30
0.0
 70
    32
  0
VERTEX
  5
19036
  8
1
 62
     7
 10
706.97435213264998
 20
143.3753944513933
 30
0.0
 70
    32
  0
VERTEX
  5
19037
  8
1
 62
     7
 10
706.97735213265003
 20
143.37239445139329
 30
0.0
 70
    32
  0
VERTEX
  5
19038
  8
1
 62
     7
 10
706.98035213264973
 20
143.36939445139339
 30
0.0
 70
    32
  0
VERTEX
  5
19039
  8
1
 62
     7
 10
706.98335213265034
 20
143.36639445139309
 30
0.0
 70
    32
  0
VERTEX
  5
1903A
  8
1
 62
     7
 10
706.98635213264981
 20
143.36339445139319
 30
0.0
 70
    32
  0
VERTEX
  5
1903B
  8
1
 62
     7
 10
706.98935213264974
 20
143.36039445139329
 30
0.0
 70
    32
  0
VERTEX
  5
1903C
  8
1
 62
     7
 10
706.99235213265013
 20
143.3573944513933
 30
0.0
 70
    32
  0
VERTEX
  5
1903D
  8
1
 62
     7
 10
706.99535213265005
 20
143.35439445139309
 30
0.0
 70
    32
  0
VERTEX
  5
1903E
  8
1
 62
     7
 10
706.99835213264964
 20
143.35139445139311
 30
0.0
 70
    32
  0
VERTEX
  5
1903F
  8
1
 62
     7
 10
707.00135213264969
 20
143.34839445139309
 30
0.0
 70
    32
  0
VERTEX
  5
19040
  8
1
 62
     7
 10
707.00435213264973
 20
143.3453944513933
 30
0.0
 70
    32
  0
VERTEX
  5
19041
  8
1
 62
     7
 10
707.00735213264954
 20
143.3423944513934
 30
0.0
 70
    32
  0
VERTEX
  5
19042
  8
1
 62
     7
 10
707.0103521326497
 20
143.33939445139299
 30
0.0
 70
    32
  0
VERTEX
  5
19043
  8
1
 62
     7
 10
707.01335213264974
 20
143.33639445139309
 30
0.0
 70
    32
  0
VERTEX
  5
19044
  8
1
 62
     7
 10
707.01635213264979
 20
143.33339445139291
 30
0.0
 70
    32
  0
VERTEX
  5
19045
  8
1
 62
     7
 10
707.01935213264994
 20
143.33039445139329
 30
0.0
 70
    32
  0
VERTEX
  5
19046
  8
1
 62
     7
 10
707.02235213264976
 20
143.32739445139299
 30
0.0
 70
    32
  0
VERTEX
  5
19047
  8
1
 62
     7
 10
707.02535213265003
 20
143.32439445139309
 30
0.0
 70
    32
  0
VERTEX
  5
19048
  8
1
 62
     7
 10
707.02935213265005
 20
143.32139445139319
 30
0.0
 70
    32
  0
VERTEX
  5
19049
  8
1
 62
     7
 10
707.0323521326502
 20
143.3183944513932
 30
0.0
 70
    32
  0
VERTEX
  5
1904A
  8
1
 62
     7
 10
707.03535213264956
 20
143.3153944513933
 30
0.0
 70
    32
  0
VERTEX
  5
1904B
  8
1
 62
     7
 10
707.03835213264972
 20
143.3133944513929
 30
0.0
 70
    32
  0
VERTEX
  5
1904C
  8
1
 62
     7
 10
707.0413521326501
 20
143.31039445139299
 30
0.0
 70
    32
  0
VERTEX
  5
1904D
  8
1
 62
     7
 10
707.04435213264958
 20
143.3073944513929
 30
0.0
 70
    32
  0
VERTEX
  5
1904E
  8
1
 62
     7
 10
707.0483521326496
 20
143.30439445139311
 30
0.0
 70
    32
  0
VERTEX
  5
1904F
  8
1
 62
     7
 10
707.05135213265032
 20
143.30139445139321
 30
0.0
 70
    32
  0
VERTEX
  5
19050
  8
1
 62
     7
 10
707.0543521326498
 20
143.29839445139319
 30
0.0
 70
    32
  0
VERTEX
  5
19051
  8
1
 62
     7
 10
707.05735213264973
 20
143.2963944513935
 30
0.0
 70
    32
  0
VERTEX
  5
19052
  8
1
 62
     7
 10
707.06135213264986
 20
143.29339445139291
 30
0.0
 70
    32
  0
VERTEX
  5
19053
  8
1
 62
     7
 10
707.06435213264967
 20
143.2903944513929
 30
0.0
 70
    32
  0
VERTEX
  5
19054
  8
1
 62
     7
 10
707.06735213264949
 20
143.2873944513934
 30
0.0
 70
    32
  0
VERTEX
  5
19055
  8
1
 62
     7
 10
707.07035213264999
 20
143.2853944513933
 30
0.0
 70
    32
  0
VERTEX
  5
19056
  8
1
 62
     7
 10
707.07435213265001
 20
143.28239445139309
 30
0.0
 70
    32
  0
VERTEX
  5
19057
  8
1
 62
     7
 10
707.07735213264971
 20
143.2793944513935
 30
0.0
 70
    32
  0
VERTEX
  5
19058
  8
1
 62
     7
 10
707.08035213264964
 20
143.27739445139309
 30
0.0
 70
    32
  0
VERTEX
  5
19059
  8
1
 62
     7
 10
707.08435213264966
 20
143.27439445139299
 30
0.0
 70
    32
  0
VERTEX
  5
1905A
  8
1
 62
     7
 10
707.08735213264981
 20
143.27139445139321
 30
0.0
 70
    32
  0
VERTEX
  5
1905B
  8
1
 62
     7
 10
707.09035213264974
 20
143.26939445139351
 30
0.0
 70
    32
  0
VERTEX
  5
1905C
  8
1
 62
     7
 10
707.09435213264965
 20
143.2663944513929
 30
0.0
 70
    32
  0
VERTEX
  5
1905D
  8
1
 62
     7
 10
707.09735213265003
 20
143.263394451393
 30
0.0
 70
    32
  0
VERTEX
  5
1905E
  8
1
 62
     7
 10
707.10035213264985
 20
143.26139445139319
 30
0.0
 70
    32
  0
VERTEX
  5
1905F
  8
1
 62
     7
 10
707.10435213264975
 20
143.25839445139329
 30
0.0
 70
    32
  0
VERTEX
  5
19060
  8
1
 62
     7
 10
707.10735213264945
 20
143.25639445139359
 30
0.0
 70
    32
  0
VERTEX
  5
19061
  8
1
 62
     7
 10
707.1113521326497
 20
143.25339445139329
 30
0.0
 70
    32
  0
VERTEX
  5
19062
  8
1
 62
     7
 10
707.11435213264986
 20
143.25039445139299
 30
0.0
 70
    32
  0
VERTEX
  5
19063
  8
1
 62
     7
 10
707.11735213264944
 20
143.2483944513933
 30
0.0
 70
    32
  0
VERTEX
  5
19064
  8
1
 62
     7
 10
707.12135213264958
 20
143.24539445139339
 30
0.0
 70
    32
  0
VERTEX
  5
19065
  8
1
 62
     7
 10
707.12435213264996
 20
143.2433944513929
 30
0.0
 70
    32
  0
VERTEX
  5
19066
  8
1
 62
     7
 10
707.12835213265032
 20
143.240394451393
 30
0.0
 70
    32
  0
VERTEX
  5
19067
  8
1
 62
     7
 10
707.13135213265002
 20
143.2383944513933
 30
0.0
 70
    32
  0
VERTEX
  5
19068
  8
1
 62
     7
 10
707.13535213264947
 20
143.23539445139301
 30
0.0
 70
    32
  0
VERTEX
  5
19069
  8
1
 62
     7
 10
707.13835213264974
 20
143.233394451393
 30
0.0
 70
    32
  0
VERTEX
  5
1906A
  8
1
 62
     7
 10
707.14235213264965
 20
143.2313944513933
 30
0.0
 70
    32
  0
VERTEX
  5
1906B
  8
1
 62
     7
 10
707.1453521326498
 20
143.22839445139331
 30
0.0
 70
    32
  0
VERTEX
  5
1906C
  8
1
 62
     7
 10
707.14935213264994
 20
143.22639445139291
 30
0.0
 70
    32
  0
VERTEX
  5
1906D
  8
1
 62
     7
 10
707.15235213264964
 20
143.22339445139301
 30
0.0
 70
    32
  0
VERTEX
  5
1906E
  8
1
 62
     7
 10
707.15635213265
 20
143.22139445139319
 30
0.0
 70
    32
  0
VERTEX
  5
1906F
  8
1
 62
     7
 10
707.16035213265013
 20
143.21939445139279
 30
0.0
 70
    32
  0
VERTEX
  5
19070
  8
1
 62
     7
 10
707.16335213264961
 20
143.21639445139289
 30
0.0
 70
    32
  0
VERTEX
  5
19071
  8
1
 62
     7
 10
707.16735213264974
 20
143.21439445139319
 30
0.0
 70
    32
  0
VERTEX
  5
19072
  8
1
 62
     7
 10
707.17035213264955
 20
143.2123944513931
 30
0.0
 70
    32
  0
VERTEX
  5
19073
  8
1
 62
     7
 10
707.17435213265003
 20
143.20939445139319
 30
0.0
 70
    32
  0
VERTEX
  5
19074
  8
1
 62
     7
 10
707.17835213265005
 20
143.2073944513931
 30
0.0
 70
    32
  0
VERTEX
  5
19075
  8
1
 62
     7
 10
707.18135213264975
 20
143.20539445139309
 30
0.0
 70
    32
  0
VERTEX
  5
19076
  8
1
 62
     7
 10
707.18535213264954
 20
143.203394451393
 30
0.0
 70
    32
  0
VERTEX
  5
19077
  8
1
 62
     7
 10
707.18935213264956
 20
143.20039445139309
 30
0.0
 70
    32
  0
VERTEX
  5
19078
  8
1
 62
     7
 10
707.19235213264983
 20
143.19839445139331
 30
0.0
 70
    32
  0
VERTEX
  5
19079
  8
1
 62
     7
 10
707.19635213265019
 20
143.19639445139291
 30
0.0
 70
    32
  0
VERTEX
  5
1907A
  8
1
 62
     7
 10
707.20035213264987
 20
143.19439445139321
 30
0.0
 70
    32
  0
VERTEX
  5
1907B
  8
1
 62
     7
 10
707.20335213264946
 20
143.19239445139351
 30
0.0
 70
    32
  0
VERTEX
  5
1907C
  8
1
 62
     7
 10
707.2073521326497
 20
143.1903944513931
 30
0.0
 70
    32
  0
VERTEX
  5
1907D
  8
1
 62
     7
 10
707.21135213264972
 20
143.18839445139329
 30
0.0
 70
    32
  0
VERTEX
  5
1907E
  8
1
 62
     7
 10
707.21435213264965
 20
143.18539445139311
 30
0.0
 70
    32
  0
VERTEX
  5
1907F
  8
1
 62
     7
 10
707.21835213264956
 20
143.18339445139341
 30
0.0
 70
    32
  0
VERTEX
  5
19080
  8
1
 62
     7
 10
707.2223521326498
 20
143.181394451393
 30
0.0
 70
    32
  0
VERTEX
  5
19081
  8
1
 62
     7
 10
707.22635213265005
 20
143.17939445139291
 30
0.0
 70
    32
  0
VERTEX
  5
19082
  8
1
 62
     7
 10
707.22935213264964
 20
143.17739445139321
 30
0.0
 70
    32
  0
VERTEX
  5
19083
  8
1
 62
     7
 10
707.23335213264977
 20
143.17539445139309
 30
0.0
 70
    32
  0
VERTEX
  5
19084
  8
1
 62
     7
 10
707.23735213265013
 20
143.17339445139299
 30
0.0
 70
    32
  0
VERTEX
  5
19085
  8
1
 62
     7
 10
707.24135213264981
 20
143.1713944513933
 30
0.0
 70
    32
  0
VERTEX
  5
19086
  8
1
 62
     7
 10
707.2453521326496
 20
143.16939445139289
 30
0.0
 70
    32
  0
VERTEX
  5
19087
  8
1
 62
     7
 10
707.24835213264964
 20
143.168394451393
 30
0.0
 70
    32
  0
VERTEX
  5
19088
  8
1
 62
     7
 10
707.25235213264955
 20
143.16639445139299
 30
0.0
 70
    32
  0
VERTEX
  5
19089
  8
1
 62
     7
 10
707.25635213265002
 20
143.16439445139309
 30
0.0
 70
    32
  0
VERTEX
  5
1908A
  8
1
 62
     7
 10
707.26035213265004
 20
143.1623944513932
 30
0.0
 70
    32
  0
VERTEX
  5
1908B
  8
1
 62
     7
 10
707.26435213265029
 20
143.1603944513931
 30
0.0
 70
    32
  0
VERTEX
  5
1908C
  8
1
 62
     7
 10
707.26835213264985
 20
143.15839445139301
 30
0.0
 70
    32
  0
VERTEX
  5
1908D
  8
1
 62
     7
 10
707.27235213264998
 20
143.15739445139309
 30
0.0
 70
    32
  0
VERTEX
  5
1908E
  8
1
 62
     7
 10
707.27535213264969
 20
143.15539445139339
 30
0.0
 70
    32
  0
VERTEX
  5
1908F
  8
1
 62
     7
 10
707.27935213264971
 20
143.1533944513931
 30
0.0
 70
    32
  0
VERTEX
  5
19090
  8
1
 62
     7
 10
707.28335213264984
 20
143.15139445139329
 30
0.0
 70
    32
  0
VERTEX
  5
19091
  8
1
 62
     7
 10
707.28735213264974
 20
143.15039445139311
 30
0.0
 70
    32
  0
VERTEX
  5
19092
  8
1
 62
     7
 10
707.29135213265033
 20
143.14839445139339
 30
0.0
 70
    32
  0
VERTEX
  5
19093
  8
1
 62
     7
 10
707.29535213264955
 20
143.14639445139301
 30
0.0
 70
    32
  0
VERTEX
  5
19094
  8
1
 62
     7
 10
707.29935213264969
 20
143.14539445139309
 30
0.0
 70
    32
  0
VERTEX
  5
19095
  8
1
 62
     7
 10
707.30335213265005
 20
143.14339445139311
 30
0.0
 70
    32
  0
VERTEX
  5
19096
  8
1
 62
     7
 10
707.30735213264927
 20
143.14139445139301
 30
0.0
 70
    32
  0
VERTEX
  5
19097
  8
1
 62
     7
 10
707.31135213264974
 20
143.14039445139309
 30
0.0
 70
    32
  0
VERTEX
  5
19098
  8
1
 62
     7
 10
707.31535213264965
 20
143.1383944513934
 30
0.0
 70
    32
  0
VERTEX
  5
19099
  8
1
 62
     7
 10
707.3193521326499
 20
143.13739445139319
 30
0.0
 70
    32
  0
VERTEX
  5
1909A
  8
1
 62
     7
 10
707.32335213265003
 20
143.1353944513931
 30
0.0
 70
    32
  0
VERTEX
  5
1909B
  8
1
 62
     7
 10
707.32735213265005
 20
143.13439445139329
 30
0.0
 70
    32
  0
VERTEX
  5
1909C
  8
1
 62
     7
 10
707.33135213264984
 20
143.13239445139291
 30
0.0
 70
    32
  0
VERTEX
  5
1909D
  8
1
 62
     7
 10
707.33535213264997
 20
143.13139445139331
 30
0.0
 70
    32
  0
VERTEX
  5
1909E
  8
1
 62
     7
 10
707.33935213264954
 20
143.1303944513931
 30
0.0
 70
    32
  0
VERTEX
  5
1909F
  8
1
 62
     7
 10
707.34335213264967
 20
143.1283944513934
 30
0.0
 70
    32
  0
VERTEX
  5
190A0
  8
1
 62
     7
 10
707.34735213264969
 20
143.12739445139309
 30
0.0
 70
    32
  0
VERTEX
  5
190A1
  8
1
 62
     7
 10
707.35135213264959
 20
143.126394451393
 30
0.0
 70
    32
  0
VERTEX
  5
190A2
  8
1
 62
     7
 10
707.35535213264984
 20
143.1243944513933
 30
0.0
 70
    32
  0
VERTEX
  5
190A3
  8
1
 62
     7
 10
707.35935213265009
 20
143.1233944513927
 30
0.0
 70
    32
  0
VERTEX
  5
190A4
  8
1
 62
     7
 10
707.36335213264999
 20
143.12239445139321
 30
0.0
 70
    32
  0
VERTEX
  5
190A5
  8
1
 62
     7
 10
707.3683521326501
 20
143.1213944513934
 30
0.0
 70
    32
  0
VERTEX
  5
190A6
  8
1
 62
     7
 10
707.37235213264955
 20
143.12039445139311
 30
0.0
 70
    32
  0
VERTEX
  5
190A7
  8
1
 62
     7
 10
707.37635213264969
 20
143.1183944513931
 30
0.0
 70
    32
  0
VERTEX
  5
190A8
  8
1
 62
     7
 10
707.38035213265005
 20
143.11739445139321
 30
0.0
 70
    32
  0
VERTEX
  5
190A9
  8
1
 62
     7
 10
707.38435213264938
 20
143.11639445139301
 30
0.0
 70
    32
  0
VERTEX
  5
190AA
  8
1
 62
     7
 10
707.38835213264974
 20
143.11539445139351
 30
0.0
 70
    32
  0
VERTEX
  5
190AB
  8
1
 62
     7
 10
707.39235213264965
 20
143.11439445139291
 30
0.0
 70
    32
  0
VERTEX
  5
190AC
  8
1
 62
     7
 10
707.39635213264989
 20
143.11339445139311
 30
0.0
 70
    32
  0
VERTEX
  5
190AD
  8
1
 62
     7
 10
707.40135213264955
 20
143.1123944513929
 30
0.0
 70
    32
  0
VERTEX
  5
190AE
  8
1
 62
     7
 10
707.40535213265002
 20
143.11139445139341
 30
0.0
 70
    32
  0
VERTEX
  5
190AF
  8
1
 62
     7
 10
707.40935213265004
 20
143.1103944513932
 30
0.0
 70
    32
  0
VERTEX
  5
190B0
  8
1
 62
     7
 10
707.41335213264983
 20
143.10939445139289
 30
0.0
 70
    32
  0
VERTEX
  5
190B1
  8
1
 62
     7
 10
707.41735213264997
 20
143.10839445139311
 30
0.0
 70
    32
  0
VERTEX
  5
190B2
  8
1
 62
     7
 10
707.42135213264964
 20
143.10739445139319
 30
0.0
 70
    32
  0
VERTEX
  5
190B3
  8
1
 62
     7
 10
707.42635213265009
 20
143.10739445139319
 30
0.0
 70
    32
  0
VERTEX
  5
190B4
  8
1
 62
     7
 10
707.43035213264977
 20
143.10639445139299
 30
0.0
 70
    32
  0
VERTEX
  5
190B5
  8
1
 62
     7
 10
707.43435213264934
 20
143.10539445139281
 30
0.0
 70
    32
  0
VERTEX
  5
190B6
  8
1
 62
     7
 10
707.43835213264958
 20
143.10439445139329
 30
0.0
 70
    32
  0
VERTEX
  5
190B7
  8
1
 62
     7
 10
707.4423521326496
 20
143.10339445139309
 30
0.0
 70
    32
  0
VERTEX
  5
190B8
  8
1
 62
     7
 10
707.4473521326496
 20
143.10339445139309
 30
0.0
 70
    32
  0
VERTEX
  5
190B9
  8
1
 62
     7
 10
707.45135213264973
 20
143.10239445139291
 30
0.0
 70
    32
  0
VERTEX
  5
190BA
  8
1
 62
     7
 10
707.45535213264998
 20
143.1013944513933
 30
0.0
 70
    32
  0
VERTEX
  5
190BB
  8
1
 62
     7
 10
707.45935213265
 20
143.1013944513933
 30
0.0
 70
    32
  0
VERTEX
  5
190BC
  8
1
 62
     7
 10
707.46435213264999
 20
143.10039445139321
 30
0.0
 70
    32
  0
VERTEX
  5
190BD
  8
1
 62
     7
 10
707.46835213264956
 20
143.09939445139301
 30
0.0
 70
    32
  0
VERTEX
  5
190BE
  8
1
 62
     7
 10
707.47235213264969
 20
143.09939445139301
 30
0.0
 70
    32
  0
VERTEX
  5
190BF
  8
1
 62
     7
 10
707.47635213265005
 20
143.09839445139309
 30
0.0
 70
    32
  0
VERTEX
  5
190C0
  8
1
 62
     7
 10
707.48135213265004
 20
143.09839445139309
 30
0.0
 70
    32
  0
VERTEX
  5
190C1
  8
1
 62
     7
 10
707.48535213264984
 20
143.09739445139309
 30
0.0
 70
    32
  0
VERTEX
  5
190C2
  8
1
 62
     7
 10
707.48935213264986
 20
143.09739445139309
 30
0.0
 70
    32
  0
VERTEX
  5
190C3
  8
1
 62
     7
 10
707.49335213264965
 20
143.096394451393
 30
0.0
 70
    32
  0
VERTEX
  5
190C4
  8
1
 62
     7
 10
707.49835213264964
 20
143.096394451393
 30
0.0
 70
    32
  0
VERTEX
  5
190C5
  8
1
 62
     7
 10
707.50235213264955
 20
143.096394451393
 30
0.0
 70
    32
  0
VERTEX
  5
190C6
  8
1
 62
     7
 10
707.50635213264957
 20
143.09539445139319
 30
0.0
 70
    32
  0
VERTEX
  5
190C7
  8
1
 62
     7
 10
707.5103521326497
 20
143.09539445139319
 30
0.0
 70
    32
  0
VERTEX
  5
190C8
  8
1
 62
     7
 10
707.51535213264958
 20
143.09539445139319
 30
0.0
 70
    32
  0
VERTEX
  5
190C9
  8
1
 62
     7
 10
707.51935213264971
 20
143.09539445139319
 30
0.0
 70
    32
  0
VERTEX
  5
190CA
  8
1
 62
     7
 10
707.52335213264973
 20
143.0943944513933
 30
0.0
 70
    32
  0
VERTEX
  5
190CB
  8
1
 62
     7
 10
707.52735213264964
 20
143.0943944513933
 30
0.0
 70
    32
  0
VERTEX
  5
190CC
  8
1
 62
     7
 10
707.53235213264998
 20
143.0943944513933
 30
0.0
 70
    32
  0
VERTEX
  5
190CD
  8
1
 62
     7
 10
707.53635213264999
 20
143.0943944513933
 30
0.0
 70
    32
  0
VERTEX
  5
190CE
  8
1
 62
     7
 10
707.54035213264967
 20
143.0943944513933
 30
0.0
 70
    32
  0
VERTEX
  5
190CF
  8
1
 62
     7
 10
707.54535213264967
 20
143.0943944513933
 30
0.0
 70
    32
  0
VERTEX
  5
190D0
  8
1
 62
     7
 10
707.5493521326498
 20
143.0943944513933
 30
0.0
 70
    32
  0
VERTEX
  5
190D1
  8
1
 62
     7
 10
707.55335213264971
 20
143.0943944513933
 30
0.0
 70
    32
  0
VERTEX
  5
190D2
  8
1
 62
     7
 10
707.55735213264984
 20
143.0943944513933
 30
0.0
 70
    32
  0
VERTEX
  5
190D3
  8
1
 62
     7
 10
707.56235213264983
 20
143.0943944513933
 30
0.0
 70
    32
  0
VERTEX
  5
190D4
  8
1
 62
     7
 10
707.56635213264985
 20
143.09539445139319
 30
0.0
 70
    32
  0
VERTEX
  5
190D5
  8
1
 62
     7
 10
707.57035213264987
 20
143.09539445139319
 30
0.0
 70
    32
  0
VERTEX
  5
190D6
  8
1
 62
     7
 10
707.57435213264955
 20
143.09539445139319
 30
0.0
 70
    32
  0
VERTEX
  5
190D7
  8
1
 62
     7
 10
707.57935213264955
 20
143.09539445139319
 30
0.0
 70
    32
  0
VERTEX
  5
190D8
  8
1
 62
     7
 10
707.58335213264957
 20
143.096394451393
 30
0.0
 70
    32
  0
VERTEX
  5
190D9
  8
1
 62
     7
 10
707.5873521326497
 20
143.096394451393
 30
0.0
 70
    32
  0
VERTEX
  5
190DA
  8
1
 62
     7
 10
707.59135213264983
 20
143.096394451393
 30
0.0
 70
    32
  0
VERTEX
  5
190DB
  8
1
 62
     7
 10
707.59635213264971
 20
143.09739445139309
 30
0.0
 70
    32
  0
VERTEX
  5
190DC
  8
1
 62
     7
 10
707.60035213264973
 20
143.09739445139309
 30
0.0
 70
    32
  0
VERTEX
  5
190DD
  8
1
 62
     7
 10
707.60435213264964
 20
143.09739445139309
 30
0.0
 70
    32
  0
VERTEX
  5
190DE
  8
1
 62
     7
 10
707.60835213265011
 20
143.09839445139309
 30
0.0
 70
    32
  0
VERTEX
  5
190DF
  8
1
 62
     7
 10
707.61335213264977
 20
143.09839445139309
 30
0.0
 70
    32
  0
VERTEX
  5
190E0
  8
1
 62
     7
 10
707.61735213264978
 20
143.09939445139301
 30
0.0
 70
    32
  0
VERTEX
  5
190E1
  8
1
 62
     7
 10
707.6213521326498
 20
143.09939445139301
 30
0.0
 70
    32
  0
VERTEX
  5
190E2
  8
1
 62
     7
 10
707.6253521326496
 20
143.10039445139321
 30
0.0
 70
    32
  0
VERTEX
  5
190E3
  8
1
 62
     7
 10
707.63035213264959
 20
143.10039445139321
 30
0.0
 70
    32
  0
VERTEX
  5
190E4
  8
1
 62
     7
 10
707.63435213264984
 20
143.1013944513933
 30
0.0
 70
    32
  0
VERTEX
  5
190E5
  8
1
 62
     7
 10
707.63835213264997
 20
143.1013944513933
 30
0.0
 70
    32
  0
VERTEX
  5
190E6
  8
1
 62
     7
 10
707.64235213264965
 20
143.10239445139291
 30
0.0
 70
    32
  0
VERTEX
  5
190E7
  8
1
 62
     7
 10
707.64735213264964
 20
143.10239445139291
 30
0.0
 70
    32
  0
VERTEX
  5
190E8
  8
1
 62
     7
 10
707.65135213264955
 20
143.10339445139309
 30
0.0
 70
    32
  0
VERTEX
  5
190E9
  8
1
 62
     7
 10
707.65535213264968
 20
143.10339445139309
 30
0.0
 70
    32
  0
VERTEX
  5
190EA
  8
1
 62
     7
 10
707.65935213264981
 20
143.10439445139329
 30
0.0
 70
    32
  0
SEQEND
  5
190EB
  8
1
 62
     7
  0
ARC
  5
190EC
  8
1
  6
CONTINUOUS
 62
     7
 10
698.52976693569235
 20
145.59444151646699
 30
0.0
 40
2.4999999999999991
 50
180.0
 51
270.0
  0
LINE
  5
190ED
  8
1
  6
CONTINUOUS
 62
     7
 10
694.42976693569301
 20
143.09444151646721
 30
0.0
 11
698.52976693569235
 21
143.09444151646721
 31
0.0
  0
ARC
  5
190EE
  8
1
  6
CONTINUOUS
 62
     7
 10
694.42976693569301
 20
143.5944415164671
 30
0.0
 40
0.5
 50
180.0
 51
270.0
  0
LINE
  5
190EF
  8
1
  6
CONTINUOUS
 62
     7
 10
704.84976693569308
 20
156.09444151646699
 30
0.0
 11
696.02976693569258
 21
154.6294415164673
 31
0.0
  0
LINE
  5
190F0
  8
1
  6
CONTINUOUS
 62
     7
 10
705.42976693569415
 20
160.0944415164671
 30
0.0
 11
693.92976693569426
 21
160.0944415164671
 31
0.0
  0
LINE
  5
190F1
  8
AM_0
 10
699.94802202461858
 20
184.08456151647161
 30
0.0
 11
716.79687202461855
 21
184.08456151647161
 31
0.0
  0
LINE
  5
190F2
  8
1
  6
CONTINUOUS
 62
     7
 10
711.02976693569599
 20
177.09444151646699
 30
0.0
 11
705.42976693569415
 21
177.09444151646699
 31
0.0
  0
LINE
  5
190F3
  8
AM_0
 10
696.42977456508709
 20
177.10714151647159
 30
0.0
 11
696.42977456508709
 21
179.6071415164719
 31
0.0
  0
LINE
  5
190F4
  8
1
  6
CONTINUOUS
 62
     7
 10
703.8297669356956
 20
177.09444151646699
 30
0.0
 11
694.9297669356946
 21
177.09444151646699
 31
0.0
  0
ARC
  5
190F5
  8
1
  6
CONTINUOUS
 62
     7
 10
694.9297669356946
 20
176.0944415164671
 30
0.0
 40
0.9999999999998864
 50
90.0
 51
180.0
  0
ARC
  5
190F6
  8
1
  6
CONTINUOUS
 62
     7
 10
704.42976693569415
 20
176.0944415164671
 30
0.0
 40
0.9999999999999998
 50
0.0
 51
90.0
  0
LINE
  5
190F7
  8
1
  6
CONTINUOUS
 62
     7
 10
705.42976693569415
 20
177.09444151646699
 30
0.0
 11
704.42976693569415
 21
177.09444151646699
 31
0.0
  0
LINE
  5
190F8
  8
1
  6
CONTINUOUS
 62
     7
 10
704.42976693569415
 20
177.09444151646699
 30
0.0
 11
703.8297669356956
 21
177.09444151646699
 31
0.0
  0
LINE
  5
190F9
  8
1
  6
CONTINUOUS
 62
     7
 10
754.42976693569426
 20
176.0944415164671
 30
0.0
 11
754.42976693569426
 21
160.0944415164671
 31
0.0
  0
LINE
  5
190FA
  8
1
  6
CONTINUOUS
 62
     7
 10
765.92976693569426
 20
143.5944415164671
 30
0.0
 11
765.92976693569426
 21
176.0944415164671
 31
0.0
  0
LINE
  5
190FB
  8
1
  6
CONTINUOUS
 62
     7
 10
735.42976693569301
 20
170.37765507623899
 30
0.0
 11
735.42976693569301
 21
156.0944415164673
 31
0.0
  0
LINE
  5
190FC
  8
1
  6
CONTINUOUS
 62
     7
 10
724.42976693569256
 20
156.0944415164673
 30
0.0
 11
724.42976693569256
 21
170.37765507623899
 31
0.0
  0
LINE
  5
190FD
  8
1
  6
CONTINUOUS
 62
     7
 10
735.42976693569301
 20
160.0944415164671
 30
0.0
 11
765.9297669356929
 21
160.0944415164671
 31
0.0
  0
LINE
  5
190FE
  8
1
  6
CONTINUOUS
 62
     7
 10
755.00976693569305
 20
156.09444151646699
 30
0.0
 11
763.82976693569231
 21
154.6294415164673
 31
0.0
  0
LINE
  5
190FF
  8
1
  6
CONTINUOUS
 62
     7
 10
765.92976693569426
 20
160.0944415164671
 30
0.0
 11
754.42976693569426
 21
160.0944415164671
 31
0.0
  0
LINE
  5
19100
  8
1
  6
CONTINUOUS
 62
     7
 10
753.55991845470942
 20
156.09444151646699
 30
0.0
 11
753.55991845470942
 21
145.59444151646699
 31
0.0
  0
POLYLINE
  5
19101
  8
1
 62
     7
 66
     1
 10
0.0
 20
0.0
 30
0.0
 70
     8
  0
VERTEX
  5
19102
  8
1
 62
     7
 10
752.41995213264966
 20
143.10439445139329
 30
0.0
 70
    32
  0
VERTEX
  5
19103
  8
1
 62
     7
 10
752.42415213265008
 20
143.10539445139281
 30
0.0
 70
    32
  0
VERTEX
  5
19104
  8
1
 62
     7
 10
752.42845213264968
 20
143.10639445139299
 30
0.0
 70
    32
  0
VERTEX
  5
19105
  8
1
 62
     7
 10
752.43265213264954
 20
143.10739445139319
 30
0.0
 70
    32
  0
VERTEX
  5
19106
  8
1
 62
     7
 10
752.43695213264937
 20
143.10839445139311
 30
0.0
 70
    32
  0
VERTEX
  5
19107
  8
1
 62
     7
 10
752.44115213264979
 20
143.10939445139289
 30
0.0
 70
    32
  0
VERTEX
  5
19108
  8
1
 62
     7
 10
752.44545213264985
 20
143.1103944513932
 30
0.0
 70
    32
  0
VERTEX
  5
19109
  8
1
 62
     7
 10
752.4496521326497
 20
143.11139445139341
 30
0.0
 70
    32
  0
VERTEX
  5
1910A
  8
1
 62
     7
 10
752.45385213264979
 20
143.1123944513929
 30
0.0
 70
    32
  0
VERTEX
  5
1910B
  8
1
 62
     7
 10
752.45815213264973
 20
143.11339445139311
 30
0.0
 70
    32
  0
VERTEX
  5
1910C
  8
1
 62
     7
 10
752.46235213265004
 20
143.11439445139291
 30
0.0
 70
    32
  0
VERTEX
  5
1910D
  8
1
 62
     7
 10
752.46655213264989
 20
143.11539445139351
 30
0.0
 70
    32
  0
VERTEX
  5
1910E
  8
1
 62
     7
 10
752.47085213264984
 20
143.11639445139301
 30
0.0
 70
    32
  0
VERTEX
  5
1910F
  8
1
 62
     7
 10
752.47505213265003
 20
143.11739445139321
 30
0.0
 70
    32
  0
VERTEX
  5
19110
  8
1
 62
     7
 10
752.47925213264955
 20
143.1183944513931
 30
0.0
 70
    32
  0
VERTEX
  5
19111
  8
1
 62
     7
 10
752.48345213264952
 20
143.11939445139291
 30
0.0
 70
    32
  0
VERTEX
  5
19112
  8
1
 62
     7
 10
752.48765213264971
 20
143.12039445139311
 30
0.0
 70
    32
  0
VERTEX
  5
19113
  8
1
 62
     7
 10
752.49185213264968
 20
143.12239445139321
 30
0.0
 70
    32
  0
VERTEX
  5
19114
  8
1
 62
     7
 10
752.49605213264954
 20
143.1233944513927
 30
0.0
 70
    32
  0
VERTEX
  5
19115
  8
1
 62
     7
 10
752.5001521326501
 20
143.1243944513933
 30
0.0
 70
    32
  0
VERTEX
  5
19116
  8
1
 62
     7
 10
752.50435213264984
 20
143.1253944513935
 30
0.0
 70
    32
  0
VERTEX
  5
19117
  8
1
 62
     7
 10
752.5085521326497
 20
143.126394451393
 30
0.0
 70
    32
  0
VERTEX
  5
19118
  8
1
 62
     7
 10
752.51265213264946
 20
143.1283944513934
 30
0.0
 70
    32
  0
VERTEX
  5
19119
  8
1
 62
     7
 10
752.51685213265034
 20
143.1293944513933
 30
0.0
 70
    32
  0
VERTEX
  5
1911A
  8
1
 62
     7
 10
752.52095213264965
 20
143.1303944513931
 30
0.0
 70
    32
  0
VERTEX
  5
1911B
  8
1
 62
     7
 10
752.52505213264953
 20
143.13239445139291
 30
0.0
 70
    32
  0
VERTEX
  5
1911C
  8
1
 62
     7
 10
752.52915213264964
 20
143.1333944513934
 30
0.0
 70
    32
  0
VERTEX
  5
1911D
  8
1
 62
     7
 10
752.53335213264995
 20
143.13439445139329
 30
0.0
 70
    32
  0
VERTEX
  5
1911E
  8
1
 62
     7
 10
752.53735213264974
 20
143.13639445139299
 30
0.0
 70
    32
  0
VERTEX
  5
1911F
  8
1
 62
     7
 10
752.54145213264951
 20
143.13739445139319
 30
0.0
 70
    32
  0
VERTEX
  5
19120
  8
1
 62
     7
 10
752.54555213264973
 20
143.13939445139289
 30
0.0
 70
    32
  0
VERTEX
  5
19121
  8
1
 62
     7
 10
752.54965213264973
 20
143.14039445139309
 30
0.0
 70
    32
  0
VERTEX
  5
19122
  8
1
 62
     7
 10
752.55365213264974
 20
143.1423944513935
 30
0.0
 70
    32
  0
VERTEX
  5
19123
  8
1
 62
     7
 10
752.55775213264974
 20
143.14339445139311
 30
0.0
 70
    32
  0
VERTEX
  5
19124
  8
1
 62
     7
 10
752.56175213264964
 20
143.14539445139309
 30
0.0
 70
    32
  0
VERTEX
  5
19125
  8
1
 62
     7
 10
752.56575213264955
 20
143.14739445139321
 30
0.0
 70
    32
  0
VERTEX
  5
19126
  8
1
 62
     7
 10
752.5697521326498
 20
143.14839445139339
 30
0.0
 70
    32
  0
VERTEX
  5
19127
  8
1
 62
     7
 10
752.57375213265004
 20
143.15039445139311
 30
0.0
 70
    32
  0
VERTEX
  5
19128
  8
1
 62
     7
 10
752.57775213265006
 20
143.15239445139321
 30
0.0
 70
    32
  0
VERTEX
  5
19129
  8
1
 62
     7
 10
752.58175213265008
 20
143.1543944513933
 30
0.0
 70
    32
  0
VERTEX
  5
1912A
  8
1
 62
     7
 10
752.58565213265035
 20
143.15539445139339
 30
0.0
 70
    32
  0
VERTEX
  5
1912B
  8
1
 62
     7
 10
752.58965213264969
 20
143.15739445139309
 30
0.0
 70
    32
  0
VERTEX
  5
1912C
  8
1
 62
     7
 10
752.59355213264973
 20
143.1593944513929
 30
0.0
 70
    32
  0
VERTEX
  5
1912D
  8
1
 62
     7
 10
752.59755213264998
 20
143.16139445139331
 30
0.0
 70
    32
  0
VERTEX
  5
1912E
  8
1
 62
     7
 10
752.6014521326498
 20
143.163394451393
 30
0.0
 70
    32
  0
VERTEX
  5
1912F
  8
1
 62
     7
 10
752.60535213264973
 20
143.16539445139341
 30
0.0
 70
    32
  0
VERTEX
  5
19130
  8
1
 62
     7
 10
752.60925213265034
 20
143.16739445139319
 30
0.0
 70
    32
  0
VERTEX
  5
19131
  8
1
 62
     7
 10
752.6131521326497
 20
143.16939445139289
 30
0.0
 70
    32
  0
VERTEX
  5
19132
  8
1
 62
     7
 10
752.61705213264963
 20
143.1713944513933
 30
0.0
 70
    32
  0
VERTEX
  5
19133
  8
1
 62
     7
 10
752.62095213264968
 20
143.17339445139299
 30
0.0
 70
    32
  0
VERTEX
  5
19134
  8
1
 62
     7
 10
752.62475213264975
 20
143.17539445139309
 30
0.0
 70
    32
  0
VERTEX
  5
19135
  8
1
 62
     7
 10
752.62865213264979
 20
143.17739445139321
 30
0.0
 70
    32
  0
VERTEX
  5
19136
  8
1
 62
     7
 10
752.63245213264963
 20
143.17939445139291
 30
0.0
 70
    32
  0
VERTEX
  5
19137
  8
1
 62
     7
 10
752.6362521326497
 20
143.181394451393
 30
0.0
 70
    32
  0
VERTEX
  5
19138
  8
1
 62
     7
 10
752.64015213264952
 20
143.18339445139341
 30
0.0
 70
    32
  0
VERTEX
  5
19139
  8
1
 62
     7
 10
752.64395213265016
 20
143.18539445139311
 30
0.0
 70
    32
  0
VERTEX
  5
1913A
  8
1
 62
     7
 10
752.64775213264988
 20
143.18739445139309
 30
0.0
 70
    32
  0
VERTEX
  5
1913B
  8
1
 62
     7
 10
752.65145213264987
 20
143.18939445139321
 30
0.0
 70
    32
  0
VERTEX
  5
1913C
  8
1
 62
     7
 10
752.65525213265005
 20
143.19139445139331
 30
0.0
 70
    32
  0
VERTEX
  5
1913D
  8
1
 62
     7
 10
752.65905213264955
 20
143.19439445139321
 30
0.0
 70
    32
  0
VERTEX
  5
1913E
  8
1
 62
     7
 10
752.66275213264964
 20
143.19639445139291
 30
0.0
 70
    32
  0
VERTEX
  5
1913F
  8
1
 62
     7
 10
752.66655213264971
 20
143.19839445139331
 30
0.0
 70
    32
  0
VERTEX
  5
19140
  8
1
 62
     7
 10
752.67025213264958
 20
143.20039445139309
 30
0.0
 70
    32
  0
VERTEX
  5
19141
  8
1
 62
     7
 10
752.67395213264967
 20
143.203394451393
 30
0.0
 70
    32
  0
VERTEX
  5
19142
  8
1
 62
     7
 10
752.67775213264974
 20
143.20539445139309
 30
0.0
 70
    32
  0
VERTEX
  5
19143
  8
1
 62
     7
 10
752.68145213264972
 20
143.2073944513931
 30
0.0
 70
    32
  0
VERTEX
  5
19144
  8
1
 62
     7
 10
752.68505213264973
 20
143.20939445139319
 30
0.0
 70
    32
  0
VERTEX
  5
19145
  8
1
 62
     7
 10
752.6887521326496
 20
143.2123944513931
 30
0.0
 70
    32
  0
VERTEX
  5
19146
  8
1
 62
     7
 10
752.69245213264958
 20
143.21439445139319
 30
0.0
 70
    32
  0
VERTEX
  5
19147
  8
1
 62
     7
 10
752.6960521326497
 20
143.21639445139289
 30
0.0
 70
    32
  0
VERTEX
  5
19148
  8
1
 62
     7
 10
752.69975213264979
 20
143.21939445139279
 30
0.0
 70
    32
  0
VERTEX
  5
19149
  8
1
 62
     7
 10
752.70335213265002
 20
143.22139445139319
 30
0.0
 70
    32
  0
VERTEX
  5
1914A
  8
1
 62
     7
 10
752.70705213264955
 20
143.22439445139321
 30
0.0
 70
    32
  0
VERTEX
  5
1914B
  8
1
 62
     7
 10
752.71065213265001
 20
143.22639445139291
 30
0.0
 70
    32
  0
VERTEX
  5
1914C
  8
1
 62
     7
 10
752.71425213265002
 20
143.22839445139331
 30
0.0
 70
    32
  0
VERTEX
  5
1914D
  8
1
 62
     7
 10
752.71785213264957
 20
143.2313944513933
 30
0.0
 70
    32
  0
VERTEX
  5
1914E
  8
1
 62
     7
 10
752.72135213264994
 20
143.233394451393
 30
0.0
 70
    32
  0
VERTEX
  5
1914F
  8
1
 62
     7
 10
752.72495213264995
 20
143.2363944513929
 30
0.0
 70
    32
  0
VERTEX
  5
19150
  8
1
 62
     7
 10
752.72855213264972
 20
143.2383944513933
 30
0.0
 70
    32
  0
VERTEX
  5
19151
  8
1
 62
     7
 10
752.73205213264964
 20
143.24139445139321
 30
0.0
 70
    32
  0
VERTEX
  5
19152
  8
1
 62
     7
 10
752.73555213264956
 20
143.2433944513929
 30
0.0
 70
    32
  0
VERTEX
  5
19153
  8
1
 62
     7
 10
752.7390521326497
 20
143.24639445139289
 30
0.0
 70
    32
  0
VERTEX
  5
19154
  8
1
 62
     7
 10
752.74265213264982
 20
143.24939445139319
 30
0.0
 70
    32
  0
VERTEX
  5
19155
  8
1
 62
     7
 10
752.74605213264977
 20
143.2513944513932
 30
0.0
 70
    32
  0
VERTEX
  5
19156
  8
1
 62
     7
 10
752.74955213265002
 20
143.25439445139321
 30
0.0
 70
    32
  0
VERTEX
  5
19157
  8
1
 62
     7
 10
752.75305213264971
 20
143.25639445139359
 30
0.0
 70
    32
  0
VERTEX
  5
19158
  8
1
 62
     7
 10
752.75655213264974
 20
143.25939445139309
 30
0.0
 70
    32
  0
VERTEX
  5
19159
  8
1
 62
     7
 10
752.75995213264969
 20
143.26239445139311
 30
0.0
 70
    32
  0
VERTEX
  5
1915A
  8
1
 62
     7
 10
752.76345213264972
 20
143.2643944513932
 30
0.0
 70
    32
  0
VERTEX
  5
1915B
  8
1
 62
     7
 10
752.76685213265034
 20
143.2673944513931
 30
0.0
 70
    32
  0
VERTEX
  5
1915C
  8
1
 62
     7
 10
752.77025213264972
 20
143.270394451393
 30
0.0
 70
    32
  0
VERTEX
  5
1915D
  8
1
 62
     7
 10
752.77365213264989
 20
143.2723944513931
 30
0.0
 70
    32
  0
VERTEX
  5
1915E
  8
1
 62
     7
 10
752.77705213264983
 20
143.27539445139331
 30
0.0
 70
    32
  0
VERTEX
  5
1915F
  8
1
 62
     7
 10
752.78045213264988
 20
143.2783944513933
 30
0.0
 70
    32
  0
VERTEX
  5
19160
  8
1
 62
     7
 10
752.78375213264974
 20
143.2813944513932
 30
0.0
 70
    32
  0
VERTEX
  5
19161
  8
1
 62
     7
 10
752.78715213264968
 20
143.28339445139329
 30
0.0
 70
    32
  0
VERTEX
  5
19162
  8
1
 62
     7
 10
752.79045213264965
 20
143.28639445139291
 30
0.0
 70
    32
  0
VERTEX
  5
19163
  8
1
 62
     7
 10
752.7938521326497
 20
143.28939445139309
 30
0.0
 70
    32
  0
VERTEX
  5
19164
  8
1
 62
     7
 10
752.79715213264979
 20
143.29239445139339
 30
0.0
 70
    32
  0
VERTEX
  5
19165
  8
1
 62
     7
 10
752.80045213264953
 20
143.29439445139309
 30
0.0
 70
    32
  0
VERTEX
  5
19166
  8
1
 62
     7
 10
752.80375213264961
 20
143.29739445139299
 30
0.0
 70
    32
  0
VERTEX
  5
19167
  8
1
 62
     7
 10
752.80705213265014
 20
143.300394451393
 30
0.0
 70
    32
  0
VERTEX
  5
19168
  8
1
 62
     7
 10
752.81035213264954
 20
143.3033944513929
 30
0.0
 70
    32
  0
VERTEX
  5
19169
  8
1
 62
     7
 10
752.81365213265008
 20
143.30639445139309
 30
0.0
 70
    32
  0
VERTEX
  5
1916A
  8
1
 62
     7
 10
752.81685213265007
 20
143.3093944513931
 30
0.0
 70
    32
  0
VERTEX
  5
1916B
  8
1
 62
     7
 10
752.82015213264958
 20
143.312394451393
 30
0.0
 70
    32
  0
VERTEX
  5
1916C
  8
1
 62
     7
 10
752.82335213264946
 20
143.3153944513933
 30
0.0
 70
    32
  0
VERTEX
  5
1916D
  8
1
 62
     7
 10
752.82655213264945
 20
143.3183944513932
 30
0.0
 70
    32
  0
VERTEX
  5
1916E
  8
1
 62
     7
 10
752.82975213265013
 20
143.32039445139301
 30
0.0
 70
    32
  0
VERTEX
  5
1916F
  8
1
 62
     7
 10
752.83295213265035
 20
143.3233944513936
 30
0.0
 70
    32
  0
VERTEX
  5
19170
  8
1
 62
     7
 10
752.83615213264954
 20
143.32639445139321
 30
0.0
 70
    32
  0
VERTEX
  5
19171
  8
1
 62
     7
 10
752.83935213264976
 20
143.3293944513934
 30
0.0
 70
    32
  0
VERTEX
  5
19172
  8
1
 62
     7
 10
752.84255213264964
 20
143.33239445139299
 30
0.0
 70
    32
  0
VERTEX
  5
19173
  8
1
 62
     7
 10
752.84565213264955
 20
143.335394451393
 30
0.0
 70
    32
  0
VERTEX
  5
19174
  8
1
 62
     7
 10
752.84885213265011
 20
143.33839445139321
 30
0.0
 70
    32
  0
VERTEX
  5
19175
  8
1
 62
     7
 10
752.85195213265001
 20
143.34139445139311
 30
0.0
 70
    32
  0
VERTEX
  5
19176
  8
1
 62
     7
 10
752.8550521326498
 20
143.3443944513931
 30
0.0
 70
    32
  0
VERTEX
  5
19177
  8
1
 62
     7
 10
752.85825213265002
 20
143.347394451393
 30
0.0
 70
    32
  0
VERTEX
  5
19178
  8
1
 62
     7
 10
752.86135213265015
 20
143.3503944513929
 30
0.0
 70
    32
  0
VERTEX
  5
19179
  8
1
 62
     7
 10
752.86445213264972
 20
143.35339445139309
 30
0.0
 70
    32
  0
VERTEX
  5
1917A
  8
1
 62
     7
 10
752.86745213264953
 20
143.3563944513935
 30
0.0
 70
    32
  0
VERTEX
  5
1917B
  8
1
 62
     7
 10
752.87055213264966
 20
143.36039445139329
 30
0.0
 70
    32
  0
VERTEX
  5
1917C
  8
1
 62
     7
 10
752.87365213265002
 20
143.36339445139319
 30
0.0
 70
    32
  0
VERTEX
  5
1917D
  8
1
 62
     7
 10
752.87665213264984
 20
143.36639445139309
 30
0.0
 70
    32
  0
VERTEX
  5
1917E
  8
1
 62
     7
 10
752.87975213264974
 20
143.36939445139339
 30
0.0
 70
    32
  0
VERTEX
  5
1917F
  8
1
 62
     7
 10
752.88275213264944
 20
143.37239445139329
 30
0.0
 70
    32
  0
VERTEX
  5
19180
  8
1
 62
     7
 10
752.88575213265005
 20
143.3753944513933
 30
0.0
 70
    32
  0
VERTEX
  5
19181
  8
1
 62
     7
 10
752.88875213264964
 20
143.37839445139309
 30
0.0
 70
    32
  0
VERTEX
  5
19182
  8
1
 62
     7
 10
752.89175213264946
 20
143.38139445139311
 30
0.0
 70
    32
  0
VERTEX
  5
19183
  8
1
 62
     7
 10
752.89475213264984
 20
143.3853944513931
 30
0.0
 70
    32
  0
VERTEX
  5
19184
  8
1
 62
     7
 10
752.89775213264954
 20
143.3883944513932
 30
0.0
 70
    32
  0
VERTEX
  5
19185
  8
1
 62
     7
 10
752.9007521326497
 20
143.3913944513931
 30
0.0
 70
    32
  0
VERTEX
  5
19186
  8
1
 62
     7
 10
752.90365213264954
 20
143.394394451393
 30
0.0
 70
    32
  0
VERTEX
  5
19187
  8
1
 62
     7
 10
752.90665213264958
 20
143.39739445139301
 30
0.0
 70
    32
  0
VERTEX
  5
19188
  8
1
 62
     7
 10
752.90955213264999
 20
143.40039445139291
 30
0.0
 70
    32
  0
VERTEX
  5
19189
  8
1
 62
     7
 10
752.91255213265003
 20
143.40439445139299
 30
0.0
 70
    32
  0
VERTEX
  5
1918A
  8
1
 62
     7
 10
752.91545213265033
 20
143.40739445139289
 30
0.0
 70
    32
  0
VERTEX
  5
1918B
  8
1
 62
     7
 10
752.91835213265006
 20
143.4103944513929
 30
0.0
 70
    32
  0
VERTEX
  5
1918C
  8
1
 62
     7
 10
752.9212521326499
 20
143.4133944513932
 30
0.0
 70
    32
  0
VERTEX
  5
1918D
  8
1
 62
     7
 10
752.92415213264974
 20
143.41739445139291
 30
0.0
 70
    32
  0
VERTEX
  5
1918E
  8
1
 62
     7
 10
752.92705213264958
 20
143.42039445139289
 30
0.0
 70
    32
  0
VERTEX
  5
1918F
  8
1
 62
     7
 10
752.92985213265035
 20
143.42339445139351
 30
0.0
 70
    32
  0
VERTEX
  5
19190
  8
1
 62
     7
 10
752.93275213264974
 20
143.42639445139309
 30
0.0
 70
    32
  0
VERTEX
  5
19191
  8
1
 62
     7
 10
752.93555213264983
 20
143.4303944513932
 30
0.0
 70
    32
  0
VERTEX
  5
19192
  8
1
 62
     7
 10
752.93845213264956
 20
143.4333944513935
 30
0.0
 70
    32
  0
VERTEX
  5
19193
  8
1
 62
     7
 10
752.94125213264988
 20
143.43639445139311
 30
0.0
 70
    32
  0
VERTEX
  5
19194
  8
1
 62
     7
 10
752.94405213264974
 20
143.44039445139279
 30
0.0
 70
    32
  0
VERTEX
  5
19195
  8
1
 62
     7
 10
752.94685213264972
 20
143.44339445139309
 30
0.0
 70
    32
  0
VERTEX
  5
19196
  8
1
 62
     7
 10
752.9496521326497
 20
143.44639445139339
 30
0.0
 70
    32
  0
VERTEX
  5
19197
  8
1
 62
     7
 10
752.95245213265002
 20
143.45039445139349
 30
0.0
 70
    32
  0
VERTEX
  5
19198
  8
1
 62
     7
 10
752.95525213264989
 20
143.45339445139311
 30
0.0
 70
    32
  0
VERTEX
  5
19199
  8
1
 62
     7
 10
752.95805213264953
 20
143.45639445139341
 30
0.0
 70
    32
  0
VERTEX
  5
1919A
  8
1
 62
     7
 10
752.96075213264953
 20
143.4603944513932
 30
0.0
 70
    32
  0
VERTEX
  5
1919B
  8
1
 62
     7
 10
752.96355213264997
 20
143.4633944513931
 30
0.0
 70
    32
  0
VERTEX
  5
1919C
  8
1
 62
     7
 10
752.96625213264997
 20
143.466394451393
 30
0.0
 70
    32
  0
VERTEX
  5
1919D
  8
1
 62
     7
 10
752.96905213264984
 20
143.47039445139319
 30
0.0
 70
    32
  0
VERTEX
  5
1919E
  8
1
 62
     7
 10
752.97175213264984
 20
143.4733944513934
 30
0.0
 70
    32
  0
VERTEX
  5
1919F
  8
1
 62
     7
 10
752.97445213264984
 20
143.47739445139291
 30
0.0
 70
    32
  0
VERTEX
  5
191A0
  8
1
 62
     7
 10
752.97715213264985
 20
143.48039445139321
 30
0.0
 70
    32
  0
VERTEX
  5
191A1
  8
1
 62
     7
 10
752.97985213264974
 20
143.48339445139311
 30
0.0
 70
    32
  0
VERTEX
  5
191A2
  8
1
 62
     7
 10
752.98255213264974
 20
143.48739445139319
 30
0.0
 70
    32
  0
VERTEX
  5
191A3
  8
1
 62
     7
 10
752.98525213264963
 20
143.4903944513932
 30
0.0
 70
    32
  0
VERTEX
  5
191A4
  8
1
 62
     7
 10
752.98785213265
 20
143.49439445139291
 30
0.0
 70
    32
  0
VERTEX
  5
191A5
  8
1
 62
     7
 10
752.99055213265001
 20
143.49739445139321
 30
0.0
 70
    32
  0
VERTEX
  5
191A6
  8
1
 62
     7
 10
752.99325213265001
 20
143.501394451393
 30
0.0
 70
    32
  0
VERTEX
  5
191A7
  8
1
 62
     7
 10
752.9958521326497
 20
143.5043944513929
 30
0.0
 70
    32
  0
VERTEX
  5
191A8
  8
1
 62
     7
 10
752.99845213264973
 20
143.50739445139291
 30
0.0
 70
    32
  0
VERTEX
  5
191A9
  8
1
 62
     7
 10
753.00105213264999
 20
143.51139445139299
 30
0.0
 70
    32
  0
VERTEX
  5
191AA
  8
1
 62
     7
 10
753.00375213265011
 20
143.51439445139289
 30
0.0
 70
    32
  0
VERTEX
  5
191AB
  8
1
 62
     7
 10
753.00635213264968
 20
143.51839445139299
 30
0.0
 70
    32
  0
VERTEX
  5
191AC
  8
1
 62
     7
 10
753.00895213264982
 20
143.52139445139301
 30
0.0
 70
    32
  0
VERTEX
  5
191AD
  8
1
 62
     7
 10
753.01145213264999
 20
143.52539445139311
 30
0.0
 70
    32
  0
VERTEX
  5
191AE
  8
1
 62
     7
 10
753.01405213265002
 20
143.52839445139301
 30
0.0
 70
    32
  0
VERTEX
  5
191AF
  8
1
 62
     7
 10
753.0166521326496
 20
143.5323944513932
 30
0.0
 70
    32
  0
VERTEX
  5
191B0
  8
1
 62
     7
 10
753.01915213264965
 20
143.5353944513931
 30
0.0
 70
    32
  0
VERTEX
  5
191B1
  8
1
 62
     7
 10
753.02175213264968
 20
143.53939445139329
 30
0.0
 70
    32
  0
VERTEX
  5
191B2
  8
1
 62
     7
 10
753.02425213264974
 20
143.54239445139319
 30
0.0
 70
    32
  0
VERTEX
  5
191B3
  8
1
 62
     7
 10
753.02685213264954
 20
143.5463944513933
 30
0.0
 70
    32
  0
VERTEX
  5
191B4
  8
1
 62
     7
 10
753.02935213264959
 20
143.5493944513932
 30
0.0
 70
    32
  0
VERTEX
  5
191B5
  8
1
 62
     7
 10
753.03185213264965
 20
143.55339445139339
 30
0.0
 70
    32
  0
VERTEX
  5
191B6
  8
1
 62
     7
 10
753.03435213264981
 20
143.55739445139309
 30
0.0
 70
    32
  0
VERTEX
  5
191B7
  8
1
 62
     7
 10
753.03685213264998
 20
143.56039445139311
 30
0.0
 70
    32
  0
VERTEX
  5
191B8
  8
1
 62
     7
 10
753.03935213264958
 20
143.56439445139321
 30
0.0
 70
    32
  0
VERTEX
  5
191B9
  8
1
 62
     7
 10
753.04185213264964
 20
143.56739445139311
 30
0.0
 70
    32
  0
VERTEX
  5
191BA
  8
1
 62
     7
 10
753.04425213265006
 20
143.57139445139291
 30
0.0
 70
    32
  0
VERTEX
  5
191BB
  8
1
 62
     7
 10
753.04675213264954
 20
143.57439445139289
 30
0.0
 70
    32
  0
VERTEX
  5
191BC
  8
1
 62
     7
 10
753.04915213264985
 20
143.578394451393
 30
0.0
 70
    32
  0
VERTEX
  5
191BD
  8
1
 62
     7
 10
753.05165213264968
 20
143.5823944513931
 30
0.0
 70
    32
  0
VERTEX
  5
191BE
  8
1
 62
     7
 10
753.05405213264953
 20
143.58539445139311
 30
0.0
 70
    32
  0
VERTEX
  5
191BF
  8
1
 62
     7
 10
753.05645213265018
 20
143.58939445139319
 30
0.0
 70
    32
  0
VERTEX
  5
191C0
  8
1
 62
     7
 10
753.05895213264989
 20
143.59239445139309
 30
0.0
 70
    32
  0
VERTEX
  5
191C1
  8
1
 62
     7
 10
753.06135213264986
 20
143.59639445139319
 30
0.0
 70
    32
  0
VERTEX
  5
191C2
  8
1
 62
     7
 10
753.06375213264971
 20
143.60039445139341
 30
0.0
 70
    32
  0
VERTEX
  5
191C3
  8
1
 62
     7
 10
753.06615213264968
 20
143.603394451393
 30
0.0
 70
    32
  0
VERTEX
  5
191C4
  8
1
 62
     7
 10
753.06855213264964
 20
143.60739445139299
 30
0.0
 70
    32
  0
VERTEX
  5
191C5
  8
1
 62
     7
 10
753.07085213264986
 20
143.6113944513929
 30
0.0
 70
    32
  0
VERTEX
  5
191C6
  8
1
 62
     7
 10
753.07325213264949
 20
143.6143944513932
 30
0.0
 70
    32
  0
VERTEX
  5
191C7
  8
1
 62
     7
 10
753.07565213264945
 20
143.61839445139299
 30
0.0
 70
    32
  0
VERTEX
  5
191C8
  8
1
 62
     7
 10
753.0779521326499
 20
143.62239445139309
 30
0.0
 70
    32
  0
VERTEX
  5
191C9
  8
1
 62
     7
 10
753.08035213264975
 20
143.62539445139299
 30
0.0
 70
    32
  0
VERTEX
  5
191CA
  8
1
 62
     7
 10
753.0826521326502
 20
143.6293944513931
 30
0.0
 70
    32
  0
VERTEX
  5
191CB
  8
1
 62
     7
 10
753.08495213264996
 20
143.63339445139329
 30
0.0
 70
    32
  0
VERTEX
  5
191CC
  8
1
 62
     7
 10
753.08725213264972
 20
143.63639445139319
 30
0.0
 70
    32
  0
VERTEX
  5
191CD
  8
1
 62
     7
 10
753.08955213264983
 20
143.64039445139341
 30
0.0
 70
    32
  0
VERTEX
  5
191CE
  8
1
 62
     7
 10
753.09195213265025
 20
143.644394451393
 30
0.0
 70
    32
  0
VERTEX
  5
191CF
  8
1
 62
     7
 10
753.09415213265015
 20
143.64739445139341
 30
0.0
 70
    32
  0
VERTEX
  5
191D0
  8
1
 62
     7
 10
753.09645213265003
 20
143.65139445139349
 30
0.0
 70
    32
  0
VERTEX
  5
191D1
  8
1
 62
     7
 10
753.09875213264968
 20
143.65539445139299
 30
0.0
 70
    32
  0
VERTEX
  5
191D2
  8
1
 62
     7
 10
753.10105213265001
 20
143.65839445139289
 30
0.0
 70
    32
  0
VERTEX
  5
191D3
  8
1
 62
     7
 10
753.10335213264955
 20
143.66239445139311
 30
0.0
 70
    32
  0
VERTEX
  5
191D4
  8
1
 62
     7
 10
753.10555213265002
 20
143.66639445139319
 30
0.0
 70
    32
  0
VERTEX
  5
191D5
  8
1
 62
     7
 10
753.1078521326499
 20
143.67039445139329
 30
0.0
 70
    32
  0
VERTEX
  5
191D6
  8
1
 62
     7
 10
753.11005213265003
 20
143.67339445139331
 30
0.0
 70
    32
  0
VERTEX
  5
191D7
  8
1
 62
     7
 10
753.11225213264981
 20
143.67739445139341
 30
0.0
 70
    32
  0
VERTEX
  5
191D8
  8
1
 62
     7
 10
753.11455213265003
 20
143.68139445139289
 30
0.0
 70
    32
  0
VERTEX
  5
191D9
  8
1
 62
     7
 10
753.11675213264982
 20
143.68439445139339
 30
0.0
 70
    32
  0
VERTEX
  5
191DA
  8
1
 62
     7
 10
753.11895213264961
 20
143.6883944513929
 30
0.0
 70
    32
  0
VERTEX
  5
191DB
  8
1
 62
     7
 10
753.12115213265008
 20
143.692394451393
 30
0.0
 70
    32
  0
VERTEX
  5
191DC
  8
1
 62
     7
 10
753.1233521326501
 20
143.69639445139319
 30
0.0
 70
    32
  0
VERTEX
  5
191DD
  8
1
 62
     7
 10
753.12555213264955
 20
143.69939445139309
 30
0.0
 70
    32
  0
VERTEX
  5
191DE
  8
1
 62
     7
 10
753.12765213264959
 20
143.70339445139319
 30
0.0
 70
    32
  0
VERTEX
  5
191DF
  8
1
 62
     7
 10
753.12985213264994
 20
143.7073944513933
 30
0.0
 70
    32
  0
VERTEX
  5
191E0
  8
1
 62
     7
 10
753.13205213264985
 20
143.7113944513932
 30
0.0
 70
    32
  0
VERTEX
  5
191E1
  8
1
 62
     7
 10
753.13415213265012
 20
143.71539445139291
 30
0.0
 70
    32
  0
VERTEX
  5
191E2
  8
1
 62
     7
 10
753.13635213264945
 20
143.71839445139321
 30
0.0
 70
    32
  0
VERTEX
  5
191E3
  8
1
 62
     7
 10
753.13845213264972
 20
143.722394451393
 30
0.0
 70
    32
  0
VERTEX
  5
191E4
  8
1
 62
     7
 10
753.14065213264973
 20
143.72639445139299
 30
0.0
 70
    32
  0
VERTEX
  5
191E5
  8
1
 62
     7
 10
753.14275213264955
 20
143.73039445139329
 30
0.0
 70
    32
  0
VERTEX
  5
191E6
  8
1
 62
     7
 10
753.14485213264959
 20
143.7333944513932
 30
0.0
 70
    32
  0
VERTEX
  5
191E7
  8
1
 62
     7
 10
753.14695213264986
 20
143.73739445139299
 30
0.0
 70
    32
  0
VERTEX
  5
191E8
  8
1
 62
     7
 10
753.14905213265035
 20
143.74139445139309
 30
0.0
 70
    32
  0
VERTEX
  5
191E9
  8
1
 62
     7
 10
753.15115213264983
 20
143.74539445139291
 30
0.0
 70
    32
  0
VERTEX
  5
191EA
  8
1
 62
     7
 10
753.1532521326501
 20
143.74939445139299
 30
0.0
 70
    32
  0
VERTEX
  5
191EB
  8
1
 62
     7
 10
753.15535213265025
 20
143.75339445139321
 30
0.0
 70
    32
  0
VERTEX
  5
191EC
  8
1
 62
     7
 10
753.15745213264984
 20
143.75639445139299
 30
0.0
 70
    32
  0
VERTEX
  5
191ED
  8
1
 62
     7
 10
753.15945213264968
 20
143.7603944513933
 30
0.0
 70
    32
  0
VERTEX
  5
191EE
  8
1
 62
     7
 10
753.16155213264972
 20
143.764394451393
 30
0.0
 70
    32
  0
VERTEX
  5
191EF
  8
1
 62
     7
 10
753.16365213264987
 20
143.7683944513935
 30
0.0
 70
    32
  0
VERTEX
  5
191F0
  8
1
 62
     7
 10
753.16565213265005
 20
143.77239445139301
 30
0.0
 70
    32
  0
VERTEX
  5
191F1
  8
1
 62
     7
 10
753.16775213264964
 20
143.77539445139291
 30
0.0
 70
    32
  0
VERTEX
  5
191F2
  8
1
 62
     7
 10
753.16975213264959
 20
143.77939445139299
 30
0.0
 70
    32
  0
VERTEX
  5
191F3
  8
1
 62
     7
 10
753.17175213264977
 20
143.78339445139321
 30
0.0
 70
    32
  0
VERTEX
  5
191F4
  8
1
 62
     7
 10
753.17375213264972
 20
143.78739445139331
 30
0.0
 70
    32
  0
VERTEX
  5
191F5
  8
1
 62
     7
 10
753.17575213264968
 20
143.7913944513931
 30
0.0
 70
    32
  0
VERTEX
  5
191F6
  8
1
 62
     7
 10
753.17775213264974
 20
143.79539445139321
 30
0.0
 70
    32
  0
VERTEX
  5
191F7
  8
1
 62
     7
 10
753.17975213265004
 20
143.799394451393
 30
0.0
 70
    32
  0
VERTEX
  5
191F8
  8
1
 62
     7
 10
753.18175213264954
 20
143.8023944513929
 30
0.0
 70
    32
  0
VERTEX
  5
191F9
  8
1
 62
     7
 10
753.18375213264983
 20
143.80639445139309
 30
0.0
 70
    32
  0
VERTEX
  5
191FA
  8
1
 62
     7
 10
753.18575213265012
 20
143.81039445139319
 30
0.0
 70
    32
  0
VERTEX
  5
191FB
  8
1
 62
     7
 10
753.18775213264985
 20
143.8143944513933
 30
0.0
 70
    32
  0
VERTEX
  5
191FC
  8
1
 62
     7
 10
753.18965213264971
 20
143.81839445139309
 30
0.0
 70
    32
  0
VERTEX
  5
191FD
  8
1
 62
     7
 10
753.19165213265001
 20
143.82239445139291
 30
0.0
 70
    32
  0
VERTEX
  5
191FE
  8
1
 62
     7
 10
753.19355213264964
 20
143.82639445139301
 30
0.0
 70
    32
  0
VERTEX
  5
191FF
  8
1
 62
     7
 10
753.19555213264982
 20
143.8303944513932
 30
0.0
 70
    32
  0
VERTEX
  5
19200
  8
1
 62
     7
 10
753.19745213264935
 20
143.83439445139331
 30
0.0
 70
    32
  0
VERTEX
  5
19201
  8
1
 62
     7
 10
753.19935213264989
 20
143.83739445139329
 30
0.0
 70
    32
  0
VERTEX
  5
19202
  8
1
 62
     7
 10
753.20135213265019
 20
143.841394451393
 30
0.0
 70
    32
  0
VERTEX
  5
19203
  8
1
 62
     7
 10
753.20325213264971
 20
143.8453944513935
 30
0.0
 70
    32
  0
VERTEX
  5
19204
  8
1
 62
     7
 10
753.20515213264946
 20
143.8493944513929
 30
0.0
 70
    32
  0
VERTEX
  5
19205
  8
1
 62
     7
 10
753.20705213265035
 20
143.85339445139309
 30
0.0
 70
    32
  0
VERTEX
  5
19206
  8
1
 62
     7
 10
753.20895213264998
 20
143.85739445139319
 30
0.0
 70
    32
  0
VERTEX
  5
19207
  8
1
 62
     7
 10
753.21085213265007
 20
143.86139445139301
 30
0.0
 70
    32
  0
VERTEX
  5
19208
  8
1
 62
     7
 10
753.21265213265008
 20
143.86539445139309
 30
0.0
 70
    32
  0
VERTEX
  5
19209
  8
1
 62
     7
 10
753.21455213264971
 20
143.86939445139291
 30
0.0
 70
    32
  0
VERTEX
  5
1920A
  8
1
 62
     7
 10
753.21645213264969
 20
143.8733944513931
 30
0.0
 70
    32
  0
VERTEX
  5
1920B
  8
1
 62
     7
 10
753.21825213264981
 20
143.8773944513932
 30
0.0
 70
    32
  0
VERTEX
  5
1920C
  8
1
 62
     7
 10
753.22015213264979
 20
143.8803944513931
 30
0.0
 70
    32
  0
VERTEX
  5
1920D
  8
1
 62
     7
 10
753.22195213265013
 20
143.88439445139329
 30
0.0
 70
    32
  0
VERTEX
  5
1920E
  8
1
 62
     7
 10
753.22385213265011
 20
143.888394451393
 30
0.0
 70
    32
  0
VERTEX
  5
1920F
  8
1
 62
     7
 10
753.22565213265011
 20
143.8923944513929
 30
0.0
 70
    32
  0
VERTEX
  5
19210
  8
1
 62
     7
 10
753.22745213264989
 20
143.89639445139301
 30
0.0
 70
    32
  0
VERTEX
  5
19211
  8
1
 62
     7
 10
753.22935213264964
 20
143.90039445139311
 30
0.0
 70
    32
  0
VERTEX
  5
19212
  8
1
 62
     7
 10
753.23115213264964
 20
143.9043944513931
 30
0.0
 70
    32
  0
VERTEX
  5
19213
  8
1
 62
     7
 10
753.23295213265033
 20
143.90839445139341
 30
0.0
 70
    32
  0
VERTEX
  5
19214
  8
1
 62
     7
 10
753.23475213264965
 20
143.9123944513932
 30
0.0
 70
    32
  0
VERTEX
  5
19215
  8
1
 62
     7
 10
753.23655213264965
 20
143.91639445139299
 30
0.0
 70
    32
  0
VERTEX
  5
19216
  8
1
 62
     7
 10
753.23835213264965
 20
143.92039445139309
 30
0.0
 70
    32
  0
VERTEX
  5
19217
  8
1
 62
     7
 10
753.24005213264957
 20
143.9243944513932
 30
0.0
 70
    32
  0
VERTEX
  5
19218
  8
1
 62
     7
 10
753.24185213265014
 20
143.92839445139299
 30
0.0
 70
    32
  0
VERTEX
  5
19219
  8
1
 62
     7
 10
753.24365213264969
 20
143.93239445139321
 30
0.0
 70
    32
  0
VERTEX
  5
1921A
  8
1
 62
     7
 10
753.24545213265014
 20
143.93639445139291
 30
0.0
 70
    32
  0
VERTEX
  5
1921B
  8
1
 62
     7
 10
753.24715213264983
 20
143.9403944513931
 30
0.0
 70
    32
  0
VERTEX
  5
1921C
  8
1
 62
     7
 10
753.24895213264983
 20
143.94439445139309
 30
0.0
 70
    32
  0
VERTEX
  5
1921D
  8
1
 62
     7
 10
753.25065213264963
 20
143.94839445139331
 30
0.0
 70
    32
  0
VERTEX
  5
1921E
  8
1
 62
     7
 10
753.25235213265
 20
143.9523944513935
 30
0.0
 70
    32
  0
VERTEX
  5
1921F
  8
1
 62
     7
 10
753.25415213265001
 20
143.9563944513929
 30
0.0
 70
    32
  0
VERTEX
  5
19220
  8
1
 62
     7
 10
753.25585213265015
 20
143.96039445139311
 30
0.0
 70
    32
  0
VERTEX
  5
19221
  8
1
 62
     7
 10
753.25755213264972
 20
143.96439445139319
 30
0.0
 70
    32
  0
VERTEX
  5
19222
  8
1
 62
     7
 10
753.25925213264964
 20
143.96839445139329
 30
0.0
 70
    32
  0
VERTEX
  5
19223
  8
1
 62
     7
 10
753.26095213264955
 20
143.97239445139309
 30
0.0
 70
    32
  0
VERTEX
  5
19224
  8
1
 62
     7
 10
753.26265213264969
 20
143.97639445139291
 30
0.0
 70
    32
  0
VERTEX
  5
19225
  8
1
 62
     7
 10
753.26435213264972
 20
143.9803944513931
 30
0.0
 70
    32
  0
VERTEX
  5
19226
  8
1
 62
     7
 10
753.26605213264952
 20
143.98439445139309
 30
0.0
 70
    32
  0
VERTEX
  5
19227
  8
1
 62
     7
 10
753.26775213264966
 20
143.9883944513933
 30
0.0
 70
    32
  0
VERTEX
  5
19228
  8
1
 62
     7
 10
753.26945213265003
 20
143.9923944513931
 30
0.0
 70
    32
  0
VERTEX
  5
19229
  8
1
 62
     7
 10
753.27115213265006
 20
143.99639445139289
 30
0.0
 70
    32
  0
VERTEX
  5
1922A
  8
1
 62
     7
 10
753.27275213264966
 20
144.00039445139299
 30
0.0
 70
    32
  0
VERTEX
  5
1922B
  8
1
 62
     7
 10
753.2744521326498
 20
144.00439445139321
 30
0.0
 70
    32
  0
VERTEX
  5
1922C
  8
1
 62
     7
 10
753.27605213264985
 20
144.00839445139329
 30
0.0
 70
    32
  0
VERTEX
  5
1922D
  8
1
 62
     7
 10
753.27775213264954
 20
144.01239445139311
 30
0.0
 70
    32
  0
VERTEX
  5
1922E
  8
1
 62
     7
 10
753.27935213265005
 20
144.0163944513929
 30
0.0
 70
    32
  0
VERTEX
  5
1922F
  8
1
 62
     7
 10
753.28105213264973
 20
144.020394451393
 30
0.0
 70
    32
  0
VERTEX
  5
19230
  8
1
 62
     7
 10
753.28265213264956
 20
144.02439445139299
 30
0.0
 70
    32
  0
VERTEX
  5
19231
  8
1
 62
     7
 10
753.28425213264984
 20
144.0283944513933
 30
0.0
 70
    32
  0
VERTEX
  5
19232
  8
1
 62
     7
 10
753.28585213264955
 20
144.0323944513934
 30
0.0
 70
    32
  0
VERTEX
  5
19233
  8
1
 62
     7
 10
753.28755213264969
 20
144.03639445139291
 30
0.0
 70
    32
  0
VERTEX
  5
19234
  8
1
 62
     7
 10
753.28915213264963
 20
144.04039445139301
 30
0.0
 70
    32
  0
VERTEX
  5
19235
  8
1
 62
     7
 10
753.29075213264935
 20
144.04439445139309
 30
0.0
 70
    32
  0
VERTEX
  5
19236
  8
1
 62
     7
 10
753.29235213264985
 20
144.04839445139331
 30
0.0
 70
    32
  0
VERTEX
  5
19237
  8
1
 62
     7
 10
753.2938521326497
 20
144.05239445139301
 30
0.0
 70
    32
  0
VERTEX
  5
19238
  8
1
 62
     7
 10
753.2954521326501
 20
144.0563944513928
 30
0.0
 70
    32
  0
VERTEX
  5
19239
  8
1
 62
     7
 10
753.29705213264981
 20
144.06039445139299
 30
0.0
 70
    32
  0
VERTEX
  5
1923A
  8
1
 62
     7
 10
753.29865213264975
 20
144.0643944513931
 30
0.0
 70
    32
  0
VERTEX
  5
1923B
  8
1
 62
     7
 10
753.30015213264971
 20
144.06839445139309
 30
0.0
 70
    32
  0
VERTEX
  5
1923C
  8
1
 62
     7
 10
753.30175213264988
 20
144.07239445139339
 30
0.0
 70
    32
  0
VERTEX
  5
1923D
  8
1
 62
     7
 10
753.30335213264925
 20
144.07739445139299
 30
0.0
 70
    32
  0
VERTEX
  5
1923E
  8
1
 62
     7
 10
753.30485213265035
 20
144.08139445139321
 30
0.0
 70
    32
  0
VERTEX
  5
1923F
  8
1
 62
     7
 10
753.30635213265009
 20
144.08539445139331
 30
0.0
 70
    32
  0
VERTEX
  5
19240
  8
1
 62
     7
 10
753.3079521326498
 20
144.0893944513931
 30
0.0
 70
    32
  0
VERTEX
  5
19241
  8
1
 62
     7
 10
753.30945213264999
 20
144.09339445139349
 30
0.0
 70
    32
  0
VERTEX
  5
19242
  8
1
 62
     7
 10
753.31095213264939
 20
144.097394451393
 30
0.0
 70
    32
  0
VERTEX
  5
19243
  8
1
 62
     7
 10
753.31255213264967
 20
144.10139445139299
 30
0.0
 70
    32
  0
VERTEX
  5
19244
  8
1
 62
     7
 10
753.31405213264964
 20
144.10539445139329
 30
0.0
 70
    32
  0
VERTEX
  5
19245
  8
1
 62
     7
 10
753.31555213264971
 20
144.1093944513934
 30
0.0
 70
    32
  0
VERTEX
  5
19246
  8
1
 62
     7
 10
753.31705213264968
 20
144.1133944513935
 30
0.0
 70
    32
  0
VERTEX
  5
19247
  8
1
 62
     7
 10
753.31855213265032
 20
144.11739445139301
 30
0.0
 70
    32
  0
VERTEX
  5
19248
  8
1
 62
     7
 10
753.32005213264972
 20
144.12139445139309
 30
0.0
 70
    32
  0
VERTEX
  5
19249
  8
1
 62
     7
 10
753.32155213264969
 20
144.12539445139319
 30
0.0
 70
    32
  0
VERTEX
  5
1924A
  8
1
 62
     7
 10
753.32295213265002
 20
144.12939445139341
 30
0.0
 70
    32
  0
VERTEX
  5
1924B
  8
1
 62
     7
 10
753.32445213264987
 20
144.13439445139301
 30
0.0
 70
    32
  0
VERTEX
  5
1924C
  8
1
 62
     7
 10
753.32595213265029
 20
144.1383944513932
 30
0.0
 70
    32
  0
VERTEX
  5
1924D
  8
1
 62
     7
 10
753.32745213264968
 20
144.1423944513933
 30
0.0
 70
    32
  0
VERTEX
  5
1924E
  8
1
 62
     7
 10
753.32885213265013
 20
144.14639445139309
 30
0.0
 70
    32
  0
VERTEX
  5
1924F
  8
1
 62
     7
 10
753.33035213264941
 20
144.15039445139291
 30
0.0
 70
    32
  0
VERTEX
  5
19250
  8
1
 62
     7
 10
753.33175213264974
 20
144.15439445139299
 30
0.0
 70
    32
  0
VERTEX
  5
19251
  8
1
 62
     7
 10
753.33325213264982
 20
144.15839445139321
 30
0.0
 70
    32
  0
VERTEX
  5
19252
  8
1
 62
     7
 10
753.33465213265004
 20
144.16239445139331
 30
0.0
 70
    32
  0
VERTEX
  5
19253
  8
1
 62
     7
 10
753.33605213265014
 20
144.1663944513931
 30
0.0
 70
    32
  0
VERTEX
  5
19254
  8
1
 62
     7
 10
753.33745213265036
 20
144.17039445139289
 30
0.0
 70
    32
  0
VERTEX
  5
19255
  8
1
 62
     7
 10
753.33895213264964
 20
144.1753944513932
 30
0.0
 70
    32
  0
VERTEX
  5
19256
  8
1
 62
     7
 10
753.34035213264997
 20
144.17939445139331
 30
0.0
 70
    32
  0
VERTEX
  5
19257
  8
1
 62
     7
 10
753.34175213264973
 20
144.1833944513935
 30
0.0
 70
    32
  0
VERTEX
  5
19258
  8
1
 62
     7
 10
753.34315213264983
 20
144.18739445139289
 30
0.0
 70
    32
  0
VERTEX
  5
19259
  8
1
 62
     7
 10
753.34455213264994
 20
144.19139445139311
 30
0.0
 70
    32
  0
VERTEX
  5
1925A
  8
1
 62
     7
 10
753.34595213265015
 20
144.1953944513931
 30
0.0
 70
    32
  0
VERTEX
  5
1925B
  8
1
 62
     7
 10
753.34735213265003
 20
144.199394451393
 30
0.0
 70
    32
  0
VERTEX
  5
1925C
  8
1
 62
     7
 10
753.34875213264934
 20
144.203394451393
 30
0.0
 70
    32
  0
VERTEX
  5
1925D
  8
1
 62
     7
 10
753.35005213265003
 20
144.2073944513929
 30
0.0
 70
    32
  0
VERTEX
  5
1925E
  8
1
 62
     7
 10
753.35145213264957
 20
144.2123944513931
 30
0.0
 70
    32
  0
VERTEX
  5
1925F
  8
1
 62
     7
 10
753.35285213264967
 20
144.2163944513934
 30
0.0
 70
    32
  0
VERTEX
  5
19260
  8
1
 62
     7
 10
753.35415213264969
 20
144.22039445139319
 30
0.0
 70
    32
  0
VERTEX
  5
19261
  8
1
 62
     7
 10
753.35555213264968
 20
144.22439445139301
 30
0.0
 70
    32
  0
VERTEX
  5
19262
  8
1
 62
     7
 10
753.35685213264981
 20
144.22839445139309
 30
0.0
 70
    32
  0
VERTEX
  5
19263
  8
1
 62
     7
 10
753.35825213264957
 20
144.23239445139319
 30
0.0
 70
    32
  0
VERTEX
  5
19264
  8
1
 62
     7
 10
753.35955213264981
 20
144.23639445139341
 30
0.0
 70
    32
  0
VERTEX
  5
19265
  8
1
 62
     7
 10
753.36085213264994
 20
144.24139445139301
 30
0.0
 70
    32
  0
VERTEX
  5
19266
  8
1
 62
     7
 10
753.36225213264981
 20
144.24539445139311
 30
0.0
 70
    32
  0
VERTEX
  5
19267
  8
1
 62
     7
 10
753.36355213264994
 20
144.2493944513933
 30
0.0
 70
    32
  0
VERTEX
  5
19268
  8
1
 62
     7
 10
753.3648521326503
 20
144.2533944513934
 30
0.0
 70
    32
  0
VERTEX
  5
19269
  8
1
 62
     7
 10
753.36615213264986
 20
144.2573944513932
 30
0.0
 70
    32
  0
VERTEX
  5
1926A
  8
1
 62
     7
 10
753.36745213264965
 20
144.26139445139299
 30
0.0
 70
    32
  0
VERTEX
  5
1926B
  8
1
 62
     7
 10
753.36875213264966
 20
144.26539445139309
 30
0.0
 70
    32
  0
VERTEX
  5
1926C
  8
1
 62
     7
 10
753.37005213265002
 20
144.27039445139351
 30
0.0
 70
    32
  0
VERTEX
  5
1926D
  8
1
 62
     7
 10
753.37135213264935
 20
144.27439445139291
 30
0.0
 70
    32
  0
VERTEX
  5
1926E
  8
1
 62
     7
 10
753.37265213265005
 20
144.27839445139301
 30
0.0
 70
    32
  0
VERTEX
  5
1926F
  8
1
 62
     7
 10
753.37395213264983
 20
144.28239445139309
 30
0.0
 70
    32
  0
VERTEX
  5
19270
  8
1
 62
     7
 10
753.37525213264973
 20
144.28639445139331
 30
0.0
 70
    32
  0
VERTEX
  5
19271
  8
1
 62
     7
 10
753.37645213264955
 20
144.2903944513931
 30
0.0
 70
    32
  0
VERTEX
  5
19272
  8
1
 62
     7
 10
753.37775213264979
 20
144.29439445139289
 30
0.0
 70
    32
  0
VERTEX
  5
19273
  8
1
 62
     7
 10
753.37905213265014
 20
144.2993944513932
 30
0.0
 70
    32
  0
VERTEX
  5
19274
  8
1
 62
     7
 10
753.38025213264984
 20
144.30339445139339
 30
0.0
 70
    32
  0
VERTEX
  5
19275
  8
1
 62
     7
 10
753.38155213264986
 20
144.30739445139349
 30
0.0
 70
    32
  0
VERTEX
  5
19276
  8
1
 62
     7
 10
753.38275213265001
 20
144.31139445139331
 30
0.0
 70
    32
  0
VERTEX
  5
19277
  8
1
 62
     7
 10
753.38405213265014
 20
144.31539445139299
 30
0.0
 70
    32
  0
VERTEX
  5
19278
  8
1
 62
     7
 10
753.38525213264973
 20
144.31939445139321
 30
0.0
 70
    32
  0
VERTEX
  5
19279
  8
1
 62
     7
 10
753.38645213264965
 20
144.32439445139289
 30
0.0
 70
    32
  0
VERTEX
  5
1927A
  8
1
 62
     7
 10
753.38775213265012
 20
144.328394451393
 30
0.0
 70
    32
  0
VERTEX
  5
1927B
  8
1
 62
     7
 10
753.38895213264959
 20
144.3323944513931
 30
0.0
 70
    32
  0
VERTEX
  5
1927C
  8
1
 62
     7
 10
753.39015213264975
 20
144.33639445139329
 30
0.0
 70
    32
  0
VERTEX
  5
1927D
  8
1
 62
     7
 10
753.39135213264956
 20
144.34039445139311
 30
0.0
 70
    32
  0
VERTEX
  5
1927E
  8
1
 62
     7
 10
753.39255213264926
 20
144.34439445139321
 30
0.0
 70
    32
  0
VERTEX
  5
1927F
  8
1
 62
     7
 10
753.39375213264998
 20
144.34939445139321
 30
0.0
 70
    32
  0
VERTEX
  5
19280
  8
1
 62
     7
 10
753.39495213264979
 20
144.35339445139331
 30
0.0
 70
    32
  0
VERTEX
  5
19281
  8
1
 62
     7
 10
753.39615213264972
 20
144.35739445139311
 30
0.0
 70
    32
  0
VERTEX
  5
19282
  8
1
 62
     7
 10
753.39735213264976
 20
144.3613944513929
 30
0.0
 70
    32
  0
VERTEX
  5
19283
  8
1
 62
     7
 10
753.39855213265014
 20
144.3653944513934
 30
0.0
 70
    32
  0
VERTEX
  5
19284
  8
1
 62
     7
 10
753.39975213264972
 20
144.37039445139339
 30
0.0
 70
    32
  0
VERTEX
  5
19285
  8
1
 62
     7
 10
753.40085213265024
 20
144.37439445139319
 30
0.0
 70
    32
  0
VERTEX
  5
19286
  8
1
 62
     7
 10
753.40205213264983
 20
144.37839445139289
 30
0.0
 70
    32
  0
VERTEX
  5
19287
  8
1
 62
     7
 10
753.40325213264998
 20
144.38239445139311
 30
0.0
 70
    32
  0
VERTEX
  5
19288
  8
1
 62
     7
 10
753.40435213265005
 20
144.38639445139319
 30
0.0
 70
    32
  0
VERTEX
  5
19289
  8
1
 62
     7
 10
753.40555213265031
 20
144.39039445139341
 30
0.0
 70
    32
  0
VERTEX
  5
1928A
  8
1
 62
     7
 10
753.40665213265015
 20
144.395394451393
 30
0.0
 70
    32
  0
VERTEX
  5
1928B
  8
1
 62
     7
 10
753.40785213264974
 20
144.39939445139299
 30
0.0
 70
    32
  0
VERTEX
  5
1928C
  8
1
 62
     7
 10
753.40895213265003
 20
144.4033944513933
 30
0.0
 70
    32
  0
VERTEX
  5
1928D
  8
1
 62
     7
 10
753.41015213264973
 20
144.4073944513934
 30
0.0
 70
    32
  0
VERTEX
  5
1928E
  8
1
 62
     7
 10
753.41125213264968
 20
144.41139445139319
 30
0.0
 70
    32
  0
VERTEX
  5
1928F
  8
1
 62
     7
 10
753.41235213264974
 20
144.41639445139319
 30
0.0
 70
    32
  0
VERTEX
  5
19290
  8
1
 62
     7
 10
753.4134521326497
 20
144.42039445139329
 30
0.0
 70
    32
  0
VERTEX
  5
19291
  8
1
 62
     7
 10
753.41465213264985
 20
144.4243944513934
 30
0.0
 70
    32
  0
VERTEX
  5
19292
  8
1
 62
     7
 10
753.41575213264969
 20
144.4283944513929
 30
0.0
 70
    32
  0
VERTEX
  5
19293
  8
1
 62
     7
 10
753.41685213264964
 20
144.4323944513929
 30
0.0
 70
    32
  0
VERTEX
  5
19294
  8
1
 62
     7
 10
753.4179521326497
 20
144.4373944513934
 30
0.0
 70
    32
  0
VERTEX
  5
19295
  8
1
 62
     7
 10
753.41905213264965
 20
144.44139445139319
 30
0.0
 70
    32
  0
VERTEX
  5
19296
  8
1
 62
     7
 10
753.42015213265006
 20
144.44539445139301
 30
0.0
 70
    32
  0
VERTEX
  5
19297
  8
1
 62
     7
 10
753.42125213265012
 20
144.44939445139309
 30
0.0
 70
    32
  0
VERTEX
  5
19298
  8
1
 62
     7
 10
753.42225213264942
 20
144.45439445139311
 30
0.0
 70
    32
  0
VERTEX
  5
19299
  8
1
 62
     7
 10
753.42335213264971
 20
144.45839445139291
 30
0.0
 70
    32
  0
VERTEX
  5
1929A
  8
1
 62
     7
 10
753.42445213264955
 20
144.46239445139301
 30
0.0
 70
    32
  0
VERTEX
  5
1929B
  8
1
 62
     7
 10
753.42555213265007
 20
144.4663944513932
 30
0.0
 70
    32
  0
VERTEX
  5
1929C
  8
1
 62
     7
 10
753.42655213265027
 20
144.4703944513933
 30
0.0
 70
    32
  0
VERTEX
  5
1929D
  8
1
 62
     7
 10
753.42765213264943
 20
144.4753944513929
 30
0.0
 70
    32
  0
VERTEX
  5
1929E
  8
1
 62
     7
 10
753.42865213264974
 20
144.47939445139309
 30
0.0
 70
    32
  0
VERTEX
  5
1929F
  8
1
 62
     7
 10
753.42975213265004
 20
144.4833944513932
 30
0.0
 70
    32
  0
VERTEX
  5
192A0
  8
1
 62
     7
 10
753.43075213264956
 20
144.4873944513933
 30
0.0
 70
    32
  0
VERTEX
  5
192A1
  8
1
 62
     7
 10
753.43185213265008
 20
144.49139445139349
 30
0.0
 70
    32
  0
VERTEX
  5
192A2
  8
1
 62
     7
 10
753.43285213264983
 20
144.49639445139309
 30
0.0
 70
    32
  0
VERTEX
  5
192A3
  8
1
 62
     7
 10
753.43385213264958
 20
144.5003944513933
 30
0.0
 70
    32
  0
VERTEX
  5
192A4
  8
1
 62
     7
 10
753.43495213264987
 20
144.50439445139301
 30
0.0
 70
    32
  0
VERTEX
  5
192A5
  8
1
 62
     7
 10
753.43595213264985
 20
144.5083944513932
 30
0.0
 70
    32
  0
VERTEX
  5
192A6
  8
1
 62
     7
 10
753.43695213265005
 20
144.5133944513932
 30
0.0
 70
    32
  0
VERTEX
  5
192A7
  8
1
 62
     7
 10
753.43795213264968
 20
144.5173944513933
 30
0.0
 70
    32
  0
VERTEX
  5
192A8
  8
1
 62
     7
 10
753.43895213264955
 20
144.52139445139309
 30
0.0
 70
    32
  0
VERTEX
  5
192A9
  8
1
 62
     7
 10
753.43995213264964
 20
144.52539445139291
 30
0.0
 70
    32
  0
VERTEX
  5
192AA
  8
1
 62
     7
 10
753.44095213264984
 20
144.52939445139299
 30
0.0
 70
    32
  0
VERTEX
  5
192AB
  8
1
 62
     7
 10
753.4419521326497
 20
144.5343944513933
 30
0.0
 70
    32
  0
VERTEX
  5
192AC
  8
1
 62
     7
 10
753.44295213264968
 20
144.53839445139349
 30
0.0
 70
    32
  0
VERTEX
  5
192AD
  8
1
 62
     7
 10
753.44395213265
 20
144.54239445139331
 30
0.0
 70
    32
  0
VERTEX
  5
192AE
  8
1
 62
     7
 10
753.44485213265011
 20
144.5463944513931
 30
0.0
 70
    32
  0
VERTEX
  5
192AF
  8
1
 62
     7
 10
753.44585213264986
 20
144.55139445139341
 30
0.0
 70
    32
  0
VERTEX
  5
192B0
  8
1
 62
     7
 10
753.44685213264972
 20
144.55539445139351
 30
0.0
 70
    32
  0
VERTEX
  5
192B1
  8
1
 62
     7
 10
753.44775213264995
 20
144.55939445139299
 30
0.0
 70
    32
  0
VERTEX
  5
192B2
  8
1
 62
     7
 10
753.4487521326497
 20
144.56339445139309
 30
0.0
 70
    32
  0
VERTEX
  5
192B3
  8
1
 62
     7
 10
753.44975213264945
 20
144.56839445139309
 30
0.0
 70
    32
  0
VERTEX
  5
192B4
  8
1
 62
     7
 10
753.45065213264968
 20
144.57239445139291
 30
0.0
 70
    32
  0
VERTEX
  5
192B5
  8
1
 62
     7
 10
753.45165213265
 20
144.57639445139301
 30
0.0
 70
    32
  0
VERTEX
  5
192B6
  8
1
 62
     7
 10
753.45255213265034
 20
144.58039445139309
 30
0.0
 70
    32
  0
VERTEX
  5
192B7
  8
1
 62
     7
 10
753.45345213264955
 20
144.5853944513928
 30
0.0
 70
    32
  0
VERTEX
  5
192B8
  8
1
 62
     7
 10
753.45445213264964
 20
144.58939445139299
 30
0.0
 70
    32
  0
VERTEX
  5
192B9
  8
1
 62
     7
 10
753.45535213264998
 20
144.5933944513931
 30
0.0
 70
    32
  0
VERTEX
  5
192BA
  8
1
 62
     7
 10
753.45625213264975
 20
144.59739445139309
 30
0.0
 70
    32
  0
VERTEX
  5
192BB
  8
1
 62
     7
 10
753.45715213264964
 20
144.60239445139291
 30
0.0
 70
    32
  0
VERTEX
  5
192BC
  8
1
 62
     7
 10
753.45805213264998
 20
144.60639445139299
 30
0.0
 70
    32
  0
VERTEX
  5
192BD
  8
1
 62
     7
 10
753.45895213264976
 20
144.6103944513932
 30
0.0
 70
    32
  0
VERTEX
  5
192BE
  8
1
 62
     7
 10
753.45985213264964
 20
144.61439445139331
 30
0.0
 70
    32
  0
VERTEX
  5
192BF
  8
1
 62
     7
 10
753.46075213264976
 20
144.6193944513933
 30
0.0
 70
    32
  0
VERTEX
  5
192C0
  8
1
 62
     7
 10
753.46165213264953
 20
144.6233944513931
 30
0.0
 70
    32
  0
VERTEX
  5
192C1
  8
1
 62
     7
 10
753.46255213264965
 20
144.62739445139309
 30
0.0
 70
    32
  0
VERTEX
  5
192C2
  8
1
 62
     7
 10
753.46345213264976
 20
144.63139445139331
 30
0.0
 70
    32
  0
VERTEX
  5
192C3
  8
1
 62
     7
 10
753.46435213264954
 20
144.63639445139299
 30
0.0
 70
    32
  0
VERTEX
  5
192C4
  8
1
 62
     7
 10
753.46525213264965
 20
144.64039445139309
 30
0.0
 70
    32
  0
VERTEX
  5
192C5
  8
1
 62
     7
 10
753.46605213265025
 20
144.64439445139331
 30
0.0
 70
    32
  0
VERTEX
  5
192C6
  8
1
 62
     7
 10
753.46695213265025
 20
144.64839445139299
 30
0.0
 70
    32
  0
VERTEX
  5
192C7
  8
1
 62
     7
 10
753.46785213265002
 20
144.6533944513929
 30
0.0
 70
    32
  0
VERTEX
  5
192C8
  8
1
 62
     7
 10
753.46865213264971
 20
144.6573944513932
 30
0.0
 70
    32
  0
VERTEX
  5
192C9
  8
1
 62
     7
 10
753.46955213264971
 20
144.66139445139331
 30
0.0
 70
    32
  0
VERTEX
  5
192CA
  8
1
 62
     7
 10
753.47035213264974
 20
144.6653944513935
 30
0.0
 70
    32
  0
VERTEX
  5
192CB
  8
1
 62
     7
 10
753.47125213264974
 20
144.67039445139309
 30
0.0
 70
    32
  0
VERTEX
  5
192CC
  8
1
 62
     7
 10
753.47205213265011
 20
144.6743944513932
 30
0.0
 70
    32
  0
VERTEX
  5
192CD
  8
1
 62
     7
 10
753.47295213265011
 20
144.67839445139339
 30
0.0
 70
    32
  0
VERTEX
  5
192CE
  8
1
 62
     7
 10
753.47375213264979
 20
144.68239445139321
 30
0.0
 70
    32
  0
VERTEX
  5
192CF
  8
1
 62
     7
 10
753.47455213265005
 20
144.6873944513932
 30
0.0
 70
    32
  0
VERTEX
  5
192D0
  8
1
 62
     7
 10
753.47535213264985
 20
144.69139445139331
 30
0.0
 70
    32
  0
VERTEX
  5
192D1
  8
1
 62
     7
 10
753.47625213264985
 20
144.6953944513931
 30
0.0
 70
    32
  0
VERTEX
  5
192D2
  8
1
 62
     7
 10
753.47705213264999
 20
144.70039445139309
 30
0.0
 70
    32
  0
VERTEX
  5
192D3
  8
1
 62
     7
 10
753.47785213265001
 20
144.70439445139311
 30
0.0
 70
    32
  0
VERTEX
  5
192D4
  8
1
 62
     7
 10
753.47865213265004
 20
144.70839445139299
 30
0.0
 70
    32
  0
VERTEX
  5
192D5
  8
1
 62
     7
 10
753.47945213264973
 20
144.7123944513931
 30
0.0
 70
    32
  0
VERTEX
  5
192D6
  8
1
 62
     7
 10
753.48025213264964
 20
144.71739445139309
 30
0.0
 70
    32
  0
VERTEX
  5
192D7
  8
1
 62
     7
 10
753.48105213264955
 20
144.72139445139331
 30
0.0
 70
    32
  0
VERTEX
  5
192D8
  8
1
 62
     7
 10
753.48185213264969
 20
144.72539445139299
 30
0.0
 70
    32
  0
VERTEX
  5
192D9
  8
1
 62
     7
 10
753.48265213265006
 20
144.7293944513932
 30
0.0
 70
    32
  0
VERTEX
  5
192DA
  8
1
 62
     7
 10
753.4834521326494
 20
144.7343944513932
 30
0.0
 70
    32
  0
VERTEX
  5
192DB
  8
1
 62
     7
 10
753.48415213264957
 20
144.7383944513933
 30
0.0
 70
    32
  0
VERTEX
  5
192DC
  8
1
 62
     7
 10
753.4849521326496
 20
144.74239445139349
 30
0.0
 70
    32
  0
VERTEX
  5
192DD
  8
1
 62
     7
 10
753.48575213264974
 20
144.74739445139309
 30
0.0
 70
    32
  0
VERTEX
  5
192DE
  8
1
 62
     7
 10
753.48655213264988
 20
144.7513944513932
 30
0.0
 70
    32
  0
VERTEX
  5
192DF
  8
1
 62
     7
 10
753.48725213264981
 20
144.7553944513933
 30
0.0
 70
    32
  0
VERTEX
  5
192E0
  8
1
 62
     7
 10
753.48805213264973
 20
144.75939445139349
 30
0.0
 70
    32
  0
VERTEX
  5
192E1
  8
1
 62
     7
 10
753.48875213265035
 20
144.7643944513932
 30
0.0
 70
    32
  0
VERTEX
  5
192E2
  8
1
 62
     7
 10
753.48955213264969
 20
144.76839445139331
 30
0.0
 70
    32
  0
VERTEX
  5
192E3
  8
1
 62
     7
 10
753.49025213264974
 20
144.7723944513931
 30
0.0
 70
    32
  0
VERTEX
  5
192E4
  8
1
 62
     7
 10
753.49105213264988
 20
144.77739445139309
 30
0.0
 70
    32
  0
VERTEX
  5
192E5
  8
1
 62
     7
 10
753.49175213264982
 20
144.7813944513932
 30
0.0
 70
    32
  0
VERTEX
  5
192E6
  8
1
 62
     7
 10
753.49245213264953
 20
144.78539445139299
 30
0.0
 70
    32
  0
VERTEX
  5
192E7
  8
1
 62
     7
 10
753.49325213265001
 20
144.78939445139309
 30
0.0
 70
    32
  0
VERTEX
  5
192E8
  8
1
 62
     7
 10
753.49395213264972
 20
144.79439445139309
 30
0.0
 70
    32
  0
VERTEX
  5
192E9
  8
1
 62
     7
 10
753.49465213264943
 20
144.79839445139331
 30
0.0
 70
    32
  0
VERTEX
  5
192EA
  8
1
 62
     7
 10
753.49535213265005
 20
144.80239445139301
 30
0.0
 70
    32
  0
VERTEX
  5
192EB
  8
1
 62
     7
 10
753.49615213264974
 20
144.80739445139309
 30
0.0
 70
    32
  0
VERTEX
  5
192EC
  8
1
 62
     7
 10
753.49685213265025
 20
144.8113944513932
 30
0.0
 70
    32
  0
VERTEX
  5
192ED
  8
1
 62
     7
 10
753.49755213265018
 20
144.8153944513933
 30
0.0
 70
    32
  0
VERTEX
  5
192EE
  8
1
 62
     7
 10
753.49825213264955
 20
144.81939445139341
 30
0.0
 70
    32
  0
VERTEX
  5
192EF
  8
1
 62
     7
 10
753.49895213264983
 20
144.82439445139309
 30
0.0
 70
    32
  0
VERTEX
  5
192F0
  8
1
 62
     7
 10
753.49965213264977
 20
144.82839445139319
 30
0.0
 70
    32
  0
VERTEX
  5
192F1
  8
1
 62
     7
 10
753.50035213264971
 20
144.8323944513933
 30
0.0
 70
    32
  0
VERTEX
  5
192F2
  8
1
 62
     7
 10
753.50095213264967
 20
144.83739445139301
 30
0.0
 70
    32
  0
VERTEX
  5
192F3
  8
1
 62
     7
 10
753.50165213264984
 20
144.84139445139311
 30
0.0
 70
    32
  0
VERTEX
  5
192F4
  8
1
 62
     7
 10
753.50235213264989
 20
144.8453944513933
 30
0.0
 70
    32
  0
VERTEX
  5
192F5
  8
1
 62
     7
 10
753.50305213264971
 20
144.8493944513931
 30
0.0
 70
    32
  0
VERTEX
  5
192F6
  8
1
 62
     7
 10
753.50375213264965
 20
144.85439445139309
 30
0.0
 70
    32
  0
VERTEX
  5
192F7
  8
1
 62
     7
 10
753.50435213264996
 20
144.8583944513932
 30
0.0
 70
    32
  0
VERTEX
  5
192F8
  8
1
 62
     7
 10
753.50505213265001
 20
144.86239445139299
 30
0.0
 70
    32
  0
VERTEX
  5
192F9
  8
1
 62
     7
 10
753.50565213265008
 20
144.86739445139301
 30
0.0
 70
    32
  0
VERTEX
  5
192FA
  8
1
 62
     7
 10
753.50635213264979
 20
144.87139445139309
 30
0.0
 70
    32
  0
VERTEX
  5
192FB
  8
1
 62
     7
 10
753.50705213264985
 20
144.87539445139319
 30
0.0
 70
    32
  0
VERTEX
  5
192FC
  8
1
 62
     7
 10
753.50765213265015
 20
144.87939445139301
 30
0.0
 70
    32
  0
VERTEX
  5
192FD
  8
1
 62
     7
 10
753.50825213264955
 20
144.88439445139301
 30
0.0
 70
    32
  0
VERTEX
  5
192FE
  8
1
 62
     7
 10
753.50895213264982
 20
144.8883944513932
 30
0.0
 70
    32
  0
VERTEX
  5
192FF
  8
1
 62
     7
 10
753.50955213264956
 20
144.8923944513933
 30
0.0
 70
    32
  0
VERTEX
  5
19300
  8
1
 62
     7
 10
753.51025213264995
 20
144.8973944513929
 30
0.0
 70
    32
  0
VERTEX
  5
19301
  8
1
 62
     7
 10
753.5108521326498
 20
144.90139445139309
 30
0.0
 70
    32
  0
VERTEX
  5
19302
  8
1
 62
     7
 10
753.51145213264965
 20
144.90539445139319
 30
0.0
 70
    32
  0
VERTEX
  5
19303
  8
1
 62
     7
 10
753.51205213265018
 20
144.9103944513929
 30
0.0
 70
    32
  0
VERTEX
  5
19304
  8
1
 62
     7
 10
753.51265213264981
 20
144.91439445139301
 30
0.0
 70
    32
  0
VERTEX
  5
19305
  8
1
 62
     7
 10
753.51335213264974
 20
144.91839445139311
 30
0.0
 70
    32
  0
VERTEX
  5
19306
  8
1
 62
     7
 10
753.51395213264971
 20
144.92339445139311
 30
0.0
 70
    32
  0
VERTEX
  5
19307
  8
1
 62
     7
 10
753.51455213264956
 20
144.9273944513929
 30
0.0
 70
    32
  0
VERTEX
  5
19308
  8
1
 62
     7
 10
753.51515213264952
 20
144.93139445139309
 30
0.0
 70
    32
  0
VERTEX
  5
19309
  8
1
 62
     7
 10
753.51575213265016
 20
144.93539445139319
 30
0.0
 70
    32
  0
VERTEX
  5
1930A
  8
1
 62
     7
 10
753.51635213264956
 20
144.9403944513929
 30
0.0
 70
    32
  0
VERTEX
  5
1930B
  8
1
 62
     7
 10
753.51695213264986
 20
144.9443944513929
 30
0.0
 70
    32
  0
VERTEX
  5
1930C
  8
1
 62
     7
 10
753.51755213264994
 20
144.94839445139311
 30
0.0
 70
    32
  0
VERTEX
  5
1930D
  8
1
 62
     7
 10
753.5180521326497
 20
144.953394451393
 30
0.0
 70
    32
  0
VERTEX
  5
1930E
  8
1
 62
     7
 10
753.51865213265
 20
144.9573944513929
 30
0.0
 70
    32
  0
VERTEX
  5
1930F
  8
1
 62
     7
 10
753.51925213264974
 20
144.96139445139301
 30
0.0
 70
    32
  0
VERTEX
  5
19310
  8
1
 62
     7
 10
753.51985213264959
 20
144.966394451393
 30
0.0
 70
    32
  0
VERTEX
  5
19311
  8
1
 62
     7
 10
753.52035213264958
 20
144.97039445139319
 30
0.0
 70
    32
  0
VERTEX
  5
19312
  8
1
 62
     7
 10
753.52095213264988
 20
144.9743944513929
 30
0.0
 70
    32
  0
VERTEX
  5
19313
  8
1
 62
     7
 10
753.52155213265007
 20
144.97839445139309
 30
0.0
 70
    32
  0
VERTEX
  5
19314
  8
1
 62
     7
 10
753.52205213264972
 20
144.98339445139339
 30
0.0
 70
    32
  0
VERTEX
  5
19315
  8
1
 62
     7
 10
753.52265213264968
 20
144.9873944513929
 30
0.0
 70
    32
  0
VERTEX
  5
19316
  8
1
 62
     7
 10
753.52315213265035
 20
144.99139445139301
 30
0.0
 70
    32
  0
VERTEX
  5
19317
  8
1
 62
     7
 10
753.52375213264986
 20
144.996394451393
 30
0.0
 70
    32
  0
VERTEX
  5
19318
  8
1
 62
     7
 10
753.5242521326503
 20
145.00039445139299
 30
0.0
 70
    32
  0
VERTEX
  5
19319
  8
1
 62
     7
 10
753.52475213264972
 20
145.0043944513929
 30
0.0
 70
    32
  0
VERTEX
  5
1931A
  8
1
 62
     7
 10
753.52535213264935
 20
145.00939445139329
 30
0.0
 70
    32
  0
VERTEX
  5
1931B
  8
1
 62
     7
 10
753.52585213265024
 20
145.0133944513934
 30
0.0
 70
    32
  0
VERTEX
  5
1931C
  8
1
 62
     7
 10
753.52635213264966
 20
145.0173944513935
 30
0.0
 70
    32
  0
VERTEX
  5
1931D
  8
1
 62
     7
 10
753.52695213265031
 20
145.02239445139321
 30
0.0
 70
    32
  0
VERTEX
  5
1931E
  8
1
 62
     7
 10
753.52745213264973
 20
145.02639445139329
 30
0.0
 70
    32
  0
VERTEX
  5
1931F
  8
1
 62
     7
 10
753.52795213264983
 20
145.03039445139299
 30
0.0
 70
    32
  0
VERTEX
  5
19320
  8
1
 62
     7
 10
753.52845213264948
 20
145.0353944513931
 30
0.0
 70
    32
  0
VERTEX
  5
19321
  8
1
 62
     7
 10
753.52895213264969
 20
145.03939445139309
 30
0.0
 70
    32
  0
VERTEX
  5
19322
  8
1
 62
     7
 10
753.52945213265002
 20
145.043394451393
 30
0.0
 70
    32
  0
VERTEX
  5
19323
  8
1
 62
     7
 10
753.52995213265012
 20
145.04839445139299
 30
0.0
 70
    32
  0
VERTEX
  5
19324
  8
1
 62
     7
 10
753.53045213264954
 20
145.05239445139321
 30
0.0
 70
    32
  0
VERTEX
  5
19325
  8
1
 62
     7
 10
753.53095213264999
 20
145.05639445139329
 30
0.0
 70
    32
  0
VERTEX
  5
19326
  8
1
 62
     7
 10
753.53145213265032
 20
145.06039445139339
 30
0.0
 70
    32
  0
VERTEX
  5
19327
  8
1
 62
     7
 10
753.53195213264974
 20
145.0653944513931
 30
0.0
 70
    32
  0
VERTEX
  5
19328
  8
1
 62
     7
 10
753.53235213265009
 20
145.06939445139321
 30
0.0
 70
    32
  0
VERTEX
  5
19329
  8
1
 62
     7
 10
753.53285213264974
 20
145.0733944513934
 30
0.0
 70
    32
  0
VERTEX
  5
1932A
  8
1
 62
     7
 10
753.53335213264984
 20
145.078394451393
 30
0.0
 70
    32
  0
VERTEX
  5
1932B
  8
1
 62
     7
 10
753.53375213265019
 20
145.0823944513931
 30
0.0
 70
    32
  0
VERTEX
  5
1932C
  8
1
 62
     7
 10
753.53425213264984
 20
145.08639445139329
 30
0.0
 70
    32
  0
VERTEX
  5
1932D
  8
1
 62
     7
 10
753.53475213264994
 20
145.09139445139289
 30
0.0
 70
    32
  0
VERTEX
  5
1932E
  8
1
 62
     7
 10
753.5351521326495
 20
145.0953944513931
 30
0.0
 70
    32
  0
VERTEX
  5
1932F
  8
1
 62
     7
 10
753.53555213264974
 20
145.09939445139321
 30
0.0
 70
    32
  0
VERTEX
  5
19330
  8
1
 62
     7
 10
753.53605213264996
 20
145.1043944513932
 30
0.0
 70
    32
  0
VERTEX
  5
19331
  8
1
 62
     7
 10
753.53645213264974
 20
145.108394451393
 30
0.0
 70
    32
  0
VERTEX
  5
19332
  8
1
 62
     7
 10
753.53695213264984
 20
145.1123944513931
 30
0.0
 70
    32
  0
VERTEX
  5
19333
  8
1
 62
     7
 10
753.53735213264974
 20
145.11739445139341
 30
0.0
 70
    32
  0
VERTEX
  5
19334
  8
1
 62
     7
 10
753.53775213265033
 20
145.12139445139289
 30
0.0
 70
    32
  0
VERTEX
  5
19335
  8
1
 62
     7
 10
753.53815213264988
 20
145.12539445139299
 30
0.0
 70
    32
  0
VERTEX
  5
19336
  8
1
 62
     7
 10
753.53865213264999
 20
145.13039445139341
 30
0.0
 70
    32
  0
VERTEX
  5
19337
  8
1
 62
     7
 10
753.53905213265011
 20
145.13439445139321
 30
0.0
 70
    32
  0
VERTEX
  5
19338
  8
1
 62
     7
 10
753.53945213265001
 20
145.138394451393
 30
0.0
 70
    32
  0
VERTEX
  5
19339
  8
1
 62
     7
 10
753.5398521326498
 20
145.14339445139331
 30
0.0
 70
    32
  0
VERTEX
  5
1933A
  8
1
 62
     7
 10
753.5402521326497
 20
145.1473944513931
 30
0.0
 70
    32
  0
VERTEX
  5
1933B
  8
1
 62
     7
 10
753.54065213264926
 20
145.15139445139289
 30
0.0
 70
    32
  0
VERTEX
  5
1933C
  8
1
 62
     7
 10
753.54105213264972
 20
145.1563944513932
 30
0.0
 70
    32
  0
VERTEX
  5
1933D
  8
1
 62
     7
 10
753.54135213265033
 20
145.1603944513933
 30
0.0
 70
    32
  0
VERTEX
  5
1933E
  8
1
 62
     7
 10
753.54175213265
 20
145.16439445139309
 30
0.0
 70
    32
  0
VERTEX
  5
1933F
  8
1
 62
     7
 10
753.54215213265002
 20
145.16939445139309
 30
0.0
 70
    32
  0
VERTEX
  5
19340
  8
1
 62
     7
 10
753.5425521326498
 20
145.17339445139319
 30
0.0
 70
    32
  0
VERTEX
  5
19341
  8
1
 62
     7
 10
753.54285213264995
 20
145.17739445139341
 30
0.0
 70
    32
  0
VERTEX
  5
19342
  8
1
 62
     7
 10
753.54325213264985
 20
145.18239445139301
 30
0.0
 70
    32
  0
VERTEX
  5
19343
  8
1
 62
     7
 10
753.54365213265032
 20
145.1863944513932
 30
0.0
 70
    32
  0
VERTEX
  5
19344
  8
1
 62
     7
 10
753.54395213265002
 20
145.1903944513933
 30
0.0
 70
    32
  0
VERTEX
  5
19345
  8
1
 62
     7
 10
753.54435213264981
 20
145.1953944513929
 30
0.0
 70
    32
  0
VERTEX
  5
19346
  8
1
 62
     7
 10
753.54465213264973
 20
145.19939445139309
 30
0.0
 70
    32
  0
VERTEX
  5
19347
  8
1
 62
     7
 10
753.54495213265034
 20
145.20339445139319
 30
0.0
 70
    32
  0
VERTEX
  5
19348
  8
1
 62
     7
 10
753.54535213264967
 20
145.20839445139291
 30
0.0
 70
    32
  0
VERTEX
  5
19349
  8
1
 62
     7
 10
753.54565213264971
 20
145.21239445139301
 30
0.0
 70
    32
  0
VERTEX
  5
1934A
  8
1
 62
     7
 10
753.54595213264975
 20
145.2163944513932
 30
0.0
 70
    32
  0
VERTEX
  5
1934B
  8
1
 62
     7
 10
753.54625213265001
 20
145.22139445139351
 30
0.0
 70
    32
  0
VERTEX
  5
1934C
  8
1
 62
     7
 10
753.54665213265002
 20
145.2253944513929
 30
0.0
 70
    32
  0
VERTEX
  5
1934D
  8
1
 62
     7
 10
753.54695213264972
 20
145.22939445139309
 30
0.0
 70
    32
  0
VERTEX
  5
1934E
  8
1
 62
     7
 10
753.54725213264965
 20
145.23439445139309
 30
0.0
 70
    32
  0
VERTEX
  5
1934F
  8
1
 62
     7
 10
753.54755213264946
 20
145.23839445139319
 30
0.0
 70
    32
  0
VERTEX
  5
19350
  8
1
 62
     7
 10
753.54785213264961
 20
145.2423944513929
 30
0.0
 70
    32
  0
VERTEX
  5
19351
  8
1
 62
     7
 10
753.54815213264988
 20
145.24739445139329
 30
0.0
 70
    32
  0
VERTEX
  5
19352
  8
1
 62
     7
 10
753.54845213264957
 20
145.251394451393
 30
0.0
 70
    32
  0
VERTEX
  5
19353
  8
1
 62
     7
 10
753.54875213264972
 20
145.2553944513929
 30
0.0
 70
    32
  0
VERTEX
  5
19354
  8
1
 62
     7
 10
753.54905213264965
 20
145.2603944513931
 30
0.0
 70
    32
  0
VERTEX
  5
19355
  8
1
 62
     7
 10
753.54925213264914
 20
145.264394451393
 30
0.0
 70
    32
  0
VERTEX
  5
19356
  8
1
 62
     7
 10
753.54955213264998
 20
145.2683944513935
 30
0.0
 70
    32
  0
VERTEX
  5
19357
  8
1
 62
     7
 10
753.54985213265013
 20
145.27339445139319
 30
0.0
 70
    32
  0
VERTEX
  5
19358
  8
1
 62
     7
 10
753.55015213264937
 20
145.27739445139329
 30
0.0
 70
    32
  0
VERTEX
  5
19359
  8
1
 62
     7
 10
753.55035213265035
 20
145.281394451393
 30
0.0
 70
    32
  0
VERTEX
  5
1935A
  8
1
 62
     7
 10
753.55065213264982
 20
145.28639445139311
 30
0.0
 70
    32
  0
VERTEX
  5
1935B
  8
1
 62
     7
 10
753.55085213265033
 20
145.29039445139321
 30
0.0
 70
    32
  0
VERTEX
  5
1935C
  8
1
 62
     7
 10
753.55115213265003
 20
145.2943944513934
 30
0.0
 70
    32
  0
VERTEX
  5
1935D
  8
1
 62
     7
 10
753.55135213264998
 20
145.299394451393
 30
0.0
 70
    32
  0
VERTEX
  5
1935E
  8
1
 62
     7
 10
753.55165213264968
 20
145.3033944513931
 30
0.0
 70
    32
  0
VERTEX
  5
1935F
  8
1
 62
     7
 10
753.55185213264974
 20
145.30739445139329
 30
0.0
 70
    32
  0
VERTEX
  5
19360
  8
1
 62
     7
 10
753.55215213265035
 20
145.31239445139289
 30
0.0
 70
    32
  0
VERTEX
  5
19361
  8
1
 62
     7
 10
753.55235213264973
 20
145.31639445139311
 30
0.0
 70
    32
  0
VERTEX
  5
19362
  8
1
 62
     7
 10
753.55255213265013
 20
145.32039445139321
 30
0.0
 70
    32
  0
VERTEX
  5
19363
  8
1
 62
     7
 10
753.55275213264974
 20
145.32539445139321
 30
0.0
 70
    32
  0
VERTEX
  5
19364
  8
1
 62
     7
 10
753.55305213264967
 20
145.329394451393
 30
0.0
 70
    32
  0
VERTEX
  5
19365
  8
1
 62
     7
 10
753.55325213264973
 20
145.3333944513931
 30
0.0
 70
    32
  0
VERTEX
  5
19366
  8
1
 62
     7
 10
753.55345213264957
 20
145.33839445139341
 30
0.0
 70
    32
  0
VERTEX
  5
19367
  8
1
 62
     7
 10
753.55365213264986
 20
145.34239445139289
 30
0.0
 70
    32
  0
VERTEX
  5
19368
  8
1
 62
     7
 10
753.55385213264969
 20
145.346394451393
 30
0.0
 70
    32
  0
VERTEX
  5
19369
  8
1
 62
     7
 10
753.55405213264999
 20
145.35139445139299
 30
0.0
 70
    32
  0
VERTEX
  5
1936A
  8
1
 62
     7
 10
753.55425213265005
 20
145.35539445139281
 30
0.0
 70
    32
  0
VERTEX
  5
1936B
  8
1
 62
     7
 10
753.55445213264989
 20
145.35939445139289
 30
0.0
 70
    32
  0
VERTEX
  5
1936C
  8
1
 62
     7
 10
753.55465213264938
 20
145.36439445139331
 30
0.0
 70
    32
  0
VERTEX
  5
1936D
  8
1
 62
     7
 10
753.55485213265035
 20
145.36839445139341
 30
0.0
 70
    32
  0
VERTEX
  5
1936E
  8
1
 62
     7
 10
753.55505213264973
 20
145.37239445139321
 30
0.0
 70
    32
  0
VERTEX
  5
1936F
  8
1
 62
     7
 10
753.55525213265014
 20
145.37739445139309
 30
0.0
 70
    32
  0
VERTEX
  5
19370
  8
1
 62
     7
 10
753.55545213264963
 20
145.38139445139331
 30
0.0
 70
    32
  0
VERTEX
  5
19371
  8
1
 62
     7
 10
753.55555213264972
 20
145.3853944513931
 30
0.0
 70
    32
  0
VERTEX
  5
19372
  8
1
 62
     7
 10
753.55575213264956
 20
145.39039445139309
 30
0.0
 70
    32
  0
VERTEX
  5
19373
  8
1
 62
     7
 10
753.55595213264974
 20
145.39439445139331
 30
0.0
 70
    32
  0
VERTEX
  5
19374
  8
1
 62
     7
 10
753.55605213264982
 20
145.39939445139291
 30
0.0
 70
    32
  0
VERTEX
  5
19375
  8
1
 62
     7
 10
753.55625213265034
 20
145.40339445139301
 30
0.0
 70
    32
  0
VERTEX
  5
19376
  8
1
 62
     7
 10
753.55645213264972
 20
145.40739445139309
 30
0.0
 70
    32
  0
VERTEX
  5
19377
  8
1
 62
     7
 10
753.55655213264959
 20
145.4123944513932
 30
0.0
 70
    32
  0
VERTEX
  5
19378
  8
1
 62
     7
 10
753.55675213264976
 20
145.4163944513933
 30
0.0
 70
    32
  0
VERTEX
  5
19379
  8
1
 62
     7
 10
753.55685213265031
 20
145.42039445139309
 30
0.0
 70
    32
  0
VERTEX
  5
1937A
  8
1
 62
     7
 10
753.5570521326498
 20
145.42539445139309
 30
0.0
 70
    32
  0
VERTEX
  5
1937B
  8
1
 62
     7
 10
753.55715213264989
 20
145.42939445139291
 30
0.0
 70
    32
  0
VERTEX
  5
1937C
  8
1
 62
     7
 10
753.55725213265009
 20
145.43339445139301
 30
0.0
 70
    32
  0
VERTEX
  5
1937D
  8
1
 62
     7
 10
753.55745213265004
 20
145.43839445139329
 30
0.0
 70
    32
  0
VERTEX
  5
1937E
  8
1
 62
     7
 10
753.55755213265024
 20
145.4423944513932
 30
0.0
 70
    32
  0
VERTEX
  5
1937F
  8
1
 62
     7
 10
753.55765213264999
 20
145.44639445139291
 30
0.0
 70
    32
  0
VERTEX
  5
19380
  8
1
 62
     7
 10
753.55775213264974
 20
145.4513944513933
 30
0.0
 70
    32
  0
VERTEX
  5
19381
  8
1
 62
     7
 10
753.55785213264983
 20
145.45539445139309
 30
0.0
 70
    32
  0
VERTEX
  5
19382
  8
1
 62
     7
 10
753.55795213265014
 20
145.45939445139319
 30
0.0
 70
    32
  0
VERTEX
  5
19383
  8
1
 62
     7
 10
753.55815213264964
 20
145.46439445139319
 30
0.0
 70
    32
  0
VERTEX
  5
19384
  8
1
 62
     7
 10
753.55825213264973
 20
145.46839445139329
 30
0.0
 70
    32
  0
VERTEX
  5
19385
  8
1
 62
     7
 10
753.55835213264947
 20
145.47239445139309
 30
0.0
 70
    32
  0
VERTEX
  5
19386
  8
1
 62
     7
 10
753.55845213265025
 20
145.47739445139311
 30
0.0
 70
    32
  0
VERTEX
  5
19387
  8
1
 62
     7
 10
753.55845213265025
 20
145.48139445139319
 30
0.0
 70
    32
  0
VERTEX
  5
19388
  8
1
 62
     7
 10
753.55855213264999
 20
145.4853944513934
 30
0.0
 70
    32
  0
VERTEX
  5
19389
  8
1
 62
     7
 10
753.55865213264974
 20
145.490394451393
 30
0.0
 70
    32
  0
VERTEX
  5
1938A
  8
1
 62
     7
 10
753.55875213264983
 20
145.49439445139319
 30
0.0
 70
    32
  0
VERTEX
  5
1938B
  8
1
 62
     7
 10
753.55885213265014
 20
145.4983944513933
 30
0.0
 70
    32
  0
VERTEX
  5
1938C
  8
1
 62
     7
 10
753.55885213265014
 20
145.50339445139289
 30
0.0
 70
    32
  0
VERTEX
  5
1938D
  8
1
 62
     7
 10
753.55895213264989
 20
145.50739445139311
 30
0.0
 70
    32
  0
VERTEX
  5
1938E
  8
1
 62
     7
 10
753.55905213265009
 20
145.51139445139319
 30
0.0
 70
    32
  0
VERTEX
  5
1938F
  8
1
 62
     7
 10
753.55905213265009
 20
145.51639445139321
 30
0.0
 70
    32
  0
VERTEX
  5
19390
  8
1
 62
     7
 10
753.55915213264973
 20
145.520394451393
 30
0.0
 70
    32
  0
VERTEX
  5
19391
  8
1
 62
     7
 10
753.55925213264959
 20
145.52539445139331
 30
0.0
 70
    32
  0
VERTEX
  5
19392
  8
1
 62
     7
 10
753.55925213264959
 20
145.5293944513935
 30
0.0
 70
    32
  0
VERTEX
  5
19393
  8
1
 62
     7
 10
753.55935213265025
 20
145.53339445139289
 30
0.0
 70
    32
  0
VERTEX
  5
19394
  8
1
 62
     7
 10
753.55935213265025
 20
145.53839445139329
 30
0.0
 70
    32
  0
VERTEX
  5
19395
  8
1
 62
     7
 10
753.55945213264977
 20
145.54239445139299
 30
0.0
 70
    32
  0
VERTEX
  5
19396
  8
1
 62
     7
 10
753.55945213264977
 20
145.54639445139321
 30
0.0
 70
    32
  0
VERTEX
  5
19397
  8
1
 62
     7
 10
753.55955213265008
 20
145.55139445139309
 30
0.0
 70
    32
  0
VERTEX
  5
19398
  8
1
 62
     7
 10
753.55955213265008
 20
145.55539445139331
 30
0.0
 70
    32
  0
VERTEX
  5
19399
  8
1
 62
     7
 10
753.55965213265006
 20
145.55939445139299
 30
0.0
 70
    32
  0
VERTEX
  5
1939A
  8
1
 62
     7
 10
753.55965213265006
 20
145.5643944513931
 30
0.0
 70
    32
  0
VERTEX
  5
1939B
  8
1
 62
     7
 10
753.55965213265006
 20
145.5683944513932
 30
0.0
 70
    32
  0
VERTEX
  5
1939C
  8
1
 62
     7
 10
753.55975213264981
 20
145.57239445139339
 30
0.0
 70
    32
  0
VERTEX
  5
1939D
  8
1
 62
     7
 10
753.55975213264981
 20
145.57739445139299
 30
0.0
 70
    32
  0
VERTEX
  5
1939E
  8
1
 62
     7
 10
753.55985213264955
 20
145.58139445139309
 30
0.0
 70
    32
  0
VERTEX
  5
1939F
  8
1
 62
     7
 10
753.55985213264955
 20
145.58539445139331
 30
0.0
 70
    32
  0
VERTEX
  5
193A0
  8
1
 62
     7
 10
753.55985213264955
 20
145.59039445139291
 30
0.0
 70
    32
  0
VERTEX
  5
193A1
  8
1
 62
     7
 10
753.5599521326501
 20
145.5943944513931
 30
0.0
 70
    32
  0
SEQEND
  5
193A2
  8
1
 62
     7
  0
LINE
  5
193A3
  8
1
  6
CONTINUOUS
 62
     7
 10
763.82976693569231
 20
145.59444151646699
 30
0.0
 11
763.82976693569231
 21
154.6294415164673
 31
0.0
  0
ARC
  5
193A4
  8
1
  6
CONTINUOUS
 62
     7
 10
765.42976693569301
 20
143.5944415164671
 30
0.0
 40
0.5
 50
270.0
 51
0.0
  0
ARC
  5
193A5
  8
1
  6
CONTINUOUS
 62
     7
 10
761.32976693569219
 20
145.59444151646699
 30
0.0
 40
2.4999999999999991
 50
270.0
 51
0.0
  0
LINE
  5
193A6
  8
1
  6
CONTINUOUS
 62
     7
 10
765.42976693569301
 20
143.09444151646721
 30
0.0
 11
761.32976693569219
 21
143.09444151646721
 31
0.0
  0
LINE
  5
193A7
  8
1
  6
CONTINUOUS
 62
     7
 10
764.92976693569483
 20
177.09444151646699
 30
0.0
 11
756.02976693569383
 21
177.09444151646699
 31
0.0
  0
LINE
  5
193A8
  8
1
  6
CONTINUOUS
 62
     7
 10
724.42976693569256
 20
170.37765507623899
 30
0.0
 11
735.42976693569301
 21
170.37765507623899
 31
0.0
  0
LINE
  5
193A9
  8
1
  6
CONTINUOUS
 62
     7
 10
754.42976693569426
 20
177.09444151646699
 30
0.0
 11
748.82976693569583
 21
177.09444151646699
 31
0.0
  0
ARC
  5
193AA
  8
1
  6
CONTINUOUS
 62
     7
 10
755.42976693569415
 20
176.0944415164671
 30
0.0
 40
0.9999999999998864
 50
90.0
 51
180.0
  0
LINE
  5
193AB
  8
1
  6
CONTINUOUS
 62
     7
 10
754.42976693569426
 20
177.09444151646699
 30
0.0
 11
755.42976693569415
 21
177.09444151646699
 31
0.0
  0
LINE
  5
193AC
  8
1
  6
CONTINUOUS
 62
     7
 10
756.02976693569383
 20
177.09444151646699
 30
0.0
 11
755.42976693569415
 21
177.09444151646699
 31
0.0
  0
LINE
  5
193AD
  8
AM_0
 10
763.42975930629746
 20
177.10714151647159
 30
0.0
 11
763.42975930629746
 21
179.6071415164719
 31
0.0
  0
ARC
  5
193AE
  8
1
  6
CONTINUOUS
 62
     7
 10
764.92976693569483
 20
176.0944415164671
 30
0.0
 40
0.9999999999999998
 50
0.0
 51
90.0
  0
LINE
  5
193AF
  8
AM_0
 10
759.94802202461869
 20
179.59444151647801
 30
0.0
 11
760.22179908230885
 21
190.0495655405544
 31
0.0
  0
LINE
  5
193B0
  8
AM_0
 10
699.94802202461915
 20
179.59444151646539
 30
0.0
 11
699.64596911808314
 21
191.1293766432654
 31
0.0
  0
LINE
  5
193EE
  8
ﾁｭｳｼﾝｾﾝ1
 10
614.0220170513154
 20
254.09444151647159
 30
0.0
 11
845.83751682007085
 21
254.09444151647119
 31
0.0
  0
LINE
  5
193EF
  8
ｶｸﾚｾﾝ2
 10
782.93678223360553
 20
218.59444039888439
 30
0.0
 11
782.93678223360553
 21
289.5944426340584
 31
0.0
  0
LINE
  5
193F0
  8
ｶｸﾚｾﾝ2
 10
797.92976693568301
 20
271.59444151647119
 30
0.0
 11
797.92976693568301
 21
236.59444151647131
 31
0.0
  0
LINE
  5
193F1
  8
ｶｸﾚｾﾝ2
 10
786.93678235281482
 20
276.59444218702367
 30
0.0
 11
786.93678235281482
 21
231.59444084591939
 31
0.0
  0
LINE
  5
193F2
  8
ｶｸﾚｾﾝ2
 10
786.93678235281482
 20
231.59444084591939
 30
0.0
 11
782.93678223360553
 21
231.59444084591939
 31
0.0
  0
LINE
  5
193F3
  8
ｶｸﾚｾﾝ2
 10
786.93678235281482
 20
231.59444084591919
 30
0.0
 11
782.93678223360553
 21
231.59444084591919
 31
0.0
  0
LINE
  5
193F4
  8
ｶｸﾚｾﾝ2
 10
797.92976693568301
 20
236.59444151647131
 30
0.0
 11
786.93678235281482
 21
231.59444084591919
 31
0.0
  0
LINE
  5
193F5
  8
0
 10
839.92976693568301
 20
268.09444151647131
 30
0.0
 11
799.92976693568278
 21
268.09444151647131
 31
0.0
  0
LINE
  5
193F6
  8
0
 10
839.92976693568301
 20
240.09444151647119
 30
0.0
 11
799.92976693568278
 21
240.09444151647119
 31
0.0
  0
LINE
  5
193F7
  8
ｶｸﾚｾﾝ2
 10
786.93678235281482
 20
276.59444218702367
 30
0.0
 11
782.93678223360553
 21
276.59444218702367
 31
0.0
  0
LINE
  5
193F8
  8
ｶｸﾚｾﾝ2
 10
786.93678235281482
 20
276.59444218702367
 30
0.0
 11
782.93678223360553
 21
276.59444218702367
 31
0.0
  0
LINE
  5
193F9
  8
ｶｸﾚｾﾝ2
 10
786.93678235281482
 20
276.59444218702367
 30
0.0
 11
797.92976693568301
 21
271.59444151647119
 31
0.0
  0
LINE
  5
193FA
  8
0
 10
839.92976693568301
 20
271.09444151647131
 30
0.0
 11
807.92976693568278
 21
271.09444151647131
 31
0.0
  0
LINE
  5
193FB
  8
0
 10
807.92976693568278
 20
271.09444151647131
 30
0.0
 11
807.92976693568278
 21
268.09444151647131
 31
0.0
  0
LINE
  5
193FC
  8
AM_0
 10
839.92976693568301
 20
240.09444151647119
 30
0.0
 11
839.92976693568301
 21
271.09444151647131
 31
0.0
  0
LINE
  5
193FD
  8
ｶｸﾚｾﾝ2
 10
799.92976693568278
 20
268.09444151647131
 30
0.0
 11
797.92976693568301
 21
268.09444151647131
 31
0.0
  0
LINE
  5
193FE
  8
ｶｸﾚｾﾝ2
 10
799.92976693568278
 20
240.09444151647119
 30
0.0
 11
797.92976693568301
 21
240.09444151647119
 31
0.0
  0
LINE
  5
19419
  8
ﾁｭｳｼﾝｾﾝ1
 10
439.77700915338562
 20
437.06570753185309
 30
0.0
 11
439.77700915338579
 21
669.13218913622745
 31
0.0
  0
LINE
  5
1941A
  8
0
 10
425.77700915338539
 20
663.10595442302485
 30
0.0
 11
425.77700915338539
 21
623.09894919830754
 31
0.0
  0
LINE
  5
1941B
  8
0
 10
453.77700915338562
 20
663.10595442302531
 30
0.0
 11
453.77700915338562
 21
623.09894919830754
 31
0.0
  0
LINE
  5
1941C
  8
AM_0
 10
453.77700915338562
 20
663.10595442302531
 30
0.0
 11
425.77700915338539
 21
663.10595442302531
 31
0.0
  0
LINE
  5
1941D
  8
AM_0
 10
435.77700915338562
 20
663.10595442302531
 30
0.0
 11
435.77700915338539
 21
631.10595442302531
 31
0.0
  0
LINE
  5
1941E
  8
AM_0
 10
443.77700915338562
 20
663.10595442302531
 30
0.0
 11
443.77700915338539
 21
631.10595442302531
 31
0.0
  0
LINE
  5
1941F
  8
AM_0
 10
435.77700915338539
 20
631.10595442302531
 30
0.0
 11
443.77700915338539
 21
631.10595442302531
 31
0.0
  0
ARC
  5
19420
  8
AM_0
 10
439.77700915338539
 20
631.10595442302531
 30
0.0
 40
4.0
 50
180.0
 51
0.0
  0
LINE
  5
19421
  8
ｶｸﾚｾﾝ2
 10
475.27701027097248
 20
606.10596449622983
 30
0.0
 11
404.27700803579859
 21
606.10596449622983
 31
0.0
  0
LINE
  5
19422
  8
ｶｸﾚｾﾝ2
 10
422.27700915338562
 20
621.09894919830731
 30
0.0
 11
457.27700915338562
 21
621.09894919830731
 31
0.0
  0
LINE
  5
19423
  8
ｶｸﾚｾﾝ2
 10
417.27700848283331
 20
610.10596461543912
 30
0.0
 11
462.27700982393742
 21
610.10596461543912
 31
0.0
  0
LINE
  5
19424
  8
ｶｸﾚｾﾝ2
 10
462.27700982393742
 20
610.10596461543912
 30
0.0
 11
462.27700982393742
 21
606.10596449622983
 31
0.0
  0
LINE
  5
19425
  8
ｶｸﾚｾﾝ2
 10
462.27700982393782
 20
610.10596461543912
 30
0.0
 11
462.27700982393782
 21
606.10596449622983
 31
0.0
  0
LINE
  5
19426
  8
ｶｸﾚｾﾝ2
 10
457.27700915338562
 20
621.09894919830731
 30
0.0
 11
462.27700982393782
 21
610.10596461543912
 31
0.0
  0
LINE
  5
19427
  8
ｶｸﾚｾﾝ2
 10
417.27700848283331
 20
610.10596461543912
 30
0.0
 11
417.27700848283331
 21
606.10596449622983
 31
0.0
  0
LINE
  5
19428
  8
ｶｸﾚｾﾝ2
 10
417.27700848283331
 20
610.10596461543912
 30
0.0
 11
417.27700848283331
 21
606.10596449622983
 31
0.0
  0
LINE
  5
19429
  8
ｶｸﾚｾﾝ2
 10
417.27700848283331
 20
610.10596461543912
 30
0.0
 11
422.27700915338562
 21
621.09894919830731
 31
0.0
  0
LINE
  5
1942A
  8
ｶｸﾚｾﾝ2
 10
425.77700915338539
 20
623.09894919830731
 30
0.0
 11
425.77700915338539
 21
621.09894919830731
 31
0.0
  0
LINE
  5
1942B
  8
ｶｸﾚｾﾝ2
 10
453.77700915338568
 20
623.09894919830731
 30
0.0
 11
453.77700915338568
 21
621.09894919830731
 31
0.0
  0
TEXT
  5
19579
  8
AM_0
 10
618.06943301500178
 20
549.30506564878226
 30
0.0
 40
10.0
  1
VC04-007FBT~VC04-060FBT
1001
ACAD
1000
MTEXTBEGIN
1070
    73
1070
     1
1070
    44
1040
1.0
1070
    74
1070
     0
1000
MTEXTEND
  0
VIEWPORT
  5
89
 67
     1
  8
0
 10
210.0
 20
148.5
 30
0.0
 40
420.0
 41
297.0
 68
     1
 69
     1
1001
ACAD
1000
MVIEW
1002
{
1070
    16
1010
0.0
1020
0.0
1030
0.0
1010
0.0
1020
0.0
1030
1.0
1040
0.0
1040
297.0
1040
221.70154043645701
1040
148.5
1040
50.0
1040
0.0
1040
0.0
1070
     0
1070
   100
1070
     1
1070
     1
1070
     0
1070
     0
1070
     0
1070
     0
1040
0.0
1040
0.0
1040
0.0
1040
10.0
1040
10.0
1040
10.0
1040
10.0
1070
     0
1002
{
1002
}
1002
}
1001
GENIUS_GENOREF_13
1005
1B94
1001
GENIUS_GENSCREG_15
1000
PF
1040
1.0
1000
DF
1040
1.0
1000
MIN
1011
0.0
1021
0.0
1031
0.0
1021
0.0
1031
0.0
1000
MAX
1011
420.0
1021
0.0
1031
0.0
1021
297.0
1031
0.0
1000
FLAGS
1070
     4
  0
ENDSEC
  0
EOF
