  0
SECTION
  2
HEADER
  9
$ACADVER
  1
AC1009
  9
$INSBASE
 10
0.0
 20
0.0
 30
0.0
  9
$EXTMIN
 10
104.2912008390892
 20
140.37903394767039
 30
-0.0015258207003583
  9
$EXTMAX
 10
718.01781646571806
 20
573.11163334720004
 30
0.0000000349246037
  9
$LIMMIN
 10
0.0
 20
0.0
  9
$LIMMAX
 10
853.5
 20
555.00000000000011
  9
$ORTHOMODE
 70
     0
  9
$REGENMODE
 70
     1
  9
$FILLMODE
 70
     1
  9
$QTEXTMODE
 70
     0
  9
$MIRRTEXT
 70
     1
  9
$DRAGMODE
 70
     2
  9
$LTSCALE
 40
3.0
  9
$OSMODE
 70
   551
  9
$ATTMODE
 70
     1
  9
$TEXTSIZE
 40
2.5
  9
$TRACEWID
 40
1.0
  9
$TEXTSTYLE
  7
STANDARD
  9
$CLAYER
  8
AM_0
  9
$CELTYPE
  6
BYLAYER
  9
$CECOLOR
 62
   256
  9
$DIMSCALE
 40
3.0
  9
$DIMASZ
 40
2.5
  9
$DIMEXO
 40
1.0
  9
$DIMDLI
 40
7.0
  9
$DIMRND
 40
0.0
  9
$DIMDLE
 40
0.0
  9
$DIMEXE
 40
1.0
  9
$DIMTP
 40
0.1
  9
$DIMTM
 40
0.1000000001
  9
$DIMTXT
 40
2.5
  9
$DIMCEN
 40
0.0
  9
$DIMTSZ
 40
0.0
  9
$DIMTOL
 70
     0
  9
$DIMLIM
 70
     0
  9
$DIMTIH
 70
     0
  9
$DIMTOH
 70
     0
  9
$DIMSE1
 70
     0
  9
$DIMSE2
 70
     0
  9
$DIMTAD
 70
     3
  9
$DIMZIN
 70
     8
  9
$DIMBLK
  1

  9
$DIMASO
 70
     1
  9
$DIMSHO
 70
     1
  9
$DIMPOST
  1

  9
$DIMAPOST
  1
"
  9
$DIMALT
 70
     0
  9
$DIMALTD
 70
     2
  9
$DIMALTF
 40
0.0393701
  9
$DIMLFAC
 40
1.0
  9
$DIMTOFL
 70
     1
  9
$DIMTVP
 40
0.0
  9
$DIMTIX
 70
     0
  9
$DIMSOXD
 70
     0
  9
$DIMSAH
 70
     0
  9
$DIMBLK1
  1

  9
$DIMBLK2
  1

  9
$DIMSTYLE
  2
AM_JIS
  9
$DIMCLRD
 70
   256
  9
$DIMCLRE
 70
   256
  9
$DIMCLRT
 70
     4
  9
$DIMTFAC
 40
0.71
  9
$DIMGAP
 40
1.0
  9
$LUNITS
 70
     2
  9
$LUPREC
 70
     2
  9
$SKETCHINC
 40
1.0
  9
$FILLETRAD
 40
5.0
  9
$AUNITS
 70
     0
  9
$AUPREC
 70
     3
  9
$MENU
  1
.
  9
$ELEVATION
 40
0.0
  9
$PELEVATION
 40
0.0
  9
$THICKNESS
 40
0.0
  9
$LIMCHECK
 70
     0
  9
$BLIPMODE
 70
     0
  9
$CHAMFERA
 40
7.5
  9
$CHAMFERB
 40
7.5
  9
$SKPOLY
 70
     0
  9
$TDCREATE
 40
2452753.643349607
  9
$TDUPDATE
 40
2458541.6981979171
  9
$TDINDWG
 40
0.5307774306
  9
$TDUSRTIMER
 40
0.5307772338
  9
$USRTIMER
 70
     1
  9
$ANGBASE
 50
0.0
  9
$ANGDIR
 70
     0
  9
$PDMODE
 70
     0
  9
$PDSIZE
 40
0.0
  9
$PLINEWID
 40
0.0
  9
$COORDS
 70
     1
  9
$SPLFRAME
 70
     0
  9
$SPLINETYPE
 70
     6
  9
$SPLINESEGS
 70
     8
  9
$ATTDIA
 70
     1
  9
$ATTREQ
 70
     1
  9
$HANDLING
 70
     1
  9
$HANDSEED
  5
16967
  9
$SURFTAB1
 70
     6
  9
$SURFTAB2
 70
     6
  9
$SURFTYPE
 70
     6
  9
$SURFU
 70
     6
  9
$SURFV
 70
     6
  9
$UCSNAME
  2

  9
$UCSORG
 10
0.0
 20
0.0
 30
0.0
  9
$UCSXDIR
 10
1.0
 20
0.0
 30
0.0
  9
$UCSYDIR
 10
0.0
 20
1.0
 30
0.0
  9
$PUCSNAME
  2

  9
$PUCSORG
 10
0.0
 20
0.0
 30
0.0
  9
$PUCSXDIR
 10
1.0
 20
0.0
 30
0.0
  9
$PUCSYDIR
 10
0.0
 20
1.0
 30
0.0
  9
$USERI1
 70
     0
  9
$USERI2
 70
     0
  9
$USERI3
 70
     0
  9
$USERI4
 70
     0
  9
$USERI5
 70
     0
  9
$USERR1
 40
0.0
  9
$USERR2
 40
0.0
  9
$USERR3
 40
0.0
  9
$USERR4
 40
0.0
  9
$USERR5
 40
0.0
  9
$WORLDVIEW
 70
     1
  9
$SHADEDGE
 70
     3
  9
$SHADEDIF
 70
    70
  9
$TILEMODE
 70
     1
  9
$MAXACTVP
 70
    48
  9
$PLIMCHECK
 70
     0
  9
$PEXTMIN
 10
1.0000000000000000E+020
 20
1.0000000000000000E+020
 30
1.0000000000000000E+020
  9
$PEXTMAX
 10
-1.0000000000000000E+020
 20
-1.0000000000000000E+020
 30
-1.0000000000000000E+020
  9
$PLIMMIN
 10
0.0
 20
0.0
  9
$PLIMMAX
 10
420.0
 20
297.0
  9
$UNITMODE
 70
     0
  9
$VISRETAIN
 70
     1
  9
$PLINEGEN
 70
     0
  9
$PSLTSCALE
 70
     1
  0
ENDSEC
  0
SECTION
  2
TABLES
  0
TABLE
  2
VPORT
 70
     1
  0
VPORT
  2
*ACTIVE
 70
     0
 10
0.0
 20
0.0
 11
1.0
 21
1.0
 12
411.15450865240371
 22
356.74533364743519
 13
0.0
 23
0.0
 14
7.5
 24
7.5
 15
30.0
 25
30.0
 16
0.0
 26
0.0
 36
1.0
 17
0.0
 27
0.0
 37
0.0
 40
435.70330374323339
 41
1.7571592210767459
 42
50.0
 43
0.0
 44
0.0
 50
0.0
 51
0.0
 71
    16
 72
   100
 73
     1
 74
     1
 75
     0
 76
     0
 77
     0
 78
     0
  0
ENDTAB
  0
TABLE
  2
LTYPE
 70
    21
  0
LTYPE
  2
CONTINUOUS
 70
     0
  3
Solid line
 72
    65
 73
     0
 40
0.0
  0
LTYPE
  2
PHANTOM2
 70
     0
  3
Phantom (.5x) ___ _ _ ___ _ _ ___ _ _ ___ _ _
 72
    65
 73
     6
 40
31.75
 49
15.875
 49
-3.174999999999998
 49
3.174999999999998
 49
-3.174999999999998
 49
3.174999999999998
 49
-3.174999999999998
  0
LTYPE
  2
CENTER
 70
     0
  3
Center ____ _ ____ _ ____ _ ____ _ ____ _ ____
 72
    65
 73
     4
 40
50.799999999999997
 49
31.75
 49
-6.3499999999999979
 49
6.3499999999999979
 49
-6.3499999999999979
  0
LTYPE
  2
ACANSTGBM
 70
     0
  3
__ . . __ . .
 72
    65
 73
     6
 40
9.0
 49
4.0
 49
-1.0
 49
1.0
 49
-1.0
 49
1.0
 49
-1.0
  0
LTYPE
  2
ACANSTGLM
 70
     0
  3
_ _ _ _ _
 72
    65
 73
     2
 40
3.0
 49
2.0
 49
-1.0
  0
LTYPE
  2
GEN3B
 70
     0
  3
 - - - - -
 72
    65
 73
     2
 40
1.0
 49
0.5
 49
-0.5
  0
LTYPE
  2
GEN7A
 70
     0
  3
__ . __ . __
 72
    65
 73
     4
 40
7.375
 49
4.75
 49
-0.875
 49
0.875
 49
-0.875
  0
LTYPE
  2
AM_ISO02W050
 70
     0
  3
__ __ __ __ __ __ __ __ __ __ __ __ __ __ __
 72
    65
 73
     2
 40
7.5
 49
6.0
 49
-1.5
  0
LTYPE
  2
AM_ISO08W050
 70
     0
  3
____ . ____ . ____ . ____ . ____ . ____ . ____
 72
    65
 73
     4
 40
18.0
 49
12.0
 49
-1.5
 49
3.0
 49
-1.5
  0
LTYPE
  2
AM_ISO09W050
 70
     0
  3
_____ . . _____ . . _____ . . ____ .. ____
 72
    65
 73
     6
 40
22.5
 49
12.0
 49
-1.5
 49
3.0
 49
-1.5
 49
3.0
 49
-1.5
  0
LTYPE
  2
AMCONSTR
 70
     0
  3
_______________________
 72
    65
 73
     2
 40
9999.0
 49
9999.0
 49
0.0
  0
LTYPE
  2
AM_ISO02W050X2
 70
     0
  3
 _ _ _ _ _ _ _ _ _ _ _ _
 72
    65
 73
     2
 40
3.75
 49
3.0
 49
-0.75
  0
LTYPE
  2
AM_ISO08W050X2
 70
     0
  3
__ . __ . __ . __ . __ . __
 72
    65
 73
     4
 40
9.0
 49
6.0
 49
-0.75
 49
1.5
 49
-0.75
  0
LTYPE
  2
AMZIGZAG
 70
     0
  3
/\/-/\/-/\/-/\/-/\/-/\/
 72
    65
 73
     2
 40
11.0001
 49
0.0001
 49
-11.0
  0
LTYPE
  2
ACJISTGB
 70
     0
  3
__ . . __ . .
 72
    65
 73
     6
 40
9.0
 49
4.0
 49
-1.0
 49
1.0
 49
-1.0
 49
1.0
 49
-1.0
  0
LTYPE
  2
ACJISTGL
 70
     0
  3
_ _ _ _ _
 72
    65
 73
     2
 40
3.0
 49
2.0
 49
-1.0
  0
LTYPE
  2
ACISOWELD
 70
     0
  3
_ _ _ _ _
 72
    65
 73
     2
 40
2.0
 49
2.0
 49
-1.0
  0
LTYPE
  2
ACISOTGB
 70
     0
  3
__ . . __ . .
 72
    65
 73
     6
 40
9.0
 49
4.0
 49
-1.0
 49
1.0
 49
-1.0
 49
1.0
 49
-1.0
  0
LTYPE
  2
ACISOTGL
 70
     0
  3
_ _ _ _ _
 72
    65
 73
     2
 40
3.0
 49
2.0
 49
-1.0
  0
LTYPE
  2
HIDDEN
 70
     0
  3
Hidden __ __ __ __ __ __ __ __ __ __ __ __ __ _
 72
    65
 73
     2
 40
9.5249999999999968
 49
6.3499999999999979
 49
-3.174999999999998
  0
ENDTAB
  0
TABLE
  2
LAYER
 70
     9
  0
LAYER
  2
0
 70
     0
 62
     7
  6
CONTINUOUS
  0
LAYER
  2
DEFPOINTS
 70
     0
 62
     7
  6
CONTINUOUS
  0
LAYER
  2
ｷｲﾛ
 70
     0
 62
     2
  6
CONTINUOUS
  0
LAYER
  2
ｶｸﾚｾﾝ2
 70
     0
 62
     3
  6
GEN3B
  0
LAYER
  2
ﾁｭｳｼﾝｾﾝ1
 70
     0
 62
     1
  6
GEN7A
  0
LAYER
  2
AM_0
 70
     0
 62
     7
  6
CONTINUOUS
  0
LAYER
  2
AM_0N
 70
     0
 62
     7
  6
CONTINUOUS
  0
LAYER
  2
AM_5
 70
     0
 62
     2
  6
CONTINUOUS
  0
LAYER
  2
AM_4
 70
     0
 62
     2
  6
CONTINUOUS
  0
ENDTAB
  0
TABLE
  2
STYLE
 70
     8
  0
STYLE
  2
STANDARD
 70
     0
 40
0.0
 41
0.8299999999999999
 50
0.0
 71
     0
 42
2.5
  3
txt.shx
  4
bigfont.shx
  0
STYLE
  2
ACANSTS
 70
     0
 40
1.0
 41
1.0
 50
0.0
 71
     0
 42
2.5
  3
romans.shx
  4
bigfont.shx
  0
STYLE
  2
ACANSGDT
 70
     0
 40
0.0
 41
1.0
 50
0.0
 71
     0
 42
2.5
  3
amgdtans.shx
  4

  0
STYLE
  2

 70
     1
 40
0.0
 41
1.0
 50
0.0
 71
     0
 42
2.5
  3
ltypeshp.shx
  4

  0
STYLE
  2
ACJISTS
 70
     0
 40
1.0
 41
1.0
 50
0.0
 71
     0
 42
2.5
  3
isocp.shx
  4
bigfont.shx
  0
STYLE
  2
ACJISGDT
 70
     0
 40
0.0
 41
1.0
 50
0.0
 71
     0
 42
2.5
  3
amgdt.shx
  4

  0
STYLE
  2
ACISOTS
 70
     0
 40
3.0
 41
1.0
 50
0.0
 71
     0
 42
2.5
  3
isocp.shx
  4
extfont.shx
  0
STYLE
  2
ACISOGDT
 70
     0
 40
0.0
 41
1.0
 50
0.0
 71
     0
 42
2.5
  3
amgdt.shx
  4

  0
ENDTAB
  0
TABLE
  2
VIEW
 70
    12
  0
VIEW
  2
GEN1
 70
     0
 40
95.824742268041234
 10
71.5
 20
137.08762886597941
 41
143.0
 11
0.0
 21
0.0
 31
1.0
 12
0.0
 22
0.0
 32
0.0
 42
50.0
 43
0.0
 44
0.0
 50
0.0
 71
     0
  0
VIEW
  2
GEN2
 70
     0
 40
95.824742268041234
 10
214.5
 20
137.08762886597941
 41
143.0
 11
0.0
 21
0.0
 31
1.0
 12
0.0
 22
0.0
 32
0.0
 42
50.0
 43
0.0
 44
0.0
 50
0.0
 71
     0
  0
VIEW
  2
GEN3
 70
     0
 40
95.824742268041234
 10
71.5
 20
47.912371134020603
 41
143.0
 11
0.0
 21
0.0
 31
1.0
 12
0.0
 22
0.0
 32
0.0
 42
50.0
 43
0.0
 44
0.0
 50
0.0
 71
     0
  0
VIEW
  2
GEN4
 70
     0
 40
95.824742268041234
 10
214.5
 20
47.912371134020603
 41
143.0
 11
0.0
 21
0.0
 31
1.0
 12
0.0
 22
0.0
 32
0.0
 42
50.0
 43
0.0
 44
0.0
 50
0.0
 71
     0
  0
VIEW
  2
GEN5
 70
     0
 40
95.824742268041234
 10
143.0
 20
92.500000000000057
 41
143.0
 11
0.0
 21
0.0
 31
1.0
 12
0.0
 22
0.0
 32
0.0
 42
50.0
 43
0.0
 44
0.0
 50
0.0
 71
     0
  0
VIEW
  2
GEN6
 70
     0
 40
191.64756804123709
 10
143.0
 20
92.5
 41
285.99714
 11
0.0
 21
0.0
 31
1.0
 12
0.0
 22
0.0
 32
0.0
 42
50.0
 43
0.0
 44
0.0
 50
0.0
 71
     0
  0
VIEW
  2
AM_VIEW1
 70
     0
 40
277.50000000000011
 10
249.64779005524869
 20
416.25000000000011
 41
499.29558011049721
 11
0.0
 21
0.0
 31
1.0
 12
0.0
 22
0.0
 32
0.0
 42
50.0
 43
0.0
 44
0.0
 50
0.0
 71
    16
  0
VIEW
  2
AM_VIEW2
 70
     0
 40
277.50000000000011
 10
603.85220994475117
 20
416.25000000000011
 41
499.29558011049721
 11
0.0
 21
0.0
 31
1.0
 12
0.0
 22
0.0
 32
0.0
 42
50.0
 43
0.0
 44
0.0
 50
0.0
 71
    16
  0
VIEW
  2
AM_VIEW3
 70
     0
 40
277.50000000000011
 10
249.64779005524869
 20
138.75
 41
499.29558011049721
 11
0.0
 21
0.0
 31
1.0
 12
0.0
 22
0.0
 32
0.0
 42
50.0
 43
0.0
 44
0.0
 50
0.0
 71
    16
  0
VIEW
  2
AM_VIEW4
 70
     0
 40
277.50000000000011
 10
603.85220994475117
 20
138.75
 41
499.29558011049721
 11
0.0
 21
0.0
 31
1.0
 12
0.0
 22
0.0
 32
0.0
 42
50.0
 43
0.0
 44
0.0
 50
0.0
 71
    16
  0
VIEW
  2
AM_VIEW5
 70
     0
 40
277.50000000000011
 10
426.75
 20
277.50000000000011
 41
499.2955801104971
 11
0.0
 21
0.0
 31
1.0
 12
0.0
 22
0.0
 32
0.0
 42
50.0
 43
0.0
 44
0.0
 50
0.0
 71
    16
  0
VIEW
  2
AM_VIEW6
 70
     0
 40
554.99445000000014
 10
426.75
 20
277.5
 41
998.5811743093924
 11
0.0
 21
0.0
 31
1.0
 12
0.0
 22
0.0
 32
0.0
 42
50.0
 43
0.0
 44
0.0
 50
0.0
 71
    16
  0
ENDTAB
  0
TABLE
  2
UCS
 70
     0
  0
ENDTAB
  0
TABLE
  2
APPID
 70
   101
  0
APPID
  2
ACAD
 70
     0
  0
APPID
  2
MCAD_NO_VIS
 70
     0
  0
APPID
  2
ACAD_TEMP_GRAPHIC
 70
     0
  0
APPID
  2
AD_DRAW
 70
     0
  0
APPID
  2
DESIGNERASSEMBLIES
 70
     0
  0
APPID
  2
ASURF_PCURVE_APPNAME
 70
     0
  0
APPID
  2
GENIUS_GE3SECT_13
 70
     0
  0
APPID
  2
GENIUS_GENCFG_13
 70
     0
  0
APPID
  2
GENIUS_GE3CFG0_13
 70
     0
  0
APPID
  2
GENIUS_GENCFG0_13
 70
     0
  0
APPID
  2
GENIUS_GENCFG1_13
 70
     0
  0
APPID
  2
GENIUS_GENCFG2_13
 70
     0
  0
APPID
  2
GENIUS_GENCFG3_13
 70
     0
  0
APPID
  2
GENIUS_GENCFG4_13
 70
     0
  0
APPID
  2
GENIUS_GEVCFG0_13
 70
     0
  0
APPID
  2
GENIUS_GENOENT_13
 70
     0
  0
APPID
  2
GENIUS_GENREC_14
 70
     0
  0
APPID
  2
GENIUS_GENODEF_13
 70
     0
  0
APPID
  2
GENIUS_GENOBJ-N-REC_13
 70
     0
  0
APPID
  2
GENIUS_GENHINW_13
 70
     0
  0
APPID
  2
GENIUS_FIRSTVISTXT_14
 70
     0
  0
APPID
  2
GENIUS_GENOBJ-N-LEADER_13
 70
     0
  0
APPID
  2
GENIUS_GENOREF_13
 70
     0
  0
APPID
  2
GENIUS_GENOLIS_13
 70
     0
  0
APPID
  2
GEV_VCCNULL_SWITCH_OFF
 70
     0
  0
APPID
  2
GENIUS_GENDTOL_13
 70
     0
  0
APPID
  2
GENIUS_GEFCFG0_13
 70
     0
  0
APPID
  2
GENIUS_GENOBJ-N-TIT_13
 70
     0
  0
APPID
  2
GENIUS_GENTITLE_13
 70
     0
  0
APPID
  2
GENIUS_GENZVEED_13
 70
     0
  0
APPID
  2
GENIUS_GENOBJ-N-SDF_13
 70
     0
  0
APPID
  2
GENIUS_GENSCREG_13
 70
     0
  0
APPID
  2
GENIUS_DUMCFG0_13
 70
     0
  0
APPID
  2
GEVID936201362
 70
     0
  0
APPID
  2
GEVDC
 70
     0
  0
APPID
  2
GEVCON
 70
     0
  0
APPID
  2
VCC
 70
     0
  0
APPID
  2
GEVPT
 70
     0
  0
APPID
  2
GEVIT
 70
     0
  0
APPID
  2
GENBH
 70
     0
  0
APPID
  2
GEVMK
 70
     0
  0
APPID
  2
GENIUS_GENBH_13
 70
     0
  0
APPID
  2
GENIUS_GENOBJ-NBEHI-BHF_13
 70
     0
  0
APPID
  2
GENIUS_GENOBJ-NBEHI-BHB_13
 70
     0
  0
APPID
  2
GENIUS_GENOBJ-F-DESC_13
 70
     0
  0
APPID
  2
GENIUS_GEFDESC_14
 70
     0
  0
APPID
  2
GENIUS_GENOBJ-F-PART_13
 70
     0
  0
APPID
  2
GENIUS_GEFSTDP_13
 70
     0
  0
APPID
  2
GENIUS_GEFPARTINS_13
 70
     0
  0
APPID
  2
GENIUS_GENTRA_14
 70
     0
  0
APPID
  2
GENIUS_GENINF13_13
 70
     0
  0
APPID
  2
GENIUS_GENOBJ-N-INFOPT_13
 70
     0
  0
APPID
  2
GENIUS_GENOBJ-N-RSSYM_13
 70
     0
  0
APPID
  2
GENIUS_GENSYMENT_13
 70
     0
  0
APPID
  2
GENIUS_GENSCSYM_13
 70
     0
  0
APPID
  2
GENIUS_GEFINFNAM_13
 70
     0
  0
APPID
  2
GENIUS_GENSCREG_15
 70
     0
  0
APPID
  2
GENIUS_GENOBJ-N-CEN_13
 70
     0
  0
APPID
  2
GENIUS_GENOBJ-N-CRS_13
 70
     0
  0
APPID
  2
GENIUS_GENOBJ-N-CRC_13
 70
     0
  0
APPID
  2
GENIUS_GENCRC_14
 70
     0
  0
APPID
  2
GEVID942827039
 70
     0
  0
APPID
  2
GEVID942827040
 70
     0
  0
APPID
  2
GEVID942827041
 70
     0
  0
APPID
  2
GENIUS_GENOBJ-F-SCPASSM_13
 70
     0
  0
APPID
  2
GENIUS_GENDIMSH_14
 70
     0
  0
APPID
  2
GENIUS_GENFIL_13
 70
     0
  0
APPID
  2
GENIUS_GENOBJ-N-CHA_13
 70
     0
  0
APPID
  2
GENIUS_GENOBJ-N-FIL_13
 70
     0
  0
APPID
  2
GEVID942827042
 70
     0
  0
APPID
  2
GEVID946020473
 70
     0
  0
APPID
  2
GEVID946020474
 70
     0
  0
APPID
  2
GEVID946020475
 70
     0
  0
APPID
  2
GENIUS_GENOBJ-N-HTC_13
 70
     0
  0
APPID
  2
GENIUS_GENHATCH_13
 70
     0
  0
APPID
  2
GEVID948854295
 70
     0
  0
APPID
  2
GEVID939402019
 70
     0
  0
APPID
  2
GEVID952919491
 70
     0
  0
APPID
  2
GEVID952919492
 70
     0
  0
APPID
  2
GENIUS_GEFWELD_13
 70
     0
  0
APPID
  2
GENIUS_GENOBJ-F-WELS_13
 70
     0
  0
APPID
  2
GEVID952919493
 70
     0
  0
APPID
  2
GENIUS_GENOBJ-N-RSBK_13
 70
     0
  0
APPID
  2
GENIUS_GENOBJ-N-LIB_13
 70
     0
  0
APPID
  2
GENIUS_GENSCALE_13
 70
     0
  0
APPID
  2
GEVID986376691
 70
     0
  0
APPID
  2
ACATTRIBSERVICES
 70
     0
  0
APPID
  2
DCO15
 70
     0
  0
APPID
  2
GEVID1088155249
 70
     0
  0
APPID
  2
ACADM_DIM_EDIT
 70
     0
  0
APPID
  2
AMDT_DM_ADJ
 70
     0
  0
APPID
  2
GEVID1096352058
 70
     0
  0
APPID
  2
AMG_2DHIDE
 70
     0
  0
APPID
  2
AMG_2DSTRUCT_BTR
 70
     0
  0
APPID
  2
ACADM_2DVIEW_IGN_NOTIFY
 70
     0
  0
APPID
  2
ACAD_MLEADERVER
 70
     0
  0
APPID
  2
ACAD_DSTYLE_DIMBREAK
 70
     0
  0
APPID
  2
ACAD_DSTYLE_DIMJAG
 70
     0
  0
APPID
  2
ACAD_NAV_VCDISPLAY
 70
     0
  0
APPID
  2
ACAD_EXEMPT_FROM_CAD_STANDARDS
 70
     0
  0
APPID
  2
ACADANNOPO
 70
     0
  0
ENDTAB
  0
TABLE
  2
DIMSTYLE
 70
    16
  0
DIMSTYLE
  2
STANDARD
 70
     0
  3

  4

  5

  6

  7

 40
1.0
 41
0.18
 42
0.0625
 43
0.38
 44
0.18
 45
0.0
 46
0.0
 47
0.0
 48
0.0
140
0.18
141
0.09
142
0.0
143
25.399999999999999
144
1.0
145
0.0
146
1.0
147
0.09
 71
     0
 72
     0
 73
     1
 74
     1
 75
     0
 76
     0
 77
     0
 78
     0
170
     0
171
     2
172
     0
173
     0
174
     0
175
     0
176
     0
177
     0
178
     0
  0
DIMSTYLE
  2
AM_JIS
 70
     0
  3

  4
"
  5

  6

  7

 40
1.0
 41
2.5
 42
1.0
 43
7.0
 44
1.0
 45
0.0
 46
0.0
 47
0.1
 48
0.1000000001
140
2.5
141
0.0
142
0.0
143
0.0393701
144
1.0
145
0.0
146
0.71
147
1.0
 71
     0
 72
     0
 73
     0
 74
     0
 75
     0
 76
     0
 77
     3
 78
     8
170
     0
171
     2
172
     1
173
     0
174
     0
175
     0
176
   256
177
   256
178
     4
  0
DIMSTYLE
  2
AM_JIS$3
 70
     0
  3

  4
"
  5

  6

  7

 40
1.0
 41
2.5
 42
1.0
 43
7.0
 44
1.0
 45
0.0
 46
0.0
 47
0.1
 48
0.1000000001
140
2.5
141
0.0
142
0.0
143
0.0393701
144
1.0
145
0.0
146
0.71
147
1.0
 71
     0
 72
     0
 73
     0
 74
     1
 75
     0
 76
     0
 77
     3
 78
     8
170
     0
171
     2
172
     0
173
     0
174
     0
175
     0
176
   256
177
   256
178
     4
  0
DIMSTYLE
  2
AM_JIS$4
 70
     0
  3

  4
"
  5

  6

  7

 40
1.0
 41
2.5
 42
1.0
 43
7.0
 44
1.0
 45
0.0
 46
0.0
 47
0.1
 48
0.1000000001
140
2.5
141
0.0
142
0.0
143
0.0393701
144
1.0
145
0.0
146
0.71
147
1.0
 71
     0
 72
     0
 73
     0
 74
     0
 75
     0
 76
     0
 77
     3
 78
     8
170
     0
171
     2
172
     0
173
     0
174
     0
175
     0
176
   256
177
   256
178
     4
  0
DIMSTYLE
  2
AM_JIS$6
 70
     0
  3

  4
"
  5

  6

  7

 40
1.0
 41
2.5
 42
1.0
 43
7.0
 44
1.0
 45
0.0
 46
0.0
 47
0.1
 48
0.1000000001
140
2.5
141
0.0
142
0.0
143
0.0393701
144
1.0
145
0.0
146
0.71
147
1.0
 71
     0
 72
     0
 73
     0
 74
     0
 75
     0
 76
     0
 77
     0
 78
     8
170
     0
171
     2
172
     1
173
     0
174
     0
175
     0
176
   256
177
   256
178
     4
  0
DIMSTYLE
  2
AM_JIS$7
 70
     0
  3

  4
"
  5

  6

  7

 40
1.0
 41
2.5
 42
1.0
 43
7.0
 44
1.0
 45
0.0
 46
0.0
 47
0.1
 48
0.1000000001
140
2.5
141
0.0
142
0.0
143
0.0393701
144
1.0
145
0.0
146
0.71
147
1.0
 71
     0
 72
     0
 73
     0
 74
     0
 75
     0
 76
     0
 77
     3
 78
     8
170
     0
171
     2
172
     1
173
     0
174
     0
175
     0
176
   256
177
   256
178
     4
  0
DIMSTYLE
  2
AM_JIS$SF
 70
     0
  3

  4
"
  5
OPEN30
  6
OPEN30
  7
OPEN30
 40
1.0
 41
2.5
 42
1.0
 43
10.0
 44
1.0
 45
0.0
 46
0.0
 47
0.1
 48
0.1
140
3.5
141
0.0
142
0.0
143
0.0393701
144
1.0
145
0.0
146
0.71
147
1.5
 71
     0
 72
     0
 73
     0
 74
     0
 75
     1
 76
     1
 77
     3
 78
     8
170
     0
171
     2
172
     1
173
     0
174
     0
175
     0
176
   256
177
   256
178
     4
  0
DIMSTYLE
  2
AM_JIS$SH
 70
     0
  3

  4
"
  5

  6
NONE
  7

 40
1.0
 41
2.5
 42
1.0
 43
10.0
 44
1.0
 45
0.0
 46
0.0
 47
0.1
 48
0.1
140
3.5
141
0.0
142
0.0
143
0.0393701
144
1.0
145
0.0
146
0.71
147
1.5
 71
     0
 72
     0
 73
     0
 74
     0
 75
     1
 76
     0
 77
     3
 78
     8
170
     0
171
     2
172
     1
173
     1
174
     0
175
     0
176
   256
177
   256
178
     4
  0
DIMSTYLE
  2
AM_ISO
 70
     0
  3

  4
"
  5

  6

  7

 40
1.0
 41
2.5
 42
1.0
 43
10.0
 44
1.0
 45
0.0
 46
0.0
 47
0.0
 48
0.000000001
140
3.0
141
0.0
142
0.0
143
0.0393701
144
1.0
145
0.0
146
0.71
147
1.299999999999998
 71
     1
 72
     0
 73
     0
 74
     0
 75
     0
 76
     0
 77
     1
 78
     8
170
     0
171
     2
172
     1
173
     0
174
     0
175
     0
176
   256
177
   256
178
     4
  0
DIMSTYLE
  2
AM_ISO$3
 70
     0
  3

  4
"
  5

  6

  7

 40
1.0
 41
2.5
 42
1.0
 43
10.0
 44
1.0
 45
0.0
 46
0.0
 47
0.0
 48
0.000000001
140
2.5
141
0.0
142
0.0
143
0.0393701
144
1.0
145
0.0
146
0.71
147
1.299999999999998
 71
     1
 72
     0
 73
     0
 74
     1
 75
     0
 76
     0
 77
     1
 78
     8
170
     0
171
     2
172
     0
173
     0
174
     0
175
     0
176
   256
177
   256
178
     4
  0
DIMSTYLE
  2
AM_ISO$4
 70
     0
  3

  4
"
  5

  6

  7

 40
1.0
 41
2.5
 42
1.0
 43
10.0
 44
1.0
 45
0.0
 46
0.0
 47
0.0
 48
0.000000001
140
2.5
141
0.0
142
0.0
143
0.0393701
144
1.0
145
0.0
146
0.71
147
1.299999999999998
 71
     1
 72
     0
 73
     0
 74
     1
 75
     0
 76
     0
 77
     1
 78
     8
170
     0
171
     2
172
     0
173
     0
174
     0
175
     0
176
   256
177
   256
178
     4
  0
DIMSTYLE
  2
AM_ISO$6
 70
     0
  3

  4
"
  5

  6

  7

 40
1.0
 41
2.5
 42
1.0
 43
10.0
 44
1.0
 45
0.0
 46
0.0
 47
0.0
 48
0.000000001
140
2.5
141
0.0
142
0.0
143
0.0393701
144
1.0
145
0.0
146
0.71
147
1.299999999999998
 71
     1
 72
     0
 73
     0
 74
     0
 75
     0
 76
     0
 77
     0
 78
     8
170
     0
171
     2
172
     1
173
     0
174
     0
175
     0
176
   256
177
   256
178
     4
  0
DIMSTYLE
  2
AM_ISO$7
 70
     0
  3

  4
"
  5

  6

  7

 40
1.0
 41
2.5
 42
1.0
 43
10.0
 44
1.0
 45
0.0
 46
0.0
 47
0.0
 48
0.000000001
140
2.5
141
0.0
142
0.0
143
0.0393701
144
1.0
145
0.0
146
0.71
147
1.299999999999998
 71
     1
 72
     0
 73
     0
 74
     0
 75
     0
 76
     0
 77
     1
 78
     8
170
     0
171
     2
172
     1
173
     0
174
     0
175
     0
176
   256
177
   256
178
     4
  0
DIMSTYLE
  2
AM_ISO$SF
 70
     0
  3

  4
"
  5

  6

  7

 40
1.0
 41
2.5
 42
1.0
 43
10.0
 44
1.0
 45
0.0
 46
0.0
 47
0.1
 48
0.1
140
3.5
141
0.0
142
0.0
143
0.0393701
144
1.0
145
0.0
146
0.71
147
1.5
 71
     0
 72
     0
 73
     0
 74
     0
 75
     1
 76
     1
 77
     1
 78
     8
170
     0
171
     2
172
     1
173
     0
174
     0
175
     0
176
   256
177
   256
178
     4
  0
DIMSTYLE
  2
AM_ISO$SH
 70
     0
  3

  4
"
  5

  6
GENAXEH
  7

 40
1.0
 41
2.5
 42
1.0
 43
10.0
 44
1.0
 45
0.0
 46
0.0
 47
0.1
 48
0.1
140
3.5
141
0.0
142
0.0
143
0.0393701
144
2.0
145
0.0
146
0.71
147
1.5
 71
     0
 72
     0
 73
     0
 74
     0
 75
     1
 76
     1
 77
     1
 78
     8
170
     0
171
     2
172
     1
173
     1
174
     0
175
     0
176
   256
177
   256
178
     4
  0
DIMSTYLE
  2
AM_JIS$0
 70
     0
  3

  4
"
  5

  6

  7

 40
1.0
 41
2.5
 42
1.0
 43
7.0
 44
1.0
 45
0.0
 46
0.0
 47
0.1
 48
0.1000000001
140
2.5
141
0.0
142
0.0
143
0.0393701
144
1.0
145
0.0
146
0.71
147
1.0
 71
     0
 72
     0
 73
     0
 74
     0
 75
     0
 76
     0
 77
     3
 78
     8
170
     0
171
     2
172
     1
173
     0
174
     0
175
     0
176
   256
177
   256
178
     4
  0
ENDTAB
  0
ENDSEC
  0
SECTION
  2
BLOCKS
  0
BLOCK
  8
0
  2
$MODEL_SPACE
 70
     0
 10
0.0
 20
0.0
 30
0.0
  3
$MODEL_SPACE
  1

  0
ENDBLK
  5
1A
  8
0
  0
BLOCK
 67
     1
  8
0
  2
$PAPER_SPACE
 70
     0
 10
0.0
 20
0.0
 30
0.0
  3
$PAPER_SPACE
  1

  0
ENDBLK
  5
17
 67
     1
  8
0
  0
BLOCK
  8
0
  2
_OPEN30
 70
     0
 10
0.0
 20
0.0
 30
0.0
  3
_OPEN30
  1

  0
LINE
  5
21C5
  8
0
 62
     0
 10
-1.0
 20
0.26794919
 30
0.0
 11
0.0
 21
0.0
 31
0.0
  0
LINE
  5
21C6
  8
0
 62
     0
 10
0.0
 20
0.0
 30
0.0
 11
-1.0
 21
-0.26794919
 31
0.0
  0
LINE
  5
21C7
  8
0
 62
     0
 10
0.0
 20
0.0
 30
0.0
 11
-1.0
 21
0.0
 31
0.0
  0
ENDBLK
  5
21C9
  8
0
  0
BLOCK
  8
0
  2
GENAXEH
 70
     0
 10
0.0
 20
0.0
 30
0.0
  3
GENAXEH
  1

  0
LINE
  5
21D0
  8
0
 10
-1.0
 20
0.0
 30
0.0
 11
1.0
 21
0.0
 31
0.0
  0
ENDBLK
  5
21D2
  8
0
  0
BLOCK
  8
0
  2
_NONE
 70
     0
 10
0.0
 20
0.0
 30
0.0
  3
_NONE
  1

  0
ENDBLK
  5
8193
  8
0
  0
ENDSEC
  0
SECTION
  2
ENTITIES
  0
POINT
  5
1B94
  8
0
 10
0.0
 20
0.0
 30
0.0
1001
GENIUS_GENODEF_13
1002
{
1000
HIER
1070
     1
1002
}
1002
{
1000
MANEDIT
1070
     0
1002
}
1002
{
1000
NOSEL
1070
     0
1002
}
1002
{
1000
BEHIND
1070
     0
1002
}
1002
{
1000
REACTOR
1002
}
1001
GENIUS_GENOBJ-N-SDF_13
1002
{
1000
OWNER
1000
GEN
1002
}
1001
GENIUS_GENOENT_13
1002
{
1000
MYREF
1005
1B94
1002
}
1002
{
1000
GRP
1005
0
1002
}
1001
GENIUS_GENOLIS_13
1002
{
1000
ENT
1005
89
1002
}
  0
ARC
  5
13707
  8
0
 10
440.00308276052658
 20
303.07254707683779
 30
0.0
 40
12.0
 50
90.0
 51
156.070183125966
  0
ARC
  5
13708
  8
0
 10
441.31679021643009
 20
282.07254707683802
 30
0.0
 40
3.0
 50
90.0
 51
199.47122063448779
1001
GENIUS_GENODEF_13
1002
{
1000
HIER
1070
     0
1002
}
1002
{
1000
MANEDIT
1070
     0
1002
}
1002
{
1000
NOSEL
1070
     0
1002
}
1002
{
1000
BEHIND
1070
     0
1002
}
1002
{
1000
OTHER
1070
     0
1002
}
1002
{
1000
REACTOR
1002
}
1001
GENIUS_GENOBJ-N-FIL_13
1002
{
1000
OWNER
1000
GEN
1002
}
  0
ARC
  5
13709
  8
0
 10
430.0030817174453
 20
278.07254707683768
 30
0.0
 40
9.0
 50
239.99999162024909
 51
19.4712206344878
  0
LINE
  5
1370A
  8
AM_0
 10
485.28523351634402
 20
285.07254707683808
 30
0.0
 11
426.0030801975268
 21
285.07254707683791
 31
0.0
  0
ARC
  5
1370B
  8
0
 10
440.00308395261959
 20
303.0725458847449
 30
0.0
 40
9.0
 50
221.44585651111089
 51
343.30075622292458
  0
ARC
  5
1370C
  8
0
 10
441.31679021643009
 20
194.07254707683759
 30
0.0
 40
3.0
 50
160.52877936551209
 51
270.0
1001
GENIUS_GENODEF_13
1002
{
1000
HIER
1070
     0
1002
}
1002
{
1000
MANEDIT
1070
     0
1002
}
1002
{
1000
NOSEL
1070
     0
1002
}
1002
{
1000
BEHIND
1070
     0
1002
}
1002
{
1000
OTHER
1070
     0
1002
}
1002
{
1000
REACTOR
1002
}
1001
GENIUS_GENOBJ-N-FIL_13
1002
{
1000
OWNER
1000
GEN
1002
}
  0
LINE
  5
1370D
  8
AM_0
 10
485.28523351634402
 20
191.07254707683779
 30
0.0
 11
426.0030801975268
 21
191.07254707683779
 31
0.0
  0
ARC
  5
1370E
  8
0
 10
440.00308276052658
 20
173.07254707683759
 30
0.0
 40
12.0
 50
203.92981687403369
 51
270.0
  0
ARC
  5
1370F
  8
0
 10
440.00308395261959
 20
173.07254826893049
 30
0.0
 40
9.0
 50
33.94543635354821
 51
138.554143488889
  0
ARC
  5
13710
  8
0
 10
430.0030817174453
 20
198.07254707683759
 30
0.0
 40
9.0
 50
340.52877936551221
 51
120.0000083797508
  0
LINE
  5
13711
  8
ﾁｭｳｼﾝｾﾝ1
 10
427.00308276052681
 20
303.07254707683779
 30
0.0
 11
453.00308276052658
 21
303.07254707683779
 31
0.0
1001
GENIUS_GENODEF_13
1002
{
1000
HIER
1070
     0
1002
}
1002
{
1000
MANEDIT
1070
     0
1002
}
1002
{
1000
NOSEL
1070
     0
1002
}
1002
{
1000
BEHIND
1070
     0
1002
}
1002
{
1000
OTHER
1070
     0
1002
}
1002
{
1000
REACTOR
1002
}
1001
GENIUS_GENOBJ-N-CEN_13
1002
{
1000
OWNER
1000
GEN
1002
}
  0
CIRCLE
  5
13712
  8
0
 10
440.00308276052658
 20
303.07254707683779
 30
0.0
 40
4.4999999999999982
  0
LINE
  5
13714
  8
ﾁｭｳｼﾝｾﾝ1
 10
427.00308276052681
 20
173.07254707683791
 30
0.0
 11
453.00308276052658
 21
173.07254707683791
 31
0.0
1001
GENIUS_GENODEF_13
1002
{
1000
HIER
1070
     0
1002
}
1002
{
1000
MANEDIT
1070
     0
1002
}
1002
{
1000
NOSEL
1070
     0
1002
}
1002
{
1000
BEHIND
1070
     0
1002
}
1002
{
1000
OTHER
1070
     0
1002
}
1002
{
1000
REACTOR
1002
}
1001
GENIUS_GENOBJ-N-CEN_13
1002
{
1000
OWNER
1000
GEN
1002
}
  0
CIRCLE
  5
13715
  8
0
 10
440.00308276052658
 20
173.07254707683791
 30
0.0
 40
4.4999999999999982
  0
LINE
  5
13718
  8
ﾁｭｳｼﾝｾﾝ1
 10
412.00308019752703
 20
238.07254707683791
 30
0.0
 11
718.00308428044514
 21
238.07254707683791
 31
0.0
  0
ARC
  5
1371C
  8
0
 10
424.00308019752703
 20
267.68024310894998
 30
0.0
 40
3.0
 50
59.999991620249162
 51
180.0
1001
GENIUS_GENOBJ-N-FIL_13
1002
{
1000
OWNER
1000
GEN
1002
}
1001
GENIUS_GENODEF_13
1002
{
1000
HIER
1070
     0
1002
}
1002
{
1000
MANEDIT
1070
     0
1002
}
1002
{
1000
NOSEL
1070
     0
1002
}
1002
{
1000
BEHIND
1070
     0
1002
}
1002
{
1000
OTHER
1070
     0
1002
}
1002
{
1000
REACTOR
1002
}
  0
LINE
  5
1371D
  8
AM_0
 10
421.00308019752691
 20
278.07254826893069
 30
0.0
 11
421.00308019752691
 21
238.07254707683779
 31
0.0
  0
LINE
  5
1371E
  8
AM_0
 10
417.0030801975268
 20
278.07254826893069
 30
0.0
 11
417.0030801975268
 21
198.07254588474521
 31
0.0
  0
LINE
  5
13721
  8
AM_0
 10
159.0329735262072
 20
269.57254827489089
 30
0.0
 11
159.0329735262072
 21
286.57254827489101
 31
0.0
  0
LINE
  5
13722
  8
0
 10
268.62297425020262
 20
161.07254626064201
 30
0.0
 11
268.6229746900442
 21
315.07254790839329
 31
0.0
  0
LINE
  5
13723
  8
AM_0
 10
160.62297352620709
 20
287.9728794735056
 30
0.0
 11
160.62297352620709
 21
188.1722146801699
 31
0.0
  0
LINE
  5
13724
  8
AM_0
 10
223.62297540375329
 20
289.07254859675641
 30
0.0
 11
223.62297540375329
 21
187.07254555691949
 31
0.0
  0
LINE
  5
13729
  8
ﾁｭｳｼﾝｾﾝ1
 10
198.62297446869519
 20
140.38961795282691
 30
0.0
 11
198.62297446869519
 21
303.98732605384748
 31
0.0
  0
ARC
  5
13731
  8
AM_0
 10
198.62297465869531
 20
238.07254707683779
 30
0.0
 40
56.499999999999972
 50
242.48212463479919
 51
295.51787536520169
  0
LINE
  5
13732
  8
AM_0
 10
223.62297540375471
 20
187.07254555691941
 30
0.0
 11
160.62297352620681
 21
188.1722146801699
 31
0.0
  0
LINE
  5
13733
  8
AM_0
 10
167.1229744686955
 20
171.07254707683779
 30
0.0
 11
230.12297446869559
 21
171.07254707683791
 31
0.0
  0
LINE
  5
13735
  8
ﾁｭｳｼﾝｾﾝ1
 10
278.29773684910668
 20
238.07254707683779
 30
0.0
 11
132.12297446869519
 21
238.07254707683779
 31
0.0
  0
LINE
  5
13736
  8
AM_0
 10
168.622974658695
 20
188.03257414097649
 30
0.0
 11
168.6229746586952
 21
171.07254707683779
 31
0.0
  0
LINE
  5
13737
  8
AM_0
 10
164.65667671090739
 20
181.0376475801356
 30
0.0
 11
164.9032122888955
 21
188.09750283465891
 31
0.0
  0
LINE
  5
13738
  8
AM_0
 10
162.58927260648329
 20
181.03764758013531
 30
0.0
 11
162.3411753534875
 21
188.142223355715
 31
0.0
  0
ARC
  5
13739
  8
AM_0
 10
166.66042371471721
 20
182.1131829548471
 30
0.0
 40
1.965536666759129
 50
3.1584702260748112
 51
179.35044678892791
  0
ARC
  5
13A27
  8
AM_0
 10
163.58866343350221
 20
181.07254707683799
 30
0.0
 40
0.9999999999999996
 50
181.9999999999971
 51
270.0
1001
GENIUS_GENODEF_13
1002
{
1000
HIER
1070
     0
1002
}
1002
{
1000
MANEDIT
1070
     0
1002
}
1002
{
1000
NOSEL
1070
     0
1002
}
1002
{
1000
BEHIND
1070
     0
1002
}
1002
{
1000
REACTOR
1002
}
1001
GENIUS_GENOBJ-N-FIL_13
1002
{
1000
OWNER
1000
GEN
1002
}
  0
LINE
  5
13A28
  8
AM_0
 10
163.65728588388831
 20
180.07254707683779
 30
0.0
 11
163.58866343350221
 21
180.07254707683779
 31
0.0
  0
ARC
  5
13A29
  8
AM_0
 10
163.65728588388831
 20
181.07254707683799
 30
0.0
 40
0.9999999999999996
 50
269.999999999995
 51
357.99999999999642
1001
GENIUS_GENODEF_13
1002
{
1000
HIER
1070
     0
1002
}
1002
{
1000
MANEDIT
1070
     0
1002
}
1002
{
1000
NOSEL
1070
     0
1002
}
1002
{
1000
BEHIND
1070
     0
1002
}
1002
{
1000
REACTOR
1002
}
1001
GENIUS_GENOBJ-N-FIL_13
1002
{
1000
OWNER
1000
GEN
1002
}
  0
LINE
  5
13A2E
  8
AM_0
 10
156.6229734069978
 20
265.57254789640172
 30
0.0
 11
156.6229734069978
 21
210.57254625727421
 31
0.0
  0
LINE
  5
13A2F
  8
AM_0
 10
159.0329735262072
 20
206.57254587878489
 30
0.0
 11
159.0329735262072
 21
189.57254587878469
 31
0.0
  0
LINE
  5
13A30
  8
0
 10
151.03297352620729
 20
204.57254587878489
 30
0.0
 11
159.0329735262072
 21
204.57254587878489
 31
0.0
  0
LINE
  5
13A31
  8
0
 10
159.0329735262072
 20
191.57254587878481
 30
0.0
 11
151.03297352620729
 21
191.57254587878481
 31
0.0
  0
LINE
  5
13A32
  8
0
 10
160.62297352620709
 20
189.57254587878469
 30
0.0
 11
159.0329735262072
 21
189.57254587878469
 31
0.0
  0
LINE
  5
13A33
  8
0
 10
160.62297352620709
 20
206.57254587878481
 30
0.0
 11
159.0329735262072
 21
206.57254587878481
 31
0.0
  0
LINE
  5
13A34
  8
AM_0
 10
156.6229734069978
 20
210.57254625727401
 30
0.0
 11
160.62297352620709
 21
210.57254625727401
 31
0.0
  0
LINE
  5
13A35
  8
AM_0
 10
156.6229734069978
 20
223.07254662980321
 30
0.0
 11
153.62297331759089
 21
223.07254662980321
 31
0.0
  0
LINE
  5
13A36
  8
AM_0
 10
156.6229734069978
 20
253.07254752387269
 30
0.0
 11
153.62297331759089
 21
253.07254752387269
 31
0.0
  0
LINE
  5
13A37
  8
0
 10
160.62297352620709
 20
269.57254827489101
 30
0.0
 11
159.0329735262072
 21
269.57254827489101
 31
0.0
  0
LINE
  5
13A38
  8
AM_0
 10
156.6229734069978
 20
265.57254789640172
 30
0.0
 11
160.62297352620709
 21
265.57254789640172
 31
0.0
  0
ARC
  5
13A39
  8
0
 10
249.62297462551149
 20
183.16266573078769
 30
0.0
 40
2.9999999999999978
 50
0.0000001678559361
 51
87.999999999999616
1001
GENIUS_GENOBJ-N-FIL_13
1002
{
1000
OWNER
1000
GEN
1002
}
1001
GENIUS_GENODEF_13
1002
{
1000
HIER
1070
     0
1002
}
1002
{
1000
MANEDIT
1070
     0
1002
}
1002
{
1000
NOSEL
1070
     0
1002
}
1002
{
1000
BEHIND
1070
     0
1002
}
1002
{
1000
OTHER
1070
     0
1002
}
1002
{
1000
REACTOR
1002
}
  0
LINE
  5
13A3C
  8
AM_0
 10
234.65667671090731
 20
181.03764758013531
 30
0.0
 11
234.853720662189
 21
186.6802480769025
 31
0.0
  0
LINE
  5
13A3D
  8
AM_0
 10
232.58927260648329
 20
181.0376475801356
 30
0.0
 11
232.38922329889709
 21
186.76631022123911
 31
0.0
  0
LINE
  5
13A3F
  8
AM_0
 10
228.62297465869531
 20
186.8978305218522
 30
0.0
 11
228.6229746586954
 21
171.07254707683779
 31
0.0
  0
ARC
  5
13A40
  8
AM_0
 10
230.58552560267319
 20
182.1131829548471
 30
0.0
 40
1.965536666759129
 50
0.6495532110655964
 51
176.84152977392509
  0
LINE
  5
13A42
  8
ﾁｭｳｼﾝｾﾝ1
 10
248.82815992873111
 20
173.07254707683791
 30
0.0
 11
274.828159928731
 21
173.07254707683791
 31
0.0
1001
GENIUS_GENODEF_13
1002
{
1000
HIER
1070
     0
1002
}
1002
{
1000
MANEDIT
1070
     0
1002
}
1002
{
1000
NOSEL
1070
     0
1002
}
1002
{
1000
BEHIND
1070
     0
1002
}
1002
{
1000
OTHER
1070
     0
1002
}
1002
{
1000
REACTOR
1002
}
1001
GENIUS_GENOBJ-N-CEN_13
1002
{
1000
OWNER
1000
GEN
1002
}
  0
LINE
  5
13CF4
  8
AM_0
 10
233.58866343350209
 20
180.07254707683779
 30
0.0
 11
233.65728588388819
 21
180.07254707683779
 31
0.0
  0
ARC
  5
13CF5
  8
AM_0
 10
233.58866343350209
 20
181.07254707683799
 30
0.0
 40
0.9999999999999996
 50
181.9999999999971
 51
270.0
1001
GENIUS_GENODEF_13
1002
{
1000
HIER
1070
     0
1002
}
1002
{
1000
MANEDIT
1070
     0
1002
}
1002
{
1000
NOSEL
1070
     0
1002
}
1002
{
1000
BEHIND
1070
     0
1002
}
1002
{
1000
REACTOR
1002
}
1001
GENIUS_GENOBJ-N-FIL_13
1002
{
1000
OWNER
1000
GEN
1002
}
  0
ARC
  5
13CF6
  8
AM_0
 10
233.65728588388819
 20
181.07254707683799
 30
0.0
 40
0.9999999999999996
 50
269.999999999995
 51
357.99999999999642
1001
GENIUS_GENODEF_13
1002
{
1000
HIER
1070
     0
1002
}
1002
{
1000
MANEDIT
1070
     0
1002
}
1002
{
1000
NOSEL
1070
     0
1002
}
1002
{
1000
BEHIND
1070
     0
1002
}
1002
{
1000
REACTOR
1002
}
1001
GENIUS_GENOBJ-N-FIL_13
1002
{
1000
OWNER
1000
GEN
1002
}
  0
ARC
  5
13CF8
  8
0
 10
254.62297468293221
 20
163.562656107013
 30
0.0
 40
1.9999999999999989
 50
180.00000016364311
 51
267.9999999999996
1001
GENIUS_GENOBJ-N-FIL_13
1002
{
1000
OWNER
1000
GEN
1002
}
1001
GENIUS_GENODEF_13
1002
{
1000
HIER
1070
     0
1002
}
1002
{
1000
MANEDIT
1070
     0
1002
}
1002
{
1000
NOSEL
1070
     0
1002
}
1002
{
1000
BEHIND
1070
     0
1002
}
1002
{
1000
OTHER
1070
     0
1002
}
1002
{
1000
REACTOR
1002
}
  0
LINE
  5
13CF9
  8
0
 10
254.553175689527
 20
161.5638744529748
 30
0.0
 11
268.6229747185879
 21
161.0725462442856
 31
0.0
  0
LINE
  5
13CFA
  8
0
 10
252.62297462551149
 20
183.16266573957671
 30
0.0
 11
252.62297468293221
 21
163.56265610130069
 31
0.0
  0
LINE
  5
13D01
  8
0
 10
223.6166078606532
 20
187.07265670279779
 30
0.0
 11
249.7276731156189
 21
186.16083821184509
 31
0.0
  0
LINE
  5
13D0E
  8
0
 10
428.26597636362419
 20
179.79864036488769
 30
0.0
 11
421.77669327340499
 21
194.42198994326739
 31
0.0
  0
LINE
  5
13D0F
  8
0
 10
429.03456682412559
 20
168.20513933216341
 30
0.0
 11
418.1205212946046
 21
192.79952069504259
 31
0.0
  0
ARC
  5
13D16
  8
0
 10
431.00810534772461
 20
181.0154923010563
 30
0.0
 40
3.0
 50
203.92981687403369
 51
318.554143488889
1001
GENIUS_GENOBJ-N-FIL_13
1002
{
1000
OWNER
1000
GEN
1002
}
1001
GENIUS_GENODEF_13
1002
{
1000
HIER
1070
     0
1002
}
1002
{
1000
MANEDIT
1070
     0
1002
}
1002
{
1000
NOSEL
1070
     0
1002
}
1002
{
1000
BEHIND
1070
     0
1002
}
1002
{
1000
OTHER
1070
     0
1002
}
1002
{
1000
REACTOR
1002
}
  0
LINE
  5
13D18
  8
AM_0
 10
421.00308019752691
 20
238.07254707683779
 30
0.0
 11
421.00308019752691
 21
198.0725458847449
 31
0.0
  0
ARC
  5
13D19
  8
0
 10
424.00308019752703
 20
208.46485104472549
 30
0.0
 40
3.0
 50
180.0
 51
300.0000083797508
1001
GENIUS_GENOBJ-N-FIL_13
1002
{
1000
OWNER
1000
GEN
1002
}
1001
GENIUS_GENODEF_13
1002
{
1000
HIER
1070
     0
1002
}
1002
{
1000
MANEDIT
1070
     0
1002
}
1002
{
1000
NOSEL
1070
     0
1002
}
1002
{
1000
BEHIND
1070
     0
1002
}
1002
{
1000
OTHER
1070
     0
1002
}
1002
{
1000
REACTOR
1002
}
  0
ARC
  5
13D1A
  8
AM_0
 10
430.0030805253524
 20
198.07254588474481
 30
0.0
 40
13.00000032782555
 50
179.99999499103649
 51
203.92981687403369
  0
ARC
  5
13D1B
  8
AM_0
 10
430.0030805253524
 20
198.07254588474481
 30
0.0
 40
9.0000003278255516
 50
179.99999499103649
 51
203.92981687403369
  0
CIRCLE
  5
13D1C
  8
0
 10
430.0030805253524
 20
198.07254707683791
 30
0.0
 40
3.25
  0
CIRCLE
  5
13D1D
  8
ｷｲﾛ
 10
430.0030805253524
 20
198.07254707683791
 30
0.0
 40
4.0
  0
ARC
  5
13D1E
  8
AM_0
 10
426.0030801975268
 20
196.07254707683771
 30
0.0
 40
5.0
 50
228.9011962787331
 51
270.0
1001
GENIUS_GENODEF_13
1002
{
1000
HIER
1070
     0
1002
}
1002
{
1000
MANEDIT
1070
     0
1002
}
1002
{
1000
NOSEL
1070
     0
1002
}
1002
{
1000
BEHIND
1070
     0
1002
}
1002
{
1000
OTHER
1070
     0
1002
}
1002
{
1000
REACTOR
1002
}
1001
GENIUS_GENOBJ-N-FIL_13
1002
{
1000
OWNER
1000
GEN
1002
}
  0
ARC
  5
13D1F
  8
0
 10
423.0030801975268
 20
234.07254707683779
 30
0.0
 40
2.0
 50
90.0
 51
180.0
1001
GENIUS_GENODEF_13
1002
{
1000
HIER
1070
     0
1002
}
1002
{
1000
MANEDIT
1070
     0
1002
}
1002
{
1000
NOSEL
1070
     0
1002
}
1002
{
1000
BEHIND
1070
     0
1002
}
1002
{
1000
OTHER
1070
     0
1002
}
1002
{
1000
REACTOR
1002
}
1001
GENIUS_GENOBJ-N-FIL_13
1002
{
1000
OWNER
1000
GEN
1002
}
  0
ARC
  5
13D20
  8
0
 10
423.0030801975268
 20
242.07254707683779
 30
0.0
 40
2.0
 50
180.0
 51
270.0
1001
GENIUS_GENOBJ-N-FIL_13
1002
{
1000
OWNER
1000
GEN
1002
}
1001
GENIUS_GENODEF_13
1002
{
1000
HIER
1070
     0
1002
}
1002
{
1000
MANEDIT
1070
     0
1002
}
1002
{
1000
NOSEL
1070
     0
1002
}
1002
{
1000
BEHIND
1070
     0
1002
}
1002
{
1000
OTHER
1070
     0
1002
}
1002
{
1000
REACTOR
1002
}
  0
ARC
  5
13D21
  8
0
 10
425.00308019752691
 20
238.07254707683779
 30
0.0
 40
2.0
 50
270.0
 51
90.0
  0
LINE
  5
13D22
  8
0
 10
425.00308019752691
 20
236.07254707683779
 30
0.0
 11
423.0030801975268
 21
236.07254707683779
 31
0.0
  0
LINE
  5
13D23
  8
0
 10
425.00308019752691
 20
240.07254707683779
 30
0.0
 11
423.0030801975268
 21
240.07254707683779
 31
0.0
  0
ARC
  5
13D25
  8
AM_0
 10
198.62297465869531
 20
238.07254707683779
 30
0.0
 40
56.499999999999972
 50
64.482124634799419
 51
117.51787536520069
  0
LINE
  5
13D26
  8
AM_0
 10
223.62297540375471
 20
289.07254859675618
 30
0.0
 11
160.62297352620709
 21
287.9728794735056
 31
0.0
  0
LINE
  5
13D29
  8
AM_0
 10
162.59887483598629
 20
293.3824184496678
 30
0.0
 11
162.41105948994809
 21
288.00409063010011
 31
0.0
  0
LINE
  5
13D2A
  8
AM_0
 10
164.66944052509211
 20
293.40650235400801
 30
0.0
 11
164.85660623052911
 21
288.04677780724188
 31
0.0
  0
LINE
  5
13D2B
  8
0
 10
151.03297352620729
 20
271.57254827489101
 30
0.0
 11
159.0329735262072
 21
271.57254827489101
 31
0.0
  0
LINE
  5
13D2C
  8
0
 10
159.0329735262072
 20
284.57254827489101
 30
0.0
 11
151.03297352620729
 21
284.57254827489101
 31
0.0
  0
LINE
  5
13D2D
  8
0
 10
160.62297352620709
 20
286.57254827489101
 30
0.0
 11
159.0329735262072
 21
286.57254827489101
 31
0.0
  0
ARC
  5
13D2E
  8
AM_0
 10
198.62297465869531
 20
189.07254707683779
 30
0.0
 40
110.9999999999999
 50
108.52714231447339
 51
108.566580801898
  0
ARC
  5
13D2F
  8
AM_0
 10
163.59826566300549
 20
293.34751895296529
 30
0.0
 40
0.9999999999999996
 50
108.5665808019031
 51
177.99999999999631
1001
GENIUS_GENODEF_13
1002
{
1000
HIER
1070
     0
1002
}
1002
{
1000
MANEDIT
1070
     0
1002
}
1002
{
1000
NOSEL
1070
     0
1002
}
1002
{
1000
BEHIND
1070
     0
1002
}
1002
{
1000
REACTOR
1002
}
1001
GENIUS_GENOBJ-N-FIL_13
1002
{
1000
OWNER
1000
GEN
1002
}
  0
ARC
  5
13D30
  8
AM_0
 10
163.67004969807289
 20
293.37160285730511
 30
0.0
 40
0.9999999999999996
 50
1.999999999997129
 51
108.52714231447339
1001
GENIUS_GENODEF_13
1002
{
1000
HIER
1070
     0
1002
}
1002
{
1000
MANEDIT
1070
     0
1002
}
1002
{
1000
NOSEL
1070
     0
1002
}
1002
{
1000
BEHIND
1070
     0
1002
}
1002
{
1000
REACTOR
1002
}
1001
GENIUS_GENOBJ-N-FIL_13
1002
{
1000
OWNER
1000
GEN
1002
}
  0
LINE
  5
13D31
  8
AM_0
 10
182.59372730262911
 20
298.07580625981012
 30
0.0
 11
182.3881848987817
 21
292.18984192286092
 31
0.0
  0
LINE
  5
13D32
  8
AM_0
 10
174.66516058173929
 20
296.2388515086995
 30
0.0
 11
174.9056023150107
 21
289.35350113495798
 31
0.0
  0
LINE
  5
13D33
  8
AM_0
 10
172.59636393273601
 20
296.22251677437669
 30
0.0
 11
172.3154073065115
 21
288.1769716643098
 31
0.0
  0
ARC
  5
13D34
  8
AM_0
 10
173.59575475975501
 20
296.18761727767412
 30
0.0
 40
0.9999999999999996
 50
103.15111826065331
 51
178.00000000000281
1001
GENIUS_GENODEF_13
1002
{
1000
HIER
1070
     0
1002
}
1002
{
1000
MANEDIT
1070
     0
1002
}
1002
{
1000
NOSEL
1070
     0
1002
}
1002
{
1000
BEHIND
1070
     0
1002
}
1002
{
1000
REACTOR
1002
}
1001
GENIUS_GENOBJ-N-FIL_13
1002
{
1000
OWNER
1000
GEN
1002
}
  0
ARC
  5
13D35
  8
AM_0
 10
198.62297465869531
 20
189.07254707683779
 30
0.0
 40
110.9999999999999
 50
103.11367014329871
 51
103.15111826065331
  0
ARC
  5
13D36
  8
AM_0
 10
173.66576975472049
 20
296.20395201199671
 30
0.0
 40
0.9999999999999996
 50
2.0000000000036389
 51
103.11367014329871
1001
GENIUS_GENODEF_13
1002
{
1000
HIER
1070
     0
1002
}
1002
{
1000
MANEDIT
1070
     0
1002
}
1002
{
1000
NOSEL
1070
     0
1002
}
1002
{
1000
BEHIND
1070
     0
1002
}
1002
{
1000
REACTOR
1002
}
1001
GENIUS_GENOBJ-N-FIL_13
1002
{
1000
OWNER
1000
GEN
1002
}
  0
ARC
  5
13D37
  8
AM_0
 10
183.66202588558249
 20
298.05038891548082
 30
0.0
 40
0.9999999999999996
 50
1.999999999997129
 51
97.816947831692914
1001
GENIUS_GENODEF_13
1002
{
1000
HIER
1070
     0
1002
}
1002
{
1000
MANEDIT
1070
     0
1002
}
1002
{
1000
NOSEL
1070
     0
1002
}
1002
{
1000
BEHIND
1070
     0
1002
}
1002
{
1000
REACTOR
1002
}
1001
GENIUS_GENOBJ-N-FIL_13
1002
{
1000
OWNER
1000
GEN
1002
}
  0
ARC
  5
13D38
  8
AM_0
 10
183.59311812964799
 20
298.0409067631075
 30
0.0
 40
0.9999999999999996
 50
97.853178088806132
 51
178.00000000000281
1001
GENIUS_GENODEF_13
1002
{
1000
HIER
1070
     0
1002
}
1002
{
1000
MANEDIT
1070
     0
1002
}
1002
{
1000
NOSEL
1070
     0
1002
}
1002
{
1000
BEHIND
1070
     0
1002
}
1002
{
1000
REACTOR
1002
}
1001
GENIUS_GENOBJ-N-FIL_13
1002
{
1000
OWNER
1000
GEN
1002
}
  0
ARC
  5
13D39
  8
AM_0
 10
198.62297465869531
 20
189.07254707683779
 30
0.0
 40
110.9999999999999
 50
97.816947831692914
 51
97.853178088806132
  0
LINE
  5
13D3A
  8
AM_0
 10
184.66141671260169
 20
298.08528841218362
 30
0.0
 11
184.84365979846791
 21
292.86652924625781
 31
0.0
  0
ARC
  5
13D3B
  8
AM_0
 10
193.65868204093169
 20
298.96047088471221
 30
0.0
 40
0.9999999999999996
 50
2.0000000000036389
 51
92.586633228774929
1001
GENIUS_GENODEF_13
1002
{
1000
HIER
1070
     0
1002
}
1002
{
1000
MANEDIT
1070
     0
1002
}
1002
{
1000
NOSEL
1070
     0
1002
}
1002
{
1000
BEHIND
1070
     0
1002
}
1002
{
1000
REACTOR
1002
}
1001
GENIUS_GENOBJ-N-FIL_13
1002
{
1000
OWNER
1000
GEN
1002
}
  0
ARC
  5
13D3C
  8
AM_0
 10
193.5903080068158
 20
298.95736070625168
 30
0.0
 40
0.9999999999999996
 50
92.622284087954526
 51
178.00000000000281
1001
GENIUS_GENODEF_13
1002
{
1000
HIER
1070
     0
1002
}
1002
{
1000
MANEDIT
1070
     0
1002
}
1002
{
1000
NOSEL
1070
     0
1002
}
1002
{
1000
BEHIND
1070
     0
1002
}
1002
{
1000
REACTOR
1002
}
1001
GENIUS_GENOBJ-N-FIL_13
1002
{
1000
OWNER
1000
GEN
1002
}
  0
ARC
  5
13D3D
  8
AM_0
 10
198.62297465869531
 20
189.07254707683779
 30
0.0
 40
110.9999999999999
 50
92.586633228774929
 51
92.622284087959443
  0
LINE
  5
13D3E
  8
AM_0
 10
192.5909171797968
 20
298.99226020295441
 30
0.0
 11
192.42466870594859
 21
294.23152679794867
 31
0.0
  0
LINE
  5
13D47
  8
AM_0
 10
194.65807286795081
 20
298.99537038141477
 30
0.0
 11
194.8170028293118
 21
294.4442117536409
 31
0.0
  0
LINE
  5
13D4B
  8
ﾁｭｳｼﾝｾﾝ1
 10
248.82815992873111
 20
303.07254707683779
 30
0.0
 11
274.828159928731
 21
303.07254707683779
 31
0.0
1001
GENIUS_GENODEF_13
1002
{
1000
HIER
1070
     0
1002
}
1002
{
1000
MANEDIT
1070
     0
1002
}
1002
{
1000
NOSEL
1070
     0
1002
}
1002
{
1000
BEHIND
1070
     0
1002
}
1002
{
1000
OTHER
1070
     0
1002
}
1002
{
1000
REACTOR
1002
}
1001
GENIUS_GENOBJ-N-CEN_13
1002
{
1000
OWNER
1000
GEN
1002
}
  0
ARC
  5
13D4C
  8
0
 10
254.62297468293221
 20
312.5824380466629
 30
0.0
 40
1.9999999999999989
 50
92.000000000000398
 51
179.9999998363551
1001
GENIUS_GENOBJ-N-FIL_13
1002
{
1000
OWNER
1000
GEN
1002
}
1001
GENIUS_GENODEF_13
1002
{
1000
HIER
1070
     0
1002
}
1002
{
1000
MANEDIT
1070
     0
1002
}
1002
{
1000
NOSEL
1070
     0
1002
}
1002
{
1000
BEHIND
1070
     0
1002
}
1002
{
1000
OTHER
1070
     0
1002
}
1002
{
1000
REACTOR
1002
}
  0
LINE
  5
13D4E
  8
0
 10
223.6166078606532
 20
289.072437450878
 30
0.0
 11
249.7276731156189
 21
289.98425594183061
 31
0.0
  0
LINE
  5
13D51
  8
AM_0
 10
234.64707448140439
 20
293.3824184496678
 30
0.0
 11
234.7839641884446
 21
289.46241012703302
 31
0.0
  0
LINE
  5
13D52
  8
AM_0
 10
232.5765087922984
 20
293.40650235400801
 30
0.0
 11
232.4359147040289
 21
289.3804144322325
 31
0.0
  0
LINE
  5
13D53
  8
AM_0
 10
222.58078873565111
 20
296.2388515086995
 30
0.0
 11
222.3403470023797
 21
289.35350113495798
 31
0.0
  0
LINE
  5
13D54
  8
AM_0
 10
224.64958538465439
 20
296.22251677437669
 30
0.0
 11
224.9000462064858
 21
289.0502572429765
 31
0.0
  0
LINE
  5
13D55
  8
AM_0
 10
214.65222201476141
 20
298.07580625981012
 30
0.0
 11
214.85776441860889
 21
292.18984192286092
 31
0.0
  0
ARC
  5
13D59
  8
AM_0
 10
203.65564131057479
 20
298.95736070625168
 30
0.0
 40
0.9999999999999996
 50
1.999999999997129
 51
87.377715912045474
1001
GENIUS_GENODEF_13
1002
{
1000
HIER
1070
     0
1002
}
1002
{
1000
MANEDIT
1070
     0
1002
}
1002
{
1000
NOSEL
1070
     0
1002
}
1002
{
1000
BEHIND
1070
     0
1002
}
1002
{
1000
REACTOR
1002
}
1001
GENIUS_GENOBJ-N-FIL_13
1002
{
1000
OWNER
1000
GEN
1002
}
  0
ARC
  5
13D5A
  8
AM_0
 10
203.5872672764587
 20
298.96047088471221
 30
0.0
 40
0.9999999999999996
 50
87.413366771225057
 51
177.99999999999631
1001
GENIUS_GENODEF_13
1002
{
1000
HIER
1070
     0
1002
}
1002
{
1000
MANEDIT
1070
     0
1002
}
1002
{
1000
NOSEL
1070
     0
1002
}
1002
{
1000
BEHIND
1070
     0
1002
}
1002
{
1000
REACTOR
1002
}
1001
GENIUS_GENOBJ-N-FIL_13
1002
{
1000
OWNER
1000
GEN
1002
}
  0
ARC
  5
13D5C
  8
AM_0
 10
198.62297465869531
 20
189.07254707683779
 30
0.0
 40
110.9999999999999
 50
87.377715912040557
 51
87.413366771225057
  0
LINE
  5
13D5D
  8
AM_0
 10
204.65503213759359
 20
298.99226020295441
 30
0.0
 11
204.82128061144169
 21
294.23152679794867
 31
0.0
  0
LINE
  5
13D5E
  8
AM_0
 10
202.58787644943959
 20
298.99537038141477
 30
0.0
 11
202.42894648807859
 21
294.4442117536409
 31
0.0
  0
ARC
  5
13D5F
  8
AM_0
 10
213.5839234318079
 20
298.05038891548082
 30
0.0
 40
0.9999999999999996
 50
82.1830521683071
 51
178.00000000000281
1001
GENIUS_GENODEF_13
1002
{
1000
HIER
1070
     0
1002
}
1002
{
1000
MANEDIT
1070
     0
1002
}
1002
{
1000
NOSEL
1070
     0
1002
}
1002
{
1000
BEHIND
1070
     0
1002
}
1002
{
1000
REACTOR
1002
}
1001
GENIUS_GENOBJ-N-FIL_13
1002
{
1000
OWNER
1000
GEN
1002
}
  0
ARC
  5
13D60
  8
AM_0
 10
213.65283118774249
 20
298.0409067631075
 30
0.0
 40
0.9999999999999996
 50
1.999999999997129
 51
82.146821911193925
1001
GENIUS_GENODEF_13
1002
{
1000
HIER
1070
     0
1002
}
1002
{
1000
MANEDIT
1070
     0
1002
}
1002
{
1000
NOSEL
1070
     0
1002
}
1002
{
1000
BEHIND
1070
     0
1002
}
1002
{
1000
REACTOR
1002
}
1001
GENIUS_GENOBJ-N-FIL_13
1002
{
1000
OWNER
1000
GEN
1002
}
  0
ARC
  5
13D61
  8
AM_0
 10
198.62297465869531
 20
189.07254707683779
 30
0.0
 40
110.9999999999999
 50
82.146821911193925
 51
82.1830521683071
  0
LINE
  5
13D62
  8
AM_0
 10
212.58453260478871
 20
298.08528841218362
 30
0.0
 11
212.40228951892249
 21
292.86652924625781
 31
0.0
  0
ARC
  5
13D64
  8
AM_0
 10
223.65019455763559
 20
296.18761727767412
 30
0.0
 40
0.9999999999999996
 50
1.999999999997129
 51
76.848881739346623
1001
GENIUS_GENODEF_13
1002
{
1000
HIER
1070
     0
1002
}
1002
{
1000
MANEDIT
1070
     0
1002
}
1002
{
1000
NOSEL
1070
     0
1002
}
1002
{
1000
BEHIND
1070
     0
1002
}
1002
{
1000
REACTOR
1002
}
1001
GENIUS_GENOBJ-N-FIL_13
1002
{
1000
OWNER
1000
GEN
1002
}
  0
ARC
  5
13D65
  8
AM_0
 10
198.62297465869531
 20
189.07254707683779
 30
0.0
 40
110.9999999999999
 50
76.848881739346623
 51
76.886329856701238
  0
ARC
  5
13D66
  8
AM_0
 10
223.58017956267011
 20
296.20395201199671
 30
0.0
 40
0.9999999999999996
 50
76.886329856701238
 51
177.99999999999631
1001
GENIUS_GENODEF_13
1002
{
1000
HIER
1070
     0
1002
}
1002
{
1000
MANEDIT
1070
     0
1002
}
1002
{
1000
NOSEL
1070
     0
1002
}
1002
{
1000
BEHIND
1070
     0
1002
}
1002
{
1000
REACTOR
1002
}
1001
GENIUS_GENOBJ-N-FIL_13
1002
{
1000
OWNER
1000
GEN
1002
}
  0
ARC
  5
13D67
  8
AM_0
 10
198.62297465869531
 20
189.07254707683779
 30
0.0
 40
110.9999999999999
 50
71.433419198101944
 51
71.472857685526591
  0
ARC
  5
13D68
  8
AM_0
 10
233.64768365438491
 20
293.34751895296529
 30
0.0
 40
0.9999999999999996
 50
2.0000000000036389
 51
71.433419198096814
1001
GENIUS_GENODEF_13
1002
{
1000
HIER
1070
     0
1002
}
1002
{
1000
MANEDIT
1070
     0
1002
}
1002
{
1000
NOSEL
1070
     0
1002
}
1002
{
1000
BEHIND
1070
     0
1002
}
1002
{
1000
REACTOR
1002
}
1001
GENIUS_GENOBJ-N-FIL_13
1002
{
1000
OWNER
1000
GEN
1002
}
  0
ARC
  5
13D69
  8
AM_0
 10
233.57589961931751
 20
293.37160285730511
 30
0.0
 40
0.9999999999999996
 50
71.472857685526591
 51
178.00000000000281
1001
GENIUS_GENODEF_13
1002
{
1000
HIER
1070
     0
1002
}
1002
{
1000
MANEDIT
1070
     0
1002
}
1002
{
1000
NOSEL
1070
     0
1002
}
1002
{
1000
BEHIND
1070
     0
1002
}
1002
{
1000
REACTOR
1002
}
1001
GENIUS_GENOBJ-N-FIL_13
1002
{
1000
OWNER
1000
GEN
1002
}
  0
ARC
  5
13D6A
  8
0
 10
249.6229746255114
 20
292.98242842288789
 30
0.0
 40
2.9999999999999978
 50
272.0000000000004
 51
359.99999983214411
1001
GENIUS_GENOBJ-N-FIL_13
1002
{
1000
OWNER
1000
GEN
1002
}
1001
GENIUS_GENODEF_13
1002
{
1000
HIER
1070
     0
1002
}
1002
{
1000
MANEDIT
1070
     0
1002
}
1002
{
1000
NOSEL
1070
     0
1002
}
1002
{
1000
BEHIND
1070
     0
1002
}
1002
{
1000
OTHER
1070
     0
1002
}
1002
{
1000
REACTOR
1002
}
  0
LINE
  5
13D6F
  8
0
 10
252.62297462551129
 20
292.98242841409899
 30
0.0
 11
252.62297468293221
 21
312.58243805237498
 31
0.0
  0
LINE
  5
13D73
  8
0
 10
254.553175689527
 20
314.5812197007009
 30
0.0
 11
268.6229747185879
 21
315.0725479093901
 31
0.0
  0
LINE
  5
13D76
  8
0
 10
429.03456682412559
 20
307.93995482151252
 30
0.0
 11
418.1205212946046
 21
283.34557345863328
 31
0.0
  0
LINE
  5
13D77
  8
0
 10
428.26597636362419
 20
296.34645378878793
 30
0.0
 11
421.77669327340499
 21
281.72310421040851
 31
0.0
  0
ARC
  5
13D78
  8
AM_0
 10
430.0030805253524
 20
278.07254826893057
 30
0.0
 40
9.0000003278255516
 50
156.070183125966
 51
180.00000500895041
  0
ARC
  5
13D79
  8
AM_0
 10
430.0030805253524
 20
278.07254826893057
 30
0.0
 40
13.00000032782555
 50
156.070183125966
 51
180.00000500895041
  0
CIRCLE
  5
13D7A
  8
ｷｲﾛ
 10
430.0030805253524
 20
278.07254707683768
 30
0.0
 40
4.0
  0
CIRCLE
  5
13D7B
  8
0
 10
430.0030805253524
 20
278.07254707683768
 30
0.0
 40
3.25
  0
ARC
  5
13D7C
  8
AM_0
 10
426.0030801975268
 20
280.07254707683768
 30
0.0
 40
5.0
 50
90.0
 51
131.09880372126679
1001
GENIUS_GENODEF_13
1002
{
1000
HIER
1070
     0
1002
}
1002
{
1000
MANEDIT
1070
     0
1002
}
1002
{
1000
NOSEL
1070
     0
1002
}
1002
{
1000
BEHIND
1070
     0
1002
}
1002
{
1000
OTHER
1070
     0
1002
}
1002
{
1000
REACTOR
1002
}
1001
GENIUS_GENOBJ-N-FIL_13
1002
{
1000
OWNER
1000
GEN
1002
}
  0
ARC
  5
13D7D
  8
0
 10
431.00810534772461
 20
295.12960185261937
 30
0.0
 40
3.0
 50
41.445856511110989
 51
156.070183125966
1001
GENIUS_GENOBJ-N-FIL_13
1002
{
1000
OWNER
1000
GEN
1002
}
1001
GENIUS_GENODEF_13
1002
{
1000
HIER
1070
     0
1002
}
1002
{
1000
MANEDIT
1070
     0
1002
}
1002
{
1000
NOSEL
1070
     0
1002
}
1002
{
1000
BEHIND
1070
     0
1002
}
1002
{
1000
OTHER
1070
     0
1002
}
1002
{
1000
REACTOR
1002
}
  0
ARC
  5
13D7F
  8
0
 10
551.00308428044514
 20
267.68024310895021
 30
0.0
 40
3.0
 50
0.0
 51
120.0000083797508
1001
GENIUS_GENOBJ-N-FIL_13
1002
{
1000
OWNER
1000
GEN
1002
}
1001
GENIUS_GENODEF_13
1002
{
1000
HIER
1070
     0
1002
}
1002
{
1000
MANEDIT
1070
     0
1002
}
1002
{
1000
NOSEL
1070
     0
1002
}
1002
{
1000
BEHIND
1070
     0
1002
}
1002
{
1000
OTHER
1070
     0
1002
}
1002
{
1000
REACTOR
1002
}
  0
ARC
  5
13D80
  8
0
 10
545.00308276052658
 20
278.07254707683802
 30
0.0
 40
9.0
 50
160.52877936551209
 51
300.0000083797508
  0
LINE
  5
13D81
  8
AM_0
 10
554.00308428044514
 20
278.07254826893069
 30
0.0
 11
554.00308428044514
 21
238.07254707683779
 31
0.0
  0
LINE
  5
13D82
  8
AM_0
 10
558.00308428044514
 20
278.07254826893069
 30
0.0
 11
558.00308428044514
 21
198.07254588474521
 31
0.0
  0
LINE
  5
13D83
  8
ﾁｭｳｼﾝｾﾝ1
 10
470.0030817174453
 20
156.07254707683791
 30
0.0
 11
470.0030817174449
 21
320.07254707683791
 31
0.0
  0
ARC
  5
13D84
  8
AM_0
 10
609.50918779607014
 20
270.57254707683791
 30
0.0
 40
1.4999999999999989
 50
359.999989999999
 51
89.999997000000647
  0
ARC
  5
13D85
  8
AM_0
 10
609.52920779606995
 20
270.4325270768378
 30
0.0
 40
0.9999999999999998
 50
359.999989999999
 51
89.999997000000647
  0
ARC
  5
13D86
  8
AM_0
 10
337.00309953923431
 20
238.07254707683779
 30
0.0
 40
235.99999999999989
 50
359.9999949910495
 51
10.56396171235874
  0
LINE
  5
13D87
  8
AM_0
 10
569.00308428044514
 20
187.4322653995917
 30
0.0
 11
569.00308428044514
 21
288.71283638347847
 31
0.0
  0
LINE
  5
13D88
  8
AM_0
 10
580.50918779607014
 20
294.07254707683791
 30
0.0
 11
580.50918779607014
 21
182.07254707683791
 31
0.0
  0
LINE
  5
13D89
  8
AM_0
 10
588.50918779607014
 20
294.07254707683791
 30
0.0
 11
588.50918779607014
 21
182.07254707683791
 31
0.0
  0
ARC
  5
13D8A
  8
AM_0
 10
627.50918779607014
 20
270.57254707683791
 30
0.0
 40
1.4999999999999989
 50
89.999997000000647
 51
180.0
  0
ARC
  5
13D8B
  8
AM_0
 10
627.48916779606998
 20
270.4325270768378
 30
0.0
 40
0.9999999999999998
 50
89.999997000000647
 51
180.0
  0
POLYLINE
  5
13D8E
  8
AM_0
 66
     1
 10
0.0
 20
0.0
 30
0.0
  0
VERTEX
  5
13D8F
  8
AM_0
 10
692.64828779606978
 20
264.55557707683778
 30
0.0
 42
0.00068898288
  0
VERTEX
  5
13D90
  8
AM_0
 10
692.57740779606979
 20
265.13032707683777
 30
0.0
 42
0.00070644354
  0
VERTEX
  5
13D91
  8
AM_0
 10
692.50490779607026
 20
265.70501707683781
 30
0.0
 42
0.00069248071
  0
VERTEX
  5
13D92
  8
AM_0
 10
692.43081779606985
 20
266.27932707683789
 30
0.0
 42
0.00069585665
  0
VERTEX
  5
13D93
  8
AM_0
 10
692.35513779606981
 20
266.853467076838
 30
0.0
 42
0.00068980191
  0
VERTEX
  5
13D94
  8
AM_0
 10
692.27783779607012
 20
267.4274670768379
 30
0.0
 42
0.00072080104
  0
VERTEX
  5
13D95
  8
AM_0
 10
692.19894779607
 20
268.0012570768377
 30
0.0
 42
0.00071002307
  0
VERTEX
  5
13D96
  8
AM_0
 10
692.11840779606985
 20
268.5747270768378
 30
0.0
 42
0.00072659056
  0
VERTEX
  5
13D97
  8
AM_0
 10
692.03624779606992
 20
269.14782707683793
 30
0.0
 42
0.00069570481
  0
VERTEX
  5
13D98
  8
AM_0
 10
691.95242779606986
 20
269.72085707683789
 30
0.0
 42
0.00071266935
  0
VERTEX
  5
13D99
  8
AM_0
 10
691.86699779606965
 20
270.29362707683788
 30
0.0
 42
0.00071614426
  0
VERTEX
  5
13D9A
  8
AM_0
 10
691.77996779606985
 20
270.86596707683782
 30
0.0
 42
0.00072288975
  0
VERTEX
  5
13D9B
  8
AM_0
 10
691.69125779606986
 20
271.43826707683792
 30
0.0
  0
SEQEND
  5
13D9C
  8
AM_0
  0
LINE
  5
13D9F
  8
AM_0
 10
696.5091877960698
 20
291.07254707683791
 30
0.0
 11
696.5091877960698
 21
185.07254707683791
 31
0.0
  0
LINE
  5
13DAB
  8
AM_0
 10
580.50918779607014
 20
270.0124970768378
 30
0.0
 11
570.90317166010732
 21
270.0124970768378
 31
0.0
  0
LINE
  5
13DAC
  8
AM_0
 10
580.50918779607014
 20
206.1326070768379
 30
0.0
 11
570.82843743507635
 21
206.1326070768379
 31
0.0
  0
LINE
  5
13DAD
  8
AM_0
 10
580.50918779607014
 20
182.07254707683791
 30
0.0
 11
570.95195921726713
 21
182.07254707683791
 31
0.0
  0
LINE
  5
13DAE
  8
AM_0
 10
580.50918779607014
 20
192.07254707683779
 30
0.0
 11
569.00308428044514
 21
192.07254707683779
 31
0.0
  0
ARC
  5
13DAF
  8
AM_0
 10
337.00309953923431
 20
238.07254707683779
 30
0.0
 40
235.99999999999989
 50
349.43602826972682
 51
359.9999949910495
  0
LINE
  5
13DB0
  8
0
 10
546.74018891176047
 20
179.7986421618269
 30
0.0
 11
553.22947120456695
 21
194.42198994326739
 31
0.0
  0
LINE
  5
13DB1
  8
0
 10
545.9715976538464
 20
168.20513933216341
 30
0.0
 11
556.88564318336728
 21
192.79952069504259
 31
0.0
  0
ARC
  5
13DB2
  8
0
 10
487.50308343107889
 20
105.36421658714291
 30
0.0
 40
84.708331681787811
 50
92.644096325323176
 51
118.1140438068888
  0
ARC
  5
13DB3
  8
0
 10
487.50308343107889
 20
105.36421658714291
 30
0.0
 40
84.708331681787811
 50
61.885956193111198
 51
87.355919741582937
  0
ARC
  5
13DB4
  8
0
 10
487.50308343107889
 20
105.36421658714291
 30
0.0
 40
80.708331681787811
 50
62.230425742763408
 51
117.7695742572366
  0
LINE
  5
13DB5
  8
ﾁｭｳｼﾝｾﾝ1
 10
440.00308276052658
 20
160.07254707683791
 30
0.0
 11
440.00308276052658
 21
186.07254707683791
 31
0.0
1001
GENIUS_GENODEF_13
1002
{
1000
HIER
1070
     0
1002
}
1002
{
1000
MANEDIT
1070
     0
1002
}
1002
{
1000
NOSEL
1070
     0
1002
}
1002
{
1000
BEHIND
1070
     0
1002
}
1002
{
1000
OTHER
1070
     0
1002
}
1002
{
1000
REACTOR
1002
}
1001
GENIUS_GENOBJ-N-CEN_13
1002
{
1000
OWNER
1000
GEN
1002
}
  0
ARC
  5
13DB6
  8
AM_0
 10
570.95195921726713
 20
184.07254707683779
 30
0.0
 40
1.9999999999999989
 50
182.0004653026449
 51
270.0
1001
GENIUS_GENOBJ-N-FIL_13
1002
{
1000
OWNER
1000
GEN
1002
}
1001
GENIUS_GENODEF_13
1002
{
1000
HIER
1070
     0
1002
}
1002
{
1000
MANEDIT
1070
     0
1002
}
1002
{
1000
NOSEL
1070
     0
1002
}
1002
{
1000
BEHIND
1070
     0
1002
}
1002
{
1000
OTHER
1070
     0
1002
}
1002
{
1000
REACTOR
1002
}
  0
LINE
  5
13DB7
  8
ﾁｭｳｼﾝｾﾝ1
 10
535.00308171744541
 20
160.07254707683791
 30
0.0
 11
535.00308171744541
 21
186.07254707683779
 31
0.0
1001
GENIUS_GENODEF_13
1002
{
1000
HIER
1070
     0
1002
}
1002
{
1000
MANEDIT
1070
     0
1002
}
1002
{
1000
NOSEL
1070
     0
1002
}
1002
{
1000
BEHIND
1070
     0
1002
}
1002
{
1000
OTHER
1070
     0
1002
}
1002
{
1000
REACTOR
1002
}
1001
GENIUS_GENOBJ-N-CEN_13
1002
{
1000
OWNER
1000
GEN
1002
}
  0
LINE
  5
13DB8
  8
0
 10
524.09437134129746
 20
165.07254707683779
 30
0.0
 11
450.91179552086021
 21
165.07254707683799
 31
0.0
  0
LINE
  5
13DB9
  8
0
 10
535.00308171744541
 20
161.07254707683779
 30
0.0
 11
440.00308276052658
 21
161.07254707683811
 31
0.0
  0
ARC
  5
13DBD
  8
0
 10
440.00308395261959
 20
173.07254826893049
 30
0.0
 40
9.0
 50
335.37567538661648
 51
33.94543635354821
  0
ARC
  5
13DBE
  8
0
 10
450.91179552086021
 20
168.07254707683759
 30
0.0
 40
3.0
 50
155.37567538661719
 51
270.0
1001
GENIUS_GENOBJ-N-FIL_13
1002
{
1000
OWNER
1000
GEN
1002
}
1001
GENIUS_GENODEF_13
1002
{
1000
HIER
1070
     0
1002
}
1002
{
1000
MANEDIT
1070
     0
1002
}
1002
{
1000
NOSEL
1070
     0
1002
}
1002
{
1000
BEHIND
1070
     0
1002
}
1002
{
1000
OTHER
1070
     0
1002
}
1002
{
1000
REACTOR
1002
}
  0
ARC
  5
13DBF
  8
0
 10
446.64368227192091
 20
181.84195269350201
 30
0.0
 40
2.0
 50
232.86531156728779
 51
298.11404380688879
1001
GENIUS_GENODEF_13
1002
{
1000
HIER
1070
     0
1002
}
1002
{
1000
MANEDIT
1070
     0
1002
}
1002
{
1000
NOSEL
1070
     0
1002
}
1002
{
1000
BEHIND
1070
     0
1002
}
1002
{
1000
OTHER
1070
     0
1002
}
1002
{
1000
REACTOR
1002
}
1001
GENIUS_GENOBJ-N-FIL_13
1002
{
1000
OWNER
1000
GEN
1002
}
  0
ARC
  5
13DC0
  8
0
 10
450.83154655849938
 20
175.0075928661069
 30
0.0
 40
2.0
 50
117.7695742572366
 51
190.13180188606299
1001
GENIUS_GENOBJ-N-FIL_13
1002
{
1000
OWNER
1000
GEN
1002
}
1001
GENIUS_GENODEF_13
1002
{
1000
HIER
1070
     0
1002
}
1002
{
1000
MANEDIT
1070
     0
1002
}
1002
{
1000
NOSEL
1070
     0
1002
}
1002
{
1000
BEHIND
1070
     0
1002
}
1002
{
1000
OTHER
1070
     0
1002
}
1002
{
1000
REACTOR
1002
}
  0
ARC
  5
13DC1
  8
0
 10
535.00308290953808
 20
173.07254826893049
 30
0.0
 40
9.0
 50
41.445867957166122
 51
146.05456364645181
  0
ARC
  5
13DC2
  8
0
 10
535.00308171744541
 20
173.07254707683759
 30
0.0
 40
12.0
 50
270.0
 51
336.07018312596603
  0
CIRCLE
  5
13DC3
  8
0
 10
535.00308171744541
 20
173.07254707683799
 30
0.0
 40
4.4999999999999982
  0
LINE
  5
13DC4
  8
ﾁｭｳｼﾝｾﾝ1
 10
548.00308171744507
 20
173.07254707683791
 30
0.0
 11
522.00308171744518
 21
173.07254707683791
 31
0.0
1001
GENIUS_GENODEF_13
1002
{
1000
HIER
1070
     0
1002
}
1002
{
1000
MANEDIT
1070
     0
1002
}
1002
{
1000
NOSEL
1070
     0
1002
}
1002
{
1000
BEHIND
1070
     0
1002
}
1002
{
1000
OTHER
1070
     0
1002
}
1002
{
1000
REACTOR
1002
}
1001
GENIUS_GENOBJ-N-CEN_13
1002
{
1000
OWNER
1000
GEN
1002
}
  0
ARC
  5
13DC5
  8
0
 10
535.00308290953808
 20
173.07254826893049
 30
0.0
 40
9.0
 50
146.05456364645181
 51
204.6243246133827
  0
ARC
  5
13DC6
  8
0
 10
524.09437134129746
 20
168.07254707683759
 30
0.0
 40
3.0
 50
270.0
 51
24.624324613382718
1001
GENIUS_GENOBJ-N-FIL_13
1002
{
1000
OWNER
1000
GEN
1002
}
1001
GENIUS_GENODEF_13
1002
{
1000
HIER
1070
     0
1002
}
1002
{
1000
MANEDIT
1070
     0
1002
}
1002
{
1000
NOSEL
1070
     0
1002
}
1002
{
1000
BEHIND
1070
     0
1002
}
1002
{
1000
OTHER
1070
     0
1002
}
1002
{
1000
REACTOR
1002
}
  0
ARC
  5
13DC7
  8
0
 10
528.36248459023693
 20
181.84195269350201
 30
0.0
 40
2.0
 50
241.88595619311121
 51
307.1346884327121
1001
GENIUS_GENODEF_13
1002
{
1000
HIER
1070
     0
1002
}
1002
{
1000
MANEDIT
1070
     0
1002
}
1002
{
1000
NOSEL
1070
     0
1002
}
1002
{
1000
BEHIND
1070
     0
1002
}
1002
{
1000
OTHER
1070
     0
1002
}
1002
{
1000
REACTOR
1002
}
1001
GENIUS_GENOBJ-N-FIL_13
1002
{
1000
OWNER
1000
GEN
1002
}
  0
ARC
  5
13DC8
  8
0
 10
524.17462030365834
 20
175.0075928661069
 30
0.0
 40
2.0
 50
349.86819811392451
 51
62.230425742763408
1001
GENIUS_GENOBJ-N-FIL_13
1002
{
1000
OWNER
1000
GEN
1002
}
1001
GENIUS_GENODEF_13
1002
{
1000
HIER
1070
     0
1002
}
1002
{
1000
MANEDIT
1070
     0
1002
}
1002
{
1000
NOSEL
1070
     0
1002
}
1002
{
1000
BEHIND
1070
     0
1002
}
1002
{
1000
OTHER
1070
     0
1002
}
1002
{
1000
REACTOR
1002
}
  0
ARC
  5
13DC9
  8
0
 10
543.99805992766005
 20
181.01549409799529
 30
0.0
 40
3.0
 50
221.44586795716609
 51
336.07018312596603
1001
GENIUS_GENOBJ-N-FIL_13
1002
{
1000
OWNER
1000
GEN
1002
}
1001
GENIUS_GENODEF_13
1002
{
1000
HIER
1070
     0
1002
}
1002
{
1000
MANEDIT
1070
     0
1002
}
1002
{
1000
NOSEL
1070
     0
1002
}
1002
{
1000
BEHIND
1070
     0
1002
}
1002
{
1000
OTHER
1070
     0
1002
}
1002
{
1000
REACTOR
1002
}
  0
ARC
  5
13DCA
  8
0
 10
505.91916150054499
 20
193.07254707683759
 30
0.0
 40
2.0
 50
170.40593177313519
 51
270.0
1001
GENIUS_GENODEF_13
1002
{
1000
HIER
1070
     0
1002
}
1002
{
1000
MANEDIT
1070
     0
1002
}
1002
{
1000
NOSEL
1070
     0
1002
}
1002
{
1000
BEHIND
1070
     0
1002
}
1002
{
1000
OTHER
1070
     0
1002
}
1002
{
1000
REACTOR
1002
}
1001
GENIUS_GENOBJ-N-FIL_13
1002
{
1000
OWNER
1000
GEN
1002
}
  0
LINE
  5
13DCB
  8
0
 10
489.72090962821483
 20
191.07254707683751
 30
0.0
 11
549.00308204527084
 21
191.07254707683799
 31
0.0
  0
CIRCLE
  5
13DCC
  8
0
 10
470.0030817174453
 20
238.07254707683779
 30
0.0
 40
29.0
  0
CIRCLE
  5
13DCD
  8
AM_0
 10
470.0030817174453
 20
238.07254707683779
 30
0.0
 40
15.00000044703483
  0
ARC
  5
13DCE
  8
0
 10
487.50307128663252
 20
195.14263692484201
 30
0.0
 40
2.0
 50
0.0
 51
180.0
  0
LINE
  5
13DCF
  8
0
 10
485.50307128663258
 20
195.14263692484229
 30
0.0
 11
485.50307128663258
 21
191.98023523198259
 31
0.0
  0
ARC
  5
13DD0
  8
0
 10
483.50307128663252
 20
191.9802352319825
 30
0.0
 40
2.0
 50
272.64409632532318
 51
0.0
1001
GENIUS_GENODEF_13
1002
{
1000
HIER
1070
     0
1002
}
1002
{
1000
MANEDIT
1070
     0
1002
}
1002
{
1000
NOSEL
1070
     0
1002
}
1002
{
1000
BEHIND
1070
     0
1002
}
1002
{
1000
OTHER
1070
     0
1002
}
1002
{
1000
REACTOR
1002
}
1001
GENIUS_GENOBJ-N-FIL_13
1002
{
1000
OWNER
1000
GEN
1002
}
  0
LINE
  5
13DD1
  8
0
 10
489.50307128663258
 20
195.14263692484229
 30
0.0
 11
489.50307128663258
 21
191.980236353664
 31
0.0
  0
ARC
  5
13DD2
  8
0
 10
500.00308171744541
 20
194.07254707683759
 30
0.0
 40
4.0
 50
350.40593177313531
 51
189.59406822686481
  0
ARC
  5
13DD3
  8
0
 10
494.08700193434572
 20
193.07254707683759
 30
0.0
 40
2.0
 50
270.0
 51
9.5940682268648061
1001
GENIUS_GENODEF_13
1002
{
1000
HIER
1070
     0
1002
}
1002
{
1000
MANEDIT
1070
     0
1002
}
1002
{
1000
NOSEL
1070
     0
1002
}
1002
{
1000
BEHIND
1070
     0
1002
}
1002
{
1000
OTHER
1070
     0
1002
}
1002
{
1000
REACTOR
1002
}
1001
GENIUS_GENOBJ-N-FIL_13
1002
{
1000
OWNER
1000
GEN
1002
}
  0
ARC
  5
13DD4
  8
0
 10
491.50307128663241
 20
191.98023635366391
 30
0.0
 40
2.0
 50
180.0
 51
267.35591974158302
1001
GENIUS_GENOBJ-N-FIL_13
1002
{
1000
OWNER
1000
GEN
1002
}
1001
GENIUS_GENODEF_13
1002
{
1000
HIER
1070
     0
1002
}
1002
{
1000
MANEDIT
1070
     0
1002
}
1002
{
1000
NOSEL
1070
     0
1002
}
1002
{
1000
BEHIND
1070
     0
1002
}
1002
{
1000
OTHER
1070
     0
1002
}
1002
{
1000
REACTOR
1002
}
  0
LINE
  5
13DD5
  8
AM_0
 10
473.00308180685232
 20
250.8725657688552
 30
0.0
 11
467.00308162803861
 21
250.8725657688552
 31
0.0
  0
ARC
  5
13DD6
  8
AM_0
 10
470.0030817174453
 20
238.07254707683779
 30
0.0
 40
10.000000298023229
 50
107.4576163168891
 51
72.54239597700294
  0
LINE
  5
13DD7
  8
AM_0
 10
467.00308162803861
 20
247.6119455544937
 30
0.0
 11
467.00308162803861
 21
250.8725657688552
 31
0.0
  0
LINE
  5
13DD8
  8
AM_0
 10
473.00308180685232
 20
247.6119455544937
 30
0.0
 11
473.00308180685232
 21
250.8725657688552
 31
0.0
  0
LINE
  5
13DD9
  8
AM_0
 10
554.00308308835224
 20
238.07254707683779
 30
0.0
 11
554.00308428044514
 21
198.0725458847449
 31
0.0
  0
ARC
  5
13DDA
  8
0
 10
545.00308276052692
 20
198.07254707683791
 30
0.0
 40
9.0
 50
59.999991620249162
 51
199.47122063448779
  0
ARC
  5
13DDB
  8
0
 10
533.6893742615423
 20
194.07254707683759
 30
0.0
 40
3.0
 50
270.0
 51
19.4712206344878
1001
GENIUS_GENODEF_13
1002
{
1000
HIER
1070
     0
1002
}
1002
{
1000
MANEDIT
1070
     0
1002
}
1002
{
1000
NOSEL
1070
     0
1002
}
1002
{
1000
BEHIND
1070
     0
1002
}
1002
{
1000
OTHER
1070
     0
1002
}
1002
{
1000
REACTOR
1002
}
1001
GENIUS_GENOBJ-N-FIL_13
1002
{
1000
OWNER
1000
GEN
1002
}
  0
ARC
  5
13DDC
  8
0
 10
551.00308428044525
 20
208.46485104472569
 30
0.0
 40
3.0
 50
239.99999162024909
 51
0.0
1001
GENIUS_GENOBJ-N-FIL_13
1002
{
1000
OWNER
1000
GEN
1002
}
1001
GENIUS_GENODEF_13
1002
{
1000
HIER
1070
     0
1002
}
1002
{
1000
MANEDIT
1070
     0
1002
}
1002
{
1000
NOSEL
1070
     0
1002
}
1002
{
1000
BEHIND
1070
     0
1002
}
1002
{
1000
OTHER
1070
     0
1002
}
1002
{
1000
REACTOR
1002
}
  0
LINE
  5
13DDD
  8
AM_0
 10
567.80929770306273
 20
189.07254707683779
 30
0.0
 11
555.23175487626736
 21
189.07254707683779
 31
0.0
  0
ARC
  5
13DDE
  8
AM_0
 10
545.00308395261959
 20
198.07254588474481
 30
0.0
 40
9.0000003278255516
 50
336.07018312596603
 51
0.0000050089504314
  0
CIRCLE
  5
13DDF
  8
ｷｲﾛ
 10
545.00308171744541
 20
198.07254707683759
 30
0.0
 40
4.0
  0
CIRCLE
  5
13DE0
  8
0
 10
545.00308171744541
 20
198.07254707683759
 30
0.0
 40
3.25
  0
ARC
  5
13DE1
  8
AM_0
 10
549.00308204527084
 20
196.07254707683771
 30
0.0
 40
5.0
 50
270.0
 51
311.09880372126679
1001
GENIUS_GENODEF_13
1002
{
1000
HIER
1070
     0
1002
}
1002
{
1000
MANEDIT
1070
     0
1002
}
1002
{
1000
NOSEL
1070
     0
1002
}
1002
{
1000
BEHIND
1070
     0
1002
}
1002
{
1000
OTHER
1070
     0
1002
}
1002
{
1000
REACTOR
1002
}
1001
GENIUS_GENOBJ-N-FIL_13
1002
{
1000
OWNER
1000
GEN
1002
}
  0
ARC
  5
13DE2
  8
AM_0
 10
545.00308395261959
 20
198.07254588474481
 30
0.0
 40
13.00000032782555
 50
336.07018312596603
 51
0.0000050089504314
  0
LINE
  5
13DE3
  8
AM_0
 10
568.50308428044514
 20
194.8059378849434
 30
0.0
 11
557.58598030835162
 21
194.8059378849434
 31
0.0
  0
LINE
  5
13DE4
  8
AM_0
 10
568.95317813013673
 20
184.00273185120301
 30
0.0
 11
568.80847368474201
 21
188.14556038250191
 31
0.0
  0
ARC
  5
13DE5
  8
AM_0
 10
567.80803039883733
 20
188.0691942212392
 30
0.0
 40
1.003353655944897
 50
4.3650553058041632
 51
89.927631496271445
  0
ARC
  5
13DE6
  8
0
 10
550.00308428044514
 20
238.07254707683779
 30
0.0
 40
2.0
 50
90.0
 51
270.0
  0
ARC
  5
13DE7
  8
0
 10
552.00308428044514
 20
234.07254707683779
 30
0.0
 40
2.0
 50
0.0
 51
90.0
1001
GENIUS_GENODEF_13
1002
{
1000
HIER
1070
     0
1002
}
1002
{
1000
MANEDIT
1070
     0
1002
}
1002
{
1000
NOSEL
1070
     0
1002
}
1002
{
1000
BEHIND
1070
     0
1002
}
1002
{
1000
OTHER
1070
     0
1002
}
1002
{
1000
REACTOR
1002
}
1001
GENIUS_GENOBJ-N-FIL_13
1002
{
1000
OWNER
1000
GEN
1002
}
  0
LINE
  5
13DE8
  8
0
 10
551.00308323736385
 20
236.07254707683811
 30
0.0
 11
551.00308323736385
 21
236.07254707683811
 31
0.0
  0
LINE
  5
13DE9
  8
0
 10
550.00308428044514
 20
236.07254707683779
 30
0.0
 11
552.00308428044514
 21
236.07254707683779
 31
0.0
  0
LINE
  5
13DEA
  8
0
 10
551.00308323736385
 20
240.07254707683811
 30
0.0
 11
551.00308323736385
 21
240.07254707683811
 31
0.0
  0
ARC
  5
13DEB
  8
0
 10
552.00308428044514
 20
242.07254707683779
 30
0.0
 40
2.0
 50
270.0
 51
0.0
1001
GENIUS_GENOBJ-N-FIL_13
1002
{
1000
OWNER
1000
GEN
1002
}
1001
GENIUS_GENODEF_13
1002
{
1000
HIER
1070
     0
1002
}
1002
{
1000
MANEDIT
1070
     0
1002
}
1002
{
1000
NOSEL
1070
     0
1002
}
1002
{
1000
BEHIND
1070
     0
1002
}
1002
{
1000
OTHER
1070
     0
1002
}
1002
{
1000
REACTOR
1002
}
  0
LINE
  5
13DEC
  8
0
 10
550.00308428044514
 20
240.07254707683779
 30
0.0
 11
552.00308428044514
 21
240.07254707683779
 31
0.0
  0
LINE
  5
13DED
  8
AM_0
 10
590.30349779606968
 20
198.7536070768378
 30
0.0
 11
594.44924779607004
 21
183.27249707683779
 31
0.0
  0
LINE
  5
13DEE
  8
AM_0
 10
696.5091877960698
 20
189.9824870768378
 30
0.0
 11
695.26919779606965
 21
183.42248707683791
 31
0.0
  0
LINE
  5
13DEF
  8
AM_0
 10
696.5091877960698
 20
188.63247707683789
 30
0.0
 11
695.22921779607009
 21
180.63253707683791
 31
0.0
  0
LINE
  5
13DF0
  8
AM_0
 10
696.5091877960698
 20
187.2924870768378
 30
0.0
 11
695.49996779606988
 21
180.64245707683779
 31
0.0
  0
LINE
  5
13DF1
  8
AM_0
 10
696.5091877960698
 20
187.29254707683791
 30
0.0
 11
695.58370779606992
 21
180.6659270768379
 31
0.0
  0
LINE
  5
13DF2
  8
AM_0
 10
589.50918779607014
 20
185.07251707683781
 30
0.0
 11
595.23498779606996
 21
176.25555707683779
 31
0.0
  0
LINE
  5
13DF6
  8
AM_0
 10
693.29916779606992
 20
181.7925170768379
 30
0.0
 11
596.37917779607005
 21
181.7925170768379
 31
0.0
  0
LINE
  5
13DFF
  8
AM_0
 10
607.93010711028489
 20
175.57254707683779
 30
0.0
 11
596.49300779607017
 21
175.57254707683779
 31
0.0
  0
LINE
  5
13E06
  8
AM_0
 10
588.50918779607014
 20
182.07254707683791
 30
0.0
 11
580.50918779607014
 21
182.07254707683791
 31
0.0
  0
ARC
  5
13E08
  8
AM_0
 10
596.49300779607017
 20
177.07254707683779
 30
0.0
 40
1.4999999999999989
 50
213.00000000000151
 51
270.000010000001
  0
ARC
  5
13E09
  8
AM_0
 10
596.38400779607014
 20
183.7972770768379
 30
0.0
 40
2.0047289999999989
 50
195.17349999999811
 51
269.86167999999742
  0
LINE
  5
13E1D
  8
AM_0
 10
609.50918779607014
 20
171.0724870768378
 30
0.0
 11
609.22844867300671
 21
181.7925170768379
 31
0.0
  0
ARC
  5
13E20
  8
AM_0
 10
607.93010711028489
 20
174.07254707683779
 30
0.0
 40
1.4999999999999989
 50
1.500134906353124
 51
90.0
1001
GENIUS_GENODEF_13
1002
{
1000
HIER
1070
     0
1002
}
1002
{
1000
MANEDIT
1070
     0
1002
}
1002
{
1000
NOSEL
1070
     0
1002
}
1002
{
1000
BEHIND
1070
     0
1002
}
1002
{
1000
REACTOR
1002
}
1001
GENIUS_GENOBJ-N-FIL_13
1002
{
1000
OWNER
1000
GEN
1002
}
  0
LINE
  5
13E39
  8
AM_0
 10
693.60293779606991
 20
178.94253707683791
 30
0.0
 11
671.17653759740324
 21
178.94253707683791
 31
0.0
  0
LINE
  5
13E54
  8
AM_0
 10
669.50924779606999
 20
171.07251707683781
 30
0.0
 11
669.78991198340896
 21
181.7925170768377
 31
0.0
  0
ARC
  5
13E57
  8
AM_0
 10
671.17653759740324
 20
177.44253707683791
 30
0.0
 40
1.4999999999999989
 50
90.0
 51
178.50026113613271
1001
GENIUS_GENODEF_13
1002
{
1000
HIER
1070
     0
1002
}
1002
{
1000
MANEDIT
1070
     0
1002
}
1002
{
1000
NOSEL
1070
     0
1002
}
1002
{
1000
BEHIND
1070
     0
1002
}
1002
{
1000
REACTOR
1002
}
1001
GENIUS_GENOBJ-N-FIL_13
1002
{
1000
OWNER
1000
GEN
1002
}
  0
ARC
  5
13E66
  8
AM_0
 10
693.52255779606992
 20
180.94253707683791
 30
0.0
 40
1.9999999999999989
 50
270.000010000001
 51
351.37037999999581
  0
ARC
  5
13E67
  8
AM_0
 10
693.60293779606991
 20
180.94253707683791
 30
0.0
 40
1.9999999999999989
 50
270.000010000001
 51
352.04955999999657
  0
ARC
  5
13E68
  8
AM_0
 10
693.25301779607025
 20
180.9429070768378
 30
0.0
 40
2.000420099999999
 50
270.1772900000023
 51
351.07317999999862
  0
ARC
  5
13E69
  8
AM_0
 10
693.30434779606992
 20
183.79178707683789
 30
0.0
 40
1.9992489999999989
 50
269.8525700000003
 51
349.35689999999892
  0
LINE
  5
13E6A
  8
AM_0
 10
627.50918779607014
 20
212.07254707683799
 30
0.0
 11
694.14919779606998
 21
212.07254707683799
 31
0.0
  0
LINE
  5
13E6B
  8
AM_0
 10
695.04916779606992
 20
211.5825570768379
 30
0.0
 11
627.50918779607014
 21
211.5825570768379
 31
0.0
  0
LINE
  5
13E6C
  8
AM_0
 10
694.82919779607016
 20
204.7025470768379
 30
0.0
 11
627.48916779606998
 21
204.7025470768379
 31
0.0
  0
LINE
  5
13E6D
  8
AM_0
 10
627.50918779607014
 20
264.07254707683791
 30
0.0
 11
694.14919779606998
 21
264.07254707683791
 31
0.0
  0
LINE
  5
13E6E
  8
AM_0
 10
695.04916779606992
 20
264.56253707683788
 30
0.0
 11
627.50918779607014
 21
264.56253707683788
 31
0.0
  0
LINE
  5
13E6F
  8
AM_0
 10
595.17635779607008
 20
262.07254707683791
 30
0.0
 11
694.14919779606998
 21
262.07254707683791
 31
0.0
  0
LINE
  5
13E70
  8
AM_0
 10
695.04916779606992
 20
261.63260707683793
 30
0.0
 11
591.47494779606984
 21
261.63260707683793
 31
0.0
  0
LINE
  5
13E71
  8
AM_0
 10
595.17635779607008
 20
214.07254707683799
 30
0.0
 11
694.14919779606998
 21
214.07254707683799
 31
0.0
  0
LINE
  5
13E72
  8
AM_0
 10
695.04916779606992
 20
214.51248707683791
 30
0.0
 11
591.47494779606984
 21
214.51248707683791
 31
0.0
  0
LINE
  5
13E73
  8
AM_0
 10
595.16915779606995
 20
204.07254707683791
 30
0.0
 11
639.50918779607014
 21
204.07254707683791
 31
0.0
  0
LINE
  5
13E74
  8
AM_0
 10
595.16915779606995
 20
202.07254707683791
 30
0.0
 11
639.50918779607014
 21
202.07254707683791
 31
0.0
  0
LINE
  5
13E75
  8
AM_0
 10
639.50918779607014
 20
201.3525770768378
 30
0.0
 11
591.68917779606988
 21
201.3525770768378
 31
0.0
  0
LINE
  5
13E76
  8
AM_0
 10
609.50918779607014
 20
211.59256707683781
 30
0.0
 11
591.47494779606984
 21
211.59256707683781
 31
0.0
  0
LINE
  5
13E77
  8
AM_0
 10
595.17635779607008
 20
212.07254707683799
 30
0.0
 11
609.50918779607014
 21
212.07254707683799
 31
0.0
  0
LINE
  5
13E78
  8
AM_0
 10
591.68917779606988
 20
204.7025470768379
 30
0.0
 11
609.52920779606995
 21
204.7025470768379
 31
0.0
  0
LINE
  5
13E79
  8
AM_0
 10
593.96713779607012
 20
185.07254707683791
 30
0.0
 11
588.50918779607014
 21
185.07254707683791
 31
0.0
  0
LINE
  5
13E7A
  8
AM_0
 10
588.50918779607014
 20
192.07254707683779
 30
0.0
 11
580.50918779607014
 21
192.07254707683779
 31
0.0
  0
ARC
  5
13E7B
  8
AM_0
 10
588.85598779607005
 20
198.34976707683779
 30
0.0
 40
1.502775999999999
 50
14.75642999999951
 51
89.877586999996751
  0
ARC
  5
13E7C
  8
AM_0
 10
595.16915779606995
 20
203.07254707683791
 30
0.0
 40
0.9999999999999998
 50
89.999997000000647
 51
270.000010000001
  0
ARC
  5
13E7D
  8
AM_0
 10
591.68917779606988
 20
203.02749707683799
 30
0.0
 40
1.675001999999999
 50
89.999997000000647
 51
270.000010000001
  0
LINE
  5
13E7E
  8
AM_0
 10
588.50918779607014
 20
206.1326070768379
 30
0.0
 11
580.50918779607014
 21
206.1326070768379
 31
0.0
  0
ARC
  5
13E7F
  8
AM_0
 10
595.16921779606992
 20
213.07254707683791
 30
0.0
 40
1.0000255999999981
 50
89.589469000002197
 51
270.4105299999984
  0
ARC
  5
13E80
  8
AM_0
 10
591.46920779607012
 20
213.04251707683781
 30
0.0
 40
1.460011199999999
 50
89.775250000004789
 51
270.22475000000497
  0
LINE
  5
13E81
  8
AM_0
 10
611.00918779607014
 20
210.57254707683791
 30
0.0
 11
611.00918779607014
 21
205.57254707683791
 31
0.0
  0
ARC
  5
13E82
  8
AM_0
 10
609.52920779606995
 20
205.7125570768379
 30
0.0
 40
0.9999999999999998
 50
270.0
 51
0.0000100000010064
  0
LINE
  5
13E83
  8
AM_0
 10
626.00918779607014
 20
210.57254707683791
 30
0.0
 11
626.00918779607014
 21
205.57254707683791
 31
0.0
  0
ARC
  5
13E84
  8
AM_0
 10
627.48916779606998
 20
205.7125570768379
 30
0.0
 40
0.9999999999999998
 50
179.99999931675049
 51
270.000010000001
  0
ARC
  5
13E85
  8
AM_0
 10
609.50918779607014
 20
205.57254707683791
 30
0.0
 40
1.4999999999999989
 50
270.0
 51
0.0000100000010064
  0
ARC
  5
13E86
  8
AM_0
 10
627.50918779607014
 20
205.57254707683791
 30
0.0
 40
1.4999999999999989
 50
179.99999931675049
 51
270.000010000001
  0
CIRCLE
  5
13E87
  8
AM_0
 10
621.00918779607014
 20
209.57254707683779
 30
0.0
 40
1.149999999999999
  0
LINE
  5
13E88
  8
AM_0
 10
610.5292077960703
 20
210.57254707683791
 30
0.0
 11
610.5292077960703
 21
205.7125570768379
 31
0.0
  0
ARC
  5
13E89
  8
AM_0
 10
609.50918779607014
 20
210.57254707683791
 30
0.0
 40
1.4999999999999989
 50
359.999989999999
 51
89.999997000000647
  0
ARC
  5
13E8A
  8
AM_0
 10
609.50918779607014
 20
210.57254707683791
 30
0.0
 40
1.019999999999998
 50
359.999989999999
 51
89.999997000000647
  0
CIRCLE
  5
13E8B
  8
AM_0
 10
621.00918779607014
 20
209.57254707683779
 30
0.0
 40
1.0999999999999981
  0
CIRCLE
  5
13E8C
  8
AM_0
 10
616.00918779607014
 20
209.57254707683779
 30
0.0
 40
0.9999999999999998
  0
LINE
  5
13E8D
  8
AM_0
 10
626.48916779606975
 20
210.57254707683791
 30
0.0
 11
626.48916779606975
 21
205.7125570768379
 31
0.0
  0
ARC
  5
13E8E
  8
AM_0
 10
627.50918779607014
 20
210.57254707683791
 30
0.0
 40
1.019999999999998
 50
89.999997000000647
 51
180.0
  0
ARC
  5
13E8F
  8
AM_0
 10
627.50918779607014
 20
210.57254707683791
 30
0.0
 40
1.4999999999999989
 50
89.999997000000647
 51
180.0
  0
LINE
  5
13E90
  8
AM_0
 10
609.50918779607014
 20
264.56253707683788
 30
0.0
 11
591.46352779607014
 21
264.56253707683788
 31
0.0
  0
LINE
  5
13E91
  8
AM_0
 10
595.16201779606956
 20
264.07254707683791
 30
0.0
 11
609.50918779607014
 21
264.07254707683791
 31
0.0
  0
LINE
  5
13E92
  8
AM_0
 10
588.50918779607014
 20
270.01248707683777
 30
0.0
 11
580.50918779607014
 21
270.01248707683777
 31
0.0
  0
ARC
  5
13E93
  8
AM_0
 10
595.16921779606992
 20
263.07254707683779
 30
0.0
 40
1.0000255999999981
 50
89.589469000002197
 51
270.4105299999984
  0
ARC
  5
13E94
  8
AM_0
 10
591.46920779607012
 20
263.1025770768378
 30
0.0
 40
1.460011199999999
 50
89.775250000004789
 51
270.22475000000497
  0
CIRCLE
  5
13E95
  8
AM_0
 10
621.00918779607014
 20
266.57254707683791
 30
0.0
 40
1.149999999999999
  0
ARC
  5
13E96
  8
AM_0
 10
609.50918779607014
 20
265.57254707683779
 30
0.0
 40
1.4999999999999989
 50
270.0
 51
0.0000100000010064
  0
ARC
  5
13E97
  8
AM_0
 10
609.50918779607014
 20
265.57254707683779
 30
0.0
 40
1.019999999999998
 50
270.0
 51
0.0000100000010064
  0
LINE
  5
13E98
  8
AM_0
 10
610.5292077960703
 20
265.57254707683779
 30
0.0
 11
610.5292077960703
 21
270.4325270768378
 31
0.0
  0
LINE
  5
13E99
  8
AM_0
 10
611.00918779607014
 20
265.57254707683779
 30
0.0
 11
611.00918779607014
 21
270.57254707683791
 31
0.0
  0
CIRCLE
  5
13E9A
  8
AM_0
 10
621.00918779607014
 20
266.57254707683791
 30
0.0
 40
1.0999999999999981
  0
CIRCLE
  5
13E9B
  8
AM_0
 10
616.00918779607014
 20
266.57254707683791
 30
0.0
 40
0.9999999999999998
  0
ARC
  5
13E9C
  8
AM_0
 10
627.50918779607014
 20
265.57254707683779
 30
0.0
 40
1.4999999999999989
 50
179.99999931675049
 51
270.000010000001
  0
ARC
  5
13E9D
  8
AM_0
 10
627.50918779607014
 20
265.57254707683779
 30
0.0
 40
1.019999999999998
 50
179.999999316757
 51
270.000010000001
  0
LINE
  5
13E9E
  8
AM_0
 10
626.48916779606975
 20
265.57254707683779
 30
0.0
 11
626.48916779606975
 21
270.4325270768378
 31
0.0
  0
LINE
  5
13E9F
  8
AM_0
 10
626.00918779607014
 20
265.57254707683779
 30
0.0
 11
626.00918779607014
 21
270.57254707683791
 31
0.0
  0
POLYLINE
  5
13EA0
  8
AM_0
 66
     1
 10
0.0
 20
0.0
 30
0.0
  0
VERTEX
  5
13EA1
  8
AM_0
 10
694.10513779607015
 20
231.8021570768378
 30
0.0
 42
-0.00076695235
  0
VERTEX
  5
13EA2
  8
AM_0
 10
694.09033779607012
 20
231.18439707683791
 30
0.0
 42
-0.00073263043
  0
VERTEX
  5
13EA3
  8
AM_0
 10
694.07369779607006
 20
230.56679707683779
 30
0.0
 42
-0.00076525988
  0
VERTEX
  5
13EA4
  8
AM_0
 10
694.05520779607014
 20
229.9491270768379
 30
0.0
 42
-0.00075144488
  0
VERTEX
  5
13EA5
  8
AM_0
 10
694.03483779606995
 20
229.33152707683789
 30
0.0
 42
-0.00076035096
  0
VERTEX
  5
13EA6
  8
AM_0
 10
694.01259779606994
 20
228.71409707683799
 30
0.0
 42
-0.00075543154
  0
VERTEX
  5
13EA7
  8
AM_0
 10
693.98849779607008
 20
228.09671707683779
 30
0.0
 42
-0.0007577325
  0
VERTEX
  5
13EA8
  8
AM_0
 10
693.96251779606996
 20
227.4793170768379
 30
0.0
 42
-0.00076034585
  0
VERTEX
  5
13EA9
  8
AM_0
 10
693.93466779607024
 20
226.86192707683779
 30
0.0
 42
-0.00074823143
  0
VERTEX
  5
13EAA
  8
AM_0
 10
693.90493779606993
 20
226.2445370768379
 30
0.0
 42
-0.00074896605
  0
VERTEX
  5
13EAB
  8
AM_0
 10
693.87337779607014
 20
225.6274070768379
 30
0.0
 42
-0.00076039763
  0
VERTEX
  5
13EAC
  8
AM_0
 10
693.83995779606994
 20
225.01037707683801
 30
0.0
 42
-0.00075616127
  0
VERTEX
  5
13EAD
  8
AM_0
 10
693.80465779606993
 20
224.3933470768379
 30
0.0
  0
SEQEND
  5
13EAE
  8
AM_0
  0
LINE
  5
13EAF
  8
AM_0
 10
695.17916779606992
 20
221.73257707683791
 30
0.0
 11
658.83791779607009
 21
221.73257707683791
 31
0.0
  0
LINE
  5
13EB0
  8
AM_0
 10
695.17916779606992
 20
224.39248707683799
 30
0.0
 11
658.85049779607027
 21
224.39248707683799
 31
0.0
  0
LINE
  5
13EB1
  8
AM_0
 10
660.07046779607003
 20
224.07254707683791
 30
0.0
 11
694.14919779606998
 21
224.07254707683791
 31
0.0
  0
LINE
  5
13EB2
  8
AM_0
 10
660.07046779607003
 20
222.07254707683791
 30
0.0
 11
694.14919779606998
 21
222.07254707683791
 31
0.0
  0
LINE
  5
13EB3
  8
AM_0
 10
694.82919779607016
 20
201.3525770768378
 30
0.0
 11
639.50918779607014
 21
201.3525770768378
 31
0.0
  0
LINE
  5
13EB4
  8
AM_0
 10
639.50918779607014
 20
204.07254707683791
 30
0.0
 11
694.14919779606998
 21
204.07254707683791
 31
0.0
  0
LINE
  5
13EB5
  8
AM_0
 10
639.50918779607014
 20
202.07254707683791
 30
0.0
 11
694.14919779606998
 21
202.07254707683791
 31
0.0
  0
ARC
  5
13EB6
  8
AM_0
 10
660.07046779607003
 20
223.07254707683791
 30
0.0
 40
1.000005699999998
 50
89.999997000000647
 51
270.000010000001
  0
ARC
  5
13EB7
  8
AM_0
 10
658.84420779607024
 20
223.06253707683791
 30
0.0
 40
1.3300147999999981
 50
89.729433000000611
 51
270.27058000000301
  0
POLYLINE
  5
13EB8
  8
AM_0
 66
     1
 10
0.0
 20
0.0
 30
0.0
  0
VERTEX
  5
13EB9
  8
AM_0
 10
692.64828779606978
 20
211.5895070768378
 30
0.0
 42
-0.00068900015
  0
VERTEX
  5
13EBA
  8
AM_0
 10
692.57740779606979
 20
211.01475707683781
 30
0.0
 42
-0.00070644648
  0
VERTEX
  5
13EBB
  8
AM_0
 10
692.50490779607026
 20
210.44007707683781
 30
0.0
 42
-0.00069245587
  0
VERTEX
  5
13EBC
  8
AM_0
 10
692.43081779606985
 20
209.86575707683789
 30
0.0
 42
-0.00069587802
  0
VERTEX
  5
13EBD
  8
AM_0
 10
692.35513779606981
 20
209.29161707683789
 30
0.0
 42
-0.00068980012
  0
VERTEX
  5
13EBE
  8
AM_0
 10
692.27783779607012
 20
208.71761707683791
 30
0.0
 42
-0.00072079193
  0
VERTEX
  5
13EBF
  8
AM_0
 10
692.19894779607
 20
208.14383707683791
 30
0.0
 42
-0.00071003147
  0
VERTEX
  5
13EC0
  8
AM_0
 10
692.11840779606985
 20
207.57035707683789
 30
0.0
 42
-0.00072658712
  0
VERTEX
  5
13EC1
  8
AM_0
 10
692.03624779606992
 20
206.9972670768378
 30
0.0
 42
-0.00069571059
  0
VERTEX
  5
13EC2
  8
AM_0
 10
691.95242779606986
 20
206.42422707683781
 30
0.0
 42
-0.0007126617
  0
VERTEX
  5
13EC3
  8
AM_0
 10
691.86699779606965
 20
205.85146707683779
 30
0.0
 42
-0.00071614574
  0
VERTEX
  5
13EC4
  8
AM_0
 10
691.77996779606985
 20
205.27911707683791
 30
0.0
 42
-0.00072290803
  0
VERTEX
  5
13EC5
  8
AM_0
 10
691.69125779606986
 20
204.70681707683789
 30
0.0
  0
SEQEND
  5
13EC6
  8
AM_0
  0
LINE
  5
13EC7
  8
AM_0
 10
691.14919779606987
 20
201.4225470768379
 30
0.0
 11
696.5091877960698
 21
189.9825470768379
 31
0.0
  0
ARC
  5
13EC9
  8
AM_0
 10
694.83602779606986
 20
203.02749707683799
 30
0.0
 40
1.6750139999999989
 50
269.76649000000219
 51
90.233501000003244
  0
ARC
  5
13ECA
  8
AM_0
 10
693.96456779606979
 20
203.07254707683791
 30
0.0
 40
1.000013899999999
 50
269.69165999999939
 51
90.308340000000754
  0
POLYLINE
  5
13ECB
  8
AM_0
 66
     1
 10
0.0
 20
0.0
 30
0.0
  0
VERTEX
  5
13ECC
  8
AM_0
 10
693.6309477960699
 20
221.7319670768378
 30
0.0
 42
-0.00073721992
  0
VERTEX
  5
13ECD
  8
AM_0
 10
693.58679779606985
 20
221.1295570768379
 30
0.0
 42
-0.00074398496
  0
VERTEX
  5
13ECE
  8
AM_0
 10
693.54086779606985
 20
220.52728707683789
 30
0.0
 42
-0.00073322625
  0
VERTEX
  5
13ECF
  8
AM_0
 10
693.49313779606985
 20
219.9249570768379
 30
0.0
 42
-0.00073594289
  0
VERTEX
  5
13ED0
  8
AM_0
 10
693.44365779606994
 20
219.32296707683781
 30
0.0
 42
-0.00074742568
  0
VERTEX
  5
13ED1
  8
AM_0
 10
693.39238779606967
 20
218.72110707683791
 30
0.0
 42
-0.00073216749
  0
VERTEX
  5
13ED2
  8
AM_0
 10
693.33932779606994
 20
218.11929707683791
 30
0.0
 42
-0.00074184065
  0
VERTEX
  5
13ED3
  8
AM_0
 10
693.2845077960701
 20
217.51776707683791
 30
0.0
 42
-0.00072077528
  0
VERTEX
  5
13ED4
  8
AM_0
 10
693.22792779607005
 20
216.91653707683801
 30
0.0
 42
-0.00074978179
  0
VERTEX
  5
13ED5
  8
AM_0
 10
693.16958779606989
 20
216.31533707683789
 30
0.0
 42
-0.00074288888
  0
VERTEX
  5
13ED6
  8
AM_0
 10
693.10943779606987
 20
215.71431707683789
 30
0.0
 42
-0.00072503679
  0
VERTEX
  5
13ED7
  8
AM_0
 10
693.04752779606997
 20
215.11357707683791
 30
0.0
 42
-0.00074640584
  0
VERTEX
  5
13ED8
  8
AM_0
 10
692.98385779606986
 20
214.5129770768379
 30
0.0
  0
SEQEND
  5
13ED9
  8
AM_0
  0
ARC
  5
13EDA
  8
AM_0
 10
693.96456779606979
 20
213.07254707683791
 30
0.0
 40
1.000013899999999
 50
269.69165999999939
 51
90.308340000000754
  0
ARC
  5
13EDB
  8
AM_0
 10
695.04916779606992
 20
213.04751707683781
 30
0.0
 40
1.4650039999999991
 50
270.0
 51
89.999997000000647
  0
ARC
  5
13EDC
  8
AM_0
 10
695.17916779606992
 20
223.06253707683791
 30
0.0
 40
1.3300049999999981
 50
270.0
 51
89.999997000000647
  0
ARC
  5
13EDD
  8
AM_0
 10
693.96456779606979
 20
223.07254707683791
 30
0.0
 40
1.000013899999999
 50
269.69165999999939
 51
90.308340000000754
  0
LINE
  5
13EDE
  8
AM_0
 10
660.07046779607003
 20
244.07254707683779
 30
0.0
 11
694.14919779606998
 21
244.07254707683779
 31
0.0
  0
LINE
  5
13EDF
  8
AM_0
 10
660.07046779607003
 20
242.07254707683791
 30
0.0
 11
694.14919779606998
 21
242.07254707683791
 31
0.0
  0
LINE
  5
13EE0
  8
AM_0
 10
695.23916779606986
 20
244.3425670768379
 30
0.0
 11
658.79049779607021
 21
244.3425670768379
 31
0.0
  0
LINE
  5
13EE1
  8
AM_0
 10
695.23916779606986
 20
241.81253707683791
 30
0.0
 11
658.79049779607021
 21
241.81253707683791
 31
0.0
  0
LINE
  5
13EE2
  8
AM_0
 10
695.23916779606986
 20
234.34256707683781
 30
0.0
 11
658.79049779607021
 21
234.34256707683781
 31
0.0
  0
LINE
  5
13EE3
  8
AM_0
 10
660.07046779607003
 20
234.07254707683779
 30
0.0
 11
694.14919779606998
 21
234.07254707683779
 31
0.0
  0
LINE
  5
13EE4
  8
AM_0
 10
660.07046779607003
 20
232.07254707683779
 30
0.0
 11
694.14919779606998
 21
232.07254707683779
 31
0.0
  0
LINE
  5
13EE5
  8
AM_0
 10
695.23916779606986
 20
231.80252707683789
 30
0.0
 11
658.79049779607021
 21
231.80252707683789
 31
0.0
  0
LINE
  5
13EE6
  8
AM_0
 10
660.07046779607003
 20
252.07254707683791
 30
0.0
 11
694.14919779606998
 21
252.07254707683791
 31
0.0
  0
LINE
  5
13EE7
  8
AM_0
 10
695.17916779606992
 20
251.75259707683779
 30
0.0
 11
658.85049779607027
 21
251.75259707683779
 31
0.0
  0
LINE
  5
13EE8
  8
AM_0
 10
660.07046779607003
 20
254.07254707683791
 30
0.0
 11
694.14919779606998
 21
254.07254707683791
 31
0.0
  0
LINE
  5
13EE9
  8
AM_0
 10
695.17916779606992
 20
254.4125070768379
 30
0.0
 11
658.85049779607027
 21
254.4125070768379
 31
0.0
  0
ARC
  5
13EEA
  8
AM_0
 10
660.07046779607003
 20
233.07254707683791
 30
0.0
 40
1.000005699999998
 50
89.999997000000647
 51
270.000010000001
  0
ARC
  5
13EEB
  8
AM_0
 10
658.78225779606987
 20
233.07254707683791
 30
0.0
 40
1.2700266
 50
89.629329999993644
 51
270.37068000000158
  0
ARC
  5
13EEC
  8
AM_0
 10
660.07046779607003
 20
243.07254707683791
 30
0.0
 40
1.000005699999998
 50
89.999997000000647
 51
270.000010000001
  0
ARC
  5
13EED
  8
AM_0
 10
658.78225779606987
 20
243.08255707683779
 30
0.0
 40
1.2700266
 50
89.629329999993644
 51
270.37068000000158
  0
ARC
  5
13EEE
  8
AM_0
 10
660.07046779607003
 20
253.07254707683779
 30
0.0
 40
1.000005699999998
 50
89.999997000000647
 51
270.000010000001
  0
ARC
  5
13EEF
  8
AM_0
 10
658.84420779607024
 20
253.08755707683781
 30
0.0
 40
1.3350147999999991
 50
89.730443999996979
 51
270.2695700000001
  0
POLYLINE
  5
13EF0
  8
AM_0
 66
     1
 10
0.0
 20
0.0
 30
0.0
  0
VERTEX
  5
13EF1
  8
AM_0
 10
694.10513779607015
 20
244.34292707683781
 30
0.0
 42
0.00076691992
  0
VERTEX
  5
13EF2
  8
AM_0
 10
694.09033779607012
 20
244.9606970768379
 30
0.0
 42
0.00073262792
  0
VERTEX
  5
13EF3
  8
AM_0
 10
694.07369779607006
 20
245.578287076838
 30
0.0
 42
0.00076529537
  0
VERTEX
  5
13EF4
  8
AM_0
 10
694.05520779607014
 20
246.1959570768378
 30
0.0
 42
0.00075141097
  0
VERTEX
  5
13EF5
  8
AM_0
 10
694.03483779606995
 20
246.81355707683781
 30
0.0
 42
0.00075841687
  0
VERTEX
  5
13EF6
  8
AM_0
 10
694.01260779606991
 20
247.43098707683779
 30
0.0
 42
0.00075711788
  0
VERTEX
  5
13EF7
  8
AM_0
 10
693.98849779607008
 20
248.04849707683789
 30
0.0
 42
0.00075976003
  0
VERTEX
  5
13EF8
  8
AM_0
 10
693.96250779606987
 20
248.66588707683781
 30
0.0
 42
0.00075797311
  0
VERTEX
  5
13EF9
  8
AM_0
 10
693.93466779607024
 20
249.283167076838
 30
0.0
 42
0.0007482613
  0
VERTEX
  5
13EFA
  8
AM_0
 10
693.90493779606993
 20
249.90054707683791
 30
0.0
 42
0.00074893561
  0
VERTEX
  5
13EFB
  8
AM_0
 10
693.87337779607014
 20
250.51767707683791
 30
0.0
 42
0.00076039839
  0
VERTEX
  5
13EFC
  8
AM_0
 10
693.83995779606994
 20
251.1347070768378
 30
0.0
 42
0.00075618786
  0
VERTEX
  5
13EFD
  8
AM_0
 10
693.80465779606993
 20
251.75174707683789
 30
0.0
  0
SEQEND
  5
13EFE
  8
AM_0
  0
POLYLINE
  5
13EFF
  8
AM_0
 66
     1
 10
0.0
 20
0.0
 30
0.0
  0
VERTEX
  5
13F00
  8
AM_0
 10
694.14919779606998
 20
238.07254707683779
 30
0.0
 42
0.00039106649
  0
VERTEX
  5
13F01
  8
AM_0
 10
694.15155779606994
 20
238.3836770768379
 30
0.0
 42
0.00035488198
  0
VERTEX
  5
13F02
  8
AM_0
 10
694.15344779606994
 20
238.69478707683771
 30
0.0
 42
0.00039706113
  0
VERTEX
  5
13F03
  8
AM_0
 10
694.1548777960702
 20
239.0058970768379
 30
0.0
 42
0.00038765718
  0
VERTEX
  5
13F04
  8
AM_0
 10
694.15580779607012
 20
239.31703707683801
 30
0.0
 42
0.00040613432
  0
VERTEX
  5
13F05
  8
AM_0
 10
694.15625779607012
 20
239.62813707683779
 30
0.0
 42
0.00035573434
  0
VERTEX
  5
13F06
  8
AM_0
 10
694.15621779606988
 20
239.939247076838
 30
0.0
 42
0.00038545884
  0
VERTEX
  5
13F07
  8
AM_0
 10
694.1557277960701
 20
240.25037707683791
 30
0.0
 42
0.00035501205
  0
VERTEX
  5
13F08
  8
AM_0
 10
694.1547677960699
 20
240.56148707683789
 30
0.0
 42
0.00040120779
  0
VERTEX
  5
13F09
  8
AM_0
 10
694.15334779606997
 20
240.87271707683789
 30
0.0
 42
0.00038317817
  0
VERTEX
  5
13F0A
  8
AM_0
 10
694.15143779606979
 20
241.18384707683791
 30
0.0
 42
0.00035656084
  0
VERTEX
  5
13F0B
  8
AM_0
 10
694.14905779607011
 20
241.4950870768379
 30
0.0
 42
0.00040143615
  0
VERTEX
  5
13F0C
  8
AM_0
 10
694.14620779606992
 20
241.8061870768378
 30
0.0
  0
SEQEND
  5
13F0D
  8
AM_0
  0
ARC
  5
13F0E
  8
AM_0
 10
695.2450277960703
 20
233.07254707683791
 30
0.0
 40
1.2700129999999981
 50
269.73663000000249
 51
90.263382999998399
  0
ARC
  5
13F0F
  8
AM_0
 10
693.96456779606979
 20
233.07254707683791
 30
0.0
 40
1.000013899999999
 50
269.69165999999939
 51
90.308340000000754
  0
POLYLINE
  5
13F10
  8
AM_0
 66
     1
 10
0.0
 20
0.0
 30
0.0
  0
VERTEX
  5
13F11
  8
AM_0
 10
694.14919779606998
 20
238.07254707683779
 30
0.0
 42
-0.00039106589
  0
VERTEX
  5
13F12
  8
AM_0
 10
694.15155779606994
 20
237.76140707683791
 30
0.0
 42
-0.00035488584
  0
VERTEX
  5
13F13
  8
AM_0
 10
694.15344779606994
 20
237.4502970768379
 30
0.0
 42
-0.00039705232
  0
VERTEX
  5
13F14
  8
AM_0
 10
694.1548777960702
 20
237.13919707683789
 30
0.0
 42
-0.0003876649
  0
VERTEX
  5
13F15
  8
AM_0
 10
694.15580779607012
 20
236.82805707683781
 30
0.0
 42
-0.00040613779
  0
VERTEX
  5
13F16
  8
AM_0
 10
694.15625779607012
 20
236.51694707683799
 30
0.0
 42
-0.00035571855
  0
VERTEX
  5
13F17
  8
AM_0
 10
694.15621779606988
 20
236.20584707683781
 30
0.0
 42
-0.00038547358
  0
VERTEX
  5
13F18
  8
AM_0
 10
694.1557277960701
 20
235.89470707683779
 30
0.0
 42
-0.000355015
  0
VERTEX
  5
13F19
  8
AM_0
 10
694.1547677960699
 20
235.58360707683789
 30
0.0
 42
-0.00040118616
  0
VERTEX
  5
13F1A
  8
AM_0
 10
694.15334779606997
 20
235.2723770768379
 30
0.0
 42
-0.00038319867
  0
VERTEX
  5
13F1B
  8
AM_0
 10
694.15143779606979
 20
234.96123707683799
 30
0.0
 42
-0.00035656356
  0
VERTEX
  5
13F1C
  8
AM_0
 10
694.14905779607011
 20
234.6500070768378
 30
0.0
 42
-0.00040140992
  0
VERTEX
  5
13F1D
  8
AM_0
 10
694.14620779606992
 20
234.3388970768379
 30
0.0
  0
SEQEND
  5
13F1E
  8
AM_0
  0
ARC
  5
13F1F
  8
AM_0
 10
695.2450277960703
 20
243.0775470768379
 30
0.0
 40
1.2650129999999991
 50
269.7355899999958
 51
90.264420999998279
  0
ARC
  5
13F20
  8
AM_0
 10
693.96456779606979
 20
243.07254707683791
 30
0.0
 40
1.000013899999999
 50
269.69165999999939
 51
90.308340000000754
  0
POLYLINE
  5
13F21
  8
AM_0
 66
     1
 10
0.0
 20
0.0
 30
0.0
  0
VERTEX
  5
13F22
  8
AM_0
 10
693.6309477960699
 20
254.41311707683789
 30
0.0
 42
0.0007337051
  0
VERTEX
  5
13F23
  8
AM_0
 10
693.58680779606993
 20
255.01553707683789
 30
0.0
 42
0.00075211323
  0
VERTEX
  5
13F24
  8
AM_0
 10
693.54086779606985
 20
255.6179270768379
 30
0.0
 42
0.0007297491
  0
VERTEX
  5
13F25
  8
AM_0
 10
693.49313779606985
 20
256.22012707683791
 30
0.0
 42
0.00073593041
  0
VERTEX
  5
13F26
  8
AM_0
 10
693.44365779606994
 20
256.8221170768378
 30
0.0
 42
0.00074742739
  0
VERTEX
  5
13F27
  8
AM_0
 10
693.39238779606967
 20
257.42398707683782
 30
0.0
 42
0.00073217363
  0
VERTEX
  5
13F28
  8
AM_0
 10
693.33932779606994
 20
258.02578707683779
 30
0.0
 42
0.00073754168
  0
VERTEX
  5
13F29
  8
AM_0
 10
693.2845077960701
 20
258.62732707683779
 30
0.0
 42
0.00073075073
  0
VERTEX
  5
13F2A
  8
AM_0
 10
693.22792779607005
 20
259.22868707683779
 30
0.0
 42
0.00074550816
  0
VERTEX
  5
13F2B
  8
AM_0
 10
693.16958779606989
 20
259.82974707683792
 30
0.0
 42
0.00074288416
  0
VERTEX
  5
13F2C
  8
AM_0
 10
693.10943779606987
 20
260.43076707683792
 30
0.0
 42
0.00072504001
  0
VERTEX
  5
13F2D
  8
AM_0
 10
693.04752779606997
 20
261.03151707683787
 30
0.0
 42
0.00074640667
  0
VERTEX
  5
13F2E
  8
AM_0
 10
692.98385779606986
 20
261.63211707683791
 30
0.0
  0
SEQEND
  5
13F2F
  8
AM_0
  0
ARC
  5
13F30
  8
AM_0
 10
695.17916779606992
 20
253.08255707683779
 30
0.0
 40
1.3300049999999981
 50
270.0
 51
89.999997000000647
  0
ARC
  5
13F31
  8
AM_0
 10
693.96456779606979
 20
253.07254707683779
 30
0.0
 40
1.000013899999999
 50
269.69165999999939
 51
90.308340000000754
  0
ARC
  5
13F32
  8
AM_0
 10
695.04916779606992
 20
263.09756707683789
 30
0.0
 40
1.4650039999999991
 50
270.0
 51
89.999997000000647
  0
ARC
  5
13F33
  8
AM_0
 10
693.96456779606979
 20
263.07254707683779
 30
0.0
 40
1.000013899999999
 50
269.69165999999939
 51
90.308340000000754
  0
LINE
  5
13F5B
  8
AM_0
 10
580.50918779607014
 20
294.07254707683791
 30
0.0
 11
570.95195868429425
 21
294.07254707683791
 31
0.0
  0
LINE
  5
13F5C
  8
AM_0
 10
580.50918779607014
 20
284.07254707683779
 30
0.0
 11
569.00308428044514
 21
284.07254707683779
 31
0.0
  0
ARC
  5
13F5E
  8
0
 10
505.91916150054499
 20
283.07254707683768
 30
0.0
 40
2.0
 50
90.0
 51
189.59406822686481
1001
GENIUS_GENODEF_13
1002
{
1000
HIER
1070
     0
1002
}
1002
{
1000
MANEDIT
1070
     0
1002
}
1002
{
1000
NOSEL
1070
     0
1002
}
1002
{
1000
BEHIND
1070
     0
1002
}
1002
{
1000
OTHER
1070
     0
1002
}
1002
{
1000
REACTOR
1002
}
1001
GENIUS_GENOBJ-N-FIL_13
1002
{
1000
OWNER
1000
GEN
1002
}
  0
ARC
  5
13F5F
  8
0
 10
487.50308343107889
 20
370.78087756653269
 30
0.0
 40
84.708331681787811
 50
272.64408025841698
 51
298.11404380688879
  0
ARC
  5
13F60
  8
0
 10
487.50308343107889
 20
370.78087756653269
 30
0.0
 40
80.708331681787811
 50
242.2304257427634
 51
297.76957425723663
  0
LINE
  5
13F61
  8
0
 10
489.72090962821483
 20
285.07254707683808
 30
0.0
 11
549.00308204527084
 21
285.07254707683791
 31
0.0
  0
LINE
  5
13F62
  8
0
 10
524.09437134129746
 20
311.07254707683779
 30
0.0
 11
450.91179552086021
 21
311.07254707683779
 31
0.0
  0
LINE
  5
13F63
  8
0
 10
535.00308171744541
 20
315.07254707683779
 30
0.0
 11
440.00308276052658
 21
315.07254707683779
 31
0.0
  0
LINE
  5
13F65
  8
ﾁｭｳｼﾝｾﾝ1
 10
440.00308276052658
 20
316.07254707683791
 30
0.0
 11
440.00308276052658
 21
290.07254707683779
 31
0.0
1001
GENIUS_GENODEF_13
1002
{
1000
HIER
1070
     0
1002
}
1002
{
1000
MANEDIT
1070
     0
1002
}
1002
{
1000
NOSEL
1070
     0
1002
}
1002
{
1000
BEHIND
1070
     0
1002
}
1002
{
1000
OTHER
1070
     0
1002
}
1002
{
1000
REACTOR
1002
}
1001
GENIUS_GENOBJ-N-CEN_13
1002
{
1000
OWNER
1000
GEN
1002
}
  0
ARC
  5
13F66
  8
0
 10
487.50308343107889
 20
370.78087756653269
 30
0.0
 40
84.708331681787811
 50
241.88595619311121
 51
267.35590367467682
  0
ARC
  5
13F67
  8
0
 10
440.00308395261959
 20
303.0725458847449
 30
0.0
 40
9.0
 50
343.30075622292458
 51
24.624324613382718
  0
ARC
  5
13F68
  8
0
 10
446.64368227192091
 20
294.30314146017332
 30
0.0
 40
2.0
 50
61.885956193111198
 51
127.1346884327121
1001
GENIUS_GENODEF_13
1002
{
1000
HIER
1070
     0
1002
}
1002
{
1000
MANEDIT
1070
     0
1002
}
1002
{
1000
NOSEL
1070
     0
1002
}
1002
{
1000
BEHIND
1070
     0
1002
}
1002
{
1000
OTHER
1070
     0
1002
}
1002
{
1000
REACTOR
1002
}
1001
GENIUS_GENOBJ-N-FIL_13
1002
{
1000
OWNER
1000
GEN
1002
}
  0
ARC
  5
13F69
  8
0
 10
450.83154655849938
 20
301.13750128756851
 30
0.0
 40
2.0
 50
169.8681981139369
 51
242.2304257427634
1001
GENIUS_GENOBJ-N-FIL_13
1002
{
1000
OWNER
1000
GEN
1002
}
1001
GENIUS_GENODEF_13
1002
{
1000
HIER
1070
     0
1002
}
1002
{
1000
MANEDIT
1070
     0
1002
}
1002
{
1000
NOSEL
1070
     0
1002
}
1002
{
1000
BEHIND
1070
     0
1002
}
1002
{
1000
OTHER
1070
     0
1002
}
1002
{
1000
REACTOR
1002
}
  0
ARC
  5
13F6A
  8
0
 10
450.91179552086021
 20
308.07254707683779
 30
0.0
 40
3.0
 50
90.0
 51
204.6243246133827
1001
GENIUS_GENOBJ-N-FIL_13
1002
{
1000
OWNER
1000
GEN
1002
}
1001
GENIUS_GENODEF_13
1002
{
1000
HIER
1070
     0
1002
}
1002
{
1000
MANEDIT
1070
     0
1002
}
1002
{
1000
NOSEL
1070
     0
1002
}
1002
{
1000
BEHIND
1070
     0
1002
}
1002
{
1000
OTHER
1070
     0
1002
}
1002
{
1000
REACTOR
1002
}
  0
ARC
  5
13F6B
  8
0
 10
487.50307128663252
 20
281.00245722883352
 30
0.0
 40
2.0
 50
180.0
 51
0.0
  0
LINE
  5
13F6C
  8
0
 10
485.50307128663258
 20
281.00245722883329
 30
0.0
 11
485.50307128663258
 21
284.164858921693
 31
0.0
  0
ARC
  5
13F6D
  8
0
 10
483.50307128663252
 20
284.164858921693
 30
0.0
 40
2.0
 50
0.0
 51
87.355903674676838
1001
GENIUS_GENODEF_13
1002
{
1000
HIER
1070
     0
1002
}
1002
{
1000
MANEDIT
1070
     0
1002
}
1002
{
1000
NOSEL
1070
     0
1002
}
1002
{
1000
BEHIND
1070
     0
1002
}
1002
{
1000
OTHER
1070
     0
1002
}
1002
{
1000
REACTOR
1002
}
1001
GENIUS_GENOBJ-N-FIL_13
1002
{
1000
OWNER
1000
GEN
1002
}
  0
LINE
  5
13F6E
  8
0
 10
489.50307128663258
 20
281.00245722883329
 30
0.0
 11
489.50307128663258
 21
284.16485780001159
 31
0.0
  0
ARC
  5
13F6F
  8
0
 10
500.00308171744541
 20
282.07254707683779
 30
0.0
 40
4.0
 50
170.40593177313519
 51
9.5940682268648061
  0
ARC
  5
13F70
  8
0
 10
491.50307128663241
 20
284.16485780001159
 30
0.0
 40
2.0
 50
92.644080258417048
 51
180.0
1001
GENIUS_GENOBJ-N-FIL_13
1002
{
1000
OWNER
1000
GEN
1002
}
1001
GENIUS_GENODEF_13
1002
{
1000
HIER
1070
     0
1002
}
1002
{
1000
MANEDIT
1070
     0
1002
}
1002
{
1000
NOSEL
1070
     0
1002
}
1002
{
1000
BEHIND
1070
     0
1002
}
1002
{
1000
OTHER
1070
     0
1002
}
1002
{
1000
REACTOR
1002
}
  0
ARC
  5
13F71
  8
0
 10
494.08700193434572
 20
283.07254707683768
 30
0.0
 40
2.0
 50
350.40593177313531
 51
90.0
1001
GENIUS_GENODEF_13
1002
{
1000
HIER
1070
     0
1002
}
1002
{
1000
MANEDIT
1070
     0
1002
}
1002
{
1000
NOSEL
1070
     0
1002
}
1002
{
1000
BEHIND
1070
     0
1002
}
1002
{
1000
OTHER
1070
     0
1002
}
1002
{
1000
REACTOR
1002
}
1001
GENIUS_GENOBJ-N-FIL_13
1002
{
1000
OWNER
1000
GEN
1002
}
  0
ARC
  5
13F73
  8
0
 10
535.00308171744541
 20
303.07254707683779
 30
0.0
 40
12.0
 50
23.929816874034021
 51
90.0
  0
LINE
  5
13F74
  8
ﾁｭｳｼﾝｾﾝ1
 10
535.00308171744541
 20
316.07254707683791
 30
0.0
 11
535.00308171744541
 21
290.07254707683779
 31
0.0
1001
GENIUS_GENODEF_13
1002
{
1000
HIER
1070
     0
1002
}
1002
{
1000
MANEDIT
1070
     0
1002
}
1002
{
1000
NOSEL
1070
     0
1002
}
1002
{
1000
BEHIND
1070
     0
1002
}
1002
{
1000
OTHER
1070
     0
1002
}
1002
{
1000
REACTOR
1002
}
1001
GENIUS_GENOBJ-N-CEN_13
1002
{
1000
OWNER
1000
GEN
1002
}
  0
ARC
  5
13F75
  8
0
 10
535.00308290953808
 20
303.0725458847449
 30
0.0
 40
9.0
 50
207.21610922031431
 51
318.55413204283388
  0
CIRCLE
  5
13F76
  8
0
 10
535.00308171744541
 20
303.07254707683779
 30
0.0
 40
4.4999999999999982
  0
LINE
  5
13F77
  8
ﾁｭｳｼﾝｾﾝ1
 10
548.00308171744507
 20
303.07254707683779
 30
0.0
 11
522.00308171744518
 21
303.07254707683779
 31
0.0
1001
GENIUS_GENODEF_13
1002
{
1000
HIER
1070
     0
1002
}
1002
{
1000
MANEDIT
1070
     0
1002
}
1002
{
1000
NOSEL
1070
     0
1002
}
1002
{
1000
BEHIND
1070
     0
1002
}
1002
{
1000
OTHER
1070
     0
1002
}
1002
{
1000
REACTOR
1002
}
1001
GENIUS_GENOBJ-N-CEN_13
1002
{
1000
OWNER
1000
GEN
1002
}
  0
ARC
  5
13F78
  8
0
 10
533.68937426154184
 20
282.07254707683802
 30
0.0
 40
3.0
 50
340.52877936551221
 51
90.0
1001
GENIUS_GENODEF_13
1002
{
1000
HIER
1070
     0
1002
}
1002
{
1000
MANEDIT
1070
     0
1002
}
1002
{
1000
NOSEL
1070
     0
1002
}
1002
{
1000
BEHIND
1070
     0
1002
}
1002
{
1000
OTHER
1070
     0
1002
}
1002
{
1000
REACTOR
1002
}
1001
GENIUS_GENOBJ-N-FIL_13
1002
{
1000
OWNER
1000
GEN
1002
}
  0
ARC
  5
13F79
  8
0
 10
535.00308290953808
 20
303.0725458847449
 30
0.0
 40
9.0
 50
155.37567538661719
 51
207.21610922031431
  0
ARC
  5
13F7A
  8
0
 10
524.17462030365834
 20
301.13750128756851
 30
0.0
 40
2.0
 50
297.76957425723663
 51
10.131801886075509
1001
GENIUS_GENOBJ-N-FIL_13
1002
{
1000
OWNER
1000
GEN
1002
}
1001
GENIUS_GENODEF_13
1002
{
1000
HIER
1070
     0
1002
}
1002
{
1000
MANEDIT
1070
     0
1002
}
1002
{
1000
NOSEL
1070
     0
1002
}
1002
{
1000
BEHIND
1070
     0
1002
}
1002
{
1000
OTHER
1070
     0
1002
}
1002
{
1000
REACTOR
1002
}
  0
ARC
  5
13F7B
  8
0
 10
528.36248459023693
 20
294.30314146017349
 30
0.0
 40
2.0
 50
52.865311567287847
 51
118.1140438068888
1001
GENIUS_GENODEF_13
1002
{
1000
HIER
1070
     0
1002
}
1002
{
1000
MANEDIT
1070
     0
1002
}
1002
{
1000
NOSEL
1070
     0
1002
}
1002
{
1000
BEHIND
1070
     0
1002
}
1002
{
1000
OTHER
1070
     0
1002
}
1002
{
1000
REACTOR
1002
}
1001
GENIUS_GENOBJ-N-FIL_13
1002
{
1000
OWNER
1000
GEN
1002
}
  0
ARC
  5
13F7C
  8
0
 10
524.09437134129746
 20
308.07254707683779
 30
0.0
 40
3.0
 50
335.37567538661648
 51
90.0
1001
GENIUS_GENOBJ-N-FIL_13
1002
{
1000
OWNER
1000
GEN
1002
}
1001
GENIUS_GENODEF_13
1002
{
1000
HIER
1070
     0
1002
}
1002
{
1000
MANEDIT
1070
     0
1002
}
1002
{
1000
NOSEL
1070
     0
1002
}
1002
{
1000
BEHIND
1070
     0
1002
}
1002
{
1000
OTHER
1070
     0
1002
}
1002
{
1000
REACTOR
1002
}
  0
LINE
  5
13F7D
  8
0
 10
545.9715976538464
 20
307.93995482151252
 30
0.0
 11
556.88564318336728
 21
283.34557345863328
 31
0.0
  0
LINE
  5
13F7E
  8
0
 10
546.74018891176047
 20
296.34645199184899
 30
0.0
 11
553.22947120456695
 21
281.72310421040851
 31
0.0
  0
ARC
  5
13F7F
  8
AM_0
 10
570.95195868429425
 20
292.07254707683779
 30
0.0
 40
1.9999999999999989
 50
90.0
 51
177.99953469735479
1001
GENIUS_GENODEF_13
1002
{
1000
HIER
1070
     0
1002
}
1002
{
1000
MANEDIT
1070
     0
1002
}
1002
{
1000
NOSEL
1070
     0
1002
}
1002
{
1000
BEHIND
1070
     0
1002
}
1002
{
1000
OTHER
1070
     0
1002
}
1002
{
1000
REACTOR
1002
}
1001
GENIUS_GENOBJ-N-FIL_13
1002
{
1000
OWNER
1000
GEN
1002
}
  0
LINE
  5
13F80
  8
AM_0
 10
567.80929770306273
 20
287.07254707683791
 30
0.0
 11
555.23175487626736
 21
287.07254707683791
 31
0.0
  0
ARC
  5
13F81
  8
AM_0
 10
545.00308395261959
 20
278.07254826893057
 30
0.0
 40
9.0000003278255516
 50
359.99999499103649
 51
23.929816874034021
  0
CIRCLE
  5
13F82
  8
ｷｲﾛ
 10
545.00308171744541
 20
278.07254707683768
 30
0.0
 40
4.0
  0
CIRCLE
  5
13F83
  8
0
 10
545.00308171744541
 20
278.07254707683768
 30
0.0
 40
3.25
  0
ARC
  5
13F84
  8
AM_0
 10
549.00308204527084
 20
280.07254707683768
 30
0.0
 40
5.0
 50
48.901196278733167
 51
90.0
1001
GENIUS_GENODEF_13
1002
{
1000
HIER
1070
     0
1002
}
1002
{
1000
MANEDIT
1070
     0
1002
}
1002
{
1000
NOSEL
1070
     0
1002
}
1002
{
1000
BEHIND
1070
     0
1002
}
1002
{
1000
OTHER
1070
     0
1002
}
1002
{
1000
REACTOR
1002
}
1001
GENIUS_GENOBJ-N-FIL_13
1002
{
1000
OWNER
1000
GEN
1002
}
  0
ARC
  5
13F85
  8
AM_0
 10
545.00308395261959
 20
278.07254826893057
 30
0.0
 40
13.00000032782555
 50
359.99999499103649
 51
23.929816874034021
  0
LINE
  5
13F86
  8
AM_0
 10
568.50308428044514
 20
281.33916389812691
 30
0.0
 11
557.58597832770477
 21
281.33916389812691
 31
0.0
  0
ARC
  5
13F87
  8
AM_0
 10
567.80929765935127
 20
288.07254707683779
 30
0.0
 40
1.0000000000000091
 50
270.00000250448011
 51
352.8192495496059
  0
LINE
  5
13F88
  8
AM_0
 10
568.9531775971642
 20
292.14236230247258
 30
0.0
 11
568.80847368474201
 21
287.99954902996291
 31
0.0
  0
ARC
  5
13F89
  8
0
 10
543.99805992766005
 20
295.1296000556805
 30
0.0
 40
3.0
 50
23.929816874034021
 51
138.55413204283391
1001
GENIUS_GENOBJ-N-FIL_13
1002
{
1000
OWNER
1000
GEN
1002
}
1001
GENIUS_GENODEF_13
1002
{
1000
HIER
1070
     0
1002
}
1002
{
1000
MANEDIT
1070
     0
1002
}
1002
{
1000
NOSEL
1070
     0
1002
}
1002
{
1000
BEHIND
1070
     0
1002
}
1002
{
1000
OTHER
1070
     0
1002
}
1002
{
1000
REACTOR
1002
}
  0
LINE
  5
13F8B
  8
AM_0
 10
694.82919779607016
 20
271.44253707683782
 30
0.0
 11
627.48916779606998
 21
271.44253707683782
 31
0.0
  0
LINE
  5
13F8C
  8
AM_0
 10
595.16915779606995
 20
274.07254707683779
 30
0.0
 11
694.14919779606998
 21
274.07254707683779
 31
0.0
  0
LINE
  5
13F8D
  8
AM_0
 10
595.16915779606995
 20
272.07254707683779
 30
0.0
 11
694.14919779606998
 21
272.07254707683779
 31
0.0
  0
LINE
  5
13F8E
  8
AM_0
 10
694.82919779607016
 20
274.7925170768379
 30
0.0
 11
591.68917779606988
 21
274.7925170768379
 31
0.0
  0
LINE
  5
13F8F
  8
AM_0
 10
693.29916779606992
 20
294.3525770768378
 30
0.0
 11
596.37917779607005
 21
294.3525770768378
 31
0.0
  0
LINE
  5
13F90
  8
AM_0
 10
693.25918779606991
 20
297.20254707683779
 30
0.0
 11
596.37917779607005
 21
297.20254707683779
 31
0.0
  0
LINE
  5
13F91
  8
AM_0
 10
693.23916779606986
 20
299.05252707683792
 30
0.0
 11
596.37917779607005
 21
299.05252707683792
 31
0.0
  0
LINE
  5
13F92
  8
AM_0
 10
693.21920779607024
 20
299.96255707683781
 30
0.0
 11
596.37911779606998
 21
299.96255707683781
 31
0.0
  0
LINE
  5
13F93
  8
AM_0
 10
609.52920779606995
 20
271.4325270768378
 30
0.0
 11
591.68917779606988
 21
271.4325270768378
 31
0.0
  0
LINE
  5
13F94
  8
AM_0
 10
590.30343779607006
 20
283.00137707683791
 30
0.0
 11
594.44915779607015
 21
298.4824870768378
 31
0.0
  0
LINE
  5
13F95
  8
AM_0
 10
590.30346779606987
 20
282.09137707683777
 30
0.0
 11
594.44918779606985
 21
297.57248707683777
 31
0.0
  0
LINE
  5
13F96
  8
AM_0
 10
590.30917779607023
 20
277.41247707683777
 30
0.0
 11
594.44918779606985
 21
292.87249707683787
 31
0.0
  0
LINE
  5
13F97
  8
AM_0
 10
590.30346779606987
 20
280.24139707683793
 30
0.0
 11
594.44918779606985
 21
295.72253707683768
 31
0.0
  0
LINE
  5
13F98
  8
AM_0
 10
593.96920779607001
 20
291.07254707683791
 30
0.0
 11
588.50918779607014
 21
291.07254707683791
 31
0.0
  0
LINE
  5
13F99
  8
AM_0
 10
588.50918779607014
 20
284.07254707683779
 30
0.0
 11
580.50918779607014
 21
284.07254707683779
 31
0.0
  0
ARC
  5
13F9A
  8
AM_0
 10
588.85598779607005
 20
282.49527707683779
 30
0.0
 40
1.502775999999999
 50
270.12242000000128
 51
345.24357000000049
  0
ARC
  5
13F9B
  8
AM_0
 10
588.85598779607005
 20
277.79532707683791
 30
0.0
 40
1.502775999999999
 50
270.12242000000128
 51
345.24357000000049
  0
ARC
  5
13F9C
  8
AM_0
 10
588.85598779607005
 20
280.64529707683789
 30
0.0
 40
1.502775999999999
 50
270.12242000000128
 51
345.24357000000049
  0
ARC
  5
13F9D
  8
AM_0
 10
595.16915779606995
 20
273.07254707683791
 30
0.0
 40
0.9999999999999998
 50
89.999997000000647
 51
270.000010000001
  0
ARC
  5
13F9E
  8
AM_0
 10
591.68917779606988
 20
273.11758707683782
 30
0.0
 40
1.675001999999999
 50
89.999997000000647
 51
270.000010000001
  0
ARC
  5
13F9F
  8
AM_0
 10
588.85598779607005
 20
283.40530707683791
 30
0.0
 40
1.502775999999999
 50
270.12242000000128
 51
345.24357000000049
  0
LINE
  5
13FA0
  8
AM_0
 10
588.50918779607014
 20
294.07254707683791
 30
0.0
 11
580.50918779607014
 21
294.07254707683791
 31
0.0
  0
ARC
  5
13FA1
  8
AM_0
 10
596.37911779606998
 20
292.35428707683781
 30
0.0
 40
1.9982919999999991
 50
89.997367999997024
 51
164.96745200000379
  0
ARC
  5
13FA2
  8
AM_0
 10
596.38400779607014
 20
297.95779707683789
 30
0.0
 40
2.0047289999999989
 50
90.138321999999846
 51
164.82650400000341
  0
ARC
  5
13FA3
  8
AM_0
 10
596.38400779607014
 20
297.04776707683789
 30
0.0
 40
2.0047289999999989
 50
90.138321999999846
 51
164.82650400000341
  0
ARC
  5
13FA4
  8
AM_0
 10
596.38400779607014
 20
295.19778707683781
 30
0.0
 40
2.0047289999999989
 50
90.138321999999846
 51
164.82650400000341
  0
LINE
  5
13FA5
  8
AM_0
 10
696.5091877960698
 20
288.86255707683779
 30
0.0
 11
695.21920779607012
 21
297.3525170768379
 31
0.0
  0
LINE
  5
13FA6
  8
AM_0
 10
696.5091877960698
 20
288.86255707683779
 30
0.0
 11
695.19918779606996
 21
298.24258707683782
 31
0.0
  0
LINE
  5
13FA7
  8
AM_0
 10
696.5091877960698
 20
287.51257707683777
 30
0.0
 11
695.22921779607009
 21
295.52252707683778
 31
0.0
  0
LINE
  5
13FA8
  8
AM_0
 10
696.5091877960698
 20
286.17257707683791
 30
0.0
 11
695.26919779606965
 21
292.73254707683799
 31
0.0
  0
LINE
  5
13FA9
  8
AM_0
 10
691.14919779606987
 20
274.7225370768378
 30
0.0
 11
696.5091877960698
 21
286.17251707683778
 31
0.0
  0
ARC
  5
13FAA
  8
AM_0
 10
694.83657779607006
 20
273.11758707683782
 30
0.0
 40
1.675015999999999
 50
269.74613000000068
 51
90.253854999997117
  0
ARC
  5
13FAB
  8
AM_0
 10
693.96456779606979
 20
273.07254707683791
 30
0.0
 40
1.000013899999999
 50
269.69165999999939
 51
90.308340000000754
  0
ARC
  5
13FAD
  8
AM_0
 10
693.25893779607009
 20
295.20730707683782
 30
0.0
 40
1.9952829999999979
 50
9.0916499999993068
 51
89.993796000001524
  0
ARC
  5
13FAE
  8
AM_0
 10
693.31045779606995
 20
292.35843707683767
 30
0.0
 40
1.994108999999999
 50
10.812230000001239
 51
90.324451999997237
  0
ARC
  5
13FAF
  8
AM_0
 10
693.24459779606991
 20
297.0558170768378
 30
0.0
 40
1.996732999999999
 50
8.5461200000027322
 51
90.156033000002694
  0
ARC
  5
13FB0
  8
AM_0
 10
693.22268779606986
 20
297.9669570768379
 30
0.0
 40
1.9956329999999991
 50
7.9388700000004286
 51
90.100291999999357
  0
LINE
  5
14385
  8
AM_0
 10
151.03297352620729
 20
284.57254827489101
 30
0.0
 11
151.03297352620709
 21
271.57254827489101
 31
0.0
  0
LINE
  5
14386
  8
AM_0
 10
153.62297331759089
 20
253.07254752387269
 30
0.0
 11
153.62297331759089
 21
223.07254662980321
 31
0.0
  0
LINE
  5
14387
  8
AM_0
 10
151.03297352620729
 20
204.57254587878489
 30
0.0
 11
151.03297352620709
 21
191.57254587878481
 31
0.0
  0
ARC
  5
1438D
  8
AM_0
 10
140.49156953353599
 20
213.11534217286291
 30
0.0
 40
1.0
 50
92.000000000003723
 51
193.11367014329869
1001
GENIUS_GENODEF_13
1002
{
1000
HIER
1070
     0
1002
}
1002
{
1000
MANEDIT
1070
     0
1002
}
1002
{
1000
NOSEL
1070
     0
1002
}
1002
{
1000
BEHIND
1070
     0
1002
}
1002
{
1000
REACTOR
1002
}
1001
GENIUS_GENOBJ-N-FIL_13
1002
{
1000
OWNER
1000
GEN
1002
}
  0
LINE
  5
1438E
  8
AM_0
 10
143.2890191915246
 20
204.11901294323459
 30
0.0
 11
151.03297352620729
 21
204.38943778751079
 31
0.0
  0
LINE
  5
1438F
  8
AM_0
 10
143.31310309586499
 20
202.0484472541288
 30
0.0
 11
151.03297352620729
 21
201.77886343832461
 31
0.0
  0
LINE
  5
14390
  8
AM_0
 10
140.4730047711561
 20
212.04593635087849
 30
0.0
 11
148.6232798712623
 21
211.76132247281319
 31
0.0
  0
LINE
  5
14392
  8
AM_0
 10
144.62297446869519
 20
204.16559568798061
 30
0.0
 11
144.62297446869499
 21
211.9010162156728
 31
0.0
  0
ARC
  5
14393
  8
AM_0
 10
247.62297446869499
 20
238.07254707683779
 30
0.0
 40
111.0
 50
198.52714231446819
 51
198.56658080189609
  0
ARC
  5
14394
  8
AM_0
 10
143.34800259256741
 20
203.047838081148
 30
0.0
 40
1.0
 50
198.56658080190309
 51
267.99999999999301
1001
GENIUS_GENODEF_13
1002
{
1000
HIER
1070
     0
1002
}
1002
{
1000
MANEDIT
1070
     0
1002
}
1002
{
1000
NOSEL
1070
     0
1002
}
1002
{
1000
BEHIND
1070
     0
1002
}
1002
{
1000
REACTOR
1002
}
1001
GENIUS_GENOBJ-N-FIL_13
1002
{
1000
OWNER
1000
GEN
1002
}
  0
ARC
  5
14395
  8
AM_0
 10
143.32391868822739
 20
203.1196221162156
 30
0.0
 40
1.0
 50
92.000000000003723
 51
198.52714231446819
1001
GENIUS_GENODEF_13
1002
{
1000
HIER
1070
     0
1002
}
1002
{
1000
MANEDIT
1070
     0
1002
}
1002
{
1000
NOSEL
1070
     0
1002
}
1002
{
1000
BEHIND
1070
     0
1002
}
1002
{
1000
REACTOR
1002
}
1001
GENIUS_GENOBJ-N-FIL_13
1002
{
1000
OWNER
1000
GEN
1002
}
  0
ARC
  5
14396
  8
AM_0
 10
140.50790426785869
 20
213.04532717789769
 30
0.0
 40
1.0
 50
193.15111826064839
 51
267.99999999999949
1001
GENIUS_GENODEF_13
1002
{
1000
HIER
1070
     0
1002
}
1002
{
1000
MANEDIT
1070
     0
1002
}
1002
{
1000
NOSEL
1070
     0
1002
}
1002
{
1000
BEHIND
1070
     0
1002
}
1002
{
1000
REACTOR
1002
}
1001
GENIUS_GENOBJ-N-FIL_13
1002
{
1000
OWNER
1000
GEN
1002
}
  0
ARC
  5
14397
  8
AM_0
 10
247.62297446869499
 20
238.07254707683779
 30
0.0
 40
111.0
 50
193.11367014329869
 51
193.15111826064839
  0
ARC
  5
14398
  8
AM_0
 10
198.62297446869519
 20
238.07254707683779
 30
0.0
 40
56.5
 50
144.50431921274279
 51
215.49568078725721
  0
LINE
  5
14399
  8
AM_0
 10
140.4566700368334
 20
214.11473299988211
 30
0.0
 11
147.3420204105748
 21
214.35517473315349
 31
0.0
  0
ARC
  5
1439A
  8
AM_0
 10
138.6546147824254
 20
223.0426905477907
 30
0.0
 40
1.0
 50
187.853178088806
 51
267.99999999999949
1001
GENIUS_GENODEF_13
1002
{
1000
HIER
1070
     0
1002
}
1002
{
1000
MANEDIT
1070
     0
1002
}
1002
{
1000
NOSEL
1070
     0
1002
}
1002
{
1000
BEHIND
1070
     0
1002
}
1002
{
1000
REACTOR
1002
}
1001
GENIUS_GENOBJ-N-FIL_13
1002
{
1000
OWNER
1000
GEN
1002
}
  0
ARC
  5
1439B
  8
AM_0
 10
247.62297446869499
 20
238.07254707683779
 30
0.0
 40
111.0
 50
187.81694783169451
 51
187.85317808881271
  0
ARC
  5
1439C
  8
AM_0
 10
138.6451326300519
 20
223.1115983037252
 30
0.0
 40
1.0
 50
92.000000000000483
 51
187.81694783169451
1001
GENIUS_GENODEF_13
1002
{
1000
HIER
1070
     0
1002
}
1002
{
1000
MANEDIT
1070
     0
1002
}
1002
{
1000
NOSEL
1070
     0
1002
}
1002
{
1000
BEHIND
1070
     0
1002
}
1002
{
1000
REACTOR
1002
}
1001
GENIUS_GENOBJ-N-FIL_13
1002
{
1000
OWNER
1000
GEN
1002
}
  0
LINE
  5
1439D
  8
AM_0
 10
138.61023313334931
 20
224.1109891307444
 30
0.0
 11
143.82899229927509
 21
224.29323221661051
 31
0.0
  0
LINE
  5
1439E
  8
AM_0
 10
138.6197152857228
 20
222.0432997207715
 30
0.0
 11
144.50567962267169
 21
221.8377573169243
 31
0.0
  0
ARC
  5
1439F
  8
AM_0
 10
247.62297446869499
 20
238.07254707683779
 30
0.0
 40
111.0
 50
182.58663322877331
 51
182.62228408795289
  0
ARC
  5
143A0
  8
AM_0
 10
137.73816083928091
 20
233.03988042495831
 30
0.0
 40
1.0
 50
182.62228408795289
 51
267.99999999999949
1001
GENIUS_GENODEF_13
1002
{
1000
HIER
1070
     0
1002
}
1002
{
1000
MANEDIT
1070
     0
1002
}
1002
{
1000
NOSEL
1070
     0
1002
}
1002
{
1000
BEHIND
1070
     0
1002
}
1002
{
1000
REACTOR
1002
}
1001
GENIUS_GENOBJ-N-FIL_13
1002
{
1000
OWNER
1000
GEN
1002
}
  0
ARC
  5
143A1
  8
AM_0
 10
137.73505066082069
 20
233.10825445907449
 30
0.0
 40
1.0
 50
92.000000000003723
 51
182.58663322877331
1001
GENIUS_GENODEF_13
1002
{
1000
HIER
1070
     0
1002
}
1002
{
1000
MANEDIT
1070
     0
1002
}
1002
{
1000
NOSEL
1070
     0
1002
}
1002
{
1000
BEHIND
1070
     0
1002
}
1002
{
1000
REACTOR
1002
}
1001
GENIUS_GENOBJ-N-FIL_13
1002
{
1000
OWNER
1000
GEN
1002
}
  0
LINE
  5
143A2
  8
AM_0
 10
137.70015116411781
 20
234.1076452860936
 30
0.0
 11
142.25130979189171
 21
234.26657524745431
 31
0.0
  0
LINE
  5
143A3
  8
AM_0
 10
137.70326134257829
 20
232.04048959793931
 30
0.0
 11
142.46399474758411
 21
231.87424112409141
 31
0.0
  0
ARC
  5
143A4
  8
AM_0
 10
137.73505066082069
 20
243.0368396946011
 30
0.0
 40
1.0
 50
177.41336677122669
 51
267.99999999999619
1001
GENIUS_GENODEF_13
1002
{
1000
HIER
1070
     0
1002
}
1002
{
1000
MANEDIT
1070
     0
1002
}
1002
{
1000
NOSEL
1070
     0
1002
}
1002
{
1000
BEHIND
1070
     0
1002
}
1002
{
1000
REACTOR
1002
}
1001
GENIUS_GENOBJ-N-FIL_13
1002
{
1000
OWNER
1000
GEN
1002
}
  0
LINE
  5
143A5
  8
AM_0
 10
137.70015116411781
 20
242.0374488675823
 30
0.0
 11
142.25130979189171
 21
241.87851890622119
 31
0.0
  0
ARC
  5
143A6
  8
AM_0
 10
137.73816083928091
 20
243.1052137287171
 30
0.0
 40
1.0
 50
92.000000000000483
 51
177.37771591204699
1001
GENIUS_GENODEF_13
1002
{
1000
HIER
1070
     0
1002
}
1002
{
1000
MANEDIT
1070
     0
1002
}
1002
{
1000
NOSEL
1070
     0
1002
}
1002
{
1000
BEHIND
1070
     0
1002
}
1002
{
1000
REACTOR
1002
}
1001
GENIUS_GENOBJ-N-FIL_13
1002
{
1000
OWNER
1000
GEN
1002
}
  0
ARC
  5
143A7
  8
AM_0
 10
247.62297446869499
 20
238.07254707683779
 30
0.0
 40
111.0
 50
177.37771591204699
 51
177.41336677122669
  0
LINE
  5
143A8
  8
AM_0
 10
137.70326134257829
 20
244.1046045557363
 30
0.0
 11
142.46399474758411
 21
244.2708530295842
 31
0.0
  0
ARC
  5
143A9
  8
AM_0
 10
140.50790426785869
 20
263.09976697577792
 30
0.0
 40
1.0
 50
92.000000000000483
 51
166.84888173935161
1001
GENIUS_GENODEF_13
1002
{
1000
HIER
1070
     0
1002
}
1002
{
1000
MANEDIT
1070
     0
1002
}
1002
{
1000
NOSEL
1070
     0
1002
}
1002
{
1000
BEHIND
1070
     0
1002
}
1002
{
1000
REACTOR
1002
}
1001
GENIUS_GENOBJ-N-FIL_13
1002
{
1000
OWNER
1000
GEN
1002
}
  0
LINE
  5
143AA
  8
AM_0
 10
140.4566700368334
 20
262.03036115379348
 30
0.0
 11
147.3420204105748
 21
261.7899194205221
 31
0.0
  0
ARC
  5
143AB
  8
AM_0
 10
138.6451326300519
 20
253.0334958499503
 30
0.0
 40
1.0
 50
172.18305216830549
 51
267.99999999999949
1001
GENIUS_GENODEF_13
1002
{
1000
HIER
1070
     0
1002
}
1002
{
1000
MANEDIT
1070
     0
1002
}
1002
{
1000
NOSEL
1070
     0
1002
}
1002
{
1000
BEHIND
1070
     0
1002
}
1002
{
1000
REACTOR
1002
}
1001
GENIUS_GENOBJ-N-FIL_13
1002
{
1000
OWNER
1000
GEN
1002
}
  0
ARC
  5
143AC
  8
AM_0
 10
247.62297446869499
 20
238.07254707683779
 30
0.0
 40
111.0
 50
172.14682191118709
 51
172.18305216830549
  0
ARC
  5
143AD
  8
AM_0
 10
138.6546147824254
 20
253.10240360588489
 30
0.0
 40
1.0
 50
92.000000000000483
 51
172.14682191119391
1001
GENIUS_GENODEF_13
1002
{
1000
HIER
1070
     0
1002
}
1002
{
1000
MANEDIT
1070
     0
1002
}
1002
{
1000
NOSEL
1070
     0
1002
}
1002
{
1000
BEHIND
1070
     0
1002
}
1002
{
1000
REACTOR
1002
}
1001
GENIUS_GENOBJ-N-FIL_13
1002
{
1000
OWNER
1000
GEN
1002
}
  0
LINE
  5
143AE
  8
AM_0
 10
138.61023313334931
 20
252.03410502293141
 30
0.0
 11
143.82899229927509
 21
251.85186193706491
 31
0.0
  0
LINE
  5
143AF
  8
AM_0
 10
138.6197152857228
 20
254.1017944329038
 30
0.0
 11
144.50567962267169
 21
254.3073368367512
 31
0.0
  0
ARC
  5
143B0
  8
AM_0
 10
140.49156953353599
 20
263.02975198081259
 30
0.0
 40
1.0
 50
166.8863298567012
 51
267.99999999999619
1001
GENIUS_GENODEF_13
1002
{
1000
HIER
1070
     0
1002
}
1002
{
1000
MANEDIT
1070
     0
1002
}
1002
{
1000
NOSEL
1070
     0
1002
}
1002
{
1000
BEHIND
1070
     0
1002
}
1002
{
1000
REACTOR
1002
}
1001
GENIUS_GENOBJ-N-FIL_13
1002
{
1000
OWNER
1000
GEN
1002
}
  0
ARC
  5
143B1
  8
AM_0
 10
247.62297446869499
 20
238.07254707683779
 30
0.0
 40
111.0
 50
166.84888173935161
 51
166.88632985669449
  0
LINE
  5
143B2
  8
AM_0
 10
143.31310309586499
 20
274.09664689954673
 30
0.0
 11
151.03297352620729
 21
274.36623071535121
 31
0.0
  0
LINE
  5
143B3
  8
AM_0
 10
143.2890191915246
 20
272.02608121044102
 30
0.0
 11
151.03297352620709
 21
271.75565636616528
 31
0.0
  0
LINE
  5
143B4
  8
AM_0
 10
140.4730047711561
 20
264.09915780279709
 30
0.0
 11
148.51854988122309
 21
264.38011442902132
 31
0.0
  0
LINE
  5
143B5
  8
AM_0
 10
144.62297446869519
 20
271.97949846569469
 30
0.0
 11
144.62297446869499
 21
264.24407793800248
 31
0.0
  0
ARC
  5
143B6
  8
AM_0
 10
143.32391868822739
 20
273.02547203746019
 30
0.0
 40
1.0
 50
161.47285768553181
 51
267.99999999999619
1001
GENIUS_GENODEF_13
1002
{
1000
HIER
1070
     0
1002
}
1002
{
1000
MANEDIT
1070
     0
1002
}
1002
{
1000
NOSEL
1070
     0
1002
}
1002
{
1000
BEHIND
1070
     0
1002
}
1002
{
1000
REACTOR
1002
}
1001
GENIUS_GENOBJ-N-FIL_13
1002
{
1000
OWNER
1000
GEN
1002
}
  0
ARC
  5
143B7
  8
AM_0
 10
247.62297446869499
 20
238.07254707683779
 30
0.0
 40
111.0
 50
161.43341919810379
 51
161.47285768553181
  0
ARC
  5
143B8
  8
AM_0
 10
143.34800259256741
 20
273.0972560725275
 30
0.0
 40
1.0
 50
92.000000000007006
 51
161.4334191980968
1001
GENIUS_GENODEF_13
1002
{
1000
HIER
1070
     0
1002
}
1002
{
1000
MANEDIT
1070
     0
1002
}
1002
{
1000
NOSEL
1070
     0
1002
}
1002
{
1000
BEHIND
1070
     0
1002
}
1002
{
1000
REACTOR
1002
}
1001
GENIUS_GENOBJ-N-FIL_13
1002
{
1000
OWNER
1000
GEN
1002
}
  0
LINE
  5
143BA
  8
AM_0
 10
152.62297446869519
 20
204.57254587878489
 30
0.0
 11
152.62297446869519
 21
205.26629767218949
 31
0.0
  0
LINE
  5
143BC
  8
AM_0
 10
152.62297446869519
 20
270.87879648148618
 30
0.0
 11
152.62297446869519
 21
271.57254827489101
 31
0.0
  0
LINE
  5
143D1
  8
AM_0
 10
167.1229744686955
 20
165.07254707683779
 30
0.0
 11
230.12297446869559
 21
165.07254707683799
 31
0.0
  0
LINE
  5
143D2
  8
AM_0
 10
231.6229744686955
 20
168.57254707683811
 30
0.0
 11
165.6229744686953
 21
168.57254707683779
 31
0.0
  0
LINE
  5
143D4
  8
AM_0
 10
227.12297446869559
 20
148.57254707683819
 30
0.0
 11
170.1229744686955
 21
148.57254707683779
 31
0.0
  0
LINE
  5
143D5
  8
AM_0
 10
168.6229744686955
 20
165.07254707683779
 30
0.0
 11
168.6229744686955
 21
150.07254707683779
 31
0.0
  0
LINE
  5
143D6
  8
AM_0
 10
165.6229744686953
 20
153.57254707683779
 30
0.0
 11
165.6229744686953
 21
168.57254707683779
 31
0.0
  0
LINE
  5
143D7
  8
AM_0
 10
167.1229744686955
 20
171.07254707683779
 30
0.0
 11
167.1229744686955
 21
152.57254707683779
 31
0.0
  0
ARC
  5
143D8
  8
AM_0
 10
170.1229744686955
 20
150.07254707683799
 30
0.0
 40
1.5
 50
180.0
 51
270.0
  0
LINE
  5
143D9
  8
AM_0
 10
167.1229744686953
 20
153.57254707683779
 30
0.0
 11
165.6229744686953
 21
153.57254707683779
 31
0.0
  0
LINE
  5
143DA
  8
AM_0
 10
167.1229744686955
 20
152.57254707683779
 30
0.0
 11
168.6229744686955
 21
152.57254707683779
 31
0.0
  0
LINE
  5
143DB
  8
AM_0
 10
215.92687446869539
 20
145.57254707683791
 30
0.0
 11
221.1229744686955
 21
148.57254707683791
 31
0.0
  0
LINE
  5
143DC
  8
AM_0
 10
181.31917446869539
 20
145.57254707683779
 30
0.0
 11
215.92687446869539
 21
145.57254707683791
 31
0.0
  0
LINE
  5
143DD
  8
AM_0
 10
176.12010904813641
 20
148.57254707683779
 30
0.0
 11
181.31917446869539
 21
145.57254707683779
 31
0.0
  0
LINE
  5
143DE
  8
AM_0
 10
228.62297446869559
 20
165.07254707683799
 30
0.0
 11
228.62297446869559
 21
150.07254707683819
 31
0.0
  0
LINE
  5
143DF
  8
AM_0
 10
231.6229744686955
 20
153.57254707683819
 30
0.0
 11
231.6229744686955
 21
168.57254707683811
 31
0.0
  0
LINE
  5
143E0
  8
AM_0
 10
230.12297446869559
 20
152.57254707683819
 30
0.0
 11
230.1229744686955
 21
171.07254707683779
 31
0.0
  0
LINE
  5
143E1
  8
AM_0
 10
228.62297446869559
 20
152.57254707683819
 30
0.0
 11
230.12297446869559
 21
152.57254707683819
 31
0.0
  0
ARC
  5
143E2
  8
AM_0
 10
227.1229744686955
 20
150.07254707683799
 30
0.0
 40
1.5
 50
270.0
 51
0.0
  0
LINE
  5
143E3
  8
AM_0
 10
230.12297446869559
 20
153.57254707683819
 30
0.0
 11
231.6229744686955
 21
153.57254707683819
 31
0.0
  0
LINE
  5
14956
  8
AM_0
 10
712.00918779607014
 20
258.07251707683781
 30
0.0
 11
710.50918779607014
 21
258.20251707683781
 31
0.0
  0
LINE
  5
14957
  8
AM_0
 10
712.00918779607014
 20
255.3525770768378
 30
0.0
 11
710.50918779607014
 21
255.3525770768378
 31
0.0
  0
LINE
  5
14958
  8
AM_0
 10
712.00918779607014
 20
253.22256707683781
 30
0.0
 11
710.50918779607014
 21
253.22256707683781
 31
0.0
  0
LINE
  5
14959
  8
AM_0
 10
712.00918779607014
 20
222.92251707683789
 30
0.0
 11
710.50918779607014
 21
222.92251707683789
 31
0.0
  0
LINE
  5
1495A
  8
AM_0
 10
712.00918779607014
 20
220.79251707683781
 30
0.0
 11
710.50918779607014
 21
220.79251707683781
 31
0.0
  0
LINE
  5
1495B
  8
AM_0
 10
712.00918779607014
 20
218.07251707683781
 30
0.0
 11
710.50918779607014
 21
217.94250707683781
 31
0.0
  0
LINE
  5
1495F
  8
AM_0
 10
704.50918779607014
 20
291.07254707683791
 30
0.0
 11
704.50918779607014
 21
185.07254707683779
 31
0.0
  0
LINE
  5
14960
  8
AM_0
 10
705.50918779607014
 20
288.07254707683779
 30
0.0
 11
705.50918779607014
 21
188.07254707683779
 31
0.0
  0
LINE
  5
14961
  8
AM_0
 10
710.50918779607014
 20
286.09256707683778
 30
0.0
 11
710.50918779607014
 21
243.07254707683791
 31
0.0
  0
LINE
  5
14962
  8
AM_0
 10
708.50918779607014
 20
253.6825270768378
 30
0.0
 11
708.50918779607014
 21
252.47256707683781
 31
0.0
  0
ARC
  5
14963
  8
AM_0
 10
709.50893779606986
 20
253.07278707683781
 30
0.0
 40
1.000199999999998
 50
270.01143000000161
 51
359.98856999999839
  0
LINE
  5
14964
  8
AM_0
 10
710.50918779607014
 20
190.0525270768378
 30
0.0
 11
710.50918779607014
 21
233.07254707683791
 31
0.0
  0
LINE
  5
14965
  8
AM_0
 10
704.50918779607014
 20
185.07254707683779
 30
0.0
 11
696.50918779607014
 21
185.07254707683779
 31
0.0
  0
LINE
  5
14966
  8
AM_0
 10
703.80917779607012
 20
194.8825970768379
 30
0.0
 11
697.57919779606993
 21
194.8825970768379
 31
0.0
  0
ARC
  5
14967
  8
AM_0
 10
706.01254779607029
 20
189.97598707683781
 30
0.0
 40
0.5033929900000002
 50
180.38490000000189
 51
269.61508999999938
  0
ARC
  5
14968
  8
AM_0
 10
706.00869779607024
 20
187.82302707683769
 30
0.0
 40
0.49952301
 50
89.945226000000403
 51
180.0547699999986
  0
LINE
  5
14969
  8
AM_0
 10
705.50918779607014
 20
188.07254707683779
 30
0.0
 11
704.50918779607014
 21
188.07254707683779
 31
0.0
  0
ARC
  5
1496A
  8
AM_0
 10
706.51327779607027
 20
192.5766970768378
 30
0.0
 40
1.0041199999999999
 50
180.23461
 51
269.76539000000002
  0
LINE
  5
1496B
  8
AM_0
 10
708.22915779607024
 20
190.4325270768378
 30
0.0
 11
705.50918779607014
 21
190.4325270768378
 31
0.0
  0
LINE
  5
1496C
  8
AM_0
 10
708.25918779607014
 20
191.57254707683779
 30
0.0
 11
706.50918779607014
 21
191.57254707683779
 31
0.0
  0
LINE
  5
1496D
  8
AM_0
 10
708.2691977960701
 20
189.47256707683769
 30
0.0
 11
706.00918779607014
 21
189.47256707683769
 31
0.0
  0
LINE
  5
1496E
  8
AM_0
 10
708.23916779607021
 20
188.32254707683779
 30
0.0
 11
706.00918779607014
 21
188.32254707683779
 31
0.0
  0
ARC
  5
1496F
  8
AM_0
 10
706.51241779607028
 20
197.09927707683781
 30
0.0
 40
1.0032760000000001
 50
180.38188999999531
 51
205.8018999999949
  0
ARC
  5
14970
  8
AM_0
 10
706.51162779607023
 20
197.09500707683779
 30
0.0
 40
1.002470999999999
 50
180.14107000000001
 51
269.85892999999987
  0
LINE
  5
14971
  8
AM_0
 10
708.20913779607008
 20
194.95254707683779
 30
0.0
 11
705.50918779607014
 21
194.95254707683779
 31
0.0
  0
LINE
  5
14972
  8
AM_0
 10
708.23916779607021
 20
196.09256707683781
 30
0.0
 11
706.50918779607014
 21
196.09256707683781
 31
0.0
  0
ARC
  5
14973
  8
AM_0
 10
709.51144779607
 20
193.23379707683779
 30
0.0
 40
0.9977070099999998
 50
297.95518999999922
 51
359.925979999996
  0
LINE
  5
14974
  8
AM_0
 10
708.50918779607014
 20
190.67251707683781
 30
0.0
 11
708.50918779607014
 21
191.22256707683781
 31
0.0
  0
LINE
  5
14975
  8
AM_0
 10
708.50918779607014
 20
188.57254707683779
 30
0.0
 11
708.50918779607014
 21
189.1025770768378
 31
0.0
  0
ARC
  5
14976
  8
AM_0
 10
709.51156779606981
 20
190.0571570768378
 30
0.0
 40
0.9976310099999999
 50
299.92076000000071
 51
359.73219000000142
  0
ARC
  5
14977
  8
AM_0
 10
709.51345779606993
 20
191.1029370768378
 30
0.0
 40
0.9956849800000001
 50
296.59085999999951
 51
359.97886999999997
  0
LINE
  5
14978
  8
AM_0
 10
708.74911779607021
 20
190.57254707683779
 30
0.0
 11
710.02914779607022
 21
191.34256707683781
 31
0.0
  0
LINE
  5
14979
  8
AM_0
 10
708.7192077960699
 20
189.58252707683769
 30
0.0
 11
709.95919779607004
 21
190.2125270768378
 31
0.0
  0
LINE
  5
1497A
  8
AM_0
 10
708.73916779607021
 20
188.46255707683781
 30
0.0
 11
710.00912779607029
 21
189.19253707683791
 31
0.0
  0
ARC
  5
1497B
  8
AM_0
 10
709.51040779607024
 20
192.19607707683781
 30
0.0
 40
0.9987969999999998
 50
301.2920499999999
 51
0.3727199999990344
  0
LINE
  5
1497C
  8
AM_0
 10
708.72915779607024
 20
191.69253707683791
 30
0.0
 11
709.97915779607024
 21
192.35253707683779
 31
0.0
  0
LINE
  5
1497D
  8
AM_0
 10
708.50918779607014
 20
195.24258707683779
 30
0.0
 11
708.50918779607014
 21
195.71255707683781
 31
0.0
  0
ARC
  5
1497E
  8
AM_0
 10
709.51070779607005
 20
197.83181707683781
 30
0.0
 40
0.9984580299999999
 50
300.61343000000232
 51
0.0404200000014871
  0
ARC
  5
1497F
  8
AM_0
 10
709.51070779607005
 20
197.83181707683781
 30
0.0
 40
0.9984580299999999
 50
300.61343000000232
 51
0.0404200000014871
  0
LINE
  5
14980
  8
AM_0
 10
710.0191977960701
 20
196.9725370768378
 30
0.0
 11
710.03921779606992
 21
196.98251707683781
 31
0.0
  0
ARC
  5
14981
  8
AM_0
 10
709.51009779607011
 20
196.79727707683779
 30
0.0
 40
0.9990889999999998
 50
303.33790999999962
 51
0.3049100000035252
  0
LINE
  5
14982
  8
AM_0
 10
708.73916779607021
 20
196.22259707683779
 30
0.0
 11
710.01913779607025
 21
196.97256707683781
 31
0.0
  0
LINE
  5
14983
  8
AM_0
 10
708.75924779606999
 20
195.1125170768378
 30
0.0
 11
710.05923779606997
 21
195.96252707683769
 31
0.0
  0
ARC
  5
14984
  8
AM_0
 10
708.26333779607035
 20
190.4718370768378
 30
0.0
 40
0.9993420200000001
 50
270.3345399999983
 51
297.13800000000202
  0
ARC
  5
14985
  8
AM_0
 10
708.2377677960701
 20
191.43618707683791
 30
0.0
 40
1.003743999999998
 50
269.50809999999939
 51
300.62887000000262
  0
ARC
  5
14986
  8
AM_0
 10
708.25399779607028
 20
192.5731570768379
 30
0.0
 40
1.0006820000000001
 50
270.29607000000112
 51
298.3493799999996
  0
ARC
  5
14987
  8
AM_0
 10
708.22848779607023
 20
189.3236370768378
 30
0.0
 40
1.001123999999999
 50
270.61232000000132
 51
300.67218000000099
  0
ARC
  5
14988
  8
AM_0
 10
708.2458177960699
 20
197.0935370768378
 30
0.0
 40
1.001044999999998
 50
269.62029000000052
 51
299.52813000000049
  0
ARC
  5
14989
  8
AM_0
 10
708.21639779607028
 20
195.9530370768378
 30
0.0
 40
1.000521999999999
 50
269.58655999999962
 51
302.85381999999981
  0
ARC
  5
1498A
  8
AM_0
 10
706.20864779607007
 20
201.6831370768378
 30
0.0
 40
0.6994530000000001
 50
89.95517099999924
 51
180.04482999999919
  0
ARC
  5
1498B
  8
AM_0
 10
706.51254779607029
 20
205.33584707683781
 30
0.0
 40
1.003352
 50
180.1910999999989
 51
269.80888999999979
  0
LINE
  5
1498C
  8
AM_0
 10
708.35915779607024
 20
204.33255707683779
 30
0.0
 11
706.50918779607014
 21
204.33255707683779
 31
0.0
  0
LINE
  5
1498D
  8
AM_0
 10
708.30917779607012
 20
202.3825970768379
 30
0.0
 11
706.20919779607004
 21
202.3825970768379
 31
0.0
  0
ARC
  5
1498E
  8
AM_0
 10
709.51278779607014
 20
205.6869270768378
 30
0.0
 40
0.99638802
 50
286.70335999999969
 51
359.75009000000108
  0
LINE
  5
1498F
  8
AM_0
 10
708.50918779607014
 20
202.6825270768378
 30
0.0
 11
708.50918779607014
 21
203.74258707683779
 31
0.0
  0
ARC
  5
14990
  8
AM_0
 10
709.51266779606988
 20
203.90103707683781
 30
0.0
 40
0.9965090199999998
 50
292.82155000000091
 51
0.086250000003443
  0
LINE
  5
14991
  8
AM_0
 10
708.64919779607021
 20
204.37252707683791
 30
0.0
 11
709.79916779607015
 21
204.73254707683779
 31
0.0
  0
LINE
  5
14992
  8
AM_0
 10
708.69912779607023
 20
202.46258707683791
 30
0.0
 11
709.89913779607014
 21
202.98260707683789
 31
0.0
  0
ARC
  5
14993
  8
AM_0
 10
708.36861779607011
 20
205.3352370768379
 30
0.0
 40
1.002699
 50
269.45935999999892
 51
286.247279999998
  0
ARC
  5
14994
  8
AM_0
 10
708.30618779607028
 20
203.38772707683779
 30
0.0
 40
1.005233
 50
270.17075000000062
 51
293.01360999999969
  0
ARC
  5
14995
  8
AM_0
 10
706.50900779607014
 20
231.0726670768378
 30
0.0
 40
0.9998279799999998
 50
89.990161999999827
 51
180.00984000000301
  0
ARC
  5
14996
  8
AM_0
 10
706.51412779607028
 20
215.07742707683781
 30
0.0
 40
1.0049469
 50
180.2813699999993
 51
269.71863000000081
  0
ARC
  5
14997
  8
AM_0
 10
706.50900779607014
 20
211.0726670768378
 30
0.0
 40
0.9998239899999999
 50
89.989922999999536
 51
180.01008000000471
  0
LINE
  5
14998
  8
AM_0
 10
708.50918779607014
 20
212.44253707683791
 30
0.0
 11
708.50918779607014
 21
213.81253707683791
 31
0.0
  0
ARC
  5
14999
  8
AM_0
 10
709.51406779606987
 20
213.07742707683781
 30
0.0
 40
0.9950849999999999
 50
359.71628000000078
 51
90.283717000000564
  0
ARC
  5
1499A
  8
AM_0
 10
709.50893779606986
 20
213.07278707683781
 30
0.0
 40
1.0001959999999981
 50
270.01124999999951
 51
359.98875000000061
  0
LINE
  5
1499B
  8
AM_0
 10
706.50918779607014
 20
212.07254707683799
 30
0.0
 11
709.50918779607014
 21
212.07254707683799
 31
0.0
  0
LINE
  5
1499C
  8
AM_0
 10
706.50918779607014
 20
214.07254707683799
 30
0.0
 11
709.50918779607014
 21
214.07254707683799
 31
0.0
  0
ARC
  5
1499D
  8
AM_0
 10
706.51412779607028
 20
225.07742707683781
 30
0.0
 40
1.004939
 50
180.28092999999899
 51
269.71906000000018
  0
ARC
  5
1499E
  8
AM_0
 10
706.50900779607014
 20
221.0726670768378
 30
0.0
 40
0.9998210099999999
 50
89.989718000001702
 51
180.01028000000201
  0
LINE
  5
1499F
  8
AM_0
 10
708.50918779607014
 20
222.46255707683781
 30
0.0
 11
708.50918779607014
 21
223.6825270768378
 31
0.0
  0
ARC
  5
149A0
  8
AM_0
 10
709.50893779606986
 20
223.07278707683781
 30
0.0
 40
1.000199999999998
 50
270.01145999999858
 51
359.98854000000142
  0
ARC
  5
149A1
  8
AM_0
 10
709.51406779606987
 20
223.07742707683781
 30
0.0
 40
0.9950810099999999
 50
359.71607999999549
 51
90.283927999999904
  0
LINE
  5
149A2
  8
AM_0
 10
706.50918779607014
 20
224.07254707683779
 30
0.0
 11
709.50918779607014
 21
224.07254707683779
 31
0.0
  0
LINE
  5
149A3
  8
AM_0
 10
706.50918779607014
 20
222.07254707683779
 30
0.0
 11
709.50918779607014
 21
222.07254707683779
 31
0.0
  0
ARC
  5
149A4
  8
AM_0
 10
706.50900779607014
 20
241.0726670768378
 30
0.0
 40
0.9998249999999999
 50
89.989949999998785
 51
180.01005000000131
  0
ARC
  5
149A5
  8
AM_0
 10
709.50893779606986
 20
243.07278707683781
 30
0.0
 40
1.0001959999999981
 50
270.01121999999913
 51
359.98878000000411
  0
ARC
  5
149A6
  8
AM_0
 10
706.51412779607028
 20
235.07742707683781
 30
0.0
 40
1.004942999999999
 50
180.28113000000181
 51
269.71886000000057
  0
LINE
  5
149A7
  8
AM_0
 10
708.50918779607014
 20
232.46255707683781
 30
0.0
 11
708.50918779607014
 21
233.62258707683779
 31
0.0
  0
ARC
  5
149A8
  8
AM_0
 10
709.50893779606986
 20
233.07278707683781
 30
0.0
 40
1.0002040000000001
 50
270.01167999999927
 51
359.98834000000318
  0
ARC
  5
149A9
  8
AM_0
 10
709.51406779606987
 20
233.07742707683781
 30
0.0
 40
0.9950770099999999
 50
359.7158599999994
 51
90.284140000000534
  0
LINE
  5
149AA
  8
AM_0
 10
706.50918779607014
 20
232.07254707683779
 30
0.0
 11
709.50918779607014
 21
232.07254707683779
 31
0.0
  0
LINE
  5
149AB
  8
AM_0
 10
706.50918779607014
 20
234.07254707683779
 30
0.0
 11
709.50918779607014
 21
234.07254707683779
 31
0.0
  0
ARC
  5
149AC
  8
AM_0
 10
706.50900779607014
 20
251.0726670768378
 30
0.0
 40
0.9998210099999999
 50
89.989745000000994
 51
180.01024999999851
  0
ARC
  5
149AD
  8
AM_0
 10
706.51412779607028
 20
245.07742707683781
 30
0.0
 40
1.0049469
 50
180.28133999999929
 51
269.71864999999963
  0
LINE
  5
149AE
  8
AM_0
 10
708.50918779607014
 20
243.6825270768378
 30
0.0
 11
708.50918779607014
 21
242.52249707683779
 31
0.0
  0
ARC
  5
149AF
  8
AM_0
 10
709.51406779606987
 20
243.07742707683781
 30
0.0
 40
0.9950849999999999
 50
359.71631000000031
 51
90.283688999999086
  0
LINE
  5
149B0
  8
AM_0
 10
706.50918779607014
 20
242.07254707683779
 30
0.0
 11
709.50918779607014
 21
242.07254707683779
 31
0.0
  0
LINE
  5
149B1
  8
AM_0
 10
706.50918779607014
 20
244.07254707683779
 30
0.0
 11
709.50918779607014
 21
244.07254707683779
 31
0.0
  0
LINE
  5
149B2
  8
AM_0
 10
706.50918779607014
 20
252.07254707683791
 30
0.0
 11
709.50918779607014
 21
252.07254707683791
 31
0.0
  0
ARC
  5
149B3
  8
AM_0
 10
706.21371779607011
 20
274.46707707683788
 30
0.0
 40
0.704566
 50
180.37009000000211
 51
269.62990000000002
  0
LINE
  5
149B4
  8
AM_0
 10
708.50918779607014
 20
263.70254707683779
 30
0.0
 11
708.50918779607014
 21
262.33255707683782
 31
0.0
  0
ARC
  5
149B5
  8
AM_0
 10
709.51406779606987
 20
263.07742707683781
 30
0.0
 40
0.99507803
 50
359.71589000000017
 51
90.284112999998655
  0
ARC
  5
149B6
  8
AM_0
 10
706.50900779607014
 20
261.07266707683777
 30
0.0
 40
0.9998289899999999
 50
89.990188999999049
 51
180.00980999999959
  0
ARC
  5
149B7
  8
AM_0
 10
706.51412779607028
 20
255.07742707683781
 30
0.0
 40
1.004939
 50
180.2809000000002
 51
269.71908999999908
  0
ARC
  5
149B8
  8
AM_0
 10
709.51406779606987
 20
253.07742707683781
 30
0.0
 40
0.99508202
 50
359.716090000002
 51
90.283901000001805
  0
ARC
  5
149B9
  8
AM_0
 10
709.50893779606986
 20
263.07278707683781
 30
0.0
 40
1.000203
 50
270.01164999999878
 51
359.98835000000429
  0
LINE
  5
149BA
  8
AM_0
 10
706.50918779607014
 20
254.07254707683791
 30
0.0
 11
709.50918779607014
 21
254.07254707683791
 31
0.0
  0
LINE
  5
149BB
  8
AM_0
 10
706.50918779607014
 20
262.07254707683791
 30
0.0
 11
709.50918779607014
 21
262.07254707683791
 31
0.0
  0
ARC
  5
149BC
  8
AM_0
 10
706.51412779607028
 20
265.07742707683781
 30
0.0
 40
1.004942999999999
 50
180.28111000000001
 51
269.71888999999999
  0
ARC
  5
149BD
  8
AM_0
 10
706.50747779607013
 20
270.8142370768378
 30
0.0
 40
0.9982839799999999
 50
89.901423999998656
 51
180.09857999999991
  0
LINE
  5
149BE
  8
AM_0
 10
708.30917779607012
 20
273.76248707683777
 30
0.0
 11
706.20919779607004
 21
273.76248707683777
 31
0.0
  0
LINE
  5
149BF
  8
AM_0
 10
708.35915779607024
 20
271.812537076838
 30
0.0
 11
706.50918779607014
 21
271.812537076838
 31
0.0
  0
LINE
  5
149C0
  8
AM_0
 10
708.50918779607014
 20
273.46255707683781
 30
0.0
 11
708.50918779607014
 21
272.40249707683779
 31
0.0
  0
ARC
  5
149C1
  8
AM_0
 10
709.51278779607014
 20
272.25405707683791
 30
0.0
 40
0.9963999999999998
 50
359.9095800000004
 51
67.182639999999211
  0
LINE
  5
149C2
  8
AM_0
 10
708.69918779606996
 20
273.68255707683778
 30
0.0
 11
709.89913779607014
 21
273.17254707683787
 31
0.0
  0
LINE
  5
149C3
  8
AM_0
 10
708.64919779607021
 20
271.77258707683779
 30
0.0
 11
709.79916779607015
 21
271.4225770768378
 31
0.0
  0
ARC
  5
149C4
  8
AM_0
 10
709.51290779607018
 20
270.46829707683793
 30
0.0
 40
0.9962710099999999
 50
359.66994999999997
 51
73.302080000000089
  0
LINE
  5
149C5
  8
AM_0
 10
706.50918779607014
 20
264.07254707683791
 30
0.0
 11
709.50918779607014
 21
264.07254707683791
 31
0.0
  0
ARC
  5
149C6
  8
AM_0
 10
708.30819779606986
 20
272.76712707683782
 30
0.0
 40
0.9954450099999999
 50
66.872549999997958
 51
89.943095000000326
  0
ARC
  5
149C7
  8
AM_0
 10
708.37002779607008
 20
270.81985707683782
 30
0.0
 40
0.9927430199999999
 50
73.667929999997554
 51
90.625445000001221
  0
LINE
  5
149C8
  8
AM_0
 10
708.50918779607014
 20
285.47256707683778
 30
0.0
 11
708.50918779607014
 21
284.92251707683778
 31
0.0
  0
ARC
  5
149C9
  8
AM_0
 10
709.51357779607019
 20
285.05227707683792
 30
0.0
 40
0.995579
 50
0.0173600000000249
 51
63.412910000002142
  0
LINE
  5
149CA
  8
AM_0
 10
708.74923779606991
 20
285.57260707683781
 30
0.0
 11
710.02920779606995
 21
284.80258707683788
 31
0.0
  0
LINE
  5
149CB
  8
AM_0
 10
703.80917779607012
 20
281.26248707683777
 30
0.0
 11
697.57919779606993
 21
281.26248707683777
 31
0.0
  0
ARC
  5
149CC
  8
AM_0
 10
706.5115077960703
 20
279.06021707683777
 30
0.0
 40
1.002353
 50
90.134327000000596
 51
179.86567318000149
  0
LINE
  5
149CD
  8
AM_0
 10
708.20913779607008
 20
281.2025470768379
 30
0.0
 11
705.50918779607014
 21
281.2025470768379
 31
0.0
  0
LINE
  5
149CE
  8
AM_0
 10
708.23916779607021
 20
280.06253707683788
 30
0.0
 11
706.50918779607014
 21
280.06253707683788
 31
0.0
  0
ARC
  5
149CF
  8
AM_0
 10
706.50820779607022
 20
283.57351707683779
 30
0.0
 40
0.9990100299999999
 50
89.943190999999956
 51
180.05680999999871
  0
LINE
  5
149D0
  8
AM_0
 10
708.25918779607014
 20
284.57254707683779
 30
0.0
 11
706.50918779607014
 21
284.57254707683779
 31
0.0
  0
LINE
  5
149D1
  8
AM_0
 10
708.50918779607014
 20
280.90249707683779
 30
0.0
 11
708.50918779607014
 21
280.43252707683791
 31
0.0
  0
ARC
  5
149D2
  8
AM_0
 10
709.51437779607022
 20
279.35012707683791
 30
0.0
 40
0.9948369899999999
 50
359.56214000000188
 51
56.795039999998927
  0
LINE
  5
149D3
  8
AM_0
 10
708.75924779606999
 20
281.03256707683778
 30
0.0
 11
710.05923779606997
 21
280.18258707683788
 31
0.0
  0
ARC
  5
149D4
  8
AM_0
 10
709.5151077960702
 20
278.31570707683778
 30
0.0
 40
0.99404597
 50
359.81435999999968
 51
59.531800000001169
  0
LINE
  5
149D5
  8
AM_0
 10
708.73922779607005
 20
279.92257707683791
 30
0.0
 11
710.0191977960701
 21
279.17257707683791
 31
0.0
  0
ARC
  5
149D6
  8
AM_0
 10
709.5159577960701
 20
282.91397707683791
 30
0.0
 40
0.9932109699999999
 50
359.91813000000002
 51
62.20067999999938
  0
ARC
  5
149D7
  8
AM_0
 10
709.51473779607022
 20
283.95156707683782
 30
0.0
 40
0.9944329899999999
 50
0.0594900000009383
 51
58.847870000000192
  0
LINE
  5
149D8
  8
AM_0
 10
708.72915779607024
 20
284.46258707683779
 30
0.0
 11
709.97915779607024
 21
283.79257707683792
 31
0.0
  0
ARC
  5
149D9
  8
AM_0
 10
708.20254779607012
 20
280.20632707683779
 30
0.0
 40
0.99617702
 50
56.029510000002702
 51
89.618682000000817
  0
ARC
  5
149DA
  8
AM_0
 10
708.22976779607029
 20
279.06607707683793
 30
0.0
 40
0.99648702
 50
59.25623000000207
 51
89.459279000001374
  0
ARC
  5
149DB
  8
AM_0
 10
708.27407779606995
 20
283.57717707683793
 30
0.0
 40
0.99545902
 50
62.7961800000012
 51
90.858709000000076
  0
LINE
  5
149DC
  8
AM_0
 10
704.50918779607014
 20
291.07254707683791
 30
0.0
 11
696.50918779607014
 21
291.07254707683791
 31
0.0
  0
ARC
  5
149DD
  8
AM_0
 10
706.01376779607006
 20
288.32717707683793
 30
0.0
 40
0.50463498
 50
180.5238300000004
 51
269.47616999999963
  0
LINE
  5
149DE
  8
AM_0
 10
705.50918779607014
 20
288.07254707683779
 30
0.0
 11
704.50918779607014
 21
288.07254707683779
 31
0.0
  0
ARC
  5
149DF
  8
AM_0
 10
706.00747779607013
 20
286.17422707683778
 30
0.0
 40
0.4983060100000002
 50
89.804892999999964
 51
180.1951100000021
  0
LINE
  5
149E0
  8
AM_0
 10
708.23916779607021
 20
287.82254707683791
 30
0.0
 11
706.00918779607014
 21
287.82254707683791
 31
0.0
  0
LINE
  5
149E1
  8
AM_0
 10
708.22915779607024
 20
285.71255707683781
 30
0.0
 11
705.50918779607014
 21
285.71255707683781
 31
0.0
  0
LINE
  5
149E2
  8
AM_0
 10
708.2691977960701
 20
286.67251707683778
 30
0.0
 11
706.00918779607014
 21
286.67251707683778
 31
0.0
  0
ARC
  5
149E3
  8
AM_0
 10
709.5159577960701
 20
286.0904870768378
 30
0.0
 40
0.99319202
 50
0.1204100000019515
 51
60.22661999999832
  0
LINE
  5
149E4
  8
AM_0
 10
708.7192077960699
 20
286.57254707683779
 30
0.0
 11
709.95919779607004
 21
285.94253707683788
 31
0.0
  0
LINE
  5
149E5
  8
AM_0
 10
708.50918779607014
 20
287.57254707683791
 30
0.0
 11
708.50918779607014
 21
287.04251707683778
 31
0.0
  0
LINE
  5
149E6
  8
AM_0
 10
708.73916779607021
 20
287.6925070768379
 30
0.0
 11
710.00912779607029
 21
286.95251707683781
 31
0.0
  0
ARC
  5
149E7
  8
AM_0
 10
708.24715779607027
 20
286.82669707683777
 30
0.0
 40
0.9959030199999999
 50
60.392830000001311
 51
90.458733000000876
  0
ARC
  5
149E8
  8
AM_0
 10
708.24032779607023
 20
284.71829707683781
 30
0.0
 40
0.99427301
 50
59.219089999998253
 51
90.643933999999973
  0
ARC
  5
149E9
  8
AM_0
 10
708.28439779607015
 20
285.67849707683769
 30
0.0
 40
0.99411702
 50
64.065020000001226
 51
90.877356000001484
  0
LINE
  5
149EA
  8
AM_0
 10
713.00308428044514
 20
222.8507148014472
 30
0.0
 11
713.00308428044514
 21
253.29434883465041
 31
0.0
  0
LINE
  5
149EB
  8
AM_0
 10
712.00918779607014
 20
258.07254707683791
 30
0.0
 11
712.00918779607014
 21
218.07254707683791
 31
0.0
  0
LINE
  5
149EC
  8
AM_0
 10
713.00305376286701
 20
222.8507148014472
 30
0.0
 11
712.50305376286701
 21
220.08072578777529
 31
0.0
  0
LINE
  5
149ED
  8
AM_0
 10
712.50308428044514
 20
220.08072578777529
 30
0.0
 11
712.00305376286701
 21
220.1207343326972
 31
0.0
  0
LINE
  5
149EE
  8
AM_0
 10
712.50305376286701
 20
256.06436836590029
 30
0.0
 11
712.00308428044514
 21
256.02435982097847
 31
0.0
  0
LINE
  5
149EF
  8
AM_0
 10
713.00308428044514
 20
253.2943793522285
 30
0.0
 11
712.50308428044514
 21
256.06436836590029
 31
0.0
  0
LINE
  5
149F0
  8
AM_0
 10
682.50918779607025
 20
168.57254707683779
 30
0.0
 11
682.50918779607025
 21
161.07254707683779
 31
0.0
  0
LINE
  5
149F1
  8
AM_0
 10
688.00918779607059
 20
171.07254707683771
 30
0.0
 11
688.00918779607025
 21
152.57254707683779
 31
0.0
  0
LINE
  5
149F2
  8
AM_0
 10
679.00918779607025
 20
168.57254707683779
 30
0.0
 11
679.00918779607025
 21
161.07254707683779
 31
0.0
  0
LINE
  5
149F3
  8
AM_0
 10
671.00918779607025
 20
168.57254707683779
 30
0.0
 11
671.00918779607025
 21
161.07254707683779
 31
0.0
  0
LINE
  5
149F4
  8
AM_0
 10
667.50918779607025
 20
161.07254707683779
 30
0.0
 11
667.50918779607025
 21
168.57254707683779
 31
0.0
  0
LINE
  5
149F5
  8
AM_0
 10
608.00918779607025
 20
171.07254707683771
 30
0.0
 11
608.00918779607025
 21
165.07254707683779
 31
0.0
  0
LINE
  5
149F6
  8
AM_0
 10
610.50918779607025
 20
148.57254707683779
 30
0.0
 11
685.50918779607025
 21
148.57254707683779
 31
0.0
  0
LINE
  5
149F7
  8
AM_0
 10
621.70518779607016
 20
145.57254707683779
 30
0.0
 11
657.31318779607022
 21
145.57254707683779
 31
0.0
  0
LINE
  5
149F8
  8
AM_0
 10
608.00918779607025
 20
165.07254707683779
 30
0.0
 11
665.50918779607025
 21
165.07254707683779
 31
0.0
  0
LINE
  5
149F9
  8
AM_0
 10
609.50918779607036
 20
165.07254707683779
 30
0.0
 11
609.50918779607036
 21
149.57254707683779
 31
0.0
  0
ARC
  5
149FA
  8
AM_0
 10
610.50918779607025
 20
149.57254707683771
 30
0.0
 40
1.0
 50
180.0
 51
270.0
  0
LINE
  5
149FB
  8
AM_0
 10
616.50918779607025
 20
148.57254707683779
 30
0.0
 11
621.70518779607016
 21
145.57254707683779
 31
0.0
  0
ARC
  5
149FC
  8
AM_0
 10
675.00918779607025
 20
161.07254707683779
 30
0.0
 40
3.999999999999996
 50
180.0
 51
0.000000000000007
  0
ARC
  5
149FD
  8
AM_0
 10
675.00918779607025
 20
161.07254707683779
 30
0.0
 40
7.5000000000000018
 50
180.0
 51
0.000000000000007
  0
ARC
  5
149FE
  8
AM_0
 10
676.00918779607036
 20
160.07254707683779
 30
0.0
 40
7.499999999999992
 50
270.0
 51
0.000000000000007
  0
LINE
  5
149FF
  8
AM_0
 10
657.31318779607022
 20
145.57254707683779
 30
0.0
 11
662.50196330627318
 21
148.57254707683779
 31
0.0
  0
ARC
  5
14A00
  8
AM_0
 10
674.00918779607025
 20
160.07254707683779
 30
0.0
 40
7.4999999999999956
 50
180.0
 51
270.0
  0
LINE
  5
14A01
  8
AM_0
 10
674.00918779607025
 20
152.57254707683779
 30
0.0
 11
676.00918779607036
 21
152.57254707683779
 31
0.0
  0
LINE
  5
14A02
  8
AM_0
 10
666.50918779607025
 20
160.07254707683779
 30
0.0
 11
666.50918779607025
 21
164.07254707683779
 31
0.0
  0
ARC
  5
14A03
  8
AM_0
 10
665.50918779607025
 20
164.07254707683779
 30
0.0
 40
1.0
 50
0.000000000000007
 51
90.0
  0
LINE
  5
14A04
  8
AM_0
 10
686.50918779607025
 20
165.07254707683779
 30
0.0
 11
686.50918779607025
 21
149.57254707683779
 31
0.0
  0
ARC
  5
14A05
  8
AM_0
 10
685.50918779607025
 20
149.57254707683779
 30
0.0
 40
1.0
 50
270.0
 51
0.000000000000007
  0
LINE
  5
14A06
  8
AM_0
 10
688.00918779607025
 20
152.57254707683779
 30
0.0
 11
686.50918779607025
 21
152.57254707683779
 31
0.0
  0
LINE
  5
14A07
  8
AM_0
 10
688.00918779607025
 20
165.07254707683779
 30
0.0
 11
684.50918779607036
 21
165.07254707683779
 31
0.0
  0
LINE
  5
14A08
  8
AM_0
 10
683.50918779607025
 20
164.07254707683779
 30
0.0
 11
683.50918779607025
 21
160.07254707683779
 31
0.0
  0
ARC
  5
14A09
  8
AM_0
 10
684.50918779607036
 20
164.07254707683779
 30
0.0
 40
1.0
 50
90.0
 51
180.0
  0
LINE
  5
14A0A
  8
AM_0
 10
688.00918779607025
 20
168.57254707683779
 30
0.0
 11
608.00918779607025
 21
168.57254707683779
 31
0.0
  0
LINE
  5
14A0B
  8
AM_0
 10
608.00918779607025
 20
171.07254707683771
 30
0.0
 11
688.00918779607025
 21
171.07254707683771
 31
0.0
  0
LINE
  5
15B69
  8
AM_0
 10
420.10274905301861
 20
549.20916696853658
 30
0.0
 11
554.90341569271038
 21
549.20916696853658
 31
0.0
  0
LINE
  5
15B6A
  8
ﾁｭｳｼﾝｾﾝ1
 10
717.0091877960698
 20
511.20914589118121
 30
0.0
 11
414.00308019752657
 21
511.2091893407565
 31
0.0
1001
GENIUS_GENODEF_13
1002
{
1000
HIER
1070
     0
1002
}
1002
{
1000
MANEDIT
1070
     0
1002
}
1002
{
1000
NOSEL
1070
     0
1002
}
1002
{
1000
BEHIND
1070
     0
1002
}
1002
{
1000
REACTOR
1002
}
1001
GENIUS_GENOBJ-N-CEN_13
1002
{
1000
OWNER
1000
GEN
1002
}
  0
LINE
  5
15B6B
  8
AM_0
 10
713.0030842804448
 20
495.98731361579081
 30
0.0
 11
713.0030842804448
 21
526.43094764899377
 31
0.0
  0
ARC
  5
15B6C
  8
AM_0
 10
706.50918779606957
 20
524.20914589118161
 30
0.0
 40
1.0
 50
89.999996999995744
 51
180.0
  0
ARC
  5
15B6D
  8
AM_0
 10
709.50918779606968
 20
526.20914589118149
 30
0.0
 40
1.0
 50
270.0
 51
0.0000100000009873
  0
LINE
  5
15B6E
  8
AM_0
 10
710.50918779606957
 20
559.22550589118146
 30
0.0
 11
710.50918779606957
 21
516.20913589118152
 31
0.0
  0
LINE
  5
15B6F
  8
AM_0
 10
705.50918779606968
 20
561.20913589118163
 30
0.0
 11
705.50918779606968
 21
460.08591689118151
 31
0.0
  0
LINE
  5
15B70
  8
AM_0
 10
712.00918779606957
 20
531.20913589118152
 30
0.0
 11
712.00918779606957
 21
491.2091558911813
 31
0.0
  0
LINE
  5
15B71
  8
AM_0
 10
704.5091877960698
 20
564.20913589118163
 30
0.0
 11
704.5091877960698
 21
458.2091548911813
 31
0.0
  0
LINE
  5
15B72
  8
AM_0
 10
708.74142779606984
 20
461.59398889118143
 30
0.0
 11
710.00961779606985
 21
462.32696789118148
 31
0.0
  0
LINE
  5
15B73
  8
AM_0
 10
705.50918779606968
 20
461.20915489118153
 30
0.0
 11
704.5091877960698
 21
461.20915489118153
 31
0.0
  0
LINE
  5
15B74
  8
AM_0
 10
708.24099779606956
 20
461.45975789118143
 30
0.0
 11
706.00918779606957
 21
461.45975789118143
 31
0.0
  0
ARC
  5
15B75
  8
AM_0
 10
706.00918779606957
 20
460.95976489118158
 30
0.0
 40
0.5
 50
89.999996999995744
 51
180.0
  0
ARC
  5
15B76
  8
AM_0
 10
708.24099779606956
 20
462.45976489118158
 30
0.0
 40
1.0
 50
270.0
 51
300.02639999999582
  0
LINE
  5
15B77
  8
AM_0
 10
713.00305376286644
 20
495.98731361579081
 30
0.0
 11
712.50305376286644
 21
493.21732460211888
 31
0.0
  0
LINE
  5
15B78
  8
AM_0
 10
710.50918779606957
 20
463.19273689118148
 30
0.0
 11
710.50918779606957
 21
506.20915589118152
 31
0.0
  0
ARC
  5
15B79
  8
AM_0
 10
706.50918779606957
 20
478.4659758911817
 30
0.0
 40
1.0
 50
180.0
 51
270.0
  0
ARC
  5
15B7A
  8
AM_0
 10
708.35885779606974
 20
478.4659758911817
 30
0.0
 40
1.0
 50
270.0
 51
287.09763000000362
  0
ARC
  5
15B7B
  8
AM_0
 10
706.50918779606957
 20
470.22421489118142
 30
0.0
 40
1.0
 50
180.0
 51
270.0
  0
LINE
  5
15B7C
  8
AM_0
 10
708.74325779606966
 20
469.36131589118139
 30
0.0
 11
710.01461779606961
 21
470.10599789118129
 31
0.0
  0
ARC
  5
15B7D
  8
AM_0
 10
709.50918779606968
 20
469.93577889118171
 30
0.0
 40
1.0
 50
303.25472000000491
 51
0.0000100000009873
  0
LINE
  5
15B7E
  8
AM_0
 10
708.72884779606954
 20
464.82394689118149
 30
0.0
 11
709.97744779606944
 21
465.48581189118158
 31
0.0
  0
LINE
  5
15B7F
  8
AM_0
 10
708.72256779606937
 20
462.71441189118138
 30
0.0
 11
709.96182779606966
 21
463.34343989118139
 31
0.0
  0
LINE
  5
15B80
  8
AM_0
 10
708.75893779606963
 20
468.24798089118133
 30
0.0
 11
710.0575877960697
 21
469.09954389118172
 31
0.0
  0
LINE
  5
15B81
  8
AM_0
 10
708.74673779606974
 20
463.71005489118141
 30
0.0
 11
710.02364779606944
 21
464.47629789118128
 31
0.0
  0
ARC
  5
15B82
  8
AM_0
 10
709.50918779606968
 20
465.33378889118143
 30
0.0
 40
1.0
 50
300.96660000000043
 51
0.0000100000009873
  0
ARC
  5
15B83
  8
AM_0
 10
709.50918779606968
 20
466.36936489118159
 30
0.0
 40
1.0
 50
297.9265899999989
 51
0.0000100000009873
  0
ARC
  5
15B84
  8
AM_0
 10
709.50918779606968
 20
464.23508689118142
 30
0.0
 40
1.0
 50
296.91125000000312
 51
0.0000100000009873
  0
ARC
  5
15B85
  8
AM_0
 10
709.50918779606968
 20
463.1927368911816
 30
0.0
 40
1.0
 50
300.02639000000539
 51
0.0000100000009873
  0
LINE
  5
15B86
  8
AM_0
 10
708.26992779606962
 20
462.60606689118163
 30
0.0
 11
706.00918779606957
 21
462.60606689118163
 31
0.0
  0
LINE
  5
15B87
  8
AM_0
 10
708.26052779606982
 20
464.7074988911815
 30
0.0
 11
706.50918779606957
 21
464.7074988911815
 31
0.0
  0
LINE
  5
15B88
  8
AM_0
 10
708.23788779606934
 20
469.22423089118161
 30
0.0
 11
706.50918779606957
 21
469.22423089118161
 31
0.0
  0
LINE
  5
15B89
  8
AM_0
 10
708.21053779606984
 20
468.08421589118137
 30
0.0
 11
705.50918779606968
 21
468.08421589118137
 31
0.0
  0
LINE
  5
15B8A
  8
AM_0
 10
708.23214779606974
 20
463.56748489118149
 30
0.0
 11
705.50918779606968
 21
463.56748489118149
 31
0.0
  0
ARC
  5
15B8B
  8
AM_0
 10
706.00918779606957
 20
463.10605889118148
 30
0.0
 40
0.5
 50
180.0
 51
270.0
  0
ARC
  5
15B8C
  8
AM_0
 10
706.50918779606957
 20
465.70750689118159
 30
0.0
 40
1.0
 50
180.0
 51
270.0
  0
LINE
  5
15B8D
  8
AM_0
 10
708.5091877960698
 20
463.81259389118128
 30
0.0
 11
708.5091877960698
 21
464.3586148911815
 31
0.0
  0
LINE
  5
15B8E
  8
AM_0
 10
708.5091877960698
 20
468.37869489118151
 30
0.0
 11
708.5091877960698
 21
468.85080989118171
 31
0.0
  0
ARC
  5
15B8F
  8
AM_0
 10
708.2378877960698
 20
470.22421489118142
 30
0.0
 40
1.0
 50
270.0
 51
300.35950000000292
  0
ARC
  5
15B90
  8
AM_0
 10
708.21053779606984
 20
469.08420089118169
 30
0.0
 40
1.0
 50
270.0
 51
303.25472999999982
  0
ARC
  5
15B91
  8
AM_0
 10
708.26052779606982
 20
465.70750689118159
 30
0.0
 40
1.0
 50
270.0
 51
297.92660000000438
  0
ARC
  5
15B92
  8
AM_0
 10
708.23214779606974
 20
464.5674918911817
 30
0.0
 40
1.0
 50
270.0
 51
300.96660000000043
  0
ARC
  5
15B93
  8
AM_0
 10
708.26992779606974
 20
463.6060508911815
 30
0.0
 40
1.0
 50
270.0
 51
296.91126000000253
  0
LINE
  5
15B94
  8
AM_0
 10
708.5091877960698
 20
461.7129928911815
 30
0.0
 11
708.5091877960698
 21
462.23875689118148
 31
0.0
  0
LINE
  5
15B95
  8
AM_0
 10
708.69729779606985
 20
475.60024489118138
 30
0.0
 11
709.9020077960696
 21
476.11475689118151
 31
0.0
  0
ARC
  5
15B96
  8
AM_0
 10
709.50918779606968
 20
477.03441089118172
 30
0.0
 40
1.0
 50
293.12701999999518
 51
0.0000100000009873
  0
LINE
  5
15B97
  8
AM_0
 10
710.01461779606961
 20
470.10603589118142
 30
0.0
 11
710.03817779606982
 21
470.11986089118142
 31
0.0
  0
ARC
  5
15B98
  8
AM_0
 10
709.50918779606968
 20
470.96890489118152
 30
0.0
 40
1.0
 50
300.3595100000008
 51
0.0000100000009873
  0
ARC
  5
15B99
  8
AM_0
 10
709.50918779606968
 20
470.96890489118152
 30
0.0
 40
1.0
 50
300.3595100000008
 51
0.0000100000009873
  0
LINE
  5
15B9A
  8
AM_0
 10
708.35885779606974
 20
477.46599089118138
 30
0.0
 11
706.50918779606957
 21
477.46599089118138
 31
0.0
  0
LINE
  5
15B9B
  8
AM_0
 10
708.30453779606944
 20
475.51987689118158
 30
0.0
 11
706.20919779606959
 21
475.51987689118158
 31
0.0
  0
ARC
  5
15B9C
  8
AM_0
 10
706.20919779606959
 20
474.81993389118162
 30
0.0
 40
0.6999999900000002
 50
89.999996999995744
 51
180.0
  0
LINE
  5
15B9D
  8
AM_0
 10
708.5091877960698
 20
475.81625589118153
 30
0.0
 11
708.5091877960698
 21
476.87620789118159
 31
0.0
  0
ARC
  5
15B9E
  8
AM_0
 10
708.30453779606955
 20
476.51988489118168
 30
0.0
 40
1.0
 50
270.0
 51
293.12702999999561
  0
ARC
  5
15B9F
  8
AM_0
 10
706.50918779606957
 20
470.22421489118142
 30
0.0
 40
1.0
 50
180.0
 51
205.3632400000005
  0
ARC
  5
15BA0
  8
AM_0
 10
709.50918779606968
 20
486.20913589118157
 30
0.0
 40
1.0
 50
270.0
 51
0.0000100000009873
  0
LINE
  5
15BA1
  8
AM_0
 10
706.50918779606957
 20
485.20915589118152
 30
0.0
 11
709.50918779606968
 21
485.20915589118152
 31
0.0
  0
LINE
  5
15BA2
  8
AM_0
 10
708.65286779606947
 20
477.51021089118149
 30
0.0
 11
709.8032577960696
 21
477.86406189118151
 31
0.0
  0
ARC
  5
15BA3
  8
AM_0
 10
709.50918779606968
 20
478.81987289118172
 30
0.0
 40
1.0
 50
287.09763000000362
 51
0.0000100000009873
  0
ARC
  5
15BA4
  8
AM_0
 10
706.50918779606957
 20
484.20914589118161
 30
0.0
 40
1.0
 50
89.999996999995744
 51
180.0
  0
LINE
  5
15BA5
  8
AM_0
 10
706.50918779606957
 20
487.20914589118149
 30
0.0
 11
709.50918779606968
 21
487.20914589118149
 31
0.0
  0
LINE
  5
15BA6
  8
AM_0
 10
712.5030842804448
 20
493.21732460211888
 30
0.0
 11
712.00305376286644
 21
493.25733314704081
 31
0.0
  0
LINE
  5
15BA7
  8
AM_0
 10
712.00912779606961
 20
491.2091558911813
 30
0.0
 11
710.50918779606957
 21
491.07792589118151
 31
0.0
  0
ARC
  5
15BA8
  8
AM_0
 10
709.50918779606968
 20
486.20913589118157
 30
0.0
 40
1.0
 50
359.99999000000219
 51
89.999996999995744
  0
LINE
  5
15BA9
  8
AM_0
 10
708.5091877960698
 20
485.58291589118147
 30
0.0
 11
708.5091877960698
 21
486.94577589118131
 31
0.0
  0
ARC
  5
15BAA
  8
AM_0
 10
706.50918779606957
 20
488.20915589118158
 30
0.0
 40
1.0
 50
180.0
 51
270.0
  0
LINE
  5
15BAB
  8
AM_0
 10
712.00918779606957
 20
496.05911589118148
 30
0.0
 11
708.71548779606974
 21
496.05911589118148
 31
0.0
  0
LINE
  5
15BAC
  8
AM_0
 10
706.50918779606957
 20
497.20915589118141
 30
0.0
 11
709.50918779606968
 21
497.20915589118141
 31
0.0
  0
LINE
  5
15BAD
  8
AM_0
 10
706.50918779606957
 20
495.2091358911814
 30
0.0
 11
709.50918779606968
 21
495.2091358911814
 31
0.0
  0
ARC
  5
15BAE
  8
AM_0
 10
709.50918779606968
 20
496.20914589118172
 30
0.0
 40
1.0
 50
359.99999000000219
 51
89.999996999995744
  0
LINE
  5
15BAF
  8
AM_0
 10
712.00918779606957
 20
493.92710589118138
 30
0.0
 11
710.50918779606957
 21
493.92710589118138
 31
0.0
  0
ARC
  5
15BB0
  8
AM_0
 10
709.50918779606968
 20
496.20914589118172
 30
0.0
 40
1.0
 50
270.0
 51
0.0000100000009873
  0
ARC
  5
15BB1
  8
AM_0
 10
706.50918779606957
 20
498.20913589118157
 30
0.0
 40
1.0
 50
180.0
 51
270.0
  0
ARC
  5
15BB2
  8
AM_0
 10
706.50918779606957
 20
494.20915589118152
 30
0.0
 40
1.0
 50
89.999996999995744
 51
180.0
  0
LINE
  5
15BB3
  8
AM_0
 10
708.5091877960698
 20
495.60203589118129
 30
0.0
 11
708.5091877960698
 21
496.8133958911813
 31
0.0
  0
LINE
  5
15BB4
  8
AM_0
 10
706.50918779606957
 20
507.2091358911814
 30
0.0
 11
709.50918779606968
 21
507.2091358911814
 31
0.0
  0
LINE
  5
15BB5
  8
AM_0
 10
706.50918779606957
 20
505.20914589118149
 30
0.0
 11
709.50918779606968
 21
505.20914589118149
 31
0.0
  0
ARC
  5
15BB6
  8
AM_0
 10
709.50918779606968
 20
506.20915589118158
 30
0.0
 40
1.0
 50
359.99999000000219
 51
89.999996999995744
  0
ARC
  5
15BB7
  8
AM_0
 10
709.50918779606968
 20
506.20915589118158
 30
0.0
 40
1.0
 50
270.0
 51
0.0000100000009873
  0
ARC
  5
15BB8
  8
AM_0
 10
706.50918779606957
 20
504.20913589118157
 30
0.0
 40
1.0
 50
89.999996999995744
 51
180.0
  0
ARC
  5
15BB9
  8
AM_0
 10
706.50918779606957
 20
508.20914589118172
 30
0.0
 40
1.0
 50
180.0
 51
270.0
  0
LINE
  5
15BBA
  8
AM_0
 10
708.5091877960698
 20
505.59586589118157
 30
0.0
 11
708.5091877960698
 21
506.7567558911814
 31
0.0
  0
ARC
  5
15BBB
  8
AM_0
 10
706.50918779606957
 20
518.20914589118138
 30
0.0
 40
1.0
 50
180.0
 51
270.0
  0
ARC
  5
15BBC
  8
AM_0
 10
709.50918779606968
 20
516.20913589118163
 30
0.0
 40
1.0
 50
359.99999000000219
 51
89.999996999995744
  0
LINE
  5
15BBD
  8
AM_0
 10
706.50918779606957
 20
515.20914589118127
 30
0.0
 11
709.50918779606968
 21
515.20914589118127
 31
0.0
  0
LINE
  5
15BBE
  8
AM_0
 10
706.50918779606957
 20
517.20914589118149
 30
0.0
 11
709.50918779606968
 21
517.20914589118149
 31
0.0
  0
ARC
  5
15BBF
  8
AM_0
 10
709.50918779606968
 20
516.20913589118163
 30
0.0
 40
1.0
 50
270.0
 51
0.0000100000009873
  0
ARC
  5
15BC0
  8
AM_0
 10
706.50918779606957
 20
514.20914589118138
 30
0.0
 40
1.0
 50
89.999996999995744
 51
180.0
  0
LINE
  5
15BC1
  8
AM_0
 10
708.5091877960698
 20
516.82235589118125
 30
0.0
 11
708.5091877960698
 21
515.66146589118148
 31
0.0
  0
ARC
  5
15BC2
  8
AM_0
 10
706.50918779606957
 20
556.71077589118158
 30
0.0
 40
1.0
 50
89.999996999995744
 51
180.0
  0
LINE
  5
15BC3
  8
AM_0
 10
708.72884779606954
 20
557.59430589118142
 30
0.0
 11
709.97750779606963
 21
556.93244589118149
 31
0.0
  0
ARC
  5
15BC4
  8
AM_0
 10
709.50918779606968
 20
556.04885589118135
 30
0.0
 40
1.0
 50
359.99999000000219
 51
62.07339999999563
  0
LINE
  5
15BC5
  8
AM_0
 10
712.00918779606957
 20
526.35917589118151
 30
0.0
 11
707.33169779606965
 21
526.35917589118151
 31
0.0
  0
LINE
  5
15BC6
  8
AM_0
 10
706.50918779606957
 20
525.20913589118163
 30
0.0
 11
709.50918779606968
 21
525.2091358911814
 31
0.0
  0
LINE
  5
15BC7
  8
AM_0
 10
706.50918779606957
 20
527.20914589118138
 30
0.0
 11
709.50918779606968
 21
527.20914589118127
 31
0.0
  0
LINE
  5
15BC8
  8
AM_0
 10
712.50305376286644
 20
529.20096718024377
 30
0.0
 11
712.00308428044457
 21
529.16095863532212
 31
0.0
  0
LINE
  5
15BC9
  8
AM_0
 10
713.0030842804448
 20
526.43097816657212
 30
0.0
 11
712.5030842804448
 21
529.20096718024377
 31
0.0
  0
LINE
  5
15BCA
  8
AM_0
 10
712.00918779606957
 20
531.20913589118152
 30
0.0
 11
710.50918779606957
 21
531.34035589118128
 31
0.0
  0
LINE
  5
15BCB
  8
AM_0
 10
712.00918779606957
 20
528.49111589118149
 30
0.0
 11
710.50918779606957
 21
528.49111589118149
 31
0.0
  0
ARC
  5
15BCC
  8
AM_0
 10
709.50918779606968
 20
526.20914589118149
 30
0.0
 40
1.0
 50
359.99999000000219
 51
89.999996999995744
  0
ARC
  5
15BCD
  8
AM_0
 10
706.50918779606957
 20
528.20913589118163
 30
0.0
 40
1.0
 50
180.0
 51
270.0
  0
LINE
  5
15BCE
  8
AM_0
 10
708.5091877960698
 20
526.81624589118144
 30
0.0
 11
708.5091877960698
 21
525.60482589118135
 31
0.0
  0
LINE
  5
15BCF
  8
AM_0
 10
706.50918779606957
 20
535.20914589118138
 30
0.0
 11
709.50918779606968
 21
535.20914589118138
 31
0.0
  0
LINE
  5
15BD0
  8
AM_0
 10
706.50918779606957
 20
537.20913589118152
 30
0.0
 11
709.50918779606968
 21
537.20913589118152
 31
0.0
  0
ARC
  5
15BD1
  8
AM_0
 10
709.50918779606968
 20
536.20914589118161
 30
0.0
 40
1.0
 50
270.0
 51
0.0000100000009873
  0
ARC
  5
15BD2
  8
AM_0
 10
709.50918779606968
 20
536.20914589118161
 30
0.0
 40
1.0
 50
359.99999000000219
 51
89.999996999995744
  0
ARC
  5
15BD3
  8
AM_0
 10
706.50918779606957
 20
534.20913589118163
 30
0.0
 40
1.0
 50
89.999996999995744
 51
180.0
  0
LINE
  5
15BD4
  8
AM_0
 10
708.5091877960698
 20
536.83530589118141
 30
0.0
 11
708.5091877960698
 21
535.4725158911815
 31
0.0
  0
ARC
  5
15BD5
  8
AM_0
 10
706.50918779606957
 20
538.20914589118161
 30
0.0
 40
1.0
 50
180.0
 51
270.0
  0
LINE
  5
15BD6
  8
AM_0
 10
708.69735779606935
 20
546.81803589118147
 30
0.0
 11
709.90194779606963
 21
546.30356589118151
 31
0.0
  0
LINE
  5
15BD7
  8
AM_0
 10
708.65286779606947
 20
544.90807589118151
 30
0.0
 11
709.80318779606944
 21
544.55423589118152
 31
0.0
  0
ARC
  5
15BD8
  8
AM_0
 10
709.50918779606968
 20
543.59841589118162
 30
0.0
 40
1.0
 50
359.99999000000219
 51
72.902369999996452
  0
ARC
  5
15BD9
  8
AM_0
 10
709.50918779606968
 20
545.38387589118145
 30
0.0
 40
1.0
 50
359.99999000000219
 51
66.872970000004372
  0
LINE
  5
15BDA
  8
AM_0
 10
708.30453779606944
 20
546.89834589118141
 30
0.0
 11
706.20919779606959
 21
546.89834589118163
 31
0.0
  0
ARC
  5
15BDB
  8
AM_0
 10
706.20919779606959
 20
547.59835589118154
 30
0.0
 40
0.6999999900000002
 50
180.0
 51
270.0
  0
ARC
  5
15BDC
  8
AM_0
 10
708.30453779606955
 20
545.89835589118161
 30
0.0
 40
1.0
 50
66.872970000004372
 51
89.999996999995744
  0
LINE
  5
15BDD
  8
AM_0
 10
708.35885779606974
 20
544.95224589118152
 30
0.0
 11
706.50918779606957
 21
544.95224589118152
 31
0.0
  0
ARC
  5
15BDE
  8
AM_0
 10
706.50918779606957
 20
543.95224589118163
 30
0.0
 40
1.0
 50
89.999996999995744
 51
180.0
  0
ARC
  5
15BDF
  8
AM_0
 10
708.35885779606974
 20
543.95224589118163
 30
0.0
 40
1.0
 50
72.902369999996452
 51
89.999996999995744
  0
LINE
  5
15BE0
  8
AM_0
 10
708.5091877960698
 20
546.60202589118137
 30
0.0
 11
708.5091877960698
 21
545.54207589118141
 31
0.0
  0
LINE
  5
15BE1
  8
AM_0
 10
708.74331779606985
 20
553.05692589118144
 30
0.0
 11
710.01461779606961
 21
552.31225589118151
 31
0.0
  0
LINE
  5
15BE2
  8
AM_0
 10
708.75893779606963
 20
554.17029589118135
 30
0.0
 11
710.05752779606985
 21
553.31873589118152
 31
0.0
  0
ARC
  5
15BE3
  8
AM_0
 10
709.50918779606968
 20
552.48246589118162
 30
0.0
 40
1.0
 50
359.99999000000219
 51
56.745270000000168
  0
ARC
  5
15BE4
  8
AM_0
 10
709.50918779606968
 20
551.44938589118169
 30
0.0
 40
1.0
 50
359.99999000000219
 51
59.640499999997147
  0
LINE
  5
15BE5
  8
AM_0
 10
708.21053779606984
 20
554.33402589118145
 30
0.0
 11
705.50918779606968
 21
554.33402589118145
 31
0.0
  0
LINE
  5
15BE6
  8
AM_0
 10
708.23788779606934
 20
553.19405589118151
 30
0.0
 11
706.50918779606957
 21
553.19405589118151
 31
0.0
  0
ARC
  5
15BE7
  8
AM_0
 10
706.50918779606957
 20
552.19407589118146
 30
0.0
 40
1.0
 50
89.999996999995744
 51
180.0
  0
LINE
  5
15BE8
  8
AM_0
 10
708.5091877960698
 20
554.03959589118153
 30
0.0
 11
708.5091877960698
 21
553.56740589118147
 31
0.0
  0
ARC
  5
15BE9
  8
AM_0
 10
708.2378877960698
 20
552.19407589118146
 30
0.0
 40
1.0
 50
59.640499999997147
 51
89.999996999995744
  0
ARC
  5
15BEA
  8
AM_0
 10
708.21053779606984
 20
553.33402589118145
 30
0.0
 40
1.0
 50
56.745270000000168
 51
89.999996999995744
  0
LINE
  5
15BEB
  8
AM_0
 10
708.72250779606975
 20
559.70395589118152
 30
0.0
 11
709.96175779606961
 21
559.07493589118144
 31
0.0
  0
LINE
  5
15BEC
  8
AM_0
 10
708.74673779606974
 20
558.70824589118126
 30
0.0
 11
710.02377779606957
 21
557.94194589118138
 31
0.0
  0
LINE
  5
15BED
  8
AM_0
 10
708.74136779606965
 20
560.82425589118145
 30
0.0
 11
710.0095477960698
 21
560.09130589118149
 31
0.0
  0
ARC
  5
15BEE
  8
AM_0
 10
709.50918779606968
 20
557.08445589118162
 30
0.0
 40
1.0
 50
359.99999000000219
 51
59.033399999999602
  0
ARC
  5
15BEF
  8
AM_0
 10
709.50918779606968
 20
558.18320589118161
 30
0.0
 40
1.0
 50
359.99999000000219
 51
63.088739999997472
  0
ARC
  5
15BF0
  8
AM_0
 10
709.50918779606968
 20
559.22550589118146
 30
0.0
 40
1.0
 50
359.99999000000219
 51
59.973600000004261
  0
LINE
  5
15BF1
  8
AM_0
 10
705.50918779606968
 20
561.20913589118163
 30
0.0
 11
704.5091877960698
 21
561.20913589118163
 31
0.0
  0
LINE
  5
15BF2
  8
AM_0
 10
708.26992779606962
 20
559.81221589118149
 30
0.0
 11
706.00918779606957
 21
559.81221589118149
 31
0.0
  0
LINE
  5
15BF3
  8
AM_0
 10
708.26052779606982
 20
557.71079589118153
 30
0.0
 11
706.50918779606957
 21
557.71079589118153
 31
0.0
  0
LINE
  5
15BF4
  8
AM_0
 10
708.23214779606974
 20
558.85073589118144
 30
0.0
 11
705.50918779606968
 21
558.85073589118144
 31
0.0
  0
LINE
  5
15BF5
  8
AM_0
 10
708.24099779606956
 20
560.95853589118144
 30
0.0
 11
706.00918779606957
 21
560.95853589118144
 31
0.0
  0
ARC
  5
15BF6
  8
AM_0
 10
706.00918779606957
 20
561.45852589118135
 30
0.0
 40
0.5
 50
180.0
 51
270.0
  0
ARC
  5
15BF7
  8
AM_0
 10
706.00918779606957
 20
559.31223589118144
 30
0.0
 40
0.5
 50
89.999996999995744
 51
180.0
  0
LINE
  5
15BF8
  8
AM_0
 10
708.5091877960698
 20
560.70530589118152
 30
0.0
 11
708.5091877960698
 21
560.17952589118136
 31
0.0
  0
LINE
  5
15BF9
  8
AM_0
 10
708.5091877960698
 20
558.60569589118154
 30
0.0
 11
708.5091877960698
 21
558.05961589118147
 31
0.0
  0
ARC
  5
15BFA
  8
AM_0
 10
708.26052779606982
 20
556.71077589118158
 30
0.0
 40
1.0
 50
62.07339999999563
 51
89.999996999995744
  0
ARC
  5
15BFB
  8
AM_0
 10
708.23214779606974
 20
557.85074589118165
 30
0.0
 40
1.0
 50
59.033399999999602
 51
89.999996999995744
  0
ARC
  5
15BFC
  8
AM_0
 10
708.26992779606974
 20
558.81223589118156
 30
0.0
 40
1.0
 50
63.088739999997472
 51
89.999996999995744
  0
ARC
  5
15BFD
  8
AM_0
 10
708.24099779606956
 20
559.95852589118135
 30
0.0
 40
1.0
 50
59.973600000004261
 51
89.999996999995744
  0
LINE
  5
15BFE
  8
AM_0
 10
556.00308481595005
 20
486.20916509099038
 30
0.0
 11
554.9034154249523
 21
549.20918230839095
 31
0.0
  0
LINE
  5
15C02
  8
AM_0
 10
570.87161062055497
 20
566.74125436959196
 30
0.0
 11
570.8715953624403
 21
455.67707659711618
 31
0.0
  0
LINE
  5
15C03
  8
AM_0
 10
580.50918779606968
 20
567.20917589118153
 30
0.0
 11
580.50918779606968
 21
455.20915489118141
 31
0.0
  0
LINE
  5
15C04
  8
AM_0
 10
570.1875546875915
 20
456.861871860402
 30
0.0
 11
564.95160180277423
 21
486.55646116389107
 31
0.0
1001
GENIUS_GENODEF_13
1002
{
1000
HIER
1070
     0
1002
}
1002
{
1000
MANEDIT
1070
     0
1002
}
1002
{
1000
NOSEL
1070
     0
1002
}
1002
{
1000
BEHIND
1070
     0
1002
}
1002
{
1000
REACTOR
1002
}
1001
GENIUS_GENOBJ-N-CEN_13
1002
{
1000
OWNER
1000
GEN
1002
}
  0
ARC
  5
15C05
  8
AM_0
 10
572.15717069166055
 20
457.20916539118139
 30
0.0
 40
2.0
 50
189.9999917840689
 51
270.0
1001
GENIUS_GENOBJ-N-CEN_13
1002
{
1000
OWNER
1000
GEN
1002
}
1001
GENIUS_GENODEF_13
1002
{
1000
HIER
1070
     0
1002
}
1002
{
1000
MANEDIT
1070
     0
1002
}
1002
{
1000
NOSEL
1070
     0
1002
}
1002
{
1000
BEHIND
1070
     0
1002
}
1002
{
1000
OTHER
1070
     0
1002
}
1002
{
1000
REACTOR
1002
}
1001
GENIUS_GENOBJ-N-FIL_13
1002
{
1000
OWNER
1000
GEN
1002
}
  0
LINE
  5
15C06
  8
AM_0
 10
580.50918779606968
 20
455.20916539118139
 30
0.0
 11
572.15717069166055
 21
455.20916539118139
 31
0.0
  0
LINE
  5
15C07
  8
AM_0
 10
556.98578207906598
 20
488.20916509099021
 30
0.0
 11
562.98198624694908
 21
488.20916509099021
 31
0.0
  0
LINE
  5
15C08
  8
AM_0
 10
580.50918779606968
 20
465.20913989118162
 30
0.0
 11
570.8715966719684
 21
465.20916125015611
 31
0.0
  0
LINE
  5
15C09
  8
AM_0
 10
580.50918779606968
 20
479.27170789118128
 30
0.0
 11
570.87159860355655
 21
479.26923645929043
 31
0.0
  0
ARC
  5
15C0A
  8
AM_0
 10
562.98198624694908
 20
486.2091650909905
 30
0.0
 40
2.0
 50
9.9999917840689072
 51
90.0
1001
GENIUS_GENODEF_13
1002
{
1000
HIER
1070
     0
1002
}
1002
{
1000
MANEDIT
1070
     0
1002
}
1002
{
1000
NOSEL
1070
     0
1002
}
1002
{
1000
BEHIND
1070
     0
1002
}
1002
{
1000
OTHER
1070
     0
1002
}
1002
{
1000
REACTOR
1002
}
1001
GENIUS_GENOBJ-N-FIL_13
1002
{
1000
OWNER
1000
GEN
1002
}
  0
ARC
  5
15C0C
  8
AM_0
 10
556.98578207906598
 20
487.2091650909905
 30
0.0
 40
1.0
 50
90.0
 51
180.99999999999031
1001
GENIUS_GENODEF_13
1002
{
1000
HIER
1070
     0
1002
}
1002
{
1000
MANEDIT
1070
     0
1002
}
1002
{
1000
NOSEL
1070
     0
1002
}
1002
{
1000
BEHIND
1070
     0
1002
}
1002
{
1000
OTHER
1070
     0
1002
}
1002
{
1000
REACTOR
1002
}
1001
GENIUS_GENOBJ-N-FIL_13
1002
{
1000
OWNER
1000
GEN
1002
}
  0
LINE
  5
15C0D
  8
AM_0
 10
556.90372034879806
 20
547.20916696853681
 30
0.0
 11
566.00308171744484
 21
547.20916696853681
 31
0.0
  0
LINE
  5
15C0E
  8
AM_0
 10
570.18757027385732
 20
565.55646202894854
 30
0.0
 11
568.00308171744484
 21
553.16762218207214
 31
0.0
1001
GENIUS_GENODEF_13
1002
{
1000
HIER
1070
     0
1002
}
1002
{
1000
MANEDIT
1070
     0
1002
}
1002
{
1000
NOSEL
1070
     0
1002
}
1002
{
1000
BEHIND
1070
     0
1002
}
1002
{
1000
REACTOR
1002
}
1001
GENIUS_GENOBJ-N-CEN_13
1002
{
1000
OWNER
1000
GEN
1002
}
  0
LINE
  5
15C0F
  8
AM_0
 10
580.50918779606968
 20
543.14911539118145
 30
0.0
 11
570.87160737944191
 21
543.14911539118145
 31
0.0
  0
ARC
  5
15C10
  8
AM_0
 10
566.00308171744496
 20
549.20916696853658
 30
0.0
 40
2.0
 50
270.0
 51
0.0
1001
GENIUS_GENODEF_13
1002
{
1000
HIER
1070
     0
1002
}
1002
{
1000
MANEDIT
1070
     0
1002
}
1002
{
1000
NOSEL
1070
     0
1002
}
1002
{
1000
BEHIND
1070
     0
1002
}
1002
{
1000
OTHER
1070
     0
1002
}
1002
{
1000
REACTOR
1002
}
1001
GENIUS_GENOBJ-N-FIL_13
1002
{
1000
OWNER
1000
GEN
1002
}
  0
LINE
  5
15C11
  8
AM_0
 10
568.00308171744484
 20
549.20916696853658
 30
0.0
 11
568.00308171744484
 21
553.16762218207214
 31
0.0
  0
ARC
  5
15C12
  8
AM_0
 10
572.15718573008087
 20
565.20916539118139
 30
0.0
 40
2.0
 50
90.0
 51
169.9999917840685
1001
GENIUS_GENOBJ-N-CEN_13
1002
{
1000
OWNER
1000
GEN
1002
}
1001
GENIUS_GENOBJ-N-FIL_13
1002
{
1000
OWNER
1000
GEN
1002
}
1001
GENIUS_GENODEF_13
1002
{
1000
HIER
1070
     0
1002
}
1002
{
1000
MANEDIT
1070
     0
1002
}
1002
{
1000
NOSEL
1070
     0
1002
}
1002
{
1000
BEHIND
1070
     0
1002
}
1002
{
1000
OTHER
1070
     0
1002
}
1002
{
1000
REACTOR
1002
}
  0
LINE
  5
15C13
  8
AM_0
 10
580.50918779606968
 20
557.20916539118127
 30
0.0
 11
570.87160931102653
 21
557.20916539118127
 31
0.0
  0
LINE
  5
15C14
  8
AM_0
 10
580.50918779606968
 20
567.2091653911815
 30
0.0
 11
572.15718573008076
 21
567.2091653911815
 31
0.0
  0
ARC
  5
15C15
  8
AM_0
 10
556.90372034879806
 20
549.20916696853658
 30
0.0
 40
2.0
 50
181.0000000000002
 51
270.0
1001
GENIUS_GENODEF_13
1002
{
1000
HIER
1070
     0
1002
}
1002
{
1000
MANEDIT
1070
     0
1002
}
1002
{
1000
NOSEL
1070
     0
1002
}
1002
{
1000
BEHIND
1070
     0
1002
}
1002
{
1000
OTHER
1070
     0
1002
}
1002
{
1000
REACTOR
1002
}
1001
GENIUS_GENOBJ-N-FIL_13
1002
{
1000
OWNER
1000
GEN
1002
}
  0
LINE
  5
15C16
  8
AM_0
 10
419.00308019752651
 20
486.20918043084322
 30
0.0
 11
420.10274932077692
 21
549.20918230839084
 31
0.0
  0
LINE
  5
15C1A
  8
ﾁｭｳｼﾝｾﾝ1
 10
470.00308171744479
 20
433.83828024867461
 30
0.0
 11
470.00308171744479
 21
561.20918251700721
 31
0.0
  0
LINE
  5
15C22
  8
AM_0
 10
455.00308127041001
 20
556.20916717715284
 30
0.0
 11
485.00308216447962
 21
556.20916717715295
 31
0.0
  0
LINE
  5
15C23
  8
AM_0
 10
442.50308089788098
 20
553.20916708774575
 30
0.0
 11
497.50308253700859
 21
553.2091670877461
 31
0.0
  0
LINE
  5
15C24
  8
AM_0
 10
497.50308253700882
 20
553.2091670877461
 30
0.0
 11
497.50308253700882
 21
549.20916696853658
 31
0.0
  0
LINE
  5
15C25
  8
AM_0
 10
485.00308216447962
 20
553.2091670877461
 30
0.0
 11
485.00308216447962
 21
556.20916717715295
 31
0.0
  0
LINE
  5
15C26
  8
AM_0
 10
455.00308127041001
 20
553.20916708774575
 30
0.0
 11
455.00308127041001
 21
556.20916717715284
 31
0.0
  0
LINE
  5
15C27
  8
AM_0
 10
442.50308089788098
 20
553.20916708774575
 30
0.0
 11
442.50308089788098
 21
549.20916696853658
 31
0.0
  0
LINE
  5
15C28
  8
AM_0
 10
703.81915779606982
 20
468.01412856757202
 30
0.0
 11
697.58917779606963
 21
468.01412856757202
 31
0.0
  0
LINE
  5
15C29
  8
AM_0
 10
704.50915779606953
 20
458.20413956757199
 30
0.0
 11
696.50915779606953
 21
458.20413956757199
 31
0.0
  0
LINE
  5
15C2A
  8
AM_0
 10
704.50915779606953
 20
458.20912856757218
 30
0.0
 11
696.50915779606953
 21
458.20912856757218
 31
0.0
  0
LINE
  5
15C2B
  8
AM_0
 10
703.81915779606982
 20
554.39412256757214
 30
0.0
 11
697.58917779606963
 21
554.39412256757214
 31
0.0
  0
LINE
  5
15C2C
  8
AM_0
 10
704.50915779606953
 20
564.20414256757215
 30
0.0
 11
696.50915779606953
 21
564.20414256757215
 31
0.0
  0
LINE
  5
15C2D
  8
AM_0
 10
704.50915779606953
 20
564.20913256757206
 30
0.0
 11
696.50915779606953
 21
564.20913256757206
 31
0.0
  0
LINE
  5
15C2E
  8
AM_0
 10
691.18427057975748
 20
547.92910912990806
 30
0.0
 11
696.50915779606953
 21
559.3041325675722
 31
0.0
  0
LINE
  5
15C2F
  8
AM_0
 10
590.30914779606974
 20
550.54415256757204
 30
0.0
 11
594.45913779606963
 21
566.00414256757199
 31
0.0
  0
LINE
  5
15C30
  8
AM_0
 10
588.50915779606976
 20
567.20913256757206
 30
0.0
 11
588.50915779606976
 21
455.20912856757218
 31
0.0
  0
LINE
  5
15C31
  8
AM_0
 10
696.50915779606953
 20
564.20414256757215
 30
0.0
 11
696.50915779606953
 21
461.76414456757209
 31
0.0
  0
LINE
  5
15C32
  8
AM_0
 10
693.30914779606974
 20
567.49413256757214
 30
0.0
 11
596.38918779606945
 21
567.49413256757214
 31
0.0
  0
LINE
  5
15C33
  8
AM_0
 10
693.21917779606974
 20
573.09414256757213
 30
0.0
 11
659.50915779606953
 21
573.09414256757213
 31
0.0
  0
LINE
  5
15C34
  8
AM_0
 10
693.2391377960696
 20
572.18413256757196
 30
0.0
 11
659.50915779606953
 21
572.18413256757196
 31
0.0
  0
LINE
  5
15C35
  8
AM_0
 10
693.25915779606953
 20
570.33413256757206
 30
0.0
 11
659.50915779606953
 21
570.33413256757206
 31
0.0
  0
ARC
  5
15C36
  8
AM_0
 10
693.26074779606984
 20
568.34099256757224
 30
0.0
 40
1.9931281000000001
 50
9.0388199999997152
 51
90.046626999999489
  0
LINE
  5
15C37
  8
AM_0
 10
696.50915779606953
 20
561.99411256757219
 30
0.0
 11
695.19915779606936
 21
571.37412256757204
 31
0.0
  0
LINE
  5
15C38
  8
AM_0
 10
696.5090977960698
 20
561.9941525675722
 30
0.0
 11
695.21911779606955
 21
570.48414256757212
 31
0.0
  0
ARC
  5
15C39
  8
AM_0
 10
693.24645779606965
 20
570.18956256757212
 30
0.0
 40
1.994588
 50
8.4929100000019098
 51
90.209246999997575
  0
ARC
  5
15C3A
  8
AM_0
 10
693.22448779606964
 20
571.10065256757196
 30
0.0
 40
1.9934921000000001
 50
7.8852600000006658
 51
90.153908999998592
  0
ARC
  5
15C3B
  8
AM_0
 10
693.30627779606982
 20
565.49723256757215
 30
0.0
 40
1.9969039999999989
 50
10.587439999998571
 51
89.916526000000346
  0
LINE
  5
15C3C
  8
AM_0
 10
696.50915779606953
 20
560.64414256757186
 30
0.0
 11
695.22918779606948
 21
568.65413256757211
 31
0.0
  0
LINE
  5
15C3D
  8
AM_0
 10
696.50915779606953
 20
559.30414256757194
 30
0.0
 11
695.2691677960695
 21
565.86414256757212
 31
0.0
  0
ARC
  5
15C3E
  8
AM_0
 10
659.50958779606958
 20
568.33371256757221
 30
0.0
 40
2.000407899999999
 50
90.011650000002106
 51
179.98835099999931
  0
LINE
  5
15C3F
  8
AM_0
 10
657.50915779606953
 20
571.09412256757196
 30
0.0
 11
657.50915779606953
 21
567.49413256757214
 31
0.0
  0
ARC
  5
15C40
  8
AM_0
 10
659.51074779606972
 20
570.18258256757224
 30
0.0
 40
2.0015439999999991
 50
90.044216000000915
 51
179.9557860009991
  0
ARC
  5
15C41
  8
AM_0
 10
659.51043779606971
 20
571.09284256757212
 30
0.0
 40
2.001287899999999
 50
90.036874000002058
 51
179.963128001001
  0
LINE
  5
15C42
  8
AM_0
 10
588.50915779606976
 20
567.20913256757206
 30
0.0
 11
580.50918779606968
 21
567.20913256757206
 31
0.0
  0
ARC
  5
15C43
  8
AM_0
 10
596.39196779606971
 20
565.49553256757224
 30
0.0
 40
1.9986041000000001
 50
90.080483999998904
 51
165.25728400000051
  0
LINE
  5
15C44
  8
AM_0
 10
593.96917779606974
 20
564.20414256757215
 30
0.0
 11
588.50915779606976
 21
564.20414256757215
 31
0.0
  0
LINE
  5
15C45
  8
AM_0
 10
595.16916668332874
 20
547.20916283299539
 30
0.0
 11
694.14920668332581
 21
547.20913839795924
 31
0.0
  0
LINE
  5
15C46
  8
AM_0
 10
595.16916618959215
 20
545.20916283299516
 30
0.0
 11
694.14920618958877
 21
545.20913839795946
 31
0.0
  0
LINE
  5
15C47
  8
AM_0
 10
595.17636372090885
 20
535.20916283121824
 30
0.0
 11
694.14920372090592
 21
535.2091383979598
 31
0.0
  0
LINE
  5
15C48
  8
AM_0
 10
694.82920686106354
 20
547.92910823008901
 30
0.0
 11
591.68918686106679
 21
547.92913369209225
 31
0.0
  0
LINE
  5
15C49
  8
AM_0
 10
695.04917361229866
 20
534.76919817578562
 30
0.0
 11
591.47495361230165
 21
534.76922374497894
 31
0.0
  0
LINE
  5
15C4A
  8
AM_0
 10
695.04917433560558
 20
537.69912817578563
 30
0.0
 11
591.46353433560876
 21
537.69915374779839
 31
0.0
  0
LINE
  5
15C4B
  8
AM_0
 10
595.1620242146455
 20
537.20916283475822
 30
0.0
 11
694.14920421464262
 21
537.20913839795946
 31
0.0
  0
LINE
  5
15C4C
  8
AM_0
 10
694.82920603405944
 20
544.57912823008883
 30
0.0
 11
591.68918603406291
 21
544.57915369209206
 31
0.0
  0
LINE
  5
15C4D
  8
AM_0
 10
695.17917182988481
 20
527.54909814369285
 30
0.0
 11
591.18059387348762
 21
527.549123817647
 31
0.0
  0
LINE
  5
15C4E
  8
AM_0
 10
695.17917117323714
 20
524.88918814369299
 30
0.0
 11
591.33211871524702
 21
524.8892137802402
 31
0.0
  0
LINE
  5
15C4F
  8
AM_0
 10
695.23916934393571
 20
517.47915812888107
 30
0.0
 11
591.12307009043172
 21
517.47918383184742
 31
0.0
  0
LINE
  5
15C50
  8
AM_0
 10
695.23916871935137
 20
514.94912812888117
 30
0.0
 11
591.2863567433451
 21
514.94915379153713
 31
0.0
  0
LINE
  5
15C51
  8
AM_0
 10
595.1658224901314
 20
515.20916283381985
 30
0.0
 11
694.14919878353942
 21
515.20913839796015
 31
0.0
  0
LINE
  5
15C52
  8
AM_0
 10
595.16582298386811
 20
517.20916283381985
 30
0.0
 11
694.14919927727635
 21
517.20913839796015
 31
0.0
  0
LINE
  5
15C53
  8
AM_0
 10
595.16582495881812
 20
525.20916283381962
 30
0.0
 11
694.14920125222272
 21
525.20913839796003
 31
0.0
  0
LINE
  5
15C54
  8
AM_0
 10
595.16582545252993
 20
527.20916283381951
 30
0.0
 11
694.14920174595932
 21
527.20913839796003
 31
0.0
  0
LINE
  5
15C55
  8
AM_0
 10
595.16582150263707
 20
495.20916447713211
 30
0.0
 11
694.14919779606953
 21
495.20916447713188
 31
0.0
  0
LINE
  5
15C56
  8
AM_0
 10
595.16582150266174
 20
497.20916447713182
 30
0.0
 11
694.14919779606953
 21
497.20916447713182
 31
0.0
  0
LINE
  5
15C57
  8
AM_0
 10
595.16582150265822
 20
505.20916447713182
 30
0.0
 11
694.14919779606953
 21
505.20916447713182
 31
0.0
  0
LINE
  5
15C58
  8
AM_0
 10
595.16582150265822
 20
507.20916447713182
 30
0.0
 11
694.14919779606953
 21
507.20916447713182
 31
0.0
  0
LINE
  5
15C59
  8
AM_0
 10
695.23916779606952
 20
507.46917447713179
 30
0.0
 11
591.28635582006007
 21
507.46917447713179
 31
0.0
  0
LINE
  5
15C5A
  8
AM_0
 10
695.23916779606952
 20
504.93914447713212
 30
0.0
 11
591.12306854256269
 21
504.93914447713212
 31
0.0
  0
LINE
  5
15C5B
  8
AM_0
 10
695.17916779606935
 20
497.52911447713183
 30
0.0
 11
591.33211533807628
 21
497.52911447713183
 31
0.0
  0
LINE
  5
15C5C
  8
AM_0
 10
695.17916779606935
 20
494.8692044771318
 30
0.0
 11
591.18058983966921
 21
494.8692044771318
 31
0.0
  0
LINE
  5
15C5D
  8
AM_0
 10
694.82919779606937
 20
477.83917447713202
 30
0.0
 11
591.68917779606954
 21
477.83917447713219
 31
0.0
  0
LINE
  5
15C5E
  8
AM_0
 10
595.16201779606956
 20
485.20916447713182
 30
0.0
 11
694.14919779606953
 21
485.20916447713182
 31
0.0
  0
LINE
  5
15C5F
  8
AM_0
 10
695.04916779606947
 20
484.71917447713167
 30
0.0
 11
591.46352779606957
 21
484.71917447713167
 31
0.0
  0
LINE
  5
15C60
  8
AM_0
 10
695.04916779606947
 20
487.6491044771318
 30
0.0
 11
591.4749477960695
 21
487.6491044771318
 31
0.0
  0
LINE
  5
15C61
  8
AM_0
 10
694.82919779606937
 20
474.48919447713178
 30
0.0
 11
591.68917779606954
 21
474.48919447713178
 31
0.0
  0
LINE
  5
15C62
  8
AM_0
 10
595.17635779606962
 20
487.20916447713188
 30
0.0
 11
694.14919779606953
 21
487.20916447713188
 31
0.0
  0
LINE
  5
15C63
  8
AM_0
 10
595.16915779606961
 20
477.20916447713182
 30
0.0
 11
694.14919779606953
 21
477.20916447713182
 31
0.0
  0
LINE
  5
15C64
  8
AM_0
 10
595.16915779606961
 20
475.20916447713188
 30
0.0
 11
694.14919779606953
 21
475.20916447713188
 31
0.0
  0
LINE
  5
15C65
  8
AM_0
 10
671.00915779606953
 20
549.4341225675721
 30
0.0
 11
588.50915779606976
 21
549.4341225675721
 31
0.0
  0
LINE
  5
15C66
  8
AM_0
 10
671.00915779606953
 20
472.98413756757208
 30
0.0
 11
588.50915779606976
 21
472.98413756757208
 31
0.0
  0
LINE
  5
15C67
  8
AM_0
 10
693.30914779606962
 20
454.9241255675721
 30
0.0
 11
596.38918779606945
 21
454.9241255675721
 31
0.0
  0
LINE
  5
15C68
  8
AM_0
 10
691.17961045678589
 20
474.48919447713178
 30
0.0
 11
696.50921779606961
 21
463.11415756757202
 31
0.0
  0
POLYLINE
  5
15C69
  8
AM_0
 66
     1
 10
0.0
 20
0.0
 30
0.0
  0
VERTEX
  5
15C6A
  8
AM_0
 10
694.14919779606623
 20
511.20913839796037
 30
0.0
 42
0.00039106649
  0
VERTEX
  5
15C6B
  8
AM_0
 10
694.1515578728746
 20
511.52026839737778
 30
0.0
 42
0.00035488198
  0
VERTEX
  5
15C6C
  8
AM_0
 10
694.15344794967768
 20
511.83137839691119
 30
0.0
 42
0.00039706113
  0
VERTEX
  5
15C6D
  8
AM_0
 10
694.15487802648101
 20
512.14248839655806
 30
0.0
 42
0.00038765718
  0
VERTEX
  5
15C6E
  8
AM_0
 10
694.15580810329163
 20
512.45362839632855
 30
0.0
 42
0.00040613432
  0
VERTEX
  5
15C6F
  8
AM_0
 10
694.15625818009232
 20
512.76472839621749
 30
0.0
 42
0.00035573434
  0
VERTEX
  5
15C70
  8
AM_0
 10
694.15621825689539
 20
513.07583839622725
 30
0.0
 42
0.00038545884
  0
VERTEX
  5
15C71
  8
AM_0
 10
694.15572833370356
 20
513.38696839634827
 30
0.0
 42
0.00035501205
  0
VERTEX
  5
15C72
  8
AM_0
 10
694.15476841050668
 20
513.6980783965854
 30
0.0
 42
0.00040120779
  0
VERTEX
  5
15C73
  8
AM_0
 10
694.15334848733983
 20
514.00930839693592
 30
0.0
 42
0.00038317817
  0
VERTEX
  5
15C74
  8
AM_0
 10
694.15143856414784
 20
514.32043839740743
 30
0.0
 42
0.00035656084
  0
VERTEX
  5
15C75
  8
AM_0
 10
694.14905864098296
 20
514.63167839799485
 30
0.0
 42
0.00040143615
  0
VERTEX
  5
15C76
  8
AM_0
 10
694.14620871778368
 20
514.94277839869835
 30
0.0
  0
SEQEND
  5
15C77
  8
AM_0
  0
LINE
  5
15C78
  8
AM_0
 10
671.00921779606961
 20
549.43413256757196
 30
0.0
 11
691.18664779606945
 21
547.93413256757196
 31
0.0
  0
ARC
  5
15C79
  8
AM_0
 10
695.04917397395093
 20
536.23415817578564
 30
0.0
 40
1.465004
 50
269.99998585548531
 51
89.999982855487545
  0
ARC
  5
15C7A
  8
AM_0
 10
694.83658644757645
 20
546.25417822826694
 30
0.0
 40
1.6750160000000001
 50
269.74611585548871
 51
90.253840855485208
  0
ARC
  5
15C7B
  8
AM_0
 10
693.96457643645772
 20
546.20913844353879
 30
0.0
 40
1.0000138999999999
 50
269.6916458554881
 51
90.308325855489642
  0
ARC
  5
15C7C
  8
AM_0
 10
693.96457396777407
 20
536.20913844353902
 30
0.0
 40
1.0000138999999999
 50
269.6916458554881
 51
90.308325855489642
  0
POLYLINE
  5
15C7D
  8
AM_0
 66
     1
 10
0.0
 20
0.0
 30
0.0
  0
VERTEX
  5
15C7E
  8
AM_0
 10
692.64829433388752
 20
537.69216876848679
 30
0.0
 42
0.00068898288
  0
VERTEX
  5
15C7F
  8
AM_0
 10
692.57741447577519
 20
538.26691878598456
 30
0.0
 42
0.00070644354
  0
VERTEX
  5
15C80
  8
AM_0
 10
692.50491461764773
 20
538.84160880388276
 30
0.0
 42
0.00069248071
  0
VERTEX
  5
15C81
  8
AM_0
 10
692.43082475942674
 20
539.41591882217313
 30
0.0
 42
0.00069585665
  0
VERTEX
  5
15C82
  8
AM_0
 10
692.35514490116384
 20
539.99005884085614
 30
0.0
 42
0.00068980191
  0
VERTEX
  5
15C83
  8
AM_0
 10
692.27784504286615
 20
540.56405885993911
 30
0.0
 42
0.00072080104
  0
VERTEX
  5
15C84
  8
AM_0
 10
692.19895518451665
 20
541.13784887941426
 30
0.0
 42
0.00071002307
  0
VERTEX
  5
15C85
  8
AM_0
 10
692.11841532608844
 20
541.71131889929723
 30
0.0
 42
0.00072659056
  0
VERTEX
  5
15C86
  8
AM_0
 10
692.03625546756837
 20
542.28441891957982
 30
0.0
 42
0.00069570481
  0
VERTEX
  5
15C87
  8
AM_0
 10
691.95243560903145
 20
542.85744894027255
 30
0.0
 42
0.00071266935
  0
VERTEX
  5
15C88
  8
AM_0
 10
691.86700575043028
 20
543.43021896136236
 30
0.0
 42
0.00071614426
  0
VERTEX
  5
15C89
  8
AM_0
 10
691.77997589172287
 20
544.00255898284706
 30
0.0
 42
0.00072288975
  0
VERTEX
  5
15C8A
  8
AM_0
 10
691.69126603300572
 20
544.57485900474705
 30
0.0
  0
SEQEND
  5
15C8B
  8
AM_0
  0
POLYLINE
  5
15C8C
  8
AM_0
 66
     1
 10
0.0
 20
0.0
 30
0.0
  0
VERTEX
  5
15C8D
  8
AM_0
 10
694.10513934402445
 20
517.47951840883741
 30
0.0
 42
0.00076691992
  0
VERTEX
  5
15C8E
  8
AM_0
 10
694.09033949653235
 20
518.0972884124908
 30
0.0
 42
0.00073262792
  0
VERTEX
  5
15C8F
  8
AM_0
 10
694.07369964899578
 20
518.71487841659894
 30
0.0
 42
0.00076529537
  0
VERTEX
  5
15C90
  8
AM_0
 10
694.05520980147924
 20
519.33254842116332
 30
0.0
 42
0.00075141097
  0
VERTEX
  5
15C91
  8
AM_0
 10
694.0348399539447
 20
519.95014842619196
 30
0.0
 42
0.00075841687
  0
VERTEX
  5
15C92
  8
AM_0
 10
694.0126101063687
 20
520.56757843167998
 30
0.0
 42
0.00075711788
  0
VERTEX
  5
15C93
  8
AM_0
 10
693.98850025881245
 20
521.18508843763186
 30
0.0
 42
0.00075976003
  0
VERTEX
  5
15C94
  8
AM_0
 10
693.96251041122639
 20
521.80247844404801
 30
0.0
 42
0.00075797311
  0
VERTEX
  5
15C95
  8
AM_0
 10
693.93467056361328
 20
522.41975845092099
 30
0.0
 42
0.0007482613
  0
VERTEX
  5
15C96
  8
AM_0
 10
693.90494071602495
 20
523.03713845826019
 30
0.0
 42
0.00074893561
  0
VERTEX
  5
15C97
  8
AM_0
 10
693.87338086837474
 20
523.65426846605135
 30
0.0
 42
0.00076039839
  0
VERTEX
  5
15C98
  8
AM_0
 10
693.83996102069989
 20
524.2712984743016
 30
0.0
 42
0.00075618786
  0
VERTEX
  5
15C99
  8
AM_0
 10
693.80466117302751
 20
524.88833848301613
 30
0.0
  0
SEQEND
  5
15C9A
  8
AM_0
  0
ARC
  5
15C9B
  8
AM_0
 10
695.17917150156222
 20
526.21914814369313
 30
0.0
 40
1.3300049999999981
 50
269.99998585548531
 51
89.999982855487545
  0
ARC
  5
15C9C
  8
AM_0
 10
693.96457149909122
 20
526.20913844353925
 30
0.0
 40
1.0000138999999999
 50
269.6916458554881
 51
90.308325855489642
  0
POLYLINE
  5
15C9D
  8
AM_0
 66
     1
 10
0.0
 20
0.0
 30
0.0
  0
VERTEX
  5
15C9E
  8
AM_0
 10
693.63095183003543
 20
527.54970852589963
 30
0.0
 42
0.0007337051
  0
VERTEX
  5
15C9F
  8
AM_0
 10
693.58681197875364
 20
528.15212853679634
 30
0.0
 42
0.00075211323
  0
VERTEX
  5
15CA0
  8
AM_0
 10
693.54087212746492
 20
528.7545185481373
 30
0.0
 42
0.0007297491
  0
VERTEX
  5
15CA1
  8
AM_0
 10
693.49314227612911
 20
529.35671855992052
 30
0.0
 42
0.00073593041
  0
VERTEX
  5
15CA2
  8
AM_0
 10
693.44366242474109
 20
529.95870857213538
 30
0.0
 42
0.00074742739
  0
VERTEX
  5
15CA3
  8
AM_0
 10
693.39239257332383
 20
530.56057858479232
 30
0.0
 42
0.00073217363
  0
VERTEX
  5
15CA4
  8
AM_0
 10
693.33933272188915
 20
531.16237859789112
 30
0.0
 42
0.00073754168
  0
VERTEX
  5
15CA5
  8
AM_0
 10
693.28451287039024
 20
531.76391861142417
 30
0.0
 42
0.00073075073
  0
VERTEX
  5
15CA6
  8
AM_0
 10
693.22793301884724
 20
532.36527862539219
 30
0.0
 42
0.00074550816
  0
VERTEX
  5
15CA7
  8
AM_0
 10
693.16959316722966
 20
532.96633863979434
 30
0.0
 42
0.00074288416
  0
VERTEX
  5
15CA8
  8
AM_0
 10
693.10944331560245
 20
533.56735865464373
 30
0.0
 42
0.00072504001
  0
VERTEX
  5
15CA9
  8
AM_0
 10
693.04753346390874
 20
534.16810866992716
 30
0.0
 42
0.00074640667
  0
VERTEX
  5
15CAA
  8
AM_0
 10
692.98386361217786
 20
534.76870868564515
 30
0.0
  0
SEQEND
  5
15CAB
  8
AM_0
  0
ARC
  5
15CAC
  8
AM_0
 10
695.24502903164228
 20
516.21413812743469
 30
0.0
 40
1.2650129999999991
 50
269.73557585548838
 51
90.264406855489256
  0
ARC
  5
15CAD
  8
AM_0
 10
693.96456903040803
 20
516.2091384435397
 30
0.0
 40
1.0000138999999999
 50
269.6916458554881
 51
90.308325855489642
  0
LINE
  5
15CAE
  8
AM_0
 10
671.00915779606953
 20
472.98413756757208
 30
0.0
 11
691.18200779606968
 21
474.48413756757202
 31
0.0
  0
POLYLINE
  5
15CAF
  8
AM_0
 66
     1
 10
0.0
 20
0.0
 30
0.0
  0
VERTEX
  5
15CB0
  8
AM_0
 10
693.63094779606945
 20
494.86859447713198
 30
0.0
 42
-0.0007337051
  0
VERTEX
  5
15CB1
  8
AM_0
 10
693.58680779606937
 20
494.2661744771321
 30
0.0
 42
-0.00075211323
  0
VERTEX
  5
15CB2
  8
AM_0
 10
693.54086779606962
 20
493.66378447713203
 30
0.0
 42
-0.0007297491
  0
VERTEX
  5
15CB3
  8
AM_0
 10
693.49313779606962
 20
493.06158447713199
 30
0.0
 42
-0.00073593041
  0
VERTEX
  5
15CB4
  8
AM_0
 10
693.4436577960696
 20
492.45959447713199
 30
0.0
 42
-0.00074742739
  0
VERTEX
  5
15CB5
  8
AM_0
 10
693.39238779606944
 20
491.85772447713219
 30
0.0
 42
-0.00073217363
  0
VERTEX
  5
15CB6
  8
AM_0
 10
693.33932779606948
 20
491.25592447713228
 30
0.0
 42
-0.00073754168
  0
VERTEX
  5
15CB7
  8
AM_0
 10
693.28450779606965
 20
490.65438447713211
 30
0.0
 42
-0.00073075073
  0
VERTEX
  5
15CB8
  8
AM_0
 10
693.22792779606937
 20
490.05302447713228
 30
0.0
 42
-0.00074550816
  0
VERTEX
  5
15CB9
  8
AM_0
 10
693.16958779606978
 20
489.45196447713198
 30
0.0
 42
-0.00074288416
  0
VERTEX
  5
15CBA
  8
AM_0
 10
693.10943779606976
 20
488.85094447713197
 30
0.0
 42
-0.00072504001
  0
VERTEX
  5
15CBB
  8
AM_0
 10
693.04752779606963
 20
488.2501944771322
 30
0.0
 42
-0.00074640667
  0
VERTEX
  5
15CBC
  8
AM_0
 10
692.98385779606963
 20
487.64959447713198
 30
0.0
  0
SEQEND
  5
15CBD
  8
AM_0
  0
POLYLINE
  5
15CBE
  8
AM_0
 66
     1
 10
0.0
 20
0.0
 30
0.0
  0
VERTEX
  5
15CBF
  8
AM_0
 10
694.10513779606981
 20
504.93878447713212
 30
0.0
 42
-0.00076691992
  0
VERTEX
  5
15CC0
  8
AM_0
 10
694.09033779606966
 20
504.321014477132
 30
0.0
 42
-0.00073262792
  0
VERTEX
  5
15CC1
  8
AM_0
 10
694.07369779606984
 20
503.70342447713188
 30
0.0
 42
-0.00076529537
  0
VERTEX
  5
15CC2
  8
AM_0
 10
694.05520779606968
 20
503.08575447713213
 30
0.0
 42
-0.00075141097
  0
VERTEX
  5
15CC3
  8
AM_0
 10
694.03483779606938
 20
502.46815447713197
 30
0.0
 42
-0.00075841687
  0
VERTEX
  5
15CC4
  8
AM_0
 10
694.01260779606946
 20
501.85072447713208
 30
0.0
 42
-0.00075711788
  0
VERTEX
  5
15CC5
  8
AM_0
 10
693.98849779606974
 20
501.23321447713198
 30
0.0
 42
-0.00075976003
  0
VERTEX
  5
15CC6
  8
AM_0
 10
693.96250779606964
 20
500.61582447713198
 30
0.0
 42
-0.00075797311
  0
VERTEX
  5
15CC7
  8
AM_0
 10
693.93466779606956
 20
499.99854447713187
 30
0.0
 42
-0.0007482613
  0
VERTEX
  5
15CC8
  8
AM_0
 10
693.90493779606982
 20
499.3811644771319
 30
0.0
 42
-0.00074893561
  0
VERTEX
  5
15CC9
  8
AM_0
 10
693.8733777960698
 20
498.76403447713182
 30
0.0
 42
-0.00076039839
  0
VERTEX
  5
15CCA
  8
AM_0
 10
693.83995779606937
 20
498.14700447713199
 30
0.0
 42
-0.00075618786
  0
VERTEX
  5
15CCB
  8
AM_0
 10
693.80465779606959
 20
497.52996447713201
 30
0.0
  0
SEQEND
  5
15CCC
  8
AM_0
  0
POLYLINE
  5
15CCD
  8
AM_0
 66
     1
 10
0.0
 20
0.0
 30
0.0
  0
VERTEX
  5
15CCE
  8
AM_0
 10
694.14919779606964
 20
511.20916447713199
 30
0.0
 42
-0.00039106649
  0
VERTEX
  5
15CCF
  8
AM_0
 10
694.1515577960696
 20
510.89803447713177
 30
0.0
 42
-0.00035488198
  0
VERTEX
  5
15CD0
  8
AM_0
 10
694.15344779606937
 20
510.58692447713207
 30
0.0
 42
-0.00039706113
  0
VERTEX
  5
15CD1
  8
AM_0
 10
694.15487779606963
 20
510.27581447713197
 30
0.0
 42
-0.00038765718
  0
VERTEX
  5
15CD2
  8
AM_0
 10
694.15580779606978
 20
509.96467447713201
 30
0.0
 42
-0.00040613432
  0
VERTEX
  5
15CD3
  8
AM_0
 10
694.15625779606978
 20
509.65357447713211
 30
0.0
 42
-0.00035573434
  0
VERTEX
  5
15CD4
  8
AM_0
 10
694.15621779606965
 20
509.34246447713201
 30
0.0
 42
-0.00038545884
  0
VERTEX
  5
15CD5
  8
AM_0
 10
694.15572779606975
 20
509.03133447713208
 30
0.0
 42
-0.00035501205
  0
VERTEX
  5
15CD6
  8
AM_0
 10
694.15476779606979
 20
508.72022447713198
 30
0.0
 42
-0.00040120779
  0
VERTEX
  5
15CD7
  8
AM_0
 10
694.15334779606962
 20
508.40899447713201
 30
0.0
 42
-0.00038317817
  0
VERTEX
  5
15CD8
  8
AM_0
 10
694.15143779606979
 20
508.09786447713179
 30
0.0
 42
-0.00035656084
  0
VERTEX
  5
15CD9
  8
AM_0
 10
694.14905779606966
 20
507.78662447713202
 30
0.0
 42
-0.00040143615
  0
VERTEX
  5
15CDA
  8
AM_0
 10
694.14620779606969
 20
507.47552447713213
 30
0.0
  0
SEQEND
  5
15CDB
  8
AM_0
  0
ARC
  5
15CDC
  8
AM_0
 10
693.96456779606956
 20
506.20916447713199
 30
0.0
 40
1.0000138999999999
 50
269.69165999999939
 51
90.308340000000726
  0
ARC
  5
15CDD
  8
AM_0
 10
695.24502779606962
 20
506.20416447713211
 30
0.0
 40
1.2650129999999991
 50
269.73557900000168
 51
90.264410000002485
  0
ARC
  5
15CDE
  8
AM_0
 10
693.96456779606956
 20
496.20916447713199
 30
0.0
 40
1.0000138999999999
 50
269.69165999999939
 51
90.308340000000726
  0
ARC
  5
15CDF
  8
AM_0
 10
695.17916779606981
 20
496.19915447713203
 30
0.0
 40
1.3300049999999981
 50
270.00000299999761
 51
90.0
  0
POLYLINE
  5
15CE0
  8
AM_0
 66
     1
 10
0.0
 20
0.0
 30
0.0
  0
VERTEX
  5
15CE1
  8
AM_0
 10
692.64828779606967
 20
484.72613447713218
 30
0.0
 42
-0.00068898288
  0
VERTEX
  5
15CE2
  8
AM_0
 10
692.57740779606968
 20
484.15138447713218
 30
0.0
 42
-0.00070644354
  0
VERTEX
  5
15CE3
  8
AM_0
 10
692.50490779606969
 20
483.57669447713209
 30
0.0
 42
-0.00069248071
  0
VERTEX
  5
15CE4
  8
AM_0
 10
692.43081779606962
 20
483.00238447713213
 30
0.0
 42
-0.00069585665
  0
VERTEX
  5
15CE5
  8
AM_0
 10
692.35513779606981
 20
482.42824447713218
 30
0.0
 42
-0.00068980191
  0
VERTEX
  5
15CE6
  8
AM_0
 10
692.27783779606966
 20
481.854244477132
 30
0.0
 42
-0.00072080104
  0
VERTEX
  5
15CE7
  8
AM_0
 10
692.19894779606943
 20
481.2804544771322
 30
0.0
 42
-0.00071002307
  0
VERTEX
  5
15CE8
  8
AM_0
 10
692.1184077960695
 20
480.70698447713198
 30
0.0
 42
-0.00072659056
  0
VERTEX
  5
15CE9
  8
AM_0
 10
692.03624779606957
 20
480.13388447713203
 30
0.0
 42
-0.00069570481
  0
VERTEX
  5
15CEA
  8
AM_0
 10
691.95242779606963
 20
479.56085447713212
 30
0.0
 42
-0.00071266935
  0
VERTEX
  5
15CEB
  8
AM_0
 10
691.86699779606954
 20
478.98808447713202
 30
0.0
 42
-0.00071614426
  0
VERTEX
  5
15CEC
  8
AM_0
 10
691.77996779606963
 20
478.41574447713208
 30
0.0
 42
-0.00072288975
  0
VERTEX
  5
15CED
  8
AM_0
 10
691.69125779606964
 20
477.84344447713198
 30
0.0
  0
SEQEND
  5
15CEE
  8
AM_0
  0
ARC
  5
15CEF
  8
AM_0
 10
695.04916779606958
 20
486.18414447713212
 30
0.0
 40
1.465004
 50
270.00000299999761
 51
90.0
  0
ARC
  5
15CF0
  8
AM_0
 10
693.96456779606956
 20
486.20916447713211
 30
0.0
 40
1.0000138999999999
 50
269.69165999999939
 51
90.308340000000726
  0
ARC
  5
15CF1
  8
AM_0
 10
693.96456779606956
 20
476.20916447713211
 30
0.0
 40
1.0000138999999999
 50
269.69165999999939
 51
90.308340000000726
  0
ARC
  5
15CF2
  8
AM_0
 10
694.83657779606983
 20
476.16412447713208
 30
0.0
 40
1.6750160000000001
 50
269.7461450000045
 51
90.253870000000916
  0
LINE
  5
15CF3
  8
ﾁｭｳｼﾝｾﾝ1
 10
639.50915779606964
 20
551.83415938226881
 30
0.0
 11
639.50915779606964
 21
470.58415638226847
 31
0.0
  0
LINE
  5
15CF4
  8
AM_0
 10
693.21917779606963
 20
449.314139567572
 30
0.0
 11
659.50915779606953
 21
449.314139567572
 31
0.0
  0
LINE
  5
15CF5
  8
AM_0
 10
693.2391377960696
 20
450.23413056757198
 30
0.0
 11
659.50915779606953
 21
450.23413056757198
 31
0.0
  0
LINE
  5
15CF6
  8
AM_0
 10
693.25915779606953
 20
452.07413456757212
 30
0.0
 11
659.50915779606953
 21
452.07413456757212
 31
0.0
  0
ARC
  5
15CF7
  8
AM_0
 10
693.30450779606963
 20
456.92313356757228
 30
0.0
 40
1.9990078999999989
 50
270.13344999999691
 51
349.36258999999961
  0
LINE
  5
15CF8
  8
AM_0
 10
696.50915779606953
 20
460.42415556757197
 30
0.0
 11
695.19915779606936
 21
451.04415056757199
 31
0.0
  0
LINE
  5
15CF9
  8
AM_0
 10
696.5090977960698
 20
460.42413256757209
 30
0.0
 11
695.21911779606944
 21
451.92414056757201
 31
0.0
  0
LINE
  5
15CFA
  8
AM_0
 10
696.50915779606953
 20
461.76412856757202
 30
0.0
 11
695.22918779606948
 21
453.76413656757211
 31
0.0
  0
LINE
  5
15CFB
  8
AM_0
 10
696.50915779606953
 20
463.114119567572
 30
0.0
 11
695.2691677960695
 21
456.55412256757222
 31
0.0
  0
ARC
  5
15CFC
  8
AM_0
 10
693.25317779606985
 20
454.07430956757207
 30
0.0
 40
2.0001840999999998
 50
270.1714700000008
 51
351.0790000000008
  0
ARC
  5
15CFD
  8
AM_0
 10
693.24560779606963
 20
452.23146756757222
 30
0.0
 40
1.9973480999999991
 50
269.81532000000249
 51
351.14853000000028
  0
ARC
  5
15CFE
  8
AM_0
 10
693.21703779606958
 20
451.31461256757228
 30
0.0
 40
2.0004758999999992
 50
270.06031000000399
 51
352.22953999999908
  0
LINE
  5
15CFF
  8
AM_0
 10
657.50915779606953
 20
451.31413256757219
 30
0.0
 11
657.50915779606953
 21
454.9241255675721
 31
0.0
  0
ARC
  5
15D00
  8
AM_0
 10
659.51635779606966
 20
454.08131356757229
 30
0.0
 40
2.0071799999999991
 50
180.204620000001
 51
269.79538000000241
  0
ARC
  5
15D01
  8
AM_0
 10
659.51244779606975
 20
452.23741856757221
 30
0.0
 40
2.003279899999999
 50
180.09379000000041
 51
269.90621000000277
  0
ARC
  5
15D02
  8
AM_0
 10
659.51714779606971
 20
451.3221425675722
 30
0.0
 40
2.0080360999999991
 50
180.22878999999941
 51
269.77121000000062
  0
LINE
  5
15D03
  8
AM_0
 10
590.00915779606964
 20
472.98414556757211
 30
0.0
 11
594.45916779606944
 21
456.40414356757202
 31
0.0
  0
LINE
  5
15D04
  8
AM_0
 10
588.50915779606976
 20
557.20913256757206
 30
0.0
 11
580.50918779606968
 21
557.20913256757206
 31
0.0
  0
LINE
  5
15D05
  8
AM_0
 10
588.50915779606976
 20
543.1491425675722
 30
0.0
 11
580.50918779606968
 21
543.1491425675722
 31
0.0
  0
ARC
  5
15D06
  8
AM_0
 10
595.16922396777738
 20
536.20916283298084
 30
0.0
 40
1.0000255999999981
 50
89.589454855482614
 51
270.41051585548382
  0
ARC
  5
15D07
  8
AM_0
 10
595.16916643646061
 20
546.2091628329955
 30
0.0
 40
1.0
 50
89.999982855487545
 51
269.9999958554863
  0
ARC
  5
15D08
  8
AM_0
 10
591.68920661533934
 20
546.25417969208661
 30
0.0
 40
1.675026000120903
 50
90.000672712195325
 51
269.99929599882307
  0
ARC
  5
15D09
  8
AM_0
 10
588.85595779606956
 20
550.93190256757214
 30
0.0
 40
1.5027759999999999
 50
270.12241000000358
 51
345.24357000000072
  0
ARC
  5
15D0A
  8
AM_0
 10
591.469213975191
 20
536.23919374639604
 30
0.0
 40
1.460011199999999
 50
89.775235855483814
 51
270.22473585548403
  0
ARC
  5
15D0B
  8
AM_0
 10
595.16920159909421
 20
526.20916283298607
 30
0.0
 40
1.000005699999998
 50
89.999982855487545
 51
269.9999958554863
  0
ARC
  5
15D0C
  8
AM_0
 10
595.16919913041102
 20
516.20916283298629
 30
0.0
 40
1.000005699999998
 50
89.999982855487545
 51
269.9999958554863
  0
ARC
  5
15D0D
  8
AM_0
 10
591.34421510279969
 20
526.22417377725412
 30
0.0
 40
1.3350147999999999
 50
89.730429855483649
 51
270.26955585548518
  0
ARC
  5
15D0E
  8
AM_0
 10
591.28226263288207
 20
516.21917379254785
 30
0.0
 40
1.2700266
 50
89.629315855484137
 51
270.37066585548888
  0
LINE
  5
15D0F
  8
AM_0
 10
588.50915779606976
 20
479.26914156757198
 30
0.0
 11
580.50918779606968
 21
479.26914156757198
 31
0.0
  0
ARC
  5
15D10
  8
AM_0
 10
595.16919789606948
 20
506.20916447713199
 30
0.0
 40
1.000005699999998
 50
89.999989999999016
 51
270.00000299999761
  0
ARC
  5
15D11
  8
AM_0
 10
595.16919789606948
 20
496.20916447713199
 30
0.0
 40
1.000005699999998
 50
89.999989999999016
 51
270.00000299999761
  0
ARC
  5
15D12
  8
AM_0
 10
591.28226139606954
 20
506.19915447713208
 30
0.0
 40
1.2700266
 50
89.629319999999979
 51
270.37066999999809
  0
ARC
  5
15D13
  8
AM_0
 10
591.34421139606957
 20
496.19415447713209
 30
0.0
 40
1.3350147999999999
 50
89.730429999999885
 51
270.26955600000139
  0
ARC
  5
15D14
  8
AM_0
 10
595.16915779606973
 20
476.20916447713211
 30
0.0
 40
1.0
 50
89.999989999999016
 51
270.00000299999761
  0
ARC
  5
15D15
  8
AM_0
 10
595.16921779606935
 20
486.20916447713211
 30
0.0
 40
1.0000255999999981
 50
89.589470000003274
 51
270.41053099999777
  0
ARC
  5
15D16
  8
AM_0
 10
591.46920779606967
 20
486.1791344771321
 30
0.0
 40
1.460011199999999
 50
89.77524999999666
 51
270.22475000000333
  0
ARC
  5
15D17
  8
AM_0
 10
591.68919796383523
 20
476.1641484771327
 30
0.0
 40
1.675026000120903
 50
90.000689856668657
 51
269.99931314329001
  0
LINE
  5
15D18
  8
AM_0
 10
588.50915779606976
 20
465.20913656757222
 30
0.0
 11
580.50918779606968
 21
465.20913656757222
 31
0.0
  0
LINE
  5
15D19
  8
AM_0
 10
588.50915779606976
 20
455.20912856757218
 30
0.0
 11
580.50918779606968
 21
455.20912856757218
 31
0.0
  0
ARC
  5
15D1A
  8
AM_0
 10
596.39202779606967
 20
456.92626856757232
 30
0.0
 40
2.0021281000000002
 50
195.1166999999981
 51
269.9184800000001
  0
LINE
  5
15D1B
  8
AM_0
 10
593.96917779606974
 20
458.20413956757199
 30
0.0
 11
588.50915779606976
 21
458.20413956757199
 31
0.0
  0
LINE
  5
15D1C
  8
ｶｸﾚｾﾝ2
 10
611.00915779606964
 20
479.7091681174179
 30
0.0
 11
685.00915779606964
 21
479.7091681174179
 31
0.0
  0
LINE
  5
15D1D
  8
ｶｸﾚｾﾝ2
 10
608.00915779606964
 20
482.7091681174179
 30
0.0
 11
608.00915779606964
 21
539.70916811741802
 31
0.0
  0
ARC
  5
15D1E
  8
ｶｸﾚｾﾝ2
 10
611.00915779606964
 20
482.7091681174179
 30
0.0
 40
3.0
 50
180.0
 51
270.0
  0
LINE
  5
15D1F
  8
ｶｸﾚｾﾝ2
 10
611.00915779606964
 20
542.70916811741802
 30
0.0
 11
685.00915779606964
 21
542.70916811741802
 31
0.0
  0
ARC
  5
15D20
  8
ｶｸﾚｾﾝ2
 10
611.00915779606964
 20
539.70916811741802
 30
0.0
 40
3.0
 50
90.0
 51
180.0
  0
LINE
  5
15D21
  8
ｶｸﾚｾﾝ2
 10
688.00915779606976
 20
539.70916811741802
 30
0.0
 11
688.00915779606976
 21
482.7091681174179
 31
0.0
  0
ARC
  5
15D22
  8
ｶｸﾚｾﾝ2
 10
685.00915779606964
 20
539.70916811741802
 30
0.0
 40
3.0
 50
0.0
 51
90.0
  0
ARC
  5
15D23
  8
ｶｸﾚｾﾝ2
 10
685.00915779606964
 20
482.7091681174179
 30
0.0
 40
3.0
 50
270.0
 51
0.0
  0
LINE
  5
15D24
  8
ﾁｭｳｼﾝｾﾝ1
 10
248.6229758097997
 20
403.48796985228648
 30
0.0
 11
148.6229731275908
 21
403.4879698522866
 31
0.0
  0
POLYLINE
  5
15D25
  8
AM_4
 66
     1
 10
0.0
 20
0.0
 30
0.0
  0
VERTEX
  5
15D26
  8
AM_4
 10
240.6229759103928
 20
378.43403674373019
 30
0.0
  0
VERTEX
  5
15D27
  8
AM_4
 10
240.61809235544439
 20
378.4353037087738
 30
0.0
  0
VERTEX
  5
15D28
  8
AM_4
 10
239.81823080163321
 20
378.60447957244759
 30
0.0
  0
VERTEX
  5
15D29
  8
AM_4
 10
239.10840293453739
 20
378.73903950485709
 30
0.0
  0
VERTEX
  5
15D2A
  8
AM_4
 10
238.488919930435
 20
378.86085165419621
 30
0.0
  0
VERTEX
  5
15D2B
  8
AM_4
 10
237.94972042081349
 20
378.97395800046291
 30
0.0
  0
VERTEX
  5
15D2C
  8
AM_4
 10
237.4781499009637
 20
379.07794398160598
 30
0.0
  0
VERTEX
  5
15D2D
  8
AM_4
 10
237.0615538661763
 20
379.17239503557471
 30
0.0
  0
VERTEX
  5
15D2E
  8
AM_4
 10
236.68727781174181
 20
379.25689660031748
 30
0.0
  0
VERTEX
  5
15D2F
  8
AM_4
 10
236.34266723295099
 20
379.33103411378369
 30
0.0
  0
VERTEX
  5
15D30
  8
AM_4
 10
236.01506762509439
 20
379.39439301392213
 30
0.0
  0
VERTEX
  5
15D31
  8
AM_4
 10
235.69182448346291
 20
379.44655873868157
 30
0.0
  0
VERTEX
  5
15D32
  8
AM_4
 10
235.3625998385929
 20
379.48880952105321
 30
0.0
  0
VERTEX
  5
15D33
  8
AM_4
 10
235.0263218620058
 20
379.52919477419482
 30
0.0
  0
VERTEX
  5
15D34
  8
AM_4
 10
234.68423526046939
 20
379.57745670630669
 30
0.0
  0
VERTEX
  5
15D35
  8
AM_4
 10
234.3375847407512
 20
379.64333752558912
 30
0.0
  0
VERTEX
  5
15D36
  8
AM_4
 10
233.98761500961859
 20
379.736579440242
 30
0.0
  0
VERTEX
  5
15D37
  8
AM_4
 10
233.63557077383919
 20
379.86692465846568
 30
0.0
  0
VERTEX
  5
15D38
  8
AM_4
 10
233.2826967401806
 20
380.04411538846023
 30
0.0
  0
VERTEX
  5
15D39
  8
AM_4
 10
232.93023761541031
 20
380.27789383842543
 30
0.0
  0
VERTEX
  5
15D3A
  8
AM_4
 10
232.5789189405362
 20
380.57396758427677
 30
0.0
  0
VERTEX
  5
15D3B
  8
AM_4
 10
232.22738959352819
 20
380.92190567278931
 30
0.0
  0
VERTEX
  5
15D3C
  8
AM_4
 10
231.87377928659649
 20
381.30724251845288
 30
0.0
  0
VERTEX
  5
15D3D
  8
AM_4
 10
231.5162177319514
 20
381.71551253575802
 30
0.0
  0
VERTEX
  5
15D3E
  8
AM_4
 10
231.15283464180291
 20
382.1322501391943
 30
0.0
  0
VERTEX
  5
15D3F
  8
AM_4
 10
230.78175972836141
 20
382.54298974325201
 30
0.0
  0
VERTEX
  5
15D40
  8
AM_4
 10
230.4011227038371
 20
382.93326576242112
 30
0.0
  0
VERTEX
  5
15D41
  8
AM_4
 10
230.00905328044021
 20
383.28861261119181
 30
0.0
  0
VERTEX
  5
15D42
  8
AM_4
 10
229.6046208338
 20
383.59930738180651
 30
0.0
  0
VERTEX
  5
15D43
  8
AM_4
 10
229.19065339322091
 20
383.87459787751669
 30
0.0
  0
VERTEX
  5
15D44
  8
AM_4
 10
228.77091865142691
 20
384.12847457932639
 30
0.0
  0
VERTEX
  5
15D45
  8
AM_4
 10
228.34918430114141
 20
384.37492796823972
 30
0.0
  0
VERTEX
  5
15D46
  8
AM_4
 10
227.92921803508821
 20
384.62794852526042
 30
0.0
  0
VERTEX
  5
15D47
  8
AM_4
 10
227.51478754599091
 20
384.90152673139249
 30
0.0
  0
VERTEX
  5
15D48
  8
AM_4
 10
227.10966052657309
 20
385.20965306764009
 30
0.0
  0
VERTEX
  5
15D49
  8
AM_4
 10
226.7176046695586
 20
385.5663180150068
 30
0.0
  0
VERTEX
  5
15D4A
  8
AM_4
 10
226.3403367017589
 20
385.9794438591303
 30
0.0
  0
VERTEX
  5
15D4B
  8
AM_4
 10
225.97136948633749
 20
386.43268010418097
 30
0.0
  0
VERTEX
  5
15D4C
  8
AM_4
 10
225.60216492054639
 20
386.9036080589629
 30
0.0
  0
VERTEX
  5
15D4D
  8
AM_4
 10
225.2241849016367
 20
387.36980903227987
 30
0.0
  0
VERTEX
  5
15D4E
  8
AM_4
 10
224.82889132686029
 20
387.80886433293591
 30
0.0
  0
VERTEX
  5
15D4F
  8
AM_4
 10
224.40774609346869
 20
388.1983552697348
 30
0.0
  0
VERTEX
  5
15D50
  8
AM_4
 10
223.95221109871349
 20
388.51586315148069
 30
0.0
  0
VERTEX
  5
15D51
  8
AM_4
 10
223.45374823984619
 20
388.73896928697752
 30
0.0
  0
VERTEX
  5
15D52
  8
AM_4
 10
222.9064243501459
 20
388.85294685366142
 30
0.0
  0
VERTEX
  5
15D53
  8
AM_4
 10
222.3147260069999
 20
388.8738365034996
 30
0.0
  0
VERTEX
  5
15D54
  8
AM_4
 10
221.6857447238236
 20
388.82537075709132
 30
0.0
  0
VERTEX
  5
15D55
  8
AM_4
 10
221.02657201403159
 20
388.73128213503571
 30
0.0
  0
VERTEX
  5
15D56
  8
AM_4
 10
220.34429939103899
 20
388.61530315793249
 30
0.0
  0
VERTEX
  5
15D57
  8
AM_4
 10
219.64601836826071
 20
388.50116634638073
 30
0.0
  0
VERTEX
  5
15D58
  8
AM_4
 10
218.9388204591117
 20
388.4126042209798
 30
0.0
  0
VERTEX
  5
15D59
  8
AM_4
 10
218.2297971770069
 20
388.37334930232942
 30
0.0
  0
VERTEX
  5
15D5A
  8
AM_4
 10
217.52434790213411
 20
388.40034513461541
 30
0.0
  0
VERTEX
  5
15D5B
  8
AM_4
 10
216.82110348177281
 20
388.48337935637159
 30
0.0
  0
VERTEX
  5
15D5C
  8
AM_4
 10
216.1170026299751
 20
388.60545062971829
 30
0.0
  0
VERTEX
  5
15D5D
  8
AM_4
 10
215.4089840607931
 20
388.74955761677631
 30
0.0
  0
VERTEX
  5
15D5E
  8
AM_4
 10
214.69398648827919
 20
388.89869897966548
 30
0.0
  0
VERTEX
  5
15D5F
  8
AM_4
 10
213.9689486264856
 20
389.03587338050693
 30
0.0
  0
VERTEX
  5
15D60
  8
AM_4
 10
213.23080918946431
 20
389.14407948142059
 30
0.0
  0
VERTEX
  5
15D61
  8
AM_4
 10
212.4765068912678
 20
389.20631594452732
 30
0.0
  0
VERTEX
  5
15D62
  8
AM_4
 10
211.70271745357999
 20
389.21020316393481
 30
0.0
  0
VERTEX
  5
15D63
  8
AM_4
 10
210.90506462861319
 20
389.1618484617008
 30
0.0
  0
VERTEX
  5
15D64
  8
AM_4
 10
210.07890917621111
 20
389.07198089187062
 30
0.0
  0
VERTEX
  5
15D65
  8
AM_4
 10
209.21961185621771
 20
388.95132950848961
 30
0.0
  0
VERTEX
  5
15D66
  8
AM_4
 10
208.3225334284771
 20
388.81062336560291
 30
0.0
  0
VERTEX
  5
15D67
  8
AM_4
 10
207.38303465283309
 20
388.66059151725568
 30
0.0
  0
VERTEX
  5
15D68
  8
AM_4
 10
206.39647628912979
 20
388.51196301749331
 30
0.0
  0
VERTEX
  5
15D69
  8
AM_4
 10
205.35821909721111
 20
388.37546692036079
 30
0.0
  0
VERTEX
  5
15D6A
  8
AM_4
 10
204.2657518320666
 20
388.26014368720672
 30
0.0
  0
VERTEX
  5
15D6B
  8
AM_4
 10
203.1250752292689
 20
388.16827940859088
 30
0.0
  0
VERTEX
  5
15D6C
  8
AM_4
 10
201.9443180195363
 20
388.10047158237683
 30
0.0
  0
VERTEX
  5
15D6D
  8
AM_4
 10
200.73160893358701
 20
388.05731770642763
 30
0.0
  0
VERTEX
  5
15D6E
  8
AM_4
 10
199.49507670213919
 20
388.0394152786065
 30
0.0
  0
VERTEX
  5
15D6F
  8
AM_4
 10
198.2428500559113
 20
388.0473617967765
 30
0.0
  0
VERTEX
  5
15D70
  8
AM_4
 10
196.98305772562171
 20
388.08175475880108
 30
0.0
  0
VERTEX
  5
15D71
  8
AM_4
 10
195.72382844198819
 20
388.14319166254319
 30
0.0
  0
VERTEX
  5
15D72
  8
AM_4
 10
194.47175506899569
 20
388.23104665272461
 30
0.0
  0
VERTEX
  5
15D73
  8
AM_4
 10
193.22728700369311
 20
388.33980046149901
 30
0.0
  0
VERTEX
  5
15D74
  8
AM_4
 10
191.9893377763959
 20
388.46271046787911
 30
0.0
  0
VERTEX
  5
15D75
  8
AM_4
 10
190.75682091741919
 20
388.59303405087701
 30
0.0
  0
VERTEX
  5
15D76
  8
AM_4
 10
189.5286499570787
 20
388.72402858950522
 30
0.0
  0
VERTEX
  5
15D77
  8
AM_4
 10
188.3037384256894
 20
388.84895146277597
 30
0.0
  0
VERTEX
  5
15D78
  8
AM_4
 10
187.08099985356671
 20
388.96106004970193
 30
0.0
  0
VERTEX
  5
15D79
  8
AM_4
 10
185.85934777102619
 20
389.05361172929491
 30
0.0
  0
VERTEX
  5
15D7A
  8
AM_4
 10
184.63914657947291
 20
389.1216022947732
 30
0.0
  0
VERTEX
  5
15D7B
  8
AM_4
 10
183.42656416467219
 20
389.16698119617769
 30
0.0
  0
VERTEX
  5
15D7C
  8
AM_4
 10
182.22921928347961
 20
389.19343629775489
 30
0.0
  0
VERTEX
  5
15D7D
  8
AM_4
 10
181.0547306927503
 20
389.20465546375129
 30
0.0
  0
VERTEX
  5
15D7E
  8
AM_4
 10
179.91071714933969
 20
389.20432655841319
 30
0.0
  0
VERTEX
  5
15D7F
  8
AM_4
 10
178.80479741010311
 20
389.1961374459874
 30
0.0
  0
VERTEX
  5
15D80
  8
AM_4
 10
177.74459023189601
 20
389.18377599072022
 30
0.0
  0
VERTEX
  5
15D81
  8
AM_4
 10
176.73771437157359
 20
389.1709300568582
 30
0.0
  0
VERTEX
  5
15D82
  8
AM_4
 10
175.79037689948439
 20
389.15916620040173
 30
0.0
  0
VERTEX
  5
15D83
  8
AM_4
 10
174.90313813995019
 20
389.14156574436743
 30
0.0
  0
VERTEX
  5
15D84
  8
AM_4
 10
174.07514673078541
 20
389.10908870352529
 30
0.0
  0
VERTEX
  5
15D85
  8
AM_4
 10
173.30555130980491
 20
389.05269509264571
 30
0.0
  0
VERTEX
  5
15D86
  8
AM_4
 10
172.59350051482329
 20
388.96334492649851
 30
0.0
  0
VERTEX
  5
15D87
  8
AM_4
 10
171.9381429836555
 20
388.83199821985471
 30
0.0
  0
VERTEX
  5
15D88
  8
AM_4
 10
171.338627354116
 20
388.64961498748391
 30
0.0
  0
VERTEX
  5
15D89
  8
AM_4
 10
170.7941022640197
 20
388.40715524415663
 30
0.0
  0
VERTEX
  5
15D8A
  8
AM_4
 10
170.30275157481361
 20
388.09925234233867
 30
0.0
  0
VERTEX
  5
15D8B
  8
AM_4
 10
169.85890004247409
 20
387.73523298527829
 30
0.0
  0
VERTEX
  5
15D8C
  8
AM_4
 10
169.45590764661
 20
387.32809721391919
 30
0.0
  0
VERTEX
  5
15D8D
  8
AM_4
 10
169.0871343668299
 20
386.89084506920489
 30
0.0
  0
VERTEX
  5
15D8E
  8
AM_4
 10
168.7459401827428
 20
386.43647659207949
 30
0.0
  0
VERTEX
  5
15D8F
  8
AM_4
 10
168.4256850739572
 20
385.97799182348638
 30
0.0
  0
VERTEX
  5
15D90
  8
AM_4
 10
168.11972902008199
 20
385.52839080436968
 30
0.0
  0
VERTEX
  5
15D91
  8
AM_4
 10
167.82143200072591
 20
385.10067357567277
 30
0.0
  0
VERTEX
  5
15D92
  8
AM_4
 10
167.52541246780419
 20
384.7042053883805
 30
0.0
  0
VERTEX
  5
15D93
  8
AM_4
 10
167.23132276245821
 20
384.33381233364071
 30
0.0
  0
VERTEX
  5
15D94
  8
AM_4
 10
166.9400736981361
 20
383.98068571264213
 30
0.0
  0
VERTEX
  5
15D95
  8
AM_4
 10
166.65257608828551
 20
383.6360168265735
 30
0.0
  0
VERTEX
  5
15D96
  8
AM_4
 10
166.36974074635469
 20
383.2909969766236
 30
0.0
  0
VERTEX
  5
15D97
  8
AM_4
 10
166.09247848579139
 20
382.93681746398119
 30
0.0
  0
VERTEX
  5
15D98
  8
AM_4
 10
165.8217001200438
 20
382.56466958983498
 30
0.0
  0
VERTEX
  5
15D99
  8
AM_4
 10
165.55831646255939
 20
382.165744655374
 30
0.0
  0
VERTEX
  5
15D9A
  8
AM_4
 10
165.30111676770051
 20
381.73489551264868
 30
0.0
  0
VERTEX
  5
15D9B
  8
AM_4
 10
165.0404040534855
 20
381.28162121715758
 30
0.0
  0
VERTEX
  5
15D9C
  8
AM_4
 10
164.7643597788468
 20
380.81908237526108
 30
0.0
  0
VERTEX
  5
15D9D
  8
AM_4
 10
164.46116540271669
 20
380.36043959332022
 30
0.0
  0
VERTEX
  5
15D9E
  8
AM_4
 10
164.11900238402779
 20
379.91885347769471
 30
0.0
  0
VERTEX
  5
15D9F
  8
AM_4
 10
163.7260521817125
 20
379.50748463474531
 30
0.0
  0
VERTEX
  5
15DA0
  8
AM_4
 10
163.27049625470309
 20
379.13949367083251
 30
0.0
  0
VERTEX
  5
15DA1
  8
AM_4
 10
162.74051606193231
 20
378.8280411923169
 30
0.0
  0
VERTEX
  5
15DA2
  8
AM_4
 10
162.1255701307839
 20
378.58139862060068
 30
0.0
  0
VERTEX
  5
15DA3
  8
AM_4
 10
161.42022526244969
 20
378.38828063725288
 30
0.0
  0
VERTEX
  5
15DA4
  8
AM_4
 10
160.6203253265727
 20
378.23251273888502
 30
0.0
  0
VERTEX
  5
15DA5
  8
AM_4
 10
159.72171419279621
 20
378.09792042210768
 30
0.0
  0
VERTEX
  5
15DA6
  8
AM_4
 10
158.72023573076319
 20
377.96832918353221
 30
0.0
  0
VERTEX
  5
15DA7
  8
AM_4
 10
157.6117338101171
 20
377.82756451976968
 30
0.0
  0
VERTEX
  5
15DA8
  8
AM_4
 10
156.62297340699769
 20
377.69128052000451
 30
0.0
  0
SEQEND
  5
15DA9
  8
AM_4
  0
LINE
  5
15DAA
  8
AM_0
 10
243.62297331759069
 20
416.18796985228653
 30
0.0
 11
153.62297331759069
 21
416.18796985228653
 31
0.0
  0
POLYLINE
  5
15DAB
  8
AM_4
 66
     1
 10
0.0
 20
0.0
 30
0.0
  0
VERTEX
  5
15DAC
  8
AM_4
 10
240.6229759103928
 20
428.54190296084289
 30
0.0
  0
VERTEX
  5
15DAD
  8
AM_4
 10
240.61809235544439
 20
428.54063599579928
 30
0.0
  0
VERTEX
  5
15DAE
  8
AM_4
 10
239.81823080163321
 20
428.37146013212532
 30
0.0
  0
VERTEX
  5
15DAF
  8
AM_4
 10
239.10840293453739
 20
428.23690019971599
 30
0.0
  0
VERTEX
  5
15DB0
  8
AM_4
 10
238.488919930435
 20
428.11508805037681
 30
0.0
  0
VERTEX
  5
15DB1
  8
AM_4
 10
237.94972042081349
 20
428.00198170411028
 30
0.0
  0
VERTEX
  5
15DB2
  8
AM_4
 10
237.4781499009637
 20
427.89799572296721
 30
0.0
  0
VERTEX
  5
15DB3
  8
AM_4
 10
237.0615538661763
 20
427.8035446689986
 30
0.0
  0
VERTEX
  5
15DB4
  8
AM_4
 10
236.68727781174181
 20
427.7190431042556
 30
0.0
  0
VERTEX
  5
15DB5
  8
AM_4
 10
236.34266723295099
 20
427.64490559078951
 30
0.0
  0
VERTEX
  5
15DB6
  8
AM_4
 10
236.01506762509439
 20
427.58154669065101
 30
0.0
  0
VERTEX
  5
15DB7
  8
AM_4
 10
235.69182448346291
 20
427.52938096589151
 30
0.0
  0
VERTEX
  5
15DB8
  8
AM_4
 10
235.3625998385929
 20
427.48713018351998
 30
0.0
  0
VERTEX
  5
15DB9
  8
AM_4
 10
235.0263218620058
 20
427.44674493037832
 30
0.0
  0
VERTEX
  5
15DBA
  8
AM_4
 10
234.68423526046939
 20
427.3984829982665
 30
0.0
  0
VERTEX
  5
15DBB
  8
AM_4
 10
234.3375847407512
 20
427.33260217898408
 30
0.0
  0
VERTEX
  5
15DBC
  8
AM_4
 10
233.98761500961859
 20
427.23936026433108
 30
0.0
  0
VERTEX
  5
15DBD
  8
AM_4
 10
233.63557077383919
 20
427.1090150461074
 30
0.0
  0
VERTEX
  5
15DBE
  8
AM_4
 10
233.2826967401806
 20
426.93182431611308
 30
0.0
  0
VERTEX
  5
15DBF
  8
AM_4
 10
232.93023761541031
 20
426.69804586614771
 30
0.0
  0
VERTEX
  5
15DC0
  8
AM_4
 10
232.5789189405362
 20
426.40197212029631
 30
0.0
  0
VERTEX
  5
15DC1
  8
AM_4
 10
232.22738959352819
 20
426.05403403178377
 30
0.0
  0
VERTEX
  5
15DC2
  8
AM_4
 10
231.87377928659649
 20
425.6686971861202
 30
0.0
  0
VERTEX
  5
15DC3
  8
AM_4
 10
231.5162177319514
 20
425.26042716881511
 30
0.0
  0
VERTEX
  5
15DC4
  8
AM_4
 10
231.15283464180291
 20
424.8436895653789
 30
0.0
  0
VERTEX
  5
15DC5
  8
AM_4
 10
230.78175972836141
 20
424.43294996132113
 30
0.0
  0
VERTEX
  5
15DC6
  8
AM_4
 10
230.4011227038371
 20
424.04267394215202
 30
0.0
  0
VERTEX
  5
15DC7
  8
AM_4
 10
230.00905328044021
 20
423.68732709338133
 30
0.0
  0
VERTEX
  5
15DC8
  8
AM_4
 10
229.6046208338
 20
423.37663232276668
 30
0.0
  0
VERTEX
  5
15DC9
  8
AM_4
 10
229.19065339322091
 20
423.10134182705622
 30
0.0
  0
VERTEX
  5
15DCA
  8
AM_4
 10
228.77091865142691
 20
422.84746512524669
 30
0.0
  0
VERTEX
  5
15DCB
  8
AM_4
 10
228.34918430114141
 20
422.60101173633342
 30
0.0
  0
VERTEX
  5
15DCC
  8
AM_4
 10
227.92921803508821
 20
422.3479911793126
 30
0.0
  0
VERTEX
  5
15DCD
  8
AM_4
 10
227.51478754599091
 20
422.0744129731807
 30
0.0
  0
VERTEX
  5
15DCE
  8
AM_4
 10
227.10966052657309
 20
421.7662866369331
 30
0.0
  0
VERTEX
  5
15DCF
  8
AM_4
 10
226.7176046695586
 20
421.40962168956628
 30
0.0
  0
VERTEX
  5
15DD0
  8
AM_4
 10
226.3403367017589
 20
420.99649584544278
 30
0.0
  0
VERTEX
  5
15DD1
  8
AM_4
 10
225.97136948633749
 20
420.5432596003921
 30
0.0
  0
VERTEX
  5
15DD2
  8
AM_4
 10
225.60216492054639
 20
420.07233164561029
 30
0.0
  0
VERTEX
  5
15DD3
  8
AM_4
 10
225.2241849016367
 20
419.60613067229332
 30
0.0
  0
VERTEX
  5
15DD4
  8
AM_4
 10
224.82889132686029
 20
419.16707537163728
 30
0.0
  0
VERTEX
  5
15DD5
  8
AM_4
 10
224.40774609346869
 20
418.77758443483839
 30
0.0
  0
VERTEX
  5
15DD6
  8
AM_4
 10
223.95221109871349
 20
418.46007655309251
 30
0.0
  0
VERTEX
  5
15DD7
  8
AM_4
 10
223.45374823984619
 20
418.23697041759573
 30
0.0
  0
VERTEX
  5
15DD8
  8
AM_4
 10
222.9064243501459
 20
418.1229928509116
 30
0.0
  0
VERTEX
  5
15DD9
  8
AM_4
 10
222.3147260069999
 20
418.10210320107348
 30
0.0
  0
VERTEX
  5
15DDA
  8
AM_4
 10
221.6857447238236
 20
418.15056894748182
 30
0.0
  0
VERTEX
  5
15DDB
  8
AM_4
 10
221.02657201403159
 20
418.24465756953731
 30
0.0
  0
VERTEX
  5
15DDC
  8
AM_4
 10
220.34429939103899
 20
418.36063654664071
 30
0.0
  0
VERTEX
  5
15DDD
  8
AM_4
 10
219.64601836826071
 20
418.47477335819229
 30
0.0
  0
VERTEX
  5
15DDE
  8
AM_4
 10
218.9388204591117
 20
418.56333548359328
 30
0.0
  0
VERTEX
  5
15DDF
  8
AM_4
 10
218.2297971770069
 20
418.60259040224378
 30
0.0
  0
VERTEX
  5
15DE0
  8
AM_4
 10
217.52434790213411
 20
418.57559456995762
 30
0.0
  0
VERTEX
  5
15DE1
  8
AM_4
 10
216.82110348177281
 20
418.49256034820161
 30
0.0
  0
VERTEX
  5
15DE2
  8
AM_4
 10
216.1170026299751
 20
418.37048907485479
 30
0.0
  0
VERTEX
  5
15DE3
  8
AM_4
 10
215.4089840607931
 20
418.22638208779682
 30
0.0
  0
VERTEX
  5
15DE4
  8
AM_4
 10
214.69398648827919
 20
418.0772407249076
 30
0.0
  0
VERTEX
  5
15DE5
  8
AM_4
 10
213.9689486264856
 20
417.94006632406632
 30
0.0
  0
VERTEX
  5
15DE6
  8
AM_4
 10
213.23080918946431
 20
417.83186022315249
 30
0.0
  0
VERTEX
  5
15DE7
  8
AM_4
 10
212.4765068912678
 20
417.7696237600457
 30
0.0
  0
VERTEX
  5
15DE8
  8
AM_4
 10
211.70271745357999
 20
417.76573654063827
 30
0.0
  0
VERTEX
  5
15DE9
  8
AM_4
 10
210.90506462861319
 20
417.81409124287228
 30
0.0
  0
VERTEX
  5
15DEA
  8
AM_4
 10
210.07890917621111
 20
417.90395881270229
 30
0.0
  0
VERTEX
  5
15DEB
  8
AM_4
 10
209.21961185621771
 20
418.02461019608347
 30
0.0
  0
VERTEX
  5
15DEC
  8
AM_4
 10
208.3225334284771
 20
418.16531633897011
 30
0.0
  0
VERTEX
  5
15DED
  8
AM_4
 10
207.38303465283309
 20
418.31534818731751
 30
0.0
  0
VERTEX
  5
15DEE
  8
AM_4
 10
206.39647628912979
 20
418.46397668707982
 30
0.0
  0
VERTEX
  5
15DEF
  8
AM_4
 10
205.35821909721111
 20
418.60047278421229
 30
0.0
  0
VERTEX
  5
15DF0
  8
AM_4
 10
204.2657518320666
 20
418.71579601736647
 30
0.0
  0
VERTEX
  5
15DF1
  8
AM_4
 10
203.1250752292689
 20
418.80766029598232
 30
0.0
  0
VERTEX
  5
15DF2
  8
AM_4
 10
201.9443180195363
 20
418.87546812219631
 30
0.0
  0
VERTEX
  5
15DF3
  8
AM_4
 10
200.73160893358701
 20
418.91862199814551
 30
0.0
  0
VERTEX
  5
15DF4
  8
AM_4
 10
199.49507670213919
 20
418.9365244259667
 30
0.0
  0
VERTEX
  5
15DF5
  8
AM_4
 10
198.2428500559113
 20
418.92857790779669
 30
0.0
  0
VERTEX
  5
15DF6
  8
AM_4
 10
196.98305772562171
 20
418.89418494577188
 30
0.0
  0
VERTEX
  5
15DF7
  8
AM_4
 10
195.72382844198819
 20
418.83274804202989
 30
0.0
  0
VERTEX
  5
15DF8
  8
AM_4
 10
194.47175506899569
 20
418.74489305184858
 30
0.0
  0
VERTEX
  5
15DF9
  8
AM_4
 10
193.22728700369311
 20
418.63613924307413
 30
0.0
  0
VERTEX
  5
15DFA
  8
AM_4
 10
191.9893377763959
 20
418.51322923669397
 30
0.0
  0
VERTEX
  5
15DFB
  8
AM_4
 10
190.75682091741919
 20
418.38290565369618
 30
0.0
  0
VERTEX
  5
15DFC
  8
AM_4
 10
189.5286499570787
 20
418.25191111506791
 30
0.0
  0
VERTEX
  5
15DFD
  8
AM_4
 10
188.3037384256894
 20
418.12698824179711
 30
0.0
  0
VERTEX
  5
15DFE
  8
AM_4
 10
187.08099985356671
 20
418.01487965487138
 30
0.0
  0
VERTEX
  5
15DFF
  8
AM_4
 10
185.85934777102619
 20
417.92232797527828
 30
0.0
  0
VERTEX
  5
15E00
  8
AM_4
 10
184.63914657947291
 20
417.8543374098
 30
0.0
  0
VERTEX
  5
15E01
  8
AM_4
 10
183.42656416467219
 20
417.80895850839539
 30
0.0
  0
VERTEX
  5
15E02
  8
AM_4
 10
182.22921928347961
 20
417.78250340681831
 30
0.0
  0
VERTEX
  5
15E03
  8
AM_4
 10
181.0547306927503
 20
417.77128424082201
 30
0.0
  0
VERTEX
  5
15E04
  8
AM_4
 10
179.91071714933969
 20
417.77161314615989
 30
0.0
  0
VERTEX
  5
15E05
  8
AM_4
 10
178.80479741010311
 20
417.7798022585859
 30
0.0
  0
VERTEX
  5
15E06
  8
AM_4
 10
177.74459023189601
 20
417.79216371385291
 30
0.0
  0
VERTEX
  5
15E07
  8
AM_4
 10
176.73771437157359
 20
417.80500964771511
 30
0.0
  0
VERTEX
  5
15E08
  8
AM_4
 10
175.79037689948439
 20
417.81677350417129
 30
0.0
  0
VERTEX
  5
15E09
  8
AM_4
 10
174.90313813995019
 20
417.83437396020582
 30
0.0
  0
VERTEX
  5
15E0A
  8
AM_4
 10
174.07514673078541
 20
417.86685100104791
 30
0.0
  0
VERTEX
  5
15E0B
  8
AM_4
 10
173.30555130980491
 20
417.9232446119276
 30
0.0
  0
VERTEX
  5
15E0C
  8
AM_4
 10
172.59350051482329
 20
418.01259477807457
 30
0.0
  0
VERTEX
  5
15E0D
  8
AM_4
 10
171.9381429836555
 20
418.14394148471848
 30
0.0
  0
VERTEX
  5
15E0E
  8
AM_4
 10
171.338627354116
 20
418.32632471708911
 30
0.0
  0
VERTEX
  5
15E0F
  8
AM_4
 10
170.7941022640197
 20
418.5687844604164
 30
0.0
  0
VERTEX
  5
15E10
  8
AM_4
 10
170.30275157481361
 20
418.87668736223429
 30
0.0
  0
VERTEX
  5
15E11
  8
AM_4
 10
169.85890004247409
 20
419.24070671929491
 30
0.0
  0
VERTEX
  5
15E12
  8
AM_4
 10
169.45590764661
 20
419.647842490654
 30
0.0
  0
VERTEX
  5
15E13
  8
AM_4
 10
169.0871343668299
 20
420.08509463536831
 30
0.0
  0
VERTEX
  5
15E14
  8
AM_4
 10
168.7459401827428
 20
420.53946311249359
 30
0.0
  0
VERTEX
  5
15E15
  8
AM_4
 10
168.4256850739572
 20
420.99794788108659
 30
0.0
  0
VERTEX
  5
15E16
  8
AM_4
 10
168.11972902008199
 20
421.4475489002034
 30
0.0
  0
VERTEX
  5
15E17
  8
AM_4
 10
167.82143200072591
 20
421.87526612890031
 30
0.0
  0
VERTEX
  5
15E18
  8
AM_4
 10
167.52541246780419
 20
422.27173431619258
 30
0.0
  0
VERTEX
  5
15E19
  8
AM_4
 10
167.23132276245821
 20
422.64212737093243
 30
0.0
  0
VERTEX
  5
15E1A
  8
AM_4
 10
166.9400736981361
 20
422.99525399193101
 30
0.0
  0
VERTEX
  5
15E1B
  8
AM_4
 10
166.65257608828551
 20
423.3399228779997
 30
0.0
  0
VERTEX
  5
15E1C
  8
AM_4
 10
166.36974074635469
 20
423.68494272794948
 30
0.0
  0
VERTEX
  5
15E1D
  8
AM_4
 10
166.09247848579139
 20
424.03912224059189
 30
0.0
  0
VERTEX
  5
15E1E
  8
AM_4
 10
165.8217001200438
 20
424.4112701147381
 30
0.0
  0
VERTEX
  5
15E1F
  8
AM_4
 10
165.55831646255939
 20
424.81019504919908
 30
0.0
  0
VERTEX
  5
15E20
  8
AM_4
 10
165.30111676770051
 20
425.24104419192452
 30
0.0
  0
VERTEX
  5
15E21
  8
AM_4
 10
165.0404040534855
 20
425.69431848741561
 30
0.0
  0
VERTEX
  5
15E22
  8
AM_4
 10
164.7643597788468
 20
426.15685732931189
 30
0.0
  0
VERTEX
  5
15E23
  8
AM_4
 10
164.46116540271669
 20
426.61550011125291
 30
0.0
  0
VERTEX
  5
15E24
  8
AM_4
 10
164.11900238402779
 20
427.0570862268786
 30
0.0
  0
VERTEX
  5
15E25
  8
AM_4
 10
163.7260521817125
 20
427.46845506982783
 30
0.0
  0
VERTEX
  5
15E26
  8
AM_4
 10
163.27049625470309
 20
427.83644603374057
 30
0.0
  0
VERTEX
  5
15E27
  8
AM_4
 10
162.74051606193231
 20
428.14789851225618
 30
0.0
  0
VERTEX
  5
15E28
  8
AM_4
 10
162.1255701307839
 20
428.39454108397251
 30
0.0
  0
VERTEX
  5
15E29
  8
AM_4
 10
161.42022526244969
 20
428.58765906732009
 30
0.0
  0
VERTEX
  5
15E2A
  8
AM_4
 10
160.6203253265727
 20
428.74342696568812
 30
0.0
  0
VERTEX
  5
15E2B
  8
AM_4
 10
159.72171419279621
 20
428.87801928246529
 30
0.0
  0
VERTEX
  5
15E2C
  8
AM_4
 10
158.72023573076319
 20
429.00761052104087
 30
0.0
  0
VERTEX
  5
15E2D
  8
AM_4
 10
157.6117338101171
 20
429.14837518480329
 30
0.0
  0
VERTEX
  5
15E2E
  8
AM_4
 10
156.62297340699769
 20
429.28465918456868
 30
0.0
  0
SEQEND
  5
15E2F
  8
AM_4
  0
LINE
  5
15E30
  8
AM_0
 10
213.62297331759069
 20
413.7379698522866
 30
0.0
 11
183.62297331759061
 21
413.7379698522866
 31
0.0
  0
LINE
  5
15E31
  8
AM_0
 10
213.62297331759069
 20
393.23796985228671
 30
0.0
 11
183.62297331759061
 21
393.23796985228671
 31
0.0
  0
LINE
  5
15E32
  8
AM_0
 10
183.62297331759061
 20
393.23796985228671
 30
0.0
 11
183.62297331759061
 21
413.7379698522866
 31
0.0
  0
LINE
  5
15E33
  8
AM_0
 10
153.62297331759069
 20
418.48797029932132
 30
0.0
 11
153.62297331759069
 21
388.48796940525187
 31
0.0
  0
LINE
  5
15E34
  8
AM_0
 10
155.62297331759069
 20
413.48796985228648
 30
0.0
 11
155.62297331759069
 21
393.4879698522866
 31
0.0
  0
LINE
  5
15E35
  8
AM_0
 10
167.47294890352819
 20
392.98796985228671
 30
0.0
 11
167.47294890352819
 21
413.98796985228648
 31
0.0
  0
LINE
  5
15E36
  8
AM_0
 10
168.62297331759069
 20
392.98796985228671
 30
0.0
 11
168.62297331759069
 21
413.98796985228648
 31
0.0
  0
LINE
  5
15E37
  8
AM_0
 10
183.62297331759061
 20
393.48796985228671
 30
0.0
 11
168.62297331759069
 21
393.48796985228671
 31
0.0
  0
LINE
  5
15E38
  8
AM_0
 10
156.6229734069978
 20
377.69128052000451
 30
0.0
 11
156.62297340699769
 21
388.4879694052517
 31
0.0
  0
LINE
  5
15E39
  8
AM_0
 10
170.97559770630451
 20
388.48796940525187
 30
0.0
 11
153.62297331759069
 21
388.48796940525187
 31
0.0
  0
LINE
  5
15E3A
  8
AM_0
 10
167.47294890352819
 20
393.48796985228671
 30
0.0
 11
155.62297331759069
 21
393.4879698522866
 31
0.0
  0
LINE
  5
15E3B
  8
AM_0
 10
164.62297340699769
 20
380.9879698522866
 30
0.0
 11
156.62297340699769
 21
380.98796985228648
 31
0.0
  0
LINE
  5
15E3C
  8
AM_0
 10
164.62297340699769
 20
380.9879698522866
 30
0.0
 11
156.62297340699769
 21
388.4879694052517
 31
0.0
  0
LINE
  5
15E3D
  8
AM_0
 10
156.62297340699769
 20
380.98796985228648
 30
0.0
 11
164.62297340699769
 21
388.4879694052517
 31
0.0
  0
LINE
  5
15E3E
  8
AM_0
 10
155.62297331759069
 20
393.48796985228671
 30
0.0
 11
153.62297331759069
 21
392.33326931390741
 31
0.0
  0
LINE
  5
15E3F
  8
AM_0
 10
164.62297340699769
 20
380.9879698522866
 30
0.0
 11
164.62297340699769
 21
388.4879694052517
 31
0.0
  0
LINE
  5
15E40
  8
AM_0
 10
168.62297331759069
 20
392.98796985228671
 30
0.0
 11
167.47294890352819
 21
392.98796985228671
 31
0.0
  0
LINE
  5
15E41
  8
AM_0
 10
183.62297331759061
 20
413.48796985228648
 30
0.0
 11
168.62297331759069
 21
413.48796985228648
 31
0.0
  0
LINE
  5
15E42
  8
AM_0
 10
164.62297340699769
 20
425.98796985228648
 30
0.0
 11
164.62297340699769
 21
418.48797029932149
 31
0.0
  0
LINE
  5
15E43
  8
AM_0
 10
156.6229734069978
 20
429.28465918456868
 30
0.0
 11
156.62297340699769
 21
418.48797029932149
 31
0.0
  0
LINE
  5
15E44
  8
AM_0
 10
156.62297340699769
 20
425.98796985228648
 30
0.0
 11
164.62297340699769
 21
418.48797029932149
 31
0.0
  0
LINE
  5
15E45
  8
AM_0
 10
164.62297340699769
 20
425.98796985228648
 30
0.0
 11
156.62297340699769
 21
418.48797029932149
 31
0.0
  0
LINE
  5
15E46
  8
AM_0
 10
170.97559770630451
 20
418.4879702993212
 30
0.0
 11
153.62297331759069
 21
418.48797029932132
 31
0.0
  0
LINE
  5
15E47
  8
AM_0
 10
167.47294890352819
 20
413.48796985228648
 30
0.0
 11
155.62297331759069
 21
413.48796985228648
 31
0.0
  0
LINE
  5
15E48
  8
AM_0
 10
155.62297331759069
 20
413.48796985228648
 30
0.0
 11
153.62297331759069
 21
414.6426703906659
 31
0.0
  0
LINE
  5
15E49
  8
AM_0
 10
168.62297331759069
 20
413.98796985228648
 30
0.0
 11
167.47294890352819
 21
413.98796985228648
 31
0.0
  0
LINE
  5
15E4A
  8
AM_0
 10
164.62297340699769
 20
425.98796985228648
 30
0.0
 11
156.62297340699769
 21
425.98796985228648
 31
0.0
  0
LINE
  5
15E4B
  8
AM_0
 10
243.62297599979971
 20
418.48797029932132
 30
0.0
 11
243.62297599979971
 21
388.48796940525187
 31
0.0
  0
LINE
  5
15E4C
  8
AM_0
 10
229.77296721407521
 20
392.98796985228671
 30
0.0
 11
229.77296721407521
 21
413.98796985228648
 31
0.0
  0
LINE
  5
15E4D
  8
AM_0
 10
228.62297331759069
 20
392.98796985228671
 30
0.0
 11
228.62297331759069
 21
413.98796985228648
 31
0.0
  0
LINE
  5
15E4E
  8
AM_0
 10
241.62297331759069
 20
413.48796985228648
 30
0.0
 11
241.62297331759069
 21
393.48796985228671
 31
0.0
  0
LINE
  5
15E4F
  8
AM_0
 10
213.62297331759069
 20
393.23796985228671
 30
0.0
 11
213.62297331759069
 21
413.7379698522866
 31
0.0
  0
LINE
  5
15E50
  8
ﾁｭｳｼﾝｾﾝ1
 10
198.62297441155241
 20
383.48796985228648
 30
0.0
 11
198.622974525838
 21
423.48796985228648
 31
0.0
  0
LINE
  5
15E51
  8
AM_0
 10
228.62297331759069
 20
393.48796985228671
 30
0.0
 11
213.62297331759069
 21
393.48796985228671
 31
0.0
  0
LINE
  5
15E52
  8
AM_0
 10
240.6229759103928
 20
378.43403674373019
 30
0.0
 11
240.6229759103928
 21
388.4879694052517
 31
0.0
  0
LINE
  5
15E53
  8
AM_0
 10
243.62297599979971
 20
388.48796940525187
 30
0.0
 11
223.992230821916
 21
388.48796940525187
 31
0.0
  0
LINE
  5
15E54
  8
AM_0
 10
241.62297331759069
 20
393.48796985228671
 30
0.0
 11
229.77296721407521
 21
393.48796985228671
 31
0.0
  0
LINE
  5
15E55
  8
AM_0
 10
240.6229759103928
 20
380.98796985228648
 30
0.0
 11
232.6229759103928
 21
380.9879698522866
 31
0.0
  0
LINE
  5
15E56
  8
AM_0
 10
240.6229759103928
 20
380.98796985228648
 30
0.0
 11
232.6229759103928
 21
388.4879694052517
 31
0.0
  0
LINE
  5
15E57
  8
AM_0
 10
232.6229759103928
 20
380.9879698522866
 30
0.0
 11
240.6229759103928
 21
388.4879694052517
 31
0.0
  0
LINE
  5
15E58
  8
AM_0
 10
232.6229759103928
 20
380.9879698522866
 30
0.0
 11
232.6229759103928
 21
388.4879694052517
 31
0.0
  0
LINE
  5
15E59
  8
AM_0
 10
229.77296721407521
 20
392.98796985228671
 30
0.0
 11
228.62297331759069
 21
392.98796985228671
 31
0.0
  0
LINE
  5
15E5A
  8
AM_0
 10
241.62297331759069
 20
393.48796985228671
 30
0.0
 11
243.62297331759069
 21
392.33326931390741
 31
0.0
  0
LINE
  5
15E5B
  8
AM_0
 10
228.62297331759069
 20
413.48796985228648
 30
0.0
 11
213.62297331759069
 21
413.48796985228648
 31
0.0
  0
LINE
  5
15E5C
  8
AM_0
 10
240.6229759103928
 20
428.54190296084289
 30
0.0
 11
240.6229759103928
 21
418.48797029932149
 31
0.0
  0
LINE
  5
15E5D
  8
AM_0
 10
232.6229759103928
 20
425.98796985228648
 30
0.0
 11
232.6229759103928
 21
418.48797029932149
 31
0.0
  0
LINE
  5
15E5E
  8
AM_0
 10
232.6229759103928
 20
425.98796985228648
 30
0.0
 11
240.6229759103928
 21
418.48797029932149
 31
0.0
  0
LINE
  5
15E5F
  8
AM_0
 10
240.6229759103928
 20
425.98796985228648
 30
0.0
 11
232.6229759103928
 21
418.48797029932149
 31
0.0
  0
LINE
  5
15E60
  8
AM_0
 10
243.62297599979971
 20
418.48797029932132
 30
0.0
 11
223.992230821916
 21
418.48797029932132
 31
0.0
  0
LINE
  5
15E61
  8
AM_0
 10
241.62297331759069
 20
413.48796985228648
 30
0.0
 11
229.77296721407521
 21
413.48796985228648
 31
0.0
  0
LINE
  5
15E62
  8
AM_0
 10
229.77296721407521
 20
413.98796985228648
 30
0.0
 11
228.62297331759069
 21
413.98796985228648
 31
0.0
  0
LINE
  5
15E63
  8
AM_0
 10
241.62297331759069
 20
413.48796985228648
 30
0.0
 11
243.62297331759069
 21
414.6426703906659
 31
0.0
  0
LINE
  5
15E64
  8
AM_0
 10
240.6229759103928
 20
425.98796985228648
 30
0.0
 11
232.6229759103928
 21
425.98796985228648
 31
0.0
  0
LINE
  5
15E65
  8
AM_0
 10
252.622974617024
 20
290.08536209817032
 30
0.0
 11
268.62297461867797
 21
290.08536209817032
 31
0.0
  0
LINE
  5
15E66
  8
AM_0
 10
252.622974617024
 20
186.05973205550541
 30
0.0
 11
268.62297461867797
 21
186.05973205550541
 31
0.0
  0
LINE
  5
15FB0
  8
AM_0
 10
556.00308481595005
 20
486.20916509099038
 30
0.0
 11
419.00308019752651
 21
486.20918043084322
 31
0.0
  0
LINE
  5
15FCE
  8
AM_0
 10
419.00308019752651
 20
486.20918043084322
 30
0.0
 11
417.00308019752703
 21
441.20916509099033
 31
0.0
  0
LINE
  5
15FCF
  8
AM_0
 10
417.00308019752703
 20
441.20916509099033
 30
0.0
 11
558.00308428044514
 21
441.20916509099033
 31
0.0
  0
LINE
  5
15FD0
  8
AM_0
 10
556.00308481595005
 20
486.20916509099038
 30
0.0
 11
558.00308428044514
 21
441.20916509099033
 31
0.0
  0
LINE
  5
160F5
  8
AM_0
 10
557.29197335814365
 20
457.20916512681282
 30
0.0
 11
417.71419106782253
 21
457.20916512681282
 31
0.0
  0
LINE
  5
160F8
  8
AM_0
 10
421.50308052535172
 20
550.79916696853661
 30
0.0
 11
438.503080525352
 21
550.79916696853661
 31
0.0
  0
LINE
  5
160F9
  8
0
 10
421.503080525352
 20
549.20916696853658
 30
0.0
 11
421.503080525352
 21
550.79916696853661
 31
0.0
  0
LINE
  5
160FA
  8
0
 10
423.50308052535189
 20
558.79916696853616
 30
0.0
 11
423.50308052535189
 21
550.79916696853661
 31
0.0
  0
LINE
  5
160FB
  8
0
 10
436.50308052535178
 20
550.79916696853661
 30
0.0
 11
436.50308052535178
 21
558.79916696853616
 31
0.0
  0
LINE
  5
160FC
  8
0
 10
438.503080525352
 20
549.20916696853658
 30
0.0
 11
438.503080525352
 21
550.79916696853661
 31
0.0
  0
LINE
  5
160FD
  8
AM_0
 10
436.50308052535178
 20
558.79916696853616
 30
0.0
 11
423.50308052535189
 21
558.79916696853627
 31
0.0
  0
LINE
  5
160FE
  8
AM_0
 10
536.50308395261902
 20
550.79916696853672
 30
0.0
 11
553.50308395261914
 21
550.79916696853672
 31
0.0
  0
LINE
  5
160FF
  8
0
 10
536.50308395261914
 20
549.20916696853658
 30
0.0
 11
536.50308395261914
 21
550.79916696853672
 31
0.0
  0
LINE
  5
16100
  8
0
 10
538.50308395261914
 20
558.79916696853627
 30
0.0
 11
538.50308395261914
 21
550.79916696853672
 31
0.0
  0
LINE
  5
16101
  8
0
 10
551.50308395261914
 20
550.79916696853672
 30
0.0
 11
551.50308395261914
 21
558.79916696853627
 31
0.0
  0
LINE
  5
16102
  8
0
 10
553.50308395261914
 20
549.20916696853658
 30
0.0
 11
553.50308395261914
 21
550.79916696853672
 31
0.0
  0
LINE
  5
16103
  8
AM_0
 10
551.50308395261914
 20
558.79916696853627
 30
0.0
 11
538.50308395261914
 21
558.79916696853661
 31
0.0
  0
LINE
  5
16176
  8
AM_0
 10
433.46125170707109
 20
441.20916509099033
 30
0.0
 11
433.46125170707109
 21
457.20916512681282
 31
0.0
  0
LINE
  5
16177
  8
AM_0
 10
541.54491277090085
 20
441.20916509099033
 30
0.0
 11
541.54491277090085
 21
457.20916512681282
 31
0.0
  0
LINE
  5
16179
  8
ﾁｭｳｼﾝｾﾝ1
 10
440.00308276052658
 20
436.20916509099038
 30
0.0
 11
440.00308276052658
 21
462.20916512681282
 31
0.0
  0
LINE
  5
1617A
  8
ﾁｭｳｼﾝｾﾝ1
 10
535.00308171727033
 20
436.20916509099038
 30
0.0
 11
535.00308171727033
 21
462.20916512681282
 31
0.0
  0
TEXT
  5
1690B
  8
AM_0
 10
104.3528243582936
 20
508.54356686357141
 30
0.0
 40
10.0
  1
VC01-007FMH~VC01-060FMH
1001
ACAD
1000
MTEXTBEGIN
1070
    73
1070
     1
1070
    44
1040
1.0
1070
    74
1070
     0
1000
MTEXTEND
  0
VIEWPORT
  5
89
 67
     1
  8
0
 10
210.0
 20
148.5
 30
0.0
 40
420.0
 41
297.0
 68
     1
 69
     1
1001
ACAD
1000
MVIEW
1002
{
1070
    16
1010
0.0
1020
0.0
1030
0.0
1010
0.0
1020
0.0
1030
1.0
1040
0.0
1040
297.0
1040
221.70154043645701
1040
148.5
1040
50.0
1040
0.0
1040
0.0
1070
     0
1070
   100
1070
     1
1070
     1
1070
     0
1070
     0
1070
     0
1070
     0
1040
0.0
1040
0.0
1040
0.0
1040
10.0
1040
10.0
1040
10.0
1040
10.0
1070
     0
1002
{
1002
}
1002
}
1001
GENIUS_GENOREF_13
1005
1B94
1001
GENIUS_GENSCREG_15
1000
PF
1040
1.0
1000
DF
1040
1.0
1000
MIN
1011
0.0
1021
0.0
1031
0.0
1021
0.0
1031
0.0
1000
MAX
1011
420.0
1021
0.0
1031
0.0
1021
297.0
1031
0.0
1000
FLAGS
1070
     4
  0
ENDSEC
  0
EOF
