  0
SECTION
  2
HEADER
  9
$ACADVER
  1
AC1009
  9
$INSBASE
 10
0.0
 20
0.0
 30
0.0
  9
$EXTMIN
 10
72.90486352227731
 20
151.87060526673599
 30
-0.0000000000112498
  9
$EXTMAX
 10
696.52924527370988
 20
567.20399207942137
 30
0.0000000000002956
  9
$LIMMIN
 10
0.0
 20
0.0
  9
$LIMMAX
 10
853.5
 20
555.00000000000011
  9
$ORTHOMODE
 70
     0
  9
$REGENMODE
 70
     1
  9
$FILLMODE
 70
     1
  9
$QTEXTMODE
 70
     0
  9
$MIRRTEXT
 70
     1
  9
$DRAGMODE
 70
     2
  9
$LTSCALE
 40
3.0
  9
$OSMODE
 70
   551
  9
$ATTMODE
 70
     1
  9
$TEXTSIZE
 40
2.5
  9
$TRACEWID
 40
1.0
  9
$TEXTSTYLE
  7
STANDARD
  9
$CLAYER
  8
AM_0
  9
$CELTYPE
  6
BYLAYER
  9
$CECOLOR
 62
   256
  9
$DIMSCALE
 40
3.0
  9
$DIMASZ
 40
2.5
  9
$DIMEXO
 40
1.0
  9
$DIMDLI
 40
7.0
  9
$DIMRND
 40
0.0
  9
$DIMDLE
 40
0.0
  9
$DIMEXE
 40
1.0
  9
$DIMTP
 40
0.1
  9
$DIMTM
 40
0.1000000001
  9
$DIMTXT
 40
2.5
  9
$DIMCEN
 40
0.0
  9
$DIMTSZ
 40
0.0
  9
$DIMTOL
 70
     0
  9
$DIMLIM
 70
     0
  9
$DIMTIH
 70
     0
  9
$DIMTOH
 70
     0
  9
$DIMSE1
 70
     0
  9
$DIMSE2
 70
     0
  9
$DIMTAD
 70
     3
  9
$DIMZIN
 70
     8
  9
$DIMBLK
  1

  9
$DIMASO
 70
     1
  9
$DIMSHO
 70
     1
  9
$DIMPOST
  1

  9
$DIMAPOST
  1
"
  9
$DIMALT
 70
     0
  9
$DIMALTD
 70
     2
  9
$DIMALTF
 40
0.0393701
  9
$DIMLFAC
 40
1.0
  9
$DIMTOFL
 70
     1
  9
$DIMTVP
 40
0.0
  9
$DIMTIX
 70
     0
  9
$DIMSOXD
 70
     0
  9
$DIMSAH
 70
     0
  9
$DIMBLK1
  1

  9
$DIMBLK2
  1

  9
$DIMSTYLE
  2
AM_JIS
  9
$DIMCLRD
 70
   256
  9
$DIMCLRE
 70
   256
  9
$DIMCLRT
 70
     4
  9
$DIMTFAC
 40
0.71
  9
$DIMGAP
 40
1.0
  9
$LUNITS
 70
     2
  9
$LUPREC
 70
     2
  9
$SKETCHINC
 40
1.0
  9
$FILLETRAD
 40
1.0
  9
$AUNITS
 70
     0
  9
$AUPREC
 70
     3
  9
$MENU
  1
.
  9
$ELEVATION
 40
0.0
  9
$PELEVATION
 40
0.0
  9
$THICKNESS
 40
0.0
  9
$LIMCHECK
 70
     0
  9
$BLIPMODE
 70
     0
  9
$CHAMFERA
 40
7.5
  9
$CHAMFERB
 40
7.5
  9
$SKPOLY
 70
     0
  9
$TDCREATE
 40
2452753.643349607
  9
$TDUPDATE
 40
2458541.698965671
  9
$TDINDWG
 40
0.3923710185
  9
$TDUSRTIMER
 40
0.3923708218
  9
$USRTIMER
 70
     1
  9
$ANGBASE
 50
0.0
  9
$ANGDIR
 70
     0
  9
$PDMODE
 70
     0
  9
$PDSIZE
 40
0.0
  9
$PLINEWID
 40
0.0
  9
$COORDS
 70
     1
  9
$SPLFRAME
 70
     0
  9
$SPLINETYPE
 70
     6
  9
$SPLINESEGS
 70
     8
  9
$ATTDIA
 70
     1
  9
$ATTREQ
 70
     1
  9
$HANDLING
 70
     1
  9
$HANDSEED
  5
1734D
  9
$SURFTAB1
 70
     6
  9
$SURFTAB2
 70
     6
  9
$SURFTYPE
 70
     6
  9
$SURFU
 70
     6
  9
$SURFV
 70
     6
  9
$UCSNAME
  2

  9
$UCSORG
 10
0.0
 20
0.0
 30
0.0
  9
$UCSXDIR
 10
1.0
 20
0.0
 30
0.0
  9
$UCSYDIR
 10
0.0
 20
1.0
 30
0.0
  9
$PUCSNAME
  2

  9
$PUCSORG
 10
0.0
 20
0.0
 30
0.0
  9
$PUCSXDIR
 10
1.0
 20
0.0
 30
0.0
  9
$PUCSYDIR
 10
0.0
 20
1.0
 30
0.0
  9
$USERI1
 70
     0
  9
$USERI2
 70
     0
  9
$USERI3
 70
     0
  9
$USERI4
 70
     0
  9
$USERI5
 70
     0
  9
$USERR1
 40
0.0
  9
$USERR2
 40
0.0
  9
$USERR3
 40
0.0
  9
$USERR4
 40
0.0
  9
$USERR5
 40
0.0
  9
$WORLDVIEW
 70
     1
  9
$SHADEDGE
 70
     3
  9
$SHADEDIF
 70
    70
  9
$TILEMODE
 70
     1
  9
$MAXACTVP
 70
    48
  9
$PLIMCHECK
 70
     0
  9
$PEXTMIN
 10
1.0000000000000000E+020
 20
1.0000000000000000E+020
 30
1.0000000000000000E+020
  9
$PEXTMAX
 10
-1.0000000000000000E+020
 20
-1.0000000000000000E+020
 30
-1.0000000000000000E+020
  9
$PLIMMIN
 10
0.0
 20
0.0
  9
$PLIMMAX
 10
420.0
 20
297.0
  9
$UNITMODE
 70
     0
  9
$VISRETAIN
 70
     1
  9
$PLINEGEN
 70
     0
  9
$PSLTSCALE
 70
     1
  0
ENDSEC
  0
SECTION
  2
TABLES
  0
TABLE
  2
VPORT
 70
     1
  0
VPORT
  2
*ACTIVE
 70
     0
 10
0.0
 20
0.0
 11
1.0
 21
1.0
 12
384.71705439799348
 22
359.53729867307868
 13
0.0
 23
0.0
 14
7.5
 24
7.5
 15
30.0
 25
30.0
 16
0.0
 26
0.0
 36
1.0
 17
0.0
 27
0.0
 37
0.0
 40
418.18464576105617
 41
1.7571592210767459
 42
50.0
 43
0.0
 44
0.0
 50
0.0
 51
0.0
 71
    16
 72
   100
 73
     1
 74
     1
 75
     0
 76
     0
 77
     0
 78
     0
  0
ENDTAB
  0
TABLE
  2
LTYPE
 70
    21
  0
LTYPE
  2
CONTINUOUS
 70
     0
  3
Solid line
 72
    65
 73
     0
 40
0.0
  0
LTYPE
  2
PHANTOM2
 70
     0
  3
Phantom (.5x) ___ _ _ ___ _ _ ___ _ _ ___ _ _
 72
    65
 73
     6
 40
31.75
 49
15.875
 49
-3.174999999999998
 49
3.174999999999998
 49
-3.174999999999998
 49
3.174999999999998
 49
-3.174999999999998
  0
LTYPE
  2
CENTER
 70
     0
  3
Center ____ _ ____ _ ____ _ ____ _ ____ _ ____
 72
    65
 73
     4
 40
50.799999999999997
 49
31.75
 49
-6.3499999999999979
 49
6.3499999999999979
 49
-6.3499999999999979
  0
LTYPE
  2
ACANSTGBM
 70
     0
  3
__ . . __ . .
 72
    65
 73
     6
 40
9.0
 49
4.0
 49
-1.0
 49
1.0
 49
-1.0
 49
1.0
 49
-1.0
  0
LTYPE
  2
ACANSTGLM
 70
     0
  3
_ _ _ _ _
 72
    65
 73
     2
 40
3.0
 49
2.0
 49
-1.0
  0
LTYPE
  2
GEN3B
 70
     0
  3
 - - - - -
 72
    65
 73
     2
 40
1.0
 49
0.5
 49
-0.5
  0
LTYPE
  2
GEN7A
 70
     0
  3
__ . __ . __
 72
    65
 73
     4
 40
7.375
 49
4.75
 49
-0.875
 49
0.875
 49
-0.875
  0
LTYPE
  2
AM_ISO02W050
 70
     0
  3
__ __ __ __ __ __ __ __ __ __ __ __ __ __ __
 72
    65
 73
     2
 40
7.5
 49
6.0
 49
-1.5
  0
LTYPE
  2
AM_ISO08W050
 70
     0
  3
____ . ____ . ____ . ____ . ____ . ____ . ____
 72
    65
 73
     4
 40
18.0
 49
12.0
 49
-1.5
 49
3.0
 49
-1.5
  0
LTYPE
  2
AM_ISO09W050
 70
     0
  3
_____ . . _____ . . _____ . . ____ .. ____
 72
    65
 73
     6
 40
22.5
 49
12.0
 49
-1.5
 49
3.0
 49
-1.5
 49
3.0
 49
-1.5
  0
LTYPE
  2
AMCONSTR
 70
     0
  3
_______________________
 72
    65
 73
     2
 40
9999.0
 49
9999.0
 49
0.0
  0
LTYPE
  2
AM_ISO02W050X2
 70
     0
  3
 _ _ _ _ _ _ _ _ _ _ _ _
 72
    65
 73
     2
 40
3.75
 49
3.0
 49
-0.75
  0
LTYPE
  2
AM_ISO08W050X2
 70
     0
  3
__ . __ . __ . __ . __ . __
 72
    65
 73
     4
 40
9.0
 49
6.0
 49
-0.75
 49
1.5
 49
-0.75
  0
LTYPE
  2
AMZIGZAG
 70
     0
  3
/\/-/\/-/\/-/\/-/\/-/\/
 72
    65
 73
     2
 40
11.0001
 49
0.0001
 49
-11.0
  0
LTYPE
  2
ACJISTGB
 70
     0
  3
__ . . __ . .
 72
    65
 73
     6
 40
9.0
 49
4.0
 49
-1.0
 49
1.0
 49
-1.0
 49
1.0
 49
-1.0
  0
LTYPE
  2
ACJISTGL
 70
     0
  3
_ _ _ _ _
 72
    65
 73
     2
 40
3.0
 49
2.0
 49
-1.0
  0
LTYPE
  2
ACISOWELD
 70
     0
  3
_ _ _ _ _
 72
    65
 73
     2
 40
2.0
 49
2.0
 49
-1.0
  0
LTYPE
  2
ACISOTGB
 70
     0
  3
__ . . __ . .
 72
    65
 73
     6
 40
9.0
 49
4.0
 49
-1.0
 49
1.0
 49
-1.0
 49
1.0
 49
-1.0
  0
LTYPE
  2
ACISOTGL
 70
     0
  3
_ _ _ _ _
 72
    65
 73
     2
 40
3.0
 49
2.0
 49
-1.0
  0
LTYPE
  2
HIDDEN
 70
     0
  3
Hidden __ __ __ __ __ __ __ __ __ __ __ __ __ _
 72
    65
 73
     2
 40
9.5249999999999968
 49
6.3499999999999979
 49
-3.174999999999998
  0
ENDTAB
  0
TABLE
  2
LAYER
 70
     9
  0
LAYER
  2
0
 70
     0
 62
     7
  6
CONTINUOUS
  0
LAYER
  2
DEFPOINTS
 70
     0
 62
     7
  6
CONTINUOUS
  0
LAYER
  2
ｷｲﾛ
 70
     0
 62
     2
  6
CONTINUOUS
  0
LAYER
  2
ｶｸﾚｾﾝ2
 70
     0
 62
     3
  6
GEN3B
  0
LAYER
  2
ﾁｭｳｼﾝｾﾝ1
 70
     0
 62
     1
  6
GEN7A
  0
LAYER
  2
AM_0
 70
     0
 62
     7
  6
CONTINUOUS
  0
LAYER
  2
AM_0N
 70
     0
 62
     7
  6
CONTINUOUS
  0
LAYER
  2
AM_5
 70
     0
 62
     2
  6
CONTINUOUS
  0
LAYER
  2
AM_4
 70
     0
 62
     2
  6
CONTINUOUS
  0
ENDTAB
  0
TABLE
  2
STYLE
 70
     8
  0
STYLE
  2
STANDARD
 70
     0
 40
0.0
 41
0.8299999999999999
 50
0.0
 71
     0
 42
2.5
  3
txt.shx
  4
bigfont.shx
  0
STYLE
  2
ACANSTS
 70
     0
 40
1.0
 41
1.0
 50
0.0
 71
     0
 42
2.5
  3
romans.shx
  4
bigfont.shx
  0
STYLE
  2
ACANSGDT
 70
     0
 40
0.0
 41
1.0
 50
0.0
 71
     0
 42
2.5
  3
amgdtans.shx
  4

  0
STYLE
  2

 70
     1
 40
0.0
 41
1.0
 50
0.0
 71
     0
 42
2.5
  3
ltypeshp.shx
  4

  0
STYLE
  2
ACJISTS
 70
     0
 40
1.0
 41
1.0
 50
0.0
 71
     0
 42
2.5
  3
isocp.shx
  4
bigfont.shx
  0
STYLE
  2
ACJISGDT
 70
     0
 40
0.0
 41
1.0
 50
0.0
 71
     0
 42
2.5
  3
amgdt.shx
  4

  0
STYLE
  2
ACISOTS
 70
     0
 40
3.0
 41
1.0
 50
0.0
 71
     0
 42
2.5
  3
isocp.shx
  4
extfont.shx
  0
STYLE
  2
ACISOGDT
 70
     0
 40
0.0
 41
1.0
 50
0.0
 71
     0
 42
2.5
  3
amgdt.shx
  4

  0
ENDTAB
  0
TABLE
  2
VIEW
 70
    12
  0
VIEW
  2
GEN1
 70
     0
 40
95.824742268041234
 10
71.5
 20
137.08762886597941
 41
143.0
 11
0.0
 21
0.0
 31
1.0
 12
0.0
 22
0.0
 32
0.0
 42
50.0
 43
0.0
 44
0.0
 50
0.0
 71
     0
  0
VIEW
  2
GEN2
 70
     0
 40
95.824742268041234
 10
214.5
 20
137.08762886597941
 41
143.0
 11
0.0
 21
0.0
 31
1.0
 12
0.0
 22
0.0
 32
0.0
 42
50.0
 43
0.0
 44
0.0
 50
0.0
 71
     0
  0
VIEW
  2
GEN3
 70
     0
 40
95.824742268041234
 10
71.5
 20
47.912371134020603
 41
143.0
 11
0.0
 21
0.0
 31
1.0
 12
0.0
 22
0.0
 32
0.0
 42
50.0
 43
0.0
 44
0.0
 50
0.0
 71
     0
  0
VIEW
  2
GEN4
 70
     0
 40
95.824742268041234
 10
214.5
 20
47.912371134020603
 41
143.0
 11
0.0
 21
0.0
 31
1.0
 12
0.0
 22
0.0
 32
0.0
 42
50.0
 43
0.0
 44
0.0
 50
0.0
 71
     0
  0
VIEW
  2
GEN5
 70
     0
 40
95.824742268041234
 10
143.0
 20
92.500000000000057
 41
143.0
 11
0.0
 21
0.0
 31
1.0
 12
0.0
 22
0.0
 32
0.0
 42
50.0
 43
0.0
 44
0.0
 50
0.0
 71
     0
  0
VIEW
  2
GEN6
 70
     0
 40
191.64756804123709
 10
143.0
 20
92.5
 41
285.99714
 11
0.0
 21
0.0
 31
1.0
 12
0.0
 22
0.0
 32
0.0
 42
50.0
 43
0.0
 44
0.0
 50
0.0
 71
     0
  0
VIEW
  2
AM_VIEW1
 70
     0
 40
277.50000000000011
 10
249.64779005524869
 20
416.25000000000011
 41
499.29558011049721
 11
0.0
 21
0.0
 31
1.0
 12
0.0
 22
0.0
 32
0.0
 42
50.0
 43
0.0
 44
0.0
 50
0.0
 71
    16
  0
VIEW
  2
AM_VIEW2
 70
     0
 40
277.50000000000011
 10
603.85220994475117
 20
416.25000000000011
 41
499.29558011049721
 11
0.0
 21
0.0
 31
1.0
 12
0.0
 22
0.0
 32
0.0
 42
50.0
 43
0.0
 44
0.0
 50
0.0
 71
    16
  0
VIEW
  2
AM_VIEW3
 70
     0
 40
277.50000000000011
 10
249.64779005524869
 20
138.75
 41
499.29558011049721
 11
0.0
 21
0.0
 31
1.0
 12
0.0
 22
0.0
 32
0.0
 42
50.0
 43
0.0
 44
0.0
 50
0.0
 71
    16
  0
VIEW
  2
AM_VIEW4
 70
     0
 40
277.50000000000011
 10
603.85220994475117
 20
138.75
 41
499.29558011049721
 11
0.0
 21
0.0
 31
1.0
 12
0.0
 22
0.0
 32
0.0
 42
50.0
 43
0.0
 44
0.0
 50
0.0
 71
    16
  0
VIEW
  2
AM_VIEW5
 70
     0
 40
277.50000000000011
 10
426.75
 20
277.50000000000011
 41
499.2955801104971
 11
0.0
 21
0.0
 31
1.0
 12
0.0
 22
0.0
 32
0.0
 42
50.0
 43
0.0
 44
0.0
 50
0.0
 71
    16
  0
VIEW
  2
AM_VIEW6
 70
     0
 40
554.99445000000014
 10
426.75
 20
277.5
 41
998.5811743093924
 11
0.0
 21
0.0
 31
1.0
 12
0.0
 22
0.0
 32
0.0
 42
50.0
 43
0.0
 44
0.0
 50
0.0
 71
    16
  0
ENDTAB
  0
TABLE
  2
UCS
 70
     0
  0
ENDTAB
  0
TABLE
  2
APPID
 70
    96
  0
APPID
  2
ACAD
 70
     0
  0
APPID
  2
MCAD_NO_VIS
 70
     0
  0
APPID
  2
ACAD_TEMP_GRAPHIC
 70
     0
  0
APPID
  2
AD_DRAW
 70
     0
  0
APPID
  2
DESIGNERASSEMBLIES
 70
     0
  0
APPID
  2
ASURF_PCURVE_APPNAME
 70
     0
  0
APPID
  2
GENIUS_GE3SECT_13
 70
     0
  0
APPID
  2
GENIUS_GENCFG_13
 70
     0
  0
APPID
  2
GENIUS_GE3CFG0_13
 70
     0
  0
APPID
  2
GENIUS_GENCFG0_13
 70
     0
  0
APPID
  2
GENIUS_GENCFG1_13
 70
     0
  0
APPID
  2
GENIUS_GENCFG2_13
 70
     0
  0
APPID
  2
GENIUS_GENCFG3_13
 70
     0
  0
APPID
  2
GENIUS_GENCFG4_13
 70
     0
  0
APPID
  2
GENIUS_GEVCFG0_13
 70
     0
  0
APPID
  2
GENIUS_GENOENT_13
 70
     0
  0
APPID
  2
GENIUS_GENREC_14
 70
     0
  0
APPID
  2
GENIUS_GENODEF_13
 70
     0
  0
APPID
  2
GENIUS_GENOBJ-N-REC_13
 70
     0
  0
APPID
  2
GENIUS_GENHINW_13
 70
     0
  0
APPID
  2
GENIUS_FIRSTVISTXT_14
 70
     0
  0
APPID
  2
GENIUS_GENOBJ-N-LEADER_13
 70
     0
  0
APPID
  2
GENIUS_GENOREF_13
 70
     0
  0
APPID
  2
GENIUS_GENOLIS_13
 70
     0
  0
APPID
  2
GEV_VCCNULL_SWITCH_OFF
 70
     0
  0
APPID
  2
GENIUS_GENDTOL_13
 70
     0
  0
APPID
  2
GENIUS_GEFCFG0_13
 70
     0
  0
APPID
  2
GENIUS_GENOBJ-N-TIT_13
 70
     0
  0
APPID
  2
GENIUS_GENTITLE_13
 70
     0
  0
APPID
  2
GENIUS_GENZVEED_13
 70
     0
  0
APPID
  2
GENIUS_GENOBJ-N-SDF_13
 70
     0
  0
APPID
  2
GENIUS_GENSCREG_13
 70
     0
  0
APPID
  2
GENIUS_DUMCFG0_13
 70
     0
  0
APPID
  2
GEVID936201362
 70
     0
  0
APPID
  2
GEVDC
 70
     0
  0
APPID
  2
GEVCON
 70
     0
  0
APPID
  2
VCC
 70
     0
  0
APPID
  2
GEVPT
 70
     0
  0
APPID
  2
GEVIT
 70
     0
  0
APPID
  2
GENBH
 70
     0
  0
APPID
  2
GEVMK
 70
     0
  0
APPID
  2
GENIUS_GENBH_13
 70
     0
  0
APPID
  2
GENIUS_GENOBJ-NBEHI-BHF_13
 70
     0
  0
APPID
  2
GENIUS_GENOBJ-NBEHI-BHB_13
 70
     0
  0
APPID
  2
GENIUS_GENOBJ-F-DESC_13
 70
     0
  0
APPID
  2
GENIUS_GEFDESC_14
 70
     0
  0
APPID
  2
GENIUS_GENOBJ-F-PART_13
 70
     0
  0
APPID
  2
GENIUS_GEFSTDP_13
 70
     0
  0
APPID
  2
GENIUS_GEFPARTINS_13
 70
     0
  0
APPID
  2
GENIUS_GENTRA_14
 70
     0
  0
APPID
  2
GENIUS_GENINF13_13
 70
     0
  0
APPID
  2
GENIUS_GENOBJ-N-INFOPT_13
 70
     0
  0
APPID
  2
GENIUS_GENOBJ-N-RSSYM_13
 70
     0
  0
APPID
  2
GENIUS_GENSYMENT_13
 70
     0
  0
APPID
  2
GENIUS_GENSCSYM_13
 70
     0
  0
APPID
  2
GENIUS_GEFINFNAM_13
 70
     0
  0
APPID
  2
GENIUS_GENSCREG_15
 70
     0
  0
APPID
  2
GENIUS_GENOBJ-N-CEN_13
 70
     0
  0
APPID
  2
GENIUS_GENOBJ-N-CRS_13
 70
     0
  0
APPID
  2
GENIUS_GENOBJ-N-CRC_13
 70
     0
  0
APPID
  2
GENIUS_GENCRC_14
 70
     0
  0
APPID
  2
GEVID942827039
 70
     0
  0
APPID
  2
GEVID942827040
 70
     0
  0
APPID
  2
GEVID942827041
 70
     0
  0
APPID
  2
GENIUS_GENOBJ-F-SCPASSM_13
 70
     0
  0
APPID
  2
GENIUS_GENDIMSH_14
 70
     0
  0
APPID
  2
GENIUS_GENFIL_13
 70
     0
  0
APPID
  2
GENIUS_GENOBJ-N-CHA_13
 70
     0
  0
APPID
  2
GENIUS_GENOBJ-N-FIL_13
 70
     0
  0
APPID
  2
GEVID942827042
 70
     0
  0
APPID
  2
GEVID946020473
 70
     0
  0
APPID
  2
GEVID946020474
 70
     0
  0
APPID
  2
GEVID946020475
 70
     0
  0
APPID
  2
GENIUS_GENOBJ-N-HTC_13
 70
     0
  0
APPID
  2
GENIUS_GENHATCH_13
 70
     0
  0
APPID
  2
GEVID948854295
 70
     0
  0
APPID
  2
GEVID939402019
 70
     0
  0
APPID
  2
GEVID952919491
 70
     0
  0
APPID
  2
GEVID952919492
 70
     0
  0
APPID
  2
GENIUS_GEFWELD_13
 70
     0
  0
APPID
  2
GENIUS_GENOBJ-F-WELS_13
 70
     0
  0
APPID
  2
GEVID952919493
 70
     0
  0
APPID
  2
GENIUS_GENOBJ-N-RSBK_13
 70
     0
  0
APPID
  2
GENIUS_GENOBJ-N-LIB_13
 70
     0
  0
APPID
  2
GENIUS_GENSCALE_13
 70
     0
  0
APPID
  2
GEVID986376691
 70
     0
  0
APPID
  2
ACATTRIBSERVICES
 70
     0
  0
APPID
  2
DCO15
 70
     0
  0
APPID
  2
ACADM_DIM_EDIT
 70
     0
  0
APPID
  2
AMDT_DM_ADJ
 70
     0
  0
APPID
  2
ACAD_MLEADERVER
 70
     0
  0
APPID
  2
ACAD_DSTYLE_DIMBREAK
 70
     0
  0
APPID
  2
ACAD_DSTYLE_DIMJAG
 70
     0
  0
APPID
  2
ACAD_NAV_VCDISPLAY
 70
     0
  0
APPID
  2
ACADANNOPO
 70
     0
  0
APPID
  2
ACAD_EXEMPT_FROM_CAD_STANDARDS
 70
     0
  0
ENDTAB
  0
TABLE
  2
DIMSTYLE
 70
    15
  0
DIMSTYLE
  2
STANDARD
 70
     0
  3

  4

  5

  6

  7

 40
1.0
 41
0.18
 42
0.0625
 43
0.38
 44
0.18
 45
0.0
 46
0.0
 47
0.0
 48
0.0
140
0.18
141
0.09
142
0.0
143
25.399999999999999
144
1.0
145
0.0
146
1.0
147
0.09
 71
     0
 72
     0
 73
     1
 74
     1
 75
     0
 76
     0
 77
     0
 78
     0
170
     0
171
     2
172
     0
173
     0
174
     0
175
     0
176
     0
177
     0
178
     0
  0
DIMSTYLE
  2
AM_JIS
 70
     0
  3

  4
"
  5

  6

  7

 40
1.0
 41
2.5
 42
1.0
 43
7.0
 44
1.0
 45
0.0
 46
0.0
 47
0.1
 48
0.1000000001
140
2.5
141
0.0
142
0.0
143
0.0393701
144
1.0
145
0.0
146
0.71
147
1.0
 71
     0
 72
     0
 73
     0
 74
     0
 75
     0
 76
     0
 77
     3
 78
     8
170
     0
171
     2
172
     1
173
     0
174
     0
175
     0
176
   256
177
   256
178
     4
  0
DIMSTYLE
  2
AM_JIS$3
 70
     0
  3

  4
"
  5

  6

  7

 40
1.0
 41
2.5
 42
1.0
 43
7.0
 44
1.0
 45
0.0
 46
0.0
 47
0.1
 48
0.1000000001
140
2.5
141
0.0
142
0.0
143
0.0393701
144
1.0
145
0.0
146
0.71
147
1.0
 71
     0
 72
     0
 73
     0
 74
     1
 75
     0
 76
     0
 77
     3
 78
     8
170
     0
171
     2
172
     0
173
     0
174
     0
175
     0
176
   256
177
   256
178
     4
  0
DIMSTYLE
  2
AM_JIS$4
 70
     0
  3

  4
"
  5

  6

  7

 40
1.0
 41
2.5
 42
1.0
 43
7.0
 44
1.0
 45
0.0
 46
0.0
 47
0.1
 48
0.1000000001
140
2.5
141
0.0
142
0.0
143
0.0393701
144
1.0
145
0.0
146
0.71
147
1.0
 71
     0
 72
     0
 73
     0
 74
     0
 75
     0
 76
     0
 77
     3
 78
     8
170
     0
171
     2
172
     0
173
     0
174
     0
175
     0
176
   256
177
   256
178
     4
  0
DIMSTYLE
  2
AM_JIS$6
 70
     0
  3

  4
"
  5

  6

  7

 40
1.0
 41
2.5
 42
1.0
 43
7.0
 44
1.0
 45
0.0
 46
0.0
 47
0.1
 48
0.1000000001
140
2.5
141
0.0
142
0.0
143
0.0393701
144
1.0
145
0.0
146
0.71
147
1.0
 71
     0
 72
     0
 73
     0
 74
     0
 75
     0
 76
     0
 77
     0
 78
     8
170
     0
171
     2
172
     1
173
     0
174
     0
175
     0
176
   256
177
   256
178
     4
  0
DIMSTYLE
  2
AM_JIS$7
 70
     0
  3

  4
"
  5

  6

  7

 40
1.0
 41
2.5
 42
1.0
 43
7.0
 44
1.0
 45
0.0
 46
0.0
 47
0.1
 48
0.1000000001
140
2.5
141
0.0
142
0.0
143
0.0393701
144
1.0
145
0.0
146
0.71
147
1.0
 71
     0
 72
     0
 73
     0
 74
     0
 75
     0
 76
     0
 77
     3
 78
     8
170
     0
171
     2
172
     1
173
     0
174
     0
175
     0
176
   256
177
   256
178
     4
  0
DIMSTYLE
  2
AM_JIS$SF
 70
     0
  3

  4
"
  5
OPEN30
  6
OPEN30
  7
OPEN30
 40
1.0
 41
2.5
 42
1.0
 43
10.0
 44
1.0
 45
0.0
 46
0.0
 47
0.1
 48
0.1
140
3.5
141
0.0
142
0.0
143
0.0393701
144
1.0
145
0.0
146
0.71
147
1.5
 71
     0
 72
     0
 73
     0
 74
     0
 75
     1
 76
     1
 77
     3
 78
     8
170
     0
171
     2
172
     1
173
     0
174
     0
175
     0
176
   256
177
   256
178
     4
  0
DIMSTYLE
  2
AM_JIS$SH
 70
     0
  3

  4
"
  5

  6
NONE
  7

 40
1.0
 41
2.5
 42
1.0
 43
10.0
 44
1.0
 45
0.0
 46
0.0
 47
0.1
 48
0.1
140
3.5
141
0.0
142
0.0
143
0.0393701
144
1.0
145
0.0
146
0.71
147
1.5
 71
     0
 72
     0
 73
     0
 74
     0
 75
     1
 76
     0
 77
     3
 78
     8
170
     0
171
     2
172
     1
173
     1
174
     0
175
     0
176
   256
177
   256
178
     4
  0
DIMSTYLE
  2
AM_ISO
 70
     0
  3

  4
"
  5

  6

  7

 40
1.0
 41
2.5
 42
1.0
 43
10.0
 44
1.0
 45
0.0
 46
0.0
 47
0.0
 48
0.000000001
140
3.0
141
0.0
142
0.0
143
0.0393701
144
1.0
145
0.0
146
0.71
147
1.299999999999998
 71
     1
 72
     0
 73
     0
 74
     0
 75
     0
 76
     0
 77
     1
 78
     8
170
     0
171
     2
172
     1
173
     0
174
     0
175
     0
176
   256
177
   256
178
     4
  0
DIMSTYLE
  2
AM_ISO$3
 70
     0
  3

  4
"
  5

  6

  7

 40
1.0
 41
2.5
 42
1.0
 43
10.0
 44
1.0
 45
0.0
 46
0.0
 47
0.0
 48
0.000000001
140
2.5
141
0.0
142
0.0
143
0.0393701
144
1.0
145
0.0
146
0.71
147
1.299999999999998
 71
     1
 72
     0
 73
     0
 74
     1
 75
     0
 76
     0
 77
     1
 78
     8
170
     0
171
     2
172
     0
173
     0
174
     0
175
     0
176
   256
177
   256
178
     4
  0
DIMSTYLE
  2
AM_ISO$4
 70
     0
  3

  4
"
  5

  6

  7

 40
1.0
 41
2.5
 42
1.0
 43
10.0
 44
1.0
 45
0.0
 46
0.0
 47
0.0
 48
0.000000001
140
2.5
141
0.0
142
0.0
143
0.0393701
144
1.0
145
0.0
146
0.71
147
1.299999999999998
 71
     1
 72
     0
 73
     0
 74
     1
 75
     0
 76
     0
 77
     1
 78
     8
170
     0
171
     2
172
     0
173
     0
174
     0
175
     0
176
   256
177
   256
178
     4
  0
DIMSTYLE
  2
AM_ISO$6
 70
     0
  3

  4
"
  5

  6

  7

 40
1.0
 41
2.5
 42
1.0
 43
10.0
 44
1.0
 45
0.0
 46
0.0
 47
0.0
 48
0.000000001
140
2.5
141
0.0
142
0.0
143
0.0393701
144
1.0
145
0.0
146
0.71
147
1.299999999999998
 71
     1
 72
     0
 73
     0
 74
     0
 75
     0
 76
     0
 77
     0
 78
     8
170
     0
171
     2
172
     1
173
     0
174
     0
175
     0
176
   256
177
   256
178
     4
  0
DIMSTYLE
  2
AM_ISO$7
 70
     0
  3

  4
"
  5

  6

  7

 40
1.0
 41
2.5
 42
1.0
 43
10.0
 44
1.0
 45
0.0
 46
0.0
 47
0.0
 48
0.000000001
140
2.5
141
0.0
142
0.0
143
0.0393701
144
1.0
145
0.0
146
0.71
147
1.299999999999998
 71
     1
 72
     0
 73
     0
 74
     0
 75
     0
 76
     0
 77
     1
 78
     8
170
     0
171
     2
172
     1
173
     0
174
     0
175
     0
176
   256
177
   256
178
     4
  0
DIMSTYLE
  2
AM_ISO$SF
 70
     0
  3

  4
"
  5

  6

  7

 40
1.0
 41
2.5
 42
1.0
 43
10.0
 44
1.0
 45
0.0
 46
0.0
 47
0.1
 48
0.1
140
3.5
141
0.0
142
0.0
143
0.0393701
144
1.0
145
0.0
146
0.71
147
1.5
 71
     0
 72
     0
 73
     0
 74
     0
 75
     1
 76
     1
 77
     1
 78
     8
170
     0
171
     2
172
     1
173
     0
174
     0
175
     0
176
   256
177
   256
178
     4
  0
DIMSTYLE
  2
AM_ISO$SH
 70
     0
  3

  4
"
  5

  6
GENAXEH
  7

 40
1.0
 41
2.5
 42
1.0
 43
10.0
 44
1.0
 45
0.0
 46
0.0
 47
0.1
 48
0.1
140
3.5
141
0.0
142
0.0
143
0.0393701
144
2.0
145
0.0
146
0.71
147
1.5
 71
     0
 72
     0
 73
     0
 74
     0
 75
     1
 76
     1
 77
     1
 78
     8
170
     0
171
     2
172
     1
173
     1
174
     0
175
     0
176
   256
177
   256
178
     4
  0
ENDTAB
  0
ENDSEC
  0
SECTION
  2
BLOCKS
  0
BLOCK
  8
0
  2
$MODEL_SPACE
 70
     0
 10
0.0
 20
0.0
 30
0.0
  3
$MODEL_SPACE
  1

  0
ENDBLK
  5
1A
  8
0
  0
BLOCK
 67
     1
  8
0
  2
$PAPER_SPACE
 70
     0
 10
0.0
 20
0.0
 30
0.0
  3
$PAPER_SPACE
  1

  0
ENDBLK
  5
17
 67
     1
  8
0
  0
BLOCK
  8
0
  2
_OPEN30
 70
     0
 10
0.0
 20
0.0
 30
0.0
  3
_OPEN30
  1

  0
LINE
  5
21C5
  8
0
 62
     0
 10
-1.0
 20
0.26794919
 30
0.0
 11
0.0
 21
0.0
 31
0.0
  0
LINE
  5
21C6
  8
0
 62
     0
 10
0.0
 20
0.0
 30
0.0
 11
-1.0
 21
-0.26794919
 31
0.0
  0
LINE
  5
21C7
  8
0
 62
     0
 10
0.0
 20
0.0
 30
0.0
 11
-1.0
 21
0.0
 31
0.0
  0
ENDBLK
  5
21C9
  8
0
  0
BLOCK
  8
0
  2
GENAXEH
 70
     0
 10
0.0
 20
0.0
 30
0.0
  3
GENAXEH
  1

  0
LINE
  5
21D0
  8
0
 10
-1.0
 20
0.0
 30
0.0
 11
1.0
 21
0.0
 31
0.0
  0
ENDBLK
  5
21D2
  8
0
  0
BLOCK
  8
0
  2
_NONE
 70
     0
 10
0.0
 20
0.0
 30
0.0
  3
_NONE
  1

  0
ENDBLK
  5
8193
  8
0
  0
ENDSEC
  0
SECTION
  2
ENTITIES
  0
POINT
  5
1B94
  8
0
 10
0.0
 20
0.0
 30
0.0
1001
GENIUS_GENODEF_13
1002
{
1000
HIER
1070
     1
1002
}
1002
{
1000
MANEDIT
1070
     0
1002
}
1002
{
1000
NOSEL
1070
     0
1002
}
1002
{
1000
BEHIND
1070
     0
1002
}
1002
{
1000
REACTOR
1002
}
1001
GENIUS_GENOBJ-N-SDF_13
1002
{
1000
OWNER
1000
GEN
1002
}
1001
GENIUS_GENOENT_13
1002
{
1000
MYREF
1005
1B94
1002
}
1002
{
1000
GRP
1005
0
1002
}
1001
GENIUS_GENOLIS_13
1002
{
1000
ENT
1005
89
1002
}
  0
LINE
  5
1500E
  8
AM_0
 10
462.49763277554558
 20
299.87951144231232
 30
0.0
 11
394.83497856685022
 21
299.87951144231249
 31
0.0
  0
ARC
  5
1500F
  8
0
 10
464.49761879825559
 20
414.05456574958049
 30
0.0
 40
112.1750543072711
 50
245.53408066714121
 51
267.9923002767668
  0
ARC
  5
15010
  8
0
 10
464.49761879825559
 20
414.05456574958049
 30
0.0
 40
108.1750543072711
 50
245.7481492359598
 51
294.25185076404
  0
ARC
  5
15011
  8
0
 10
464.49761879825559
 20
73.704457135044436
 30
0.0
 40
112.1750543072711
 50
92.007699723233188
 51
114.4659193328587
  0
LINE
  5
15012
  8
AM_0
 10
462.49763277554558
 20
187.87951144231249
 30
0.0
 11
394.83497856685022
 21
187.87951144231249
 31
0.0
  0
ARC
  5
15013
  8
0
 10
464.49761879825559
 20
73.704457135044436
 30
0.0
 40
108.1750543072711
 50
65.7481492359599
 51
114.2518507640401
  0
LINE
  5
15014
  8
AM_0
 10
423.69454257731059
 20
160.87951144231289
 30
0.0
 11
505.30069501920048
 21
160.87951144231289
 31
0.0
  0
LINE
  5
15015
  8
AM_0
 10
423.69454257731059
 20
326.87951144231249
 30
0.0
 11
505.30069501920082
 21
326.87951144231249
 31
0.0
  0
LINE
  5
15016
  8
AM_0
 10
408.9976041206113
 20
156.8795114423132
 30
0.0
 11
519.99763347589965
 21
156.87951144231289
 31
0.0
  0
LINE
  5
15017
  8
AM_0
 10
408.9976041206113
 20
330.87951144231249
 30
0.0
 11
519.99763347589965
 21
330.87951144231272
 31
0.0
  0
CIRCLE
  5
15018
  8
0
 10
444.99763347589982
 20
243.87951144231249
 30
0.0
 40
39.0
  0
LINE
  5
15019
  8
ﾁｭｳｼﾝｾﾝ1
 10
558.99763176226656
 20
243.87951144231249
 30
0.0
 11
380.49763176226702
 21
243.87951144231249
 31
0.0
  0
CIRCLE
  5
1501F
  8
AM_0
 10
444.99763347589982
 20
243.87951144231241
 30
0.0
 40
19.999800629214029
  0
LINE
  5
15041
  8
ﾁｭｳｼﾝｾﾝ1
 10
176.7894870535595
 20
164.2139251157206
 30
0.0
 11
176.78948759886831
 21
323.5450978150426
 31
0.0
  0
LINE
  5
15044
  8
AM_0
 10
127.7894860753788
 20
281.37913760078447
 30
0.0
 11
127.7894860753788
 21
206.3798853656327
 31
0.0
  0
LINE
  5
15046
  8
AM_0
 10
131.78948619458811
 20
185.10196030584211
 30
0.0
 11
131.78948619458811
 21
302.65709317784911
 31
0.0
  0
LINE
  5
15047
  8
AM_0
 10
201.78948828074979
 20
183.8801096950873
 30
0.0
 11
201.78948828074979
 21
303.87891327132991
 31
0.0
  0
LINE
  5
15048
  8
0
 10
246.7894870970988
 20
156.8795105231282
 30
0.0
 11
246.78948759406239
 21
330.87951052312781
 31
0.0
  0
ARC
  5
1504C
  8
AM_0
 10
176.7894875403635
 20
260.37951097300981
 30
0.0
 40
56.499999999999972
 50
152.02943984642619
 51
200.27287146590351
  0
LINE
  5
1504D
  8
AM_0
 10
389.49763176226702
 20
293.37901791751239
 30
0.0
 11
389.49763176226702
 21
194.38000496711251
 31
0.0
  0
LINE
  5
1504E
  8
AM_0
 10
385.49763176226702
 20
293.37901791751239
 30
0.0
 11
385.49763176226702
 21
194.380004967113
 31
0.0
  0
LINE
  5
15052
  8
AM_0
 10
148.28948740242569
 20
170.87951096148331
 30
0.0
 11
205.28948740242569
 21
170.87951096148291
 31
0.0
  0
LINE
  5
15053
  8
AM_0
 10
194.0932874024258
 20
167.87951096148291
 30
0.0
 11
159.48558740242581
 21
167.87951096148311
 31
0.0
  0
LINE
  5
15054
  8
ﾁｭｳｼﾝｾﾝ1
 10
251.7894873455806
 20
243.87951144531581
 30
0.0
 11
113.8085111858687
 21
243.87951148223189
 31
0.0
  0
LINE
  5
15056
  8
AM_0
 10
201.78948828074979
 20
183.8801096950873
 30
0.0
 11
131.78948619458811
 21
185.10196030584211
 31
0.0
  0
LINE
  5
15058
  8
ﾁｭｳｼﾝｾﾝ1
 10
235.78948738268491
 20
260.37951142666401
 30
0.0
 11
117.7894873826849
 21
260.37951147761981
 31
0.0
  0
LINE
  5
15060
  8
AM_0
 10
130.19948619458791
 20
185.88000501396851
 30
0.0
 11
130.19948619458819
 21
202.88000501396871
 31
0.0
  0
LINE
  5
15061
  8
0
 10
122.1994861945883
 20
200.8800050139686
 30
0.0
 11
122.1994861945883
 21
187.88000501396871
 31
0.0
  0
LINE
  5
15062
  8
AM_0
 10
145.28948740242569
 20
175.87951096148331
 30
0.0
 11
143.78948740242569
 21
175.87951096148331
 31
0.0
  0
LINE
  5
15063
  8
0
 10
122.1994861945883
 20
187.88000501396871
 30
0.0
 11
130.19948619458819
 21
187.88000501396871
 31
0.0
  0
LINE
  5
15064
  8
AM_0
 10
143.78948740242569
 20
175.87951096148331
 30
0.0
 11
143.78948740242569
 21
184.89191156137181
 31
0.0
  0
LINE
  5
15065
  8
0
 10
131.78948619458811
 20
185.88000501396851
 30
0.0
 11
130.19948619458819
 21
185.88000501396851
 31
0.0
  0
LINE
  5
15066
  8
AM_0
 10
159.48558740242581
 20
167.87951096148311
 30
0.0
 11
154.28948740242569
 21
170.87951096148311
 31
0.0
  0
LINE
  5
15067
  8
AM_0
 10
145.28948740242569
 20
174.87951096148331
 30
0.0
 11
145.28948740242569
 21
184.86572878723661
 31
0.0
  0
LINE
  5
15068
  8
AM_0
 10
146.78948740242569
 20
184.83954601310151
 30
0.0
 11
146.78948740242569
 21
172.37951096148331
 31
0.0
  0
LINE
  5
15069
  8
AM_0
 10
146.78948740242569
 20
174.87951096148331
 30
0.0
 11
145.28948740242569
 21
174.87951096148331
 31
0.0
  0
ARC
  5
1506A
  8
AM_0
 10
148.28948740242589
 20
172.37951096148299
 30
0.0
 40
1.5
 50
180.0
 51
270.0
  0
LINE
  5
1506C
  8
AM_0
 10
123.7894859561697
 20
263.87931207924919
 30
0.0
 11
123.7894859561697
 21
223.8797108871683
 31
0.0
  0
LINE
  5
1506D
  8
AM_0
 10
122.78948754036379
 20
226.47255958415269
 30
0.0
 11
122.7894875403635
 21
234.20798011184499
 31
0.0
  0
LINE
  5
1506E
  8
AM_0
 10
127.7894860753788
 20
206.3798853656327
 30
0.0
 11
131.78948619458811
 21
206.3798853656327
 31
0.0
  0
LINE
  5
1506F
  8
0
 10
130.19948619458819
 20
200.8800050139686
 30
0.0
 11
122.1994861945883
 21
200.8800050139686
 31
0.0
  0
LINE
  5
15070
  8
0
 10
131.78948619458811
 20
202.88000501396871
 30
0.0
 11
130.19948619458819
 21
202.88000501396871
 31
0.0
  0
LINE
  5
15071
  8
AM_0
 10
123.7894859561697
 20
223.8797108871683
 30
0.0
 11
127.7894860753788
 21
223.8797108871683
 31
0.0
  0
ARC
  5
15072
  8
AM_0
 10
121.514515664236
 20
225.35480197731971
 30
0.0
 40
0.9999999999999996
 50
198.56658080190309
 51
267.99999999999631
1001
GENIUS_GENODEF_13
1002
{
1000
HIER
1070
     0
1002
}
1002
{
1000
MANEDIT
1070
     0
1002
}
1002
{
1000
NOSEL
1070
     0
1002
}
1002
{
1000
BEHIND
1070
     0
1002
}
1002
{
1000
REACTOR
1002
}
1001
GENIUS_GENOBJ-N-FIL_13
1002
{
1000
OWNER
1000
GEN
1002
}
  0
ARC
  5
15073
  8
AM_0
 10
121.490431759896
 20
225.42658601238699
 30
0.0
 40
0.9999999999999996
 50
92.000000000003695
 51
198.52714231446831
1001
GENIUS_GENODEF_13
1002
{
1000
HIER
1070
     0
1002
}
1002
{
1000
MANEDIT
1070
     0
1002
}
1002
{
1000
NOSEL
1070
     0
1002
}
1002
{
1000
BEHIND
1070
     0
1002
}
1002
{
1000
REACTOR
1002
}
1001
GENIUS_GENOBJ-N-FIL_13
1002
{
1000
OWNER
1000
GEN
1002
}
  0
ARC
  5
15074
  8
AM_0
 10
225.78948754036361
 20
260.37951097300981
 30
0.0
 40
110.9999999999999
 50
198.52714231446831
 51
198.56658080189609
  0
LINE
  5
15075
  8
AM_0
 10
121.45553226319311
 20
226.42597683940639
 30
0.0
 11
123.7894875403635
 21
226.50748035364461
 31
0.0
  0
LINE
  5
15076
  8
AM_0
 10
121.47961616753361
 20
224.35541115030071
 30
0.0
 11
123.78948754036379
 21
224.27474866453451
 31
0.0
  0
ARC
  5
15077
  8
AM_0
 10
115.90156373248929
 20
255.4152183552462
 30
0.0
 40
0.9999999999999996
 50
92.000000000003695
 51
182.58663322877331
1001
GENIUS_GENODEF_13
1002
{
1000
HIER
1070
     0
1002
}
1002
{
1000
MANEDIT
1070
     0
1002
}
1002
{
1000
NOSEL
1070
     0
1002
}
1002
{
1000
BEHIND
1070
     0
1002
}
1002
{
1000
REACTOR
1002
}
1001
GENIUS_GENOBJ-N-FIL_13
1002
{
1000
OWNER
1000
GEN
1002
}
  0
ARC
  5
15078
  8
AM_0
 10
116.821127854094
 20
245.34965444396229
 30
0.0
 40
0.9999999999999996
 50
187.853178088806
 51
268.0000000000029
1001
GENIUS_GENODEF_13
1002
{
1000
HIER
1070
     0
1002
}
1002
{
1000
MANEDIT
1070
     0
1002
}
1002
{
1000
NOSEL
1070
     0
1002
}
1002
{
1000
BEHIND
1070
     0
1002
}
1002
{
1000
REACTOR
1002
}
1001
GENIUS_GENOBJ-N-FIL_13
1002
{
1000
OWNER
1000
GEN
1002
}
  0
LINE
  5
15079
  8
AM_0
 10
118.6395178428247
 20
234.35290024705029
 30
0.0
 11
123.7894875403635
 21
234.17305934235321
 31
0.0
  0
LINE
  5
1507A
  8
AM_0
 10
118.62318310850191
 20
236.42169689605399
 30
0.0
 11
123.7894875403635
 21
236.60210822224329
 31
0.0
  0
LINE
  5
1507B
  8
AM_0
 10
116.78622835739129
 20
244.35026361694361
 30
0.0
 11
122.6721926943404
 21
244.1447212130962
 31
0.0
  0
ARC
  5
1507C
  8
AM_0
 10
118.67441733952739
 20
235.35229107406931
 30
0.0
 40
0.9999999999999996
 50
193.15111826064839
 51
268.0000000000029
1001
GENIUS_GENODEF_13
1002
{
1000
HIER
1070
     0
1002
}
1002
{
1000
MANEDIT
1070
     0
1002
}
1002
{
1000
NOSEL
1070
     0
1002
}
1002
{
1000
BEHIND
1070
     0
1002
}
1002
{
1000
REACTOR
1002
}
1001
GENIUS_GENOBJ-N-FIL_13
1002
{
1000
OWNER
1000
GEN
1002
}
  0
ARC
  5
1507D
  8
AM_0
 10
118.6580826052046
 20
235.4223060690347
 30
0.0
 40
0.9999999999999996
 50
92.000000000003695
 51
193.11367014329889
1001
GENIUS_GENODEF_13
1002
{
1000
HIER
1070
     0
1002
}
1002
{
1000
MANEDIT
1070
     0
1002
}
1002
{
1000
NOSEL
1070
     0
1002
}
1002
{
1000
BEHIND
1070
     0
1002
}
1002
{
1000
REACTOR
1002
}
1001
GENIUS_GENOBJ-N-FIL_13
1002
{
1000
OWNER
1000
GEN
1002
}
  0
ARC
  5
1507E
  8
AM_0
 10
225.78948754036361
 20
260.37951097300981
 30
0.0
 40
110.9999999999999
 50
193.11367014329889
 51
193.15111826064839
  0
LINE
  5
1507F
  8
AM_0
 10
116.7767462050178
 20
246.41795302691611
 30
0.0
 11
121.9955053709436
 21
246.60019611278261
 31
0.0
  0
LINE
  5
15080
  8
AM_0
 10
115.8697744142469
 20
254.34745349411119
 30
0.0
 11
120.6305078192528
 21
254.18120502026329
 31
0.0
  0
ARC
  5
15081
  8
AM_0
 10
225.78948754036361
 20
260.37951097300981
 30
0.0
 40
110.9999999999999
 50
187.81694783169451
 51
187.853178088806
  0
ARC
  5
15082
  8
AM_0
 10
116.81164570172049
 20
245.41856219989711
 30
0.0
 40
0.9999999999999996
 50
92.000000000003695
 51
187.816947831688
1001
GENIUS_GENODEF_13
1002
{
1000
HIER
1070
     0
1002
}
1002
{
1000
MANEDIT
1070
     0
1002
}
1002
{
1000
NOSEL
1070
     0
1002
}
1002
{
1000
BEHIND
1070
     0
1002
}
1002
{
1000
REACTOR
1002
}
1001
GENIUS_GENOBJ-N-FIL_13
1002
{
1000
OWNER
1000
GEN
1002
}
  0
ARC
  5
15083
  8
AM_0
 10
115.9046739109495
 20
255.34684432113011
 30
0.0
 40
0.9999999999999996
 50
182.62228408795289
 51
267.99999999999631
1001
GENIUS_GENODEF_13
1002
{
1000
HIER
1070
     0
1002
}
1002
{
1000
MANEDIT
1070
     0
1002
}
1002
{
1000
NOSEL
1070
     0
1002
}
1002
{
1000
BEHIND
1070
     0
1002
}
1002
{
1000
REACTOR
1002
}
1001
GENIUS_GENOBJ-N-FIL_13
1002
{
1000
OWNER
1000
GEN
1002
}
  0
ARC
  5
15084
  8
AM_0
 10
225.78948754036361
 20
260.37951097300981
 30
0.0
 40
110.9999999999999
 50
182.58663322877331
 51
182.62228408795289
  0
LINE
  5
15085
  8
AM_0
 10
115.8666642357864
 20
256.41460918226528
 30
0.0
 11
120.4178228635604
 21
256.57353914362631
 31
0.0
  0
LINE
  5
15086
  8
AM_0
 10
115.8666642357864
 20
264.34441276375389
 30
0.0
 11
120.4178228635604
 21
264.18548280239332
 31
0.0
  0
LINE
  5
15087
  8
AM_0
 10
115.8697744142469
 20
266.41156845190818
 30
0.0
 11
120.6305078192528
 21
266.57781692575611
 31
0.0
  0
ARC
  5
15088
  8
AM_0
 10
115.9046739109495
 20
265.41217762488913
 30
0.0
 40
0.9999999999999996
 50
92.000000000003695
 51
177.37771591204699
1001
GENIUS_GENODEF_13
1002
{
1000
HIER
1070
     0
1002
}
1002
{
1000
MANEDIT
1070
     0
1002
}
1002
{
1000
NOSEL
1070
     0
1002
}
1002
{
1000
BEHIND
1070
     0
1002
}
1002
{
1000
REACTOR
1002
}
1001
GENIUS_GENOBJ-N-FIL_13
1002
{
1000
OWNER
1000
GEN
1002
}
  0
ARC
  5
15089
  8
AM_0
 10
225.78948754036361
 20
260.37951097300981
 30
0.0
 40
110.9999999999999
 50
177.37771591204699
 51
177.41336677122669
  0
ARC
  5
1508A
  8
AM_0
 10
115.90156373248929
 20
265.34380359077278
 30
0.0
 40
0.9999999999999996
 50
177.41336677122669
 51
267.99999999999631
1001
GENIUS_GENODEF_13
1002
{
1000
HIER
1070
     0
1002
}
1002
{
1000
MANEDIT
1070
     0
1002
}
1002
{
1000
NOSEL
1070
     0
1002
}
1002
{
1000
BEHIND
1070
     0
1002
}
1002
{
1000
REACTOR
1002
}
1001
GENIUS_GENOBJ-N-FIL_13
1002
{
1000
OWNER
1000
GEN
1002
}
  0
LINE
  5
1508B
  8
AM_0
 10
123.7894859561697
 20
263.87931207924919
 30
0.0
 11
127.7894860753788
 21
263.87931207924919
 31
0.0
  0
LINE
  5
1508C
  8
AM_0
 10
116.7767462050178
 20
274.34106891910312
 30
0.0
 11
121.9955053709436
 21
274.15882583323707
 31
0.0
  0
LINE
  5
1508D
  8
AM_0
 10
116.78622835739129
 20
276.40875832907602
 30
0.0
 11
122.6721926943404
 21
276.6143007329232
 31
0.0
  0
ARC
  5
1508E
  8
AM_0
 10
116.81164570172049
 20
275.34045974612229
 30
0.0
 40
0.9999999999999996
 50
172.183052168312
 51
267.99999999999631
1001
GENIUS_GENODEF_13
1002
{
1000
HIER
1070
     0
1002
}
1002
{
1000
MANEDIT
1070
     0
1002
}
1002
{
1000
NOSEL
1070
     0
1002
}
1002
{
1000
BEHIND
1070
     0
1002
}
1002
{
1000
REACTOR
1002
}
1001
GENIUS_GENOBJ-N-FIL_13
1002
{
1000
OWNER
1000
GEN
1002
}
  0
ARC
  5
1508F
  8
AM_0
 10
225.78948754036361
 20
260.37951097300981
 30
0.0
 40
110.9999999999999
 50
172.1468219111938
 51
172.183052168312
  0
ARC
  5
15090
  8
AM_0
 10
116.821127854094
 20
275.4093675020568
 30
0.0
 40
0.9999999999999996
 50
91.999999999997215
 51
172.14682191120039
1001
GENIUS_GENODEF_13
1002
{
1000
HIER
1070
     0
1002
}
1002
{
1000
MANEDIT
1070
     0
1002
}
1002
{
1000
NOSEL
1070
     0
1002
}
1002
{
1000
BEHIND
1070
     0
1002
}
1002
{
1000
REACTOR
1002
}
1001
GENIUS_GENOBJ-N-FIL_13
1002
{
1000
OWNER
1000
GEN
1002
}
  0
LINE
  5
15098
  8
ﾁｭｳｼﾝｾﾝ1
 10
226.74807486706661
 20
168.87951223620269
 30
0.0
 11
252.74807486706641
 21
168.87951223620269
 31
0.0
1001
GENIUS_GENODEF_13
1002
{
1000
HIER
1070
     0
1002
}
1002
{
1000
MANEDIT
1070
     0
1002
}
1002
{
1000
NOSEL
1070
     0
1002
}
1002
{
1000
BEHIND
1070
     0
1002
}
1002
{
1000
OTHER
1070
     0
1002
}
1002
{
1000
REACTOR
1002
}
1001
GENIUS_GENOBJ-N-CEN_13
1002
{
1000
OWNER
1000
GEN
1002
}
  0
LINE
  5
15099
  8
0
 10
233.68478910264781
 20
157.33713847930051
 30
0.0
 11
246.78948759406251
 21
156.8795123614974
 31
0.0
  0
LINE
  5
1509D
  8
0
 10
201.78948828074979
 20
183.88010961329499
 30
0.0
 11
227.8941860182199
 21
182.96851348095299
 31
0.0
  0
LINE
  5
1509E
  8
AM_0
 10
199.29235282298481
 20
170.87951096148291
 30
0.0
 11
194.0932874024258
 21
167.87951096148291
 31
0.0
  0
LINE
  5
1509F
  8
AM_0
 10
208.28948740242569
 20
183.6531246422704
 30
0.0
 11
208.28948740242569
 21
174.87951096148291
 31
0.0
  0
LINE
  5
150A0
  8
AM_0
 10
209.78948740242589
 20
175.87951096148291
 30
0.0
 11
209.78948740242589
 21
183.60074348803269
 31
0.0
  0
LINE
  5
150A1
  8
AM_0
 10
206.78948740242569
 20
183.70550579650791
 30
0.0
 11
206.78948740242569
 21
172.37951096148291
 31
0.0
  0
LINE
  5
150A2
  8
AM_0
 10
208.289487402426
 20
175.87951096148291
 30
0.0
 11
209.78948740242589
 21
175.87951096148291
 31
0.0
  0
LINE
  5
150A3
  8
AM_0
 10
208.28948740242569
 20
174.87951096148291
 30
0.0
 11
206.78948740242569
 21
174.87951096148291
 31
0.0
  0
ARC
  5
150A4
  8
AM_0
 10
205.28948740242589
 20
172.37951096148299
 30
0.0
 40
1.5
 50
270.0
 51
0.0
  0
LINE
  5
150A5
  8
0
 10
230.78948752811249
 20
179.970341008464
 30
0.0
 11
230.7894875841921
 21
160.33531095208849
 31
0.0
  0
ARC
  5
150A7
  8
0
 10
233.7894875841921
 20
160.3353109606569
 30
0.0
 40
3.0
 50
180.00000016364561
 51
268.0000001636455
1001
GENIUS_GENODEF_13
1002
{
1000
HIER
1070
     0
1002
}
1002
{
1000
MANEDIT
1070
     0
1002
}
1002
{
1000
NOSEL
1070
     0
1002
}
1002
{
1000
BEHIND
1070
     0
1002
}
1002
{
1000
OTHER
1070
     0
1002
}
1002
{
1000
REACTOR
1002
}
1001
GENIUS_GENOBJ-N-FIL_13
1002
{
1000
OWNER
1000
GEN
1002
}
  0
ARC
  5
150AA
  8
0
 10
227.7894875281126
 20
179.97034099989571
 30
0.0
 40
3.0
 50
0.0000001636455941
 51
87.999999999999517
1001
GENIUS_GENODEF_13
1002
{
1000
HIER
1070
     0
1002
}
1002
{
1000
MANEDIT
1070
     0
1002
}
1002
{
1000
NOSEL
1070
     0
1002
}
1002
{
1000
BEHIND
1070
     0
1002
}
1002
{
1000
OTHER
1070
     0
1002
}
1002
{
1000
REACTOR
1002
}
1001
GENIUS_GENOBJ-N-FIL_13
1002
{
1000
OWNER
1000
GEN
1002
}
  0
LINE
  5
150B7
  8
0
 10
395.64689131474847
 20
178.9670516566249
 30
0.0
 11
390.25468853539792
 21
190.87332125464479
 31
0.0
  0
CIRCLE
  5
150B8
  8
ｷｲﾛ
 10
397.99763347589987
 20
194.37951144231249
 30
0.0
 40
4.0
  0
ARC
  5
150B9
  8
0
 10
394.83497856685022
 20
192.87951144231249
 30
0.0
 40
5.0
 50
204.36518630421739
 51
270.0
1001
GENIUS_GENODEF_13
1002
{
1000
HIER
1070
     0
1002
}
1002
{
1000
MANEDIT
1070
     0
1002
}
1002
{
1000
NOSEL
1070
     0
1002
}
1002
{
1000
BEHIND
1070
     0
1002
}
1002
{
1000
OTHER
1070
     0
1002
}
1002
{
1000
REACTOR
1002
}
1001
GENIUS_GENOBJ-N-FIL_13
1002
{
1000
OWNER
1000
GEN
1002
}
  0
ARC
  5
150BA
  8
0
 10
397.9976320751914
 20
194.380004967113
 30
0.0
 40
12.50000031292438
 50
180.0
 51
204.36518630421739
  0
LINE
  5
150C0
  8
0
 10
398.06639011392008
 20
163.9288993246131
 30
0.0
 11
386.6109505331674
 21
189.22311721541141
 31
0.0
  0
LINE
  5
150C1
  8
ﾁｭｳｼﾝｾﾝ1
 10
408.9976041206113
 20
155.87951144231269
 30
0.0
 11
408.9976041206113
 21
181.87951144231269
 31
0.0
1001
GENIUS_GENODEF_13
1002
{
1000
HIER
1070
     0
1002
}
1002
{
1000
MANEDIT
1070
     0
1002
}
1002
{
1000
NOSEL
1070
     0
1002
}
1002
{
1000
BEHIND
1070
     0
1002
}
1002
{
1000
OTHER
1070
     0
1002
}
1002
{
1000
REACTOR
1002
}
1001
GENIUS_GENOBJ-N-CEN_13
1002
{
1000
OWNER
1000
GEN
1002
}
  0
ARC
  5
150C2
  8
0
 10
408.9976041206113
 20
168.87951144231249
 30
0.0
 40
10.0
 50
348.46304096718188
 51
125.902145337034
  0
CIRCLE
  5
150C3
  8
0
 10
408.9976041206113
 20
168.87951144231269
 30
0.0
 40
4.5
  0
LINE
  5
150C4
  8
ﾁｭｳｼﾝｾﾝ1
 10
395.99760412061141
 20
168.87951144231269
 30
0.0
 11
421.99760412061141
 21
168.87951144231269
 31
0.0
1001
GENIUS_GENODEF_13
1002
{
1000
HIER
1070
     0
1002
}
1002
{
1000
MANEDIT
1070
     0
1002
}
1002
{
1000
NOSEL
1070
     0
1002
}
1002
{
1000
BEHIND
1070
     0
1002
}
1002
{
1000
OTHER
1070
     0
1002
}
1002
{
1000
REACTOR
1002
}
1001
GENIUS_GENOBJ-N-CEN_13
1002
{
1000
OWNER
1000
GEN
1002
}
  0
ARC
  5
150C5
  8
0
 10
408.9976041206113
 20
168.87951144231289
 30
0.0
 40
12.0
 50
204.36518630421739
 51
270.0
  0
ARC
  5
150C6
  8
0
 10
423.69454257731059
 20
165.87951144231289
 30
0.0
 40
5.0
 50
168.4630409671818
 51
270.0
1001
GENIUS_GENODEF_13
1002
{
1000
HIER
1070
     0
1002
}
1002
{
1000
MANEDIT
1070
     0
1002
}
1002
{
1000
NOSEL
1070
     0
1002
}
1002
{
1000
BEHIND
1070
     0
1002
}
1002
{
1000
OTHER
1070
     0
1002
}
1002
{
1000
REACTOR
1002
}
1001
GENIUS_GENOBJ-N-FIL_13
1002
{
1000
OWNER
1000
GEN
1002
}
  0
ARC
  5
150C7
  8
0
 10
400.2015638175364
 20
181.02980670566629
 30
0.0
 40
5.0
 50
204.36518630421739
 51
305.90214533703409
1001
GENIUS_GENOBJ-N-FIL_13
1002
{
1000
OWNER
1000
GEN
1002
}
1001
GENIUS_GENODEF_13
1002
{
1000
HIER
1070
     0
1002
}
1002
{
1000
MANEDIT
1070
     0
1002
}
1002
{
1000
NOSEL
1070
     0
1002
}
1002
{
1000
BEHIND
1070
     0
1002
}
1002
{
1000
OTHER
1070
     0
1002
}
1002
{
1000
REACTOR
1002
}
  0
ARC
  5
150C8
  8
0
 10
417.2118024052877
 20
177.62747958011579
 30
0.0
 40
2.0
 50
226.80240366557771
 51
294.46591933285879
1001
GENIUS_GENODEF_13
1002
{
1000
HIER
1070
     0
1002
}
1002
{
1000
MANEDIT
1070
     0
1002
}
1002
{
1000
NOSEL
1070
     0
1002
}
1002
{
1000
BEHIND
1070
     0
1002
}
1002
{
1000
OTHER
1070
     0
1002
}
1002
{
1000
REACTOR
1002
}
1001
GENIUS_GENOBJ-N-FIL_13
1002
{
1000
OWNER
1000
GEN
1002
}
  0
ARC
  5
150C9
  8
0
 10
420.8863953070645
 20
170.50943295113211
 30
0.0
 40
2.0
 50
114.2518507640401
 51
187.80643199356041
1001
GENIUS_GENODEF_13
1002
{
1000
HIER
1070
     0
1002
}
1002
{
1000
MANEDIT
1070
     0
1002
}
1002
{
1000
NOSEL
1070
     0
1002
}
1002
{
1000
BEHIND
1070
     0
1002
}
1002
{
1000
OTHER
1070
     0
1002
}
1002
{
1000
REACTOR
1002
}
1001
GENIUS_GENOBJ-N-FIL_13
1002
{
1000
OWNER
1000
GEN
1002
}
  0
LINE
  5
150CC
  8
0
 10
393.49763176226702
 20
221.87951144231249
 30
0.0
 11
391.49763176226702
 21
221.87951144231249
 31
0.0
  0
LINE
  5
150CD
  8
0
 10
393.49763176226702
 20
225.87951144231249
 30
0.0
 11
391.49763176226702
 21
225.87951144231249
 31
0.0
  0
ARC
  5
150CE
  8
0
 10
397.9976320751914
 20
194.380004967113
 30
0.0
 40
8.5000003129243851
 50
180.0
 51
204.36518630421739
  0
ARC
  5
150CF
  8
0
 10
391.49763176226702
 20
219.87951144231249
 30
0.0
 40
2.0
 50
90.0
 51
180.0
1001
GENIUS_GENODEF_13
1002
{
1000
HIER
1070
     0
1002
}
1002
{
1000
MANEDIT
1070
     0
1002
}
1002
{
1000
NOSEL
1070
     0
1002
}
1002
{
1000
BEHIND
1070
     0
1002
}
1002
{
1000
OTHER
1070
     0
1002
}
1002
{
1000
REACTOR
1002
}
1001
GENIUS_GENOBJ-N-FIL_13
1002
{
1000
OWNER
1000
GEN
1002
}
  0
ARC
  5
150D0
  8
0
 10
391.49763176226702
 20
227.87951144231249
 30
0.0
 40
2.0
 50
180.0
 51
270.0
1001
GENIUS_GENOBJ-N-FIL_13
1002
{
1000
OWNER
1000
GEN
1002
}
1001
GENIUS_GENODEF_13
1002
{
1000
HIER
1070
     0
1002
}
1002
{
1000
MANEDIT
1070
     0
1002
}
1002
{
1000
NOSEL
1070
     0
1002
}
1002
{
1000
BEHIND
1070
     0
1002
}
1002
{
1000
OTHER
1070
     0
1002
}
1002
{
1000
REACTOR
1002
}
  0
CIRCLE
  5
150D1
  8
0
 10
397.99763347589987
 20
194.37951144231249
 30
0.0
 40
3.25
  0
ARC
  5
150D2
  8
0
 10
393.49763176226702
 20
223.87951144231249
 30
0.0
 40
2.0
 50
270.0
 51
90.0
  0
LINE
  5
150D3
  8
0
 10
393.49763176226702
 20
261.87951144231249
 30
0.0
 11
391.49763176226702
 21
261.87951144231249
 31
0.0
  0
LINE
  5
150D4
  8
0
 10
393.49763176226702
 20
265.87951144231249
 30
0.0
 11
391.49763176226702
 21
265.87951144231249
 31
0.0
  0
ARC
  5
150D5
  8
0
 10
391.49763176226702
 20
267.87951144231249
 30
0.0
 40
2.0
 50
180.0
 51
270.0
1001
GENIUS_GENODEF_13
1002
{
1000
HIER
1070
     0
1002
}
1002
{
1000
MANEDIT
1070
     0
1002
}
1002
{
1000
NOSEL
1070
     0
1002
}
1002
{
1000
BEHIND
1070
     0
1002
}
1002
{
1000
OTHER
1070
     0
1002
}
1002
{
1000
REACTOR
1002
}
1001
GENIUS_GENOBJ-N-FIL_13
1002
{
1000
OWNER
1000
GEN
1002
}
  0
ARC
  5
150D6
  8
0
 10
391.49763176226702
 20
259.87951144231249
 30
0.0
 40
2.0
 50
90.0
 51
180.0
1001
GENIUS_GENOBJ-N-FIL_13
1002
{
1000
OWNER
1000
GEN
1002
}
1001
GENIUS_GENODEF_13
1002
{
1000
HIER
1070
     0
1002
}
1002
{
1000
MANEDIT
1070
     0
1002
}
1002
{
1000
NOSEL
1070
     0
1002
}
1002
{
1000
BEHIND
1070
     0
1002
}
1002
{
1000
OTHER
1070
     0
1002
}
1002
{
1000
REACTOR
1002
}
  0
ARC
  5
150D7
  8
0
 10
393.49763176226702
 20
263.87951144231249
 30
0.0
 40
2.0
 50
270.0
 51
90.0
  0
LINE
  5
150D8
  8
AM_0
 10
201.78948828074979
 20
303.87891327132991
 30
0.0
 11
131.78948619458811
 21
302.65709317784911
 31
0.0
  0
ARC
  5
150DA
  8
AM_0
 10
176.7894875403635
 20
260.37951097300981
 30
0.0
 40
56.499999999999972
 50
55.1361620456954
 51
124.8638379543046
  0
LINE
  5
150DF
  8
AM_0
 10
172.8245857496193
 20
321.30233427758662
 30
0.0
 11
172.9835157109801
 21
316.75117564981281
 31
0.0
  0
LINE
  5
150E0
  8
AM_0
 10
170.7574300614651
 20
321.29922409912632
 30
0.0
 11
170.591181587617
 21
316.5384906941207
 31
0.0
  0
ARC
  5
150E1
  8
AM_0
 10
161.82853876725079
 20
320.35735281165267
 30
0.0
 40
0.9999999999999996
 50
1.9999999999971321
 51
97.816947831694847
1001
GENIUS_GENODEF_13
1002
{
1000
HIER
1070
     0
1002
}
1002
{
1000
MANEDIT
1070
     0
1002
}
1002
{
1000
NOSEL
1070
     0
1002
}
1002
{
1000
BEHIND
1070
     0
1002
}
1002
{
1000
REACTOR
1002
}
1001
GENIUS_GENOBJ-N-FIL_13
1002
{
1000
OWNER
1000
GEN
1002
}
  0
ARC
  5
150E2
  8
AM_0
 10
161.75963101131629
 20
320.34787065927941
 30
0.0
 40
0.9999999999999996
 50
97.853178088805706
 51
178.00000000000281
1001
GENIUS_GENODEF_13
1002
{
1000
HIER
1070
     0
1002
}
1002
{
1000
MANEDIT
1070
     0
1002
}
1002
{
1000
NOSEL
1070
     0
1002
}
1002
{
1000
BEHIND
1070
     0
1002
}
1002
{
1000
REACTOR
1002
}
1001
GENIUS_GENOBJ-N-FIL_13
1002
{
1000
OWNER
1000
GEN
1002
}
  0
LINE
  5
150E3
  8
AM_0
 10
130.19948619458791
 20
284.87901795626391
 30
0.0
 11
130.19948619458819
 21
301.87901795626419
 31
0.0
  0
LINE
  5
150E4
  8
0
 10
122.1994861945883
 20
299.87901795626419
 30
0.0
 11
122.1994861945883
 21
286.87901795626419
 31
0.0
  0
LINE
  5
150E5
  8
AM_0
 10
127.7894860753788
 20
281.37913760078447
 30
0.0
 11
131.78948619458811
 21
281.37913760078447
 31
0.0
  0
LINE
  5
150E6
  8
0
 10
122.1994861945883
 20
286.87901795626419
 30
0.0
 11
130.19948619458819
 21
286.87901795626419
 31
0.0
  0
LINE
  5
150E7
  8
AM_0
 10
118.62318310850191
 20
284.33732504996539
 30
0.0
 11
125.50853348224339
 21
284.096883316694
 31
0.0
  0
LINE
  5
150E8
  8
AM_0
 10
118.6395178428247
 20
286.40612169896912
 30
0.0
 11
126.7897929429305
 21
286.69073557703422
 31
0.0
  0
ARC
  5
150E9
  8
AM_0
 10
118.67441733952739
 20
285.40673087194978
 30
0.0
 40
0.9999999999999996
 50
91.999999999997215
 51
166.84888173935161
1001
GENIUS_GENODEF_13
1002
{
1000
HIER
1070
     0
1002
}
1002
{
1000
MANEDIT
1070
     0
1002
}
1002
{
1000
NOSEL
1070
     0
1002
}
1002
{
1000
BEHIND
1070
     0
1002
}
1002
{
1000
REACTOR
1002
}
1001
GENIUS_GENOBJ-N-FIL_13
1002
{
1000
OWNER
1000
GEN
1002
}
  0
ARC
  5
150EA
  8
AM_0
 10
118.6580826052046
 20
285.33671587698439
 30
0.0
 40
0.9999999999999996
 50
166.8863298567012
 51
267.99999999999631
1001
GENIUS_GENODEF_13
1002
{
1000
HIER
1070
     0
1002
}
1002
{
1000
MANEDIT
1070
     0
1002
}
1002
{
1000
NOSEL
1070
     0
1002
}
1002
{
1000
BEHIND
1070
     0
1002
}
1002
{
1000
REACTOR
1002
}
1001
GENIUS_GENOBJ-N-FIL_13
1002
{
1000
OWNER
1000
GEN
1002
}
  0
ARC
  5
150EB
  8
AM_0
 10
225.78948754036361
 20
260.37951097300981
 30
0.0
 40
110.9999999999999
 50
166.84888173935161
 51
166.8863298567012
  0
LINE
  5
150EC
  8
AM_0
 10
122.7894875403635
 20
286.87901795626419
 30
0.0
 11
122.7894875403635
 21
286.55104183417461
 31
0.0
  0
LINE
  5
150ED
  8
AM_0
 10
121.47961616753361
 20
296.40361079571869
 30
0.0
 11
122.1994861945882
 21
296.42874921099741
 31
0.0
  0
LINE
  5
150EE
  8
AM_0
 10
121.45553226319311
 20
294.33304510661299
 30
0.0
 11
122.1994861945883
 21
294.30706566286221
 31
0.0
  0
ARC
  5
150EF
  8
AM_0
 10
121.514515664236
 20
295.40421996869929
 30
0.0
 40
0.9999999999999996
 50
92.000000000003695
 51
161.43341919809691
1001
GENIUS_GENODEF_13
1002
{
1000
HIER
1070
     0
1002
}
1002
{
1000
MANEDIT
1070
     0
1002
}
1002
{
1000
NOSEL
1070
     0
1002
}
1002
{
1000
BEHIND
1070
     0
1002
}
1002
{
1000
REACTOR
1002
}
1001
GENIUS_GENOBJ-N-FIL_13
1002
{
1000
OWNER
1000
GEN
1002
}
  0
ARC
  5
150F0
  8
AM_0
 10
121.490431759896
 20
295.33243593363193
 30
0.0
 40
0.9999999999999996
 50
161.47285768553169
 51
267.99999999999631
1001
GENIUS_GENODEF_13
1002
{
1000
HIER
1070
     0
1002
}
1002
{
1000
MANEDIT
1070
     0
1002
}
1002
{
1000
NOSEL
1070
     0
1002
}
1002
{
1000
BEHIND
1070
     0
1002
}
1002
{
1000
REACTOR
1002
}
1001
GENIUS_GENOBJ-N-FIL_13
1002
{
1000
OWNER
1000
GEN
1002
}
  0
ARC
  5
150F1
  8
AM_0
 10
225.78948754036361
 20
260.37951097300981
 30
0.0
 40
110.9999999999999
 50
161.43341919810359
 51
161.47285768553169
  0
LINE
  5
150F2
  8
0
 10
131.78948619458811
 20
284.87901795626419
 30
0.0
 11
130.19948619458819
 21
284.87901795626419
 31
0.0
  0
LINE
  5
150F3
  8
0
 10
130.19948619458819
 20
299.87901795626419
 30
0.0
 11
122.1994861945883
 21
299.87901795626419
 31
0.0
  0
LINE
  5
150F4
  8
AM_0
 10
142.83595340676041
 20
315.71346625017998
 30
0.0
 11
143.1615942220435
 21
306.3883333844708
 31
0.0
  0
LINE
  5
150F5
  8
AM_0
 10
140.76538771765439
 20
315.68938234583982
 30
0.0
 11
140.4402798454461
 21
306.37951097300981
 31
0.0
  0
LINE
  5
150F6
  8
AM_0
 10
135.7894875403635
 20
306.37951097300981
 30
0.0
 11
143.34924232595159
 21
306.37951097300981
 31
0.0
  0
LINE
  5
150F7
  8
0
 10
131.78948619458811
 20
301.87901795626419
 30
0.0
 11
130.19948619458819
 21
301.87901795626419
 31
0.0
  0
ARC
  5
150F8
  8
AM_0
 10
135.7894875403635
 20
301.37951097300981
 30
0.0
 40
4.9999999999999982
 50
90.0
 51
174.26650751163271
1001
GENIUS_GENOBJ-N-CEN_13
1002
{
1000
OWNER
1000
GEN
1002
}
1001
GENIUS_GENODEF_13
1002
{
1000
HIER
1070
     0
1002
}
1002
{
1000
MANEDIT
1070
     0
1002
}
1002
{
1000
NOSEL
1070
     0
1002
}
1002
{
1000
BEHIND
1070
     0
1002
}
1002
{
1000
REACTOR
1002
}
1001
GENIUS_GENOBJ-N-FIL_13
1002
{
1000
OWNER
1000
GEN
1002
}
  0
ARC
  5
150F9
  8
AM_0
 10
143.34924232595159
 20
308.37951097300959
 30
0.0
 40
1.9999999999999989
 50
270.0
 51
304.86383795430459
1001
GENIUS_GENOBJ-N-FIL_13
1002
{
1000
OWNER
1000
GEN
1002
}
1001
GENIUS_GENODEF_13
1002
{
1000
HIER
1070
     0
1002
}
1002
{
1000
MANEDIT
1070
     0
1002
}
1002
{
1000
NOSEL
1070
     0
1002
}
1002
{
1000
BEHIND
1070
     0
1002
}
1002
{
1000
OTHER
1070
     0
1002
}
1002
{
1000
REACTOR
1002
}
  0
ARC
  5
150FA
  8
AM_0
 10
141.76477854467379
 20
315.65448284913703
 30
0.0
 40
0.9999999999999996
 50
108.5665808019029
 51
177.9999999999898
1001
GENIUS_GENODEF_13
1002
{
1000
HIER
1070
     0
1002
}
1002
{
1000
MANEDIT
1070
     0
1002
}
1002
{
1000
NOSEL
1070
     0
1002
}
1002
{
1000
BEHIND
1070
     0
1002
}
1002
{
1000
REACTOR
1002
}
1001
GENIUS_GENOBJ-N-FIL_13
1002
{
1000
OWNER
1000
GEN
1002
}
  0
ARC
  5
150FB
  8
AM_0
 10
176.7894875403635
 20
211.37951097300979
 30
0.0
 40
110.9999999999999
 50
108.5271423144743
 51
108.56658080189671
  0
ARC
  5
150FC
  8
AM_0
 10
141.8365625797411
 20
315.67856675347701
 30
0.0
 40
0.9999999999999996
 50
2.0000000000036491
 51
108.5271423144743
1001
GENIUS_GENODEF_13
1002
{
1000
HIER
1070
     0
1002
}
1002
{
1000
MANEDIT
1070
     0
1002
}
1002
{
1000
NOSEL
1070
     0
1002
}
1002
{
1000
BEHIND
1070
     0
1002
}
1002
{
1000
REACTOR
1002
}
1001
GENIUS_GENOBJ-N-FIL_13
1002
{
1000
OWNER
1000
GEN
1002
}
  0
LINE
  5
150FD
  8
AM_0
 10
152.83167346340781
 20
318.54581540487129
 30
0.0
 11
153.07211519667911
 21
311.66046503112977
 31
0.0
  0
LINE
  5
150FE
  8
AM_0
 10
150.76287681440431
 20
318.52948067054848
 30
0.0
 11
150.47826293633881
 21
310.37920557044271
 31
0.0
  0
ARC
  5
150FF
  8
AM_0
 10
176.7894875403635
 20
211.37951097300979
 30
0.0
 40
110.9999999999999
 50
103.11367014329809
 51
103.15111826065571
  0
ARC
  5
15100
  8
AM_0
 10
151.76226764142319
 20
318.4945811738462
 30
0.0
 40
0.9999999999999996
 50
103.15111826065571
 51
178.00000000000281
1001
GENIUS_GENODEF_13
1002
{
1000
HIER
1070
     0
1002
}
1002
{
1000
MANEDIT
1070
     0
1002
}
1002
{
1000
NOSEL
1070
     0
1002
}
1002
{
1000
BEHIND
1070
     0
1002
}
1002
{
1000
REACTOR
1002
}
1001
GENIUS_GENOBJ-N-FIL_13
1002
{
1000
OWNER
1000
GEN
1002
}
  0
ARC
  5
15101
  8
AM_0
 10
151.8322826363887
 20
318.51091590816861
 30
0.0
 40
0.9999999999999996
 50
2.0000000000036491
 51
103.11367014329809
1001
GENIUS_GENODEF_13
1002
{
1000
HIER
1070
     0
1002
}
1002
{
1000
MANEDIT
1070
     0
1002
}
1002
{
1000
NOSEL
1070
     0
1002
}
1002
{
1000
BEHIND
1070
     0
1002
}
1002
{
1000
REACTOR
1002
}
1001
GENIUS_GENOBJ-N-FIL_13
1002
{
1000
OWNER
1000
GEN
1002
}
  0
LINE
  5
15102
  8
AM_0
 10
160.76024018429729
 20
320.38277015598192
 30
0.0
 11
160.55469778044991
 21
314.49680581903272
 31
0.0
  0
LINE
  5
15103
  8
AM_0
 10
162.82792959426999
 20
320.39225230835541
 30
0.0
 11
163.01017268013641
 21
315.17349314242949
 31
0.0
  0
ARC
  5
15104
  8
AM_0
 10
176.7894875403635
 20
211.37951097300979
 30
0.0
 40
110.9999999999999
 50
97.816947831694847
 51
97.853178088805706
  0
ARC
  5
15105
  8
AM_0
 10
171.75682088848399
 20
321.2643246024237
 30
0.0
 40
0.9999999999999996
 50
92.622284087952934
 51
177.99999999999631
1001
GENIUS_GENODEF_13
1002
{
1000
HIER
1070
     0
1002
}
1002
{
1000
MANEDIT
1070
     0
1002
}
1002
{
1000
NOSEL
1070
     0
1002
}
1002
{
1000
BEHIND
1070
     0
1002
}
1002
{
1000
REACTOR
1002
}
1001
GENIUS_GENOBJ-N-FIL_13
1002
{
1000
OWNER
1000
GEN
1002
}
  0
ARC
  5
15106
  8
AM_0
 10
171.8251949226001
 20
321.26743478088417
 30
0.0
 40
0.9999999999999996
 50
2.0000000000036491
 51
92.586633228773294
1001
GENIUS_GENODEF_13
1002
{
1000
HIER
1070
     0
1002
}
1002
{
1000
MANEDIT
1070
     0
1002
}
1002
{
1000
NOSEL
1070
     0
1002
}
1002
{
1000
BEHIND
1070
     0
1002
}
1002
{
1000
REACTOR
1002
}
1001
GENIUS_GENOBJ-N-FIL_13
1002
{
1000
OWNER
1000
GEN
1002
}
  0
LINE
  5
1510A
  8
ﾁｭｳｼﾝｾﾝ1
 10
226.74807486706661
 20
318.87951065165299
 30
0.0
 11
252.74807486706641
 21
318.87951065165299
 31
0.0
1001
GENIUS_GENODEF_13
1002
{
1000
HIER
1070
     0
1002
}
1002
{
1000
MANEDIT
1070
     0
1002
}
1002
{
1000
NOSEL
1070
     0
1002
}
1002
{
1000
BEHIND
1070
     0
1002
}
1002
{
1000
OTHER
1070
     0
1002
}
1002
{
1000
REACTOR
1002
}
1001
GENIUS_GENOBJ-N-CEN_13
1002
{
1000
OWNER
1000
GEN
1002
}
  0
LINE
  5
1510B
  8
0
 10
233.68478910264781
 20
330.42188440532459
 30
0.0
 11
246.78948759406251
 21
330.87951052312781
 31
0.0
  0
LINE
  5
1510E
  8
0
 10
230.78948752811249
 20
307.78868187616092
 30
0.0
 11
230.7894875841921
 21
327.42371193253632
 31
0.0
  0
LINE
  5
15110
  8
AM_0
 10
180.7543893311078
 20
321.30233427758662
 30
0.0
 11
180.59545936974709
 21
316.75117564981281
 31
0.0
  0
LINE
  5
15111
  8
AM_0
 10
182.82154501926209
 20
321.29922409912632
 30
0.0
 11
182.98779349311019
 21
316.5384906941207
 31
0.0
  0
ARC
  5
15112
  8
AM_0
 10
191.81934406941079
 20
320.34787065927941
 30
0.0
 40
0.9999999999999996
 50
1.9999999999971321
 51
82.146821911194266
1001
GENIUS_GENODEF_13
1002
{
1000
HIER
1070
     0
1002
}
1002
{
1000
MANEDIT
1070
     0
1002
}
1002
{
1000
NOSEL
1070
     0
1002
}
1002
{
1000
BEHIND
1070
     0
1002
}
1002
{
1000
REACTOR
1002
}
1001
GENIUS_GENOBJ-N-FIL_13
1002
{
1000
OWNER
1000
GEN
1002
}
  0
ARC
  5
15113
  8
AM_0
 10
191.75043631347631
 20
320.35735281165267
 30
0.0
 40
0.9999999999999996
 50
82.183052168305124
 51
178.00000000000281
1001
GENIUS_GENODEF_13
1002
{
1000
HIER
1070
     0
1002
}
1002
{
1000
MANEDIT
1070
     0
1002
}
1002
{
1000
NOSEL
1070
     0
1002
}
1002
{
1000
BEHIND
1070
     0
1002
}
1002
{
1000
REACTOR
1002
}
1001
GENIUS_GENOBJ-N-FIL_13
1002
{
1000
OWNER
1000
GEN
1002
}
  0
LINE
  5
15114
  8
0
 10
201.78948828074979
 20
303.87891327132991
 30
0.0
 11
227.8941860182201
 21
304.79050940367222
 31
0.0
  0
LINE
  5
15115
  8
AM_0
 10
210.2297327547756
 20
306.37951097300981
 30
0.0
 11
217.78948754036369
 21
306.37951097300981
 31
0.0
  0
ARC
  5
15116
  8
AM_0
 10
211.74241250098601
 20
315.67856675347701
 30
0.0
 40
0.9999999999999996
 50
71.472857685525653
 51
177.99999999999631
1001
GENIUS_GENODEF_13
1002
{
1000
HIER
1070
     0
1002
}
1002
{
1000
MANEDIT
1070
     0
1002
}
1002
{
1000
NOSEL
1070
     0
1002
}
1002
{
1000
BEHIND
1070
     0
1002
}
1002
{
1000
REACTOR
1002
}
1001
GENIUS_GENOBJ-N-FIL_13
1002
{
1000
OWNER
1000
GEN
1002
}
  0
LINE
  5
15117
  8
AM_0
 10
190.7510454864572
 20
320.39225230835541
 30
0.0
 11
190.56880240059081
 21
315.17349314242949
 31
0.0
  0
LINE
  5
15118
  8
AM_0
 10
192.8187348964299
 20
320.38277015598192
 30
0.0
 11
193.02427730027711
 21
314.49680581903272
 31
0.0
  0
LINE
  5
15119
  8
AM_0
 10
210.74302167396681
 20
315.71346625017998
 30
0.0
 11
210.4173808586836
 21
306.3883333844708
 31
0.0
  0
ARC
  5
1511A
  8
AM_0
 10
210.2297327547756
 20
308.37951097300959
 30
0.0
 40
1.9999999999999989
 50
235.13616204569539
 51
270.0
1001
GENIUS_GENODEF_13
1002
{
1000
HIER
1070
     0
1002
}
1002
{
1000
MANEDIT
1070
     0
1002
}
1002
{
1000
NOSEL
1070
     0
1002
}
1002
{
1000
BEHIND
1070
     0
1002
}
1002
{
1000
OTHER
1070
     0
1002
}
1002
{
1000
REACTOR
1002
}
1001
GENIUS_GENOBJ-N-FIL_13
1002
{
1000
OWNER
1000
GEN
1002
}
  0
LINE
  5
1511B
  8
AM_0
 10
202.81609826632291
 20
318.52948067054848
 30
0.0
 11
203.10071214438841
 21
310.37920557044271
 31
0.0
  0
LINE
  5
1511C
  8
AM_0
 10
200.74730161731941
 20
318.54581540487129
 30
0.0
 11
200.50685988404811
 21
311.66046503112977
 31
0.0
  0
ARC
  5
1511D
  8
AM_0
 10
176.7894875403635
 20
211.37951097300979
 30
0.0
 40
110.9999999999999
 50
76.848881739344279
 51
76.886329856701835
  0
ARC
  5
1511E
  8
AM_0
 10
201.8167074393038
 20
318.4945811738462
 30
0.0
 40
0.9999999999999996
 50
1.9999999999971321
 51
76.848881739344279
1001
GENIUS_GENODEF_13
1002
{
1000
HIER
1070
     0
1002
}
1002
{
1000
MANEDIT
1070
     0
1002
}
1002
{
1000
NOSEL
1070
     0
1002
}
1002
{
1000
BEHIND
1070
     0
1002
}
1002
{
1000
REACTOR
1002
}
1001
GENIUS_GENOBJ-N-FIL_13
1002
{
1000
OWNER
1000
GEN
1002
}
  0
ARC
  5
1511F
  8
AM_0
 10
201.74669244433829
 20
318.51091590816861
 30
0.0
 40
0.9999999999999996
 50
76.886329856701835
 51
177.99999999999631
1001
GENIUS_GENODEF_13
1002
{
1000
HIER
1070
     0
1002
}
1002
{
1000
MANEDIT
1070
     0
1002
}
1002
{
1000
NOSEL
1070
     0
1002
}
1002
{
1000
BEHIND
1070
     0
1002
}
1002
{
1000
REACTOR
1002
}
1001
GENIUS_GENOBJ-N-FIL_13
1002
{
1000
OWNER
1000
GEN
1002
}
  0
ARC
  5
15124
  8
0
 10
227.7894875281126
 20
307.7886818847295
 30
0.0
 40
3.0
 50
272.00000000000051
 51
359.99999983635439
1001
GENIUS_GENOBJ-N-FIL_13
1002
{
1000
OWNER
1000
GEN
1002
}
1001
GENIUS_GENODEF_13
1002
{
1000
HIER
1070
     0
1002
}
1002
{
1000
MANEDIT
1070
     0
1002
}
1002
{
1000
NOSEL
1070
     0
1002
}
1002
{
1000
BEHIND
1070
     0
1002
}
1002
{
1000
OTHER
1070
     0
1002
}
1002
{
1000
REACTOR
1002
}
  0
LINE
  5
15125
  8
AM_0
 10
212.81358736307271
 20
315.68938234583982
 30
0.0
 11
213.13869523528101
 21
306.37951097300981
 31
0.0
  0
ARC
  5
15126
  8
AM_0
 10
217.78948754036369
 20
301.37951097300981
 30
0.0
 40
4.9999999999999982
 50
39.68025457286133
 51
90.0
1001
GENIUS_GENODEF_13
1002
{
1000
HIER
1070
     0
1002
}
1002
{
1000
MANEDIT
1070
     0
1002
}
1002
{
1000
NOSEL
1070
     0
1002
}
1002
{
1000
BEHIND
1070
     0
1002
}
1002
{
1000
REACTOR
1002
}
1001
GENIUS_GENOBJ-N-FIL_13
1002
{
1000
OWNER
1000
GEN
1002
}
  0
ARC
  5
15127
  8
AM_0
 10
211.8141965360534
 20
315.65448284913703
 30
0.0
 40
0.9999999999999996
 50
2.0000000000101679
 51
71.43341919809707
1001
GENIUS_GENODEF_13
1002
{
1000
HIER
1070
     0
1002
}
1002
{
1000
MANEDIT
1070
     0
1002
}
1002
{
1000
NOSEL
1070
     0
1002
}
1002
{
1000
BEHIND
1070
     0
1002
}
1002
{
1000
REACTOR
1002
}
1001
GENIUS_GENOBJ-N-FIL_13
1002
{
1000
OWNER
1000
GEN
1002
}
  0
ARC
  5
15128
  8
AM_0
 10
176.7894875403635
 20
211.37951097300979
 30
0.0
 40
110.9999999999999
 50
71.433419198103252
 51
71.472857685525653
  0
ARC
  5
1512B
  8
AM_0
 10
181.753780158127
 20
321.26743478088417
 30
0.0
 40
0.9999999999999996
 50
87.413366771226706
 51
177.99999999999631
1001
GENIUS_GENODEF_13
1002
{
1000
HIER
1070
     0
1002
}
1002
{
1000
MANEDIT
1070
     0
1002
}
1002
{
1000
NOSEL
1070
     0
1002
}
1002
{
1000
BEHIND
1070
     0
1002
}
1002
{
1000
REACTOR
1002
}
1001
GENIUS_GENOBJ-N-FIL_13
1002
{
1000
OWNER
1000
GEN
1002
}
  0
ARC
  5
1512C
  8
AM_0
 10
181.822154192243
 20
321.2643246024237
 30
0.0
 40
0.9999999999999996
 50
2.0000000000036491
 51
87.37771591204698
1001
GENIUS_GENODEF_13
1002
{
1000
HIER
1070
     0
1002
}
1002
{
1000
MANEDIT
1070
     0
1002
}
1002
{
1000
NOSEL
1070
     0
1002
}
1002
{
1000
BEHIND
1070
     0
1002
}
1002
{
1000
REACTOR
1002
}
1001
GENIUS_GENOBJ-N-FIL_13
1002
{
1000
OWNER
1000
GEN
1002
}
  0
ARC
  5
1512D
  8
AM_0
 10
176.7894875403635
 20
211.37951097300979
 30
0.0
 40
110.9999999999999
 50
82.146821911194266
 51
82.183052168305124
  0
ARC
  5
1512F
  8
0
 10
233.7894875841921
 20
327.4237119239682
 30
0.0
 40
3.0
 50
91.999999836354448
 51
179.99999983635439
1001
GENIUS_GENODEF_13
1002
{
1000
HIER
1070
     0
1002
}
1002
{
1000
MANEDIT
1070
     0
1002
}
1002
{
1000
NOSEL
1070
     0
1002
}
1002
{
1000
BEHIND
1070
     0
1002
}
1002
{
1000
OTHER
1070
     0
1002
}
1002
{
1000
REACTOR
1002
}
1001
GENIUS_GENOBJ-N-FIL_13
1002
{
1000
OWNER
1000
GEN
1002
}
  0
ARC
  5
15134
  8
0
 10
408.9976041206113
 20
318.87951144231232
 30
0.0
 40
10.0
 50
234.09785466296589
 51
11.536959032818149
  0
LINE
  5
15135
  8
0
 10
398.06639011392008
 20
323.83012356001228
 30
0.0
 11
386.6109505331674
 21
298.535905669214
 31
0.0
  0
CIRCLE
  5
15136
  8
0
 10
408.9976041206113
 20
318.87951144231232
 30
0.0
 40
4.5
  0
LINE
  5
15137
  8
ﾁｭｳｼﾝｾﾝ1
 10
408.9976041206113
 20
331.87951144231249
 30
0.0
 11
408.9976041206113
 21
305.87951144231272
 31
0.0
1001
GENIUS_GENODEF_13
1002
{
1000
HIER
1070
     0
1002
}
1002
{
1000
MANEDIT
1070
     0
1002
}
1002
{
1000
NOSEL
1070
     0
1002
}
1002
{
1000
BEHIND
1070
     0
1002
}
1002
{
1000
OTHER
1070
     0
1002
}
1002
{
1000
REACTOR
1002
}
1001
GENIUS_GENOBJ-N-CEN_13
1002
{
1000
OWNER
1000
GEN
1002
}
  0
LINE
  5
15138
  8
0
 10
395.64689131474847
 20
308.79197122800031
 30
0.0
 11
390.25468853539792
 21
296.8857016299807
 31
0.0
  0
ARC
  5
15139
  8
0
 10
394.83497856684988
 20
294.87951144231232
 30
0.0
 40
5.0
 50
90.0
 51
155.63481369578261
1001
GENIUS_GENODEF_13
1002
{
1000
HIER
1070
     0
1002
}
1002
{
1000
MANEDIT
1070
     0
1002
}
1002
{
1000
NOSEL
1070
     0
1002
}
1002
{
1000
BEHIND
1070
     0
1002
}
1002
{
1000
OTHER
1070
     0
1002
}
1002
{
1000
REACTOR
1002
}
1001
GENIUS_GENOBJ-N-FIL_13
1002
{
1000
OWNER
1000
GEN
1002
}
  0
ARC
  5
1513A
  8
0
 10
397.9976320751914
 20
293.37901791751239
 30
0.0
 40
8.5000003129243851
 50
155.63481369578261
 51
180.0
  0
ARC
  5
1513B
  8
0
 10
397.9976320751914
 20
293.37901791751239
 30
0.0
 40
12.50000031292438
 50
155.63481369578261
 51
180.0
  0
CIRCLE
  5
1513C
  8
ｷｲﾛ
 10
397.99763347589987
 20
293.37951144231232
 30
0.0
 40
4.0
  0
CIRCLE
  5
1513D
  8
0
 10
397.99763347589987
 20
293.37951144231232
 30
0.0
 40
3.25
  0
LINE
  5
1513E
  8
ﾁｭｳｼﾝｾﾝ1
 10
395.99760412061141
 20
318.87951144231249
 30
0.0
 11
421.99760412061141
 21
318.87951144231249
 31
0.0
1001
GENIUS_GENODEF_13
1002
{
1000
HIER
1070
     0
1002
}
1002
{
1000
MANEDIT
1070
     0
1002
}
1002
{
1000
NOSEL
1070
     0
1002
}
1002
{
1000
BEHIND
1070
     0
1002
}
1002
{
1000
OTHER
1070
     0
1002
}
1002
{
1000
REACTOR
1002
}
1001
GENIUS_GENOBJ-N-CEN_13
1002
{
1000
OWNER
1000
GEN
1002
}
  0
ARC
  5
1513F
  8
0
 10
400.2015638175364
 20
306.72921617895861
 30
0.0
 40
5.0
 50
54.097854662965901
 51
155.63481369578261
1001
GENIUS_GENODEF_13
1002
{
1000
HIER
1070
     0
1002
}
1002
{
1000
MANEDIT
1070
     0
1002
}
1002
{
1000
NOSEL
1070
     0
1002
}
1002
{
1000
BEHIND
1070
     0
1002
}
1002
{
1000
OTHER
1070
     0
1002
}
1002
{
1000
REACTOR
1002
}
1001
GENIUS_GENOBJ-N-FIL_13
1002
{
1000
OWNER
1000
GEN
1002
}
  0
ARC
  5
15140
  8
0
 10
417.2118024052877
 20
310.13154330450908
 30
0.0
 40
2.0
 50
65.534080667141254
 51
133.19759633442229
1001
GENIUS_GENODEF_13
1002
{
1000
HIER
1070
     0
1002
}
1002
{
1000
MANEDIT
1070
     0
1002
}
1002
{
1000
NOSEL
1070
     0
1002
}
1002
{
1000
BEHIND
1070
     0
1002
}
1002
{
1000
OTHER
1070
     0
1002
}
1002
{
1000
REACTOR
1002
}
1001
GENIUS_GENOBJ-N-FIL_13
1002
{
1000
OWNER
1000
GEN
1002
}
  0
ARC
  5
15141
  8
0
 10
420.8863953070645
 20
317.2495899334927
 30
0.0
 40
2.0
 50
172.19356800643959
 51
245.7481492359598
1001
GENIUS_GENODEF_13
1002
{
1000
HIER
1070
     0
1002
}
1002
{
1000
MANEDIT
1070
     0
1002
}
1002
{
1000
NOSEL
1070
     0
1002
}
1002
{
1000
BEHIND
1070
     0
1002
}
1002
{
1000
OTHER
1070
     0
1002
}
1002
{
1000
REACTOR
1002
}
1001
GENIUS_GENOBJ-N-FIL_13
1002
{
1000
OWNER
1000
GEN
1002
}
  0
ARC
  5
15142
  8
0
 10
408.9976041206113
 20
318.87951144231232
 30
0.0
 40
12.0
 50
90.0
 51
155.63481369578261
  0
ARC
  5
15143
  8
0
 10
423.6945425773103
 20
321.87951144231232
 30
0.0
 40
5.0
 50
90.0
 51
191.53695903281809
1001
GENIUS_GENOBJ-N-FIL_13
1002
{
1000
OWNER
1000
GEN
1002
}
1001
GENIUS_GENODEF_13
1002
{
1000
HIER
1070
     0
1002
}
1002
{
1000
MANEDIT
1070
     0
1002
}
1002
{
1000
NOSEL
1070
     0
1002
}
1002
{
1000
BEHIND
1070
     0
1002
}
1002
{
1000
OTHER
1070
     0
1002
}
1002
{
1000
REACTOR
1002
}
  0
LINE
  5
15147
  8
AM_0
 10
691.49152824664168
 20
275.60134371770329
 30
0.0
 11
690.99152824664168
 21
278.37133273137522
 31
0.0
  0
POLYLINE
  5
15148
  8
AM_0
 66
     1
 10
0.0
 20
0.0
 30
0.0
  0
VERTEX
  5
15149
  8
AM_0
 10
672.11939176226679
 20
276.72008144231268
 30
0.0
 42
0.0007337051
  0
VERTEX
  5
1514A
  8
AM_0
 10
672.07525176226682
 20
277.32249144231258
 30
0.0
 42
0.00075211323
  0
VERTEX
  5
1514B
  8
AM_0
 10
672.02931176226673
 20
277.92489144231268
 30
0.0
 42
0.0007297491
  0
VERTEX
  5
1514C
  8
AM_0
 10
671.98158176226661
 20
278.52709144231272
 30
0.0
 42
0.00073593041
  0
VERTEX
  5
1514D
  8
AM_0
 10
671.93210176226683
 20
279.12908144231272
 30
0.0
 42
0.00074742739
  0
VERTEX
  5
1514E
  8
AM_0
 10
671.88083176226655
 20
279.73094144231271
 30
0.0
 42
0.00073217363
  0
VERTEX
  5
1514F
  8
AM_0
 10
671.82777176226682
 20
280.33275144231271
 30
0.0
 42
0.00073754168
  0
VERTEX
  5
15150
  8
AM_0
 10
671.77295176226698
 20
280.9342914423126
 30
0.0
 42
0.00073075073
  0
VERTEX
  5
15151
  8
AM_0
 10
671.71637176226659
 20
281.53564144231268
 30
0.0
 42
0.00074550816
  0
VERTEX
  5
15152
  8
AM_0
 10
671.65803176226689
 20
282.13671144231267
 30
0.0
 42
0.00074288416
  0
VERTEX
  5
15153
  8
AM_0
 10
671.59788176226675
 20
282.73773144231268
 30
0.0
 42
0.00072504001
  0
VERTEX
  5
15154
  8
AM_0
 10
671.53597176226674
 20
283.33847144231282
 30
0.0
 42
0.00074640667
  0
VERTEX
  5
15155
  8
AM_0
 10
671.47230176226674
 20
283.93908144231273
 30
0.0
  0
SEQEND
  5
15156
  8
AM_0
  0
LINE
  5
15157
  8
AM_0
 10
688.99763176226656
 20
308.39953144231259
 30
0.0
 11
688.99763176226656
 21
265.37951144231272
 31
0.0
  0
LINE
  5
15158
  8
AM_0
 10
683.99763176226668
 20
310.37951144231272
 30
0.0
 11
683.99763176226668
 21
210.37951144231269
 31
0.0
  0
LINE
  5
15159
  8
AM_0
 10
682.99763176226668
 20
313.37951144231272
 30
0.0
 11
682.99763176226668
 21
207.37951144231269
 31
0.0
  0
LINE
  5
1515A
  8
AM_0
 10
690.49763176226668
 20
280.37951144231272
 30
0.0
 11
690.49763176226668
 21
240.37951144231269
 31
0.0
  0
LINE
  5
1515B
  8
AM_0
 10
566.99763176226668
 20
316.37951144231272
 30
0.0
 11
566.99763176226668
 21
204.37951144231269
 31
0.0
  0
LINE
  5
1515C
  8
AM_0
 10
674.99763176226668
 20
313.37951144231272
 30
0.0
 11
674.99763176226668
 21
207.37951144231269
 31
0.0
  0
LINE
  5
1515E
  8
AM_0
 10
539.49760583424415
 20
293.37901791751239
 30
0.0
 11
539.49760583424415
 21
194.380004967113
 31
0.0
  0
LINE
  5
1515F
  8
AM_0
 10
543.49760583424415
 20
293.37901791751239
 30
0.0
 11
543.49760583424415
 21
194.380004967113
 31
0.0
  0
LINE
  5
15161
  8
ﾁｭｳｼﾝｾﾝ1
 10
444.99763347589982
 20
335.87951144231221
 30
0.0
 11
444.99763347589982
 21
151.87951144231269
 31
0.0
  0
LINE
  5
15162
  8
AM_0
 10
547.49152824664179
 20
314.8789364424124
 30
0.0
 11
547.49152824664145
 21
205.88008644221259
 31
0.0
  0
ARC
  5
15163
  8
AM_0
 10
315.4915435054312
 20
260.37951144231278
 30
0.0
 40
235.99999999999989
 50
0.0000050089569452
 51
10.56397173027319
  0
LINE
  5
15164
  8
AM_0
 10
558.99763176226656
 20
316.87893644241251
 30
0.0
 11
558.99763176226656
 21
203.8800864422127
 31
0.0
  0
LINE
  5
15166
  8
ﾁｭｳｼﾝｾﾝ1
 10
525.06046728729655
 20
260.37951144231272
 30
0.0
 11
696.49152824664156
 21
260.37951144231278
 31
0.0
  0
LINE
  5
15172
  8
AM_0
 10
566.99763176226668
 20
203.8800864422127
 30
0.0
 11
558.99763176226668
 21
203.8800864422127
 31
0.0
  0
LINE
  5
15173
  8
AM_0
 10
566.99763176226668
 20
214.37951144231269
 30
0.0
 11
558.99763176226656
 21
214.37951144231269
 31
0.0
  0
LINE
  5
15174
  8
AM_0
 10
566.99763176226668
 20
228.43957144231271
 30
0.0
 11
558.99763176226656
 21
228.43957144231271
 31
0.0
  0
LINE
  5
15175
  8
0
 10
533.34834628176259
 20
178.9670516566249
 30
0.0
 11
538.74054906111348
 21
190.87332125464459
 31
0.0
  0
CIRCLE
  5
15176
  8
ｷｲﾛ
 10
530.99763347589976
 20
194.37951144231249
 30
0.0
 40
4.0
  0
ARC
  5
15177
  8
0
 10
534.16025902966112
 20
192.87951144231249
 30
0.0
 40
5.0
 50
270.0
 51
335.63481369578261
1001
GENIUS_GENODEF_13
1002
{
1000
HIER
1070
     0
1002
}
1002
{
1000
MANEDIT
1070
     0
1002
}
1002
{
1000
NOSEL
1070
     0
1002
}
1002
{
1000
BEHIND
1070
     0
1002
}
1002
{
1000
OTHER
1070
     0
1002
}
1002
{
1000
REACTOR
1002
}
1001
GENIUS_GENOBJ-N-FIL_13
1002
{
1000
OWNER
1000
GEN
1002
}
  0
ARC
  5
15178
  8
0
 10
530.99760552131988
 20
194.38000496711271
 30
0.0
 40
12.50000031292438
 50
335.63481369578261
 51
0.0
  0
LINE
  5
15179
  8
0
 10
466.49763277554558
 20
191.87951144231221
 30
0.0
 11
466.49763277554558
 21
187.80942159430799
 31
0.0
  0
LINE
  5
1517A
  8
0
 10
462.49763277554558
 20
191.87951144231221
 30
0.0
 11
462.49763277554558
 21
187.8094225742683
 31
0.0
  0
LINE
  5
1517C
  8
AM_0
 10
534.16025902966066
 20
187.87951144231249
 30
0.0
 11
466.49763277554558
 21
187.87951144231249
 31
0.0
  0
ARC
  5
1517D
  8
0
 10
464.49761879825559
 20
73.704457135044436
 30
0.0
 40
112.1750543072711
 50
65.534080667141254
 51
87.992286239871859
  0
ARC
  5
15181
  8
0
 10
468.49763277554553
 20
187.80942159430799
 30
0.0
 40
2.0
 50
180.0
 51
267.99228623987182
1001
GENIUS_GENOBJ-N-FIL_13
1002
{
1000
OWNER
1000
GEN
1002
}
1001
GENIUS_GENODEF_13
1002
{
1000
HIER
1070
     0
1002
}
1002
{
1000
MANEDIT
1070
     0
1002
}
1002
{
1000
NOSEL
1070
     0
1002
}
1002
{
1000
BEHIND
1070
     0
1002
}
1002
{
1000
OTHER
1070
     0
1002
}
1002
{
1000
REACTOR
1002
}
  0
ARC
  5
15182
  8
0
 10
460.49763277554553
 20
187.8094225742683
 30
0.0
 40
2.0
 50
272.00769972323309
 51
0.0
1001
GENIUS_GENOBJ-N-FIL_13
1002
{
1000
OWNER
1000
GEN
1002
}
1001
GENIUS_GENODEF_13
1002
{
1000
HIER
1070
     0
1002
}
1002
{
1000
MANEDIT
1070
     0
1002
}
1002
{
1000
NOSEL
1070
     0
1002
}
1002
{
1000
BEHIND
1070
     0
1002
}
1002
{
1000
OTHER
1070
     0
1002
}
1002
{
1000
REACTOR
1002
}
  0
LINE
  5
15183
  8
ﾁｭｳｼﾝｾﾝ1
 10
506.9976334758997
 20
168.87951144231269
 30
0.0
 11
532.99763347589965
 21
168.87951144231269
 31
0.0
1001
GENIUS_GENODEF_13
1002
{
1000
HIER
1070
     0
1002
}
1002
{
1000
MANEDIT
1070
     0
1002
}
1002
{
1000
NOSEL
1070
     0
1002
}
1002
{
1000
BEHIND
1070
     0
1002
}
1002
{
1000
OTHER
1070
     0
1002
}
1002
{
1000
REACTOR
1002
}
1001
GENIUS_GENOBJ-N-CEN_13
1002
{
1000
OWNER
1000
GEN
1002
}
  0
ARC
  5
15184
  8
0
 10
519.99763347589965
 20
168.87951144231289
 30
0.0
 40
12.0
 50
270.0
 51
335.63481369578261
  0
ARC
  5
15185
  8
0
 10
528.79367377897449
 20
181.02980670566629
 30
0.0
 40
5.0
 50
234.09785466296589
 51
335.63481369578261
1001
GENIUS_GENODEF_13
1002
{
1000
HIER
1070
     0
1002
}
1002
{
1000
MANEDIT
1070
     0
1002
}
1002
{
1000
NOSEL
1070
     0
1002
}
1002
{
1000
BEHIND
1070
     0
1002
}
1002
{
1000
OTHER
1070
     0
1002
}
1002
{
1000
REACTOR
1002
}
1001
GENIUS_GENOBJ-N-FIL_13
1002
{
1000
OWNER
1000
GEN
1002
}
  0
ARC
  5
15186
  8
0
 10
519.99763347589965
 20
168.87951144231249
 30
0.0
 40
10.0
 50
54.097854662965901
 51
191.53695903281809
  0
LINE
  5
15187
  8
ﾁｭｳｼﾝｾﾝ1
 10
519.99763347589965
 20
155.87951144231269
 30
0.0
 11
519.99763347589965
 21
181.87951144231269
 31
0.0
1001
GENIUS_GENODEF_13
1002
{
1000
HIER
1070
     0
1002
}
1002
{
1000
MANEDIT
1070
     0
1002
}
1002
{
1000
NOSEL
1070
     0
1002
}
1002
{
1000
BEHIND
1070
     0
1002
}
1002
{
1000
OTHER
1070
     0
1002
}
1002
{
1000
REACTOR
1002
}
1001
GENIUS_GENOBJ-N-CEN_13
1002
{
1000
OWNER
1000
GEN
1002
}
  0
CIRCLE
  5
15188
  8
0
 10
519.99763347589965
 20
168.87951144231269
 30
0.0
 40
4.5
  0
ARC
  5
15189
  8
0
 10
505.30069501920048
 20
165.87951144231269
 30
0.0
 40
5.0
 50
270.0
 51
11.536959032818149
1001
GENIUS_GENODEF_13
1002
{
1000
HIER
1070
     0
1002
}
1002
{
1000
MANEDIT
1070
     0
1002
}
1002
{
1000
NOSEL
1070
     0
1002
}
1002
{
1000
BEHIND
1070
     0
1002
}
1002
{
1000
OTHER
1070
     0
1002
}
1002
{
1000
REACTOR
1002
}
1001
GENIUS_GENOBJ-N-FIL_13
1002
{
1000
OWNER
1000
GEN
1002
}
  0
ARC
  5
1518A
  8
0
 10
508.10884228944678
 20
170.5094329511324
 30
0.0
 40
2.0
 50
352.19356800643959
 51
65.7481492359599
1001
GENIUS_GENODEF_13
1002
{
1000
HIER
1070
     0
1002
}
1002
{
1000
MANEDIT
1070
     0
1002
}
1002
{
1000
NOSEL
1070
     0
1002
}
1002
{
1000
BEHIND
1070
     0
1002
}
1002
{
1000
OTHER
1070
     0
1002
}
1002
{
1000
REACTOR
1002
}
1001
GENIUS_GENOBJ-N-FIL_13
1002
{
1000
OWNER
1000
GEN
1002
}
  0
ARC
  5
1518B
  8
0
 10
511.78343519122382
 20
177.62747958011579
 30
0.0
 40
2.0
 50
245.53408066713951
 51
313.1975963344222
1001
GENIUS_GENOBJ-N-FIL_13
1002
{
1000
OWNER
1000
GEN
1002
}
1001
GENIUS_GENODEF_13
1002
{
1000
HIER
1070
     0
1002
}
1002
{
1000
MANEDIT
1070
     0
1002
}
1002
{
1000
NOSEL
1070
     0
1002
}
1002
{
1000
BEHIND
1070
     0
1002
}
1002
{
1000
OTHER
1070
     0
1002
}
1002
{
1000
REACTOR
1002
}
  0
LINE
  5
1518C
  8
0
 10
530.92884748259121
 20
163.9288993246131
 30
0.0
 11
542.38428706334366
 21
189.22311721541141
 31
0.0
  0
ARC
  5
1518E
  8
AM_0
 10
444.99763347589982
 20
243.87951144231249
 30
0.0
 40
12.5
 50
108.66292488494121
 51
71.337075115058525
  0
ARC
  5
1518F
  8
0
 10
464.49763277554553
 20
191.87951144231221
 30
0.0
 40
2.0
 50
0.0
 51
180.0
  0
LINE
  5
15190
  8
AM_0
 10
448.99763347589982
 20
259.67951144231239
 30
0.0
 11
448.99763347589982
 21
255.7222307246395
 31
0.0
  0
LINE
  5
15191
  8
AM_0
 10
440.99763347589982
 20
259.67951144231239
 30
0.0
 11
440.99763347589982
 21
255.7222307246395
 31
0.0
  0
LINE
  5
15192
  8
AM_0
 10
440.99763347589982
 20
259.67951144231239
 30
0.0
 11
448.99763347589982
 21
259.67951144231239
 31
0.0
  0
ARC
  5
15193
  8
AM_0
 10
315.4915435054312
 20
260.37951144231278
 30
0.0
 40
235.99999999999989
 50
349.4360382876414
 51
0.0000050089569452
  0
CIRCLE
  5
15194
  8
0
 10
530.99763347589976
 20
194.37951144231249
 30
0.0
 40
3.25
  0
ARC
  5
15195
  8
0
 10
530.99760552131988
 20
194.38000496711271
 30
0.0
 40
8.5000003129243851
 50
335.63481369578261
 51
0.0
  0
LINE
  5
15196
  8
AM_0
 10
558.99763176226668
 20
203.8800864422127
 30
0.0
 11
549.49152824664179
 21
203.8800864422127
 31
0.0
  0
ARC
  5
15197
  8
AM_0
 10
549.49152824664179
 20
205.88008644221259
 30
0.0
 40
1.9999999999999989
 50
180.0
 51
270.0
1001
GENIUS_GENOBJ-N-FIL_13
1002
{
1000
OWNER
1000
GEN
1002
}
1001
GENIUS_GENODEF_13
1002
{
1000
HIER
1070
     0
1002
}
1002
{
1000
MANEDIT
1070
     0
1002
}
1002
{
1000
NOSEL
1070
     0
1002
}
1002
{
1000
BEHIND
1070
     0
1002
}
1002
{
1000
OTHER
1070
     0
1002
}
1002
{
1000
REACTOR
1002
}
  0
ARC
  5
15198
  8
AM_0
 10
546.027426631504
 20
204.37951144231269
 30
0.0
 40
1.9999999999999989
 50
42.72374923871029
 51
90.0
1001
GENIUS_GENOBJ-N-FIL_13
1002
{
1000
OWNER
1000
GEN
1002
}
1001
GENIUS_GENODEF_13
1002
{
1000
HIER
1070
     0
1002
}
1002
{
1000
MANEDIT
1070
     0
1002
}
1002
{
1000
NOSEL
1070
     0
1002
}
1002
{
1000
BEHIND
1070
     0
1002
}
1002
{
1000
OTHER
1070
     0
1002
}
1002
{
1000
REACTOR
1002
}
  0
LINE
  5
15199
  8
AM_0
 10
543.49763176226645
 20
206.37951144231289
 30
0.0
 11
546.027426631504
 21
206.37951144231289
 31
0.0
  0
ARC
  5
1519A
  8
0
 10
535.49765807771621
 20
223.87951144231249
 30
0.0
 40
2.0
 50
90.0
 51
270.0
  0
ARC
  5
1519B
  8
0
 10
537.49765807771632
 20
219.87951144231249
 30
0.0
 40
2.0
 50
0.0
 51
90.0
1001
GENIUS_GENODEF_13
1002
{
1000
HIER
1070
     0
1002
}
1002
{
1000
MANEDIT
1070
     0
1002
}
1002
{
1000
NOSEL
1070
     0
1002
}
1002
{
1000
BEHIND
1070
     0
1002
}
1002
{
1000
OTHER
1070
     0
1002
}
1002
{
1000
REACTOR
1002
}
1001
GENIUS_GENOBJ-N-FIL_13
1002
{
1000
OWNER
1000
GEN
1002
}
  0
LINE
  5
1519C
  8
0
 10
535.49765807771655
 20
221.87951144231249
 30
0.0
 11
537.49765807771632
 21
221.87951144231249
 31
0.0
  0
ARC
  5
1519D
  8
0
 10
537.49765807771632
 20
227.87951144231249
 30
0.0
 40
2.0
 50
270.0
 51
0.0
1001
GENIUS_GENOBJ-N-FIL_13
1002
{
1000
OWNER
1000
GEN
1002
}
1001
GENIUS_GENODEF_13
1002
{
1000
HIER
1070
     0
1002
}
1002
{
1000
MANEDIT
1070
     0
1002
}
1002
{
1000
NOSEL
1070
     0
1002
}
1002
{
1000
BEHIND
1070
     0
1002
}
1002
{
1000
OTHER
1070
     0
1002
}
1002
{
1000
REACTOR
1002
}
  0
LINE
  5
1519E
  8
0
 10
535.49765807771655
 20
225.87951144231249
 30
0.0
 11
537.49765807771632
 21
225.87951144231249
 31
0.0
  0
LINE
  5
1519F
  8
AM_0
 10
558.99763176226668
 20
214.37951144231269
 30
0.0
 11
547.49152824664145
 21
214.37951144231269
 31
0.0
  0
LINE
  5
151A0
  8
AM_0
 10
546.99152824664145
 20
217.1128946210238
 30
0.0
 11
543.49760583424415
 21
217.11289462102391
 31
0.0
  0
LINE
  5
151A1
  8
AM_0
 10
558.99763176226668
 20
228.43956144231279
 30
0.0
 11
549.39161562630409
 21
228.43956144231279
 31
0.0
  0
ARC
  5
151A2
  8
0
 10
537.49765807771632
 20
267.87951144231249
 30
0.0
 40
2.0
 50
270.0
 51
0.0
1001
GENIUS_GENODEF_13
1002
{
1000
HIER
1070
     0
1002
}
1002
{
1000
MANEDIT
1070
     0
1002
}
1002
{
1000
NOSEL
1070
     0
1002
}
1002
{
1000
BEHIND
1070
     0
1002
}
1002
{
1000
OTHER
1070
     0
1002
}
1002
{
1000
REACTOR
1002
}
1001
GENIUS_GENOBJ-N-FIL_13
1002
{
1000
OWNER
1000
GEN
1002
}
  0
ARC
  5
151A3
  8
0
 10
535.49765807771621
 20
263.87951144231249
 30
0.0
 40
2.0
 50
90.0
 51
270.0
  0
ARC
  5
151A4
  8
0
 10
537.49765807771632
 20
259.87951144231249
 30
0.0
 40
2.0
 50
0.0
 51
90.0
1001
GENIUS_GENOBJ-N-FIL_13
1002
{
1000
OWNER
1000
GEN
1002
}
1001
GENIUS_GENODEF_13
1002
{
1000
HIER
1070
     0
1002
}
1002
{
1000
MANEDIT
1070
     0
1002
}
1002
{
1000
NOSEL
1070
     0
1002
}
1002
{
1000
BEHIND
1070
     0
1002
}
1002
{
1000
OTHER
1070
     0
1002
}
1002
{
1000
REACTOR
1002
}
  0
LINE
  5
151A5
  8
0
 10
535.49765807771655
 20
261.87951144231249
 30
0.0
 11
537.49765807771632
 21
261.87951144231249
 31
0.0
  0
LINE
  5
151A6
  8
0
 10
535.49765807771655
 20
265.87951144231249
 30
0.0
 11
537.49765807771632
 21
265.87951144231249
 31
0.0
  0
LINE
  5
151A7
  8
AM_0
 10
666.49763176226668
 20
194.37951144231249
 30
0.0
 11
666.49763176226668
 21
174.87951144231269
 31
0.0
  0
LINE
  5
151A8
  8
AM_0
 10
657.49763176226679
 20
190.87951144231269
 30
0.0
 11
657.49763176226679
 21
183.37951144231269
 31
0.0
  0
LINE
  5
151A9
  8
AM_0
 10
660.99763176226679
 20
190.87951144231269
 30
0.0
 11
660.99763176226679
 21
183.37951144231269
 31
0.0
  0
LINE
  5
151AA
  8
AM_0
 10
645.99763176226668
 20
183.37951144231269
 30
0.0
 11
645.99763176226668
 21
190.87951144231269
 31
0.0
  0
LINE
  5
151AB
  8
AM_0
 10
649.49763176226679
 20
190.87951144231269
 30
0.0
 11
649.49763176226679
 21
183.37951144231269
 31
0.0
  0
LINE
  5
151AC
  8
AM_0
 10
586.49763176226679
 20
194.37951144231249
 30
0.0
 11
586.49763176226679
 21
187.37951144231269
 31
0.0
  0
LINE
  5
151AD
  8
AM_0
 10
588.99763176226668
 20
170.87951144231269
 30
0.0
 11
663.99763176226679
 21
170.87951144231269
 31
0.0
  0
LINE
  5
151AE
  8
AM_0
 10
600.19363176226682
 20
167.87951144231269
 30
0.0
 11
635.80163176226665
 21
167.87951144231269
 31
0.0
  0
LINE
  5
151AF
  8
AM_0
 10
586.49763176226679
 20
187.37951144231269
 30
0.0
 11
643.99763176226679
 21
187.37951144231269
 31
0.0
  0
LINE
  5
151B0
  8
AM_0
 10
587.99763176226668
 20
187.37951144231269
 30
0.0
 11
587.99763176226668
 21
171.87951144231269
 31
0.0
  0
ARC
  5
151B1
  8
AM_0
 10
588.99763176226668
 20
171.87951144231249
 30
0.0
 40
1.0
 50
180.0
 51
270.0
  0
LINE
  5
151B2
  8
AM_0
 10
594.99763176226679
 20
170.87951144231269
 30
0.0
 11
600.19363176226682
 21
167.87951144231269
 31
0.0
  0
ARC
  5
151B3
  8
AM_0
 10
653.49763176226679
 20
183.37951144231269
 30
0.0
 40
7.5000000000000018
 50
180.0
 51
0.0
  0
ARC
  5
151B4
  8
AM_0
 10
654.49763176226668
 20
182.37951144231269
 30
0.0
 40
7.499999999999992
 50
270.0
 51
0.0
  0
LINE
  5
151B5
  8
AM_0
 10
635.80163176226665
 20
167.87951144231269
 30
0.0
 11
640.99040727246984
 21
170.87951144231269
 31
0.0
  0
ARC
  5
151B6
  8
AM_0
 10
652.49763176226679
 20
182.37951144231269
 30
0.0
 40
7.4999999999999956
 50
180.0
 51
270.0
  0
ARC
  5
151B7
  8
AM_0
 10
653.49763176226679
 20
183.37951144231269
 30
0.0
 40
3.999999999999996
 50
180.0
 51
0.0
  0
LINE
  5
151B8
  8
AM_0
 10
652.49763176226679
 20
174.87951144231269
 30
0.0
 11
654.49763176226668
 21
174.87951144231269
 31
0.0
  0
ARC
  5
151B9
  8
AM_0
 10
643.99763176226679
 20
186.37951144231261
 30
0.0
 40
1.0
 50
0.0
 51
90.0
  0
LINE
  5
151BA
  8
AM_0
 10
644.99763176226679
 20
182.37951144231269
 30
0.0
 11
644.99763176226679
 21
186.37951144231261
 31
0.0
  0
LINE
  5
151BB
  8
AM_0
 10
664.99763176226679
 20
187.37951144231269
 30
0.0
 11
664.99763176226679
 21
171.87951144231269
 31
0.0
  0
LINE
  5
151BC
  8
AM_0
 10
666.49763176226668
 20
174.87951144231269
 30
0.0
 11
664.99763176226679
 21
174.87951144231269
 31
0.0
  0
ARC
  5
151BD
  8
AM_0
 10
663.99763176226679
 20
171.87951144231269
 30
0.0
 40
1.0
 50
270.0
 51
0.0
  0
LINE
  5
151BE
  8
AM_0
 10
666.49763176226668
 20
187.37951144231269
 30
0.0
 11
662.99763176226668
 21
187.37951144231269
 31
0.0
  0
LINE
  5
151BF
  8
AM_0
 10
661.99763176226679
 20
186.37951144231261
 30
0.0
 11
661.99763176226679
 21
182.37951144231269
 31
0.0
  0
ARC
  5
151C0
  8
AM_0
 10
662.99763176226668
 20
186.37951144231261
 30
0.0
 40
1.0
 50
90.0
 51
180.0
  0
LINE
  5
151C1
  8
AM_0
 10
671.78761176226681
 20
204.09948144231271
 30
0.0
 11
574.86762176226682
 21
204.09948144231271
 31
0.0
  0
LINE
  5
151C2
  8
AM_0
 10
573.66480176226685
 20
236.37951144231269
 30
0.0
 11
672.63764176226687
 21
236.37951144231269
 31
0.0
  0
LINE
  5
151C3
  8
AM_0
 10
673.31764176226682
 20
227.00951144231269
 30
0.0
 11
605.97761176226675
 21
227.00951144231269
 31
0.0
  0
LINE
  5
151C4
  8
AM_0
 10
617.99763176226668
 20
224.37951144231269
 30
0.0
 11
672.63764176226687
 21
224.37951144231269
 31
0.0
  0
LINE
  5
151C5
  8
AM_0
 10
617.99763176226668
 20
226.37951144231269
 30
0.0
 11
672.63764176226687
 21
226.37951144231269
 31
0.0
  0
LINE
  5
151C6
  8
AM_0
 10
673.31764176226682
 20
223.6595414423127
 30
0.0
 11
617.99763176226668
 21
223.6595414423127
 31
0.0
  0
LINE
  5
151C7
  8
AM_0
 10
673.53761176226681
 20
233.88952144231271
 30
0.0
 11
605.99763176226679
 21
233.88952144231271
 31
0.0
  0
LINE
  5
151C8
  8
AM_0
 10
586.49763176226679
 20
194.37951144231249
 30
0.0
 11
666.49763176226668
 21
194.37951144231249
 31
0.0
  0
LINE
  5
151C9
  8
AM_0
 10
666.49763176226668
 20
190.87951144231269
 30
0.0
 11
586.49763176226679
 21
190.87951144231269
 31
0.0
  0
LINE
  5
151CA
  8
AM_0
 10
605.99763176226679
 20
234.37951144231269
 30
0.0
 11
672.63764176226687
 21
234.37951144231269
 31
0.0
  0
LINE
  5
151CB
  8
AM_0
 10
673.53761176226681
 20
236.8194514423127
 30
0.0
 11
569.96339176226672
 21
236.8194514423127
 31
0.0
  0
ARC
  5
151CC
  8
AM_0
 10
605.99763176226679
 20
232.87951144231269
 30
0.0
 40
1.5
 50
89.999996999999041
 51
180.0
  0
ARC
  5
151CD
  8
AM_0
 10
587.99763176226668
 20
232.87951144231269
 30
0.0
 40
1.5
 50
359.999989999999
 51
89.999996999999041
  0
ARC
  5
151CE
  8
AM_0
 10
569.95765176226666
 20
235.34948144231271
 30
0.0
 40
1.460011199999999
 50
89.775249999999915
 51
270.22475000000009
  0
LINE
  5
151CF
  8
AM_0
 10
617.99763176226668
 20
223.6595414423127
 30
0.0
 11
570.17762176226677
 21
223.6595414423127
 31
0.0
  0
LINE
  5
151D0
  8
AM_0
 10
573.65760176226684
 20
224.37951144231269
 30
0.0
 11
617.99763176226668
 21
224.37951144231269
 31
0.0
  0
LINE
  5
151D1
  8
AM_0
 10
573.65760176226684
 20
226.37951144231269
 30
0.0
 11
617.99763176226668
 21
226.37951144231269
 31
0.0
  0
LINE
  5
151D2
  8
AM_0
 10
570.16226408271746
 20
215.94342821811361
 30
0.0
 11
572.93763176226673
 21
205.57952144231271
 31
0.0
  0
LINE
  5
151D3
  8
AM_0
 10
586.41853295433054
 20
197.87951144231269
 30
0.0
 11
574.98139176226687
 21
197.87951144231269
 31
0.0
  0
LINE
  5
151D4
  8
AM_0
 10
567.99763176226668
 20
207.37951144231269
 30
0.0
 11
573.72337176226665
 21
198.56261144231269
 31
0.0
  0
ARC
  5
151D5
  8
AM_0
 10
574.98139176226687
 20
199.37951144231269
 30
0.0
 40
1.5
 50
213.00000000000151
 51
270.000010000001
  0
LINE
  5
151D6
  8
AM_0
 10
572.45558176226666
 20
207.37951144231269
 30
0.0
 11
566.99763176226668
 21
207.37951144231269
 31
0.0
  0
ARC
  5
151D7
  8
AM_0
 10
574.87245176226679
 20
206.10424144231271
 30
0.0
 40
2.0047290000000002
 50
195.173499999998
 51
269.86167999999901
  0
LINE
  5
151D8
  8
AM_0
 10
587.97141634857906
 20
194.37951144231249
 30
0.0
 11
587.71690254851114
 21
204.09948144231271
 31
0.0
  0
ARC
  5
151D9
  8
AM_0
 10
586.41853295433054
 20
196.37951144231269
 30
0.0
 40
1.5
 50
1.4999259432500831
 51
90.0
1001
GENIUS_GENODEF_13
1002
{
1000
HIER
1070
     0
1002
}
1002
{
1000
MANEDIT
1070
     0
1002
}
1002
{
1000
NOSEL
1070
     0
1002
}
1002
{
1000
BEHIND
1070
     0
1002
}
1002
{
1000
REACTOR
1002
}
1001
GENIUS_GENOBJ-N-FIL_13
1002
{
1000
OWNER
1000
GEN
1002
}
  0
LINE
  5
151DA
  8
AM_0
 10
570.17762176226677
 20
227.00951144231269
 30
0.0
 11
588.01759176226676
 21
227.00951144231269
 31
0.0
  0
LINE
  5
151DB
  8
AM_0
 10
587.99763176226668
 20
233.89953144231259
 30
0.0
 11
569.96339176226672
 21
233.89953144231259
 31
0.0
  0
LINE
  5
151DC
  8
AM_0
 10
567.99763176226668
 20
222.3795114423128
 30
0.0
 11
568.89763176226643
 21
222.3795114423128
 31
0.0
  0
LINE
  5
151DD
  8
AM_0
 10
567.99763176226668
 20
215.37951144231269
 30
0.0
 11
568.89763176226643
 21
215.37951144231269
 31
0.0
  0
LINE
  5
151DE
  8
AM_0
 10
567.99763176226668
 20
222.67953144231279
 30
0.0
 11
566.99763176226668
 21
222.67953144231279
 31
0.0
  0
LINE
  5
151DF
  8
AM_0
 10
566.99763176226668
 20
218.65688144231271
 30
0.0
 11
567.99763176226668
 21
218.0795214423126
 31
0.0
  0
LINE
  5
151E0
  8
AM_0
 10
566.99763176226668
 20
219.65688144231271
 30
0.0
 11
567.99763176226668
 21
219.0795214423126
 31
0.0
  0
LINE
  5
151E1
  8
AM_0
 10
567.99763176226668
 20
215.0795214423126
 30
0.0
 11
566.99763176226668
 21
215.0795214423126
 31
0.0
  0
LINE
  5
151E2
  8
AM_0
 10
566.99763176226668
 20
222.67953144231279
 30
0.0
 11
566.99763176226668
 21
215.0795214423126
 31
0.0
  0
LINE
  5
151E3
  8
AM_0
 10
567.99763176226668
 20
222.67953144231279
 30
0.0
 11
567.99763176226668
 21
215.0795214423126
 31
0.0
  0
ARC
  5
151E4
  8
AM_0
 10
568.89763176226643
 20
220.67953144231259
 30
0.0
 40
1.699996899999999
 50
0.0000199999954991
 51
89.999996999999041
  0
ARC
  5
151E5
  8
AM_0
 10
568.89763176226643
 20
217.07952144231251
 30
0.0
 40
1.7000007999999991
 50
270.0000199999987
 51
359.999989999999
  0
LINE
  5
151E6
  8
AM_0
 10
570.59761176226675
 20
220.67953144231259
 30
0.0
 11
570.59761176226675
 21
217.07952144231251
 31
0.0
  0
ARC
  5
151E7
  8
AM_0
 10
573.65760176226684
 20
225.37951144231269
 30
0.0
 40
1.0
 50
89.999996999999041
 51
270.000010000001
  0
ARC
  5
151E8
  8
AM_0
 10
570.17762176226677
 20
225.33446144231269
 30
0.0
 40
1.6750020000000001
 50
89.999996999999041
 51
270.000010000001
  0
ARC
  5
151E9
  8
AM_0
 10
587.99763176226668
 20
232.87951144231269
 30
0.0
 40
1.02
 50
359.999989999999
 51
89.999996999999041
  0
ARC
  5
151EA
  8
AM_0
 10
587.99763176226668
 20
227.87951144231269
 30
0.0
 40
1.5
 50
270.0
 51
0.0000100000010064
  0
ARC
  5
151EB
  8
AM_0
 10
588.01759176226676
 20
228.01952144231271
 30
0.0
 40
1.0
 50
270.0
 51
0.0000100000010064
  0
LINE
  5
151EC
  8
AM_0
 10
589.49763176226679
 20
232.87951144231269
 30
0.0
 11
589.49763176226679
 21
227.87951144231269
 31
0.0
  0
LINE
  5
151ED
  8
AM_0
 10
589.01759176226665
 20
232.87951144231269
 30
0.0
 11
589.01759176226665
 21
228.01952144231271
 31
0.0
  0
CIRCLE
  5
151EE
  8
AM_0
 10
599.49763176226679
 20
231.87951144231269
 30
0.0
 40
1.1000000000000001
  0
CIRCLE
  5
151EF
  8
AM_0
 10
599.49763176226679
 20
231.87951144231269
 30
0.0
 40
1.149999999999999
  0
CIRCLE
  5
151F0
  8
AM_0
 10
594.49763176226679
 20
231.87951144231269
 30
0.0
 40
1.0
  0
ARC
  5
151F1
  8
AM_0
 10
605.99763176226679
 20
232.87951144231269
 30
0.0
 40
1.02
 50
89.999996999999041
 51
180.0
  0
ARC
  5
151F2
  8
AM_0
 10
605.99763176226679
 20
227.87951144231269
 30
0.0
 40
1.5
 50
179.99999931675049
 51
270.000010000001
  0
ARC
  5
151F3
  8
AM_0
 10
605.97761176226675
 20
228.01952144231271
 30
0.0
 40
1.0
 50
179.99999931675049
 51
270.000010000001
  0
LINE
  5
151F4
  8
AM_0
 10
604.97761176226675
 20
232.87951144231269
 30
0.0
 11
604.97761176226675
 21
228.01952144231271
 31
0.0
  0
LINE
  5
151F5
  8
AM_0
 10
604.49763176226668
 20
232.87951144231269
 30
0.0
 11
604.49763176226668
 21
227.87951144231269
 31
0.0
  0
LINE
  5
151F6
  8
AM_0
 10
573.66480176226685
 20
234.37951144231269
 30
0.0
 11
587.99763176226668
 21
234.37951144231269
 31
0.0
  0
ARC
  5
151F7
  8
AM_0
 10
573.6576617622668
 20
235.37951144231269
 30
0.0
 40
1.0000255999999981
 50
89.589468999998957
 51
270.41053000000011
  0
ARC
  5
151F8
  8
AM_0
 10
684.99745176226668
 20
233.3796314423127
 30
0.0
 40
0.9998239899999999
 50
89.989922999999536
 51
180.01008000000471
  0
ARC
  5
151F9
  8
AM_0
 10
673.53761176226681
 20
235.3544814423127
 30
0.0
 40
1.465004
 50
270.0
 51
89.999996999999041
  0
LINE
  5
151FA
  8
AM_0
 10
688.99763176226656
 20
212.3594914423127
 30
0.0
 11
688.99763176226656
 21
255.37951144231269
 31
0.0
  0
LINE
  5
151FB
  8
AM_0
 10
672.09138176226668
 20
201.24950144231269
 30
0.0
 11
649.66491894091484
 21
201.24950144231269
 31
0.0
  0
LINE
  5
151FC
  8
AM_0
 10
648.02381283637078
 20
194.37951144231269
 30
0.0
 11
648.27829209123001
 21
204.09948144231259
 31
0.0
  0
ARC
  5
151FD
  8
AM_0
 10
649.66491894091484
 20
199.74950144231269
 30
0.0
 40
1.5
 50
90.0
 51
178.5002775490122
1001
GENIUS_GENODEF_13
1002
{
1000
HIER
1070
     0
1002
}
1002
{
1000
MANEDIT
1070
     0
1002
}
1002
{
1000
NOSEL
1070
     0
1002
}
1002
{
1000
BEHIND
1070
     0
1002
}
1002
{
1000
REACTOR
1002
}
1001
GENIUS_GENOBJ-N-FIL_13
1002
{
1000
OWNER
1000
GEN
1002
}
  0
LINE
  5
151FE
  8
AM_0
 10
687.20765176226655
 20
211.8894914423127
 30
0.0
 11
688.4476417622667
 21
212.5194914423127
 31
0.0
  0
ARC
  5
151FF
  8
AM_0
 10
688.00190176226658
 20
213.4099014423127
 30
0.0
 40
0.9956849800000001
 50
296.59085999999968
 51
359.97886999999997
  0
LINE
  5
15200
  8
AM_0
 10
669.63764176226675
 20
223.7294814423127
 30
0.0
 11
674.99757176226683
 21
212.28957144231271
 31
0.0
  0
LINE
  5
15201
  8
AM_0
 10
682.99763176226668
 20
207.37951144231269
 30
0.0
 11
674.99763176226668
 21
207.37951144231269
 31
0.0
  0
ARC
  5
15202
  8
AM_0
 10
672.09138176226668
 20
203.24950144231269
 30
0.0
 40
2.0
 50
270.000010000001
 51
352.04955999999657
  0
ARC
  5
15203
  8
AM_0
 10
672.01100176226669
 20
203.24950144231269
 30
0.0
 40
2.0
 50
270.000010000001
 51
351.3703800000024
  0
ARC
  5
15204
  8
AM_0
 10
671.74140176226672
 20
203.2498714423127
 30
0.0
 40
2.000420099999999
 50
270.1772900000006
 51
351.07317999999862
  0
ARC
  5
15205
  8
AM_0
 10
671.79273176226661
 20
206.09874144231259
 30
0.0
 40
1.9992490000000001
 50
269.85256999999859
 51
349.35689999999892
  0
LINE
  5
15206
  8
AM_0
 10
674.99763176226668
 20
210.93947144231279
 30
0.0
 11
673.7176017622669
 21
202.93956144231271
 31
0.0
  0
LINE
  5
15207
  8
AM_0
 10
674.99763176226668
 20
212.28948144231259
 30
0.0
 11
673.75758176226668
 21
205.7294814423127
 31
0.0
  0
LINE
  5
15208
  8
AM_0
 10
674.99757176226683
 20
209.5995414423127
 30
0.0
 11
674.0721517622668
 21
202.97295144231271
 31
0.0
  0
LINE
  5
15209
  8
AM_0
 10
674.99763176226668
 20
209.59957144231271
 30
0.0
 11
673.98835176226635
 21
202.9493914423127
 31
0.0
  0
LINE
  5
1520A
  8
AM_0
 10
686.72761176226675
 20
210.62951144231269
 30
0.0
 11
684.49763176226668
 21
210.62951144231269
 31
0.0
  0
LINE
  5
1520B
  8
AM_0
 10
686.75764176226664
 20
211.77953144231259
 30
0.0
 11
684.49763176226668
 21
211.77953144231259
 31
0.0
  0
ARC
  5
1520C
  8
AM_0
 10
684.49714176226689
 20
210.1299914423127
 30
0.0
 40
0.49952301
 50
89.945226000000403
 51
180.0547699999986
  0
ARC
  5
1520D
  8
AM_0
 10
684.50099176226684
 20
212.28295144231271
 30
0.0
 40
0.5033929900000002
 50
180.38490000000181
 51
269.61508999999938
  0
LINE
  5
1520E
  8
AM_0
 10
683.99763176226668
 20
210.37951144231269
 30
0.0
 11
682.99763176226668
 21
210.37951144231269
 31
0.0
  0
LINE
  5
1520F
  8
AM_0
 10
686.99763176226679
 20
210.87951144231269
 30
0.0
 11
686.99763176226679
 21
211.4095414423127
 31
0.0
  0
LINE
  5
15210
  8
AM_0
 10
687.22761176226675
 20
210.76952144231271
 30
0.0
 11
688.49757176226683
 21
211.49950144231269
 31
0.0
  0
ARC
  5
15211
  8
AM_0
 10
688.00001176226669
 20
212.36412144231269
 30
0.0
 40
0.9976310099999999
 50
299.92075999999929
 51
359.73219000000142
  0
ARC
  5
15212
  8
AM_0
 10
686.716931762267
 20
211.6306014423127
 30
0.0
 40
1.001123999999999
 50
270.61232000000132
 51
300.67217999999917
  0
ARC
  5
15213
  8
AM_0
 10
686.751781762267
 20
212.7788014423127
 30
0.0
 40
0.9993420200000001
 50
270.3345399999983
 51
297.1380000000006
  0
LINE
  5
15214
  8
AM_0
 10
682.29762176226677
 20
217.18956144231279
 30
0.0
 11
676.06764176226682
 21
217.18956144231279
 31
0.0
  0
ARC
  5
15215
  8
AM_0
 10
672.45301176226656
 20
225.37951144231269
 30
0.0
 40
1.0000138999999999
 50
269.69165999999939
 51
90.308340000000754
  0
ARC
  5
15216
  8
AM_0
 10
673.32447176226685
 20
225.33446144231269
 30
0.0
 40
1.675014
 50
269.7664900000006
 51
90.233500999999919
  0
POLYLINE
  5
15217
  8
AM_0
 66
     1
 10
0.0
 20
0.0
 30
0.0
  0
VERTEX
  5
15218
  8
AM_0
 10
671.13673176226655
 20
233.89647144231279
 30
0.0
 42
-0.0006890001
  0
VERTEX
  5
15219
  8
AM_0
 10
671.06585176226667
 20
233.32172144231279
 30
0.0
 42
-0.00070644651
  0
VERTEX
  5
1521A
  8
AM_0
 10
670.99335176226646
 20
232.74704144231271
 30
0.0
 42
-0.0006924559
  0
VERTEX
  5
1521B
  8
AM_0
 10
670.91926176226661
 20
232.17272144231279
 30
0.0
 42
-0.00069587797
  0
VERTEX
  5
1521C
  8
AM_0
 10
670.84358176226669
 20
231.59858144231271
 30
0.0
 42
-0.00071687041
  0
VERTEX
  5
1521D
  8
AM_0
 10
670.76627176226702
 20
231.02458144231261
 30
0.0
 42
-0.00069759113
  0
VERTEX
  5
1521E
  8
AM_0
 10
670.68733176226647
 20
230.45079144231269
 30
0.0
 42
-0.00071003142
  0
VERTEX
  5
1521F
  8
AM_0
 10
670.60679176226665
 20
229.87732144231271
 30
0.0
 42
-0.00069954544
  0
VERTEX
  5
15220
  8
AM_0
 10
670.52465176226679
 20
229.30422144231269
 30
0.0
 42
-0.0007188852
  0
VERTEX
  5
15221
  8
AM_0
 10
670.44087176226674
 20
228.73119144231271
 30
0.0
 42
-0.00071266165
  0
VERTEX
  5
15222
  8
AM_0
 10
670.35544176226665
 20
228.15843144231269
 30
0.0
 42
-0.00071614577
  0
VERTEX
  5
15223
  8
AM_0
 10
670.26841176226662
 20
227.5860814423126
 30
0.0
 42
-0.00072290806
  0
VERTEX
  5
15224
  8
AM_0
 10
670.17970176226663
 20
227.01378144231271
 30
0.0
  0
SEQEND
  5
15225
  8
AM_0
  0
LINE
  5
15226
  8
AM_0
 10
686.72761176226675
 20
218.39953144231259
 30
0.0
 11
684.99763176226679
 21
218.39953144231259
 31
0.0
  0
LINE
  5
15227
  8
AM_0
 10
686.69758176226696
 20
217.25951144231269
 30
0.0
 11
683.99763176226668
 21
217.25951144231269
 31
0.0
  0
LINE
  5
15228
  8
AM_0
 10
686.7176017622669
 20
212.7394914423127
 30
0.0
 11
683.99763176226668
 21
212.7394914423127
 31
0.0
  0
LINE
  5
15229
  8
AM_0
 10
686.74763176226668
 20
213.87951144231269
 30
0.0
 11
684.99763176226679
 21
213.87951144231269
 31
0.0
  0
ARC
  5
1522A
  8
AM_0
 10
685.000071762267
 20
219.40197144231271
 30
0.0
 40
1.002470999999999
 50
180.14107000000001
 51
269.85892999999987
  0
ARC
  5
1522B
  8
AM_0
 10
685.00086176226637
 20
219.40624144231271
 30
0.0
 40
1.0032760000000001
 50
180.38188999999531
 51
205.80189999999499
  0
ARC
  5
1522C
  8
AM_0
 10
685.00172176226647
 20
214.8836614423127
 30
0.0
 40
1.0041199999999999
 50
180.23461
 51
269.76539000000002
  0
LINE
  5
1522D
  8
AM_0
 10
687.24769176226664
 20
217.4194814423127
 30
0.0
 11
688.54768176226673
 21
218.2694914423127
 31
0.0
  0
LINE
  5
1522E
  8
AM_0
 10
686.99763176226679
 20
217.54955144231269
 30
0.0
 11
686.99763176226679
 21
218.01952144231271
 31
0.0
  0
LINE
  5
1522F
  8
AM_0
 10
687.22761176226675
 20
218.52956144231271
 30
0.0
 11
688.50758176226668
 21
219.27953144231259
 31
0.0
  0
ARC
  5
15230
  8
AM_0
 10
687.99854176226654
 20
219.10424144231271
 30
0.0
 40
0.9990889999999998
 50
303.33790999999752
 51
0.3049100000035238
  0
LINE
  5
15231
  8
AM_0
 10
688.50764176226664
 20
219.27950144231269
 30
0.0
 11
688.52766176226658
 21
219.28948144231271
 31
0.0
  0
ARC
  5
15232
  8
AM_0
 10
687.99915176226659
 20
220.13878144231279
 30
0.0
 40
0.9984580299999999
 50
300.61343000000079
 51
0.0404200000014761
  0
ARC
  5
15233
  8
AM_0
 10
687.99915176226659
 20
220.13878144231279
 30
0.0
 40
0.9984580299999999
 50
300.61343000000079
 51
0.0404200000014761
  0
ARC
  5
15234
  8
AM_0
 10
686.73426176226656
 20
219.4005014423127
 30
0.0
 40
1.001044999999998
 50
269.62029000000052
 51
299.52812999999918
  0
LINE
  5
15235
  8
AM_0
 10
687.2176017622669
 20
213.99950144231269
 30
0.0
 11
688.4676017622669
 21
214.65950144231269
 31
0.0
  0
LINE
  5
15236
  8
AM_0
 10
687.23756176226698
 20
212.87951144231269
 30
0.0
 11
688.51759176226665
 21
213.64953144231271
 31
0.0
  0
ARC
  5
15237
  8
AM_0
 10
687.9988517622669
 20
214.50304144231271
 30
0.0
 40
0.9987969999999998
 50
301.2920499999999
 51
0.3727199999990191
  0
ARC
  5
15238
  8
AM_0
 10
687.99989176226654
 20
215.54076144231269
 30
0.0
 40
0.9977070099999998
 50
297.95518999999922
 51
359.925979999996
  0
LINE
  5
15239
  8
AM_0
 10
686.99763176226679
 20
212.9794814423127
 30
0.0
 11
686.99763176226679
 21
213.52953144231259
 31
0.0
  0
ARC
  5
1523A
  8
AM_0
 10
686.74244176226682
 20
214.8801214423128
 30
0.0
 40
1.0006820000000001
 50
270.29607000000112
 51
298.34937999999829
  0
ARC
  5
1523B
  8
AM_0
 10
686.72621176226664
 20
213.74315144231269
 30
0.0
 40
1.003743999999998
 50
269.50809999999939
 51
300.62887000000268
  0
ARC
  5
1523C
  8
AM_0
 10
686.70484176226682
 20
218.2600014423127
 30
0.0
 40
1.000521999999999
 50
269.58655999999962
 51
302.85382000000021
  0
LINE
  5
1523D
  8
AM_0
 10
686.79762176226666
 20
224.68956144231279
 30
0.0
 11
684.69764176226681
 21
224.68956144231279
 31
0.0
  0
LINE
  5
1523E
  8
AM_0
 10
686.84760176226678
 20
226.63952144231271
 30
0.0
 11
684.99763176226679
 21
226.63952144231271
 31
0.0
  0
ARC
  5
1523F
  8
AM_0
 10
684.69709176226661
 20
223.99010144231269
 30
0.0
 40
0.6994530000000001
 50
89.95517099999924
 51
180.04482999999919
  0
ARC
  5
15240
  8
AM_0
 10
685.00099176226684
 20
227.64281144231271
 30
0.0
 40
1.003352
 50
180.1910999999989
 51
269.80888999999979
  0
ARC
  5
15241
  8
AM_0
 10
688.00111176226665
 20
226.20800144231271
 30
0.0
 40
0.9965090199999998
 50
292.82154999999977
 51
0.086250000003428
  0
LINE
  5
15242
  8
AM_0
 10
687.18757176226688
 20
224.76955144231269
 30
0.0
 11
688.38758176226668
 21
225.28957144231279
 31
0.0
  0
LINE
  5
15243
  8
AM_0
 10
686.99763176226679
 20
224.9894914423127
 30
0.0
 11
686.99763176226679
 21
226.04955144231269
 31
0.0
  0
LINE
  5
15244
  8
AM_0
 10
687.13764176226675
 20
226.6794914423127
 30
0.0
 11
688.28761176226658
 21
227.03951144231269
 31
0.0
  0
ARC
  5
15245
  8
AM_0
 10
688.00123176226657
 20
227.9938914423127
 30
0.0
 40
0.99638802
 50
286.70335999999969
 51
359.75009000000108
  0
ARC
  5
15246
  8
AM_0
 10
686.79463176226682
 20
225.69469144231269
 30
0.0
 40
1.005233
 50
270.17075000000051
 51
293.0136099999998
  0
ARC
  5
15247
  8
AM_0
 10
686.85706176226665
 20
227.64220144231271
 30
0.0
 40
1.002699
 50
269.45935999999892
 51
286.24727999999777
  0
LINE
  5
15248
  8
AM_0
 10
673.72761176226675
 20
264.11950144231281
 30
0.0
 11
637.27894176226664
 21
264.11950144231281
 31
0.0
  0
LINE
  5
15249
  8
AM_0
 10
673.72761176226675
 20
266.64953144231259
 30
0.0
 11
637.27894176226664
 21
266.64953144231259
 31
0.0
  0
LINE
  5
1524A
  8
AM_0
 10
638.55891176226646
 20
264.37951144231272
 30
0.0
 11
672.63764176226687
 21
264.37951144231272
 31
0.0
  0
LINE
  5
1524B
  8
AM_0
 10
638.55891176226646
 20
266.37951144231272
 30
0.0
 11
672.63764176226687
 21
266.37951144231272
 31
0.0
  0
LINE
  5
1524C
  8
AM_0
 10
673.6676117622668
 20
274.05956144231283
 30
0.0
 11
637.33894176226636
 21
274.05956144231283
 31
0.0
  0
LINE
  5
1524D
  8
AM_0
 10
638.55891176226646
 20
274.37951144231272
 30
0.0
 11
672.63764176226687
 21
274.37951144231272
 31
0.0
  0
LINE
  5
1524E
  8
AM_0
 10
673.6676117622668
 20
276.71947144231268
 30
0.0
 11
637.33894176226636
 21
276.71947144231268
 31
0.0
  0
LINE
  5
1524F
  8
AM_0
 10
638.55891176226646
 20
276.37951144231272
 30
0.0
 11
672.63764176226687
 21
276.37951144231272
 31
0.0
  0
LINE
  5
15250
  8
AM_0
 10
638.55891176226646
 20
256.37951144231272
 30
0.0
 11
672.63764176226687
 21
256.37951144231272
 31
0.0
  0
LINE
  5
15251
  8
AM_0
 10
673.72761176226675
 20
256.64953144231259
 30
0.0
 11
637.27894176226664
 21
256.64953144231259
 31
0.0
  0
LINE
  5
15252
  8
AM_0
 10
673.6676117622668
 20
244.0395414423127
 30
0.0
 11
637.32636176226697
 21
244.0395414423127
 31
0.0
  0
LINE
  5
15253
  8
AM_0
 10
638.55891176226646
 20
244.37951144231269
 30
0.0
 11
672.63764176226687
 21
244.37951144231269
 31
0.0
  0
LINE
  5
15254
  8
AM_0
 10
638.55891176226646
 20
246.37951144231269
 30
0.0
 11
672.63764176226687
 21
246.37951144231269
 31
0.0
  0
LINE
  5
15255
  8
AM_0
 10
673.6676117622668
 20
246.69945144231269
 30
0.0
 11
637.33894176226636
 21
246.69945144231269
 31
0.0
  0
LINE
  5
15256
  8
AM_0
 10
673.72761176226675
 20
254.1094914423127
 30
0.0
 11
637.27894176226664
 21
254.1094914423127
 31
0.0
  0
LINE
  5
15257
  8
AM_0
 10
638.55891176226646
 20
254.37951144231269
 30
0.0
 11
672.63764176226687
 21
254.37951144231269
 31
0.0
  0
ARC
  5
15258
  8
AM_0
 10
638.55891176226646
 20
255.37951144231269
 30
0.0
 40
1.000005699999998
 50
89.999996999999041
 51
270.000010000001
  0
ARC
  5
15259
  8
AM_0
 10
637.27070176226675
 20
255.37951144231269
 30
0.0
 40
1.2700266
 50
89.629330000001815
 51
270.37067999999999
  0
ARC
  5
1525A
  8
AM_0
 10
638.55891176226646
 20
245.37951144231269
 30
0.0
 40
1.000005699999998
 50
89.999996999999041
 51
270.000010000001
  0
ARC
  5
1525B
  8
AM_0
 10
637.33265176226666
 20
245.36950144231281
 30
0.0
 40
1.3300148000000001
 50
89.729432999998977
 51
270.2705800000013
  0
ARC
  5
1525C
  8
AM_0
 10
638.55891176226646
 20
265.37951144231272
 30
0.0
 40
1.000005699999998
 50
89.999996999999041
 51
270.000010000001
  0
ARC
  5
1525D
  8
AM_0
 10
637.27070176226675
 20
265.38952144231268
 30
0.0
 40
1.2700266
 50
89.629330000001815
 51
270.37067999999999
  0
ARC
  5
1525E
  8
AM_0
 10
638.55891176226646
 20
275.37951144231272
 30
0.0
 40
1.000005699999998
 50
89.999996999999041
 51
270.000010000001
  0
ARC
  5
1525F
  8
AM_0
 10
637.33265176226666
 20
275.39452144231268
 30
0.0
 40
1.3350147999999999
 50
89.730443999998613
 51
270.2695700000001
  0
ARC
  5
15260
  8
AM_0
 10
688.00251176226675
 20
255.3843914423127
 30
0.0
 40
0.9950770099999999
 50
359.7158599999994
 51
90.284140000000534
  0
LINE
  5
15261
  8
AM_0
 10
686.99763176226679
 20
254.76952144231271
 30
0.0
 11
686.99763176226679
 21
255.92955144231269
 31
0.0
  0
ARC
  5
15262
  8
AM_0
 10
672.45301176226656
 20
255.37951144231269
 30
0.0
 40
1.0000138999999999
 50
269.69165999999939
 51
90.308340000000754
  0
ARC
  5
15263
  8
AM_0
 10
673.7334717622665
 20
255.37951144231269
 30
0.0
 40
1.2700129999999981
 50
269.73663000000079
 51
90.263383000001653
  0
LINE
  5
15264
  8
AM_0
 10
691.49152824664168
 20
245.15767916692209
 30
0.0
 11
691.49152824664168
 21
275.60131320012522
 31
0.0
  0
ARC
  5
15265
  8
AM_0
 10
672.45301176226656
 20
245.37951144231269
 30
0.0
 40
1.0000138999999999
 50
269.69165999999939
 51
90.308340000000754
  0
ARC
  5
15266
  8
AM_0
 10
673.6676117622668
 20
245.36950144231281
 30
0.0
 40
1.3300049999999981
 50
270.0
 51
89.999996999999041
  0
ARC
  5
15267
  8
AM_0
 10
672.45301176226656
 20
235.37951144231269
 30
0.0
 40
1.0000138999999999
 50
269.69165999999939
 51
90.308340000000754
  0
POLYLINE
  5
15268
  8
AM_0
 66
     1
 10
0.0
 20
0.0
 30
0.0
  0
VERTEX
  5
15269
  8
AM_0
 10
672.11939176226679
 20
244.0389314423127
 30
0.0
 42
-0.00073721992
  0
VERTEX
  5
1526A
  8
AM_0
 10
672.07524176226661
 20
243.43652144231271
 30
0.0
 42
-0.00074398496
  0
VERTEX
  5
1526B
  8
AM_0
 10
672.02931176226673
 20
242.83425144231271
 30
0.0
 42
-0.00073322625
  0
VERTEX
  5
1526C
  8
AM_0
 10
671.98158176226661
 20
242.23192144231271
 30
0.0
 42
-0.00073594289
  0
VERTEX
  5
1526D
  8
AM_0
 10
671.93210176226683
 20
241.62993144231271
 30
0.0
 42
-0.00074742568
  0
VERTEX
  5
1526E
  8
AM_0
 10
671.88083176226655
 20
241.02807144231269
 30
0.0
 42
-0.00073216749
  0
VERTEX
  5
1526F
  8
AM_0
 10
671.82777176226682
 20
240.42626144231269
 30
0.0
 42
-0.00074184065
  0
VERTEX
  5
15270
  8
AM_0
 10
671.77295176226698
 20
239.8247314423127
 30
0.0
 42
-0.00072077528
  0
VERTEX
  5
15271
  8
AM_0
 10
671.71637176226659
 20
239.22350144231271
 30
0.0
 42
-0.00074978179
  0
VERTEX
  5
15272
  8
AM_0
 10
671.65803176226689
 20
238.6223014423127
 30
0.0
 42
-0.00074288888
  0
VERTEX
  5
15273
  8
AM_0
 10
671.59788176226675
 20
238.0212814423127
 30
0.0
 42
-0.00072503679
  0
VERTEX
  5
15274
  8
AM_0
 10
671.53597176226674
 20
237.4205414423127
 30
0.0
 42
-0.00074640584
  0
VERTEX
  5
15275
  8
AM_0
 10
671.47230176226674
 20
236.81994144231271
 30
0.0
  0
SEQEND
  5
15276
  8
AM_0
  0
POLYLINE
  5
15277
  8
AM_0
 66
     1
 10
0.0
 20
0.0
 30
0.0
  0
VERTEX
  5
15278
  8
AM_0
 10
672.59358176226681
 20
254.1091214423127
 30
0.0
 42
-0.00076695232
  0
VERTEX
  5
15279
  8
AM_0
 10
672.57878176226666
 20
253.49136144231269
 30
0.0
 42
-0.00073263044
  0
VERTEX
  5
1527A
  8
AM_0
 10
672.56214176226683
 20
252.87376144231271
 30
0.0
 42
-0.0007652599
  0
VERTEX
  5
1527B
  8
AM_0
 10
672.54365176226702
 20
252.25609144231271
 30
0.0
 42
-0.00075144485
  0
VERTEX
  5
1527C
  8
AM_0
 10
672.52328176226672
 20
251.6384914423127
 30
0.0
 42
-0.00078594403
  0
VERTEX
  5
1527D
  8
AM_0
 10
672.50103176226673
 20
251.0210614423128
 30
0.0
 42
-0.00073349202
  0
VERTEX
  5
1527E
  8
AM_0
 10
672.47688176226654
 20
250.4036814423126
 30
0.0
 42
-0.0007358075
  0
VERTEX
  5
1527F
  8
AM_0
 10
672.45094176226655
 20
249.78628144231271
 30
0.0
 42
-0.00078592699
  0
VERTEX
  5
15280
  8
AM_0
 10
672.42311176226656
 20
249.1688914423126
 30
0.0
 42
-0.00074823144
  0
VERTEX
  5
15281
  8
AM_0
 10
672.3933817622667
 20
248.55150144231271
 30
0.0
 42
-0.00074896603
  0
VERTEX
  5
15282
  8
AM_0
 10
672.36182176226703
 20
247.93437144231271
 30
0.0
 42
-0.00076039765
  0
VERTEX
  5
15283
  8
AM_0
 10
672.32840176226682
 20
247.31734144231271
 30
0.0
 42
-0.00075616128
  0
VERTEX
  5
15284
  8
AM_0
 10
672.29310176226682
 20
246.70031144231271
 30
0.0
  0
SEQEND
  5
15285
  8
AM_0
  0
LINE
  5
15286
  8
AM_0
 10
691.49149772906355
 20
245.15767916692209
 30
0.0
 11
690.99149772906355
 21
242.38769015325019
 31
0.0
  0
ARC
  5
15287
  8
AM_0
 10
687.99738176226674
 20
245.37975144231271
 30
0.0
 40
1.000199999999998
 50
270.01145999999858
 51
359.98854000000131
  0
LINE
  5
15288
  8
AM_0
 10
686.99763176226679
 20
244.76952144231271
 30
0.0
 11
686.99763176226679
 21
245.9894914423127
 31
0.0
  0
LINE
  5
15289
  8
AM_0
 10
684.99763176226679
 20
244.37951144231269
 30
0.0
 11
687.99763176226656
 21
244.37951144231269
 31
0.0
  0
LINE
  5
1528A
  8
AM_0
 10
684.99763176226679
 20
236.37951144231269
 30
0.0
 11
687.99763176226656
 21
236.37951144231269
 31
0.0
  0
LINE
  5
1528B
  8
AM_0
 10
684.99763176226679
 20
234.37951144231269
 30
0.0
 11
687.99763176226656
 21
234.37951144231269
 31
0.0
  0
ARC
  5
1528C
  8
AM_0
 10
684.99745176226668
 20
243.37963144231259
 30
0.0
 40
0.9998210099999999
 50
89.989718000001702
 51
180.01028000000201
  0
ARC
  5
1528D
  8
AM_0
 10
685.00257176226637
 20
237.3843914423127
 30
0.0
 40
1.0049469
 50
180.2813699999993
 51
269.71863000000081
  0
LINE
  5
1528E
  8
AM_0
 10
690.99152824664168
 20
242.38769015325019
 30
0.0
 11
690.49149772906355
 21
242.42769869817209
 31
0.0
  0
LINE
  5
1528F
  8
AM_0
 10
690.49763176226668
 20
240.37948144231271
 30
0.0
 11
688.99763176226656
 21
240.24947144231271
 31
0.0
  0
LINE
  5
15290
  8
AM_0
 10
690.49763176226668
 20
243.09948144231271
 30
0.0
 11
688.99763176226656
 21
243.09948144231271
 31
0.0
  0
ARC
  5
15291
  8
AM_0
 10
687.99738176226674
 20
235.37975144231271
 30
0.0
 40
1.0001959999999981
 50
270.01124999999951
 51
359.98875000000061
  0
ARC
  5
15292
  8
AM_0
 10
688.00251176226675
 20
235.3843914423127
 30
0.0
 40
0.9950849999999999
 50
359.71628000000078
 51
90.283717000000564
  0
LINE
  5
15293
  8
AM_0
 10
686.99763176226679
 20
234.74950144231269
 30
0.0
 11
686.99763176226679
 21
236.1195014423127
 31
0.0
  0
LINE
  5
15294
  8
AM_0
 10
684.99763176226679
 20
254.37951144231269
 30
0.0
 11
687.99763176226656
 21
254.37951144231269
 31
0.0
  0
LINE
  5
15295
  8
AM_0
 10
684.99763176226679
 20
246.37951144231269
 30
0.0
 11
687.99763176226656
 21
246.37951144231269
 31
0.0
  0
ARC
  5
15296
  8
AM_0
 10
684.99745176226668
 20
253.37963144231259
 30
0.0
 40
0.9998279799999998
 50
89.990161999999827
 51
180.00984000000301
  0
ARC
  5
15297
  8
AM_0
 10
685.00257176226637
 20
247.3843914423127
 30
0.0
 40
1.004939
 50
180.28092999999899
 51
269.71906000000018
  0
ARC
  5
15298
  8
AM_0
 10
687.99738176226674
 20
255.37975144231271
 30
0.0
 40
1.0002040000000001
 50
270.01167999999927
 51
359.98834000000318
  0
ARC
  5
15299
  8
AM_0
 10
688.00251176226675
 20
245.3843914423127
 30
0.0
 40
0.9950810099999999
 50
359.71607999999549
 51
90.283927999999861
  0
LINE
  5
1529A
  8
AM_0
 10
690.49763176226668
 20
245.2294814423127
 30
0.0
 11
688.99763176226656
 21
245.2294814423127
 31
0.0
  0
POLYLINE
  5
1529B
  8
AM_0
 66
     1
 10
0.0
 20
0.0
 30
0.0
  0
VERTEX
  5
1529C
  8
AM_0
 10
672.59358176226681
 20
266.64989144231259
 30
0.0
 42
0.00076691987
  0
VERTEX
  5
1529D
  8
AM_0
 10
672.57878176226666
 20
267.26765144231268
 30
0.0
 42
0.00073262795
  0
VERTEX
  5
1529E
  8
AM_0
 10
672.56214176226683
 20
267.88525144231272
 30
0.0
 42
0.0007652954
  0
VERTEX
  5
1529F
  8
AM_0
 10
672.54365176226702
 20
268.50292144231281
 30
0.0
 42
0.00077334627
  0
VERTEX
  5
152A0
  8
AM_0
 10
672.52324176226682
 20
269.12052144231268
 30
0.0
 42
0.00073282897
  0
VERTEX
  5
152A1
  8
AM_0
 10
672.50098176226675
 20
269.73794144231272
 30
0.0
 42
0.0007571179
  0
VERTEX
  5
152A2
  8
AM_0
 10
672.47688176226654
 20
270.35546144231267
 30
0.0
 42
0.00073783152
  0
VERTEX
  5
152A3
  8
AM_0
 10
672.45094176226655
 20
270.97285144231267
 30
0.0
 42
0.0007835518
  0
VERTEX
  5
152A4
  8
AM_0
 10
672.42311176226656
 20
271.59012144231269
 30
0.0
 42
0.00074826133
  0
VERTEX
  5
152A5
  8
AM_0
 10
672.3933817622667
 20
272.20751144231269
 30
0.0
 42
0.00074893555
  0
VERTEX
  5
152A6
  8
AM_0
 10
672.36182176226703
 20
272.82464144231272
 30
0.0
 42
0.00076039841
  0
VERTEX
  5
152A7
  8
AM_0
 10
672.32840176226682
 20
273.44167144231272
 30
0.0
 42
0.00075618789
  0
VERTEX
  5
152A8
  8
AM_0
 10
672.29310176226682
 20
274.05870144231272
 30
0.0
  0
SEQEND
  5
152A9
  8
AM_0
  0
ARC
  5
152AA
  8
AM_0
 10
672.45301176226656
 20
265.37951144231272
 30
0.0
 40
1.0000138999999999
 50
269.69165999999939
 51
90.308340000000754
  0
ARC
  5
152AB
  8
AM_0
 10
673.7334717622665
 20
265.38451144231271
 30
0.0
 40
1.2650129999999991
 50
269.73559000000068
 51
90.264420999998222
  0
POLYLINE
  5
152AC
  8
AM_0
 66
     1
 10
0.0
 20
0.0
 30
0.0
  0
VERTEX
  5
152AD
  8
AM_0
 10
672.63764176226687
 20
260.37951144231272
 30
0.0
 42
-0.00039106593
  0
VERTEX
  5
152AE
  8
AM_0
 10
672.64000176226682
 20
260.0683714423127
 30
0.0
 42
-0.00040574899
  0
VERTEX
  5
152AF
  8
AM_0
 10
672.64187176226665
 20
259.75726144231271
 30
0.0
 42
-0.0003534546
  0
VERTEX
  5
152B0
  8
AM_0
 10
672.64326176226666
 20
259.4461614423127
 30
0.0
 42
-0.00034407327
  0
VERTEX
  5
152B1
  8
AM_0
 10
672.64424176226635
 20
259.13502144231268
 30
0.0
 42
-0.00045699408
  0
VERTEX
  5
152B2
  8
AM_0
 10
672.64470176226678
 20
258.82391144231269
 30
0.0
 42
-0.00035571853
  0
VERTEX
  5
152B3
  8
AM_0
 10
672.64466176226665
 20
258.51281144231268
 30
0.0
 42
-0.00038547362
  0
VERTEX
  5
152B4
  8
AM_0
 10
672.64417176226698
 20
258.20167144231277
 30
0.0
 42
-0.00035501498
  0
VERTEX
  5
152B5
  8
AM_0
 10
672.64321176226679
 20
257.89057144231271
 30
0.0
 42
-0.00040118614
  0
VERTEX
  5
152B6
  8
AM_0
 10
672.64179176226662
 20
257.57933144231271
 30
0.0
 42
-0.00038319871
  0
VERTEX
  5
152B7
  8
AM_0
 10
672.63988176226667
 20
257.26820144231272
 30
0.0
 42
-0.00040742136
  0
VERTEX
  5
152B8
  8
AM_0
 10
672.63748176226682
 20
256.95697144231269
 30
0.0
 42
-0.0003578071
  0
VERTEX
  5
152B9
  8
AM_0
 10
672.63459176226661
 20
256.64586144231271
 30
0.0
  0
SEQEND
  5
152BA
  8
AM_0
  0
POLYLINE
  5
152BB
  8
AM_0
 66
     1
 10
0.0
 20
0.0
 30
0.0
  0
VERTEX
  5
152BC
  8
AM_0
 10
672.63764176226687
 20
260.37951144231272
 30
0.0
 42
0.00039106653
  0
VERTEX
  5
152BD
  8
AM_0
 10
672.64000176226682
 20
260.6906414423126
 30
0.0
 42
0.00040574511
  0
VERTEX
  5
152BE
  8
AM_0
 10
672.64187176226665
 20
261.00175144231281
 30
0.0
 42
0.00035346331
  0
VERTEX
  5
152BF
  8
AM_0
 10
672.64326176226666
 20
261.31286144231279
 30
0.0
 42
0.00034406545
  0
VERTEX
  5
152C0
  8
AM_0
 10
672.64424176226635
 20
261.6240014423127
 30
0.0
 42
0.00045699059
  0
VERTEX
  5
152C1
  8
AM_0
 10
672.64470176226678
 20
261.93510144231271
 30
0.0
 42
0.00035573431
  0
VERTEX
  5
152C2
  8
AM_0
 10
672.64466176226665
 20
262.24620144231272
 30
0.0
 42
0.00038545888
  0
VERTEX
  5
152C3
  8
AM_0
 10
672.64417176226698
 20
262.55734144231269
 30
0.0
 42
0.00035501203
  0
VERTEX
  5
152C4
  8
AM_0
 10
672.64321176226679
 20
262.86845144231268
 30
0.0
 42
0.00040120778
  0
VERTEX
  5
152C5
  8
AM_0
 10
672.64179176226662
 20
263.1796814423127
 30
0.0
 42
0.00038317821
  0
VERTEX
  5
152C6
  8
AM_0
 10
672.63988176226667
 20
263.4908114423128
 30
0.0
 42
0.00040741862
  0
VERTEX
  5
152C7
  8
AM_0
 10
672.63748176226682
 20
263.8020414423126
 30
0.0
 42
0.00035783324
  0
VERTEX
  5
152C8
  8
AM_0
 10
672.63459176226661
 20
264.11315144231281
 30
0.0
  0
SEQEND
  5
152C9
  8
AM_0
  0
ARC
  5
152CA
  8
AM_0
 10
672.45301176226656
 20
275.37951144231272
 30
0.0
 40
1.0000138999999999
 50
269.69165999999939
 51
90.308340000000754
  0
ARC
  5
152CB
  8
AM_0
 10
673.6676117622668
 20
275.38952144231268
 30
0.0
 40
1.3300049999999981
 50
270.0
 51
89.999996999999041
  0
ARC
  5
152CC
  8
AM_0
 10
685.00257176226637
 20
267.38439144231268
 30
0.0
 40
1.0049469
 50
180.28133999999929
 51
269.71864999999963
  0
LINE
  5
152CD
  8
AM_0
 10
684.99763176226679
 20
266.37951144231272
 30
0.0
 11
687.99763176226656
 21
266.37951144231272
 31
0.0
  0
LINE
  5
152CE
  8
AM_0
 10
684.99763176226679
 20
264.37951144231272
 30
0.0
 11
687.99763176226656
 21
264.37951144231272
 31
0.0
  0
LINE
  5
152CF
  8
AM_0
 10
684.99763176226679
 20
256.37951144231272
 30
0.0
 11
687.99763176226656
 21
256.37951144231272
 31
0.0
  0
ARC
  5
152D0
  8
AM_0
 10
684.99745176226668
 20
263.37963144231259
 30
0.0
 40
0.9998249999999999
 50
89.989949999998785
 51
180.01005000000109
  0
ARC
  5
152D1
  8
AM_0
 10
685.00257176226637
 20
257.38439144231268
 30
0.0
 40
1.004942999999999
 50
180.28113000000181
 51
269.71886000000057
  0
ARC
  5
152D2
  8
AM_0
 10
688.00251176226675
 20
265.38439144231268
 30
0.0
 40
0.9950849999999999
 50
359.71631000000031
 51
90.283688999999086
  0
ARC
  5
152D3
  8
AM_0
 10
687.99738176226674
 20
265.37975144231268
 30
0.0
 40
1.0001959999999981
 50
270.01121999999913
 51
359.98878000000411
  0
LINE
  5
152D4
  8
AM_0
 10
686.99763176226679
 20
265.98949144231261
 30
0.0
 11
686.99763176226679
 21
264.82946144231261
 31
0.0
  0
LINE
  5
152D5
  8
AM_0
 10
684.99763176226679
 20
274.37951144231272
 30
0.0
 11
687.99763176226656
 21
274.37951144231272
 31
0.0
  0
LINE
  5
152D6
  8
AM_0
 10
684.99763176226679
 20
276.37951144231272
 30
0.0
 11
687.99763176226656
 21
276.37951144231272
 31
0.0
  0
ARC
  5
152D7
  8
AM_0
 10
684.99745176226668
 20
273.37963144231259
 30
0.0
 40
0.9998210099999999
 50
89.989745000000994
 51
180.01024999999851
  0
ARC
  5
152D8
  8
AM_0
 10
685.00257176226637
 20
277.38439144231268
 30
0.0
 40
1.004939
 50
180.2809000000002
 51
269.71908999999908
  0
ARC
  5
152D9
  8
AM_0
 10
687.99738176226674
 20
275.37975144231268
 30
0.0
 40
1.000199999999998
 50
270.01143000000161
 51
359.98856999999839
  0
LINE
  5
152DA
  8
AM_0
 10
686.99763176226679
 20
275.98949144231273
 30
0.0
 11
686.99763176226679
 21
274.7795314423127
 31
0.0
  0
ARC
  5
152DB
  8
AM_0
 10
688.00251176226675
 20
275.38439144231268
 30
0.0
 40
0.99508202
 50
359.716090000002
 51
90.283901000001777
  0
LINE
  5
152DC
  8
AM_0
 10
690.49763176226668
 20
275.52953144231259
 30
0.0
 11
688.99763176226656
 21
275.52953144231259
 31
0.0
  0
LINE
  5
152E9
  8
AM_0
 10
566.99763176226668
 20
292.3194514423127
 30
0.0
 11
558.99763176226656
 21
292.3194514423127
 31
0.0
  0
LINE
  5
152EA
  8
AM_0
 10
566.99763176226668
 20
306.37951144231272
 30
0.0
 11
558.99763176226656
 21
306.37951144231272
 31
0.0
  0
LINE
  5
152EB
  8
AM_0
 10
566.99763176226668
 20
316.87893644241251
 30
0.0
 11
558.99763176226656
 21
316.87893644241251
 31
0.0
  0
LINE
  5
152EC
  8
AM_0
 10
534.16025902966135
 20
299.87951144231232
 30
0.0
 11
466.49763277554558
 21
299.87951144231232
 31
0.0
  0
ARC
  5
152ED
  8
0
 10
464.49761879825559
 20
414.05456574958049
 30
0.0
 40
112.1750543072711
 50
272.00771376012813
 51
294.46591933285879
  0
LINE
  5
152EE
  8
0
 10
466.49763277554558
 20
295.87951144231272
 30
0.0
 11
466.49763277554558
 21
299.94960129031682
 31
0.0
  0
LINE
  5
152EF
  8
0
 10
462.49763277554558
 20
295.87951144231272
 30
0.0
 11
462.49763277554558
 21
299.94960031035669
 31
0.0
  0
ARC
  5
152F0
  8
0
 10
464.49763277554553
 20
295.87951144231272
 30
0.0
 40
2.0
 50
180.0
 51
0.0
  0
ARC
  5
152F1
  8
0
 10
468.49763277554553
 20
299.94960129031682
 30
0.0
 40
2.0
 50
92.007713760129676
 51
180.0
1001
GENIUS_GENODEF_13
1002
{
1000
HIER
1070
     0
1002
}
1002
{
1000
MANEDIT
1070
     0
1002
}
1002
{
1000
NOSEL
1070
     0
1002
}
1002
{
1000
BEHIND
1070
     0
1002
}
1002
{
1000
OTHER
1070
     0
1002
}
1002
{
1000
REACTOR
1002
}
1001
GENIUS_GENOBJ-N-FIL_13
1002
{
1000
OWNER
1000
GEN
1002
}
  0
ARC
  5
152F2
  8
0
 10
460.49763277554553
 20
299.94960031035669
 30
0.0
 40
2.0
 50
0.0
 51
87.992300276766798
1001
GENIUS_GENOBJ-N-FIL_13
1002
{
1000
OWNER
1000
GEN
1002
}
1001
GENIUS_GENODEF_13
1002
{
1000
HIER
1070
     0
1002
}
1002
{
1000
MANEDIT
1070
     0
1002
}
1002
{
1000
NOSEL
1070
     0
1002
}
1002
{
1000
BEHIND
1070
     0
1002
}
1002
{
1000
OTHER
1070
     0
1002
}
1002
{
1000
REACTOR
1002
}
  0
ARC
  5
152F4
  8
0
 10
519.99763347589965
 20
318.87951144231232
 30
0.0
 40
10.0
 50
168.4630409671818
 51
305.90214533703409
  0
LINE
  5
152F5
  8
0
 10
530.92884748259121
 20
323.83012356001228
 30
0.0
 11
542.38428706334366
 21
298.535905669214
 31
0.0
  0
CIRCLE
  5
152F6
  8
0
 10
519.99763347589965
 20
318.87951144231232
 30
0.0
 40
4.5
  0
LINE
  5
152F7
  8
ﾁｭｳｼﾝｾﾝ1
 10
519.99763347589965
 20
331.87951144231272
 30
0.0
 11
519.99763347589965
 21
305.87951144231272
 31
0.0
1001
GENIUS_GENODEF_13
1002
{
1000
HIER
1070
     0
1002
}
1002
{
1000
MANEDIT
1070
     0
1002
}
1002
{
1000
NOSEL
1070
     0
1002
}
1002
{
1000
BEHIND
1070
     0
1002
}
1002
{
1000
OTHER
1070
     0
1002
}
1002
{
1000
REACTOR
1002
}
1001
GENIUS_GENOBJ-N-CEN_13
1002
{
1000
OWNER
1000
GEN
1002
}
  0
ARC
  5
152F8
  8
0
 10
528.79367377897483
 20
306.72921617895861
 30
0.0
 40
5.0
 50
24.365186304217399
 51
125.902145337034
1001
GENIUS_GENOBJ-N-FIL_13
1002
{
1000
OWNER
1000
GEN
1002
}
1001
GENIUS_GENODEF_13
1002
{
1000
HIER
1070
     0
1002
}
1002
{
1000
MANEDIT
1070
     0
1002
}
1002
{
1000
NOSEL
1070
     0
1002
}
1002
{
1000
BEHIND
1070
     0
1002
}
1002
{
1000
OTHER
1070
     0
1002
}
1002
{
1000
REACTOR
1002
}
  0
LINE
  5
152F9
  8
ﾁｭｳｼﾝｾﾝ1
 10
532.99763347589965
 20
318.87951144231272
 30
0.0
 11
506.9976334758997
 21
318.87951144231272
 31
0.0
1001
GENIUS_GENODEF_13
1002
{
1000
HIER
1070
     0
1002
}
1002
{
1000
MANEDIT
1070
     0
1002
}
1002
{
1000
NOSEL
1070
     0
1002
}
1002
{
1000
BEHIND
1070
     0
1002
}
1002
{
1000
OTHER
1070
     0
1002
}
1002
{
1000
REACTOR
1002
}
1001
GENIUS_GENOBJ-N-CEN_13
1002
{
1000
OWNER
1000
GEN
1002
}
  0
ARC
  5
152FA
  8
0
 10
508.10884228944678
 20
317.24958993349247
 30
0.0
 40
2.0
 50
294.25185076404
 51
7.8064319935604116
1001
GENIUS_GENODEF_13
1002
{
1000
HIER
1070
     0
1002
}
1002
{
1000
MANEDIT
1070
     0
1002
}
1002
{
1000
NOSEL
1070
     0
1002
}
1002
{
1000
BEHIND
1070
     0
1002
}
1002
{
1000
OTHER
1070
     0
1002
}
1002
{
1000
REACTOR
1002
}
1001
GENIUS_GENOBJ-N-FIL_13
1002
{
1000
OWNER
1000
GEN
1002
}
  0
ARC
  5
152FB
  8
0
 10
511.78343519122382
 20
310.13154330450908
 30
0.0
 40
2.0
 50
46.802403665578197
 51
114.46591933286049
1001
GENIUS_GENOBJ-N-FIL_13
1002
{
1000
OWNER
1000
GEN
1002
}
1001
GENIUS_GENODEF_13
1002
{
1000
HIER
1070
     0
1002
}
1002
{
1000
MANEDIT
1070
     0
1002
}
1002
{
1000
NOSEL
1070
     0
1002
}
1002
{
1000
BEHIND
1070
     0
1002
}
1002
{
1000
OTHER
1070
     0
1002
}
1002
{
1000
REACTOR
1002
}
  0
LINE
  5
152FC
  8
0
 10
533.3483462817627
 20
308.79197122800031
 30
0.0
 11
538.74054906111348
 21
296.8857016299807
 31
0.0
  0
ARC
  5
152FD
  8
0
 10
534.16025902966135
 20
294.87951144231232
 30
0.0
 40
5.0
 50
24.365186304217399
 51
90.0
1001
GENIUS_GENODEF_13
1002
{
1000
HIER
1070
     0
1002
}
1002
{
1000
MANEDIT
1070
     0
1002
}
1002
{
1000
NOSEL
1070
     0
1002
}
1002
{
1000
BEHIND
1070
     0
1002
}
1002
{
1000
OTHER
1070
     0
1002
}
1002
{
1000
REACTOR
1002
}
1001
GENIUS_GENOBJ-N-FIL_13
1002
{
1000
OWNER
1000
GEN
1002
}
  0
ARC
  5
152FE
  8
0
 10
530.99760552131988
 20
293.37901791751239
 30
0.0
 40
12.50000031292438
 50
0.0
 51
24.365186304217399
  0
CIRCLE
  5
152FF
  8
0
 10
530.99763347589976
 20
293.37951144231232
 30
0.0
 40
3.25
  0
CIRCLE
  5
15300
  8
ｷｲﾛ
 10
530.99763347589976
 20
293.37951144231232
 30
0.0
 40
4.0
  0
ARC
  5
15301
  8
0
 10
530.99760552131988
 20
293.37901791751239
 30
0.0
 40
8.5000003129243851
 50
0.0
 51
24.365186304217399
  0
LINE
  5
15302
  8
AM_0
 10
558.99763176226668
 20
292.31945144231258
 30
0.0
 11
549.31688140127324
 21
292.31945144231258
 31
0.0
  0
LINE
  5
15303
  8
AM_0
 10
544.49152824664179
 20
303.87891323043391
 30
0.0
 11
539.96450478103327
 21
303.87891323043391
 31
0.0
  0
LINE
  5
15304
  8
AM_0
 10
558.99763176226668
 20
306.37951144231261
 30
0.0
 11
547.49152824664179
 21
306.37951144231261
 31
0.0
  0
ARC
  5
15305
  8
AM_0
 10
544.49152824664179
 20
306.87891323043391
 30
0.0
 40
3.0
 50
270.0
 51
0.0
1001
GENIUS_GENODEF_13
1002
{
1000
HIER
1070
     0
1002
}
1002
{
1000
MANEDIT
1070
     0
1002
}
1002
{
1000
NOSEL
1070
     0
1002
}
1002
{
1000
BEHIND
1070
     0
1002
}
1002
{
1000
OTHER
1070
     0
1002
}
1002
{
1000
REACTOR
1002
}
1001
GENIUS_GENOBJ-N-FIL_13
1002
{
1000
OWNER
1000
GEN
1002
}
  0
LINE
  5
15306
  8
AM_0
 10
558.99763176226668
 20
316.87893644241251
 30
0.0
 11
549.49152824664179
 21
316.87893644241228
 31
0.0
  0
ARC
  5
15307
  8
AM_0
 10
549.49152824664179
 20
314.8789364424124
 30
0.0
 40
1.9999999999999989
 50
90.0
 51
180.0
1001
GENIUS_GENOBJ-N-FIL_13
1002
{
1000
OWNER
1000
GEN
1002
}
1001
GENIUS_GENODEF_13
1002
{
1000
HIER
1070
     0
1002
}
1002
{
1000
MANEDIT
1070
     0
1002
}
1002
{
1000
NOSEL
1070
     0
1002
}
1002
{
1000
BEHIND
1070
     0
1002
}
1002
{
1000
OTHER
1070
     0
1002
}
1002
{
1000
REACTOR
1002
}
  0
ARC
  5
15308
  8
0
 10
519.99763347589965
 20
318.87951144231232
 30
0.0
 40
12.0
 50
24.365186304217399
 51
90.0
  0
ARC
  5
15309
  8
0
 10
505.30069501920082
 20
321.87951144231272
 30
0.0
 40
5.0
 50
348.46304096718188
 51
90.0
1001
GENIUS_GENOBJ-N-FIL_13
1002
{
1000
OWNER
1000
GEN
1002
}
1001
GENIUS_GENODEF_13
1002
{
1000
HIER
1070
     0
1002
}
1002
{
1000
MANEDIT
1070
     0
1002
}
1002
{
1000
NOSEL
1070
     0
1002
}
1002
{
1000
BEHIND
1070
     0
1002
}
1002
{
1000
OTHER
1070
     0
1002
}
1002
{
1000
REACTOR
1002
}
  0
LINE
  5
1530C
  8
AM_0
 10
673.53761176226681
 20
283.93956144231282
 30
0.0
 11
569.96339176226672
 21
283.93956144231282
 31
0.0
  0
LINE
  5
1530D
  8
AM_0
 10
673.31764176226682
 20
297.09948144231271
 30
0.0
 11
570.17762176226677
 21
297.09948144231271
 31
0.0
  0
LINE
  5
1530E
  8
AM_0
 10
573.66480176226685
 20
284.37951144231272
 30
0.0
 11
672.63764176226687
 21
284.37951144231272
 31
0.0
  0
LINE
  5
1530F
  8
AM_0
 10
573.65760176226684
 20
294.37951144231272
 30
0.0
 11
672.63764176226687
 21
294.37951144231272
 31
0.0
  0
LINE
  5
15310
  8
AM_0
 10
573.65760176226684
 20
296.37951144231272
 30
0.0
 11
672.63764176226687
 21
296.37951144231272
 31
0.0
  0
LINE
  5
15311
  8
AM_0
 10
673.53761176226681
 20
286.86950144231281
 30
0.0
 11
605.99763176226679
 21
286.86950144231281
 31
0.0
  0
LINE
  5
15312
  8
AM_0
 10
673.31764176226682
 20
293.74950144231269
 30
0.0
 11
605.97761176226675
 21
293.74950144231269
 31
0.0
  0
LINE
  5
15313
  8
AM_0
 10
605.99763176226679
 20
286.37951144231272
 30
0.0
 11
672.63764176226687
 21
286.37951144231272
 31
0.0
  0
LINE
  5
15314
  8
AM_0
 10
671.7075917622667
 20
322.26952144231268
 30
0.0
 11
574.86756176226663
 21
322.26952144231268
 31
0.0
  0
LINE
  5
15315
  8
AM_0
 10
671.72761176226675
 20
321.35949144231279
 30
0.0
 11
574.86762176226682
 21
321.35949144231279
 31
0.0
  0
LINE
  5
15316
  8
AM_0
 10
671.78761176226681
 20
316.65954144231267
 30
0.0
 11
574.86762176226682
 21
316.65954144231267
 31
0.0
  0
LINE
  5
15317
  8
AM_0
 10
671.74763176226679
 20
319.50951144231271
 30
0.0
 11
574.86762176226682
 21
319.50951144231271
 31
0.0
  0
ARC
  5
15318
  8
AM_0
 10
574.87245176226679
 20
320.26476144231259
 30
0.0
 40
2.0047290000000002
 50
90.138321999999846
 51
164.8265040000035
  0
ARC
  5
15319
  8
AM_0
 10
574.87245176226679
 20
319.35473144231258
 30
0.0
 40
2.0047290000000002
 50
90.138321999999846
 51
164.8265040000035
  0
ARC
  5
1531A
  8
AM_0
 10
568.89763176226666
 20
300.07949144231281
 30
0.0
 40
1.699996899999999
 50
270.00000300000102
 51
359.99998000000448
  0
LINE
  5
1531B
  8
AM_0
 10
566.99763176226668
 20
298.0794914423127
 30
0.0
 11
566.99763176226668
 21
305.6795014423127
 31
0.0
  0
LINE
  5
1531C
  8
AM_0
 10
567.99763176226668
 20
298.0794914423127
 30
0.0
 11
567.99763176226668
 21
305.6795014423127
 31
0.0
  0
LINE
  5
1531D
  8
AM_0
 10
587.99763176226668
 20
286.86950144231281
 30
0.0
 11
569.95191176226672
 21
286.86950144231281
 31
0.0
  0
LINE
  5
1531E
  8
AM_0
 10
588.01759176226676
 20
293.73949144231273
 30
0.0
 11
570.17762176226677
 21
293.73949144231273
 31
0.0
  0
LINE
  5
1531F
  8
AM_0
 10
573.65046176226667
 20
286.37951144231272
 30
0.0
 11
587.99763176226668
 21
286.37951144231272
 31
0.0
  0
ARC
  5
15320
  8
AM_0
 10
573.6576617622668
 20
285.37951144231272
 30
0.0
 40
1.0000255999999981
 50
89.589468999998957
 51
270.41053000000011
  0
ARC
  5
15321
  8
AM_0
 10
569.95765176226666
 20
285.40954144231267
 30
0.0
 40
1.460011199999999
 50
89.775249999999915
 51
270.22475000000009
  0
LINE
  5
15322
  8
AM_0
 10
567.99763176226668
 20
298.37951144231261
 30
0.0
 11
568.89763176226666
 21
298.37951144231261
 31
0.0
  0
LINE
  5
15323
  8
AM_0
 10
567.99763176226668
 20
298.0794914423127
 30
0.0
 11
566.99763176226668
 21
298.0794914423127
 31
0.0
  0
ARC
  5
15324
  8
AM_0
 10
573.65760176226684
 20
295.37951144231272
 30
0.0
 40
1.0
 50
89.999996999999041
 51
270.000010000001
  0
ARC
  5
15325
  8
AM_0
 10
570.17762176226677
 20
295.42455144231269
 30
0.0
 40
1.6750020000000001
 50
89.999996999999041
 51
270.000010000001
  0
LINE
  5
15326
  8
AM_0
 10
589.49763176226679
 20
287.87951144231272
 30
0.0
 11
589.49763176226679
 21
292.87951144231272
 31
0.0
  0
LINE
  5
15327
  8
AM_0
 10
589.01759176226665
 20
287.87951144231272
 30
0.0
 11
589.01759176226665
 21
292.73949144231273
 31
0.0
  0
ARC
  5
15328
  8
AM_0
 10
587.99763176226668
 20
287.87951144231272
 30
0.0
 40
1.5
 50
270.0
 51
0.0000100000010064
  0
ARC
  5
15329
  8
AM_0
 10
587.99763176226668
 20
287.87951144231272
 30
0.0
 40
1.02
 50
270.0
 51
0.0000100000010064
  0
ARC
  5
1532A
  8
AM_0
 10
587.99763176226668
 20
292.87951144231272
 30
0.0
 40
1.5
 50
359.999989999999
 51
89.999996999999041
  0
ARC
  5
1532B
  8
AM_0
 10
588.01759176226676
 20
292.73949144231273
 30
0.0
 40
1.0
 50
359.999989999999
 51
89.999996999999041
  0
LINE
  5
1532C
  8
AM_0
 10
568.79188176226683
 20
305.3084014423128
 30
0.0
 11
572.93760176226681
 21
320.78951144231269
 31
0.0
  0
LINE
  5
1532D
  8
AM_0
 10
569.51859443887724
 20
305.2620336139467
 30
0.0
 11
572.93763176226673
 21
318.02956144231268
 31
0.0
  0
LINE
  5
1532E
  8
AM_0
 10
569.05274390636976
 20
305.37241105087202
 30
0.0
 11
572.93763176226673
 21
319.87951144231272
 31
0.0
  0
LINE
  5
1532F
  8
AM_0
 10
570.16224793497884
 20
304.81561264097019
 30
0.0
 11
572.93757176226677
 21
315.17949144231272
 31
0.0
  0
LINE
  5
15330
  8
AM_0
 10
567.99763176226668
 20
305.37951144231272
 30
0.0
 11
568.89763176226666
 21
305.37951144231272
 31
0.0
  0
LINE
  5
15331
  8
AM_0
 10
567.99763176226668
 20
305.6795014423127
 30
0.0
 11
566.99763176226668
 21
305.6795014423127
 31
0.0
  0
LINE
  5
15332
  8
AM_0
 10
566.99763176226668
 20
302.1021414423127
 30
0.0
 11
567.99763176226668
 21
302.6795014423127
 31
0.0
  0
LINE
  5
15333
  8
AM_0
 10
566.99763176226668
 20
301.1021414423127
 30
0.0
 11
567.99763176226668
 21
301.6795014423127
 31
0.0
  0
LINE
  5
15334
  8
AM_0
 10
570.59761176226675
 20
300.07949144231281
 30
0.0
 11
570.59761176226675
 21
303.6795014423127
 31
0.0
  0
ARC
  5
15335
  8
AM_0
 10
568.89763176226666
 20
303.6795014423127
 30
0.0
 40
1.7000007999999991
 50
0.0000100000010064
 51
89.999979999998004
  0
LINE
  5
15336
  8
AM_0
 10
570.95326180214761
 20
313.37951144231272
 30
0.0
 11
566.99763176226668
 21
313.37951144231272
 31
0.0
  0
ARC
  5
15337
  8
AM_0
 10
574.86750176226678
 20
314.66124144231281
 30
0.0
 40
1.9982919999999991
 50
89.997367999998644
 51
164.96745200000379
  0
ARC
  5
15338
  8
AM_0
 10
574.87245176226679
 20
317.50475144231268
 30
0.0
 40
2.0047290000000002
 50
90.138321999999846
 51
164.8265040000035
  0
LINE
  5
15339
  8
AM_0
 10
604.97761176226675
 20
287.87951144231272
 30
0.0
 11
604.97761176226675
 21
292.73949144231273
 31
0.0
  0
LINE
  5
1533A
  8
AM_0
 10
604.49763176226668
 20
287.87951144231272
 30
0.0
 11
604.49763176226668
 21
292.87951144231272
 31
0.0
  0
CIRCLE
  5
1533B
  8
AM_0
 10
599.49763176226679
 20
288.87951144231272
 30
0.0
 40
1.149999999999999
  0
CIRCLE
  5
1533C
  8
AM_0
 10
599.49763176226679
 20
288.87951144231272
 30
0.0
 40
1.1000000000000001
  0
CIRCLE
  5
1533D
  8
AM_0
 10
594.49763176226679
 20
288.87951144231272
 30
0.0
 40
1.0
  0
ARC
  5
1533E
  8
AM_0
 10
605.99763176226679
 20
287.87951144231272
 30
0.0
 40
1.5
 50
179.99999931675049
 51
270.000010000001
  0
ARC
  5
1533F
  8
AM_0
 10
605.99763176226679
 20
287.87951144231272
 30
0.0
 40
1.02
 50
179.999999316757
 51
270.000010000001
  0
ARC
  5
15340
  8
AM_0
 10
605.99763176226679
 20
292.87951144231272
 30
0.0
 40
1.5
 50
89.999996999999041
 51
180.0
  0
ARC
  5
15341
  8
AM_0
 10
605.97761176226675
 20
292.73949144231273
 30
0.0
 40
1.0
 50
89.999996999999041
 51
180.0
  0
ARC
  5
15342
  8
AM_0
 10
671.73304176226645
 20
319.36278144231272
 30
0.0
 40
1.9967330000000001
 50
8.5461199999961224
 51
90.156033000001074
  0
ARC
  5
15343
  8
AM_0
 10
671.71113176226663
 20
320.27391144231262
 30
0.0
 40
1.995633
 50
7.9388700000004286
 51
90.100292000000948
  0
LINE
  5
15344
  8
AM_0
 10
669.63758176226656
 20
297.02953144231259
 30
0.0
 11
674.99757176226683
 21
308.47951144231263
 31
0.0
  0
POLYLINE
  5
15345
  8
AM_0
 66
     1
 10
0.0
 20
0.0
 30
0.0
  0
VERTEX
  5
15346
  8
AM_0
 10
671.13673176226655
 20
286.8625414423127
 30
0.0
 42
0.00068898283
  0
VERTEX
  5
15347
  8
AM_0
 10
671.06585176226667
 20
287.4372914423127
 30
0.0
 42
0.00070644357
  0
VERTEX
  5
15348
  8
AM_0
 10
670.99335176226646
 20
288.01198144231267
 30
0.0
 42
0.00069248074
  0
VERTEX
  5
15349
  8
AM_0
 10
670.91926176226661
 20
288.5862914423127
 30
0.0
 42
0.0006958566
  0
VERTEX
  5
1534A
  8
AM_0
 10
670.84358176226669
 20
289.16043144231259
 30
0.0
 42
0.00071687219
  0
VERTEX
  5
1534B
  8
AM_0
 10
670.76627176226702
 20
289.73443144231271
 30
0.0
 42
0.00069760022
  0
VERTEX
  5
1534C
  8
AM_0
 10
670.68733176226647
 20
290.30822144231269
 30
0.0
 42
0.00071002302
  0
VERTEX
  5
1534D
  8
AM_0
 10
670.60679176226665
 20
290.88169144231267
 30
0.0
 42
0.00069954889
  0
VERTEX
  5
1534E
  8
AM_0
 10
670.52465176226679
 20
291.4547914423128
 30
0.0
 42
0.00071887947
  0
VERTEX
  5
1534F
  8
AM_0
 10
670.44087176226674
 20
292.0278214423127
 30
0.0
 42
0.00071266929
  0
VERTEX
  5
15350
  8
AM_0
 10
670.35544176226665
 20
292.60059144231269
 30
0.0
 42
0.00071614429
  0
VERTEX
  5
15351
  8
AM_0
 10
670.26841176226662
 20
293.17293144231269
 30
0.0
 42
0.00072288978
  0
VERTEX
  5
15352
  8
AM_0
 10
670.17970176226663
 20
293.74523144231267
 30
0.0
  0
SEQEND
  5
15353
  8
AM_0
  0
ARC
  5
15354
  8
AM_0
 10
672.45301176226656
 20
285.37951144231272
 30
0.0
 40
1.0000138999999999
 50
269.69165999999939
 51
90.308340000000754
  0
ARC
  5
15355
  8
AM_0
 10
673.53761176226681
 20
285.40453144231259
 30
0.0
 40
1.465004
 50
270.0
 51
89.999996999999041
  0
ARC
  5
15356
  8
AM_0
 10
672.45301176226656
 20
295.37951144231272
 30
0.0
 40
1.0000138999999999
 50
269.69165999999939
 51
90.308340000000754
  0
ARC
  5
15357
  8
AM_0
 10
673.32502176226672
 20
295.42455144231269
 30
0.0
 40
1.6750160000000001
 50
269.74612999999908
 51
90.253854999998765
  0
LINE
  5
15358
  8
AM_0
 10
684.99763176226679
 20
284.37951144231272
 30
0.0
 11
687.99763176226656
 21
284.37951144231272
 31
0.0
  0
LINE
  5
15359
  8
AM_0
 10
684.99763176226679
 20
286.37951144231272
 30
0.0
 11
687.99763176226656
 21
286.37951144231272
 31
0.0
  0
ARC
  5
1535A
  8
AM_0
 10
684.99745176226668
 20
283.3796314423127
 30
0.0
 40
0.9998289899999999
 50
89.990188999999049
 51
180.00980999999959
  0
ARC
  5
1535B
  8
AM_0
 10
685.00257176226637
 20
287.38439144231268
 30
0.0
 40
1.004942999999999
 50
180.28111000000001
 51
269.71888999999999
  0
ARC
  5
1535C
  8
AM_0
 10
687.99738176226674
 20
285.37975144231268
 30
0.0
 40
1.000203
 50
270.01164999999878
 51
359.98835000000429
  0
ARC
  5
1535D
  8
AM_0
 10
688.00251176226675
 20
285.38439144231268
 30
0.0
 40
0.99507803
 50
359.71589000000017
 51
90.284112999998655
  0
LINE
  5
1535E
  8
AM_0
 10
686.99763176226679
 20
286.00951144231271
 30
0.0
 11
686.99763176226679
 21
284.63952144231268
 31
0.0
  0
LINE
  5
1535F
  8
AM_0
 10
690.99149772906355
 20
278.37133273137522
 30
0.0
 11
690.49152824664168
 21
278.33132418645329
 31
0.0
  0
LINE
  5
15360
  8
AM_0
 10
690.49763176226668
 20
277.65954144231267
 30
0.0
 11
688.99763176226656
 21
277.65954144231267
 31
0.0
  0
LINE
  5
15361
  8
AM_0
 10
690.49763176226668
 20
280.37948144231268
 30
0.0
 11
688.99763176226656
 21
280.50948144231268
 31
0.0
  0
LINE
  5
15362
  8
AM_0
 10
686.79762176226666
 20
296.0694514423127
 30
0.0
 11
684.69764176226681
 21
296.0694514423127
 31
0.0
  0
LINE
  5
15363
  8
AM_0
 10
686.84760176226678
 20
294.11950144231281
 30
0.0
 11
684.99763176226679
 21
294.11950144231281
 31
0.0
  0
ARC
  5
15364
  8
AM_0
 10
684.70216176226666
 20
296.77404144231269
 30
0.0
 40
0.704566
 50
180.37009000000211
 51
269.62990000000002
  0
ARC
  5
15365
  8
AM_0
 10
684.99592176226679
 20
293.12120144231272
 30
0.0
 40
0.9982839799999999
 50
89.901423999998656
 51
180.09857999999991
  0
LINE
  5
15366
  8
AM_0
 10
687.13764176226675
 20
294.07955144231272
 30
0.0
 11
688.28761176226658
 21
293.72954144231272
 31
0.0
  0
LINE
  5
15367
  8
AM_0
 10
687.18763176226673
 20
295.98952144231271
 30
0.0
 11
688.38758176226668
 21
295.47951144231268
 31
0.0
  0
ARC
  5
15368
  8
AM_0
 10
688.00123176226657
 20
294.56102144231272
 30
0.0
 40
0.9963999999999998
 50
359.9095800000004
 51
67.182639999998941
  0
LINE
  5
15369
  8
AM_0
 10
686.99763176226679
 20
295.76952144231268
 30
0.0
 11
686.99763176226679
 21
294.70946144231272
 31
0.0
  0
ARC
  5
1536A
  8
AM_0
 10
686.85847176226662
 20
293.12682144231269
 30
0.0
 40
0.9927430199999999
 50
73.667929999997895
 51
90.625445000001221
  0
ARC
  5
1536B
  8
AM_0
 10
686.79664176226652
 20
295.07409144231269
 30
0.0
 40
0.9954450099999999
 50
66.872549999999563
 51
89.943095000000326
  0
ARC
  5
1536C
  8
AM_0
 10
688.00135176226684
 20
292.77526144231268
 30
0.0
 40
0.9962710099999999
 50
359.66994999999997
 51
73.302080000000245
  0
LINE
  5
1536D
  8
AM_0
 10
682.99763176226668
 20
313.37951144231272
 30
0.0
 11
674.99763176226668
 21
313.37951144231272
 31
0.0
  0
LINE
  5
1536E
  8
AM_0
 10
682.29762176226677
 20
303.5694514423127
 30
0.0
 11
676.06764176226682
 21
303.5694514423127
 31
0.0
  0
LINE
  5
1536F
  8
AM_0
 10
674.99757176226683
 20
309.8195414423127
 30
0.0
 11
673.7176017622669
 21
317.8294914423127
 31
0.0
  0
LINE
  5
15370
  8
AM_0
 10
674.99763176226668
 20
308.4795714423127
 30
0.0
 11
673.75764176226664
 21
315.03957144231282
 31
0.0
  0
ARC
  5
15371
  8
AM_0
 10
671.79890176226672
 20
314.6653914423128
 30
0.0
 40
1.994108999999999
 50
10.81223000000116
 51
90.324452000000534
  0
ARC
  5
15372
  8
AM_0
 10
671.74738176226674
 20
317.51427144231269
 30
0.0
 40
1.9952829999999999
 50
9.0916499999993174
 51
89.993795999999861
  0
LINE
  5
15373
  8
AM_0
 10
674.99763176226668
 20
311.16951144231268
 30
0.0
 11
673.68763176226673
 21
320.54955144231269
 31
0.0
  0
LINE
  5
15374
  8
AM_0
 10
674.99757176226683
 20
311.1694814423127
 30
0.0
 11
673.70759176226682
 21
319.65957144231282
 31
0.0
  0
ARC
  5
15375
  8
AM_0
 10
686.73560176226681
 20
309.1336614423127
 30
0.0
 40
0.9959030199999999
 50
60.392830000001112
 51
90.458733000000876
  0
LINE
  5
15376
  8
AM_0
 10
686.74763176226668
 20
306.87951144231272
 30
0.0
 11
684.99763176226679
 21
306.87951144231272
 31
0.0
  0
LINE
  5
15377
  8
AM_0
 10
686.75764176226664
 20
308.9794814423127
 30
0.0
 11
684.49763176226668
 21
308.9794814423127
 31
0.0
  0
LINE
  5
15378
  8
AM_0
 10
686.7176017622669
 20
308.01952144231268
 30
0.0
 11
683.99763176226668
 21
308.01952144231268
 31
0.0
  0
LINE
  5
15379
  8
AM_0
 10
686.69758176226696
 20
303.50951144231271
 30
0.0
 11
683.99763176226668
 21
303.50951144231271
 31
0.0
  0
LINE
  5
1537A
  8
AM_0
 10
686.72761176226675
 20
302.36950144231281
 30
0.0
 11
684.99763176226679
 21
302.36950144231281
 31
0.0
  0
ARC
  5
1537B
  8
AM_0
 10
684.99665176226699
 20
305.88048144231271
 30
0.0
 40
0.9990100299999999
 50
89.943190999999956
 51
180.05680999999871
  0
ARC
  5
1537C
  8
AM_0
 10
684.49592176226668
 20
308.48119144231271
 30
0.0
 40
0.4983060100000002
 50
89.804892999999964
 51
180.1951100000021
  0
ARC
  5
1537D
  8
AM_0
 10
684.99995176226673
 20
301.3671814423127
 30
0.0
 40
1.002353
 50
90.134327000000596
 51
179.86567318000149
  0
LINE
  5
1537E
  8
AM_0
 10
687.23768176226656
 20
307.87957144231268
 30
0.0
 11
688.51765176226672
 21
307.10955144231281
 31
0.0
  0
ARC
  5
1537F
  8
AM_0
 10
688.00202176226674
 20
307.35924144231268
 30
0.0
 40
0.995579
 50
0.0173600000000184
 51
63.412910000002221
  0
LINE
  5
15380
  8
AM_0
 10
686.99763176226679
 20
307.7795314423127
 30
0.0
 11
686.99763176226679
 21
307.2294814423127
 31
0.0
  0
LINE
  5
15381
  8
AM_0
 10
687.2176017622669
 20
306.76955144231272
 30
0.0
 11
688.4676017622669
 21
306.09954144231278
 31
0.0
  0
ARC
  5
15382
  8
AM_0
 10
688.00318176226665
 20
306.25853144231269
 30
0.0
 40
0.9944329899999999
 50
0.0594900000009355
 51
58.847870000000363
  0
ARC
  5
15383
  8
AM_0
 10
688.00440176226664
 20
305.22094144231278
 30
0.0
 40
0.9932109699999999
 50
359.91813000000002
 51
62.200680000000879
  0
ARC
  5
15384
  8
AM_0
 10
688.00440176226664
 20
308.39745144231267
 30
0.0
 40
0.99319202
 50
0.1204100000019381
 51
60.226619999999812
  0
LINE
  5
15385
  8
AM_0
 10
687.20765176226655
 20
308.87951144231272
 30
0.0
 11
688.4476417622667
 21
308.24950144231269
 31
0.0
  0
LINE
  5
15386
  8
AM_0
 10
687.22761176226675
 20
309.99947144231271
 30
0.0
 11
688.49757176226683
 21
309.25948144231268
 31
0.0
  0
LINE
  5
15387
  8
AM_0
 10
686.99763176226679
 20
309.87951144231272
 30
0.0
 11
686.99763176226679
 21
309.34948144231271
 31
0.0
  0
ARC
  5
15388
  8
AM_0
 10
686.76252176226649
 20
305.88414144231268
 30
0.0
 40
0.99545902
 50
62.796180000001051
 51
90.858709000000076
  0
ARC
  5
15389
  8
AM_0
 10
686.77284176226635
 20
307.98546144231261
 30
0.0
 40
0.99411702
 50
64.065019999999919
 51
90.877356000001427
  0
ARC
  5
1538A
  8
AM_0
 10
686.72877176226655
 20
307.02526144231263
 30
0.0
 40
0.99427301
 50
59.219089999998332
 51
90.643933999999973
  0
LINE
  5
1538B
  8
AM_0
 10
687.22767176226671
 20
302.22954144231278
 30
0.0
 11
688.50764176226664
 21
301.47954144231289
 31
0.0
  0
LINE
  5
1538C
  8
AM_0
 10
687.24769176226664
 20
303.3395314423127
 30
0.0
 11
688.54768176226673
 21
302.48955144231269
 31
0.0
  0
ARC
  5
1538D
  8
AM_0
 10
688.00355176226674
 20
300.62267144231271
 30
0.0
 40
0.99404597
 50
359.81435999999962
 51
59.531799999999571
  0
ARC
  5
1538E
  8
AM_0
 10
688.00282176226665
 20
301.65709144231278
 30
0.0
 40
0.9948369899999999
 50
359.56214000000188
 51
56.795039999997378
  0
LINE
  5
1538F
  8
AM_0
 10
686.99763176226679
 20
303.2094614423126
 30
0.0
 11
686.99763176226679
 21
302.73949144231278
 31
0.0
  0
ARC
  5
15390
  8
AM_0
 10
686.71821176226683
 20
301.3730414423128
 30
0.0
 40
0.99648702
 50
59.25623000000212
 51
89.459279000001388
  0
ARC
  5
15391
  8
AM_0
 10
686.69099176226644
 20
302.51329144231272
 30
0.0
 40
0.99617702
 50
56.029510000002702
 51
89.618682000000817
  0
LINE
  5
15392
  8
AM_0
 10
686.72761176226675
 20
310.12951144231272
 30
0.0
 11
684.49763176226668
 21
310.12951144231272
 31
0.0
  0
ARC
  5
15393
  8
AM_0
 10
684.5022117622666
 20
310.63414144231268
 30
0.0
 40
0.50463498
 50
180.5238300000004
 51
269.47616999999963
  0
LINE
  5
15394
  8
AM_0
 10
683.99763176226668
 20
310.37951144231272
 30
0.0
 11
682.99763176226668
 21
310.37951144231272
 31
0.0
  0
LINE
  5
159B5
  8
AM_0
 10
230.78948751983819
 20
304.8916155600192
 30
0.0
 11
246.78948751983799
 21
304.8916155600192
 31
0.0
  0
LINE
  5
159B6
  8
AM_0
 10
230.78948751983819
 20
182.86740733061251
 30
0.0
 11
246.78948751983799
 21
182.86740733061251
 31
0.0
  0
LINE
  5
15AE3
  8
AM_0
 10
387.49765584582099
 20
480.28606872498881
 30
0.0
 11
541.49761226881583
 21
480.28606872498881
 31
0.0
  0
LINE
  5
15B2F
  8
AM_0
 10
541.49761226881583
 20
480.28606872498881
 30
0.0
 11
543.49760583424415
 21
435.2860687249887
 31
0.0
  0
LINE
  5
15B36
  8
AM_0
 10
387.49765584582099
 20
480.28606872498881
 30
0.0
 11
385.49763176226708
 21
435.28606872498881
 31
0.0
  0
LINE
  5
15C58
  8
AM_0
 10
543.49760583424415
 20
435.28606872498881
 30
0.0
 11
385.49763176226708
 21
435.28606872498881
 31
0.0
  0
LINE
  5
15C59
  8
AM_0
 10
386.20875143804813
 20
451.28606876163047
 30
0.0
 11
542.78649700943765
 21
451.28606875971161
 31
0.0
  0
LINE
  5
167F8
  8
ﾁｭｳｼﾝｾﾝ1
 10
118.7894860193452
 20
420.40514619266918
 30
0.0
 11
234.78948917839131
 21
420.40514619266918
 31
0.0
  0
LINE
  5
167F9
  8
AM_0
 10
125.7894860193452
 20
432.90514619266878
 30
0.0
 11
123.7894860193452
 21
434.05984673104808
 31
0.0
  0
LINE
  5
167FA
  8
AM_0
 10
123.7894860193452
 20
436.10514619266928
 30
0.0
 11
229.78948601934511
 21
436.10514619266928
 31
0.0
  0
LINE
  5
167FB
  8
AM_0
 10
142.8829628055297
 20
440.40514678871551
 30
0.0
 11
123.7894860193452
 21
440.40514678871551
 31
0.0
  0
LINE
  5
167FC
  8
AM_0
 10
125.7894860193453
 20
407.90514619266878
 30
0.0
 11
123.7894860193453
 21
406.75044565428971
 31
0.0
  0
LINE
  5
167FD
  8
AM_0
 10
142.8829628055297
 20
400.40514559662279
 30
0.0
 11
123.7894860193452
 21
400.40514559662279
 31
0.0
  0
LINE
  5
167FE
  8
AM_0
 10
123.7894860193452
 20
440.40514678871551
 30
0.0
 11
123.7894860193452
 21
400.40514559662267
 31
0.0
  0
LINE
  5
167FF
  8
AM_0
 10
211.13948601934521
 20
432.90514619266912
 30
0.0
 11
227.78948601934519
 21
432.90514619266912
 31
0.0
  0
LINE
  5
16800
  8
AM_0
 10
217.7894890591821
 20
447.90514619266918
 30
0.0
 11
225.7894890591821
 21
447.90514619266918
 31
0.0
  0
LINE
  5
16801
  8
AM_0
 10
217.7894890591821
 20
447.90514619266929
 30
0.0
 11
225.78948905918199
 21
440.40514678871551
 31
0.0
  0
LINE
  5
16802
  8
AM_0
 10
225.78948905918199
 20
447.90514619266918
 30
0.0
 11
217.78948905918199
 21
440.40514678871551
 31
0.0
  0
POLYLINE
  5
16803
  8
AM_4
 66
     1
 10
0.0
 20
0.0
 30
0.0
  0
VERTEX
  5
16804
  8
AM_4
 10
225.7894890591821
 20
450.85491185973967
 30
0.0
  0
VERTEX
  5
16805
  8
AM_4
 10
225.5331082440768
 20
450.84191498358661
 30
0.0
  0
VERTEX
  5
16806
  8
AM_4
 10
223.7796538588685
 20
450.6556381104067
 30
0.0
  0
VERTEX
  5
16807
  8
AM_4
 10
222.54261258699111
 20
450.4179526246478
 30
0.0
  0
VERTEX
  5
16808
  8
AM_4
 10
221.6943103351565
 20
450.14218668209458
 30
0.0
  0
VERTEX
  5
16809
  8
AM_4
 10
221.10707301007579
 20
449.84166843853131
 30
0.0
  0
VERTEX
  5
1680A
  8
AM_4
 10
220.65322651846051
 20
449.52972604974258
 30
0.0
  0
VERTEX
  5
1680B
  8
AM_4
 10
220.20509676702241
 20
449.2196876715127
 30
0.0
  0
VERTEX
  5
1680C
  8
AM_4
 10
219.66110557004839
 20
448.92170808936419
 30
0.0
  0
VERTEX
  5
1680D
  8
AM_4
 10
219.02405837212831
 20
448.63324860776879
 30
0.0
  0
VERTEX
  5
1680E
  8
AM_4
 10
218.322856525427
 20
448.34859716093678
 30
0.0
  0
VERTEX
  5
1680F
  8
AM_4
 10
217.58640138210981
 20
448.06204168307778
 30
0.0
  0
VERTEX
  5
16810
  8
AM_4
 10
216.8435942943419
 20
447.76787010840201
 30
0.0
  0
VERTEX
  5
16811
  8
AM_4
 10
216.12333661428841
 20
447.46037037111881
 30
0.0
  0
VERTEX
  5
16812
  8
AM_4
 10
215.45452969411451
 20
447.13383040543869
 30
0.0
  0
VERTEX
  5
16813
  8
AM_4
 10
214.86607488598531
 20
446.7825381455711
 30
0.0
  0
VERTEX
  5
16814
  8
AM_4
 10
214.37718682585739
 20
446.40210376345419
 30
0.0
  0
VERTEX
  5
16815
  8
AM_4
 10
213.96833328485161
 20
445.9934263819361
 30
0.0
  0
VERTEX
  5
16816
  8
AM_4
 10
213.61029531788051
 20
445.55872736159398
 30
0.0
  0
VERTEX
  5
16817
  8
AM_4
 10
213.2738539798562
 20
445.10022806300429
 30
0.0
  0
VERTEX
  5
16818
  8
AM_4
 10
212.92979032569099
 20
444.62014984674403
 30
0.0
  0
VERTEX
  5
16819
  8
AM_4
 10
212.5488854102974
 20
444.12071407338931
 30
0.0
  0
VERTEX
  5
1681A
  8
AM_4
 10
212.10192028858751
 20
443.60414210351729
 30
0.0
  0
VERTEX
  5
1681B
  8
AM_4
 10
211.5596760154738
 20
443.07265529770439
 30
0.0
  0
VERTEX
  5
1681C
  8
AM_4
 10
210.9017205016419
 20
442.53111949226712
 30
0.0
  0
VERTEX
  5
1681D
  8
AM_4
 10
210.14276908087189
 20
441.9949784264814
 30
0.0
  0
VERTEX
  5
1681E
  8
AM_4
 10
209.30632394271711
 20
441.48232031536332
 30
0.0
  0
VERTEX
  5
1681F
  8
AM_4
 10
208.4158872767309
 20
441.01123337392841
 30
0.0
  0
VERTEX
  5
16820
  8
AM_4
 10
207.49496127246701
 20
440.59980581719282
 30
0.0
  0
VERTEX
  5
16821
  8
AM_4
 10
206.56704811947861
 20
440.26612586017228
 30
0.0
  0
VERTEX
  5
16822
  8
AM_4
 10
205.65565000731931
 20
440.02828171788252
 30
0.0
  0
VERTEX
  5
16823
  8
AM_4
 10
204.78426912554249
 20
439.90436160533932
 30
0.0
  0
VERTEX
  5
16824
  8
AM_4
 10
203.96804427130081
 20
439.9039385245735
 30
0.0
  0
VERTEX
  5
16825
  8
AM_4
 10
203.18866067214481
 20
440.00252462567391
 30
0.0
  0
VERTEX
  5
16826
  8
AM_4
 10
202.41944016322429
 20
440.16711684574437
 30
0.0
  0
VERTEX
  5
16827
  8
AM_4
 10
201.63370457968881
 20
440.36471212188849
 30
0.0
  0
VERTEX
  5
16828
  8
AM_4
 10
200.8047757566884
 20
440.56230739120991
 30
0.0
  0
VERTEX
  5
16829
  8
AM_4
 10
199.90597552937251
 20
440.72689959081248
 30
0.0
  0
VERTEX
  5
1682A
  8
AM_4
 10
198.91062573289099
 20
440.8254856577999
 30
0.0
  0
VERTEX
  5
1682B
  8
AM_4
 10
197.79204820239369
 20
440.82506252927561
 30
0.0
  0
VERTEX
  5
1682C
  8
AM_4
 10
196.5310812407327
 20
440.70341660544312
 30
0.0
  0
VERTEX
  5
1682D
  8
AM_4
 10
195.13862902157001
 20
440.481492138904
 30
0.0
  0
VERTEX
  5
1682E
  8
AM_4
 10
193.63311218626981
 20
440.19102284535899
 30
0.0
  0
VERTEX
  5
1682F
  8
AM_4
 10
192.03295137619631
 20
439.8637424405091
 30
0.0
  0
VERTEX
  5
16830
  8
AM_4
 10
190.3565672327141
 20
439.53138464005542
 30
0.0
  0
VERTEX
  5
16831
  8
AM_4
 10
188.6223803971871
 20
439.22568315969897
 30
0.0
  0
VERTEX
  5
16832
  8
AM_4
 10
186.84881151098
 20
438.9783717151409
 30
0.0
  0
VERTEX
  5
16833
  8
AM_4
 10
185.0542812154568
 20
438.82118402208209
 30
0.0
  0
VERTEX
  5
16834
  8
AM_4
 10
183.2530813876794
 20
438.7760692340529
 30
0.0
  0
VERTEX
  5
16835
  8
AM_4
 10
181.44298884749961
 20
438.82583825590149
 30
0.0
  0
VERTEX
  5
16836
  8
AM_4
 10
179.61765165046651
 20
438.94351743030541
 30
0.0
  0
VERTEX
  5
16837
  8
AM_4
 10
177.77071785212959
 20
439.10213309994208
 30
0.0
  0
VERTEX
  5
16838
  8
AM_4
 10
175.89583550803809
 20
439.274711607489
 30
0.0
  0
VERTEX
  5
16839
  8
AM_4
 10
173.98665267374119
 20
439.43427929562409
 30
0.0
  0
VERTEX
  5
1683A
  8
AM_4
 10
172.036817404788
 20
439.55386250702469
 30
0.0
  0
VERTEX
  5
1683B
  8
AM_4
 10
170.03997775672801
 20
439.60648758436821
 30
0.0
  0
VERTEX
  5
1683C
  8
AM_4
 10
167.99639839340131
 20
439.57337874637659
 30
0.0
  0
VERTEX
  5
1683D
  8
AM_4
 10
165.932810411812
 20
439.46855171594967
 30
0.0
  0
VERTEX
  5
1683E
  8
AM_4
 10
163.88256151725511
 20
439.31422009203089
 30
0.0
  0
VERTEX
  5
1683F
  8
AM_4
 10
161.87899941502531
 20
439.13259747356472
 30
0.0
  0
VERTEX
  5
16840
  8
AM_4
 10
159.95547181041761
 20
438.94589745949457
 30
0.0
  0
VERTEX
  5
16841
  8
AM_4
 10
158.14532640872719
 20
438.77633364876442
 30
0.0
  0
VERTEX
  5
16842
  8
AM_4
 10
156.48191091524879
 20
438.64611964031849
 30
0.0
  0
VERTEX
  5
16843
  8
AM_4
 10
154.99857303527739
 20
438.57746903310073
 30
0.0
  0
VERTEX
  5
16844
  8
AM_4
 10
153.71786216987269
 20
438.5860371256739
 30
0.0
  0
VERTEX
  5
16845
  8
AM_4
 10
152.6191345031533
 20
438.6612460150788
 30
0.0
  0
VERTEX
  5
16846
  8
AM_4
 10
151.67094791500199
 20
438.7859594979754
 30
0.0
  0
VERTEX
  5
16847
  8
AM_4
 10
150.84186028530209
 20
438.94304137102358
 30
0.0
  0
VERTEX
  5
16848
  8
AM_4
 10
150.1004294939367
 20
439.11535543088303
 30
0.0
  0
VERTEX
  5
16849
  8
AM_4
 10
149.415213420789
 20
439.28576547421369
 30
0.0
  0
VERTEX
  5
1684A
  8
AM_4
 10
148.754769945742
 20
439.43713529767541
 30
0.0
  0
VERTEX
  5
1684B
  8
AM_4
 10
148.08765694867921
 20
439.55232869792798
 30
0.0
  0
VERTEX
  5
1684C
  8
AM_4
 10
147.389789976629
 20
439.62108510866881
 30
0.0
  0
VERTEX
  5
1684D
  8
AM_4
 10
146.66651524520481
 20
439.6606465117444
 30
0.0
  0
VERTEX
  5
1684E
  8
AM_4
 10
145.93053663716449
 20
439.69513052603889
 30
0.0
  0
VERTEX
  5
1684F
  8
AM_4
 10
145.19455803526751
 20
439.74865477043608
 30
0.0
  0
VERTEX
  5
16850
  8
AM_4
 10
144.4712833222718
 20
439.84533686382031
 30
0.0
  0
VERTEX
  5
16851
  8
AM_4
 10
143.77341638093611
 20
440.00929442507561
 30
0.0
  0
VERTEX
  5
16852
  8
AM_4
 10
143.11366109401919
 20
440.2646450730856
 30
0.0
  0
VERTEX
  5
16853
  8
AM_4
 10
142.5047213442796
 20
440.63550642673448
 30
0.0
  0
VERTEX
  5
16854
  8
AM_4
 10
141.95485465520321
 20
441.13700488722048
 30
0.0
  0
VERTEX
  5
16855
  8
AM_4
 10
141.45453311318539
 20
441.74830198499671
 30
0.0
  0
VERTEX
  5
16856
  8
AM_4
 10
140.98978244534879
 20
442.43956803283078
 30
0.0
  0
VERTEX
  5
16857
  8
AM_4
 10
140.54662837881619
 20
443.18097334348982
 30
0.0
  0
VERTEX
  5
16858
  8
AM_4
 10
140.11109664071009
 20
443.94268822974152
 30
0.0
  0
VERTEX
  5
16859
  8
AM_4
 10
139.6692129581532
 20
444.69488300435307
 30
0.0
  0
VERTEX
  5
1685A
  8
AM_4
 10
139.20700305826841
 20
445.40772798009198
 30
0.0
  0
VERTEX
  5
1685B
  8
AM_4
 10
138.71049266817801
 20
446.05139346972533
 30
0.0
  0
VERTEX
  5
1685C
  8
AM_4
 10
138.17049793865209
 20
446.60342787323839
 30
0.0
  0
VERTEX
  5
1685D
  8
AM_4
 10
137.59699671504859
 20
447.0708919394861
 30
0.0
  0
VERTEX
  5
1685E
  8
AM_4
 10
137.00475726637259
 20
447.46822450454141
 30
0.0
  0
VERTEX
  5
1685F
  8
AM_4
 10
136.4085478616291
 20
447.80986440447742
 30
0.0
  0
VERTEX
  5
16860
  8
AM_4
 10
135.82313676982329
 20
448.11025047536651
 30
0.0
  0
VERTEX
  5
16861
  8
AM_4
 10
135.26329225996051
 20
448.38382155328162
 30
0.0
  0
VERTEX
  5
16862
  8
AM_4
 10
134.7437826010455
 20
448.64501647429529
 30
0.0
  0
VERTEX
  5
16863
  8
AM_4
 10
134.27937606208349
 20
448.90827407448103
 30
0.0
  0
VERTEX
  5
16864
  8
AM_4
 10
133.86552041283949
 20
449.18353758177841
 30
0.0
  0
VERTEX
  5
16865
  8
AM_4
 10
133.42038142611869
 20
449.46276779159922
 30
0.0
  0
VERTEX
  5
16866
  8
AM_4
 10
132.84280437548551
 20
449.73342989122131
 30
0.0
  0
VERTEX
  5
16867
  8
AM_4
 10
132.03163453450469
 20
449.98298906792382
 30
0.0
  0
VERTEX
  5
16868
  8
AM_4
 10
130.8857171767412
 20
450.19891050898542
 30
0.0
  0
VERTEX
  5
16869
  8
AM_4
 10
129.30389757575969
 20
450.36865940168428
 30
0.0
  0
VERTEX
  5
1686A
  8
AM_4
 10
127.78948613855439
 20
450.4480234230781
 30
0.0
  0
SEQEND
  5
1686B
  8
AM_4
  0
LINE
  5
1686C
  8
AM_0
 10
206.95364415385799
 20
440.40514678871551
 30
0.0
 11
229.78948917839139
 21
440.40514678871551
 31
0.0
  0
LINE
  5
1686D
  8
AM_0
 10
211.13948601934521
 20
407.90514619266912
 30
0.0
 11
227.78948601934519
 21
407.90514619266912
 31
0.0
  0
LINE
  5
1686E
  8
AM_0
 10
206.95364415385799
 20
400.40514559662279
 30
0.0
 11
229.78948917839139
 21
400.40514559662279
 31
0.0
  0
POLYLINE
  5
1686F
  8
AM_4
 66
     1
 10
0.0
 20
0.0
 30
0.0
  0
VERTEX
  5
16870
  8
AM_4
 10
225.7894890591821
 20
389.95538052559891
 30
0.0
  0
VERTEX
  5
16871
  8
AM_4
 10
225.5331082440768
 20
389.96837740175181
 30
0.0
  0
VERTEX
  5
16872
  8
AM_4
 10
223.7796538588685
 20
390.15465427493177
 30
0.0
  0
VERTEX
  5
16873
  8
AM_4
 10
222.54261258699111
 20
390.39233976069067
 30
0.0
  0
VERTEX
  5
16874
  8
AM_4
 10
221.6943103351565
 20
390.6681057032439
 30
0.0
  0
VERTEX
  5
16875
  8
AM_4
 10
221.10707301007579
 20
390.96862394680699
 30
0.0
  0
VERTEX
  5
16876
  8
AM_4
 10
220.65322651846051
 20
391.28056633559578
 30
0.0
  0
VERTEX
  5
16877
  8
AM_4
 10
220.20509676702241
 20
391.59060471382571
 30
0.0
  0
VERTEX
  5
16878
  8
AM_4
 10
219.66110557004839
 20
391.88858429597428
 30
0.0
  0
VERTEX
  5
16879
  8
AM_4
 10
219.02405837212831
 20
392.17704377756968
 30
0.0
  0
VERTEX
  5
1687A
  8
AM_4
 10
218.322856525427
 20
392.46169522440158
 30
0.0
  0
VERTEX
  5
1687B
  8
AM_4
 10
217.58640138210981
 20
392.74825070226058
 30
0.0
  0
VERTEX
  5
1687C
  8
AM_4
 10
216.8435942943419
 20
393.04242227693652
 30
0.0
  0
VERTEX
  5
1687D
  8
AM_4
 10
216.12333661428841
 20
393.34992201421949
 30
0.0
  0
VERTEX
  5
1687E
  8
AM_4
 10
215.45452969411451
 20
393.67646197989973
 30
0.0
  0
VERTEX
  5
1687F
  8
AM_4
 10
214.86607488598531
 20
394.02775423976721
 30
0.0
  0
VERTEX
  5
16880
  8
AM_4
 10
214.37718682585739
 20
394.40818862188428
 30
0.0
  0
VERTEX
  5
16881
  8
AM_4
 10
213.96833328485161
 20
394.81686600340231
 30
0.0
  0
VERTEX
  5
16882
  8
AM_4
 10
213.61029531788051
 20
395.25156502374438
 30
0.0
  0
VERTEX
  5
16883
  8
AM_4
 10
213.2738539798562
 20
395.71006432233401
 30
0.0
  0
VERTEX
  5
16884
  8
AM_4
 10
212.92979032569099
 20
396.19014253859439
 30
0.0
  0
VERTEX
  5
16885
  8
AM_4
 10
212.5488854102974
 20
396.68957831194911
 30
0.0
  0
VERTEX
  5
16886
  8
AM_4
 10
212.10192028858751
 20
397.20615028182112
 30
0.0
  0
VERTEX
  5
16887
  8
AM_4
 10
211.5596760154738
 20
397.73763708763403
 30
0.0
  0
VERTEX
  5
16888
  8
AM_4
 10
210.9017205016419
 20
398.27917289307129
 30
0.0
  0
VERTEX
  5
16889
  8
AM_4
 10
210.14276908087189
 20
398.8153139588569
 30
0.0
  0
VERTEX
  5
1688A
  8
AM_4
 10
209.30632394271711
 20
399.3279720699752
 30
0.0
  0
VERTEX
  5
1688B
  8
AM_4
 10
208.4158872767309
 20
399.79905901140989
 30
0.0
  0
VERTEX
  5
1688C
  8
AM_4
 10
207.49496127246701
 20
400.2104865681456
 30
0.0
  0
VERTEX
  5
1688D
  8
AM_4
 10
206.56704811947861
 20
400.54416652516608
 30
0.0
  0
VERTEX
  5
1688E
  8
AM_4
 10
205.65565000731931
 20
400.78201066745578
 30
0.0
  0
VERTEX
  5
1688F
  8
AM_4
 10
204.78426912554249
 20
400.90593077999893
 30
0.0
  0
VERTEX
  5
16890
  8
AM_4
 10
203.96804427130081
 20
400.9063538607648
 30
0.0
  0
VERTEX
  5
16891
  8
AM_4
 10
203.18866067214481
 20
400.80776775966427
 30
0.0
  0
VERTEX
  5
16892
  8
AM_4
 10
202.41944016322429
 20
400.64317553959381
 30
0.0
  0
VERTEX
  5
16893
  8
AM_4
 10
201.63370457968881
 20
400.4455802634497
 30
0.0
  0
VERTEX
  5
16894
  8
AM_4
 10
200.8047757566884
 20
400.24798499412827
 30
0.0
  0
VERTEX
  5
16895
  8
AM_4
 10
199.90597552937251
 20
400.08339279452582
 30
0.0
  0
VERTEX
  5
16896
  8
AM_4
 10
198.91062573289099
 20
399.98480672753851
 30
0.0
  0
VERTEX
  5
16897
  8
AM_4
 10
197.79204820239369
 20
399.9852298560628
 30
0.0
  0
VERTEX
  5
16898
  8
AM_4
 10
196.5310812407327
 20
400.10687577989512
 30
0.0
  0
VERTEX
  5
16899
  8
AM_4
 10
195.13862902157001
 20
400.32880024643418
 30
0.0
  0
VERTEX
  5
1689A
  8
AM_4
 10
193.63311218626981
 20
400.61926953997943
 30
0.0
  0
VERTEX
  5
1689B
  8
AM_4
 10
192.03295137619631
 20
400.94654994482931
 30
0.0
  0
VERTEX
  5
1689C
  8
AM_4
 10
190.3565672327141
 20
401.27890774528282
 30
0.0
  0
VERTEX
  5
1689D
  8
AM_4
 10
188.6223803971871
 20
401.58460922563921
 30
0.0
  0
VERTEX
  5
1689E
  8
AM_4
 10
186.84881151098
 20
401.83192067019718
 30
0.0
  0
VERTEX
  5
1689F
  8
AM_4
 10
185.0542812154568
 20
401.98910836325621
 30
0.0
  0
VERTEX
  5
168A0
  8
AM_4
 10
183.2530813876794
 20
402.0342231512854
 30
0.0
  0
VERTEX
  5
168A1
  8
AM_4
 10
181.44298884749961
 20
401.98445412943681
 30
0.0
  0
VERTEX
  5
168A2
  8
AM_4
 10
179.61765165046651
 20
401.86677495503301
 30
0.0
  0
VERTEX
  5
168A3
  8
AM_4
 10
177.77071785212959
 20
401.70815928539628
 30
0.0
  0
VERTEX
  5
168A4
  8
AM_4
 10
175.89583550803809
 20
401.5355807778493
 30
0.0
  0
VERTEX
  5
168A5
  8
AM_4
 10
173.98665267374119
 20
401.37601308971421
 30
0.0
  0
VERTEX
  5
168A6
  8
AM_4
 10
172.036817404788
 20
401.25642987831372
 30
0.0
  0
VERTEX
  5
168A7
  8
AM_4
 10
170.03997775672801
 20
401.20380480097009
 30
0.0
  0
VERTEX
  5
168A8
  8
AM_4
 10
167.99639839340131
 20
401.23691363896171
 30
0.0
  0
VERTEX
  5
168A9
  8
AM_4
 10
165.932810411812
 20
401.34174066938868
 30
0.0
  0
VERTEX
  5
168AA
  8
AM_4
 10
163.88256151725511
 20
401.49607229330729
 30
0.0
  0
VERTEX
  5
168AB
  8
AM_4
 10
161.87899941502531
 20
401.6776949117737
 30
0.0
  0
VERTEX
  5
168AC
  8
AM_4
 10
159.95547181041761
 20
401.86439492584378
 30
0.0
  0
VERTEX
  5
168AD
  8
AM_4
 10
158.14532640872719
 20
402.03395873657388
 30
0.0
  0
VERTEX
  5
168AE
  8
AM_4
 10
156.48191091524879
 20
402.16417274501981
 30
0.0
  0
VERTEX
  5
168AF
  8
AM_4
 10
154.99857303527739
 20
402.2328233522378
 30
0.0
  0
VERTEX
  5
168B0
  8
AM_4
 10
153.71786216987269
 20
402.22425525966457
 30
0.0
  0
VERTEX
  5
168B1
  8
AM_4
 10
152.6191345031533
 20
402.1490463702595
 30
0.0
  0
VERTEX
  5
168B2
  8
AM_4
 10
151.67094791500199
 20
402.0243328873629
 30
0.0
  0
VERTEX
  5
168B3
  8
AM_4
 10
150.84186028530209
 20
401.8672510143146
 30
0.0
  0
VERTEX
  5
168B4
  8
AM_4
 10
150.1004294939367
 20
401.69493695445527
 30
0.0
  0
VERTEX
  5
168B5
  8
AM_4
 10
149.415213420789
 20
401.52452691112478
 30
0.0
  0
VERTEX
  5
168B6
  8
AM_4
 10
148.754769945742
 20
401.37315708766289
 30
0.0
  0
VERTEX
  5
168B7
  8
AM_4
 10
148.08765694867921
 20
401.25796368741038
 30
0.0
  0
VERTEX
  5
168B8
  8
AM_4
 10
147.389789976629
 20
401.18920727666972
 30
0.0
  0
VERTEX
  5
168B9
  8
AM_4
 10
146.66651524520481
 20
401.1496458735939
 30
0.0
  0
VERTEX
  5
168BA
  8
AM_4
 10
145.93053663716449
 20
401.11516185929941
 30
0.0
  0
VERTEX
  5
168BB
  8
AM_4
 10
145.19455803526751
 20
401.06163761490211
 30
0.0
  0
VERTEX
  5
168BC
  8
AM_4
 10
144.4712833222718
 20
400.96495552151799
 30
0.0
  0
VERTEX
  5
168BD
  8
AM_4
 10
143.77341638093611
 20
400.80099796026269
 30
0.0
  0
VERTEX
  5
168BE
  8
AM_4
 10
143.11366109401919
 20
400.54564731225281
 30
0.0
  0
VERTEX
  5
168BF
  8
AM_4
 10
142.5047213442796
 20
400.17478595860359
 30
0.0
  0
VERTEX
  5
168C0
  8
AM_4
 10
141.95485465520321
 20
399.67328749811787
 30
0.0
  0
VERTEX
  5
168C1
  8
AM_4
 10
141.45453311318539
 20
399.0619904003417
 30
0.0
  0
VERTEX
  5
168C2
  8
AM_4
 10
140.98978244534879
 20
398.37072435250758
 30
0.0
  0
VERTEX
  5
168C3
  8
AM_4
 10
140.54662837881619
 20
397.62931904184859
 30
0.0
  0
VERTEX
  5
168C4
  8
AM_4
 10
140.11109664071009
 20
396.86760415559678
 30
0.0
  0
VERTEX
  5
168C5
  8
AM_4
 10
139.6692129581532
 20
396.11540938098528
 30
0.0
  0
VERTEX
  5
168C6
  8
AM_4
 10
139.20700305826841
 20
395.40256440524649
 30
0.0
  0
VERTEX
  5
168C7
  8
AM_4
 10
138.71049266817801
 20
394.75889891561297
 30
0.0
  0
VERTEX
  5
168C8
  8
AM_4
 10
138.17049793865209
 20
394.20686451210008
 30
0.0
  0
VERTEX
  5
168C9
  8
AM_4
 10
137.59699671504859
 20
393.73940044585231
 30
0.0
  0
VERTEX
  5
168CA
  8
AM_4
 10
137.00475726637259
 20
393.34206788079689
 30
0.0
  0
VERTEX
  5
168CB
  8
AM_4
 10
136.4085478616291
 20
393.00042798086099
 30
0.0
  0
VERTEX
  5
168CC
  8
AM_4
 10
135.82313676982329
 20
392.70004190997179
 30
0.0
  0
VERTEX
  5
168CD
  8
AM_4
 10
135.26329225996051
 20
392.42647083205691
 30
0.0
  0
VERTEX
  5
168CE
  8
AM_4
 10
134.7437826010455
 20
392.1652759110429
 30
0.0
  0
VERTEX
  5
168CF
  8
AM_4
 10
134.27937606208349
 20
391.9020183108575
 30
0.0
  0
VERTEX
  5
168D0
  8
AM_4
 10
133.86552041283949
 20
391.62675480356
 30
0.0
  0
VERTEX
  5
168D1
  8
AM_4
 10
133.42038142611869
 20
391.34752459373931
 30
0.0
  0
VERTEX
  5
168D2
  8
AM_4
 10
132.84280437548551
 20
391.07686249411699
 30
0.0
  0
VERTEX
  5
168D3
  8
AM_4
 10
132.03163453450469
 20
390.82730331741448
 30
0.0
  0
VERTEX
  5
168D4
  8
AM_4
 10
130.8857171767412
 20
390.61138187635322
 30
0.0
  0
VERTEX
  5
168D5
  8
AM_4
 10
129.30389757575969
 20
390.44163298365407
 30
0.0
  0
VERTEX
  5
168D6
  8
AM_4
 10
127.78948613855439
 20
390.36226896226037
 30
0.0
  0
SEQEND
  5
168D7
  8
AM_4
  0
LINE
  5
168D8
  8
AM_0
 10
225.78948905918199
 20
392.90514619266918
 30
0.0
 11
217.78948905918199
 21
400.40514559662279
 31
0.0
  0
LINE
  5
168D9
  8
AM_0
 10
217.7894890591821
 20
392.90514619266912
 30
0.0
 11
225.78948905918199
 21
400.40514559662279
 31
0.0
  0
LINE
  5
168DA
  8
AM_0
 10
217.7894890591821
 20
392.90514619266918
 30
0.0
 11
225.7894890591821
 21
392.90514619266918
 31
0.0
  0
LINE
  5
168DB
  8
AM_0
 10
158.78948601934519
 20
433.15514619266918
 30
0.0
 11
194.78948601934499
 21
433.15514619266912
 31
0.0
  0
LINE
  5
168DC
  8
AM_0
 10
158.78948601934519
 20
407.65514619266901
 30
0.0
 11
194.78948601934511
 21
407.65514619266901
 31
0.0
  0
LINE
  5
168DD
  8
AM_0
 10
125.7894860193452
 20
432.90514619266912
 30
0.0
 11
125.7894860193452
 21
407.90514619266912
 31
0.0
  0
LINE
  5
168DE
  8
AM_0
 10
142.43948601934511
 20
433.5051461926692
 30
0.0
 11
142.43948601934511
 21
407.3051461926691
 31
0.0
  0
LINE
  5
168DF
  8
AM_0
 10
143.78948601934519
 20
433.5051461926692
 30
0.0
 11
143.78948601934519
 21
407.3051461926691
 31
0.0
  0
LINE
  5
168E0
  8
AM_0
 10
158.78948601934519
 20
433.15514619266918
 30
0.0
 11
158.78948601934519
 21
407.65514619266901
 31
0.0
  0
LINE
  5
168E1
  8
AM_0
 10
143.78948601934519
 20
407.90514619266912
 30
0.0
 11
158.78948601934519
 21
407.90514619266912
 31
0.0
  0
LINE
  5
168E2
  8
AM_0
 10
127.78948613855459
 20
392.90514619266912
 30
0.0
 11
135.78948613855451
 21
400.40514559662279
 31
0.0
  0
LINE
  5
168E3
  8
AM_0
 10
135.78948613855459
 20
392.90514619266918
 30
0.0
 11
127.78948613855439
 21
400.40514559662279
 31
0.0
  0
LINE
  5
168E4
  8
AM_0
 10
135.78948613855459
 20
392.90514619266912
 30
0.0
 11
135.78948613855451
 21
400.40514559662279
 31
0.0
  0
LINE
  5
168E5
  8
AM_0
 10
127.78948613855439
 20
390.36226896226037
 30
0.0
 11
127.78948613855439
 21
400.40514559662279
 31
0.0
  0
LINE
  5
168E6
  8
AM_0
 10
127.78948613855459
 20
392.90514619266912
 30
0.0
 11
135.78948613855459
 21
392.90514619266918
 31
0.0
  0
LINE
  5
168E7
  8
AM_0
 10
125.7894860193452
 20
407.90514619266912
 30
0.0
 11
142.43948601934511
 21
407.90514619266912
 31
0.0
  0
LINE
  5
168E8
  8
AM_0
 10
142.43948601934511
 20
407.3051461926691
 30
0.0
 11
143.78948601934519
 21
407.3051461926691
 31
0.0
  0
LINE
  5
168E9
  8
AM_0
 10
143.78948601934519
 20
432.90514619266912
 30
0.0
 11
158.78948601934519
 21
432.90514619266912
 31
0.0
  0
LINE
  5
168EA
  8
AM_0
 10
125.7894860193452
 20
432.90514619266912
 30
0.0
 11
142.43948601934511
 21
432.90514619266912
 31
0.0
  0
LINE
  5
168EB
  8
AM_0
 10
142.43948601934511
 20
433.5051461926692
 30
0.0
 11
143.78948601934519
 21
433.5051461926692
 31
0.0
  0
LINE
  5
168EC
  8
AM_0
 10
135.78948613855459
 20
447.90514619266929
 30
0.0
 11
135.78948613855451
 21
440.40514678871551
 31
0.0
  0
LINE
  5
168ED
  8
AM_0
 10
135.78948613855459
 20
447.90514619266918
 30
0.0
 11
127.78948613855439
 21
440.40514678871551
 31
0.0
  0
LINE
  5
168EE
  8
AM_0
 10
127.78948613855459
 20
447.90514619266929
 30
0.0
 11
135.78948613855451
 21
440.40514678871551
 31
0.0
  0
LINE
  5
168EF
  8
AM_0
 10
127.78948613855439
 20
450.4480234230781
 30
0.0
 11
127.78948613855439
 21
440.40514678871551
 31
0.0
  0
LINE
  5
168F0
  8
AM_0
 10
127.78948613855459
 20
447.90514619266929
 30
0.0
 11
135.78948613855459
 21
447.90514619266918
 31
0.0
  0
LINE
  5
168F1
  8
AM_0
 10
194.78948601934499
 20
433.15514619266912
 30
0.0
 11
194.78948601934511
 21
407.65514619266901
 31
0.0
  0
LINE
  5
168F2
  8
AM_0
 10
209.78948601934519
 20
433.50514619266909
 30
0.0
 11
209.78948601934519
 21
407.3051461926691
 31
0.0
  0
LINE
  5
168F3
  8
AM_0
 10
211.13948601934521
 20
433.50514619266909
 30
0.0
 11
211.13948601934521
 21
407.3051461926691
 31
0.0
  0
LINE
  5
168F4
  8
ﾁｭｳｼﾝｾﾝ1
 10
176.78948759886831
 20
395.40514619266929
 30
0.0
 11
176.78948759886831
 21
445.40514619266918
 31
0.0
  0
LINE
  5
168F5
  8
AM_0
 10
194.78948601934511
 20
407.90514619266912
 30
0.0
 11
209.78948601934519
 21
407.90514619266912
 31
0.0
  0
LINE
  5
168F6
  8
AM_0
 10
217.7894890591821
 20
392.90514619266912
 30
0.0
 11
217.78948905918199
 21
400.40514559662279
 31
0.0
  0
LINE
  5
168F7
  8
AM_0
 10
209.78948601934519
 20
407.3051461926691
 30
0.0
 11
211.13948601934521
 21
407.3051461926691
 31
0.0
  0
LINE
  5
168F8
  8
AM_0
 10
194.78948601934499
 20
432.90514619266912
 30
0.0
 11
209.78948601934519
 21
432.90514619266912
 31
0.0
  0
LINE
  5
168F9
  8
AM_0
 10
209.78948601934511
 20
433.50514619266909
 30
0.0
 11
211.13948601934521
 21
433.50514619266909
 31
0.0
  0
LINE
  5
168FA
  8
AM_0
 10
217.7894890591821
 20
447.90514619266929
 30
0.0
 11
217.78948905918199
 21
440.40514678871551
 31
0.0
  0
LINE
  5
168FB
  8
AM_0
 10
229.78948917839139
 20
440.40514678871551
 30
0.0
 11
229.78948917839139
 21
400.40514559662267
 31
0.0
  0
LINE
  5
168FC
  8
AM_0
 10
227.78948601934519
 20
432.90514619266912
 30
0.0
 11
227.78948601934519
 21
407.90514619266912
 31
0.0
  0
LINE
  5
168FD
  8
AM_0
 10
225.7894890591821
 20
389.95538052559891
 30
0.0
 11
225.78948905918199
 21
400.40514559662279
 31
0.0
  0
LINE
  5
168FE
  8
AM_0
 10
227.78948601934519
 20
407.90514619266912
 30
0.0
 11
229.78948601934511
 21
406.75044565428988
 31
0.0
  0
LINE
  5
168FF
  8
AM_0
 10
227.78948601934519
 20
432.90514619266912
 30
0.0
 11
229.78948601934511
 21
434.05984673104831
 31
0.0
  0
LINE
  5
16900
  8
AM_0
 10
225.7894890591821
 20
450.85491185973967
 30
0.0
 11
225.78948905918199
 21
440.40514678871551
 31
0.0
  0
LINE
  5
16901
  8
AM_0
 10
407.49763235831301
 20
554.28469140862671
 30
0.0
 11
482.49763459348679
 21
554.28469140862671
 31
0.0
  0
LINE
  5
16902
  8
AM_0
 10
388.8416564605244
 20
550.28469128941765
 30
0.0
 11
540.15361165356546
 21
550.28469128941765
 31
0.0
  0
LINE
  5
16906
  8
ﾁｭｳｼﾝｾﾝ1
 10
695.49763635182376
 20
505.28465402785349
 30
0.0
 11
382.49763176226622
 21
505.28469747742849
 31
0.0
1001
GENIUS_GENODEF_13
1002
{
1000
HIER
1070
     0
1002
}
1002
{
1000
MANEDIT
1070
     0
1002
}
1002
{
1000
NOSEL
1070
     0
1002
}
1002
{
1000
BEHIND
1070
     0
1002
}
1002
{
1000
REACTOR
1002
}
1001
GENIUS_GENOBJ-N-CEN_13
1002
{
1000
OWNER
1000
GEN
1002
}
  0
LINE
  5
16907
  8
AM_0
 10
541.49761226881583
 20
480.28606872498881
 30
0.0
 11
540.15361165356546
 21
550.28469128941765
 31
0.0
  0
LINE
  5
1690B
  8
AM_0
 10
550.36005917630905
 20
560.81676250626401
 30
0.0
 11
550.36004391819483
 21
449.75258473378813
 31
0.0
  0
LINE
  5
1690C
  8
AM_0
 10
558.99763635182364
 20
561.28468402785347
 30
0.0
 11
558.99763635182364
 21
449.28466302785358
 31
0.0
  0
LINE
  5
1690D
  8
AM_0
 10
549.67600324334558
 20
450.93737999707417
 30
0.0
 11
544.29433955383115
 21
481.45833703108912
 31
0.0
1001
GENIUS_GENODEF_13
1002
{
1000
HIER
1070
     0
1002
}
1002
{
1000
MANEDIT
1070
     0
1002
}
1002
{
1000
NOSEL
1070
     0
1002
}
1002
{
1000
BEHIND
1070
     0
1002
}
1002
{
1000
REACTOR
1002
}
1001
GENIUS_GENOBJ-N-CEN_13
1002
{
1000
OWNER
1000
GEN
1002
}
  0
LINE
  5
1690E
  8
AM_0
 10
558.99763635182364
 20
449.28467352785339
 30
0.0
 11
551.64561924741474
 21
449.28467352785339
 31
0.0
  0
ARC
  5
1690F
  8
AM_0
 10
551.64561924741508
 20
451.28467352785327
 30
0.0
 40
2.0
 50
189.99999178406739
 51
270.0
1001
GENIUS_GENOBJ-N-CEN_13
1002
{
1000
OWNER
1000
GEN
1002
}
1001
GENIUS_GENODEF_13
1002
{
1000
HIER
1070
     0
1002
}
1002
{
1000
MANEDIT
1070
     0
1002
}
1002
{
1000
NOSEL
1070
     0
1002
}
1002
{
1000
BEHIND
1070
     0
1002
}
1002
{
1000
OTHER
1070
     0
1002
}
1002
{
1000
REACTOR
1002
}
1001
GENIUS_GENOBJ-N-FIL_13
1002
{
1000
OWNER
1000
GEN
1002
}
  0
LINE
  5
16910
  8
AM_0
 10
558.99763635182364
 20
473.34721602785362
 30
0.0
 11
550.36004715934575
 21
473.34500103269602
 31
0.0
  0
LINE
  5
16911
  8
AM_0
 10
558.99763635182364
 20
459.28464802785339
 30
0.0
 11
550.36004522772248
 21
459.28466717061309
 31
0.0
  0
LINE
  5
16913
  8
AM_0
 10
542.48033381069979
 20
482.28468899463883
 30
0.0
 11
543.30953177591857
 21
482.2846889946386
 31
0.0
  0
ARC
  5
16915
  8
AM_0
 10
542.48033381069979
 20
481.2846889946386
 30
0.0
 40
1.0
 50
90.0
 51
180.9999885880236
1001
GENIUS_GENOBJ-N-FIL_13
1002
{
1000
OWNER
1000
GEN
1002
}
1001
GENIUS_GENODEF_13
1002
{
1000
HIER
1070
     0
1002
}
1002
{
1000
MANEDIT
1070
     0
1002
}
1002
{
1000
NOSEL
1070
     0
1002
}
1002
{
1000
BEHIND
1070
     0
1002
}
1002
{
1000
OTHER
1070
     0
1002
}
1002
{
1000
REACTOR
1002
}
  0
LINE
  5
16917
  8
AM_0
 10
549.67601882961128
 20
559.63197016562049
 30
0.0
 11
547.96660216660746
 21
549.93739465165072
 31
0.0
1001
GENIUS_GENODEF_13
1002
{
1000
HIER
1070
     0
1002
}
1002
{
1000
MANEDIT
1070
     0
1002
}
1002
{
1000
NOSEL
1070
     0
1002
}
1002
{
1000
BEHIND
1070
     0
1002
}
1002
{
1000
REACTOR
1002
}
1001
GENIUS_GENOBJ-N-CEN_13
1002
{
1000
OWNER
1000
GEN
1002
}
  0
LINE
  5
16918
  8
AM_0
 10
558.99763635182364
 20
537.2246235278534
 30
0.0
 11
550.36005593519587
 21
537.2246235278534
 31
0.0
  0
LINE
  5
16919
  8
AM_0
 10
558.99763635182364
 20
551.28467352785344
 30
0.0
 11
550.36005786678083
 21
551.28467352785344
 31
0.0
  0
LINE
  5
1691A
  8
AM_0
 10
542.15391630269914
 20
548.28469128941765
 30
0.0
 11
545.99698671038345
 21
548.28469128941765
 31
0.0
  0
ARC
  5
1691B
  8
AM_0
 10
545.99698671038345
 20
550.28469128941731
 30
0.0
 40
2.0
 50
270.0
 51
349.99999178407012
1001
GENIUS_GENOBJ-N-CEN_13
1002
{
1000
OWNER
1000
GEN
1002
}
1001
GENIUS_GENODEF_13
1002
{
1000
HIER
1070
     0
1002
}
1002
{
1000
MANEDIT
1070
     0
1002
}
1002
{
1000
NOSEL
1070
     0
1002
}
1002
{
1000
BEHIND
1070
     0
1002
}
1002
{
1000
OTHER
1070
     0
1002
}
1002
{
1000
REACTOR
1002
}
1001
GENIUS_GENOBJ-N-FIL_13
1002
{
1000
OWNER
1000
GEN
1002
}
  0
ARC
  5
1691C
  8
AM_0
 10
542.15391630269926
 20
550.28469128941731
 30
0.0
 40
2.0
 50
180.9999885880236
 51
270.0
1001
GENIUS_GENOBJ-N-FIL_13
1002
{
1000
OWNER
1000
GEN
1002
}
1001
GENIUS_GENODEF_13
1002
{
1000
HIER
1070
     0
1002
}
1002
{
1000
MANEDIT
1070
     0
1002
}
1002
{
1000
NOSEL
1070
     0
1002
}
1002
{
1000
BEHIND
1070
     0
1002
}
1002
{
1000
OTHER
1070
     0
1002
}
1002
{
1000
REACTOR
1002
}
  0
LINE
  5
1691D
  8
AM_0
 10
558.99763635182364
 20
561.28467352785356
 30
0.0
 11
551.64563428583529
 21
561.28467352785356
 31
0.0
  0
ARC
  5
1691E
  8
AM_0
 10
551.64563428583563
 20
559.28467352785333
 30
0.0
 40
2.0
 50
90.0
 51
169.99999178406989
1001
GENIUS_GENOBJ-N-CEN_13
1002
{
1000
OWNER
1000
GEN
1002
}
1001
GENIUS_GENOBJ-N-FIL_13
1002
{
1000
OWNER
1000
GEN
1002
}
1001
GENIUS_GENODEF_13
1002
{
1000
HIER
1070
     0
1002
}
1002
{
1000
MANEDIT
1070
     0
1002
}
1002
{
1000
NOSEL
1070
     0
1002
}
1002
{
1000
BEHIND
1070
     0
1002
}
1002
{
1000
OTHER
1070
     0
1002
}
1002
{
1000
REACTOR
1002
}
  0
LINE
  5
1691F
  8
AM_0
 10
482.49763459348679
 20
550.28469128941765
 30
0.0
 11
482.49763459348679
 21
554.28469140862671
 31
0.0
  0
LINE
  5
16920
  8
ﾁｭｳｼﾝｾﾝ1
 10
444.99763347589982
 20
563.28469152783623
 30
0.0
 11
444.99763347589982
 21
423.28606872498858
 31
0.0
  0
LINE
  5
16921
  8
AM_0
 10
387.49765584582099
 20
480.28606872498881
 30
0.0
 11
388.8416869781035
 21
550.28469128941765
 31
0.0
  0
LINE
  5
1692A
  8
AM_0
 10
424.99763287985371
 20
558.28469152783612
 30
0.0
 11
464.99763407194621
 21
558.28469152783612
 31
0.0
  0
LINE
  5
1692B
  8
AM_0
 10
464.99763407194621
 20
554.28469140862671
 30
0.0
 11
464.99763407194621
 21
558.28469152783612
 31
0.0
  0
LINE
  5
1692C
  8
AM_0
 10
407.49763235831301
 20
550.28469128941765
 30
0.0
 11
407.49763235831301
 21
554.28469140862671
 31
0.0
  0
LINE
  5
1692D
  8
AM_0
 10
424.99763287985371
 20
554.28469140862671
 30
0.0
 11
424.99763287985371
 21
558.28469152783612
 31
0.0
  0
LINE
  5
1692E
  8
AM_0
 10
635.99760635182383
 20
565.16963007927666
 30
0.0
 11
635.99760635182383
 21
561.56964007927684
 31
0.0
  0
ARC
  5
1692F
  8
AM_0
 10
637.998036351824
 20
562.40922007927645
 30
0.0
 40
2.000407899999999
 50
90.011650000002106
 51
179.98835099999931
  0
LINE
  5
16930
  8
AM_0
 10
674.99754635182376
 20
556.0696600792769
 30
0.0
 11
673.70756635182374
 21
564.55965007927693
 31
0.0
  0
LINE
  5
16931
  8
AM_0
 10
674.99760635182383
 20
556.069620079277
 30
0.0
 11
673.687606351824
 21
565.44963007927674
 31
0.0
  0
ARC
  5
16932
  8
AM_0
 10
671.74919635182425
 20
562.4165000792766
 30
0.0
 40
1.9931281000000001
 50
9.038819999999637
 51
90.046626999999489
  0
LINE
  5
16933
  8
AM_0
 10
671.74760635182395
 20
564.40964007927676
 30
0.0
 11
637.99760635182383
 21
564.40964007927676
 31
0.0
  0
LINE
  5
16934
  8
AM_0
 10
671.7275863518239
 20
566.25964007927666
 30
0.0
 11
637.99760635182383
 21
566.25964007927666
 31
0.0
  0
LINE
  5
16935
  8
AM_0
 10
671.70762635182405
 20
567.16965007927672
 30
0.0
 11
637.99760635182383
 21
567.16965007927672
 31
0.0
  0
ARC
  5
16936
  8
AM_0
 10
671.71293635182383
 20
565.17616007927654
 30
0.0
 40
1.9934921000000001
 50
7.8852599999973876
 51
90.153908999998592
  0
ARC
  5
16937
  8
AM_0
 10
671.73490635182395
 20
564.26507007927626
 30
0.0
 40
1.994588
 50
8.4929099999988722
 51
90.209246999997575
  0
ARC
  5
16938
  8
AM_0
 10
637.99888635182413
 20
565.16835007927625
 30
0.0
 40
2.001287899999999
 50
90.036874000002058
 51
179.96312800099781
  0
ARC
  5
16939
  8
AM_0
 10
637.99919635182425
 20
564.25809007927671
 30
0.0
 40
2.0015439999999991
 50
90.044216000000915
 51
179.9557860009991
  0
LINE
  5
1693A
  8
AM_0
 10
682.99760635182383
 20
558.28464007927676
 30
0.0
 11
674.99760635182383
 21
558.28464007927676
 31
0.0
  0
LINE
  5
1693B
  8
AM_0
 10
682.99760635182383
 20
558.27965007927662
 30
0.0
 11
674.99760635182383
 21
558.27965007927662
 31
0.0
  0
LINE
  5
1693C
  8
AM_0
 10
682.30760635182412
 20
548.46963007927684
 30
0.0
 11
676.07762635182405
 21
548.46963007927684
 31
0.0
  0
LINE
  5
1693D
  8
AM_0
 10
682.99760635182383
 20
452.28463607927682
 30
0.0
 11
674.99760635182383
 21
452.28463607927682
 31
0.0
  0
LINE
  5
1693E
  8
AM_0
 10
682.99760635182383
 20
452.27964707927669
 30
0.0
 11
674.99760635182383
 21
452.27964707927669
 31
0.0
  0
LINE
  5
1693F
  8
AM_0
 10
682.30760635182412
 20
462.0896360792766
 30
0.0
 11
676.07762635182405
 21
462.0896360792766
 31
0.0
  0
LINE
  5
16940
  8
AM_0
 10
686.99763635182376
 20
499.67137340288627
 30
0.0
 11
686.99763635182376
 21
500.83226340288621
 31
0.0
  0
ARC
  5
16941
  8
AM_0
 10
687.99763635182421
 20
500.28466340288622
 30
0.0
 40
1.0
 50
359.999989999999
 51
89.999996999995744
  0
LINE
  5
16942
  8
AM_0
 10
682.99763635182376
 20
558.28464340288633
 30
0.0
 11
682.99763635182376
 21
452.284662402886
 31
0.0
  0
LINE
  5
16943
  8
AM_0
 10
690.49763635182387
 20
525.28464340288633
 30
0.0
 11
690.49763635182387
 21
485.28466340288622
 31
0.0
  0
LINE
  5
16944
  8
AM_0
 10
683.99763635182364
 20
555.28464340288633
 30
0.0
 11
683.99763635182364
 21
454.16142440288621
 31
0.0
  0
LINE
  5
16945
  8
AM_0
 10
691.49153283619864
 20
490.06282112749551
 30
0.0
 11
691.49153283619864
 21
520.50645516069858
 31
0.0
  0
ARC
  5
16946
  8
AM_0
 10
684.9976363518241
 20
532.28465340288608
 30
0.0
 40
1.0
 50
180.0
 51
270.0
  0
LINE
  5
16947
  8
AM_0
 10
688.99763635182364
 20
553.30101340288616
 30
0.0
 11
688.99763635182364
 21
510.28464340288627
 31
0.0
  0
LINE
  5
16948
  8
AM_0
 10
686.99763635182376
 20
548.11510340288623
 30
0.0
 11
686.99763635182376
 21
547.64291340288628
 31
0.0
  0
LINE
  5
16949
  8
AM_0
 10
687.24738635182405
 20
548.24580340288605
 30
0.0
 11
688.54597635182415
 21
547.39424340288633
 31
0.0
  0
LINE
  5
1694A
  8
AM_0
 10
687.22981635182373
 20
554.89976340288626
 30
0.0
 11
688.49799635182376
 21
554.16681340288619
 31
0.0
  0
LINE
  5
1694B
  8
AM_0
 10
687.23518635182415
 20
552.78375340288608
 30
0.0
 11
688.51222635182398
 21
552.01745340288608
 31
0.0
  0
LINE
  5
1694C
  8
AM_0
 10
687.21095635182405
 20
553.77946340288622
 30
0.0
 11
688.45020635182402
 21
553.15044340288625
 31
0.0
  0
LINE
  5
1694D
  8
AM_0
 10
687.21729635182419
 20
551.66981340288623
 30
0.0
 11
688.46595635182405
 21
551.00795340288619
 31
0.0
  0
ARC
  5
1694E
  8
AM_0
 10
687.99763635182421
 20
553.30101340288593
 30
0.0
 40
1.0
 50
359.999989999999
 51
59.97360000000274
  0
ARC
  5
1694F
  8
AM_0
 10
687.99763635182421
 20
552.25871340288586
 30
0.0
 40
1.0
 50
359.999989999999
 51
63.088739999998907
  0
ARC
  5
16950
  8
AM_0
 10
687.99763635182421
 20
551.15996340288586
 30
0.0
 40
1.0
 50
359.999989999999
 51
59.033399999998721
  0
ARC
  5
16951
  8
AM_0
 10
687.99763635182421
 20
550.12436340288593
 30
0.0
 40
1.0
 50
359.999989999999
 51
62.073399999995551
  0
ARC
  5
16952
  8
AM_0
 10
686.72944635182398
 20
554.03403340288605
 30
0.0
 40
1.0
 50
59.97360000000274
 51
89.999996999995744
  0
ARC
  5
16953
  8
AM_0
 10
686.75837635182427
 20
552.88774340288592
 30
0.0
 40
1.0
 50
63.088739999998907
 51
89.999996999995744
  0
ARC
  5
16954
  8
AM_0
 10
686.72059635182416
 20
551.926253402886
 30
0.0
 40
1.0
 50
59.033399999998721
 51
89.999996999995744
  0
ARC
  5
16955
  8
AM_0
 10
686.74897635182413
 20
550.78628340288594
 30
0.0
 40
1.0
 50
62.073399999995551
 51
89.999996999995744
  0
LINE
  5
16956
  8
AM_0
 10
686.99763635182376
 20
552.68120340288624
 30
0.0
 11
686.99763635182376
 21
552.13512340288617
 31
0.0
  0
LINE
  5
16957
  8
AM_0
 10
686.99763635182376
 20
554.78081340288622
 30
0.0
 11
686.99763635182376
 21
554.25503340288606
 31
0.0
  0
ARC
  5
16958
  8
AM_0
 10
684.4976363518241
 20
553.38774340288592
 30
0.0
 40
0.5
 50
89.999996999995744
 51
180.0
  0
ARC
  5
16959
  8
AM_0
 10
684.4976363518241
 20
555.53403340288594
 30
0.0
 40
0.5
 50
180.0
 51
270.0
  0
LINE
  5
1695A
  8
AM_0
 10
686.72944635182398
 20
555.03404340288625
 30
0.0
 11
684.49763635182364
 21
555.03404340288625
 31
0.0
  0
LINE
  5
1695B
  8
AM_0
 10
686.72059635182393
 20
552.92624340288614
 30
0.0
 11
683.99763635182364
 21
552.92624340288614
 31
0.0
  0
LINE
  5
1695C
  8
AM_0
 10
686.74897635182413
 20
551.78630340288623
 30
0.0
 11
684.99763635182364
 21
551.78630340288623
 31
0.0
  0
LINE
  5
1695D
  8
AM_0
 10
686.75837635182404
 20
553.88772340288619
 30
0.0
 11
684.49763635182364
 21
553.88772340288619
 31
0.0
  0
LINE
  5
1695E
  8
AM_0
 10
683.99763635182364
 20
555.28464340288633
 30
0.0
 11
682.99763635182376
 21
555.28464340288633
 31
0.0
  0
ARC
  5
1695F
  8
AM_0
 10
686.69898635182415
 20
547.40953340288581
 30
0.0
 40
1.0
 50
56.745270000001042
 51
89.999996999995744
  0
LINE
  5
16960
  8
AM_0
 10
686.69898635182415
 20
548.40953340288615
 30
0.0
 11
683.99763635182364
 21
548.40953340288615
 31
0.0
  0
ARC
  5
16961
  8
AM_0
 10
684.9976363518241
 20
550.78628340288594
 30
0.0
 40
1.0
 50
89.999996999995744
 51
180.0
  0
LINE
  5
16962
  8
AM_0
 10
686.99763635182376
 20
540.67753340288618
 30
0.0
 11
686.99763635182376
 21
539.61758340288611
 31
0.0
  0
ARC
  5
16963
  8
AM_0
 10
687.99763635182421
 20
539.45938340288592
 30
0.0
 40
1.0
 50
359.999989999999
 51
66.872970000004372
  0
LINE
  5
16964
  8
AM_0
 10
687.23176635182415
 20
547.13243340288614
 30
0.0
 11
688.50306635182403
 21
546.38776340288632
 31
0.0
  0
LINE
  5
16965
  8
AM_0
 10
687.185806351824
 20
540.89354340288628
 30
0.0
 11
688.39039635182405
 21
540.37907340288621
 31
0.0
  0
ARC
  5
16966
  8
AM_0
 10
687.99763635182421
 20
545.52489340288594
 30
0.0
 40
1.0
 50
359.999989999999
 51
59.640499999996443
  0
ARC
  5
16967
  8
AM_0
 10
687.99763635182421
 20
546.55797340288586
 30
0.0
 40
1.0
 50
359.999989999999
 51
56.745270000001042
  0
ARC
  5
16968
  8
AM_0
 10
686.72633635182422
 20
546.26958340288593
 30
0.0
 40
1.0
 50
59.640499999996443
 51
89.999996999995744
  0
ARC
  5
16969
  8
AM_0
 10
684.9976363518241
 20
546.26958340288593
 30
0.0
 40
1.0
 50
89.999996999995744
 51
180.0
  0
LINE
  5
1696A
  8
AM_0
 10
686.72633635182376
 20
547.26956340288621
 30
0.0
 11
684.99763635182364
 21
547.26956340288621
 31
0.0
  0
ARC
  5
1696B
  8
AM_0
 10
686.79298635182408
 20
539.97386340288585
 30
0.0
 40
1.0
 50
66.872970000004372
 51
89.999996999995744
  0
ARC
  5
1696C
  8
AM_0
 10
684.69764635182412
 20
541.67386340288613
 30
0.0
 40
0.6999999900000002
 50
180.0
 51
270.0
  0
LINE
  5
1696D
  8
AM_0
 10
686.79298635182408
 20
540.97385340288611
 30
0.0
 11
684.69764635182366
 21
540.97385340288611
 31
0.0
  0
LINE
  5
1696E
  8
AM_0
 10
687.141316351824
 20
538.98358340288632
 30
0.0
 11
688.29163635182408
 21
538.62974340288622
 31
0.0
  0
ARC
  5
1696F
  8
AM_0
 10
687.99763635182421
 20
537.67392340288598
 30
0.0
 40
1.0
 50
359.999989999999
 51
72.902369999998115
  0
ARC
  5
16970
  8
AM_0
 10
686.84730635182416
 20
538.02775340288576
 30
0.0
 40
1.0
 50
72.902369999998115
 51
89.999996999995744
  0
ARC
  5
16971
  8
AM_0
 10
684.9976363518241
 20
538.02775340288576
 30
0.0
 40
1.0
 50
89.999996999995744
 51
180.0
  0
LINE
  5
16972
  8
AM_0
 10
686.84730635182393
 20
539.02775340288622
 30
0.0
 11
684.99763635182364
 21
539.02775340288622
 31
0.0
  0
LINE
  5
16973
  8
AM_0
 10
684.99763635182364
 20
531.28464340288633
 30
0.0
 11
687.99763635182364
 21
531.28464340288633
 31
0.0
  0
LINE
  5
16974
  8
AM_0
 10
684.99763635182364
 20
529.28465340288608
 30
0.0
 11
687.99763635182364
 21
529.28465340288608
 31
0.0
  0
ARC
  5
16975
  8
AM_0
 10
687.99763635182421
 20
530.28465340288585
 30
0.0
 40
1.0
 50
359.999989999999
 51
89.999996999995744
  0
ARC
  5
16976
  8
AM_0
 10
687.99763635182421
 20
530.28465340288585
 30
0.0
 40
1.0
 50
270.0
 51
0.0000100000009873
  0
LINE
  5
16977
  8
AM_0
 10
690.49763635182387
 20
525.28464340288633
 30
0.0
 11
688.99763635182364
 21
525.41586340288632
 31
0.0
  0
LINE
  5
16978
  8
AM_0
 10
686.99763635182376
 20
530.91081340288611
 30
0.0
 11
686.99763635182376
 21
529.5480234028862
 31
0.0
  0
ARC
  5
16979
  8
AM_0
 10
684.9976363518241
 20
528.2846434028861
 30
0.0
 40
1.0
 50
89.999996999995744
 51
180.0
  0
LINE
  5
1697A
  8
AM_0
 10
684.99763635182364
 20
521.28465340288608
 30
0.0
 11
687.99763635182364
 21
521.28465340288608
 31
0.0
  0
LINE
  5
1697B
  8
AM_0
 10
684.99763635182364
 20
519.28464340288633
 30
0.0
 11
687.99763635182364
 21
519.28464340288633
 31
0.0
  0
LINE
  5
1697C
  8
AM_0
 10
690.49763635182387
 20
520.43468340288632
 30
0.0
 11
685.82014635182372
 21
520.43468340288632
 31
0.0
  0
ARC
  5
1697D
  8
AM_0
 10
687.99763635182421
 20
520.28465340288608
 30
0.0
 40
1.0
 50
359.999989999999
 51
89.999996999995744
  0
LINE
  5
1697E
  8
AM_0
 10
690.49763635182387
 20
522.56662340288631
 30
0.0
 11
688.99763635182364
 21
522.56662340288631
 31
0.0
  0
LINE
  5
1697F
  8
AM_0
 10
691.49153283619864
 20
520.50648567827693
 30
0.0
 11
690.99153283619876
 21
523.27647469194881
 31
0.0
  0
LINE
  5
16980
  8
AM_0
 10
690.99150231862075
 20
523.27647469194881
 30
0.0
 11
690.49153283619887
 21
523.23646614702693
 31
0.0
  0
ARC
  5
16981
  8
AM_0
 10
687.99763635182421
 20
520.28465340288608
 30
0.0
 40
1.0
 50
270.0
 51
0.0000100000009873
  0
LINE
  5
16982
  8
AM_0
 10
686.99763635182376
 20
520.89175340288625
 30
0.0
 11
686.99763635182376
 21
519.68033340288605
 31
0.0
  0
ARC
  5
16983
  8
AM_0
 10
684.9976363518241
 20
522.2846434028861
 30
0.0
 40
1.0
 50
180.0
 51
270.0
  0
ARC
  5
16984
  8
AM_0
 10
684.9976363518241
 20
518.28465340288585
 30
0.0
 40
1.0
 50
89.999996999995744
 51
180.0
  0
ARC
  5
16985
  8
AM_0
 10
684.9976363518241
 20
508.28465340288608
 30
0.0
 40
1.0
 50
89.999996999995744
 51
180.0
  0
LINE
  5
16986
  8
AM_0
 10
684.99763635182364
 20
511.28465340288619
 30
0.0
 11
687.99763635182364
 21
511.28465340288619
 31
0.0
  0
LINE
  5
16987
  8
AM_0
 10
684.99763635182364
 20
509.28465340288619
 30
0.0
 11
687.99763635182364
 21
509.28465340288619
 31
0.0
  0
ARC
  5
16988
  8
AM_0
 10
687.99763635182421
 20
510.2846434028861
 30
0.0
 40
1.0
 50
270.0
 51
0.0000100000009873
  0
ARC
  5
16989
  8
AM_0
 10
687.99763635182421
 20
510.2846434028861
 30
0.0
 40
1.0
 50
359.999989999999
 51
89.999996999995744
  0
LINE
  5
1698A
  8
AM_0
 10
686.99763635182376
 20
510.89786340288612
 30
0.0
 11
686.99763635182376
 21
509.73697340288618
 31
0.0
  0
ARC
  5
1698B
  8
AM_0
 10
684.9976363518241
 20
512.28465340288608
 30
0.0
 40
1.0
 50
180.0
 51
270.0
  0
LINE
  5
1698C
  8
AM_0
 10
684.99763635182364
 20
501.28464340288627
 30
0.0
 11
687.99763635182364
 21
501.28464340288627
 31
0.0
  0
ARC
  5
1698D
  8
AM_0
 10
684.9976363518241
 20
502.28465340288619
 30
0.0
 40
1.0
 50
180.0
 51
270.0
  0
LINE
  5
1698E
  8
AM_0
 10
688.99763635182364
 20
457.26824440288618
 30
0.0
 11
688.99763635182364
 21
500.28466340288628
 31
0.0
  0
LINE
  5
1698F
  8
AM_0
 10
684.99763635182364
 20
499.28465340288631
 30
0.0
 11
687.99763635182364
 21
499.28465340288631
 31
0.0
  0
ARC
  5
16990
  8
AM_0
 10
687.99763635182421
 20
500.28466340288622
 30
0.0
 40
1.0
 50
270.0
 51
0.0000100000009873
  0
ARC
  5
16991
  8
AM_0
 10
684.9976363518241
 20
498.28464340288622
 30
0.0
 40
1.0
 50
89.999996999995744
 51
180.0
  0
LINE
  5
16992
  8
AM_0
 10
684.99763635182364
 20
489.28464340288627
 30
0.0
 11
687.99763635182364
 21
489.28464340288627
 31
0.0
  0
LINE
  5
16993
  8
AM_0
 10
684.99763635182364
 20
491.28466340288628
 30
0.0
 11
687.99763635182364
 21
491.28466340288628
 31
0.0
  0
LINE
  5
16994
  8
AM_0
 10
690.49763635182387
 20
490.13462340288629
 30
0.0
 11
687.20393635182415
 21
490.13462340288629
 31
0.0
  0
ARC
  5
16995
  8
AM_0
 10
687.99763635182421
 20
490.28465340288619
 30
0.0
 40
1.0
 50
270.0
 51
0.0000100000009873
  0
LINE
  5
16996
  8
AM_0
 10
690.49763635182387
 20
488.00261340288608
 30
0.0
 11
688.99763635182364
 21
488.00261340288608
 31
0.0
  0
ARC
  5
16997
  8
AM_0
 10
687.99763635182421
 20
490.28465340288619
 30
0.0
 40
1.0
 50
359.999989999999
 51
89.999996999995744
  0
LINE
  5
16998
  8
AM_0
 10
690.49757635182402
 20
485.28466340288622
 30
0.0
 11
688.99763635182364
 21
485.15343340288621
 31
0.0
  0
LINE
  5
16999
  8
AM_0
 10
690.99153283619876
 20
487.29283211382369
 30
0.0
 11
690.49150231862075
 21
487.33284065874562
 31
0.0
  0
LINE
  5
1699A
  8
AM_0
 10
691.49150231862075
 20
490.06282112749551
 30
0.0
 11
690.99150231862075
 21
487.29283211382369
 31
0.0
  0
LINE
  5
1699B
  8
AM_0
 10
686.99763635182376
 20
489.67754340288599
 30
0.0
 11
686.99763635182376
 21
490.888903402886
 31
0.0
  0
ARC
  5
1699C
  8
AM_0
 10
684.9976363518241
 20
488.28466340288622
 30
0.0
 40
1.0
 50
89.999996999995744
 51
180.0
  0
ARC
  5
1699D
  8
AM_0
 10
684.9976363518241
 20
492.28464340288622
 30
0.0
 40
1.0
 50
180.0
 51
270.0
  0
LINE
  5
1699E
  8
AM_0
 10
684.99763635182364
 20
481.28465340288619
 30
0.0
 11
687.99763635182364
 21
481.28465340288619
 31
0.0
  0
LINE
  5
1699F
  8
AM_0
 10
684.99763635182364
 20
479.28466340288628
 30
0.0
 11
687.99763635182364
 21
479.28466340288628
 31
0.0
  0
ARC
  5
169A0
  8
AM_0
 10
687.99763635182421
 20
480.28464340288622
 30
0.0
 40
1.0
 50
359.999989999999
 51
89.999996999995744
  0
ARC
  5
169A1
  8
AM_0
 10
687.99763635182421
 20
480.28464340288622
 30
0.0
 40
1.0
 50
270.0
 51
0.0000100000009873
  0
ARC
  5
169A2
  8
AM_0
 10
684.9976363518241
 20
482.28466340288611
 30
0.0
 40
1.0
 50
180.0
 51
270.0
  0
LINE
  5
169A3
  8
AM_0
 10
686.99763635182376
 20
479.65842340288623
 30
0.0
 11
686.99763635182376
 21
481.02128340288613
 31
0.0
  0
ARC
  5
169A4
  8
AM_0
 10
684.9976363518241
 20
478.28465340288619
 30
0.0
 40
1.0
 50
89.999996999995744
 51
180.0
  0
LINE
  5
169A5
  8
AM_0
 10
687.141316351824
 20
471.58571840288619
 30
0.0
 11
688.29170635182402
 21
471.93956940288621
 31
0.0
  0
LINE
  5
169A6
  8
AM_0
 10
687.18574635182392
 20
469.67575240288608
 30
0.0
 11
688.3904563518239
 21
470.19026440288599
 31
0.0
  0
ARC
  5
169A7
  8
AM_0
 10
687.99763635182421
 20
472.89538040288608
 30
0.0
 40
1.0
 50
287.09763000000191
 51
0.0000100000009873
  0
ARC
  5
169A8
  8
AM_0
 10
687.99763635182421
 20
471.10991840288608
 30
0.0
 40
1.0
 50
293.12701999999518
 51
0.0000100000009873
  0
ARC
  5
169A9
  8
AM_0
 10
686.79298635182408
 20
470.5953924028862
 30
0.0
 40
1.0
 50
270.0
 51
293.12702999999561
  0
LINE
  5
169AA
  8
AM_0
 10
686.99763635182376
 20
469.89176340288623
 30
0.0
 11
686.99763635182376
 21
470.95171540288629
 31
0.0
  0
ARC
  5
169AB
  8
AM_0
 10
684.69764635182412
 20
468.89544140288609
 30
0.0
 40
0.6999999900000002
 50
89.999996999995744
 51
180.0
  0
LINE
  5
169AC
  8
AM_0
 10
686.79298635182408
 20
469.59538440288628
 30
0.0
 11
684.69764635182366
 21
469.59538440288628
 31
0.0
  0
LINE
  5
169AD
  8
AM_0
 10
686.84730635182393
 20
471.54149840288608
 30
0.0
 11
684.99763635182364
 21
471.54149840288608
 31
0.0
  0
ARC
  5
169AE
  8
AM_0
 10
686.84730635182416
 20
472.54148340288612
 30
0.0
 40
1.0
 50
270.0
 51
287.09763000000191
  0
ARC
  5
169AF
  8
AM_0
 10
684.9976363518241
 20
472.54148340288612
 30
0.0
 40
1.0
 50
180.0
 51
270.0
  0
LINE
  5
169B0
  8
AM_0
 10
687.24738635182405
 20
462.32348840288608
 30
0.0
 11
688.546036351824
 21
463.1750514028862
 31
0.0
  0
LINE
  5
169B1
  8
AM_0
 10
687.23170635182419
 20
463.43682340288609
 30
0.0
 11
688.50306635182403
 21
464.18150540288599
 31
0.0
  0
ARC
  5
169B2
  8
AM_0
 10
687.99763635182421
 20
465.04441240288622
 30
0.0
 40
1.0
 50
300.35951000000171
 51
0.0000100000009873
  0
ARC
  5
169B3
  8
AM_0
 10
687.99763635182421
 20
465.04441240288622
 30
0.0
 40
1.0
 50
300.35951000000171
 51
0.0000100000009873
  0
LINE
  5
169B4
  8
AM_0
 10
688.50306635182403
 20
464.18154340288612
 30
0.0
 11
688.52662635182423
 21
464.19536840288612
 31
0.0
  0
ARC
  5
169B5
  8
AM_0
 10
687.99763635182421
 20
464.01128640288618
 30
0.0
 40
1.0
 50
303.25472000000508
 51
0.0000100000009873
  0
ARC
  5
169B6
  8
AM_0
 10
684.9976363518241
 20
464.29972240288612
 30
0.0
 40
1.0
 50
180.0
 51
205.36324000000019
  0
ARC
  5
169B7
  8
AM_0
 10
686.69898635182415
 20
463.15970840288611
 30
0.0
 40
1.0
 50
270.0
 51
303.25472999999891
  0
ARC
  5
169B8
  8
AM_0
 10
686.72633635182422
 20
464.29972240288612
 30
0.0
 40
1.0
 50
270.0
 51
300.35950000000361
  0
LINE
  5
169B9
  8
AM_0
 10
686.99763635182376
 20
462.45420240288621
 30
0.0
 11
686.99763635182376
 21
462.9263174028863
 31
0.0
  0
LINE
  5
169BA
  8
AM_0
 10
686.69898635182415
 20
462.1597234028863
 30
0.0
 11
683.99763635182364
 21
462.1597234028863
 31
0.0
  0
LINE
  5
169BB
  8
AM_0
 10
686.72633635182376
 20
463.29973840288619
 30
0.0
 11
684.99763635182364
 21
463.29973840288619
 31
0.0
  0
ARC
  5
169BC
  8
AM_0
 10
684.9976363518241
 20
464.29972240288612
 30
0.0
 40
1.0
 50
180.0
 51
270.0
  0
LINE
  5
169BD
  8
AM_0
 10
687.23518635182415
 20
457.78556240288611
 30
0.0
 11
688.51209635182386
 21
458.55180540288609
 31
0.0
  0
LINE
  5
169BE
  8
AM_0
 10
687.21101635182401
 20
456.7899194028862
 30
0.0
 11
688.45027635182396
 21
457.4189474028862
 31
0.0
  0
LINE
  5
169BF
  8
AM_0
 10
687.21729635182419
 20
458.89945440288619
 30
0.0
 11
688.46589635182409
 21
459.56131940288628
 31
0.0
  0
LINE
  5
169C0
  8
AM_0
 10
687.22987635182415
 20
455.66949640288612
 30
0.0
 11
688.49806635182392
 21
456.40247540288618
 31
0.0
  0
ARC
  5
169C1
  8
AM_0
 10
687.99763635182421
 20
457.26824440288613
 30
0.0
 40
1.0
 50
300.02639000000391
 51
0.0000100000009873
  0
ARC
  5
169C2
  8
AM_0
 10
687.99763635182421
 20
458.31059440288612
 30
0.0
 40
1.0
 50
296.91125000000233
 51
0.0000100000009873
  0
ARC
  5
169C3
  8
AM_0
 10
687.99763635182421
 20
460.44487240288589
 30
0.0
 40
1.0
 50
297.9265899999989
 51
0.0000100000009873
  0
ARC
  5
169C4
  8
AM_0
 10
687.99763635182421
 20
459.40929640288613
 30
0.0
 40
1.0
 50
300.96660000000128
 51
0.0000100000009873
  0
LINE
  5
169C5
  8
AM_0
 10
686.99763635182376
 20
455.7885004028862
 30
0.0
 11
686.99763635182376
 21
456.31426440288618
 31
0.0
  0
ARC
  5
169C6
  8
AM_0
 10
686.75837635182427
 20
457.6815584028862
 30
0.0
 40
1.0
 50
270.0
 51
296.91126000000111
  0
ARC
  5
169C7
  8
AM_0
 10
686.72059635182416
 20
458.64299940288601
 30
0.0
 40
1.0
 50
270.0
 51
300.96660000000128
  0
ARC
  5
169C8
  8
AM_0
 10
686.74897635182413
 20
459.78301440288601
 30
0.0
 40
1.0
 50
270.0
 51
297.92660000000438
  0
LINE
  5
169C9
  8
AM_0
 10
686.99763635182376
 20
457.88810140288609
 30
0.0
 11
686.99763635182376
 21
458.4341224028862
 31
0.0
  0
ARC
  5
169CA
  8
AM_0
 10
684.9976363518241
 20
459.78301440288601
 30
0.0
 40
1.0
 50
180.0
 51
270.0
  0
ARC
  5
169CB
  8
AM_0
 10
684.4976363518241
 20
457.18156640288618
 30
0.0
 40
0.5
 50
180.0
 51
270.0
  0
LINE
  5
169CC
  8
AM_0
 10
686.72059635182393
 20
457.64299240288619
 30
0.0
 11
683.99763635182364
 21
457.64299240288619
 31
0.0
  0
LINE
  5
169CD
  8
AM_0
 10
686.74897635182413
 20
458.7830064028862
 30
0.0
 11
684.99763635182364
 21
458.7830064028862
 31
0.0
  0
LINE
  5
169CE
  8
AM_0
 10
686.75837635182404
 20
456.68157440288621
 30
0.0
 11
684.49763635182364
 21
456.68157440288621
 31
0.0
  0
ARC
  5
169CF
  8
AM_0
 10
686.72944635182398
 20
456.53527240288611
 30
0.0
 40
1.0
 50
270.0
 51
300.0263999999973
  0
ARC
  5
169D0
  8
AM_0
 10
684.4976363518241
 20
455.03527240288611
 30
0.0
 40
0.5
 50
89.999996999995744
 51
180.0
  0
LINE
  5
169D1
  8
AM_0
 10
686.72944635182398
 20
455.53526540288613
 30
0.0
 11
684.49763635182364
 21
455.53526540288613
 31
0.0
  0
LINE
  5
169D2
  8
AM_0
 10
683.99763635182364
 20
455.28466240288623
 30
0.0
 11
682.99763635182376
 21
455.28466240288623
 31
0.0
  0
LINE
  5
169D3
  8
AM_0
 10
671.79759635182415
 20
448.9996330792768
 30
0.0
 11
574.87763635182375
 21
448.9996330792768
 31
0.0
  0
LINE
  5
169D4
  8
AM_0
 10
649.49760635182383
 20
467.05964507927678
 30
0.0
 11
566.99760635182395
 21
467.05964507927678
 31
0.0
  0
LINE
  5
169D5
  8
AM_0
 10
649.49760635182383
 20
543.5096300792768
 30
0.0
 11
566.99760635182395
 21
543.5096300792768
 31
0.0
  0
LINE
  5
169D6
  8
AM_0
 10
573.65760635182403
 20
469.28467198883658
 30
0.0
 11
672.63764635182383
 21
469.28467198883658
 31
0.0
  0
LINE
  5
169D7
  8
AM_0
 10
573.65760635182403
 20
471.28467198883652
 30
0.0
 11
672.63764635182383
 21
471.28467198883652
 31
0.0
  0
LINE
  5
169D8
  8
AM_0
 10
573.66480635182404
 20
481.28467198883658
 30
0.0
 11
672.63764635182383
 21
481.28467198883658
 31
0.0
  0
LINE
  5
169D9
  8
AM_0
 10
673.31764635182401
 20
468.56470198883648
 30
0.0
 11
570.17762635182385
 21
468.56470198883648
 31
0.0
  0
LINE
  5
169DA
  8
AM_0
 10
673.53761635182389
 20
481.72461198883678
 30
0.0
 11
569.96339635182369
 21
481.72461198883678
 31
0.0
  0
LINE
  5
169DB
  8
AM_0
 10
673.53761635182389
 20
478.79468198883649
 30
0.0
 11
569.9519763518241
 21
478.79468198883649
 31
0.0
  0
LINE
  5
169DC
  8
AM_0
 10
573.65046635182375
 20
479.28467198883652
 30
0.0
 11
672.63764635182383
 21
479.28467198883652
 31
0.0
  0
LINE
  5
169DD
  8
AM_0
 10
673.31764635182401
 20
471.91468198883689
 30
0.0
 11
570.17762635182385
 21
471.91468198883689
 31
0.0
  0
LINE
  5
169DE
  8
AM_0
 10
673.66761635182388
 20
488.94471198883679
 30
0.0
 11
569.66903839542363
 21
488.94471198883679
 31
0.0
  0
LINE
  5
169DF
  8
AM_0
 10
673.66761635182388
 20
491.60462198883653
 30
0.0
 11
569.82056389383035
 21
491.60462198883653
 31
0.0
  0
LINE
  5
169E0
  8
AM_0
 10
673.72761635182383
 20
499.01465198883659
 30
0.0
 11
569.61151709831677
 21
499.01465198883659
 31
0.0
  0
LINE
  5
169E1
  8
AM_0
 10
673.72761635182383
 20
501.54468198883649
 30
0.0
 11
569.7748043758146
 21
501.54468198883649
 31
0.0
  0
LINE
  5
169E2
  8
AM_0
 10
573.65427005841264
 20
501.28467198883652
 30
0.0
 11
672.63764635182383
 21
501.28467198883652
 31
0.0
  0
LINE
  5
169E3
  8
AM_0
 10
573.65427005841264
 20
499.28467198883652
 30
0.0
 11
672.63764635182383
 21
499.28467198883652
 31
0.0
  0
LINE
  5
169E4
  8
AM_0
 10
573.65427005841605
 20
491.28467198883652
 30
0.0
 11
672.63764635182383
 21
491.28467198883652
 31
0.0
  0
LINE
  5
169E5
  8
AM_0
 10
573.65427005839149
 20
489.28467198883681
 30
0.0
 11
672.63764635182383
 21
489.28467198883658
 31
0.0
  0
LINE
  5
169E6
  8
AM_0
 10
573.65427400828435
 20
521.28467034552386
 30
0.0
 11
672.63765030171373
 21
521.28464590966473
 31
0.0
  0
LINE
  5
169E7
  8
AM_0
 10
573.65427351457254
 20
519.28467034552432
 30
0.0
 11
672.63764980797703
 21
519.28464590966473
 31
0.0
  0
LINE
  5
169E8
  8
AM_0
 10
573.6542715396223
 20
511.28467034552449
 30
0.0
 11
672.63764783303066
 21
511.28464590966479
 31
0.0
  0
LINE
  5
169E9
  8
AM_0
 10
573.65427104588571
 20
509.28467034552449
 30
0.0
 11
672.63764733929395
 21
509.28464590966519
 31
0.0
  0
LINE
  5
169EA
  8
AM_0
 10
673.72761727510544
 20
509.02463564058593
 30
0.0
 11
569.77480529909951
 21
509.024661303242
 31
0.0
  0
LINE
  5
169EB
  8
AM_0
 10
673.72761789969002
 20
511.55466564058571
 30
0.0
 11
569.61151864618625
 21
511.55469134355212
 31
0.0
  0
LINE
  5
169EC
  8
AM_0
 10
673.66761972899155
 20
518.96469565539769
 30
0.0
 11
569.82056727100132
 21
518.9647212919449
 31
0.0
  0
LINE
  5
169ED
  8
AM_0
 10
673.667620385639
 20
521.62460565539766
 30
0.0
 11
569.6690424292417
 21
521.6246313293517
 31
0.0
  0
LINE
  5
169EE
  8
AM_0
 10
673.31765458981386
 20
538.65463574179353
 30
0.0
 11
570.17763458981733
 21
538.65466120379676
 31
0.0
  0
LINE
  5
169EF
  8
AM_0
 10
573.6504727703998
 20
531.2846703464628
 30
0.0
 11
672.63765277039658
 21
531.28464590966405
 31
0.0
  0
LINE
  5
169F0
  8
AM_0
 10
673.53762289135977
 20
531.77463568748999
 30
0.0
 11
569.95198289136306
 21
531.77466125950309
 31
0.0
  0
LINE
  5
169F1
  8
AM_0
 10
673.53762216805285
 20
528.84470568749043
 30
0.0
 11
569.96340216805595
 21
528.84473125668364
 31
0.0
  0
LINE
  5
169F2
  8
AM_0
 10
673.31765541681796
 20
542.00461574179371
 30
0.0
 11
570.17763541682098
 21
542.00464120379695
 31
0.0
  0
LINE
  5
169F3
  8
AM_0
 10
573.66481227666327
 20
529.28467034292294
 30
0.0
 11
672.63765227666022
 21
529.2846459096645
 31
0.0
  0
LINE
  5
169F4
  8
AM_0
 10
573.65761474534634
 20
539.28467034469986
 30
0.0
 11
672.63765474534318
 21
539.28464590966416
 31
0.0
  0
LINE
  5
169F5
  8
AM_0
 10
573.65761523908304
 20
541.28467034470009
 30
0.0
 11
672.63765523908012
 21
541.28464590966405
 31
0.0
  0
LINE
  5
169F6
  8
AM_0
 10
671.79759635182415
 20
561.56964007927684
 30
0.0
 11
574.87763635182375
 21
561.56964007927684
 31
0.0
  0
LINE
  5
169F7
  8
ｶｸﾚｾﾝ2
 10
586.49760635182395
 20
476.78467562912277
 30
0.0
 11
586.49760635182395
 21
533.78467562912249
 31
0.0
  0
LINE
  5
169F8
  8
ｶｸﾚｾﾝ2
 10
666.49760635182395
 20
533.78467562912249
 30
0.0
 11
666.49760635182395
 21
476.78467562912277
 31
0.0
  0
LINE
  5
169F9
  8
AM_0
 10
674.99760635182383
 20
558.27965007927662
 30
0.0
 11
674.99760635182383
 21
455.8396520792769
 31
0.0
  0
LINE
  5
169FA
  8
ﾁｭｳｼﾝｾﾝ1
 10
617.99760635182429
 20
545.90966689397351
 30
0.0
 11
617.99760635182429
 21
464.65966389397317
 31
0.0
  0
ARC
  5
169FB
  8
AM_0
 10
673.73347635182415
 20
500.27967198883653
 30
0.0
 40
1.2650129999999991
 50
269.73557900000168
 51
90.264410000002485
  0
ARC
  5
169FC
  8
AM_0
 10
672.45301635182375
 20
500.28467198883652
 30
0.0
 40
1.0000138999999999
 50
269.69165999999939
 51
90.308340000000726
  0
LINE
  5
169FD
  8
ｶｸﾚｾﾝ2
 10
589.49760635182406
 20
536.7846756291226
 30
0.0
 11
663.49760635182429
 21
536.7846756291226
 31
0.0
  0
POLYLINE
  5
169FE
  8
AM_0
 66
     1
 10
0.0
 20
0.0
 30
0.0
  0
VERTEX
  5
169FF
  8
AM_0
 10
671.13674288964205
 20
531.76767628019115
 30
0.0
 42
0.00068898288
  0
VERTEX
  5
16A00
  8
AM_0
 10
671.0658630315296
 20
532.34242629768914
 30
0.0
 42
0.00070644354
  0
VERTEX
  5
16A01
  8
AM_0
 10
670.99336317340214
 20
532.91711631558712
 30
0.0
 42
0.00069248071
  0
VERTEX
  5
16A02
  8
AM_0
 10
670.91927331518116
 20
533.4914263338776
 30
0.0
 42
0.00069585665
  0
VERTEX
  5
16A03
  8
AM_0
 10
670.84359345691826
 20
534.0655663525605
 30
0.0
 42
0.00068980191
  0
VERTEX
  5
16A04
  8
AM_0
 10
670.76629359862045
 20
534.63956637164335
 30
0.0
 42
0.00072080104
  0
VERTEX
  5
16A05
  8
AM_0
 10
670.68740374027118
 20
535.21335639111874
 30
0.0
 42
0.00071002307
  0
VERTEX
  5
16A06
  8
AM_0
 10
670.60686388184274
 20
535.78682641100158
 30
0.0
 42
0.00072659056
  0
VERTEX
  5
16A07
  8
AM_0
 10
670.52470402332312
 20
536.35992643128429
 30
0.0
 42
0.00069570481
  0
VERTEX
  5
16A08
  8
AM_0
 10
670.4408841647861
 20
536.93295645197691
 30
0.0
 42
0.00071266935
  0
VERTEX
  5
16A09
  8
AM_0
 10
670.35545430618481
 20
537.50572647306683
 30
0.0
 42
0.00071614426
  0
VERTEX
  5
16A0A
  8
AM_0
 10
670.26842444747729
 20
538.07806649455165
 30
0.0
 42
0.00072288975
  0
VERTEX
  5
16A0B
  8
AM_0
 10
670.17971458876002
 20
538.6503665164513
 30
0.0
  0
SEQEND
  5
16A0C
  8
AM_0
  0
LINE
  5
16A0D
  8
AM_0
 10
649.49766635182402
 20
543.50964007927655
 30
0.0
 11
669.67509635182398
 21
542.00964007927655
 31
0.0
  0
LINE
  5
16A0E
  8
AM_0
 10
669.67271913551201
 20
542.00461664161287
 30
0.0
 11
674.99760635182383
 21
553.3796400792769
 31
0.0
  0
LINE
  5
16A0F
  8
AM_0
 10
674.99760635182383
 20
553.37965007927664
 30
0.0
 11
673.75761635182391
 21
559.93965007927682
 31
0.0
  0
LINE
  5
16A10
  8
AM_0
 10
674.99760635182383
 20
554.71965007927656
 30
0.0
 11
673.71763635182413
 21
562.72964007927681
 31
0.0
  0
ARC
  5
16A11
  8
AM_0
 10
671.79472635182412
 20
559.57274007927663
 30
0.0
 40
1.9969039999999989
 50
10.587439999998571
 51
89.916526000000346
  0
ARC
  5
16A12
  8
AM_0
 10
672.45302499221179
 20
540.28464595524315
 30
0.0
 40
1.0000138999999999
 50
269.6916458554881
 51
90.308325855489642
  0
ARC
  5
16A13
  8
AM_0
 10
673.32503500333075
 20
540.3296857399713
 30
0.0
 40
1.6750160000000001
 50
269.74611585548871
 51
90.253840855485208
  0
ARC
  5
16A14
  8
ｶｸﾚｾﾝ2
 10
663.49760635182429
 20
533.78467562912238
 30
0.0
 40
3.0
 50
0.0
 51
90.0
  0
POLYLINE
  5
16A15
  8
AM_0
 66
     1
 10
0.0
 20
0.0
 30
0.0
  0
VERTEX
  5
16A16
  8
AM_0
 10
672.59358789977875
 20
511.5550259205416
 30
0.0
 42
0.00076691992
  0
VERTEX
  5
16A17
  8
AM_0
 10
672.578788052287
 20
512.17279592419516
 30
0.0
 42
0.00073262792
  0
VERTEX
  5
16A18
  8
AM_0
 10
672.56214820475009
 20
512.79038592830329
 30
0.0
 42
0.00076529537
  0
VERTEX
  5
16A19
  8
AM_0
 10
672.54365835723354
 20
513.40805593286757
 30
0.0
 42
0.00075141097
  0
VERTEX
  5
16A1A
  8
AM_0
 10
672.52328850969946
 20
514.02565593789654
 30
0.0
 42
0.00075841687
  0
VERTEX
  5
16A1B
  8
AM_0
 10
672.50105866212323
 20
514.64308594338445
 30
0.0
 42
0.00075711788
  0
VERTEX
  5
16A1C
  8
AM_0
 10
672.47694881456675
 20
515.26059594933645
 30
0.0
 42
0.00075976003
  0
VERTEX
  5
16A1D
  8
AM_0
 10
672.45095896698092
 20
515.87798595575237
 30
0.0
 42
0.00075797311
  0
VERTEX
  5
16A1E
  8
AM_0
 10
672.4231191193677
 20
516.49526596262524
 30
0.0
 42
0.0007482613
  0
VERTEX
  5
16A1F
  8
AM_0
 10
672.39338927177926
 20
517.11264596996455
 30
0.0
 42
0.00074893561
  0
VERTEX
  5
16A20
  8
AM_0
 10
672.36182942412916
 20
517.72977597775571
 30
0.0
 42
0.00076039839
  0
VERTEX
  5
16A21
  8
AM_0
 10
672.32840957645442
 20
518.34680598600585
 30
0.0
 42
0.00075618786
  0
VERTEX
  5
16A22
  8
AM_0
 10
672.29310972878193
 20
518.96384599472049
 30
0.0
  0
SEQEND
  5
16A23
  8
AM_0
  0
POLYLINE
  5
16A24
  8
AM_0
 66
     1
 10
0.0
 20
0.0
 30
0.0
  0
VERTEX
  5
16A25
  8
AM_0
 10
672.11940038578973
 20
521.6252160376041
 30
0.0
 42
0.0007337051
  0
VERTEX
  5
16A26
  8
AM_0
 10
672.0752605345084
 20
522.2276360485007
 30
0.0
 42
0.00075211323
  0
VERTEX
  5
16A27
  8
AM_0
 10
672.02932068321934
 20
522.83002605984188
 30
0.0
 42
0.0007297491
  0
VERTEX
  5
16A28
  8
AM_0
 10
671.98159083188341
 20
523.43222607162488
 30
0.0
 42
0.00073593041
  0
VERTEX
  5
16A29
  8
AM_0
 10
671.93211098049562
 20
524.03421608383974
 30
0.0
 42
0.00074742739
  0
VERTEX
  5
16A2A
  8
AM_0
 10
671.88084112907825
 20
524.63608609649668
 30
0.0
 42
0.00073217363
  0
VERTEX
  5
16A2B
  8
AM_0
 10
671.82778127764368
 20
525.23788610959537
 30
0.0
 42
0.00073754168
  0
VERTEX
  5
16A2C
  8
AM_0
 10
671.77296142614489
 20
525.83942612312865
 30
0.0
 42
0.00073075073
  0
VERTEX
  5
16A2D
  8
AM_0
 10
671.71638157460154
 20
526.44078613709655
 30
0.0
 42
0.00074550816
  0
VERTEX
  5
16A2E
  8
AM_0
 10
671.65804172298442
 20
527.04184615149882
 30
0.0
 42
0.00074288416
  0
VERTEX
  5
16A2F
  8
AM_0
 10
671.59789187135686
 20
527.64286616634797
 30
0.0
 42
0.00072504001
  0
VERTEX
  5
16A30
  8
AM_0
 10
671.53598201966315
 20
528.24361618163175
 30
0.0
 42
0.00074640667
  0
VERTEX
  5
16A31
  8
AM_0
 10
671.47231216793216
 20
528.84421619734974
 30
0.0
  0
SEQEND
  5
16A32
  8
AM_0
  0
ARC
  5
16A33
  8
AM_0
 10
672.4530225235286
 20
530.28464595524338
 30
0.0
 40
1.0000138999999999
 50
269.6916458554881
 51
90.308325855489642
  0
ARC
  5
16A34
  8
AM_0
 10
673.53762252970523
 20
530.30966568749
 30
0.0
 40
1.465004
 50
269.99998585548531
 51
89.999982855487545
  0
ARC
  5
16A35
  8
AM_0
 10
672.45302005484552
 20
520.28464595524383
 30
0.0
 40
1.0000138999999999
 50
269.6916458554881
 51
90.308325855489642
  0
ARC
  5
16A36
  8
AM_0
 10
673.66762005731664
 20
520.29465565539749
 30
0.0
 40
1.3300049999999981
 50
269.99998585548531
 51
89.999982855487545
  0
POLYLINE
  5
16A37
  8
AM_0
 66
     1
 10
0.0
 20
0.0
 30
0.0
  0
VERTEX
  5
16A38
  8
AM_0
 10
672.63764635182065
 20
505.28464590966507
 30
0.0
 42
0.00039106649
  0
VERTEX
  5
16A39
  8
AM_0
 10
672.64000642862914
 20
505.59577590908259
 30
0.0
 42
0.00035488198
  0
VERTEX
  5
16A3A
  8
AM_0
 10
672.64189650543233
 20
505.90688590861572
 30
0.0
 42
0.00039706113
  0
VERTEX
  5
16A3B
  8
AM_0
 10
672.64332658223509
 20
506.21799590826271
 30
0.0
 42
0.00038765718
  0
VERTEX
  5
16A3C
  8
AM_0
 10
672.64425665904582
 20
506.52913590803308
 30
0.0
 42
0.00040613432
  0
VERTEX
  5
16A3D
  8
AM_0
 10
672.64470673584674
 20
506.84023590792208
 30
0.0
 42
0.00035573434
  0
VERTEX
  5
16A3E
  8
AM_0
 10
672.6446668126498
 20
507.1513459079319
 30
0.0
 42
0.00038545884
  0
VERTEX
  5
16A3F
  8
AM_0
 10
672.64417688945798
 20
507.46247590805302
 30
0.0
 42
0.00035501205
  0
VERTEX
  5
16A40
  8
AM_0
 10
672.64321696626109
 20
507.77358590828982
 30
0.0
 42
0.00040120779
  0
VERTEX
  5
16A41
  8
AM_0
 10
672.64179704309402
 20
508.08481590864039
 30
0.0
 42
0.00038317817
  0
VERTEX
  5
16A42
  8
AM_0
 10
672.63988711990226
 20
508.39594590911179
 30
0.0
 42
0.00035656084
  0
VERTEX
  5
16A43
  8
AM_0
 10
672.6375071967376
 20
508.70718590969949
 30
0.0
 42
0.00040143615
  0
VERTEX
  5
16A44
  8
AM_0
 10
672.63465727353832
 20
509.01828591040288
 30
0.0
  0
SEQEND
  5
16A45
  8
AM_0
  0
ARC
  5
16A46
  8
AM_0
 10
672.45301758616233
 20
510.284645955244
 30
0.0
 40
1.0000138999999999
 50
269.6916458554881
 51
90.308325855489642
  0
ARC
  5
16A47
  8
AM_0
 10
673.73347758739681
 20
510.28964563913888
 30
0.0
 40
1.2650129999999991
 50
269.73557585548849
 51
90.264406855489185
  0
POLYLINE
  5
16A48
  8
AM_0
 66
     1
 10
0.0
 20
0.0
 30
0.0
  0
VERTEX
  5
16A49
  8
AM_0
 10
672.63764635182383
 20
505.28467198883652
 30
0.0
 42
-0.00039106649
  0
VERTEX
  5
16A4A
  8
AM_0
 10
672.64000635182413
 20
504.97354198883647
 30
0.0
 42
-0.00035488198
  0
VERTEX
  5
16A4B
  8
AM_0
 10
672.64189635182413
 20
504.6624319888366
 30
0.0
 42
-0.00039706113
  0
VERTEX
  5
16A4C
  8
AM_0
 10
672.64332635182416
 20
504.35132198883662
 30
0.0
 42
-0.00038765718
  0
VERTEX
  5
16A4D
  8
AM_0
 10
672.64425635182397
 20
504.04018198883659
 30
0.0
 42
-0.00040613432
  0
VERTEX
  5
16A4E
  8
AM_0
 10
672.64470635182397
 20
503.7290819888367
 30
0.0
 42
-0.00035573434
  0
VERTEX
  5
16A4F
  8
AM_0
 10
672.64466635182384
 20
503.41797198883648
 30
0.0
 42
-0.00038545884
  0
VERTEX
  5
16A50
  8
AM_0
 10
672.64417635182394
 20
503.10684198883672
 30
0.0
 42
-0.00035501205
  0
VERTEX
  5
16A51
  8
AM_0
 10
672.64321635182375
 20
502.79573198883668
 30
0.0
 42
-0.00040120779
  0
VERTEX
  5
16A52
  8
AM_0
 10
672.64179635182415
 20
502.4845019888366
 30
0.0
 42
-0.00038317817
  0
VERTEX
  5
16A53
  8
AM_0
 10
672.63988635182375
 20
502.17337198883661
 30
0.0
 42
-0.00035656084
  0
VERTEX
  5
16A54
  8
AM_0
 10
672.63750635182396
 20
501.86213198883661
 30
0.0
 42
-0.00040143615
  0
VERTEX
  5
16A55
  8
AM_0
 10
672.63465635182399
 20
501.5510319888366
 30
0.0
  0
SEQEND
  5
16A56
  8
AM_0
  0
ARC
  5
16A57
  8
ｶｸﾚｾﾝ2
 10
589.49760635182406
 20
533.78467562912238
 30
0.0
 40
3.0
 50
90.0
 51
180.0
  0
LINE
  5
16A58
  8
ｶｸﾚｾﾝ2
 10
589.49760635182406
 20
473.78467562912277
 30
0.0
 11
663.49760635182429
 21
473.78467562912277
 31
0.0
  0
ARC
  5
16A59
  8
AM_0
 10
673.32502635182402
 20
470.23963198883638
 30
0.0
 40
1.6750160000000001
 50
269.7461450000045
 51
90.253870000000916
  0
POLYLINE
  5
16A5A
  8
AM_0
 66
     1
 10
0.0
 20
0.0
 30
0.0
  0
VERTEX
  5
16A5B
  8
AM_0
 10
672.11939635182387
 20
488.94410198883668
 30
0.0
 42
-0.0007337051
  0
VERTEX
  5
16A5C
  8
AM_0
 10
672.07525635182412
 20
488.34168198883651
 30
0.0
 42
-0.00075211323
  0
VERTEX
  5
16A5D
  8
AM_0
 10
672.02931635182415
 20
487.73929198883638
 30
0.0
 42
-0.0007297491
  0
VERTEX
  5
16A5E
  8
AM_0
 10
671.98158635182415
 20
487.13709198883669
 30
0.0
 42
-0.00073593041
  0
VERTEX
  5
16A5F
  8
AM_0
 10
671.93210635182402
 20
486.53510198883657
 30
0.0
 42
-0.00074742739
  0
VERTEX
  5
16A60
  8
AM_0
 10
671.88083635182409
 20
485.93323198883638
 30
0.0
 42
-0.00073217363
  0
VERTEX
  5
16A61
  8
AM_0
 10
671.82777635182413
 20
485.3314319888367
 30
0.0
 42
-0.00073754168
  0
VERTEX
  5
16A62
  8
AM_0
 10
671.77295635182395
 20
484.72989198883653
 30
0.0
 42
-0.00073075073
  0
VERTEX
  5
16A63
  8
AM_0
 10
671.71637635182412
 20
484.12853198883658
 30
0.0
 42
-0.00074550816
  0
VERTEX
  5
16A64
  8
AM_0
 10
671.65803635182397
 20
483.52747198883628
 30
0.0
 42
-0.00074288416
  0
VERTEX
  5
16A65
  8
AM_0
 10
671.59788635182395
 20
482.92645198883628
 30
0.0
 42
-0.00072504001
  0
VERTEX
  5
16A66
  8
AM_0
 10
671.53597635182405
 20
482.32570198883661
 30
0.0
 42
-0.00074640667
  0
VERTEX
  5
16A67
  8
AM_0
 10
671.47230635182405
 20
481.72510198883663
 30
0.0
  0
SEQEND
  5
16A68
  8
AM_0
  0
POLYLINE
  5
16A69
  8
AM_0
 66
     1
 10
0.0
 20
0.0
 30
0.0
  0
VERTEX
  5
16A6A
  8
AM_0
 10
672.59358635182377
 20
499.01429198883659
 30
0.0
 42
-0.00076691992
  0
VERTEX
  5
16A6B
  8
AM_0
 10
672.57878635182408
 20
498.3965219888367
 30
0.0
 42
-0.00073262792
  0
VERTEX
  5
16A6C
  8
AM_0
 10
672.56214635182403
 20
497.77893198883652
 30
0.0
 42
-0.00076529537
  0
VERTEX
  5
16A6D
  8
AM_0
 10
672.5436563518241
 20
497.16126198883683
 30
0.0
 42
-0.00075141097
  0
VERTEX
  5
16A6E
  8
AM_0
 10
672.52328635182414
 20
496.54366198883662
 30
0.0
 42
-0.00075841687
  0
VERTEX
  5
16A6F
  8
AM_0
 10
672.5010563518241
 20
495.92623198883649
 30
0.0
 42
-0.00075711788
  0
VERTEX
  5
16A70
  8
AM_0
 10
672.47694635182404
 20
495.30872198883651
 30
0.0
 42
-0.00075976003
  0
VERTEX
  5
16A71
  8
AM_0
 10
672.45095635182429
 20
494.69133198883651
 30
0.0
 42
-0.00075797311
  0
VERTEX
  5
16A72
  8
AM_0
 10
672.42311635182409
 20
494.07405198883657
 30
0.0
 42
-0.0007482613
  0
VERTEX
  5
16A73
  8
AM_0
 10
672.39338635182401
 20
493.45667198883649
 30
0.0
 42
-0.00074893561
  0
VERTEX
  5
16A74
  8
AM_0
 10
672.36182635182411
 20
492.83954198883652
 30
0.0
 42
-0.00076039839
  0
VERTEX
  5
16A75
  8
AM_0
 10
672.32840635182413
 20
492.22251198883652
 30
0.0
 42
-0.00075618786
  0
VERTEX
  5
16A76
  8
AM_0
 10
672.29310635182412
 20
491.60547198883631
 30
0.0
  0
SEQEND
  5
16A77
  8
AM_0
  0
ARC
  5
16A78
  8
AM_0
 10
673.66761635182388
 20
490.27466198883661
 30
0.0
 40
1.3300049999999981
 50
270.00000299999761
 51
90.0
  0
ARC
  5
16A79
  8
AM_0
 10
672.45301635182375
 20
490.28467198883652
 30
0.0
 40
1.0000138999999999
 50
269.69165999999939
 51
90.308340000000726
  0
POLYLINE
  5
16A7A
  8
AM_0
 66
     1
 10
0.0
 20
0.0
 30
0.0
  0
VERTEX
  5
16A7B
  8
AM_0
 10
671.13673635182386
 20
478.80164198883648
 30
0.0
 42
-0.00068898288
  0
VERTEX
  5
16A7C
  8
AM_0
 10
671.06585635182421
 20
478.22689198883648
 30
0.0
 42
-0.00070644354
  0
VERTEX
  5
16A7D
  8
AM_0
 10
670.99335635182399
 20
477.65220198883651
 30
0.0
 42
-0.00069248071
  0
VERTEX
  5
16A7E
  8
AM_0
 10
670.91926635182415
 20
477.07789198883648
 30
0.0
 42
-0.00069585665
  0
VERTEX
  5
16A7F
  8
AM_0
 10
670.84358635182377
 20
476.50375198883648
 30
0.0
 42
-0.00068980191
  0
VERTEX
  5
16A80
  8
AM_0
 10
670.76628635182396
 20
475.92975198883681
 30
0.0
 42
-0.00072080104
  0
VERTEX
  5
16A81
  8
AM_0
 10
670.68739635182408
 20
475.35596198883678
 30
0.0
 42
-0.00071002307
  0
VERTEX
  5
16A82
  8
AM_0
 10
670.60685635182415
 20
474.78249198883651
 30
0.0
 42
-0.00072659056
  0
VERTEX
  5
16A83
  8
AM_0
 10
670.52469635182399
 20
474.2093919888365
 30
0.0
 42
-0.00069570481
  0
VERTEX
  5
16A84
  8
AM_0
 10
670.44087635182404
 20
473.63636198883631
 30
0.0
 42
-0.00071266935
  0
VERTEX
  5
16A85
  8
AM_0
 10
670.35544635182407
 20
473.06359198883661
 30
0.0
 42
-0.00071614426
  0
VERTEX
  5
16A86
  8
AM_0
 10
670.26841635182427
 20
472.4912519888365
 30
0.0
 42
-0.00072288975
  0
VERTEX
  5
16A87
  8
AM_0
 10
670.17970635182428
 20
471.91895198883668
 30
0.0
  0
SEQEND
  5
16A88
  8
AM_0
  0
ARC
  5
16A89
  8
AM_0
 10
672.45301635182375
 20
480.28467198883652
 30
0.0
 40
1.0000138999999999
 50
269.69165999999939
 51
90.308340000000726
  0
ARC
  5
16A8A
  8
AM_0
 10
673.53761635182411
 20
480.25965198883631
 30
0.0
 40
1.465004
 50
270.00000299999761
 51
90.0
  0
ARC
  5
16A8B
  8
AM_0
 10
672.45301635182375
 20
470.28467198883652
 30
0.0
 40
1.0000138999999999
 50
269.69165999999939
 51
90.308340000000726
  0
ARC
  5
16A8C
  8
ｶｸﾚｾﾝ2
 10
663.49760635182429
 20
476.78467562912272
 30
0.0
 40
3.0
 50
270.0
 51
0.0
  0
LINE
  5
16A8D
  8
AM_0
 10
671.74760635182395
 20
446.14964207927682
 30
0.0
 11
637.99760635182383
 21
446.14964207927682
 31
0.0
  0
LINE
  5
16A8E
  8
AM_0
 10
671.7275863518239
 20
444.30963807927662
 30
0.0
 11
637.99760635182383
 21
444.30963807927662
 31
0.0
  0
LINE
  5
16A8F
  8
AM_0
 10
671.70762635182405
 20
443.38964707927693
 30
0.0
 11
637.99760635182383
 21
443.38964707927693
 31
0.0
  0
LINE
  5
16A90
  8
AM_0
 10
649.49760635182383
 20
467.05964507927678
 30
0.0
 11
669.6704563518241
 21
468.55964507927678
 31
0.0
  0
LINE
  5
16A91
  8
AM_0
 10
674.99760635182383
 20
457.18962707927659
 30
0.0
 11
673.75761635182391
 21
450.62963007927681
 31
0.0
  0
LINE
  5
16A92
  8
AM_0
 10
674.99760635182383
 20
455.8396360792766
 30
0.0
 11
673.71763635182413
 21
447.83964407927681
 31
0.0
  0
LINE
  5
16A93
  8
AM_0
 10
674.99754635182376
 20
454.49964007927679
 30
0.0
 11
673.70756635182374
 21
445.9996480792766
 31
0.0
  0
LINE
  5
16A94
  8
AM_0
 10
674.99760635182383
 20
454.49966307927667
 30
0.0
 11
673.687606351824
 21
445.1196580792768
 31
0.0
  0
LINE
  5
16A95
  8
AM_0
 10
669.66805901253997
 20
468.56470198883648
 30
0.0
 11
674.99766635182402
 21
457.18966507927678
 31
0.0
  0
ARC
  5
16A96
  8
AM_0
 10
671.70548635182399
 20
445.39012007927658
 30
0.0
 40
2.0004758999999992
 50
270.06031000000399
 51
352.22953999999908
  0
ARC
  5
16A97
  8
AM_0
 10
671.73405635182405
 20
446.30697507927681
 30
0.0
 40
1.9973480999999991
 50
269.81532000000249
 51
351.14853000000028
  0
ARC
  5
16A98
  8
AM_0
 10
671.74162635182404
 20
448.1498170792766
 30
0.0
 40
2.0001840999999998
 50
270.1714700000008
 51
351.07900000000387
  0
ARC
  5
16A99
  8
AM_0
 10
671.79295635182405
 20
450.99864107927681
 30
0.0
 40
1.9990078999999989
 50
270.13344999999691
 51
349.3625900000028
  0
ARC
  5
16A9A
  8
AM_0
 10
638.0055963518239
 20
445.39765007927679
 30
0.0
 40
2.0080360999999991
 50
180.22878999999941
 51
269.77121000000062
  0
ARC
  5
16A9B
  8
AM_0
 10
638.00089635182405
 20
446.31292607927668
 30
0.0
 40
2.003279899999999
 50
180.09378999999711
 51
269.90621000000289
  0
ARC
  5
16A9C
  8
AM_0
 10
638.00480635182385
 20
448.1568210792766
 30
0.0
 40
2.0071799999999991
 50
180.20462000000421
 51
269.79538000000241
  0
LINE
  5
16A9D
  8
AM_0
 10
635.99760635182383
 20
445.38964007927689
 30
0.0
 11
635.99760635182383
 21
448.9996330792768
 31
0.0
  0
ARC
  5
16A9E
  8
ｶｸﾚｾﾝ2
 10
589.49760635182406
 20
476.78467562912272
 30
0.0
 40
3.0
 50
180.0
 51
270.0
  0
LINE
  5
16A9F
  8
AM_0
 10
566.99760635182395
 20
561.28464007927676
 30
0.0
 11
566.99760635182395
 21
449.28463607927688
 31
0.0
  0
ARC
  5
16AA0
  8
AM_0
 10
569.77070995182385
 20
500.27466198883639
 30
0.0
 40
1.2700266
 50
89.629319999999908
 51
270.37066999999809
  0
ARC
  5
16AA1
  8
AM_0
 10
573.65764645182401
 20
500.28467198883652
 30
0.0
 40
1.000005699999998
 50
89.999989999999016
 51
270.00000299999761
  0
LINE
  5
16AA2
  8
AM_0
 10
566.99760635182395
 20
561.28464007927676
 30
0.0
 11
558.99763635182364
 21
561.28464007927676
 31
0.0
  0
LINE
  5
16AA3
  8
AM_0
 10
566.99760635182395
 20
537.22465007927667
 30
0.0
 11
558.99763635182364
 21
537.22465007927667
 31
0.0
  0
LINE
  5
16AA4
  8
AM_0
 10
566.99760635182395
 20
551.28464007927676
 30
0.0
 11
558.99763635182364
 21
551.28464007927676
 31
0.0
  0
LINE
  5
16AA5
  8
AM_0
 10
568.79759635182415
 20
544.61966007927685
 30
0.0
 11
572.94758635182404
 21
560.0796500792768
 31
0.0
  0
ARC
  5
16AA6
  8
AM_0
 10
574.88041635182401
 20
559.57104007927671
 30
0.0
 40
1.9986041000000001
 50
90.080483999998904
 51
165.25728400000071
  0
LINE
  5
16AA7
  8
AM_0
 10
572.45762635182405
 20
558.27965007927662
 30
0.0
 11
566.99760635182395
 21
558.27965007927662
 31
0.0
  0
ARC
  5
16AA8
  8
AM_0
 10
573.65761499221492
 20
540.28467034469975
 30
0.0
 40
1.0
 50
89.999982855487545
 51
269.9999958554863
  0
ARC
  5
16AA9
  8
AM_0
 10
570.17765517109376
 20
540.32968720379108
 30
0.0
 40
1.675026000120903
 50
90.000672712195325
 51
269.99929599882307
  0
ARC
  5
16AAA
  8
AM_0
 10
567.34440635182432
 20
545.0074100792765
 30
0.0
 40
1.5027759999999999
 50
270.12241000000358
 51
345.24357000000072
  0
ARC
  5
16AAB
  8
AM_0
 10
573.65765015484828
 20
520.28467034469043
 30
0.0
 40
1.000005699999998
 50
89.999982855487545
 51
269.9999958554863
  0
ARC
  5
16AAC
  8
AM_0
 10
573.65767252353191
 20
530.28467034468531
 30
0.0
 40
1.0000255999999981
 50
89.589454855482614
 51
270.41051585548382
  0
ARC
  5
16AAD
  8
AM_0
 10
569.95766253094541
 20
530.31470125810051
 30
0.0
 40
1.460011199999999
 50
89.775235855483814
 51
270.22473585548403
  0
ARC
  5
16AAE
  8
AM_0
 10
569.83266365855422
 20
520.29968128895825
 30
0.0
 40
1.3350147999999999
 50
89.730429855483649
 51
270.26955585548518
  0
ARC
  5
16AAF
  8
AM_0
 10
573.65764768616543
 20
510.28467034469071
 30
0.0
 40
1.000005699999998
 50
89.999982855487545
 51
269.9999958554863
  0
ARC
  5
16AB0
  8
AM_0
 10
569.77071118863682
 20
510.29468130425209
 30
0.0
 40
1.2700266
 50
89.629315855484137
 51
270.37066585548888
  0
ARC
  5
16AB1
  8
AM_0
 10
570.17764651958964
 20
470.23965598883728
 30
0.0
 40
1.675026000120903
 50
90.000689856668657
 51
269.99931314329001
  0
LINE
  5
16AB2
  8
AM_0
 10
566.99760635182395
 20
473.34464907927679
 30
0.0
 11
558.99763635182364
 21
473.34464907927679
 31
0.0
  0
ARC
  5
16AB3
  8
AM_0
 10
573.65764645182401
 20
490.28467198883652
 30
0.0
 40
1.000005699999998
 50
89.999989999999016
 51
270.00000299999761
  0
ARC
  5
16AB4
  8
AM_0
 10
569.8326599518241
 20
490.26966198883667
 30
0.0
 40
1.3350147999999999
 50
89.730429999999885
 51
270.26955600000139
  0
ARC
  5
16AB5
  8
AM_0
 10
573.6576663518241
 20
480.28467198883652
 30
0.0
 40
1.0000255999999981
 50
89.589470000003274
 51
270.41053099999777
  0
ARC
  5
16AB6
  8
AM_0
 10
573.65760635182403
 20
470.28467198883652
 30
0.0
 40
1.0
 50
89.999989999999016
 51
270.00000299999761
  0
ARC
  5
16AB7
  8
AM_0
 10
569.95765635182408
 20
480.25464198883651
 30
0.0
 40
1.460011199999999
 50
89.77524999999666
 51
270.22475000000333
  0
LINE
  5
16AB8
  8
AM_0
 10
566.99760635182395
 20
449.28463607927688
 30
0.0
 11
558.99763635182364
 21
449.28463607927688
 31
0.0
  0
LINE
  5
16AB9
  8
AM_0
 10
566.99760635182395
 20
459.2846440792768
 30
0.0
 11
558.99763635182364
 21
459.2846440792768
 31
0.0
  0
LINE
  5
16ABA
  8
AM_0
 10
568.49760635182417
 20
467.05965307927681
 30
0.0
 11
572.94761635182385
 21
450.47965107927678
 31
0.0
  0
ARC
  5
16ABB
  8
AM_0
 10
574.88047635182431
 20
451.00177607927662
 30
0.0
 40
2.0021281000000002
 50
195.11670000000149
 51
269.9184800000001
  0
LINE
  5
16ABC
  8
AM_0
 10
572.45762635182405
 20
452.27964707927669
 30
0.0
 11
566.99760635182395
 21
452.27964707927669
 31
0.0
  0
LINE
  5
16ABE
  8
AM_0
 10
389.49763207519038
 20
551.8746912894178
 30
0.0
 11
406.49763207519061
 21
551.87469128941746
 31
0.0
  0
LINE
  5
16ABF
  8
0
 10
404.49763207519061
 20
559.87469128941734
 30
0.0
 11
391.49763207519072
 21
559.87469128941734
 31
0.0
  0
LINE
  5
16AC0
  8
0
 10
391.49763207519072
 20
559.87469128941734
 30
0.0
 11
391.49763207519072
 21
551.87469128941746
 31
0.0
  0
LINE
  5
16AC1
  8
0
 10
389.49763207519061
 20
550.28469128941765
 30
0.0
 11
389.49763207519061
 21
551.87469128941746
 31
0.0
  0
LINE
  5
16AC2
  8
0
 10
404.49763207519061
 20
551.87469128941746
 30
0.0
 11
404.49763207519061
 21
559.87469128941734
 31
0.0
  0
LINE
  5
16AC3
  8
0
 10
406.49763207519061
 20
550.28469128941765
 30
0.0
 11
406.49763207519061
 21
551.87469128941746
 31
0.0
  0
LINE
  5
16AC4
  8
AM_0
 10
522.49763603889915
 20
551.8746912894178
 30
0.0
 11
539.49763603889926
 21
551.87469128941746
 31
0.0
  0
LINE
  5
16AC5
  8
0
 10
537.49763603889949
 20
559.87469128941734
 30
0.0
 11
524.49763603889949
 21
559.87469128941734
 31
0.0
  0
LINE
  5
16AC6
  8
0
 10
524.49763603889949
 20
559.87469128941734
 30
0.0
 11
524.49763603889949
 21
551.87469128941746
 31
0.0
  0
LINE
  5
16AC7
  8
0
 10
522.49763603889937
 20
550.28469128941765
 30
0.0
 11
522.49763603889937
 21
551.87469128941746
 31
0.0
  0
LINE
  5
16AC8
  8
0
 10
537.49763603889949
 20
551.87469128941746
 30
0.0
 11
537.49763603889949
 21
559.87469128941734
 31
0.0
  0
LINE
  5
16AC9
  8
0
 10
539.49763603889926
 20
550.28469128941765
 30
0.0
 11
539.49763603889926
 21
551.87469128941746
 31
0.0
  0
LINE
  5
16ACD
  8
AM_0
 10
402.49404145897728
 20
435.28606872498858
 30
0.0
 11
402.49404145897728
 21
451.28606876142561
 31
0.0
  0
LINE
  5
16ACF
  8
AM_0
 10
526.50119613753384
 20
435.28606872498858
 30
0.0
 11
526.50119613753384
 21
451.28606875990579
 31
0.0
  0
LINE
  5
16AD1
  8
ﾁｭｳｼﾝｾﾝ1
 10
519.99763347589965
 20
430.28606872498881
 30
0.0
 11
519.99763347589965
 21
456.28606875998543
 31
0.0
  0
LINE
  5
16AD3
  8
ﾁｭｳｼﾝｾﾝ1
 10
408.9976041206113
 20
430.28606872498881
 30
0.0
 11
408.99760412061153
 21
456.28606876134597
 31
0.0
  0
ARC
  5
16DF4
  8
AM_0
 10
543.30953177591857
 20
481.28468899463883
 30
0.0
 40
1.0
 50
9.9999917840688912
 51
90.0
1001
GENIUS_GENODEF_13
1002
{
1000
HIER
1070
     0
1002
}
1002
{
1000
MANEDIT
1070
     0
1002
}
1002
{
1000
NOSEL
1070
     0
1002
}
1002
{
1000
BEHIND
1070
     0
1002
}
1002
{
1000
OTHER
1070
     0
1002
}
1002
{
1000
REACTOR
1002
}
1001
GENIUS_GENOBJ-N-FIL_13
1002
{
1000
OWNER
1000
GEN
1002
}
  0
TEXT
  5
172F6
  8
AM_0
 10
72.906551156720298
 20
521.81765640914773
 30
0.0
 40
10.0
  1
VC01-080FMH~VC01-240FMH
1001
ACAD
1000
MTEXTBEGIN
1070
    73
1070
     1
1070
    44
1040
1.0
1070
    74
1070
     0
1000
MTEXTEND
  0
VIEWPORT
  5
89
 67
     1
  8
0
 10
210.0
 20
148.5
 30
0.0
 40
420.0
 41
297.0
 68
     1
 69
     1
1001
ACAD
1000
MVIEW
1002
{
1070
    16
1010
0.0
1020
0.0
1030
0.0
1010
0.0
1020
0.0
1030
1.0
1040
0.0
1040
297.0
1040
221.70154043645701
1040
148.5
1040
50.0
1040
0.0
1040
0.0
1070
     0
1070
   100
1070
     1
1070
     1
1070
     0
1070
     0
1070
     0
1070
     0
1040
0.0
1040
0.0
1040
0.0
1040
10.0
1040
10.0
1040
10.0
1040
10.0
1070
     0
1002
{
1002
}
1002
}
1001
GENIUS_GENOREF_13
1005
1B94
1001
GENIUS_GENSCREG_15
1000
PF
1040
1.0
1000
DF
1040
1.0
1000
MIN
1011
0.0
1021
0.0
1031
0.0
1021
0.0
1031
0.0
1000
MAX
1011
420.0
1021
0.0
1031
0.0
1021
297.0
1031
0.0
1000
FLAGS
1070
     4
  0
ENDSEC
  0
EOF
