  0
SECTION
  2
HEADER
  9
$ACADVER
  1
AC1009
  9
$INSBASE
 10
0.0
 20
0.0
 30
0.0
  9
$EXTMIN
 10
42.690630088665777
 20
146.31064765151109
 30
-0.0000000349181948
  9
$EXTMAX
 10
754.41815372733163
 20
581.74526167445651
 30
0.0000000814935747
  9
$LIMMIN
 10
0.0
 20
0.0
  9
$LIMMAX
 10
853.5
 20
555.00000000000011
  9
$ORTHOMODE
 70
     0
  9
$REGENMODE
 70
     1
  9
$FILLMODE
 70
     1
  9
$QTEXTMODE
 70
     0
  9
$MIRRTEXT
 70
     1
  9
$DRAGMODE
 70
     2
  9
$LTSCALE
 40
3.0
  9
$OSMODE
 70
   551
  9
$ATTMODE
 70
     1
  9
$TEXTSIZE
 40
2.5
  9
$TRACEWID
 40
1.0
  9
$TEXTSTYLE
  7
STANDARD
  9
$CLAYER
  8
AM_0
  9
$CELTYPE
  6
BYLAYER
  9
$CECOLOR
 62
   256
  9
$DIMSCALE
 40
3.0
  9
$DIMASZ
 40
2.5
  9
$DIMEXO
 40
1.0
  9
$DIMDLI
 40
7.0
  9
$DIMRND
 40
0.0
  9
$DIMDLE
 40
0.0
  9
$DIMEXE
 40
1.0
  9
$DIMTP
 40
0.1
  9
$DIMTM
 40
0.1000000001
  9
$DIMTXT
 40
2.5
  9
$DIMCEN
 40
0.0
  9
$DIMTSZ
 40
0.0
  9
$DIMTOL
 70
     0
  9
$DIMLIM
 70
     0
  9
$DIMTIH
 70
     0
  9
$DIMTOH
 70
     0
  9
$DIMSE1
 70
     0
  9
$DIMSE2
 70
     0
  9
$DIMTAD
 70
     3
  9
$DIMZIN
 70
     8
  9
$DIMBLK
  1

  9
$DIMASO
 70
     1
  9
$DIMSHO
 70
     1
  9
$DIMPOST
  1

  9
$DIMAPOST
  1
"
  9
$DIMALT
 70
     0
  9
$DIMALTD
 70
     2
  9
$DIMALTF
 40
0.0393701
  9
$DIMLFAC
 40
1.0
  9
$DIMTOFL
 70
     1
  9
$DIMTVP
 40
0.0
  9
$DIMTIX
 70
     0
  9
$DIMSOXD
 70
     0
  9
$DIMSAH
 70
     0
  9
$DIMBLK1
  1

  9
$DIMBLK2
  1

  9
$DIMSTYLE
  2
AM_JIS
  9
$DIMCLRD
 70
   256
  9
$DIMCLRE
 70
   256
  9
$DIMCLRT
 70
     4
  9
$DIMTFAC
 40
0.71
  9
$DIMGAP
 40
1.0
  9
$LUNITS
 70
     2
  9
$LUPREC
 70
     2
  9
$SKETCHINC
 40
1.0
  9
$FILLETRAD
 40
5.0
  9
$AUNITS
 70
     0
  9
$AUPREC
 70
     3
  9
$MENU
  1
.
  9
$ELEVATION
 40
0.0
  9
$PELEVATION
 40
0.0
  9
$THICKNESS
 40
0.0
  9
$LIMCHECK
 70
     0
  9
$BLIPMODE
 70
     0
  9
$CHAMFERA
 40
7.5
  9
$CHAMFERB
 40
7.5
  9
$SKPOLY
 70
     0
  9
$TDCREATE
 40
2452753.643349607
  9
$TDUPDATE
 40
2458541.7005655682
  9
$TDINDWG
 40
0.4847101736
  9
$TDUSRTIMER
 40
0.4847099769
  9
$USRTIMER
 70
     1
  9
$ANGBASE
 50
0.0
  9
$ANGDIR
 70
     0
  9
$PDMODE
 70
     0
  9
$PDSIZE
 40
0.0
  9
$PLINEWID
 40
0.0
  9
$COORDS
 70
     1
  9
$SPLFRAME
 70
     0
  9
$SPLINETYPE
 70
     6
  9
$SPLINESEGS
 70
     8
  9
$ATTDIA
 70
     1
  9
$ATTREQ
 70
     1
  9
$HANDLING
 70
     1
  9
$HANDSEED
  5
16D83
  9
$SURFTAB1
 70
     6
  9
$SURFTAB2
 70
     6
  9
$SURFTYPE
 70
     6
  9
$SURFU
 70
     6
  9
$SURFV
 70
     6
  9
$UCSNAME
  2

  9
$UCSORG
 10
0.0
 20
0.0
 30
0.0
  9
$UCSXDIR
 10
1.0
 20
0.0
 30
0.0
  9
$UCSYDIR
 10
0.0
 20
1.0
 30
0.0
  9
$PUCSNAME
  2

  9
$PUCSORG
 10
0.0
 20
0.0
 30
0.0
  9
$PUCSXDIR
 10
1.0
 20
0.0
 30
0.0
  9
$PUCSYDIR
 10
0.0
 20
1.0
 30
0.0
  9
$USERI1
 70
     0
  9
$USERI2
 70
     0
  9
$USERI3
 70
     0
  9
$USERI4
 70
     0
  9
$USERI5
 70
     0
  9
$USERR1
 40
0.0
  9
$USERR2
 40
0.0
  9
$USERR3
 40
0.0
  9
$USERR4
 40
0.0
  9
$USERR5
 40
0.0
  9
$WORLDVIEW
 70
     1
  9
$SHADEDGE
 70
     3
  9
$SHADEDIF
 70
    70
  9
$TILEMODE
 70
     1
  9
$MAXACTVP
 70
    48
  9
$PLIMCHECK
 70
     0
  9
$PEXTMIN
 10
1.0000000000000000E+020
 20
1.0000000000000000E+020
 30
1.0000000000000000E+020
  9
$PEXTMAX
 10
-1.0000000000000000E+020
 20
-1.0000000000000000E+020
 30
-1.0000000000000000E+020
  9
$PLIMMIN
 10
0.0
 20
0.0
  9
$PLIMMAX
 10
420.0
 20
297.0
  9
$UNITMODE
 70
     0
  9
$VISRETAIN
 70
     1
  9
$PLINEGEN
 70
     0
  9
$PSLTSCALE
 70
     1
  0
ENDSEC
  0
SECTION
  2
TABLES
  0
TABLE
  2
VPORT
 70
     1
  0
VPORT
  2
*ACTIVE
 70
     0
 10
0.0
 20
0.0
 11
1.0
 21
1.0
 12
398.55439190799871
 22
364.0279546629838
 13
0.0
 23
0.0
 14
7.5
 24
7.5
 15
30.0
 25
30.0
 16
0.0
 26
0.0
 36
1.0
 17
0.0
 27
0.0
 37
0.0
 40
438.4238676661235
 41
1.7571592210767459
 42
50.0
 43
0.0
 44
0.0
 50
0.0
 51
0.0
 71
    16
 72
   100
 73
     1
 74
     1
 75
     0
 76
     0
 77
     0
 78
     0
  0
ENDTAB
  0
TABLE
  2
LTYPE
 70
    22
  0
LTYPE
  2
CONTINUOUS
 70
     0
  3
Solid line
 72
    65
 73
     0
 40
0.0
  0
LTYPE
  2
PHANTOM2
 70
     0
  3
Phantom (.5x) ___ _ _ ___ _ _ ___ _ _ ___ _ _
 72
    65
 73
     6
 40
31.75
 49
15.875
 49
-3.174999999999998
 49
3.174999999999998
 49
-3.174999999999998
 49
3.174999999999998
 49
-3.174999999999998
  0
LTYPE
  2
CENTER
 70
     0
  3
Center ____ _ ____ _ ____ _ ____ _ ____ _ ____
 72
    65
 73
     4
 40
50.799999999999997
 49
31.75
 49
-6.3499999999999979
 49
6.3499999999999979
 49
-6.3499999999999979
  0
LTYPE
  2
ACANSTGBM
 70
     0
  3
__ . . __ . .
 72
    65
 73
     6
 40
9.0
 49
4.0
 49
-1.0
 49
1.0
 49
-1.0
 49
1.0
 49
-1.0
  0
LTYPE
  2
ACANSTGLM
 70
     0
  3
_ _ _ _ _
 72
    65
 73
     2
 40
3.0
 49
2.0
 49
-1.0
  0
LTYPE
  2
GEN3B
 70
     0
  3
 - - - - -
 72
    65
 73
     2
 40
1.0
 49
0.5
 49
-0.5
  0
LTYPE
  2
GEN7A
 70
     0
  3
__ . __ . __
 72
    65
 73
     4
 40
7.375
 49
4.75
 49
-0.875
 49
0.875
 49
-0.875
  0
LTYPE
  2
AM_ISO02W050
 70
     0
  3
__ __ __ __ __ __ __ __ __ __ __ __ __ __ __
 72
    65
 73
     2
 40
7.5
 49
6.0
 49
-1.5
  0
LTYPE
  2
AM_ISO08W050
 70
     0
  3
____ . ____ . ____ . ____ . ____ . ____ . ____
 72
    65
 73
     4
 40
18.0
 49
12.0
 49
-1.5
 49
3.0
 49
-1.5
  0
LTYPE
  2
AM_ISO09W050
 70
     0
  3
_____ . . _____ . . _____ . . ____ .. ____
 72
    65
 73
     6
 40
22.5
 49
12.0
 49
-1.5
 49
3.0
 49
-1.5
 49
3.0
 49
-1.5
  0
LTYPE
  2
AMCONSTR
 70
     0
  3
_______________________
 72
    65
 73
     2
 40
9999.0
 49
9999.0
 49
0.0
  0
LTYPE
  2
AM_ISO02W050X2
 70
     0
  3
 _ _ _ _ _ _ _ _ _ _ _ _
 72
    65
 73
     2
 40
3.75
 49
3.0
 49
-0.75
  0
LTYPE
  2
AM_ISO08W050X2
 70
     0
  3
__ . __ . __ . __ . __ . __
 72
    65
 73
     4
 40
9.0
 49
6.0
 49
-0.75
 49
1.5
 49
-0.75
  0
LTYPE
  2
AMZIGZAG
 70
     0
  3
/\/-/\/-/\/-/\/-/\/-/\/
 72
    65
 73
     2
 40
11.0001
 49
0.0001
 49
-11.0
  0
LTYPE
  2
ACJISTGB
 70
     0
  3
__ . . __ . .
 72
    65
 73
     6
 40
9.0
 49
4.0
 49
-1.0
 49
1.0
 49
-1.0
 49
1.0
 49
-1.0
  0
LTYPE
  2
ACJISTGL
 70
     0
  3
_ _ _ _ _
 72
    65
 73
     2
 40
3.0
 49
2.0
 49
-1.0
  0
LTYPE
  2
ACISOWELD
 70
     0
  3
_ _ _ _ _
 72
    65
 73
     2
 40
2.0
 49
2.0
 49
-1.0
  0
LTYPE
  2
ACISOTGB
 70
     0
  3
__ . . __ . .
 72
    65
 73
     6
 40
9.0
 49
4.0
 49
-1.0
 49
1.0
 49
-1.0
 49
1.0
 49
-1.0
  0
LTYPE
  2
ACISOTGL
 70
     0
  3
_ _ _ _ _
 72
    65
 73
     2
 40
3.0
 49
2.0
 49
-1.0
  0
LTYPE
  2
GEN7
 70
     0
  3
____ . ____ . ____ . ____ . ____ . ____ . ____
 72
    65
 73
     4
 40
14.25
 49
9.75
 49
-1.5
 49
1.5
 49
-1.5
  0
LTYPE
  2
HIDDEN
 70
     0
  3
Hidden __ __ __ __ __ __ __ __ __ __ __ __ __ _
 72
    65
 73
     2
 40
9.5249999999999968
 49
6.3499999999999979
 49
-3.174999999999998
  0
ENDTAB
  0
TABLE
  2
LAYER
 70
    11
  0
LAYER
  2
0
 70
     0
 62
     7
  6
CONTINUOUS
  0
LAYER
  2
DEFPOINTS
 70
     0
 62
     7
  6
CONTINUOUS
  0
LAYER
  2
ｷｲﾛ
 70
     0
 62
     2
  6
CONTINUOUS
  0
LAYER
  2
ｶｸﾚｾﾝ2
 70
     0
 62
     3
  6
GEN3B
  0
LAYER
  2
ﾁｭｳｼﾝｾﾝ1
 70
     0
 62
     1
  6
GEN7A
  0
LAYER
  2
AM_0
 70
     0
 62
     7
  6
CONTINUOUS
  0
LAYER
  2
AM_0N
 70
     0
 62
     7
  6
CONTINUOUS
  0
LAYER
  2
AM_5
 70
     0
 62
     2
  6
CONTINUOUS
  0
LAYER
  2
ﾁｭｳｼﾝｾﾝ
 70
     0
 62
     1
  6
GEN7
  0
LAYER
  2
AM_7
 70
     0
 62
     1
  6
AM_ISO08W050
  0
LAYER
  2
AM_4
 70
     0
 62
     2
  6
CONTINUOUS
  0
ENDTAB
  0
TABLE
  2
STYLE
 70
     8
  0
STYLE
  2
STANDARD
 70
     0
 40
0.0
 41
0.8299999999999999
 50
0.0
 71
     0
 42
2.5
  3
txt.shx
  4
bigfont.shx
  0
STYLE
  2
ACANSTS
 70
     0
 40
1.0
 41
1.0
 50
0.0
 71
     0
 42
2.5
  3
romans.shx
  4
bigfont.shx
  0
STYLE
  2
ACANSGDT
 70
     0
 40
0.0
 41
1.0
 50
0.0
 71
     0
 42
2.5
  3
amgdtans.shx
  4

  0
STYLE
  2

 70
     1
 40
0.0
 41
1.0
 50
0.0
 71
     0
 42
2.5
  3
ltypeshp.shx
  4

  0
STYLE
  2
ACJISTS
 70
     0
 40
1.0
 41
1.0
 50
0.0
 71
     0
 42
2.5
  3
isocp.shx
  4
bigfont.shx
  0
STYLE
  2
ACJISGDT
 70
     0
 40
0.0
 41
1.0
 50
0.0
 71
     0
 42
2.5
  3
amgdt.shx
  4

  0
STYLE
  2
ACISOTS
 70
     0
 40
3.0
 41
1.0
 50
0.0
 71
     0
 42
2.5
  3
isocp.shx
  4
extfont.shx
  0
STYLE
  2
ACISOGDT
 70
     0
 40
0.0
 41
1.0
 50
0.0
 71
     0
 42
2.5
  3
amgdt.shx
  4

  0
ENDTAB
  0
TABLE
  2
VIEW
 70
    12
  0
VIEW
  2
GEN1
 70
     0
 40
95.824742268041234
 10
71.5
 20
137.08762886597941
 41
143.0
 11
0.0
 21
0.0
 31
1.0
 12
0.0
 22
0.0
 32
0.0
 42
50.0
 43
0.0
 44
0.0
 50
0.0
 71
     0
  0
VIEW
  2
GEN2
 70
     0
 40
95.824742268041234
 10
214.5
 20
137.08762886597941
 41
143.0
 11
0.0
 21
0.0
 31
1.0
 12
0.0
 22
0.0
 32
0.0
 42
50.0
 43
0.0
 44
0.0
 50
0.0
 71
     0
  0
VIEW
  2
GEN3
 70
     0
 40
95.824742268041234
 10
71.5
 20
47.912371134020603
 41
143.0
 11
0.0
 21
0.0
 31
1.0
 12
0.0
 22
0.0
 32
0.0
 42
50.0
 43
0.0
 44
0.0
 50
0.0
 71
     0
  0
VIEW
  2
GEN4
 70
     0
 40
95.824742268041234
 10
214.5
 20
47.912371134020603
 41
143.0
 11
0.0
 21
0.0
 31
1.0
 12
0.0
 22
0.0
 32
0.0
 42
50.0
 43
0.0
 44
0.0
 50
0.0
 71
     0
  0
VIEW
  2
GEN5
 70
     0
 40
95.824742268041234
 10
143.0
 20
92.500000000000057
 41
143.0
 11
0.0
 21
0.0
 31
1.0
 12
0.0
 22
0.0
 32
0.0
 42
50.0
 43
0.0
 44
0.0
 50
0.0
 71
     0
  0
VIEW
  2
GEN6
 70
     0
 40
191.64756804123709
 10
143.0
 20
92.5
 41
285.99714
 11
0.0
 21
0.0
 31
1.0
 12
0.0
 22
0.0
 32
0.0
 42
50.0
 43
0.0
 44
0.0
 50
0.0
 71
     0
  0
VIEW
  2
AM_VIEW1
 70
     0
 40
277.50000000000011
 10
249.64779005524869
 20
416.25000000000011
 41
499.29558011049721
 11
0.0
 21
0.0
 31
1.0
 12
0.0
 22
0.0
 32
0.0
 42
50.0
 43
0.0
 44
0.0
 50
0.0
 71
    16
  0
VIEW
  2
AM_VIEW2
 70
     0
 40
277.50000000000011
 10
603.85220994475117
 20
416.25000000000011
 41
499.29558011049721
 11
0.0
 21
0.0
 31
1.0
 12
0.0
 22
0.0
 32
0.0
 42
50.0
 43
0.0
 44
0.0
 50
0.0
 71
    16
  0
VIEW
  2
AM_VIEW3
 70
     0
 40
277.50000000000011
 10
249.64779005524869
 20
138.75
 41
499.29558011049721
 11
0.0
 21
0.0
 31
1.0
 12
0.0
 22
0.0
 32
0.0
 42
50.0
 43
0.0
 44
0.0
 50
0.0
 71
    16
  0
VIEW
  2
AM_VIEW4
 70
     0
 40
277.50000000000011
 10
603.85220994475117
 20
138.75
 41
499.29558011049721
 11
0.0
 21
0.0
 31
1.0
 12
0.0
 22
0.0
 32
0.0
 42
50.0
 43
0.0
 44
0.0
 50
0.0
 71
    16
  0
VIEW
  2
AM_VIEW5
 70
     0
 40
277.50000000000011
 10
426.75
 20
277.50000000000011
 41
499.2955801104971
 11
0.0
 21
0.0
 31
1.0
 12
0.0
 22
0.0
 32
0.0
 42
50.0
 43
0.0
 44
0.0
 50
0.0
 71
    16
  0
VIEW
  2
AM_VIEW6
 70
     0
 40
554.99445000000014
 10
426.75
 20
277.5
 41
998.5811743093924
 11
0.0
 21
0.0
 31
1.0
 12
0.0
 22
0.0
 32
0.0
 42
50.0
 43
0.0
 44
0.0
 50
0.0
 71
    16
  0
ENDTAB
  0
TABLE
  2
UCS
 70
     0
  0
ENDTAB
  0
TABLE
  2
APPID
 70
    97
  0
APPID
  2
ACAD
 70
     0
  0
APPID
  2
MCAD_NO_VIS
 70
     0
  0
APPID
  2
ACAD_TEMP_GRAPHIC
 70
     0
  0
APPID
  2
AD_DRAW
 70
     0
  0
APPID
  2
DESIGNERASSEMBLIES
 70
     0
  0
APPID
  2
ASURF_PCURVE_APPNAME
 70
     0
  0
APPID
  2
GENIUS_GE3SECT_13
 70
     0
  0
APPID
  2
GENIUS_GENCFG_13
 70
     0
  0
APPID
  2
GENIUS_GE3CFG0_13
 70
     0
  0
APPID
  2
GENIUS_GENCFG0_13
 70
     0
  0
APPID
  2
GENIUS_GENCFG1_13
 70
     0
  0
APPID
  2
GENIUS_GENCFG2_13
 70
     0
  0
APPID
  2
GENIUS_GENCFG3_13
 70
     0
  0
APPID
  2
GENIUS_GENCFG4_13
 70
     0
  0
APPID
  2
GENIUS_GEVCFG0_13
 70
     0
  0
APPID
  2
GENIUS_GENOENT_13
 70
     0
  0
APPID
  2
GENIUS_GENREC_14
 70
     0
  0
APPID
  2
GENIUS_GENODEF_13
 70
     0
  0
APPID
  2
GENIUS_GENOBJ-N-REC_13
 70
     0
  0
APPID
  2
GENIUS_GENHINW_13
 70
     0
  0
APPID
  2
GENIUS_FIRSTVISTXT_14
 70
     0
  0
APPID
  2
GENIUS_GENOBJ-N-LEADER_13
 70
     0
  0
APPID
  2
GENIUS_GENOREF_13
 70
     0
  0
APPID
  2
GENIUS_GENOLIS_13
 70
     0
  0
APPID
  2
GEV_VCCNULL_SWITCH_OFF
 70
     0
  0
APPID
  2
GENIUS_GENDTOL_13
 70
     0
  0
APPID
  2
GENIUS_GEFCFG0_13
 70
     0
  0
APPID
  2
GENIUS_GENOBJ-N-TIT_13
 70
     0
  0
APPID
  2
GENIUS_GENTITLE_13
 70
     0
  0
APPID
  2
GENIUS_GENZVEED_13
 70
     0
  0
APPID
  2
GENIUS_GENOBJ-N-SDF_13
 70
     0
  0
APPID
  2
GENIUS_GENSCREG_13
 70
     0
  0
APPID
  2
GENIUS_DUMCFG0_13
 70
     0
  0
APPID
  2
GEVID936201362
 70
     0
  0
APPID
  2
GEVDC
 70
     0
  0
APPID
  2
GEVCON
 70
     0
  0
APPID
  2
VCC
 70
     0
  0
APPID
  2
GEVPT
 70
     0
  0
APPID
  2
GEVIT
 70
     0
  0
APPID
  2
GENBH
 70
     0
  0
APPID
  2
GEVMK
 70
     0
  0
APPID
  2
GENIUS_GENBH_13
 70
     0
  0
APPID
  2
GENIUS_GENOBJ-NBEHI-BHF_13
 70
     0
  0
APPID
  2
GENIUS_GENOBJ-NBEHI-BHB_13
 70
     0
  0
APPID
  2
GENIUS_GENOBJ-F-DESC_13
 70
     0
  0
APPID
  2
GENIUS_GEFDESC_14
 70
     0
  0
APPID
  2
GENIUS_GENOBJ-F-PART_13
 70
     0
  0
APPID
  2
GENIUS_GEFSTDP_13
 70
     0
  0
APPID
  2
GENIUS_GEFPARTINS_13
 70
     0
  0
APPID
  2
GENIUS_GENTRA_14
 70
     0
  0
APPID
  2
GENIUS_GENINF13_13
 70
     0
  0
APPID
  2
GENIUS_GENOBJ-N-INFOPT_13
 70
     0
  0
APPID
  2
GENIUS_GENOBJ-N-RSSYM_13
 70
     0
  0
APPID
  2
GENIUS_GENSYMENT_13
 70
     0
  0
APPID
  2
GENIUS_GENSCSYM_13
 70
     0
  0
APPID
  2
GENIUS_GEFINFNAM_13
 70
     0
  0
APPID
  2
GENIUS_GENSCREG_15
 70
     0
  0
APPID
  2
GENIUS_GENOBJ-N-CEN_13
 70
     0
  0
APPID
  2
GENIUS_GENOBJ-N-CRS_13
 70
     0
  0
APPID
  2
GENIUS_GENOBJ-N-CRC_13
 70
     0
  0
APPID
  2
GENIUS_GENCRC_14
 70
     0
  0
APPID
  2
GEVID942827039
 70
     0
  0
APPID
  2
GEVID942827040
 70
     0
  0
APPID
  2
GEVID942827041
 70
     0
  0
APPID
  2
GENIUS_GENOBJ-F-SCPASSM_13
 70
     0
  0
APPID
  2
GENIUS_GENDIMSH_14
 70
     0
  0
APPID
  2
GENIUS_GENFIL_13
 70
     0
  0
APPID
  2
GENIUS_GENOBJ-N-CHA_13
 70
     0
  0
APPID
  2
GENIUS_GENOBJ-N-FIL_13
 70
     0
  0
APPID
  2
GEVID942827042
 70
     0
  0
APPID
  2
GEVID946020473
 70
     0
  0
APPID
  2
GEVID946020474
 70
     0
  0
APPID
  2
GEVID946020475
 70
     0
  0
APPID
  2
GENIUS_GENOBJ-N-HTC_13
 70
     0
  0
APPID
  2
GENIUS_GENHATCH_13
 70
     0
  0
APPID
  2
GEVID948854295
 70
     0
  0
APPID
  2
GEVID939402019
 70
     0
  0
APPID
  2
GEVID952919491
 70
     0
  0
APPID
  2
GEVID952919492
 70
     0
  0
APPID
  2
GENIUS_GEFWELD_13
 70
     0
  0
APPID
  2
GENIUS_GENOBJ-F-WELS_13
 70
     0
  0
APPID
  2
GEVID952919493
 70
     0
  0
APPID
  2
GENIUS_GENOBJ-N-RSBK_13
 70
     0
  0
APPID
  2
GENIUS_GENOBJ-N-LIB_13
 70
     0
  0
APPID
  2
GENIUS_GENSCALE_13
 70
     0
  0
APPID
  2
GEVID986376691
 70
     0
  0
APPID
  2
ACATTRIBSERVICES
 70
     0
  0
APPID
  2
DCO15
 70
     0
  0
APPID
  2
GEVID1088155249
 70
     0
  0
APPID
  2
ACADM_DIM_EDIT
 70
     0
  0
APPID
  2
AMDT_DM_ADJ
 70
     0
  0
APPID
  2
ACAD_MLEADERVER
 70
     0
  0
APPID
  2
ACAD_DSTYLE_DIMBREAK
 70
     0
  0
APPID
  2
ACAD_DSTYLE_DIMJAG
 70
     0
  0
APPID
  2
ACAD_NAV_VCDISPLAY
 70
     0
  0
APPID
  2
ACAD_EXEMPT_FROM_CAD_STANDARDS
 70
     0
  0
APPID
  2
ACADANNOPO
 70
     0
  0
ENDTAB
  0
TABLE
  2
DIMSTYLE
 70
    16
  0
DIMSTYLE
  2
STANDARD
 70
     0
  3

  4

  5

  6

  7

 40
1.0
 41
0.18
 42
0.0625
 43
0.38
 44
0.18
 45
0.0
 46
0.0
 47
0.0
 48
0.0
140
0.18
141
0.09
142
0.0
143
25.399999999999999
144
1.0
145
0.0
146
1.0
147
0.09
 71
     0
 72
     0
 73
     1
 74
     1
 75
     0
 76
     0
 77
     0
 78
     0
170
     0
171
     2
172
     0
173
     0
174
     0
175
     0
176
     0
177
     0
178
     0
  0
DIMSTYLE
  2
AM_JIS
 70
     0
  3

  4
"
  5

  6

  7

 40
1.0
 41
2.5
 42
1.0
 43
7.0
 44
1.0
 45
0.0
 46
0.0
 47
0.1
 48
0.1000000001
140
2.5
141
0.0
142
0.0
143
0.0393701
144
1.0
145
0.0
146
0.71
147
1.0
 71
     0
 72
     0
 73
     0
 74
     0
 75
     0
 76
     0
 77
     3
 78
     8
170
     0
171
     2
172
     1
173
     0
174
     0
175
     0
176
   256
177
   256
178
     4
  0
DIMSTYLE
  2
AM_JIS$3
 70
     0
  3

  4
"
  5

  6

  7

 40
1.0
 41
2.5
 42
1.0
 43
7.0
 44
1.0
 45
0.0
 46
0.0
 47
0.1
 48
0.1000000001
140
2.5
141
0.0
142
0.0
143
0.0393701
144
1.0
145
0.0
146
0.71
147
1.0
 71
     0
 72
     0
 73
     0
 74
     1
 75
     0
 76
     0
 77
     3
 78
     8
170
     0
171
     2
172
     0
173
     0
174
     0
175
     0
176
   256
177
   256
178
     4
  0
DIMSTYLE
  2
AM_JIS$4
 70
     0
  3

  4
"
  5

  6

  7

 40
1.0
 41
2.5
 42
1.0
 43
7.0
 44
1.0
 45
0.0
 46
0.0
 47
0.1
 48
0.1000000001
140
2.5
141
0.0
142
0.0
143
0.0393701
144
1.0
145
0.0
146
0.71
147
1.0
 71
     0
 72
     0
 73
     0
 74
     0
 75
     0
 76
     0
 77
     3
 78
     8
170
     0
171
     2
172
     0
173
     0
174
     0
175
     0
176
   256
177
   256
178
     4
  0
DIMSTYLE
  2
AM_JIS$6
 70
     0
  3

  4
"
  5

  6

  7

 40
1.0
 41
2.5
 42
1.0
 43
7.0
 44
1.0
 45
0.0
 46
0.0
 47
0.1
 48
0.1000000001
140
2.5
141
0.0
142
0.0
143
0.0393701
144
1.0
145
0.0
146
0.71
147
1.0
 71
     0
 72
     0
 73
     0
 74
     0
 75
     0
 76
     0
 77
     0
 78
     8
170
     0
171
     2
172
     1
173
     0
174
     0
175
     0
176
   256
177
   256
178
     4
  0
DIMSTYLE
  2
AM_JIS$7
 70
     0
  3

  4
"
  5

  6

  7

 40
1.0
 41
2.5
 42
1.0
 43
7.0
 44
1.0
 45
0.0
 46
0.0
 47
0.1
 48
0.1000000001
140
2.5
141
0.0
142
0.0
143
0.0393701
144
1.0
145
0.0
146
0.71
147
1.0
 71
     0
 72
     0
 73
     0
 74
     0
 75
     0
 76
     0
 77
     3
 78
     8
170
     0
171
     2
172
     1
173
     0
174
     0
175
     0
176
   256
177
   256
178
     4
  0
DIMSTYLE
  2
AM_JIS$SF
 70
     0
  3

  4
"
  5
OPEN30
  6
OPEN30
  7
OPEN30
 40
1.0
 41
2.5
 42
1.0
 43
10.0
 44
1.0
 45
0.0
 46
0.0
 47
0.1
 48
0.1
140
3.5
141
0.0
142
0.0
143
0.0393701
144
1.0
145
0.0
146
0.71
147
1.5
 71
     0
 72
     0
 73
     0
 74
     0
 75
     1
 76
     1
 77
     3
 78
     8
170
     0
171
     2
172
     1
173
     0
174
     0
175
     0
176
   256
177
   256
178
     4
  0
DIMSTYLE
  2
AM_JIS$SH
 70
     0
  3

  4
"
  5

  6
NONE
  7

 40
1.0
 41
2.5
 42
1.0
 43
10.0
 44
1.0
 45
0.0
 46
0.0
 47
0.1
 48
0.1
140
3.5
141
0.0
142
0.0
143
0.0393701
144
1.0
145
0.0
146
0.71
147
1.5
 71
     0
 72
     0
 73
     0
 74
     0
 75
     1
 76
     0
 77
     3
 78
     8
170
     0
171
     2
172
     1
173
     1
174
     0
175
     0
176
   256
177
   256
178
     4
  0
DIMSTYLE
  2
AM_ISO
 70
     0
  3

  4
"
  5

  6

  7

 40
1.0
 41
2.5
 42
1.0
 43
10.0
 44
1.0
 45
0.0
 46
0.0
 47
0.0
 48
0.000000001
140
3.0
141
0.0
142
0.0
143
0.0393701
144
1.0
145
0.0
146
0.71
147
1.299999999999998
 71
     1
 72
     0
 73
     0
 74
     0
 75
     0
 76
     0
 77
     1
 78
     8
170
     0
171
     2
172
     1
173
     0
174
     0
175
     0
176
   256
177
   256
178
     4
  0
DIMSTYLE
  2
AM_ISO$3
 70
     0
  3

  4
"
  5

  6

  7

 40
1.0
 41
2.5
 42
1.0
 43
10.0
 44
1.0
 45
0.0
 46
0.0
 47
0.0
 48
0.000000001
140
2.5
141
0.0
142
0.0
143
0.0393701
144
1.0
145
0.0
146
0.71
147
1.299999999999998
 71
     1
 72
     0
 73
     0
 74
     1
 75
     0
 76
     0
 77
     1
 78
     8
170
     0
171
     2
172
     0
173
     0
174
     0
175
     0
176
   256
177
   256
178
     4
  0
DIMSTYLE
  2
AM_ISO$4
 70
     0
  3

  4
"
  5

  6

  7

 40
1.0
 41
2.5
 42
1.0
 43
10.0
 44
1.0
 45
0.0
 46
0.0
 47
0.0
 48
0.000000001
140
2.5
141
0.0
142
0.0
143
0.0393701
144
1.0
145
0.0
146
0.71
147
1.299999999999998
 71
     1
 72
     0
 73
     0
 74
     1
 75
     0
 76
     0
 77
     1
 78
     8
170
     0
171
     2
172
     0
173
     0
174
     0
175
     0
176
   256
177
   256
178
     4
  0
DIMSTYLE
  2
AM_ISO$6
 70
     0
  3

  4
"
  5

  6

  7

 40
1.0
 41
2.5
 42
1.0
 43
10.0
 44
1.0
 45
0.0
 46
0.0
 47
0.0
 48
0.000000001
140
2.5
141
0.0
142
0.0
143
0.0393701
144
1.0
145
0.0
146
0.71
147
1.299999999999998
 71
     1
 72
     0
 73
     0
 74
     0
 75
     0
 76
     0
 77
     0
 78
     8
170
     0
171
     2
172
     1
173
     0
174
     0
175
     0
176
   256
177
   256
178
     4
  0
DIMSTYLE
  2
AM_ISO$7
 70
     0
  3

  4
"
  5

  6

  7

 40
1.0
 41
2.5
 42
1.0
 43
10.0
 44
1.0
 45
0.0
 46
0.0
 47
0.0
 48
0.000000001
140
2.5
141
0.0
142
0.0
143
0.0393701
144
1.0
145
0.0
146
0.71
147
1.299999999999998
 71
     1
 72
     0
 73
     0
 74
     0
 75
     0
 76
     0
 77
     1
 78
     8
170
     0
171
     2
172
     1
173
     0
174
     0
175
     0
176
   256
177
   256
178
     4
  0
DIMSTYLE
  2
AM_ISO$SF
 70
     0
  3

  4
"
  5

  6

  7

 40
1.0
 41
2.5
 42
1.0
 43
10.0
 44
1.0
 45
0.0
 46
0.0
 47
0.1
 48
0.1
140
3.5
141
0.0
142
0.0
143
0.0393701
144
1.0
145
0.0
146
0.71
147
1.5
 71
     0
 72
     0
 73
     0
 74
     0
 75
     1
 76
     1
 77
     1
 78
     8
170
     0
171
     2
172
     1
173
     0
174
     0
175
     0
176
   256
177
   256
178
     4
  0
DIMSTYLE
  2
AM_ISO$SH
 70
     0
  3

  4
"
  5

  6
GENAXEH
  7

 40
1.0
 41
2.5
 42
1.0
 43
10.0
 44
1.0
 45
0.0
 46
0.0
 47
0.1
 48
0.1
140
3.5
141
0.0
142
0.0
143
0.0393701
144
2.0
145
0.0
146
0.71
147
1.5
 71
     0
 72
     0
 73
     0
 74
     0
 75
     1
 76
     1
 77
     1
 78
     8
170
     0
171
     2
172
     1
173
     1
174
     0
175
     0
176
   256
177
   256
178
     4
  0
DIMSTYLE
  2
AM_JIS$0
 70
     0
  3

  4
"
  5

  6

  7

 40
1.0
 41
2.5
 42
1.0
 43
7.0
 44
1.0
 45
0.0
 46
0.0
 47
0.1
 48
0.1000000001
140
2.5
141
0.0
142
0.0
143
0.0393701
144
1.0
145
0.0
146
0.71
147
1.0
 71
     0
 72
     0
 73
     0
 74
     0
 75
     0
 76
     0
 77
     3
 78
     8
170
     0
171
     2
172
     1
173
     0
174
     0
175
     0
176
   256
177
   256
178
     4
  0
ENDTAB
  0
ENDSEC
  0
SECTION
  2
BLOCKS
  0
BLOCK
  8
0
  2
$MODEL_SPACE
 70
     0
 10
0.0
 20
0.0
 30
0.0
  3
$MODEL_SPACE
  1

  0
ENDBLK
  5
1A
  8
0
  0
BLOCK
 67
     1
  8
0
  2
$PAPER_SPACE
 70
     0
 10
0.0
 20
0.0
 30
0.0
  3
$PAPER_SPACE
  1

  0
ENDBLK
  5
17
 67
     1
  8
0
  0
BLOCK
  8
0
  2
_OPEN30
 70
     0
 10
0.0
 20
0.0
 30
0.0
  3
_OPEN30
  1

  0
LINE
  5
21C5
  8
0
 62
     0
 10
-1.0
 20
0.26794919
 30
0.0
 11
0.0
 21
0.0
 31
0.0
  0
LINE
  5
21C6
  8
0
 62
     0
 10
0.0
 20
0.0
 30
0.0
 11
-1.0
 21
-0.26794919
 31
0.0
  0
LINE
  5
21C7
  8
0
 62
     0
 10
0.0
 20
0.0
 30
0.0
 11
-1.0
 21
0.0
 31
0.0
  0
ENDBLK
  5
21C9
  8
0
  0
BLOCK
  8
0
  2
GENAXEH
 70
     0
 10
0.0
 20
0.0
 30
0.0
  3
GENAXEH
  1

  0
LINE
  5
21D0
  8
0
 10
-1.0
 20
0.0
 30
0.0
 11
1.0
 21
0.0
 31
0.0
  0
ENDBLK
  5
21D2
  8
0
  0
BLOCK
  8
0
  2
_NONE
 70
     0
 10
0.0
 20
0.0
 30
0.0
  3
_NONE
  1

  0
ENDBLK
  5
8193
  8
0
  0
ENDSEC
  0
SECTION
  2
ENTITIES
  0
POINT
  5
1B94
  8
0
 10
0.0
 20
0.0
 30
0.0
1001
GENIUS_GENODEF_13
1002
{
1000
HIER
1070
     1
1002
}
1002
{
1000
MANEDIT
1070
     0
1002
}
1002
{
1000
NOSEL
1070
     0
1002
}
1002
{
1000
BEHIND
1070
     0
1002
}
1002
{
1000
REACTOR
1002
}
1001
GENIUS_GENOBJ-N-SDF_13
1002
{
1000
OWNER
1000
GEN
1002
}
1001
GENIUS_GENOENT_13
1002
{
1000
MYREF
1005
1B94
1002
}
1002
{
1000
GRP
1005
0
1002
}
1001
GENIUS_GENOLIS_13
1002
{
1000
ENT
1005
89
1002
}
  0
ARC
  5
1549D
  8
0
 10
425.1525267494892
 20
308.93641404048702
 30
0.0
 40
2.5
 50
224.9999999999994
 51
44.999999999999417
  0
LINE
  5
1549E
  8
0
 10
414.78817831689338
 20
322.83629637901538
 30
0.0
 11
426.9202937024553
 21
310.70418099345318
 31
0.0
  0
ARC
  5
1549F
  8
0
 10
425.1525267494892
 20
190.93641404048699
 30
0.0
 40
2.5
 50
315.00000000000063
 51
135.0000000000006
  0
LINE
  5
154A0
  8
0
 10
414.78817831689338
 20
177.03653170195849
 30
0.0
 11
426.9202937024553
 21
189.1686470875207
 31
0.0
  0
LINE
  5
154A1
  8
AM_0
 10
419.67524346327519
 20
339.93641324266338
 30
0.0
 11
502.6297935336371
 21
339.93641324266338
 31
0.0
  0
LINE
  5
154A2
  8
AM_0
 10
403.15253553199551
 20
344.93641324266332
 30
0.0
 11
519.15250364350834
 21
344.93641324266332
 31
0.0
  0
LINE
  5
154A3
  8
AM_0
 10
419.67524346327519
 20
159.9364148383105
 30
0.0
 11
502.6297913948826
 21
159.93641483831061
 31
0.0
  0
LINE
  5
154A4
  8
AM_0
 10
403.15253553199551
 20
154.9364077707063
 30
0.0
 11
519.15250364350823
 21
154.93640777070601
 31
0.0
  0
LINE
  5
154A5
  8
ﾁｭｳｼﾝｾﾝ1
 10
753.14644097236055
 20
249.93641404048699
 30
0.0
 11
368.1524727579822
 21
249.93641404048699
 31
0.0
  0
CIRCLE
  5
154A8
  8
AM_0
 10
438.15255703220902
 20
249.93641404048699
 30
0.0
 40
37.500001117587061
  0
CIRCLE
  5
154A9
  8
AM_0
 10
438.15255703220902
 20
249.93641404048699
 30
0.0
 40
22.50000067055224
  0
ARC
  5
154B2
  8
AM_0
 10
438.15255703220902
 20
249.93641404048699
 30
0.0
 40
15.000000447034861
 50
105.4660151171912
 51
74.533990346509484
  0
LINE
  5
154CE
  8
AM_0
 10
88.928460479848113
 20
284.1962797357055
 30
0.0
 11
88.928460479848113
 21
274.93626973570571
 31
0.0
  0
ARC
  5
154CF
  8
AM_0
 10
86.942690479848125
 20
277.8095297357055
 30
0.0
 40
0.5143923799999997
 50
181.47632999999809
 51
266.1853900000005
  0
LINE
  5
154D0
  8
AM_0
 10
378.1524727579822
 20
301.93641479238443
 30
0.0
 11
378.1524727579822
 21
197.93640622098499
 31
0.0
  0
LINE
  5
154D1
  8
AM_0
 10
373.1524727579822
 20
301.93641479238443
 30
0.0
 11
373.1524727579822
 21
197.93640622098499
 31
0.0
  0
LINE
  5
154D4
  8
AM_0
 10
220.42144439084311
 20
154.93626973570591
 30
0.0
 11
220.42144439084311
 21
344.93626973570548
 31
0.0
  0
LINE
  5
154D7
  8
AM_0
 10
101.4284413901392
 20
187.29777909940219
 30
0.0
 11
101.4284413901392
 21
312.57479088958831
 31
0.0
  0
LINE
  5
154D8
  8
AM_0
 10
179.4284513441151
 20
185.9362678283573
 30
0.0
 11
179.4284513441151
 21
313.9362716430544
 31
0.0
  0
LINE
  5
154D9
  8
ﾁｭｳｼﾝｾﾝ1
 10
150.42144439085311
 20
146.32879159517611
 30
0.0
 11
150.42144439085311
 21
318.68377550098211
 31
0.0
  0
LINE
  5
154DC
  8
AM_0
 10
97.428448900325066
 20
212.43626861811879
 30
0.0
 11
97.428448900325066
 21
287.4362708532928
 31
0.0
  0
ARC
  5
154DF
  8
AM_0
 10
150.44536047984801
 20
249.92626973570569
 30
0.0
 40
64.014987999999931
 50
145.91379204811599
 51
214.08620795188389
  0
LINE
  5
154E1
  8
AM_0
 10
179.42144439085311
 20
185.93626973570559
 30
0.0
 11
157.33584387120209
 21
186.32177558364981
 31
0.0
  0
LINE
  5
154E2
  8
AM_0
 10
180.92144439085311
 20
171.43626973570571
 30
0.0
 11
119.9214443908529
 21
171.43626973570571
 31
0.0
  0
LINE
  5
154E3
  8
AM_0
 10
181.92144439085311
 20
177.93626973570559
 30
0.0
 11
118.9214443908529
 21
177.93626973570559
 31
0.0
  0
LINE
  5
154E4
  8
AM_0
 10
120.4214443908531
 20
179.93626973570559
 30
0.0
 11
180.4614243908529
 21
179.93626973570559
 31
0.0
  0
LINE
  5
154E5
  8
AM_0
 10
183.92144439085291
 20
174.93626973570559
 30
0.0
 11
116.9214443908531
 21
174.93626973570559
 31
0.0
  0
LINE
  5
154E6
  8
AM_0
 10
179.42144439085311
 20
152.93626973570591
 30
0.0
 11
121.4214443908529
 21
152.93626973570591
 31
0.0
  0
LINE
  5
154E7
  8
AM_0
 10
168.22143439085309
 20
149.93626973570559
 30
0.0
 11
132.61144439085291
 21
149.93626973570559
 31
0.0
  0
LINE
  5
154EA
  8
AM_0
 10
179.4284513441151
 20
185.9362678283573
 30
0.0
 11
101.4284413901392
 21
187.29777909940219
 31
0.0
  0
LINE
  5
154EB
  8
ﾁｭｳｼﾝｾﾝ1
 10
80.173367171920276
 20
249.93626973570571
 30
0.0
 11
225.42144439084311
 21
249.93626973570571
 31
0.0
  0
LINE
  5
154F3
  8
AM_0
 10
89.428441390139255
 20
205.93626818598469
 30
0.0
 11
89.428441390139255
 21
189.93626818598489
 31
0.0
  0
LINE
  5
154F4
  8
AM_0
 10
99.428441390139355
 20
187.4362681859848
 30
0.0
 11
99.428441390139355
 21
208.4362681859848
 31
0.0
  0
LINE
  5
154F5
  8
AM_0
 10
89.428441390139255
 20
189.93626818598489
 30
0.0
 11
99.428441390139355
 21
189.93626818598489
 31
0.0
  0
LINE
  5
154F6
  8
AM_0
 10
118.9214443908529
 20
159.93626973570559
 30
0.0
 11
118.9214443908529
 21
177.93626973570559
 31
0.0
  0
LINE
  5
154F7
  8
AM_0
 10
120.4214443908531
 20
153.93626973570571
 30
0.0
 11
120.4214443908531
 21
171.43626973570571
 31
0.0
  0
LINE
  5
154F8
  8
AM_0
 10
116.9214443908531
 20
174.93626973570559
 30
0.0
 11
116.9214443908531
 21
159.93626973570559
 31
0.0
  0
ARC
  5
154F9
  8
AM_0
 10
121.4214443908529
 20
153.93626973570571
 30
0.0
 40
0.9999999999999998
 50
180.00000299999761
 51
270.000010000001
  0
LINE
  5
154FA
  8
AM_0
 10
118.9214443908529
 20
159.93626973570559
 30
0.0
 11
116.9214443908531
 21
159.93626973570559
 31
0.0
  0
LINE
  5
154FB
  8
AM_0
 10
120.4214443908531
 20
158.93626973570571
 30
0.0
 11
119.9214443908529
 21
158.93626973570571
 31
0.0
  0
ARC
  5
154FC
  8
AM_0
 10
119.9214443908529
 20
159.93626973570559
 30
0.0
 40
0.9999999999999998
 50
180.00000299999761
 51
270.000010000001
  0
LINE
  5
154FD
  8
AM_0
 10
99.428441390139355
 20
187.4362681859848
 30
0.0
 11
101.4284413901392
 21
187.4362681859848
 31
0.0
  0
LINE
  5
154FE
  8
AM_0
 10
120.1797635720347
 20
186.97033780994099
 30
0.0
 11
120.4214459024811
 21
177.93626973570591
 31
0.0
  0
ARC
  5
154FF
  8
AM_0
 10
119.9214443908529
 20
172.43626973570559
 30
0.0
 40
0.9999999999999998
 50
180.00000299999761
 51
270.000010000001
  0
ARC
  5
15500
  8
AM_0
 10
118.25265439085319
 20
184.01391973570571
 30
0.0
 40
2.0097484999999988
 50
1.7779099999986701
 51
157.0903460000016
  0
ARC
  5
15501
  8
AM_0
 10
115.42156439085301
 20
185.04349973570581
 30
0.0
 40
1.000226099999999
 50
179.26866700000079
 51
358.43981999999937
  0
LINE
  5
15502
  8
AM_0
 10
114.3482447376757
 20
187.07212741765591
 30
0.0
 11
114.4214443908531
 21
185.01625973570569
 31
0.0
  0
LINE
  5
15503
  8
AM_0
 10
116.4808385431156
 20
187.03490282951049
 30
0.0
 11
116.4014543908531
 21
184.79626973570581
 31
0.0
  0
LINE
  5
15504
  8
AM_0
 10
127.4214443908529
 20
152.93626973570591
 30
0.0
 11
132.61144439085291
 21
149.93626973570559
 31
0.0
  0
ARC
  5
15505
  8
AM_0
 10
150.39483439085319
 20
249.9337797357058
 30
0.0
 40
63.989566999999987
 50
261.77281830828667
 51
270.02382639558658
  0
LINE
  5
15506
  8
AM_0
 10
141.23802478393961
 20
186.60276424826691
 30
0.0
 11
157.33584387120251
 21
186.32177558364981
 31
0.0
  0
ARC
  5
15507
  8
AM_0
 10
150.39483439085319
 20
249.9337797357058
 30
0.0
 40
63.989566999999987
 50
270.02382639558658
 51
276.22718035921872
  0
LINE
  5
15508
  8
AM_0
 10
96.029936728184936
 20
216.155305614074
 30
0.0
 11
89.568460479847886
 21
215.93626673570591
 31
0.0
  0
LINE
  5
15509
  8
AM_0
 10
99.428441390139355
 20
205.93626818598469
 30
0.0
 11
89.428441390139255
 21
205.93626818598469
 31
0.0
  0
LINE
  5
1550A
  8
AM_0
 10
97.428450479848294
 20
213.64980585187891
 30
0.0
 11
89.568460479847886
 21
213.93627473570561
 31
0.0
  0
ARC
  5
1550B
  8
AM_0
 10
86.202250479847876
 20
234.9364997357057
 30
0.0
 40
1.0003331999999969
 50
91.936240000000055
 51
269.20963000000029
  0
LINE
  5
1550D
  8
AM_0
 10
88.928460479848113
 20
224.93626673570591
 30
0.0
 11
88.928460479848113
 21
215.67627273570579
 31
0.0
  0
ARC
  5
1550E
  8
AM_0
 10
86.928820479848014
 20
222.05633073570559
 30
0.0
 40
0.5003520299999995
 50
92.33117
 51
180.00710999999771
  0
LINE
  5
1550F
  8
AM_0
 10
86.428460479848013
 20
221.43626673570569
 30
0.0
 11
86.428460479848013
 21
222.0562697357058
 31
0.0
  0
ARC
  5
15510
  8
AM_0
 10
86.942690479848125
 20
220.80951973570589
 30
0.0
 40
0.5143923799999997
 50
181.47632999999809
 51
266.1853900000005
  0
LINE
  5
15511
  8
AM_0
 10
86.428460479848013
 20
221.43626673570569
 30
0.0
 11
86.428460479848013
 21
220.7962677357055
 31
0.0
  0
LINE
  5
15512
  8
AM_0
 10
88.928460479848113
 20
222.6962687357059
 30
0.0
 11
86.908460479847889
 21
222.55626973570571
 31
0.0
  0
LINE
  5
15513
  8
AM_0
 10
88.928450479848152
 20
220.1562677357058
 30
0.0
 11
86.908460479847889
 21
220.29626773570561
 31
0.0
  0
ARC
  5
15514
  8
AM_0
 10
89.614350479847985
 20
214.9367857357058
 30
0.0
 40
1.000534899999999
 50
92.628309999997043
 51
269.66321999999968
  0
LINE
  5
15515
  8
AM_0
 10
88.448669783563119
 20
233.85598032360289
 30
0.0
 11
86.168450479847934
 21
233.93626973570559
 31
0.0
  0
LINE
  5
15516
  8
AM_0
 10
91.983058454736806
 20
223.7749000900566
 30
0.0
 11
89.988460479847845
 21
223.83626873570549
 31
0.0
  0
ARC
  5
15517
  8
AM_0
 10
90.031980479848116
 20
224.9266997357058
 30
0.0
 40
1.090437399999999
 50
92.287669999999167
 51
269.814680000002
  0
ARC
  5
15518
  8
AM_0
 10
87.557630479848044
 20
224.93685473570571
 30
0.0
 40
1.000625599999998
 50
92.817069999998395
 51
269.4744600000011
  0
LINE
  5
15519
  8
AM_0
 10
88.928460479848113
 20
223.87626873570551
 30
0.0
 11
87.508470479848029
 21
223.9362667357058
 31
0.0
  0
LINE
  5
1551A
  8
AM_0
 10
91.014611725637124
 20
226.05657474111979
 30
0.0
 11
87.508450479848079
 21
225.93626673570569
 31
0.0
  0
ARC
  5
1551B
  8
AM_0
 10
85.529190479848012
 20
254.93585973570561
 30
0.0
 40
1.000414699999997
 50
90.041480000001073
 51
267.66698999999528
  0
ARC
  5
1551C
  8
AM_0
 10
85.529360479847924
 20
244.9366897357057
 30
0.0
 40
1.000418199999999
 50
92.342590000002076
 51
269.94893999999681
  0
LINE
  5
1551D
  8
AM_0
 10
86.684851494325684
 20
243.89501463603901
 30
0.0
 11
85.488460479847845
 21
243.93626973570571
 31
0.0
  0
LINE
  5
1551E
  8
AM_0
 10
87.932783923661191
 20
235.9971085577385
 30
0.0
 11
86.168450479847934
 21
235.93626973570579
 31
0.0
  0
LINE
  5
1551F
  8
AM_0
 10
86.525181000013731
 20
253.89690716355059
 30
0.0
 11
85.488460479847845
 21
253.93626973570571
 31
0.0
  0
LINE
  5
15520
  8
AM_0
 10
86.52327196409874
 20
245.96246749480051
 30
0.0
 11
85.488460479847845
 21
245.93626973570551
 31
0.0
  0
LINE
  5
15521
  8
AM_0
 10
88.460171565279197
 20
266.0169635718558
 30
0.0
 11
86.168450479847934
 21
265.93626973570582
 31
0.0
  0
LINE
  5
15522
  8
AM_0
 10
87.942506402542577
 20
263.87509565722507
 30
0.0
 11
86.168450479847934
 21
263.93626973570548
 31
0.0
  0
ARC
  5
15523
  8
AM_0
 10
86.202180479848039
 20
264.93603973570549
 30
0.0
 40
1.0003311999999971
 50
90.785589999996475
 51
268.0685399999997
  0
LINE
  5
15524
  8
AM_0
 10
86.689028022292518
 20
255.9776684854595
 30
0.0
 11
85.488450479847884
 21
255.93626973570571
 31
0.0
  0
LINE
  5
15525
  8
AM_0
 10
92.000945054704744
 20
276.09367328629071
 30
0.0
 11
89.988460479847845
 21
276.01626973570541
 31
0.0
  0
LINE
  5
15526
  8
AM_0
 10
88.928460479848113
 20
275.97627973570548
 30
0.0
 11
87.508470479848029
 21
275.93626973570548
 31
0.0
  0
LINE
  5
15527
  8
AM_0
 10
88.928450479848152
 20
277.15626973570579
 30
0.0
 11
86.908460479847889
 21
277.29626973570572
 31
0.0
  0
LINE
  5
15528
  8
AM_0
 10
91.032026042588086
 20
273.81536282469551
 30
0.0
 11
87.508470479848029
 21
273.93626973570559
 31
0.0
  0
ARC
  5
15529
  8
AM_0
 10
87.557460479848118
 20
274.93568973570552
 30
0.0
 40
1.0006207999999981
 50
90.515970000001047
 51
267.19250000000471
  0
ARC
  5
1552A
  8
AM_0
 10
90.031980479848116
 20
274.9266997357056
 30
0.0
 40
1.090437399999999
 50
92.287669999999167
 51
269.81468999999669
  0
LINE
  5
1552B
  8
AM_0
 10
93.428448781115435
 20
272.43627040625802
 30
0.0
 11
93.428448781115435
 21
227.43626906515371
 31
0.0
  0
ARC
  5
1552C
  8
AM_0
 10
95.928460479847914
 20
210.95299387865029
 30
0.0
 40
2.999999999999996
 50
0.0
 51
29.631860164016139
1001
GENIUS_GENOBJ-N-FIL_13
1002
{
1000
OWNER
1000
GEN
1002
}
1001
GENIUS_GENODEF_13
1002
{
1000
HIER
1070
     0
1002
}
1002
{
1000
MANEDIT
1070
     0
1002
}
1002
{
1000
NOSEL
1070
     0
1002
}
1002
{
1000
BEHIND
1070
     0
1002
}
1002
{
1000
OTHER
1070
     0
1002
}
1002
{
1000
REACTOR
1002
}
  0
LINE
  5
1552D
  8
AM_0
 10
97.428448900325066
 20
212.43626861811879
 30
0.0
 11
101.4284490195343
 21
212.43626861811879
 31
0.0
  0
LINE
  5
1552E
  8
AM_0
 10
99.428441390139355
 20
208.4362681859848
 30
0.0
 11
101.4284413901392
 21
208.4362681859848
 31
0.0
  0
LINE
  5
1552F
  8
AM_0
 10
98.928460479847885
 20
205.9362681859848
 30
0.0
 11
98.928460479847885
 21
210.95299387865001
 31
0.0
  0
LINE
  5
15530
  8
AM_0
 10
93.428448781115435
 20
227.43626906515371
 30
0.0
 11
97.428448900325066
 21
227.43626906515371
 31
0.0
  0
LINE
  5
15531
  8
AM_0
 10
93.428448781115435
 20
272.43627040625802
 30
0.0
 11
97.428448900325066
 21
272.43627040625802
 31
0.0
  0
LINE
  5
15540
  8
0
 10
179.4284513441151
 20
185.9362678283569
 30
0.0
 11
201.5261428809506
 21
185.16459943589939
 31
0.0
  0
LINE
  5
15541
  8
AM_0
 10
181.92144439085311
 20
159.93626973570559
 30
0.0
 11
181.92144439085311
 21
177.93626973570559
 31
0.0
  0
LINE
  5
15542
  8
AM_0
 10
183.92144439085291
 20
174.93626973570559
 30
0.0
 11
183.92144439085291
 21
159.93626973570559
 31
0.0
  0
LINE
  5
15543
  8
AM_0
 10
180.42144439085311
 20
153.93626973570571
 30
0.0
 11
180.42144439085311
 21
171.43626973570571
 31
0.0
  0
LINE
  5
15544
  8
AM_0
 10
173.42144439085311
 20
152.9362897357058
 30
0.0
 11
168.22143439085309
 21
149.93626973570559
 31
0.0
  0
ARC
  5
15545
  8
AM_0
 10
179.42144439085311
 20
153.93626973570571
 30
0.0
 40
0.9999999999999998
 50
269.999989999999
 51
0.0
  0
LINE
  5
15546
  8
AM_0
 10
181.92144439085311
 20
159.93626973570559
 30
0.0
 11
183.92144439085291
 21
159.93626973570559
 31
0.0
  0
LINE
  5
15547
  8
AM_0
 10
180.92144439085311
 20
158.93626973570571
 30
0.0
 11
180.42144439085311
 21
158.93626973570571
 31
0.0
  0
ARC
  5
15548
  8
AM_0
 10
180.92144439085311
 20
159.93626973570559
 30
0.0
 40
0.9999999999999998
 50
269.999989999999
 51
0.0
  0
LINE
  5
15549
  8
AM_0
 10
180.62578575663809
 20
185.95729188164839
 30
0.0
 11
180.42142235597629
 21
177.93626973570591
 31
0.0
  0
ARC
  5
1554A
  8
AM_0
 10
180.92144439085311
 20
172.43626973570559
 30
0.0
 40
0.9999999999999998
 50
269.999989999999
 51
0.0
  0
ARC
  5
1554B
  8
AM_0
 10
185.42129439085301
 20
185.0441797357058
 30
0.0
 40
1.000231299999998
 50
181.598942999999
 51
0.6925799999989853
  0
ARC
  5
1554C
  8
AM_0
 10
182.57980439085301
 20
184.01828973570591
 30
0.0
 40
1.9992131999999989
 50
113.34186017824941
 51
178.3379780000044
  0
ARC
  5
1554D
  8
AM_0
 10
182.57980439085301
 20
184.01828973570591
 30
0.0
 40
1.9992131999999989
 50
22.901329999994228
 51
62.658139821750957
  0
LINE
  5
1554E
  8
AM_0
 10
184.38713024053391
 20
185.76310694563139
 30
0.0
 11
184.42141439085319
 21
184.79626973570581
 31
0.0
  0
LINE
  5
1554F
  8
AM_0
 10
186.44440186057719
 20
185.69126543760609
 30
0.0
 11
186.42141439085299
 21
185.01626973570581
 31
0.0
  0
LINE
  5
15550
  8
AM_0
 10
204.42144439084311
 20
182.16642695484211
 30
0.0
 11
204.42144439084311
 21
157.4263795971878
 31
0.0
  0
LINE
  5
15553
  8
0
 10
206.35164539743801
 20
155.42759794314969
 30
0.0
 11
220.42144439084311
 21
154.93626973570591
 31
0.0
  0
ARC
  5
15554
  8
0
 10
206.42144439084319
 20
157.4263795971878
 30
0.0
 40
1.9999999999999989
 50
180.0
 51
267.99999999999642
1001
GENIUS_GENOBJ-N-FIL_13
1002
{
1000
OWNER
1000
GEN
1002
}
1001
GENIUS_GENODEF_13
1002
{
1000
HIER
1070
     0
1002
}
1002
{
1000
MANEDIT
1070
     0
1002
}
1002
{
1000
NOSEL
1070
     0
1002
}
1002
{
1000
BEHIND
1070
     0
1002
}
1002
{
1000
OTHER
1070
     0
1002
}
1002
{
1000
REACTOR
1002
}
  0
ARC
  5
1555A
  8
0
 10
201.42144439084311
 20
182.16642695484211
 30
0.0
 40
3.0
 50
0.0
 51
88.000000000002856
1001
GENIUS_GENOBJ-N-FIL_13
1002
{
1000
OWNER
1000
GEN
1002
}
1001
GENIUS_GENODEF_13
1002
{
1000
HIER
1070
     0
1002
}
1002
{
1000
MANEDIT
1070
     0
1002
}
1002
{
1000
NOSEL
1070
     0
1002
}
1002
{
1000
BEHIND
1070
     0
1002
}
1002
{
1000
OTHER
1070
     0
1002
}
1002
{
1000
REACTOR
1002
}
  0
ARC
  5
1556C
  8
0
 10
388.15247275798203
 20
200.93641951244459
 30
0.0
 40
10.0
 50
180.0
 51
270.0
1001
GENIUS_GENODEF_13
1002
{
1000
HIER
1070
     0
1002
}
1002
{
1000
MANEDIT
1070
     0
1002
}
1002
{
1000
NOSEL
1070
     0
1002
}
1002
{
1000
BEHIND
1070
     0
1002
}
1002
{
1000
OTHER
1070
     0
1002
}
1002
{
1000
REACTOR
1002
}
1001
GENIUS_GENOBJ-N-FIL_13
1002
{
1000
OWNER
1000
GEN
1002
}
  0
LINE
  5
1556D
  8
0
 10
411.25264504376281
 20
180.57206624069349
 30
0.0
 11
423.3847597965227
 21
192.70418099345341
 31
0.0
  0
LINE
  5
1556F
  8
0
 10
390.89442464656059
 20
162.17331569587759
 30
0.0
 11
374.8943915290763
 21
191.1733118233401
 31
0.0
  0
LINE
  5
15570
  8
0
 10
387.29055696753289
 20
179.0556105317097
 30
0.0
 11
379.2722776981488
 21
193.58870261794129
 31
0.0
  0
ARC
  5
15574
  8
0
 10
391.66844313660539
 20
181.47100132631061
 30
0.0
 40
5.0
 50
208.8866351646578
 51
312.49568953477728
1001
GENIUS_GENOBJ-N-FIL_13
1002
{
1000
OWNER
1000
GEN
1002
}
1001
GENIUS_GENODEF_13
1002
{
1000
HIER
1070
     0
1002
}
1002
{
1000
MANEDIT
1070
     0
1002
}
1002
{
1000
NOSEL
1070
     0
1002
}
1002
{
1000
BEHIND
1070
     0
1002
}
1002
{
1000
OTHER
1070
     0
1002
}
1002
{
1000
REACTOR
1002
}
  0
LINE
  5
15575
  8
ﾁｭｳｼﾝｾﾝ
 10
416.57977541074479
 20
168.93641404048711
 30
0.0
 11
390.01577541074499
 21
168.93641404048711
 31
0.0
1001
GENIUS_GENODEF_13
1002
{
1000
HIER
1070
     0
1002
}
1002
{
1000
MANEDIT
1070
     0
1002
}
1002
{
1000
NOSEL
1070
     0
1002
}
1002
{
1000
BEHIND
1070
     0
1002
}
1002
{
1000
OTHER
1070
     0
1002
}
1002
{
1000
REACTOR
1002
}
1001
GENIUS_GENOBJ-N-CEN_13
1002
{
1000
OWNER
1000
GEN
1002
}
  0
ARC
  5
15576
  8
0
 10
403.1525421325876
 20
168.93641193004709
 30
0.0
 40
14.00000415934085
 50
208.8866351646578
 51
270.0
  0
CIRCLE
  5
15577
  8
0
 10
403.15253909481521
 20
168.93641324266369
 30
0.0
 40
5.4999999999999973
  0
LINE
  5
15578
  8
ﾁｭｳｼﾝｾﾝ
 10
403.15258892069608
 20
182.43641404048711
 30
0.0
 11
403.15258892069608
 21
155.799600530536
 31
0.0
1001
GENIUS_GENODEF_13
1002
{
1000
HIER
1070
     0
1002
}
1002
{
1000
MANEDIT
1070
     0
1002
}
1002
{
1000
NOSEL
1070
     0
1002
}
1002
{
1000
BEHIND
1070
     0
1002
}
1002
{
1000
OTHER
1070
     0
1002
}
1002
{
1000
REACTOR
1002
}
1001
GENIUS_GENOBJ-N-CEN_13
1002
{
1000
OWNER
1000
GEN
1002
}
  0
ARC
  5
15579
  8
0
  6
CONTINUOUS
 62
     7
 10
403.15253369952052
 20
168.93642259614299
 30
0.0
 40
12.0
 50
346.39101246739449
 51
132.4956895347776
  0
ARC
  5
1557A
  8
0
 10
419.67524346327519
 20
164.9364148383105
 30
0.0
 40
5.0
 50
166.39101246739449
 51
270.0
1001
GENIUS_GENODEF_13
1002
{
1000
HIER
1070
     0
1002
}
1002
{
1000
MANEDIT
1070
     0
1002
}
1002
{
1000
NOSEL
1070
     0
1002
}
1002
{
1000
BEHIND
1070
     0
1002
}
1002
{
1000
OTHER
1070
     0
1002
}
1002
{
1000
REACTOR
1002
}
1001
GENIUS_GENOBJ-N-FIL_13
1002
{
1000
OWNER
1000
GEN
1002
}
  0
ARC
  5
1557B
  8
0
  6
CONTINUOUS
 62
     7
 10
409.13132470020298
 20
182.69338658425309
 30
0.0
 40
3.0
 50
246.51018360552641
 51
315.00000000000063
1001
GENIUS_GENODEF_13
1002
{
1000
HIER
1070
     0
1002
}
1002
{
1000
MANEDIT
1070
     0
1002
}
1002
{
1000
NOSEL
1070
     0
1002
}
1002
{
1000
BEHIND
1070
     0
1002
}
1002
{
1000
OTHER
1070
     0
1002
}
1002
{
1000
REACTOR
1002
}
1001
GENIUS_GENOBJ-N-FIL_13
1002
{
1000
OWNER
1000
GEN
1002
}
  0
ARC
  5
1557C
  8
0
  6
CONTINUOUS
 62
     7
 10
416.90949866045293
 20
174.91521135839881
 30
0.0
 40
3.0
 50
135.0000000000006
 51
203.48980707174991
1001
GENIUS_GENODEF_13
1002
{
1000
HIER
1070
     0
1002
}
1002
{
1000
MANEDIT
1070
     0
1002
}
1002
{
1000
NOSEL
1070
     0
1002
}
1002
{
1000
BEHIND
1070
     0
1002
}
1002
{
1000
OTHER
1070
     0
1002
}
1002
{
1000
REACTOR
1002
}
1001
GENIUS_GENOBJ-N-FIL_13
1002
{
1000
OWNER
1000
GEN
1002
}
  0
LINE
  5
1557F
  8
0
 10
421.6169928435562
 20
190.9364195124445
 30
0.0
 11
388.1524727579822
 21
190.9364195124445
 31
0.0
  0
ARC
  5
15580
  8
AM_0
 10
387.15247311561029
 20
197.93640622098511
 30
0.0
 40
14.00000035762786
 50
180.0
 51
208.8866351646578
  0
CIRCLE
  5
15581
  8
0
 10
387.15250804393258
 20
197.93641951244459
 30
0.0
 40
4.0
  0
CIRCLE
  5
15582
  8
ｷｲﾛ
 10
387.15247311561029
 20
197.9364187605469
 30
0.0
 40
5.0
  0
ARC
  5
15583
  8
AM_0
 10
387.15247311561029
 20
197.93640622098511
 30
0.0
 40
9.0000003576278651
 50
180.0
 51
208.8866351646578
  0
ARC
  5
15584
  8
0
 10
381.15247275798203
 20
244.43641404048699
 30
0.0
 40
3.0
 50
90.0
 51
180.0
1001
GENIUS_GENOBJ-N-FIL_13
1002
{
1000
OWNER
1000
GEN
1002
}
1001
GENIUS_GENODEF_13
1002
{
1000
HIER
1070
     0
1002
}
1002
{
1000
MANEDIT
1070
     0
1002
}
1002
{
1000
NOSEL
1070
     0
1002
}
1002
{
1000
BEHIND
1070
     0
1002
}
1002
{
1000
OTHER
1070
     0
1002
}
1002
{
1000
REACTOR
1002
}
  0
ARC
  5
15585
  8
0
 10
382.65247275798191
 20
249.93641404048699
 30
0.0
 40
2.5
 50
270.0
 51
90.0
  0
LINE
  5
15586
  8
0
 10
382.6524727579822
 20
252.43641404048699
 30
0.0
 11
381.1524727579822
 21
252.43641404048699
 31
0.0
  0
LINE
  5
15587
  8
0
 10
382.6524727579822
 20
247.43641404048691
 30
0.0
 11
381.1524727579822
 21
247.43641404048691
 31
0.0
  0
ARC
  5
15588
  8
0
 10
381.15247275798203
 20
255.43641404048699
 30
0.0
 40
3.0
 50
180.0
 51
270.0
1001
GENIUS_GENOBJ-N-FIL_13
1002
{
1000
OWNER
1000
GEN
1002
}
1001
GENIUS_GENODEF_13
1002
{
1000
HIER
1070
     0
1002
}
1002
{
1000
MANEDIT
1070
     0
1002
}
1002
{
1000
NOSEL
1070
     0
1002
}
1002
{
1000
BEHIND
1070
     0
1002
}
1002
{
1000
OTHER
1070
     0
1002
}
1002
{
1000
REACTOR
1002
}
  0
LINE
  5
1558A
  8
AM_0
 10
179.4284513441151
 20
313.9362716430544
 30
0.0
 11
101.4284413901392
 21
312.57479088958831
 31
0.0
  0
LINE
  5
1558E
  8
AM_0
 10
96.045516870289021
 20
283.69841139670888
 30
0.0
 11
89.568460479847886
 21
283.93626973570582
 31
0.0
  0
LINE
  5
15590
  8
AM_0
 10
89.428441390139255
 20
293.93627128542659
 30
0.0
 11
99.428441390139355
 21
293.93627128542659
 31
0.0
  0
LINE
  5
15591
  8
AM_0
 10
99.428441390139355
 20
309.93627128542659
 30
0.0
 11
89.428441390139255
 21
309.93627128542659
 31
0.0
  0
LINE
  5
15592
  8
AM_0
 10
97.428450479847925
 20
286.20483373833417
 30
0.0
 11
89.568450479847897
 21
285.93626973570559
 31
0.0
  0
LINE
  5
15593
  8
AM_0
 10
89.428441390139255
 20
309.93627128542659
 30
0.0
 11
89.428441390139255
 21
293.93627128542659
 31
0.0
  0
ARC
  5
15594
  8
AM_0
 10
86.928820479848014
 20
279.05633973570559
 30
0.0
 40
0.5003520299999995
 50
92.33117
 51
180.00710999999771
  0
LINE
  5
15595
  8
AM_0
 10
86.428460479848013
 20
278.43626973570571
 30
0.0
 11
86.428460479848013
 21
279.0562597357054
 31
0.0
  0
LINE
  5
15596
  8
AM_0
 10
86.428460479848013
 20
278.43626973570571
 30
0.0
 11
86.428460479848013
 21
277.79626973570561
 31
0.0
  0
LINE
  5
15597
  8
AM_0
 10
88.928450479848152
 20
279.71626973570551
 30
0.0
 11
86.908460479847889
 21
279.55625973570568
 31
0.0
  0
ARC
  5
15598
  8
AM_0
 10
89.614180479848045
 20
284.93574973570549
 30
0.0
 40
1.000530599999998
 50
90.327200000001014
 51
267.38127000000111
  0
LINE
  5
1559A
  8
AM_0
 10
99.428441390139355
 20
291.43627128542653
 30
0.0
 11
99.428441390139355
 21
312.43627128542653
 31
0.0
  0
ARC
  5
1559B
  8
AM_0
 10
95.928460479847914
 20
288.899545592761
 30
0.0
 40
2.999999999999996
 50
330.80663173194762
 51
0.0
1001
GENIUS_GENOBJ-N-FIL_13
1002
{
1000
OWNER
1000
GEN
1002
}
1001
GENIUS_GENODEF_13
1002
{
1000
HIER
1070
     0
1002
}
1002
{
1000
MANEDIT
1070
     0
1002
}
1002
{
1000
NOSEL
1070
     0
1002
}
1002
{
1000
BEHIND
1070
     0
1002
}
1002
{
1000
OTHER
1070
     0
1002
}
1002
{
1000
REACTOR
1002
}
  0
LINE
  5
1559C
  8
AM_0
 10
97.428448900325066
 20
287.4362708532928
 30
0.0
 11
101.4284490195343
 21
287.4362708532928
 31
0.0
  0
LINE
  5
1559D
  8
AM_0
 10
99.428441390139355
 20
291.43627128542653
 30
0.0
 11
101.4284413901392
 21
291.43627128542653
 31
0.0
  0
LINE
  5
1559E
  8
AM_0
 10
98.928460479847885
 20
288.899545592761
 30
0.0
 11
98.928460479847885
 21
293.93627128542653
 31
0.0
  0
LINE
  5
1559F
  8
AM_0
 10
99.428441390139355
 20
312.43627128542653
 30
0.0
 11
101.4284413901392
 21
312.43627128542653
 31
0.0
  0
ARC
  5
155A0
  8
AM_0
 10
125.4286904798482
 20
312.82005773570529
 30
0.0
 40
1.000393499999997
 50
10.993529635258341
 51
179.0714379999965
  0
ARC
  5
155A1
  8
AM_0
 10
150.41841047984801
 20
249.92991973570531
 30
0.0
 40
64.00635100000008
 50
89.991012616410785
 51
98.280567367617166
  0
ARC
  5
155A2
  8
AM_0
 10
135.42885047984811
 20
314.1755797357057
 30
0.0
 40
1.000413999999999
 50
2.3310499999979508
 51
179.96048300000029
  0
LINE
  5
155A3
  8
AM_0
 10
134.39090638822751
 20
313.15012714502018
 30
0.0
 11
134.42845047984801
 21
314.21627573570549
 31
0.0
  0
LINE
  5
155A4
  8
AM_0
 10
136.4639451298049
 20
313.1863126005054
 30
0.0
 11
136.428420479848
 21
314.2162717357055
 31
0.0
  0
ARC
  5
155A5
  8
AM_0
 10
150.41841047984801
 20
249.92991973570531
 30
0.0
 40
64.00635100000008
 50
83.719456375074628
 51
89.991012616410785
  0
LINE
  5
155A6
  8
AM_0
 10
144.3859562433218
 20
313.66393416820603
 30
0.0
 11
144.4284504798481
 21
314.89626773570558
 31
0.0
  0
LINE
  5
155A7
  8
AM_0
 10
146.4554953509533
 20
313.82746357072028
 30
0.0
 11
146.42845047984801
 21
314.89627173570562
 31
0.0
  0
ARC
  5
155A8
  8
AM_0
 10
145.4290004798481
 20
314.8485267357056
 30
0.0
 40
1.0005847999999991
 50
2.7350400000044188
 51
179.5564910000007
  0
LINE
  5
155A9
  8
AM_0
 10
156.4707309205219
 20
313.67013636551218
 30
0.0
 11
156.4284504798479
 21
314.89626773570558
 31
0.0
  0
LINE
  5
155AA
  8
AM_0
 10
154.3880481307956
 20
313.832340557409
 30
0.0
 11
154.4284504798481
 21
314.89626773570558
 31
0.0
  0
ARC
  5
155AB
  8
AM_0
 10
155.42787047984811
 20
314.84784773570573
 30
0.0
 40
1.000603799999999
 50
0.4821899999981744
 51
177.2262829999969
  0
LINE
  5
155B0
  8
AM_0
 10
204.42144439084311
 20
317.70611251656931
 30
0.0
 11
204.42144439084311
 21
342.44615987422338
 31
0.0
  0
LINE
  5
155B1
  8
0
 10
179.4284513441151
 20
313.9362716430544
 30
0.0
 11
201.52614288095049
 21
314.70794003551202
 31
0.0
  0
ARC
  5
155B2
  8
AM_0
 10
165.4280204798481
 20
314.17490473570558
 30
0.0
 40
1.0004281999999971
 50
0.078219999997982
 51
177.63024800000301
  0
LINE
  5
155B3
  8
AM_0
 10
166.4462906134724
 20
313.70966260168211
 30
0.0
 11
166.4284504798479
 21
314.2162717357055
 31
0.0
  0
LINE
  5
155B4
  8
AM_0
 10
164.40975776726691
 20
313.67411436653703
 30
0.0
 11
164.42845047984801
 21
314.2162717357055
 31
0.0
  0
ARC
  5
155C2
  8
0
 10
201.42144439084311
 20
317.70611251656931
 30
0.0
 40
3.0
 50
271.9999999999971
 51
0.0
1001
GENIUS_GENODEF_13
1002
{
1000
HIER
1070
     0
1002
}
1002
{
1000
MANEDIT
1070
     0
1002
}
1002
{
1000
NOSEL
1070
     0
1002
}
1002
{
1000
BEHIND
1070
     0
1002
}
1002
{
1000
OTHER
1070
     0
1002
}
1002
{
1000
REACTOR
1002
}
1001
GENIUS_GENOBJ-N-FIL_13
1002
{
1000
OWNER
1000
GEN
1002
}
  0
ARC
  5
155C9
  8
0
 10
206.42144439084319
 20
342.44615987422338
 30
0.0
 40
1.9999999999999989
 50
92.000000000003624
 51
180.0
1001
GENIUS_GENOBJ-N-FIL_13
1002
{
1000
OWNER
1000
GEN
1002
}
1001
GENIUS_GENODEF_13
1002
{
1000
HIER
1070
     0
1002
}
1002
{
1000
MANEDIT
1070
     0
1002
}
1002
{
1000
NOSEL
1070
     0
1002
}
1002
{
1000
BEHIND
1070
     0
1002
}
1002
{
1000
OTHER
1070
     0
1002
}
1002
{
1000
REACTOR
1002
}
  0
LINE
  5
155CC
  8
0
 10
206.35164539743801
 20
344.44494152826172
 30
0.0
 11
220.42144439084311
 21
344.93626973570548
 31
0.0
  0
ARC
  5
155CF
  8
0
 10
391.66844313660539
 20
318.40182675466338
 30
0.0
 40
5.0
 50
47.50431046522236
 51
151.11336483534211
1001
GENIUS_GENOBJ-N-FIL_13
1002
{
1000
OWNER
1000
GEN
1002
}
1001
GENIUS_GENODEF_13
1002
{
1000
HIER
1070
     0
1002
}
1002
{
1000
MANEDIT
1070
     0
1002
}
1002
{
1000
NOSEL
1070
     0
1002
}
1002
{
1000
BEHIND
1070
     0
1002
}
1002
{
1000
OTHER
1070
     0
1002
}
1002
{
1000
REACTOR
1002
}
  0
LINE
  5
155D0
  8
ﾁｭｳｼﾝｾﾝ
 10
403.15259145217351
 20
317.43640988114601
 30
0.0
 11
403.15259245114322
 21
344.0732233910968
 31
0.0
1001
GENIUS_GENODEF_13
1002
{
1000
HIER
1070
     0
1002
}
1002
{
1000
MANEDIT
1070
     0
1002
}
1002
{
1000
NOSEL
1070
     0
1002
}
1002
{
1000
BEHIND
1070
     0
1002
}
1002
{
1000
OTHER
1070
     0
1002
}
1002
{
1000
REACTOR
1002
}
1001
GENIUS_GENOBJ-N-CEN_13
1002
{
1000
OWNER
1000
GEN
1002
}
  0
LINE
  5
155D1
  8
0
 10
390.89442464656059
 20
337.69950531749191
 30
0.0
 11
374.8943915290763
 21
308.69950919002952
 31
0.0
  0
ARC
  5
155D2
  8
0
  6
CONTINUOUS
 62
     7
 10
403.15253369952052
 20
330.9364054848308
 30
0.0
 40
12.0
 50
227.5043104652224
 51
13.6089875326055
  0
LINE
  5
155D3
  8
0
 10
421.6169928435562
 20
308.93641404048702
 30
0.0
 11
388.1524727579822
 21
308.93641404048668
 31
0.0
  0
CIRCLE
  5
155D4
  8
0
 10
387.15250804393258
 20
301.93641404048702
 30
0.0
 40
4.0
  0
CIRCLE
  5
155D5
  8
ｷｲﾛ
 10
387.15247311561029
 20
301.93641479238448
 30
0.0
 40
5.0
  0
ARC
  5
155D6
  8
0
 10
388.15247275798203
 20
298.9364140404868
 30
0.0
 40
10.0
 50
90.0
 51
180.0
1001
GENIUS_GENODEF_13
1002
{
1000
HIER
1070
     0
1002
}
1002
{
1000
MANEDIT
1070
     0
1002
}
1002
{
1000
NOSEL
1070
     0
1002
}
1002
{
1000
BEHIND
1070
     0
1002
}
1002
{
1000
OTHER
1070
     0
1002
}
1002
{
1000
REACTOR
1002
}
1001
GENIUS_GENOBJ-N-FIL_13
1002
{
1000
OWNER
1000
GEN
1002
}
  0
ARC
  5
155D7
  8
AM_0
 10
387.15247311561029
 20
301.93641479238448
 30
0.0
 40
14.00000035762786
 50
151.11336483534211
 51
180.0
  0
LINE
  5
155D8
  8
0
 10
387.29055696753289
 20
320.81721754926423
 30
0.0
 11
379.2722776981488
 21
306.28411839542838
 31
0.0
  0
ARC
  5
155D9
  8
AM_0
 10
387.15247311561029
 20
301.93641479238448
 30
0.0
 40
9.0000003576278651
 50
151.11336483534211
 51
180.0
  0
ARC
  5
155DA
  8
0
  6
CONTINUOUS
 62
     7
 10
409.13132470020298
 20
317.17944149672093
 30
0.0
 40
3.0
 50
44.999999999999417
 51
113.48981639447349
1001
GENIUS_GENODEF_13
1002
{
1000
HIER
1070
     0
1002
}
1002
{
1000
MANEDIT
1070
     0
1002
}
1002
{
1000
NOSEL
1070
     0
1002
}
1002
{
1000
BEHIND
1070
     0
1002
}
1002
{
1000
OTHER
1070
     0
1002
}
1002
{
1000
REACTOR
1002
}
1001
GENIUS_GENOBJ-N-FIL_13
1002
{
1000
OWNER
1000
GEN
1002
}
  0
LINE
  5
155DB
  8
0
 10
411.25264504376281
 20
319.30076184028042
 30
0.0
 11
423.3847597965227
 21
307.16864708752053
 31
0.0
  0
ARC
  5
155DC
  8
0
 10
403.1525421325876
 20
330.93640908332281
 30
0.0
 40
14.00000415934085
 50
90.0
 51
151.11336483534211
  0
LINE
  5
155DD
  8
ﾁｭｳｼﾝｾﾝ
 10
416.57977844851729
 20
330.93640937758113
 30
0.0
 11
390.01577844851749
 21
330.93641037382059
 31
0.0
1001
GENIUS_GENODEF_13
1002
{
1000
HIER
1070
     0
1002
}
1002
{
1000
MANEDIT
1070
     0
1002
}
1002
{
1000
NOSEL
1070
     0
1002
}
1002
{
1000
BEHIND
1070
     0
1002
}
1002
{
1000
OTHER
1070
     0
1002
}
1002
{
1000
REACTOR
1002
}
1001
GENIUS_GENOBJ-N-CEN_13
1002
{
1000
OWNER
1000
GEN
1002
}
  0
CIRCLE
  5
155DE
  8
0
 10
403.1525360570426
 20
330.93640473293328
 30
0.0
 40
5.4999999999999973
  0
LINE
  5
155DF
  8
AM_7
  6
AM_ISO08W050X2
 10
403.15259195846852
 20
330.93640988114578
 30
0.0
 11
403.15259195846852
 21
330.93640988114578
 31
0.0
1001
GENIUS_GENODEF_13
1002
{
1000
HIER
1070
     0
1002
}
1002
{
1000
MANEDIT
1070
     0
1002
}
1002
{
1000
NOSEL
1070
     0
1002
}
1002
{
1000
BEHIND
1070
     0
1002
}
1002
{
1000
OTHER
1070
     0
1002
}
1002
{
1000
REACTOR
1002
}
1001
GENIUS_GENOBJ-N-CEN_13
1002
{
1000
OWNER
1000
GEN
1002
}
  0
ARC
  5
155E0
  8
0
  6
CONTINUOUS
 62
     7
 10
416.90949866045293
 20
324.95761672257498
 30
0.0
 40
3.0
 50
156.51019292825009
 51
224.9999999999994
1001
GENIUS_GENODEF_13
1002
{
1000
HIER
1070
     0
1002
}
1002
{
1000
MANEDIT
1070
     0
1002
}
1002
{
1000
NOSEL
1070
     0
1002
}
1002
{
1000
BEHIND
1070
     0
1002
}
1002
{
1000
OTHER
1070
     0
1002
}
1002
{
1000
REACTOR
1002
}
1001
GENIUS_GENOBJ-N-FIL_13
1002
{
1000
OWNER
1000
GEN
1002
}
  0
ARC
  5
155E1
  8
0
 10
419.67524346327519
 20
334.93641324266349
 30
0.0
 40
5.0
 50
90.0
 51
193.60898753260551
1001
GENIUS_GENODEF_13
1002
{
1000
HIER
1070
     0
1002
}
1002
{
1000
MANEDIT
1070
     0
1002
}
1002
{
1000
NOSEL
1070
     0
1002
}
1002
{
1000
BEHIND
1070
     0
1002
}
1002
{
1000
OTHER
1070
     0
1002
}
1002
{
1000
REACTOR
1002
}
1001
GENIUS_GENOBJ-N-FIL_13
1002
{
1000
OWNER
1000
GEN
1002
}
  0
LINE
  5
155F9
  8
AM_0
 10
630.1525409723605
 20
276.93638404048681
 30
0.0
 11
630.1525409723605
 21
282.30638404048682
 31
0.0
  0
LINE
  5
155FA
  8
AM_0
 10
615.15254097236061
 20
276.93638404048681
 30
0.0
 11
615.15254097236061
 21
282.30638404048682
 31
0.0
  0
LINE
  5
155FC
  8
AM_0
 10
593.65254097236061
 20
189.4363840404867
 30
0.0
 11
593.65254122860824
 21
312.9363843407944
 31
0.0
  0
LINE
  5
155FD
  8
AM_0
 10
739.65254097236027
 20
307.35636404048682
 30
0.0
 11
739.65254097236027
 21
192.5063640404868
 31
0.0
  0
LINE
  5
155FE
  8
AM_0
 10
745.6525409723605
 20
297.95597404048681
 30
0.0
 11
745.6525409723605
 21
254.9363840404869
 31
0.0
  0
LINE
  5
15600
  8
AM_0
 10
544.15254097236107
 20
301.93641479238443
 30
0.0
 11
544.15254097236095
 21
197.93640622098499
 31
0.0
  0
LINE
  5
15601
  8
AM_0
 10
549.15254097236129
 20
301.93641479238443
 30
0.0
 11
549.15254097236129
 21
197.93640622098499
 31
0.0
  0
LINE
  5
15602
  8
ﾁｭｳｼﾝｾﾝ1
 10
438.15255703220907
 20
349.93641677646548
 30
0.0
 11
438.1525570322093
 21
149.93641130450831
 31
0.0
  0
ARC
  5
15603
  8
AM_0
 10
333.5311065626592
 20
249.93641404048699
 30
0.0
 40
224.82253876479601
 50
350.95944604092699
 51
9.0405539590730442
  0
LINE
  5
15604
  8
AM_0
 10
555.24201779811051
 20
283.53031309067779
 30
0.0
 11
555.2420177981096
 21
216.7619929400025
 31
0.0
  0
LINE
  5
15605
  8
AM_0
 10
573.65254097236061
 20
311.43640858837023
 30
0.0
 11
573.65254097236061
 21
188.43642858837021
 31
0.0
  0
LINE
  5
15606
  8
AM_0
 10
584.6525409723605
 20
185.93641858837009
 30
0.0
 11
584.6525409723605
 21
313.93640858836972
 31
0.0
  0
LINE
  5
15608
  8
AM_0
 10
631.15254097236061
 20
275.9363840404867
 30
0.0
 11
732.10252097236071
 21
275.9363840404867
 31
0.0
  0
LINE
  5
15609
  8
AM_0
 10
596.72775488583522
 20
273.93638404048681
 30
0.0
 11
732.10252097236071
 21
273.9363840404867
 31
0.0
  0
LINE
  5
1560A
  8
AM_0
 10
733.19252097236074
 20
273.5063640404868
 30
0.0
 11
595.80778482380481
 21
273.5063640404868
 31
0.0
  0
LINE
  5
1560B
  8
AM_0
 10
733.19252097236074
 20
276.42637404048691
 30
0.0
 11
630.29237250054825
 21
276.42637404048691
 31
0.0
  0
LINE
  5
1560C
  8
AM_0
 10
733.32253097236071
 20
263.6263840404867
 30
0.0
 11
660.92251430264491
 21
263.6263840404867
 31
0.0
  0
LINE
  5
1560D
  8
AM_0
 10
662.21250877791385
 20
263.93638404048681
 30
0.0
 11
732.10252097236071
 21
263.93638404048681
 31
0.0
  0
LINE
  5
1560E
  8
AM_0
 10
662.21250877791385
 20
265.93638404048681
 30
0.0
 11
732.10252097236071
 21
265.93638404048681
 31
0.0
  0
LINE
  5
1560F
  8
AM_0
 10
733.32253097236071
 20
266.28636404048677
 30
0.0
 11
660.92251430264491
 21
266.28636404048677
 31
0.0
  0
LINE
  5
15610
  8
AM_0
 10
692.6525409723605
 20
203.58637404048679
 30
0.0
 11
729.6525409723605
 21
205.73237587991699
 31
0.0
  0
LINE
  5
15612
  8
AM_0
 10
693.65254097236027
 20
203.59644404048669
 30
0.0
 11
599.83253097236025
 21
203.59644404048669
 31
0.0
  0
LINE
  5
15613
  8
AM_0
 10
631.14158668553307
 20
223.93638404048679
 30
0.0
 11
723.10252097236071
 21
223.9363840404867
 31
0.0
  0
LINE
  5
15614
  8
AM_0
 10
596.72775488583522
 20
225.93638404048679
 30
0.0
 11
723.10252097236071
 21
225.9363840404867
 31
0.0
  0
LINE
  5
15615
  8
AM_0
 10
724.19252097236028
 20
223.4463640404868
 30
0.0
 11
630.2923191442253
 21
223.4463640404868
 31
0.0
  0
LINE
  5
15616
  8
AM_0
 10
724.19252097236028
 20
226.3763840404867
 30
0.0
 11
595.63775493819526
 21
226.37638404048681
 31
0.0
  0
LINE
  5
15617
  8
AM_0
 10
723.97252097236071
 20
213.2163840404869
 30
0.0
 11
659.6525409723605
 21
213.2163840404869
 31
0.0
  0
LINE
  5
15618
  8
AM_0
 10
714.65254097236027
 20
184.0163740404866
 30
0.0
 11
673.65254097236073
 21
184.0163740404866
 31
0.0
  0
LINE
  5
15619
  8
AM_0
 10
714.65254097236027
 20
184.69636404048671
 30
0.0
 11
673.65254097236073
 21
184.69636404048671
 31
0.0
  0
LINE
  5
1561A
  8
AM_0
 10
714.65254097236027
 20
186.04637404048671
 30
0.0
 11
673.65254097236073
 21
186.04637404048671
 31
0.0
  0
LINE
  5
1561B
  8
AM_0
 10
714.65254097236027
 20
188.07636404048679
 30
0.0
 11
659.6525409723605
 21
188.07636404048679
 31
0.0
  0
LINE
  5
1561C
  8
AM_0
 10
659.6525409723605
 20
213.93638404048679
 30
0.0
 11
723.10252097236071
 21
213.93638404048679
 31
0.0
  0
LINE
  5
1561D
  8
AM_0
 10
733.39253097236053
 20
253.67637404048679
 30
0.0
 11
660.92251430264491
 21
253.67637404048679
 31
0.0
  0
LINE
  5
1561E
  8
AM_0
 10
662.21250877791385
 20
253.93638404048679
 30
0.0
 11
732.10252097236071
 21
253.93638404048679
 31
0.0
  0
LINE
  5
1561F
  8
AM_0
 10
662.21250877791385
 20
255.93638404048679
 30
0.0
 11
732.10252097236071
 21
255.93638404048679
 31
0.0
  0
LINE
  5
15620
  8
AM_0
 10
733.39253097236053
 20
256.21638404048679
 30
0.0
 11
660.92251430264491
 21
256.21638404048679
 31
0.0
  0
LINE
  5
15621
  8
AM_0
 10
662.21078102874765
 20
233.93638404048679
 30
0.0
 11
732.09251097236051
 21
233.93638404048679
 31
0.0
  0
LINE
  5
15622
  8
AM_0
 10
662.20985752898105
 20
235.93638404048679
 30
0.0
 11
732.09251097236051
 21
235.93638404048679
 31
0.0
  0
LINE
  5
15623
  8
AM_0
 10
662.21251218335055
 20
243.93638404048679
 30
0.0
 11
732.09251097236051
 21
243.93638404048679
 31
0.0
  0
LINE
  5
15624
  8
AM_0
 10
662.21251218335215
 20
245.93638404048679
 30
0.0
 11
732.09251097236051
 21
245.93638404048679
 31
0.0
  0
LINE
  5
15625
  8
AM_0
 10
723.97252097236071
 20
216.56639404048681
 30
0.0
 11
659.6525409723605
 21
216.56639404048681
 31
0.0
  0
LINE
  5
15626
  8
AM_0
 10
733.32253097236071
 20
233.59638404048681
 30
0.0
 11
661.11732770482365
 21
233.59638404048681
 31
0.0
  0
LINE
  5
15627
  8
AM_0
 10
733.32253097236071
 20
236.2563640404868
 30
0.0
 11
661.11732770482365
 21
236.2563640404868
 31
0.0
  0
LINE
  5
15628
  8
AM_0
 10
733.38252097236045
 20
243.6663640404868
 30
0.0
 11
661.11732770482365
 21
243.6663640404868
 31
0.0
  0
LINE
  5
15629
  8
AM_0
 10
733.38252097236045
 20
246.1963640404868
 30
0.0
 11
661.11732770482365
 21
246.1963640404868
 31
0.0
  0
LINE
  5
1562A
  8
AM_0
 10
659.6525409723605
 20
215.93638404048679
 30
0.0
 11
723.10252097236071
 21
215.93638404048679
 31
0.0
  0
LINE
  5
15635
  8
AM_0
 10
570.65254097236073
 20
188.43642858837021
 30
0.0
 11
545.90061433072333
 21
188.43642858837049
 31
0.0
  0
ARC
  5
15636
  8
0
 10
534.15254097236095
 20
200.93641951244459
 30
0.0
 40
10.0
 50
270.0
 51
0.0
1001
GENIUS_GENODEF_13
1002
{
1000
HIER
1070
     0
1002
}
1002
{
1000
MANEDIT
1070
     0
1002
}
1002
{
1000
NOSEL
1070
     0
1002
}
1002
{
1000
BEHIND
1070
     0
1002
}
1002
{
1000
OTHER
1070
     0
1002
}
1002
{
1000
REACTOR
1002
}
1001
GENIUS_GENOBJ-N-FIL_13
1002
{
1000
OWNER
1000
GEN
1002
}
  0
POLYLINE
  5
15637
  8
AM_0
 66
     1
 10
0.0
 20
0.0
 30
0.0
 70
     1
  0
VERTEX
  5
15638
  8
AM_0
 10
469.70913237095829
 20
195.43641404048699
 30
0.0
  0
VERTEX
  5
15639
  8
AM_0
 10
468.26575669798439
 20
192.93641404048699
 30
0.0
  0
VERTEX
  5
1563A
  8
AM_0
 10
469.70913237095829
 20
190.43641404048699
 30
0.0
  0
VERTEX
  5
1563B
  8
AM_0
 10
472.5958837169066
 20
190.43641404048699
 30
0.0
  0
VERTEX
  5
1563C
  8
AM_0
 10
474.03925938988061
 20
192.93641404048699
 30
0.0
  0
VERTEX
  5
1563D
  8
AM_0
 10
472.5958837169066
 20
195.43641404048699
 30
0.0
  0
SEQEND
  5
1563E
  8
AM_0
  0
CIRCLE
  5
1563F
  8
AM_0
 10
471.15250804393258
 20
192.93641404048699
 30
0.0
 40
5.0
  0
ARC
  5
15640
  8
0
 10
484.82730237511009
 20
195.93641404048699
 30
0.0
 40
5.0
 50
192.37362511619239
 51
270.0
1001
GENIUS_GENODEF_13
1002
{
1000
HIER
1070
     0
1002
}
1002
{
1000
MANEDIT
1070
     0
1002
}
1002
{
1000
NOSEL
1070
     0
1002
}
1002
{
1000
BEHIND
1070
     0
1002
}
1002
{
1000
OTHER
1070
     0
1002
}
1002
{
1000
REACTOR
1002
}
1001
GENIUS_GENOBJ-N-FIL_13
1002
{
1000
OWNER
1000
GEN
1002
}
  0
ARC
  5
15641
  8
0
 10
457.47771371275519
 20
195.93641404048699
 30
0.0
 40
5.0
 50
270.0
 51
347.62637488380761
1001
GENIUS_GENOBJ-N-FIL_13
1002
{
1000
OWNER
1000
GEN
1002
}
1001
GENIUS_GENODEF_13
1002
{
1000
HIER
1070
     0
1002
}
1002
{
1000
MANEDIT
1070
     0
1002
}
1002
{
1000
NOSEL
1070
     0
1002
}
1002
{
1000
BEHIND
1070
     0
1002
}
1002
{
1000
OTHER
1070
     0
1002
}
1002
{
1000
REACTOR
1002
}
  0
ARC
  5
15642
  8
0
 10
497.15248698085429
 20
190.93641404048699
 30
0.0
 40
2.5
 50
44.999999999999417
 51
224.9999999999994
  0
CIRCLE
  5
15643
  8
AM_0
 10
471.15250804393258
 20
192.93641404048699
 30
0.0
 40
6.0
  0
LINE
  5
15644
  8
0
 10
531.41058908378284
 20
162.17331569587739
 30
0.0
 11
547.41062220126685
 21
191.1733118233401
 31
0.0
  0
LINE
  5
15645
  8
0
 10
511.05236868658062
 20
180.57206624069349
 30
0.0
 11
498.92025393382067
 21
192.70418099345341
 31
0.0
  0
LINE
  5
15646
  8
0
 10
535.01446354859775
 20
179.05561576331809
 30
0.0
 11
543.03273603219429
 21
193.58870261794129
 31
0.0
  0
ARC
  5
1564C
  8
0
 10
519.15250416855565
 20
168.9364189976512
 30
0.0
 40
12.0
 50
47.504389781222649
 51
193.60897505411901
  0
ARC
  5
1564D
  8
0
 10
519.15250416855542
 20
168.936411930047
 30
0.0
 40
14.00000415934085
 50
270.0
 51
331.11336483534222
  0
LINE
  5
1564E
  8
ﾁｭｳｼﾝｾﾝ
 10
505.72537054216042
 20
168.93641404048711
 30
0.0
 11
532.28937054216021
 21
168.93641404048711
 31
0.0
1001
GENIUS_GENODEF_13
1002
{
1000
HIER
1070
     0
1002
}
1002
{
1000
MANEDIT
1070
     0
1002
}
1002
{
1000
NOSEL
1070
     0
1002
}
1002
{
1000
BEHIND
1070
     0
1002
}
1002
{
1000
OTHER
1070
     0
1002
}
1002
{
1000
REACTOR
1002
}
1001
GENIUS_GENOBJ-N-CEN_13
1002
{
1000
OWNER
1000
GEN
1002
}
  0
CIRCLE
  5
1564F
  8
0
 10
519.15250720632832
 20
168.9364132426636
 30
0.0
 40
5.4999999999999973
  0
LINE
  5
15650
  8
ﾁｭｳｼﾝｾﾝ
 10
519.15255703220873
 20
182.43641404048711
 30
0.0
 11
519.15255703220873
 21
155.799600530536
 31
0.0
1001
GENIUS_GENODEF_13
1002
{
1000
HIER
1070
     0
1002
}
1002
{
1000
MANEDIT
1070
     0
1002
}
1002
{
1000
NOSEL
1070
     0
1002
}
1002
{
1000
BEHIND
1070
     0
1002
}
1002
{
1000
OTHER
1070
     0
1002
}
1002
{
1000
REACTOR
1002
}
1001
GENIUS_GENOBJ-N-CEN_13
1002
{
1000
OWNER
1000
GEN
1002
}
  0
ARC
  5
15651
  8
0
 10
502.62979353363681
 20
164.93641483831021
 30
0.0
 40
5.0
 50
270.0
 51
13.60897505411906
1001
GENIUS_GENOBJ-N-FIL_13
1002
{
1000
OWNER
1000
GEN
1002
}
1001
GENIUS_GENODEF_13
1002
{
1000
HIER
1070
     0
1002
}
1002
{
1000
MANEDIT
1070
     0
1002
}
1002
{
1000
NOSEL
1070
     0
1002
}
1002
{
1000
BEHIND
1070
     0
1002
}
1002
{
1000
OTHER
1070
     0
1002
}
1002
{
1000
REACTOR
1002
}
  0
LINE
  5
15652
  8
AM_7
  6
AM_ISO08W050X2
 10
519.15250720632832
 20
168.9364132426636
 30
0.0
 11
519.15250720632832
 21
168.9364132426636
 31
0.0
1001
GENIUS_GENODEF_13
1002
{
1000
HIER
1070
     0
1002
}
1002
{
1000
MANEDIT
1070
     0
1002
}
1002
{
1000
NOSEL
1070
     0
1002
}
1002
{
1000
BEHIND
1070
     0
1002
}
1002
{
1000
OTHER
1070
     0
1002
}
1002
{
1000
REACTOR
1002
}
1001
GENIUS_GENOBJ-N-CEN_13
1002
{
1000
OWNER
1000
GEN
1002
}
  0
LINE
  5
15653
  8
AM_7
  6
AM_ISO08W050X2
 10
519.15255703220885
 20
168.93641404048711
 30
0.0
 11
519.15255703220885
 21
168.93641404048711
 31
0.0
1001
GENIUS_GENODEF_13
1002
{
1000
HIER
1070
     0
1002
}
1002
{
1000
MANEDIT
1070
     0
1002
}
1002
{
1000
NOSEL
1070
     0
1002
}
1002
{
1000
BEHIND
1070
     0
1002
}
1002
{
1000
OTHER
1070
     0
1002
}
1002
{
1000
REACTOR
1002
}
1001
GENIUS_GENOBJ-N-CEN_13
1002
{
1000
OWNER
1000
GEN
1002
}
  0
LINE
  5
15654
  8
0
 10
507.51683541345
 20
177.03653170195849
 30
0.0
 11
495.38472002788779
 21
189.1686470875205
 31
0.0
  0
ARC
  5
15655
  8
0
  6
CONTINUOUS
 62
     7
 10
505.39551506989028
 20
174.91521135839881
 30
0.0
 40
3.0
 50
336.51019292825021
 51
44.999999999999417
1001
GENIUS_GENODEF_13
1002
{
1000
HIER
1070
     0
1002
}
1002
{
1000
MANEDIT
1070
     0
1002
}
1002
{
1000
NOSEL
1070
     0
1002
}
1002
{
1000
BEHIND
1070
     0
1002
}
1002
{
1000
OTHER
1070
     0
1002
}
1002
{
1000
REACTOR
1002
}
1001
GENIUS_GENOBJ-N-FIL_13
1002
{
1000
OWNER
1000
GEN
1002
}
  0
ARC
  5
15656
  8
0
  6
CONTINUOUS
 62
     7
 10
513.17368903014005
 20
182.69338658425309
 30
0.0
 40
3.0
 50
224.9999999999994
 51
293.48981639447351
1001
GENIUS_GENODEF_13
1002
{
1000
HIER
1070
     0
1002
}
1002
{
1000
MANEDIT
1070
     0
1002
}
1002
{
1000
NOSEL
1070
     0
1002
}
1002
{
1000
BEHIND
1070
     0
1002
}
1002
{
1000
OTHER
1070
     0
1002
}
1002
{
1000
REACTOR
1002
}
1001
GENIUS_GENOBJ-N-FIL_13
1002
{
1000
OWNER
1000
GEN
1002
}
  0
ARC
  5
15657
  8
0
 10
530.63657737952531
 20
181.4710136255236
 30
0.0
 40
5.0
 50
227.50438978122301
 51
331.11336483534222
1001
GENIUS_GENOBJ-N-FIL_13
1002
{
1000
OWNER
1000
GEN
1002
}
1001
GENIUS_GENODEF_13
1002
{
1000
HIER
1070
     0
1002
}
1002
{
1000
MANEDIT
1070
     0
1002
}
1002
{
1000
NOSEL
1070
     0
1002
}
1002
{
1000
BEHIND
1070
     0
1002
}
1002
{
1000
OTHER
1070
     0
1002
}
1002
{
1000
REACTOR
1002
}
  0
LINE
  5
15658
  8
0
 10
494.65248698085412
 20
190.93641404048699
 30
0.0
 11
484.82730237511009
 21
190.93641404048699
 31
0.0
  0
LINE
  5
15659
  8
0
 10
457.47771371275519
 20
190.93641404048699
 30
0.0
 11
427.6525267494892
 21
190.93641404048699
 31
0.0
  0
ARC
  5
1565A
  8
0
 10
471.15250804393258
 20
192.93641404048699
 30
0.0
 40
9.0
 50
12.373625116192381
 51
90.0
  0
ARC
  5
1565B
  8
0
 10
471.15250804393258
 20
192.93641404048699
 30
0.0
 40
9.0
 50
90.0
 51
167.62637488380761
  0
LINE
  5
1565C
  8
AM_0
 10
442.1525571514187
 20
264.393232098287
 30
0.0
 11
442.1525571514187
 21
268.23640237883768
 31
0.0
  0
LINE
  5
1565D
  8
AM_0
 10
434.15255691300013
 20
264.393232098287
 30
0.0
 11
434.15255691300013
 21
268.23640237883768
 31
0.0
  0
LINE
  5
1565E
  8
AM_0
 10
442.1525571514187
 20
268.23640237883768
 30
0.0
 11
434.15255691300013
 21
268.23640237883768
 31
0.0
  0
LINE
  5
1565F
  8
0
 10
534.15254097236095
 20
190.9364195124445
 30
0.0
 11
500.68802088678677
 21
190.9364195124445
 31
0.0
  0
ARC
  5
15660
  8
AM_0
 10
552.58100661867275
 20
214.9572281958356
 30
0.0
 40
2.999999999999996
 50
270.0
 51
353.33928567968309
1001
GENIUS_GENODEF_13
1002
{
1000
HIER
1070
     0
1002
}
1002
{
1000
MANEDIT
1070
     0
1002
}
1002
{
1000
NOSEL
1070
     0
1002
}
1002
{
1000
BEHIND
1070
     0
1002
}
1002
{
1000
OTHER
1070
     0
1002
}
1002
{
1000
REACTOR
1002
}
1001
GENIUS_GENOBJ-N-FIL_13
1002
{
1000
OWNER
1000
GEN
1002
}
  0
ARC
  5
15661
  8
AM_0
 10
535.15254061473286
 20
197.93640622098511
 30
0.0
 40
9.0000003576278651
 50
331.11336483534222
 51
0.0
  0
CIRCLE
  5
15662
  8
0
 10
535.15250804393247
 20
197.93641404048699
 30
0.0
 40
4.0
  0
CIRCLE
  5
15663
  8
ｷｲﾛ
 10
535.15247311561029
 20
197.9364147923844
 30
0.0
 40
5.0
  0
ARC
  5
15664
  8
AM_0
 10
535.15254061473286
 20
197.93640622098511
 30
0.0
 40
14.00000035762786
 50
331.11336483534222
 51
0.0
  0
LINE
  5
15665
  8
AM_0
 10
552.58100661867275
 20
211.9572281958356
 30
0.0
 11
549.15254097236129
 21
211.9572281958358
 31
0.0
  0
ARC
  5
15666
  8
0
 10
541.15254097236095
 20
244.43641404048699
 30
0.0
 40
3.0
 50
0.0
 51
90.0
1001
GENIUS_GENOBJ-N-FIL_13
1002
{
1000
OWNER
1000
GEN
1002
}
1001
GENIUS_GENODEF_13
1002
{
1000
HIER
1070
     0
1002
}
1002
{
1000
MANEDIT
1070
     0
1002
}
1002
{
1000
NOSEL
1070
     0
1002
}
1002
{
1000
BEHIND
1070
     0
1002
}
1002
{
1000
OTHER
1070
     0
1002
}
1002
{
1000
REACTOR
1002
}
  0
ARC
  5
15667
  8
0
 10
541.15254097236095
 20
255.43641404048699
 30
0.0
 40
3.0
 50
270.0
 51
0.0
1001
GENIUS_GENOBJ-N-FIL_13
1002
{
1000
OWNER
1000
GEN
1002
}
1001
GENIUS_GENODEF_13
1002
{
1000
HIER
1070
     0
1002
}
1002
{
1000
MANEDIT
1070
     0
1002
}
1002
{
1000
NOSEL
1070
     0
1002
}
1002
{
1000
BEHIND
1070
     0
1002
}
1002
{
1000
OTHER
1070
     0
1002
}
1002
{
1000
REACTOR
1002
}
  0
LINE
  5
15668
  8
0
 10
539.65254097236107
 20
252.43641404048699
 30
0.0
 11
541.15254097236129
 21
252.43641404048699
 31
0.0
  0
LINE
  5
15669
  8
0
 10
539.65254097236107
 20
247.43641404048691
 30
0.0
 11
541.15254097236129
 21
247.43641404048691
 31
0.0
  0
ARC
  5
1566A
  8
0
 10
539.65254097236107
 20
249.93641404048699
 30
0.0
 40
2.5
 50
90.0
 51
270.0
  0
LINE
  5
1566B
  8
AM_0
 10
597.89253097236065
 20
189.57644404048679
 30
0.0
 11
595.15672097236063
 21
199.77644404048681
 31
0.0
  0
LINE
  5
1566C
  8
AM_0
 10
659.6525409723605
 20
188.0764540404866
 30
0.0
 11
599.83253097236025
 21
188.0764540404866
 31
0.0
  0
LINE
  5
1566D
  8
AM_0
 10
625.84854097236075
 20
149.9364140404868
 30
0.0
 11
661.45654097236047
 21
149.93641404048671
 31
0.0
  0
LINE
  5
1566E
  8
AM_0
 10
612.15254097236073
 20
169.4364140404868
 30
0.0
 11
669.65254097236073
 21
169.4364140404868
 31
0.0
  0
LINE
  5
1566F
  8
AM_0
 10
614.65254097236073
 20
152.93641404048671
 30
0.0
 11
689.65254097236073
 21
152.93641404048671
 31
0.0
  0
LINE
  5
15670
  8
AM_0
 10
692.15254097236061
 20
172.9364140404866
 30
0.0
 11
612.15254097236073
 21
172.9364140404866
 31
0.0
  0
LINE
  5
15671
  8
AM_0
 10
612.15254097236073
 20
176.43641404048671
 30
0.0
 11
692.15254097236061
 21
176.43641404048671
 31
0.0
  0
ARC
  5
15672
  8
AM_0
 10
592.6525409723605
 20
186.9363840404869
 30
0.0
 40
0.9999999999999998
 50
270.00000299999761
 51
0.000010000000991
  0
LINE
  5
15673
  8
0
  6
CONTINUOUS
 62
     7
 10
593.65260256695922
 20
185.93638310526919
 30
0.0
 11
584.6525409723605
 21
185.93638310526919
 31
0.0
  0
LINE
  5
15674
  8
AM_0
 10
584.6525409723605
 20
185.93642858837001
 30
0.0
 11
575.52593814476495
 21
185.93642858837001
 31
0.0
  0
ARC
  5
15675
  8
AM_0
 10
575.52593814476495
 20
188.93642858837009
 30
0.0
 40
2.999999999999996
 50
215.68533471265459
 51
270.0
1001
GENIUS_GENOBJ-N-FIL_13
1002
{
1000
OWNER
1000
GEN
1002
}
1001
GENIUS_GENODEF_13
1002
{
1000
HIER
1070
     0
1002
}
1002
{
1000
MANEDIT
1070
     0
1002
}
1002
{
1000
NOSEL
1070
     0
1002
}
1002
{
1000
BEHIND
1070
     0
1002
}
1002
{
1000
OTHER
1070
     0
1002
}
1002
{
1000
REACTOR
1002
}
  0
ARC
  5
15676
  8
AM_0
 10
570.65254097236073
 20
185.43642858837009
 30
0.0
 40
2.999999999999996
 50
35.68533471265463
 51
90.0
1001
GENIUS_GENOBJ-N-FIL_13
1002
{
1000
OWNER
1000
GEN
1002
}
1001
GENIUS_GENODEF_13
1002
{
1000
HIER
1070
     0
1002
}
1002
{
1000
MANEDIT
1070
     0
1002
}
1002
{
1000
NOSEL
1070
     0
1002
}
1002
{
1000
BEHIND
1070
     0
1002
}
1002
{
1000
OTHER
1070
     0
1002
}
1002
{
1000
REACTOR
1002
}
  0
LINE
  5
15677
  8
AM_0
 10
584.6525409723605
 20
185.93638858836979
 30
0.0
 11
584.6525409723605
 21
189.93638858836991
 31
0.0
  0
LINE
  5
15678
  8
AM_0
 10
613.65254097236073
 20
169.4364140404868
 30
0.0
 11
613.65254097236073
 21
153.9364140404868
 31
0.0
  0
ARC
  5
15679
  8
AM_0
 10
614.65254097236073
 20
153.93641404048671
 30
0.0
 40
1.0
 50
180.0
 51
270.0
  0
LINE
  5
1567A
  8
AM_0
 10
620.65254097236073
 20
152.93641404048671
 30
0.0
 11
625.84854097236075
 21
149.9364140404868
 31
0.0
  0
LINE
  5
1567B
  8
AM_0
 10
613.6525409723605
 20
180.9364140404866
 30
0.0
 11
601.35181967611231
 21
180.9364140404866
 31
0.0
  0
ARC
  5
1567C
  8
AM_0
 10
599.84218097236055
 20
190.0934440404867
 30
0.0
 40
2.0170177999999992
 50
194.85160000000491
 51
269.7262999999972
  0
LINE
  5
1567D
  8
AM_0
 10
593.65254097236061
 20
186.9363840404869
 30
0.0
 11
593.65254097236061
 21
189.4363840404867
 31
0.0
  0
LINE
  5
1567E
  8
AM_0
 10
593.65254097236061
 20
185.93638409284699
 30
0.0
 11
601.35181967611231
 21
180.9364140404866
 31
0.0
  0
LINE
  5
1567F
  8
AM_0
 10
597.93254097236058
 20
189.43645404048681
 30
0.0
 11
593.65254097236073
 21
189.43645404048681
 31
0.0
  0
LINE
  5
15680
  8
AM_0
 10
613.6525409723605
 20
176.43641404048671
 30
0.0
 11
613.65254097236073
 21
180.9364140404866
 31
0.0
  0
LINE
  5
15681
  8
AM_0
 10
612.15254097236073
 20
176.43641404048671
 30
0.0
 11
612.15254097236073
 21
169.4364140404868
 31
0.0
  0
ARC
  5
15682
  8
AM_0
 10
688.65254097236073
 20
168.4364140404868
 30
0.0
 40
1.0
 50
89.999999999999986
 51
180.0
  0
LINE
  5
15683
  8
AM_0
 10
690.65254097236073
 20
169.4364140404868
 30
0.0
 11
690.65254097236073
 21
153.9364140404868
 31
0.0
  0
LINE
  5
15684
  8
AM_0
 10
686.65254097236073
 20
172.9364140404866
 30
0.0
 11
686.65254097236073
 21
165.43641404048671
 31
0.0
  0
LINE
  5
15685
  8
AM_0
 10
692.15254097236061
 20
176.43641404048671
 30
0.0
 11
692.15254097236061
 21
156.9364140404868
 31
0.0
  0
ARC
  5
15686
  8
AM_0
 10
679.15254097236073
 20
165.43641404048671
 30
0.0
 40
3.9999999999999978
 50
180.0
 51
0.0
  0
ARC
  5
15687
  8
AM_0
 10
669.65254097236073
 20
168.4364140404868
 30
0.0
 40
1.0
 50
0.0
 51
89.999999999999986
  0
LINE
  5
15688
  8
AM_0
 10
683.15254097236073
 20
172.9364140404866
 30
0.0
 11
683.15254097236073
 21
165.43641404048671
 31
0.0
  0
LINE
  5
15689
  8
AM_0
 10
671.65254097236073
 20
165.43641404048671
 30
0.0
 11
671.65254097236073
 21
172.9364140404866
 31
0.0
  0
LINE
  5
1568A
  8
AM_0
 10
675.15254097236073
 20
172.9364140404866
 30
0.0
 11
675.15254097236073
 21
165.43641404048671
 31
0.0
  0
ARC
  5
1568B
  8
AM_0
 10
679.15254097236073
 20
165.43641404048671
 30
0.0
 40
7.5000000000000018
 50
180.0
 51
0.0
  0
ARC
  5
1568C
  8
AM_0
 10
678.15254097236073
 20
164.4364140404868
 30
0.0
 40
7.4999999999999956
 50
180.0
 51
270.0
  0
LINE
  5
1568D
  8
AM_0
 10
661.45654097236047
 20
149.93641404048671
 30
0.0
 11
666.64531648256389
 21
152.93641404048671
 31
0.0
  0
LINE
  5
1568E
  8
AM_0
 10
670.65254097236073
 20
164.4364140404868
 30
0.0
 11
670.65254097236073
 21
168.4364140404868
 31
0.0
  0
ARC
  5
1568F
  8
AM_0
 10
680.15254097236073
 20
164.4364140404868
 30
0.0
 40
7.499999999999992
 50
270.0
 51
0.0
  0
LINE
  5
15690
  8
AM_0
 10
678.15254097236073
 20
156.9364140404868
 30
0.0
 11
680.15254097236073
 21
156.9364140404868
 31
0.0
  0
ARC
  5
15691
  8
AM_0
 10
689.65254097236073
 20
153.9364140404868
 30
0.0
 40
1.0
 50
270.0
 51
0.0
  0
LINE
  5
15692
  8
AM_0
 10
692.15254097236061
 20
156.9364140404868
 30
0.0
 11
690.65254097236073
 21
156.9364140404868
 31
0.0
  0
LINE
  5
15693
  8
AM_0
 10
687.65254097236073
 20
168.4364140404868
 30
0.0
 11
687.65254097236073
 21
164.4364140404868
 31
0.0
  0
LINE
  5
15694
  8
AM_0
 10
673.65254097236061
 20
176.43641404048651
 30
0.0
 11
673.65254097236073
 21
188.0764540404864
 31
0.0
  0
LINE
  5
15695
  8
AM_0
 10
692.15254097236061
 20
169.4364140404868
 30
0.0
 11
688.65254097236073
 21
169.4364140404868
 31
0.0
  0
LINE
  5
15696
  8
AM_0
 10
615.15254097236061
 20
216.56644404048691
 30
0.0
 11
630.1525409723605
 21
216.56644404048691
 31
0.0
  0
LINE
  5
15697
  8
AM_0
 10
615.15254097236061
 20
216.56644404048669
 30
0.0
 11
630.1525409723605
 21
216.56644404048669
 31
0.0
  0
LINE
  5
15698
  8
AM_0
 10
599.83253097236025
 20
215.9364440404868
 30
0.0
 11
659.6525409723605
 21
215.9364440404868
 31
0.0
  0
LINE
  5
15699
  8
AM_0
 10
599.83253097236025
 20
213.9364440404868
 30
0.0
 11
659.6525409723605
 21
213.9364440404868
 31
0.0
  0
LINE
  5
1569A
  8
AM_0
 10
659.6525409723605
 20
213.20646404048679
 30
0.0
 11
599.83253097236025
 21
213.20646404048679
 31
0.0
  0
ARC
  5
1569B
  8
AM_0
 10
592.64412097236061
 20
198.90485404048681
 30
0.0
 40
1.008444499999998
 50
270.4777999999996
 51
350.45392999999598
  0
LINE
  5
1569C
  8
AM_0
 10
584.6525409723605
 20
197.8964285883701
 30
0.0
 11
574.65254097236061
 21
197.8964285883701
 31
0.0
  0
LINE
  5
1569D
  8
AM_0
 10
584.65259879457801
 20
197.89641858840179
 30
0.0
 11
574.65259879458415
 21
197.8964074772905
 31
0.0
  0
LINE
  5
1569E
  8
0
  6
CONTINUOUS
 62
     7
 10
592.6525409723605
 20
197.89645276773891
 30
0.0
 11
584.6525409723605
 21
197.89645276773891
 31
0.0
  0
LINE
  5
1569F
  8
AM_0
 10
584.6525409723605
 20
212.79643858837019
 30
0.0
 11
574.65254097236061
 21
212.79643858837019
 31
0.0
  0
LINE
  5
156A0
  8
AM_0
 10
584.65258223901105
 20
212.7964285883927
 30
0.0
 11
574.65258223901742
 21
212.7964174772813
 31
0.0
  0
LINE
  5
156A1
  8
0
  6
CONTINUOUS
 62
     7
 10
592.6525409723605
 20
212.796462767739
 30
0.0
 11
584.6525409723605
 21
212.796462767739
 31
0.0
  0
LINE
  5
156A2
  8
AM_0
 10
593.65254097236061
 20
207.07645404048671
 30
0.0
 11
593.65254097236061
 21
199.4764540404868
 31
0.0
  0
LINE
  5
156A3
  8
AM_0
 10
594.65254097236061
 20
207.07645404048671
 30
0.0
 11
594.65254097236061
 21
199.4764540404868
 31
0.0
  0
LINE
  5
156A4
  8
AM_0
 10
597.25252097236046
 20
205.07645404048679
 30
0.0
 11
597.25252097236046
 21
201.4764540404868
 31
0.0
  0
ARC
  5
156A5
  8
AM_0
 10
595.55254097236048
 20
201.4764540404868
 30
0.0
 40
1.7000007999999991
 50
270.000020000002
 51
359.999989999999
  0
LINE
  5
156A6
  8
AM_0
 10
594.65254097236061
 20
199.4764540404868
 30
0.0
 11
593.65254097236061
 21
199.4764540404868
 31
0.0
  0
LINE
  5
156A7
  8
AM_0
 10
594.65254097236061
 20
199.77645404048661
 30
0.0
 11
595.55254097236048
 21
199.77645404048661
 31
0.0
  0
LINE
  5
156A8
  8
AM_0
 10
599.83253097236025
 20
203.59644404048669
 30
0.0
 11
597.25252097236046
 21
203.59644404048669
 31
0.0
  0
ARC
  5
156A9
  8
AM_0
 10
595.55254097236048
 20
205.07645404048679
 30
0.0
 40
1.699996899999999
 50
0.0000199999954837
 51
89.999996999995773
  0
LINE
  5
156AA
  8
AM_0
 10
594.65254097236061
 20
207.07645404048671
 30
0.0
 11
593.65254097236061
 21
207.07645404048671
 31
0.0
  0
LINE
  5
156AB
  8
AM_0
 10
593.65254097236061
 20
204.05381404048671
 30
0.0
 11
594.65254097236061
 21
203.47648404048689
 31
0.0
  0
LINE
  5
156AC
  8
AM_0
 10
593.65254097236061
 20
203.0538140404868
 30
0.0
 11
594.65254097236061
 21
202.47645404048669
 31
0.0
  0
ARC
  5
156AD
  8
AM_0
 10
592.99168097236065
 20
202.10966404048679
 30
0.0
 40
1.4868058999999989
 50
14.282739999999089
 51
63.610220000000879
  0
LINE
  5
156AE
  8
AM_0
 10
594.65254097236061
 20
206.77644404048669
 30
0.0
 11
595.55254097236048
 21
206.77644404048669
 31
0.0
  0
LINE
  5
156AF
  8
AM_0
 10
615.01276280049547
 20
223.4463640404868
 30
0.0
 11
595.63883752771812
 21
223.4463640404868
 31
0.0
  0
LINE
  5
156B0
  8
AM_0
 10
596.72775488583522
 20
223.93638404048679
 30
0.0
 11
614.16349525918531
 21
223.93638404048679
 31
0.0
  0
LINE
  5
156B1
  8
AM_0
 10
599.83253097236025
 20
216.56644404048691
 30
0.0
 11
614.15254097236038
 21
216.56644404048691
 31
0.0
  0
ARC
  5
156B2
  8
AM_0
 10
599.31252097236052
 20
214.93644404048669
 30
0.0
 40
1.0000073999999981
 50
89.999996999995773
 51
270.0
  0
LINE
  5
156B3
  8
AM_0
 10
595.83253097236025
 20
216.56644404048691
 30
0.0
 11
599.83253097236025
 21
216.56644404048691
 31
0.0
  0
LINE
  5
156B4
  8
AM_0
 10
599.31252097236052
 20
213.9364440404868
 30
0.0
 11
599.83253097236025
 21
213.9364440404868
 31
0.0
  0
LINE
  5
156B5
  8
AM_0
 10
599.31252097236052
 20
215.9364440404868
 30
0.0
 11
599.83253097236025
 21
215.9364440404868
 31
0.0
  0
LINE
  5
156B6
  8
AM_0
 10
599.83253097236025
 20
213.20646404048679
 30
0.0
 11
593.65254102168046
 21
213.20646404048679
 31
0.0
  0
ARC
  5
156B7
  8
AM_0
 10
595.83864097236062
 20
214.8864540404868
 30
0.0
 40
1.680010999999999
 50
90.208030999999565
 51
269.79197000000192
  0
ARC
  5
156B8
  8
AM_0
 10
596.72775493819529
 20
224.9363840404869
 30
0.0
 40
1.0000031999999981
 50
89.999999999999986
 51
269.99999700000228
  0
ARC
  5
156B9
  8
AM_0
 10
595.63775493819526
 20
224.9113640404868
 30
0.0
 40
1.465000399999999
 50
89.999999999999986
 51
269.99999700000228
  0
ARC
  5
156BA
  8
AM_0
 10
614.15254097236038
 20
222.93644404048669
 30
0.0
 40
0.9999999999999998
 50
0.0
 51
89.999999999999986
1001
GENIUS_GENOBJ-N-FIL_13
1002
{
1000
OWNER
1000
GEN
1002
}
1001
GENIUS_GENODEF_13
1002
{
1000
HIER
1070
     0
1002
}
1002
{
1000
MANEDIT
1070
     0
1002
}
1002
{
1000
NOSEL
1070
     0
1002
}
1002
{
1000
BEHIND
1070
     0
1002
}
1002
{
1000
OTHER
1070
     0
1002
}
1002
{
1000
REACTOR
1002
}
  0
ARC
  5
156BB
  8
AM_0
 10
614.15254097236038
 20
217.56644404048669
 30
0.0
 40
0.9999999999999998
 50
270.0
 51
0.0
1001
GENIUS_GENOBJ-N-FIL_13
1002
{
1000
OWNER
1000
GEN
1002
}
1001
GENIUS_GENODEF_13
1002
{
1000
HIER
1070
     0
1002
}
1002
{
1000
MANEDIT
1070
     0
1002
}
1002
{
1000
NOSEL
1070
     0
1002
}
1002
{
1000
BEHIND
1070
     0
1002
}
1002
{
1000
OTHER
1070
     0
1002
}
1002
{
1000
REACTOR
1002
}
  0
LINE
  5
156BC
  8
AM_0
 10
615.15254097236061
 20
222.93644404048669
 30
0.0
 11
615.15254097236061
 21
217.56644404048669
 31
0.0
  0
CIRCLE
  5
156BD
  8
AM_0
 10
625.15254097236061
 20
221.4364140404868
 30
0.0
 40
0.75
  0
CIRCLE
  5
156BE
  8
AM_0
 10
620.15254097236061
 20
221.4364140404868
 30
0.0
 40
0.75
  0
LINE
  5
156BF
  8
AM_0
 10
615.01270944417308
 20
276.42637404048691
 30
0.0
 11
595.65402957797176
 21
276.42637404048691
 31
0.0
  0
LINE
  5
156C0
  8
AM_0
 10
596.72775488583522
 20
275.93638404048681
 30
0.0
 11
614.15254097236038
 21
275.93638404048681
 31
0.0
  0
ARC
  5
156C1
  8
AM_0
 10
596.72775493819529
 20
274.93644404048678
 30
0.0
 40
1.0000031999999981
 50
90.000002999997605
 51
270.0
  0
ARC
  5
156C2
  8
AM_0
 10
595.63775493819526
 20
274.96146404048682
 30
0.0
 40
1.465000399999999
 50
90.000002999997605
 51
270.0
  0
ARC
  5
156C3
  8
AM_0
 10
614.15254097236038
 20
276.93638404048681
 30
0.0
 40
0.9999999999999998
 50
270.0
 51
0.0
1001
GENIUS_GENOBJ-N-FIL_13
1002
{
1000
OWNER
1000
GEN
1002
}
1001
GENIUS_GENODEF_13
1002
{
1000
HIER
1070
     0
1002
}
1002
{
1000
MANEDIT
1070
     0
1002
}
1002
{
1000
NOSEL
1070
     0
1002
}
1002
{
1000
BEHIND
1070
     0
1002
}
1002
{
1000
OTHER
1070
     0
1002
}
1002
{
1000
REACTOR
1002
}
  0
ARC
  5
156C4
  8
AM_0
 10
660.98250430264477
 20
234.92637404048679
 30
0.0
 40
1.330000999999998
 50
89.999999999999986
 51
269.99999700000228
  0
ARC
  5
156C5
  8
AM_0
 10
662.20379430264484
 20
234.9363840404867
 30
0.0
 40
1.000037999999998
 50
89.500710000004887
 51
270.49928399999988
  0
LINE
  5
156C6
  8
AM_0
 10
631.15254097236061
 20
216.56644404048691
 30
0.0
 11
659.6525409723605
 21
216.56644404048691
 31
0.0
  0
ARC
  5
156C7
  8
AM_0
 10
631.15254097236061
 20
222.9364440404868
 30
0.0
 40
0.9999999999999998
 50
89.999999999999986
 51
180.0
1001
GENIUS_GENOBJ-N-FIL_13
1002
{
1000
OWNER
1000
GEN
1002
}
1001
GENIUS_GENODEF_13
1002
{
1000
HIER
1070
     0
1002
}
1002
{
1000
MANEDIT
1070
     0
1002
}
1002
{
1000
NOSEL
1070
     0
1002
}
1002
{
1000
BEHIND
1070
     0
1002
}
1002
{
1000
OTHER
1070
     0
1002
}
1002
{
1000
REACTOR
1002
}
  0
ARC
  5
156C8
  8
AM_0
 10
631.15254097236061
 20
217.56644404048669
 30
0.0
 40
0.9999999999999998
 50
180.0
 51
270.0
1001
GENIUS_GENOBJ-N-FIL_13
1002
{
1000
OWNER
1000
GEN
1002
}
1001
GENIUS_GENODEF_13
1002
{
1000
HIER
1070
     0
1002
}
1002
{
1000
MANEDIT
1070
     0
1002
}
1002
{
1000
NOSEL
1070
     0
1002
}
1002
{
1000
BEHIND
1070
     0
1002
}
1002
{
1000
OTHER
1070
     0
1002
}
1002
{
1000
REACTOR
1002
}
  0
LINE
  5
156C9
  8
AM_0
 10
630.1525409723605
 20
222.93644404048669
 30
0.0
 11
630.1525409723605
 21
217.56644404048669
 31
0.0
  0
ARC
  5
156CA
  8
AM_0
 10
662.20379430264472
 20
224.9363840404869
 30
0.0
 40
1.000037999999998
 50
89.500710000004887
 51
270.49928399999988
  0
ARC
  5
156CB
  8
AM_0
 10
660.98250430264477
 20
264.94645404048669
 30
0.0
 40
1.330000999999998
 50
90.000002999997605
 51
270.0
  0
ARC
  5
156CC
  8
AM_0
 10
660.92251430264491
 20
254.94144404048669
 30
0.0
 40
1.265004999999999
 50
90.000002999997605
 51
270.0
  0
ARC
  5
156CD
  8
AM_0
 10
660.92251430264491
 20
244.93138404048679
 30
0.0
 40
1.265004999999999
 50
89.999999999999986
 51
269.99999700000228
  0
ARC
  5
156CE
  8
AM_0
 10
631.15254097236061
 20
276.93638404048681
 30
0.0
 40
0.9999999999999998
 50
180.0
 51
270.0
1001
GENIUS_GENOBJ-N-FIL_13
1002
{
1000
OWNER
1000
GEN
1002
}
1001
GENIUS_GENODEF_13
1002
{
1000
HIER
1070
     0
1002
}
1002
{
1000
MANEDIT
1070
     0
1002
}
1002
{
1000
NOSEL
1070
     0
1002
}
1002
{
1000
BEHIND
1070
     0
1002
}
1002
{
1000
OTHER
1070
     0
1002
}
1002
{
1000
REACTOR
1002
}
  0
ARC
  5
156CF
  8
AM_0
 10
662.20379430264484
 20
254.93644404048669
 30
0.0
 40
1.000037999999998
 50
89.500716000000111
 51
270.49928999999509
  0
ARC
  5
156D0
  8
AM_0
 10
662.20379430264484
 20
244.9363840404869
 30
0.0
 40
1.000037999999998
 50
89.500710000004887
 51
270.49928399999988
  0
ARC
  5
156D1
  8
AM_0
 10
662.20379430264484
 20
264.93644404048672
 30
0.0
 40
1.000037999999998
 50
89.500716000000111
 51
270.49928999999509
  0
ARC
  5
156D2
  8
AM_0
 10
662.20379430264484
 20
274.9363840098917
 30
0.0
 40
1.000037999999998
 50
89.500716000000111
 51
270.49928999999509
  0
LINE
  5
156D4
  8
AM_0
 10
733.46251097236052
 20
189.80638404048671
 30
0.0
 11
734.38252097236045
 21
193.68638404048679
 31
0.0
  0
LINE
  5
156D5
  8
AM_0
 10
733.48250097236053
 20
188.14637404048679
 30
0.0
 11
734.36250097236064
 21
191.67637404048659
 31
0.0
  0
LINE
  5
156D6
  8
AM_0
 10
716.65254097236073
 20
188.04637404048691
 30
0.0
 11
716.65254097236073
 21
195.45637404048659
 31
0.0
  0
ARC
  5
156D7
  8
AM_0
 10
718.15431097236035
 20
190.16456404048679
 30
0.0
 40
1.5017978999999979
 50
90.068549999998893
 51
179.93145000000101
  0
LINE
  5
156D8
  8
AM_0
 10
731.51253097236054
 20
188.2663740404868
 30
0.0
 11
718.15254097236038
 21
188.2663740404868
 31
0.0
  0
LINE
  5
156D9
  8
AM_0
 10
731.54253097236051
 20
186.6363640404868
 30
0.0
 11
718.04253097236017
 21
186.6363640404868
 31
0.0
  0
ARC
  5
156DA
  8
AM_0
 10
714.65532097236064
 20
188.04359404048679
 30
0.0
 40
1.9972083999999981
 50
269.91985700000038
 51
0.0801399999989048
  0
ARC
  5
156DB
  8
AM_0
 10
714.65004097236033
 20
186.01121404048681
 30
0.0
 40
1.994845199999999
 50
270.07165800000439
 51
345.63719999999978
  0
ARC
  5
156DC
  8
AM_0
 10
714.65797097236066
 20
186.69093404048681
 30
0.0
 40
1.9945768999999991
 50
269.84400800000009
 51
0.1559900000027699
  0
ARC
  5
156DD
  8
AM_0
 10
714.6561409723605
 20
190.07276404048679
 30
0.0
 40
1.9963852999999989
 50
269.896163
 51
0.1038400000025922
  0
ARC
  5
156DE
  8
AM_0
 10
718.03889097236026
 20
185.12950404048681
 30
0.0
 40
1.5068882999999991
 50
89.862229999999485
 51
165.12307000000069
  0
ARC
  5
156DF
  8
AM_0
 10
718.15636097236063
 20
186.7625240404868
 30
0.0
 40
1.5038474999999989
 50
90.146399999996433
 51
179.85360000000341
  0
ARC
  5
156E0
  8
AM_0
 10
731.54521097236045
 20
188.63417404048681
 30
0.0
 40
1.9977811999999979
 50
269.92308099999781
 51
345.86776999999688
  0
ARC
  5
156E1
  8
AM_0
 10
731.51973097236055
 20
190.26185404048681
 30
0.0
 40
1.995482299999999
 50
269.79345799999908
 51
346.80592000000109
  0
LINE
  5
156E9
  8
AM_0
 10
748.14644097236055
 20
234.7145540404868
 30
0.0
 11
747.64644097236044
 21
231.9445640404866
 31
0.0
  0
ARC
  5
156EA
  8
AM_0
 10
740.64351097236033
 20
232.94541404048661
 30
0.0
 40
0.9910124499999998
 50
89.478000000004286
 51
180.5220023800002
  0
ARC
  5
156EB
  8
AM_0
 10
732.10124097236042
 20
234.9363840404867
 30
0.0
 40
1.000037999999998
 50
269.50071600000012
 51
90.499289999994986
  0
ARC
  5
156EC
  8
AM_0
 10
733.32253097236071
 20
234.92637404048679
 30
0.0
 40
1.330000999999998
 50
270.00000299999761
 51
89.999999999999986
  0
ARC
  5
156ED
  8
AM_0
 10
744.64345097236026
 20
234.94547404048669
 30
0.0
 40
1.009131199999999
 50
270.51612600000101
 51
359.48387000000042
  0
ARC
  5
156EE
  8
AM_0
 10
715.65254097236073
 20
234.9363840404867
 30
0.0
 40
1.0000031999999981
 50
270.00000299999761
 51
89.999999999999986
  0
LINE
  5
156EF
  8
AM_0
 10
745.6525409723605
 20
201.91676404048681
 30
0.0
 11
745.6525409723605
 21
244.9363840404869
 31
0.0
  0
LINE
  5
156F0
  8
AM_0
 10
747.1525409723605
 20
269.93638404048693
 30
0.0
 11
747.1525409723605
 21
229.93638404048679
 31
0.0
  0
ARC
  5
156F1
  8
AM_0
 10
730.03134497300755
 20
212.26832404048679
 30
0.0
 40
6.0039071999999978
 50
225.22369300000389
 51
266.3827139999957
  0
LINE
  5
156F2
  8
AM_0
 10
731.48253097236034
 20
191.66636404048691
 30
0.0
 11
718.15254097236038
 21
191.66636404048691
 31
0.0
  0
LINE
  5
156F3
  8
AM_0
 10
731.42253097236073
 20
196.95637404048691
 30
0.0
 11
718.15254097236038
 21
196.95637404048691
 31
0.0
  0
ARC
  5
156F4
  8
AM_0
 10
730.48757497300733
 20
208.3386040404869
 30
0.0
 40
5.0078935999999974
 50
99.598720000001094
 51
174.52532000000039
  0
ARC
  5
156F5
  8
AM_0
 10
718.15819097236033
 20
195.45069404048681
 30
0.0
 40
1.5056744999999989
 50
90.215519999998804
 51
179.78447000000099
  0
ARC
  5
156F6
  8
AM_0
 10
726.50262497300753
 20
208.72621404048689
 30
0.0
 40
1.0041366999999981
 50
174.84883999999539
 51
225.7974360000041
  0
ARC
  5
156F7
  8
AM_0
 10
715.65254097236073
 20
214.9363840404869
 30
0.0
 40
1.0000031999999981
 50
270.00000299999761
 51
89.999999999999986
  0
ARC
  5
156F8
  8
AM_0
 10
723.10252097236071
 20
214.9363840404869
 30
0.0
 40
1.0000031999999981
 50
270.00000299999761
 51
89.999999999999986
  0
ARC
  5
156F9
  8
AM_0
 10
723.97252097236071
 20
214.8913740404868
 30
0.0
 40
1.6750062999999991
 50
270.00000299999761
 51
89.999999999999986
  0
ARC
  5
156FA
  8
AM_0
 10
715.65254097236073
 20
224.9363840404869
 30
0.0
 40
1.0000031999999981
 50
270.00000299999761
 51
89.999999999999986
  0
ARC
  5
156FB
  8
AM_0
 10
724.19252097236028
 20
224.9113640404868
 30
0.0
 40
1.465000399999999
 50
270.00000299999761
 51
89.999999999999986
  0
ARC
  5
156FC
  8
AM_0
 10
723.10252097236071
 20
224.9363840404869
 30
0.0
 40
1.0000031999999981
 50
270.00000299999761
 51
89.999999999999986
  0
LINE
  5
156FD
  8
AM_0
 10
729.6525409723605
 20
201.58637404048679
 30
0.0
 11
729.6525409723605
 21
215.6263840404867
 31
0.0
  0
ARC
  5
156FE
  8
AM_0
 10
743.34688097236051
 20
207.82667404048681
 30
0.0
 40
1.0103179999999981
 50
270.32013999999481
 51
302.6885800000012
  0
ARC
  5
156FF
  8
AM_0
 10
743.36028097236056
 20
208.9630240404868
 30
0.0
 40
1.0067359999999981
 50
270.69806099999852
 51
300.58643000000149
  0
ARC
  5
15700
  8
AM_0
 10
743.39424097236054
 20
204.44956404048679
 30
0.0
 40
1.0131911999999981
 50
269.90372399999882
 51
298.1687600000007
  0
ARC
  5
15701
  8
AM_0
 10
743.36165097236074
 20
201.19813404048679
 30
0.0
 40
1.001807999999998
 50
270.62281999999732
 51
300.66166999999479
  0
ARC
  5
15702
  8
AM_0
 10
743.37495097236069
 20
202.3408040404868
 30
0.0
 40
1.005138299999998
 50
272.14229099999739
 51
298.36794000000208
  0
ARC
  5
15703
  8
AM_0
 10
743.35902097236055
 20
203.3074740404868
 30
0.0
 40
1.0112084999999991
 50
270.7656869999991
 51
300.5188099999977
  0
LINE
  5
15704
  8
AM_0
 10
735.86253097236056
 20
198.89637404048679
 30
0.0
 11
733.44252097236051
 21
198.89637404048679
 31
0.0
  0
ARC
  5
15705
  8
AM_0
 10
735.82423097236017
 20
191.30927404048671
 30
0.0
 40
1.507096899999999
 50
90.064819999995194
 51
165.90217999999581
  0
LINE
  5
15706
  8
AM_0
 10
735.82253097236048
 20
192.81639404048661
 30
0.0
 11
734.17253097236051
 21
192.81639404048661
 31
0.0
  0
ARC
  5
15707
  8
AM_0
 10
735.84334097236047
 20
193.33357404048689
 30
0.0
 40
1.5028080999999991
 50
90.03078999999498
 51
166.4221799999971
  0
LINE
  5
15708
  8
AM_0
 10
735.84251097236029
 20
194.83637404048679
 30
0.0
 11
733.78252097236054
 21
194.83637404048679
 31
0.0
  0
ARC
  5
15709
  8
AM_0
 10
735.86131097236034
 20
197.39222404048661
 30
0.0
 40
1.504139799999999
 50
89.954249999998524
 51
167.5552500000029
  0
LINE
  5
1570A
  8
AM_0
 10
739.65254097236027
 20
201.5863740404867
 30
0.0
 11
729.6525409723605
 21
201.58637404048679
 31
0.0
  0
LINE
  5
1570B
  8
AM_0
 10
739.65254097236027
 20
192.55599634263049
 30
0.0
 11
734.83253097236047
 21
192.43638404048679
 31
0.0
  0
ARC
  5
1570C
  8
AM_0
 10
731.43068097236073
 20
198.94978404048689
 30
0.0
 40
1.9934333999999989
 50
269.76588399999918
 51
349.78803000000022
  0
LINE
  5
1570D
  8
AM_0
 10
733.93251097236055
 20
201.58634404048669
 30
0.0
 11
733.39250097236072
 21
198.59635404048669
 31
0.0
  0
LINE
  5
1570E
  8
AM_0
 10
733.43251097236055
 20
193.24638404048679
 30
0.0
 11
734.39253097236065
 21
197.7163840404869
 31
0.0
  0
ARC
  5
1570F
  8
AM_0
 10
731.48085097236026
 20
193.66175404048661
 30
0.0
 40
1.995389499999999
 50
270.04806699999779
 51
347.98461999999989
  0
LINE
  5
15710
  8
AM_0
 10
743.41252097236065
 20
201.33637404048679
 30
0.0
 11
740.15254097236073
 21
201.33637404048679
 31
0.0
  0
LINE
  5
15711
  8
AM_0
 10
743.37254097236053
 20
200.1963640404866
 30
0.0
 11
740.15254097236073
 21
200.1963640404866
 31
0.0
  0
LINE
  5
15712
  8
AM_0
 10
739.65254097236027
 20
207.24638404048679
 30
0.0
 11
729.6525409723605
 21
207.24638404048679
 31
0.0
  0
LINE
  5
15713
  8
AM_0
 10
743.35252097236048
 20
206.8163940404867
 30
0.0
 11
739.65254097236027
 21
206.8163940404867
 31
0.0
  0
ARC
  5
15714
  8
AM_0
 10
740.65794097236051
 20
208.9617740404868
 30
0.0
 40
1.005422699999998
 50
180.30819238000211
 51
269.69181099999952
  0
LINE
  5
15715
  8
AM_0
 10
743.37254097236053
 20
202.2963740404868
 30
0.0
 11
739.65254097236027
 21
202.2963740404868
 31
0.0
  0
ARC
  5
15716
  8
AM_0
 10
740.65959097236043
 20
204.44343404048681
 30
0.0
 40
1.0070831999999981
 50
180.40157798000081
 51
269.59842200000139
  0
LINE
  5
15717
  8
AM_0
 10
743.37254097236053
 20
207.95637404048671
 30
0.0
 11
740.6525409723605
 21
207.95637404048671
 31
0.0
  0
LINE
  5
15718
  8
AM_0
 10
743.39253097236053
 20
203.4363840404867
 30
0.0
 11
740.6525409723605
 21
203.4363840404867
 31
0.0
  0
ARC
  5
15719
  8
AM_0
 10
744.64537097236064
 20
201.92655404048679
 30
0.0
 40
1.007194199999998
 50
300.23341999999798
 51
0.5576799999999365
  0
LINE
  5
1571A
  8
AM_0
 10
743.85252097236071
 20
201.45637404048671
 30
0.0
 11
745.09254097236055
 21
202.07636404048671
 31
0.0
  0
LINE
  5
1571B
  8
AM_0
 10
743.65254097236027
 20
200.45637404048671
 30
0.0
 11
743.65254097236027
 21
200.97636404048691
 31
0.0
  0
LINE
  5
1571C
  8
AM_0
 10
743.8725109723606
 20
200.3363740404867
 30
0.0
 11
745.15251097236046
 21
201.05638404048671
 31
0.0
  0
ARC
  5
1571D
  8
AM_0
 10
744.65080097236046
 20
208.6790040404868
 30
0.0
 40
1.0017338999999981
 50
302.73763000000417
 51
359.85046000000261
  0
ARC
  5
1571E
  8
AM_0
 10
744.64699097236064
 20
209.7056440404867
 30
0.0
 40
1.005592899999999
 50
300.18133000000012
 51
359.47162000000122
  0
ARC
  5
1571F
  8
AM_0
 10
744.64754097236073
 20
205.1074040404867
 30
0.0
 40
1.0050607999999981
 50
297.55881000000392
 51
359.37160000000108
  0
ARC
  5
15720
  8
AM_0
 10
744.65355097236045
 20
204.0818340404868
 30
0.0
 40
0.9989832599999996
 50
299.96536000000339
 51
359.68761000000097
  0
LINE
  5
15721
  8
AM_0
 10
743.65254097236027
 20
207.1163740404869
 30
0.0
 11
743.65254097236027
 21
207.5963840404867
 31
0.0
  0
LINE
  5
15722
  8
AM_0
 10
743.65254097236027
 20
202.55638404048679
 30
0.0
 11
743.65254097236027
 21
203.09638404048681
 31
0.0
  0
LINE
  5
15723
  8
AM_0
 10
743.8725109723606
 20
208.0963840404867
 30
0.0
 11
745.15251097236046
 21
208.8364140404868
 31
0.0
  0
LINE
  5
15724
  8
AM_0
 10
743.87254097236064
 20
202.4363540404868
 30
0.0
 11
745.1525409723605
 21
203.21635404048681
 31
0.0
  0
LINE
  5
15725
  8
AM_0
 10
743.89253097236065
 20
206.9763640404868
 30
0.0
 11
745.19255097236055
 21
207.83634404048669
 31
0.0
  0
LINE
  5
15726
  8
AM_0
 10
743.87254097236064
 20
203.55638404048671
 30
0.0
 11
745.11253097236056
 21
204.21635404048669
 31
0.0
  0
ARC
  5
15727
  8
AM_0
 10
744.64949097236035
 20
202.97627404048669
 30
0.0
 40
1.003051899999998
 50
296.21265000000159
 51
0.0057699999976855
  0
LINE
  5
15728
  8
AM_0
 10
740.6525409723605
 20
225.9363840404867
 30
0.0
 11
744.6525409723605
 21
225.9363840404867
 31
0.0
  0
LINE
  5
15729
  8
AM_0
 10
740.6525409723605
 20
233.93638404048679
 30
0.0
 11
744.6525409723605
 21
233.93638404048679
 31
0.0
  0
ARC
  5
1572A
  8
AM_0
 10
743.43929097236037
 20
215.2625840404867
 30
0.0
 40
1.0062370999999981
 50
269.61524400000241
 51
293.00461999999879
  0
ARC
  5
1572B
  8
AM_0
 10
743.50987097236055
 20
217.2113740404867
 30
0.0
 40
1.015145099999998
 50
269.02161899999908
 51
286.1676699999993
  0
LINE
  5
1572C
  8
AM_0
 10
740.6525409723605
 20
223.9363840404867
 30
0.0
 11
744.6525409723605
 21
223.9363840404867
 31
0.0
  0
ARC
  5
1572D
  8
AM_0
 10
740.64351097236033
 20
222.9454140404867
 30
0.0
 40
0.9910124499999998
 50
89.478000000004286
 51
180.5220023800002
  0
LINE
  5
1572E
  8
AM_0
 10
739.65254097236027
 20
215.6263840404867
 30
0.0
 11
729.6525409723605
 21
215.6263840404867
 31
0.0
  0
LINE
  5
1572F
  8
AM_0
 10
743.43254097236047
 20
214.25636404048669
 30
0.0
 11
740.35252097236071
 21
214.25636404048669
 31
0.0
  0
ARC
  5
15730
  8
AM_0
 10
740.65883097236065
 20
217.2026840404869
 30
0.0
 40
1.0063294999999981
 50
180.3592537599973
 51
269.64074800000088
  0
LINE
  5
15731
  8
AM_0
 10
743.49254097236064
 20
216.1963640404868
 30
0.0
 11
740.6525409723605
 21
216.1963640404868
 31
0.0
  0
ARC
  5
15732
  8
AM_0
 10
740.6604209723605
 20
226.94425404048681
 30
0.0
 40
1.0079203999999991
 50
180.4484899600013
 51
269.55151199999528
  0
ARC
  5
15733
  8
AM_0
 10
744.65300097236059
 20
215.78105404048671
 30
0.0
 40
0.9995326999999996
 50
292.3150500000005
 51
359.73186999999979
  0
LINE
  5
15734
  8
AM_0
 10
743.65254097236027
 20
214.55638404048679
 30
0.0
 11
743.65254097236027
 21
215.61637404048679
 31
0.0
  0
LINE
  5
15735
  8
AM_0
 10
743.79253097236074
 20
216.23637404048679
 30
0.0
 11
744.93254097236058
 21
216.59635404048669
 31
0.0
  0
ARC
  5
15736
  8
AM_0
 10
744.64809097236048
 20
217.55970404048659
 30
0.0
 40
1.004450099999999
 50
286.45035000000331
 51
359.80985000000021
  0
LINE
  5
15737
  8
AM_0
 10
743.83253097236047
 20
214.3363740404867
 30
0.0
 11
745.03252097236054
 21
214.8563640404868
 31
0.0
  0
LINE
  5
15738
  8
AM_0
 10
747.1525409723605
 20
229.9363540404868
 30
0.0
 11
745.6525409723605
 21
229.8163540404868
 31
0.0
  0
LINE
  5
15739
  8
AM_0
 10
747.64644097236044
 20
231.9445640404866
 30
0.0
 11
747.14641097236051
 21
231.98457404048679
 31
0.0
  0
LINE
  5
1573A
  8
AM_0
 10
743.65254097236027
 20
224.3163940404867
 30
0.0
 11
743.65254097236027
 21
225.67637404048679
 31
0.0
  0
ARC
  5
1573B
  8
AM_0
 10
744.66032097236052
 20
224.94419404048671
 30
0.0
 40
0.9922232599999995
 50
359.54915999999707
 51
90.450850000000827
  0
ARC
  5
1573C
  8
AM_0
 10
744.64345097236026
 20
224.9454740404868
 30
0.0
 40
1.009131199999999
 50
270.51612600000101
 51
359.48387000000042
  0
ARC
  5
1573D
  8
AM_0
 10
715.65254097236073
 20
254.9363840404869
 30
0.0
 40
1.000000699999998
 50
270.00000299999761
 51
89.999999999999986
  0
ARC
  5
1573E
  8
AM_0
 10
715.65254097236073
 20
244.9363840404869
 30
0.0
 40
1.0000031999999981
 50
270.00000299999761
 51
89.999999999999986
  0
ARC
  5
1573F
  8
AM_0
 10
715.65254097236073
 20
264.9363840404867
 30
0.0
 40
1.000000699999998
 50
270.00000299999761
 51
89.999999999999986
  0
ARC
  5
15740
  8
AM_0
 10
715.65254097236073
 20
274.93638404048693
 30
0.0
 40
1.000000699999998
 50
270.00000299999761
 51
89.999999999999986
  0
ARC
  5
15741
  8
AM_0
 10
744.64345097236026
 20
254.92729404048669
 30
0.0
 40
1.009131199999999
 50
0.5161299999995606
 51
89.483870000000366
  0
ARC
  5
15742
  8
AM_0
 10
733.38240097236053
 20
254.92637404048679
 30
0.0
 40
1.270038399999998
 50
269.5548109999998
 51
90.445189999999073
  0
ARC
  5
15743
  8
AM_0
 10
732.09251097236051
 20
254.9363840404869
 30
0.0
 40
1.000012399999999
 50
270.00000299999761
 51
89.999999999999986
  0
ARC
  5
15744
  8
AM_0
 10
740.64351097236033
 20
256.92735404048682
 30
0.0
 40
0.9910124499999998
 50
179.47800000000419
 51
270.52199999999573
  0
LINE
  5
15745
  8
AM_0
 10
748.14644097236055
 20
234.71452404048671
 30
0.0
 11
748.14644097236055
 21
265.15815404048692
 31
0.0
  0
LINE
  5
15746
  8
AM_0
 10
740.6525409723605
 20
245.93638404048679
 30
0.0
 11
744.6525409723605
 21
245.93638404048679
 31
0.0
  0
LINE
  5
15747
  8
AM_0
 10
740.6525409723605
 20
253.93638404048679
 30
0.0
 11
744.6525409723605
 21
253.93638404048679
 31
0.0
  0
LINE
  5
15748
  8
AM_0
 10
740.6525409723605
 20
243.93638404048679
 30
0.0
 11
744.6525409723605
 21
243.93638404048679
 31
0.0
  0
LINE
  5
15749
  8
AM_0
 10
740.6525409723605
 20
235.93638404048679
 30
0.0
 11
744.6525409723605
 21
235.93638404048679
 31
0.0
  0
ARC
  5
1574A
  8
AM_0
 10
732.10124097236042
 20
244.9363840404869
 30
0.0
 40
1.000037999999998
 50
269.50071600000012
 51
90.499289999994986
  0
ARC
  5
1574B
  8
AM_0
 10
733.38252097236045
 20
244.93138404048679
 30
0.0
 40
1.265004999999999
 50
270.00000299999761
 51
89.999999999999986
  0
ARC
  5
1574C
  8
AM_0
 10
740.6604209723605
 20
236.94425404048681
 30
0.0
 40
1.0079203999999991
 50
180.4484899600013
 51
269.55151199999528
  0
ARC
  5
1574D
  8
AM_0
 10
740.64351097236033
 20
242.9454140404867
 30
0.0
 40
0.9910124499999998
 50
89.478000000004286
 51
180.5220023800002
  0
ARC
  5
1574E
  8
AM_0
 10
740.6604209723605
 20
252.92848404048689
 30
0.0
 40
1.0079203999999991
 50
90.448489999997136
 51
179.55151000000279
  0
ARC
  5
1574F
  8
AM_0
 10
740.6604209723605
 20
246.94425404048681
 30
0.0
 40
1.0079203999999991
 50
180.4484899600013
 51
269.55151199999528
  0
LINE
  5
15750
  8
AM_0
 10
743.65254097236027
 20
244.3363740404867
 30
0.0
 11
743.65254097236027
 21
245.49638404048679
 31
0.0
  0
ARC
  5
15751
  8
AM_0
 10
744.66032097236052
 20
244.94419404048671
 30
0.0
 40
0.9922232599999995
 50
359.54915999999707
 51
90.450850000000827
  0
ARC
  5
15752
  8
AM_0
 10
744.66032097236052
 20
234.94419404048691
 30
0.0
 40
0.9922232599999995
 50
359.54915999999707
 51
90.450850000000827
  0
ARC
  5
15753
  8
AM_0
 10
744.64345097236026
 20
244.9454740404868
 30
0.0
 40
1.009131199999999
 50
270.51612600000101
 51
359.48387000000042
  0
LINE
  5
15754
  8
AM_0
 10
743.65254097236027
 20
234.3363740404869
 30
0.0
 11
743.65254097236027
 21
235.55638404048679
 31
0.0
  0
POINT
  5
15755
  8
AM_0
 10
748.14644097236044
 20
249.9363840404869
 30
0.0
  0
LINE
  5
15756
  8
AM_0
 10
743.65254097236027
 20
255.5363640404868
 30
0.0
 11
743.65254097236027
 21
254.3763840404869
 31
0.0
  0
ARC
  5
15757
  8
AM_0
 10
744.66032097236052
 20
254.92857404048681
 30
0.0
 40
0.9922232599999995
 50
269.54915499999811
 51
0.4508500000008747
  0
LINE
  5
15758
  8
AM_0
 10
740.6525409723605
 20
273.9363840404867
 30
0.0
 11
744.6525409723605
 21
273.9363840404867
 31
0.0
  0
LINE
  5
15759
  8
AM_0
 10
740.6525409723605
 20
275.9363840404867
 30
0.0
 11
744.6525409723605
 21
275.9363840404867
 31
0.0
  0
LINE
  5
1575A
  8
AM_0
 10
740.6525409723605
 20
263.93638404048681
 30
0.0
 11
744.6525409723605
 21
263.93638404048681
 31
0.0
  0
LINE
  5
1575B
  8
AM_0
 10
740.6525409723605
 20
265.93638404048681
 30
0.0
 11
744.6525409723605
 21
265.93638404048681
 31
0.0
  0
LINE
  5
1575C
  8
AM_0
 10
740.6525409723605
 20
255.93638404048679
 30
0.0
 11
744.6525409723605
 21
255.93638404048679
 31
0.0
  0
ARC
  5
1575D
  8
AM_0
 10
740.64351097236033
 20
266.92735404048682
 30
0.0
 40
0.9910124499999998
 50
179.47800000000419
 51
270.52199999999573
  0
ARC
  5
1575E
  8
AM_0
 10
733.32039097236054
 20
264.9463640404868
 30
0.0
 40
1.3300231999999981
 50
269.66153200000082
 51
90.338480000003955
  0
ARC
  5
1575F
  8
AM_0
 10
732.09251097236051
 20
264.9363840404867
 30
0.0
 40
1.000012399999999
 50
270.00000299999761
 51
89.999999999999986
  0
ARC
  5
15760
  8
AM_0
 10
740.6604209723605
 20
262.92848404048681
 30
0.0
 40
1.0079203999999991
 50
90.448489999997136
 51
179.55151000000279
  0
ARC
  5
15761
  8
AM_0
 10
732.10133097236064
 20
274.93638404048693
 30
0.0
 40
1.0000386999999991
 50
269.4956679999986
 51
90.504339999996859
  0
ARC
  5
15762
  8
AM_0
 10
733.18983097236037
 20
274.95637404048682
 30
0.0
 40
1.460102599999999
 50
269.32100700000188
 51
90.678999999997785
  0
ARC
  5
15763
  8
AM_0
 10
740.64351097236033
 20
276.92735404048682
 30
0.0
 40
0.9910124499999998
 50
179.47800000000419
 51
270.52199999999573
  0
ARC
  5
15764
  8
AM_0
 10
740.6604209723605
 20
272.92848404048692
 30
0.0
 40
1.0079203999999991
 50
90.448489999997136
 51
179.55151000000279
  0
LINE
  5
15765
  8
AM_0
 10
748.14644097236055
 20
265.15815404048692
 30
0.0
 11
747.64644097236044
 21
267.92817404048679
 31
0.0
  0
LINE
  5
15766
  8
AM_0
 10
743.65254097236027
 20
265.53636404048677
 30
0.0
 11
743.65254097236027
 21
264.3163940404869
 31
0.0
  0
ARC
  5
15767
  8
AM_0
 10
744.66032097236052
 20
264.92857404048681
 30
0.0
 40
0.9922232599999995
 50
269.54915499999811
 51
0.4508500000008747
  0
ARC
  5
15768
  8
AM_0
 10
744.64345097236026
 20
264.9272940404868
 30
0.0
 40
1.009131199999999
 50
0.5161299999995606
 51
89.483870000000366
  0
LINE
  5
15769
  8
AM_0
 10
747.64644097236044
 20
267.92817404048679
 30
0.0
 11
747.14644097236044
 21
267.88816404048669
 31
0.0
  0
LINE
  5
1576A
  8
AM_0
 10
747.1525409723605
 20
269.93638404048693
 30
0.0
 11
745.6525409723605
 21
270.05638404048688
 31
0.0
  0
LINE
  5
1576B
  8
AM_0
 10
743.65254097236027
 20
275.55638404048682
 30
0.0
 11
743.65254097236027
 21
274.1963640404868
 31
0.0
  0
ARC
  5
1576C
  8
AM_0
 10
744.64345097236026
 20
274.9272940404868
 30
0.0
 40
1.009131199999999
 50
0.5161299999995606
 51
89.483870000000366
  0
ARC
  5
1576D
  8
AM_0
 10
744.66032097236052
 20
274.92857404048681
 30
0.0
 40
0.9922232599999995
 50
269.54915499999811
 51
0.4508500000008747
  0
LINE
  5
15770
  8
AM_0
 10
693.65254097236027
 20
296.2763840404869
 30
0.0
 11
599.83253097236059
 21
296.2763840404869
 31
0.0
  0
LINE
  5
15771
  8
AM_0
 10
714.65254097236073
 20
313.81637404048678
 30
0.0
 11
599.85277084565701
 21
313.81637404048689
 31
0.0
  0
LINE
  5
15772
  8
AM_0
 10
714.65254097236073
 20
315.17637404048668
 30
0.0
 11
599.85277084565701
 21
315.17637404048679
 31
0.0
  0
LINE
  5
15773
  8
AM_0
 10
714.65254097236073
 20
315.83637404048682
 30
0.0
 11
599.85277084565701
 21
315.83637404048682
 31
0.0
  0
LINE
  5
15774
  8
AM_0
 10
732.09252849146014
 20
283.9363840815729
 30
0.0
 11
659.6525409723605
 21
283.9363840815729
 31
0.0
  0
LINE
  5
15775
  8
AM_0
 10
732.98253097236045
 20
283.30638404048682
 30
0.0
 11
659.6525409723605
 21
283.30638404048682
 31
0.0
  0
LINE
  5
15776
  8
AM_0
 10
732.98253097236045
 20
286.66636404048683
 30
0.0
 11
659.6525409723605
 21
286.66636404048683
 31
0.0
  0
LINE
  5
15777
  8
AM_0
 10
659.6525409723605
 20
285.9363840404867
 30
0.0
 11
732.10252097236071
 21
285.9363840404867
 31
0.0
  0
LINE
  5
15778
  8
AM_0
 10
714.65254097236073
 20
311.7963740404868
 30
0.0
 11
659.6525409723605
 21
311.7963740404868
 31
0.0
  0
LINE
  5
1577D
  8
AM_0
 10
570.65254097236073
 20
311.43640858837023
 30
0.0
 11
545.90060541298203
 21
311.43640858836989
 31
0.0
  0
LINE
  5
1577F
  8
0
 10
494.65248698085412
 20
308.93641404048668
 30
0.0
 11
484.82730237511009
 21
308.93641404048702
 31
0.0
  0
ARC
  5
15780
  8
0
 10
457.47771371275519
 20
303.93641404048702
 30
0.0
 40
5.0
 50
12.373625116192381
 51
90.0
1001
GENIUS_GENOBJ-N-FIL_13
1002
{
1000
OWNER
1000
GEN
1002
}
1001
GENIUS_GENODEF_13
1002
{
1000
HIER
1070
     0
1002
}
1002
{
1000
MANEDIT
1070
     0
1002
}
1002
{
1000
NOSEL
1070
     0
1002
}
1002
{
1000
BEHIND
1070
     0
1002
}
1002
{
1000
OTHER
1070
     0
1002
}
1002
{
1000
REACTOR
1002
}
  0
LINE
  5
15781
  8
0
 10
457.47771371275519
 20
308.93641404048702
 30
0.0
 11
427.6525267494892
 21
308.93641404048702
 31
0.0
  0
ARC
  5
15782
  8
0
 10
471.15250804393258
 20
306.93641404048702
 30
0.0
 40
9.0
 50
270.0
 51
347.62637488380761
  0
ARC
  5
15783
  8
0
 10
471.15250804393258
 20
306.93641404048702
 30
0.0
 40
9.0
 50
192.37362511619239
 51
270.0
  0
CIRCLE
  5
15784
  8
AM_0
 10
471.15250804393258
 20
306.93641404048708
 30
0.0
 40
6.0
  0
CIRCLE
  5
15785
  8
AM_0
 10
471.15250804393258
 20
306.93641404048708
 30
0.0
 40
5.0
  0
POLYLINE
  5
15786
  8
AM_0
 66
     1
 10
0.0
 20
0.0
 30
0.0
 70
     1
  0
VERTEX
  5
15787
  8
AM_0
 10
469.70913237095829
 20
304.43641404048719
 30
0.0
  0
VERTEX
  5
15788
  8
AM_0
 10
468.26575669798439
 20
306.93641404048708
 30
0.0
  0
VERTEX
  5
15789
  8
AM_0
 10
469.70913237095829
 20
309.43641404048708
 30
0.0
  0
VERTEX
  5
1578A
  8
AM_0
 10
472.5958837169066
 20
309.43641404048708
 30
0.0
  0
VERTEX
  5
1578B
  8
AM_0
 10
474.03925938988061
 20
306.93641404048708
 30
0.0
  0
VERTEX
  5
1578C
  8
AM_0
 10
472.5958837169066
 20
304.43641404048719
 30
0.0
  0
SEQEND
  5
1578D
  8
AM_0
  0
ARC
  5
1578E
  8
0
 10
484.82730237511009
 20
303.93641404048702
 30
0.0
 40
5.0
 50
90.0
 51
167.62637488380761
1001
GENIUS_GENODEF_13
1002
{
1000
HIER
1070
     0
1002
}
1002
{
1000
MANEDIT
1070
     0
1002
}
1002
{
1000
NOSEL
1070
     0
1002
}
1002
{
1000
BEHIND
1070
     0
1002
}
1002
{
1000
OTHER
1070
     0
1002
}
1002
{
1000
REACTOR
1002
}
1001
GENIUS_GENOBJ-N-FIL_13
1002
{
1000
OWNER
1000
GEN
1002
}
  0
ARC
  5
1578F
  8
0
 10
530.63657737952553
 20
318.40181445545028
 30
0.0
 40
5.0
 50
28.886635164657829
 51
132.49561021877699
1001
GENIUS_GENOBJ-N-FIL_13
1002
{
1000
OWNER
1000
GEN
1002
}
1001
GENIUS_GENODEF_13
1002
{
1000
HIER
1070
     0
1002
}
1002
{
1000
MANEDIT
1070
     0
1002
}
1002
{
1000
NOSEL
1070
     0
1002
}
1002
{
1000
BEHIND
1070
     0
1002
}
1002
{
1000
OTHER
1070
     0
1002
}
1002
{
1000
REACTOR
1002
}
  0
LINE
  5
15790
  8
ﾁｭｳｼﾝｾﾝ
 10
519.15255956368583
 20
317.4364055307567
 30
0.0
 11
519.15256056265605
 21
344.07321904070773
 31
0.0
1001
GENIUS_GENODEF_13
1002
{
1000
HIER
1070
     0
1002
}
1002
{
1000
MANEDIT
1070
     0
1002
}
1002
{
1000
NOSEL
1070
     0
1002
}
1002
{
1000
BEHIND
1070
     0
1002
}
1002
{
1000
OTHER
1070
     0
1002
}
1002
{
1000
REACTOR
1002
}
1001
GENIUS_GENOBJ-N-CEN_13
1002
{
1000
OWNER
1000
GEN
1002
}
  0
ARC
  5
15791
  8
0
 10
519.15250416855565
 20
330.93640908332247
 30
0.0
 40
12.0
 50
166.3910249458809
 51
312.4956102187773
  0
LINE
  5
15792
  8
0
 10
531.41058908378284
 20
337.69950531749191
 30
0.0
 11
547.41062220126719
 21
308.69950919002929
 31
0.0
  0
LINE
  5
15793
  8
0
 10
507.51683541345
 20
322.83629637901538
 30
0.0
 11
495.38472002788779
 21
310.70418099345318
 31
0.0
  0
LINE
  5
15794
  8
0
 10
534.15254097236129
 20
308.93641404048668
 30
0.0
 11
500.68802088678723
 21
308.93641404048668
 31
0.0
  0
LINE
  5
15795
  8
0
 10
511.05236868658062
 20
319.30076184028042
 30
0.0
 11
498.92025393382067
 21
307.16864708752053
 31
0.0
  0
ARC
  5
15796
  8
0
 10
497.15248698085429
 20
308.9364140404868
 30
0.0
 40
2.5
 50
135.0000000000006
 51
315.00000000000063
  0
ARC
  5
15797
  8
0
  6
CONTINUOUS
 62
     7
 10
513.17368903014005
 20
317.1794414967207
 30
0.0
 40
3.0
 50
66.510183605526422
 51
135.0000000000006
1001
GENIUS_GENODEF_13
1002
{
1000
HIER
1070
     0
1002
}
1002
{
1000
MANEDIT
1070
     0
1002
}
1002
{
1000
NOSEL
1070
     0
1002
}
1002
{
1000
BEHIND
1070
     0
1002
}
1002
{
1000
OTHER
1070
     0
1002
}
1002
{
1000
REACTOR
1002
}
1001
GENIUS_GENOBJ-N-FIL_13
1002
{
1000
OWNER
1000
GEN
1002
}
  0
CIRCLE
  5
15798
  8
0
 10
535.15250804393281
 20
301.9364140404868
 30
0.0
 40
4.0
  0
ARC
  5
15799
  8
0
 10
534.15254097236129
 20
298.93641404048702
 30
0.0
 40
10.0
 50
0.0
 51
90.0
1001
GENIUS_GENOBJ-N-FIL_13
1002
{
1000
OWNER
1000
GEN
1002
}
1001
GENIUS_GENODEF_13
1002
{
1000
HIER
1070
     0
1002
}
1002
{
1000
MANEDIT
1070
     0
1002
}
1002
{
1000
NOSEL
1070
     0
1002
}
1002
{
1000
BEHIND
1070
     0
1002
}
1002
{
1000
OTHER
1070
     0
1002
}
1002
{
1000
REACTOR
1002
}
  0
CIRCLE
  5
1579A
  8
ｷｲﾛ
 10
535.15247311561029
 20
301.93641479238448
 30
0.0
 40
5.0
  0
ARC
  5
1579B
  8
AM_0
 10
552.58100661867275
 20
284.91559988513848
 30
0.0
 40
2.999999999999996
 50
6.6607143203167842
 51
90.0
1001
GENIUS_GENODEF_13
1002
{
1000
HIER
1070
     0
1002
}
1002
{
1000
MANEDIT
1070
     0
1002
}
1002
{
1000
NOSEL
1070
     0
1002
}
1002
{
1000
BEHIND
1070
     0
1002
}
1002
{
1000
OTHER
1070
     0
1002
}
1002
{
1000
REACTOR
1002
}
1001
GENIUS_GENOBJ-N-FIL_13
1002
{
1000
OWNER
1000
GEN
1002
}
  0
LINE
  5
1579C
  8
AM_0
 10
552.58100661867275
 20
287.91559988513842
 30
0.0
 11
549.15254097236129
 21
287.91559988513808
 31
0.0
  0
ARC
  5
1579D
  8
AM_0
 10
535.15254061473286
 20
301.93641479238448
 30
0.0
 40
9.0000003576278651
 50
0.0
 51
28.886635164657829
  0
LINE
  5
1579E
  8
0
 10
535.01446354859775
 20
320.81720525005119
 30
0.0
 11
543.03273603219463
 21
306.28411839542838
 31
0.0
  0
ARC
  5
1579F
  8
AM_0
 10
535.15254061473286
 20
301.93641479238448
 30
0.0
 40
14.00000035762786
 50
0.0
 51
28.886635164657829
  0
ARC
  5
157A0
  8
0
 10
519.15250416855542
 20
330.93640908332247
 30
0.0
 40
14.00000415934085
 50
28.886635164657829
 51
90.0
  0
LINE
  5
157A1
  8
ﾁｭｳｼﾝｾﾝ
 10
505.72537357993281
 20
330.93640603432129
 30
0.0
 11
532.28937357993243
 21
330.93640503808177
 31
0.0
1001
GENIUS_GENODEF_13
1002
{
1000
HIER
1070
     0
1002
}
1002
{
1000
MANEDIT
1070
     0
1002
}
1002
{
1000
NOSEL
1070
     0
1002
}
1002
{
1000
BEHIND
1070
     0
1002
}
1002
{
1000
OTHER
1070
     0
1002
}
1002
{
1000
REACTOR
1002
}
1001
GENIUS_GENOBJ-N-CEN_13
1002
{
1000
OWNER
1000
GEN
1002
}
  0
ARC
  5
157A2
  8
0
  6
CONTINUOUS
 62
     7
 10
505.39551506989028
 20
324.95761672257498
 30
0.0
 40
3.0
 50
315.00000000000063
 51
23.489807071749912
1001
GENIUS_GENODEF_13
1002
{
1000
HIER
1070
     0
1002
}
1002
{
1000
MANEDIT
1070
     0
1002
}
1002
{
1000
NOSEL
1070
     0
1002
}
1002
{
1000
BEHIND
1070
     0
1002
}
1002
{
1000
OTHER
1070
     0
1002
}
1002
{
1000
REACTOR
1002
}
1001
GENIUS_GENOBJ-N-FIL_13
1002
{
1000
OWNER
1000
GEN
1002
}
  0
ARC
  5
157A3
  8
0
 10
502.62979353363681
 20
334.93641324266349
 30
0.0
 40
5.0
 50
346.39102494588087
 51
90.0
1001
GENIUS_GENOBJ-N-FIL_13
1002
{
1000
OWNER
1000
GEN
1002
}
1001
GENIUS_GENODEF_13
1002
{
1000
HIER
1070
     0
1002
}
1002
{
1000
MANEDIT
1070
     0
1002
}
1002
{
1000
NOSEL
1070
     0
1002
}
1002
{
1000
BEHIND
1070
     0
1002
}
1002
{
1000
OTHER
1070
     0
1002
}
1002
{
1000
REACTOR
1002
}
  0
CIRCLE
  5
157A4
  8
0
 10
519.15250416855565
 20
330.93640908332247
 30
0.0
 40
5.4999999999999973
  0
LINE
  5
157A5
  8
AM_7
  6
AM_ISO08W050X2
 10
519.15250416855565
 20
330.93640908332247
 30
0.0
 11
519.15250416855565
 21
330.93640908332247
 31
0.0
1001
GENIUS_GENODEF_13
1002
{
1000
HIER
1070
     0
1002
}
1002
{
1000
MANEDIT
1070
     0
1002
}
1002
{
1000
NOSEL
1070
     0
1002
}
1002
{
1000
BEHIND
1070
     0
1002
}
1002
{
1000
OTHER
1070
     0
1002
}
1002
{
1000
REACTOR
1002
}
1001
GENIUS_GENOBJ-N-CEN_13
1002
{
1000
OWNER
1000
GEN
1002
}
  0
LINE
  5
157A8
  8
AM_0
 10
615.15254097236061
 20
283.30638404048682
 30
0.0
 11
630.1525409723605
 21
283.30638404048682
 31
0.0
  0
LINE
  5
157A9
  8
AM_0
 10
599.83253097236059
 20
285.93638404048681
 30
0.0
 11
659.6525409723605
 21
285.9363840404867
 31
0.0
  0
LINE
  5
157AA
  8
AM_0
 10
599.83253097236059
 20
283.93638404048681
 30
0.0
 11
659.6525409723605
 21
283.93638404048681
 31
0.0
  0
LINE
  5
157AB
  8
AM_0
 10
659.6525409723605
 20
311.7963740404868
 30
0.0
 11
599.83253097236059
 21
311.79637404048691
 31
0.0
  0
LINE
  5
157AC
  8
AM_0
 10
659.6525409723605
 20
286.66636404048683
 30
0.0
 11
599.83253097236059
 21
286.66636404048683
 31
0.0
  0
ARC
  5
157AD
  8
AM_0
 10
592.64345097236048
 20
312.9272940404868
 30
0.0
 40
1.009131199999999
 50
0.5161299999995606
 51
89.483870000000366
  0
ARC
  5
157AE
  8
AM_0
 10
592.64412097236061
 20
300.96797404048681
 30
0.0
 40
1.008444499999998
 50
9.546070000003926
 51
89.522200000000396
  0
LINE
  5
157AF
  8
AM_0
 10
584.6525409723605
 20
287.07639858836978
 30
0.0
 11
574.65254097236061
 21
287.07639858836978
 31
0.0
  0
LINE
  5
157B0
  8
0
  6
CONTINUOUS
 62
     7
 10
592.6525409723605
 20
287.07636310526942
 30
0.0
 11
584.6525409723605
 21
287.07636310526942
 31
0.0
  0
LINE
  5
157B1
  8
AM_0
 10
584.6525409723605
 20
301.97640858837002
 30
0.0
 11
574.65254097236061
 21
301.97640858837002
 31
0.0
  0
LINE
  5
157B2
  8
AM_0
 10
584.6525409723605
 20
313.93640858837028
 30
0.0
 11
575.52593814476495
 21
313.93640858837028
 31
0.0
  0
ARC
  5
157B3
  8
AM_0
 10
575.52593814476495
 20
310.93640858837028
 30
0.0
 40
2.999999999999996
 50
90.0
 51
144.31466528734541
1001
GENIUS_GENOBJ-N-FIL_13
1002
{
1000
OWNER
1000
GEN
1002
}
1001
GENIUS_GENODEF_13
1002
{
1000
HIER
1070
     0
1002
}
1002
{
1000
MANEDIT
1070
     0
1002
}
1002
{
1000
NOSEL
1070
     0
1002
}
1002
{
1000
BEHIND
1070
     0
1002
}
1002
{
1000
OTHER
1070
     0
1002
}
1002
{
1000
REACTOR
1002
}
  0
ARC
  5
157B4
  8
AM_0
 10
570.65254097236073
 20
314.43640858836989
 30
0.0
 40
2.999999999999996
 50
270.0
 51
324.31466528734541
1001
GENIUS_GENOBJ-N-FIL_13
1002
{
1000
OWNER
1000
GEN
1002
}
1001
GENIUS_GENODEF_13
1002
{
1000
HIER
1070
     0
1002
}
1002
{
1000
MANEDIT
1070
     0
1002
}
1002
{
1000
NOSEL
1070
     0
1002
}
1002
{
1000
BEHIND
1070
     0
1002
}
1002
{
1000
OTHER
1070
     0
1002
}
1002
{
1000
REACTOR
1002
}
  0
LINE
  5
157B5
  8
0
  6
CONTINUOUS
 62
     7
 10
592.6525409723605
 20
301.97637310526949
 30
0.0
 11
584.6525409723605
 21
301.97637310526949
 31
0.0
  0
LINE
  5
157B6
  8
0
  6
CONTINUOUS
 62
     7
 10
592.6525409723605
 20
313.93637310526952
 30
0.0
 11
584.6525409723605
 21
313.93637310526952
 31
0.0
  0
LINE
  5
157B7
  8
AM_0
 10
594.65254097236061
 20
292.79637404048691
 30
0.0
 11
594.65254097236061
 21
300.39637404048688
 31
0.0
  0
LINE
  5
157B8
  8
AM_0
 10
593.65254097236061
 20
292.79637404048691
 30
0.0
 11
593.65254097236061
 21
300.39637404048688
 31
0.0
  0
ARC
  5
157B9
  8
AM_0
 10
595.55254097236048
 20
298.39637404048682
 30
0.0
 40
1.7000007999999991
 50
0.000010000000991
 51
89.999979999997976
  0
LINE
  5
157BA
  8
AM_0
 10
599.83253097236059
 20
283.30638404048682
 30
0.0
 11
614.15254097236038
 21
283.30638404048682
 31
0.0
  0
ARC
  5
157BB
  8
AM_0
 10
599.31252097236063
 20
284.93638404048693
 30
0.0
 40
1.0000073999999981
 50
89.999999999999986
 51
270.00000299999761
  0
LINE
  5
157BC
  8
AM_0
 10
595.83253097236059
 20
283.30638404048682
 30
0.0
 11
599.83253097236059
 21
283.30638404048682
 31
0.0
  0
LINE
  5
157BD
  8
AM_0
 10
599.31252097236063
 20
285.93638404048681
 30
0.0
 11
599.83253097236059
 21
285.93638404048681
 31
0.0
  0
LINE
  5
157BE
  8
AM_0
 10
599.31252097236063
 20
283.93638404048681
 30
0.0
 11
599.83253097236059
 21
283.93638404048681
 31
0.0
  0
LINE
  5
157BF
  8
AM_0
 10
599.83253097236059
 20
286.66636404048683
 30
0.0
 11
593.65254117410086
 21
286.66636404048683
 31
0.0
  0
ARC
  5
157C0
  8
AM_0
 10
595.83864097236062
 20
284.98637404048691
 30
0.0
 40
1.680010999999999
 50
90.208029999998075
 51
269.79196900000039
  0
LINE
  5
157C1
  8
AM_0
 10
599.83253097236059
 20
296.2763840404869
 30
0.0
 11
597.25252097236046
 21
296.2763840404869
 31
0.0
  0
ARC
  5
157C2
  8
AM_0
 10
595.55254097236048
 20
294.79637404048691
 30
0.0
 40
1.699996899999999
 50
270.00000299999761
 51
359.99998000000448
  0
LINE
  5
157C3
  8
AM_0
 10
597.25252097236046
 20
294.79637404048691
 30
0.0
 11
597.25252097236046
 21
298.39637404048682
 31
0.0
  0
LINE
  5
157C4
  8
AM_0
 10
594.65254097236061
 20
292.79637404048691
 30
0.0
 11
593.65254097236061
 21
292.79637404048691
 31
0.0
  0
LINE
  5
157C5
  8
AM_0
 10
593.65254097236061
 20
295.81901404048688
 30
0.0
 11
594.65254097236061
 21
296.39634404048672
 31
0.0
  0
ARC
  5
157C6
  8
AM_0
 10
592.99168097236065
 20
297.7631640404868
 30
0.0
 40
1.4868058999999989
 50
296.38977999999901
 51
345.71726000000092
  0
LINE
  5
157C7
  8
AM_0
 10
593.65254097236061
 20
296.81901404048682
 30
0.0
 11
594.65254097236061
 21
297.39637404048688
 31
0.0
  0
LINE
  5
157C8
  8
AM_0
 10
594.65254097236061
 20
293.0963840404869
 30
0.0
 11
595.55254097236048
 21
293.0963840404869
 31
0.0
  0
ARC
  5
157C9
  8
AM_0
 10
614.15254097236038
 20
282.30638404048682
 30
0.0
 40
0.9999999999999998
 50
0.0
 51
89.999999999999986
1001
GENIUS_GENOBJ-N-FIL_13
1002
{
1000
OWNER
1000
GEN
1002
}
1001
GENIUS_GENODEF_13
1002
{
1000
HIER
1070
     0
1002
}
1002
{
1000
MANEDIT
1070
     0
1002
}
1002
{
1000
NOSEL
1070
     0
1002
}
1002
{
1000
BEHIND
1070
     0
1002
}
1002
{
1000
OTHER
1070
     0
1002
}
1002
{
1000
REACTOR
1002
}
  0
CIRCLE
  5
157CA
  8
AM_0
 10
625.15254097236061
 20
278.43641404048668
 30
0.0
 40
0.75
  0
CIRCLE
  5
157CB
  8
AM_0
 10
620.15254097236061
 20
278.43641404048668
 30
0.0
 40
0.75
  0
LINE
  5
157CC
  8
AM_0
 10
597.89253097236065
 20
310.29638404048683
 30
0.0
 11
595.15672097236063
 21
300.09638404048678
 31
0.0
  0
LINE
  5
157CD
  8
AM_0
 10
597.89253097236065
 20
314.33638404048668
 30
0.0
 11
596.3373785131522
 21
308.53826389181819
 31
0.0
  0
LINE
  5
157CE
  8
AM_0
 10
597.89253097236065
 20
313.67638404048671
 30
0.0
 11
595.96723683098514
 21
306.49825389181819
 31
0.0
  0
LINE
  5
157CF
  8
AM_0
 10
597.89253097236065
 20
312.3163840404867
 30
0.0
 11
595.24305183098522
 21
302.43825389181831
 31
0.0
  0
LINE
  5
157D0
  8
AM_0
 10
594.65254097236061
 20
300.39637404048688
 30
0.0
 11
593.65254097236061
 21
300.39637404048688
 31
0.0
  0
ARC
  5
157D1
  8
AM_0
 10
594.40565609221676
 20
309.05638404048682
 30
0.0
 40
2.0
 50
270.0
 51
344.98570240157682
1001
GENIUS_GENOBJ-N-FIL_13
1002
{
1000
OWNER
1000
GEN
1002
}
1001
GENIUS_GENODEF_13
1002
{
1000
HIER
1070
     0
1002
}
1002
{
1000
MANEDIT
1070
     0
1002
}
1002
{
1000
NOSEL
1070
     0
1002
}
1002
{
1000
BEHIND
1070
     0
1002
}
1002
{
1000
OTHER
1070
     0
1002
}
1002
{
1000
REACTOR
1002
}
  0
LINE
  5
157D2
  8
AM_0
 10
595.93454662352724
 20
305.01637404048682
 30
0.0
 11
594.03551441004993
 21
305.01637404048682
 31
0.0
  0
LINE
  5
157D3
  8
AM_0
 10
596.11693663902724
 20
307.05638404048682
 30
0.0
 11
594.40565609221676
 21
307.05638404048682
 31
0.0
  0
ARC
  5
157D4
  8
AM_0
 10
593.31132941005001
 20
302.95637404048682
 30
0.0
 40
2.0
 50
279.82304903972192
 51
344.98570240157682
1001
GENIUS_GENOBJ-N-FIL_13
1002
{
1000
OWNER
1000
GEN
1002
}
1001
GENIUS_GENODEF_13
1002
{
1000
HIER
1070
     0
1002
}
1002
{
1000
MANEDIT
1070
     0
1002
}
1002
{
1000
NOSEL
1070
     0
1002
}
1002
{
1000
BEHIND
1070
     0
1002
}
1002
{
1000
OTHER
1070
     0
1002
}
1002
{
1000
REACTOR
1002
}
  0
LINE
  5
157D5
  8
AM_0
 10
595.38738462352705
 20
300.95637404048682
 30
0.0
 11
593.65254120375096
 21
300.95637404048688
 31
0.0
  0
LINE
  5
157D6
  8
AM_0
 10
594.65254097236061
 20
300.09637404048681
 30
0.0
 11
595.55254097236048
 21
300.09637404048681
 31
0.0
  0
ARC
  5
157D7
  8
AM_0
 10
594.03551441005015
 20
307.01637404048682
 30
0.0
 40
2.0
 50
270.0
 51
344.98570240157682
1001
GENIUS_GENODEF_13
1002
{
1000
HIER
1070
     0
1002
}
1002
{
1000
MANEDIT
1070
     0
1002
}
1002
{
1000
NOSEL
1070
     0
1002
}
1002
{
1000
BEHIND
1070
     0
1002
}
1002
{
1000
OTHER
1070
     0
1002
}
1002
{
1000
REACTOR
1002
}
1001
GENIUS_GENOBJ-N-FIL_13
1002
{
1000
OWNER
1000
GEN
1002
}
  0
ARC
  5
157D8
  8
AM_0
 10
599.84218097236055
 20
313.81938404048668
 30
0.0
 40
2.0170177999999992
 50
90.273700000002734
 51
165.14839999999501
  0
ARC
  5
157D9
  8
AM_0
 10
599.84218097236055
 20
313.15938404048683
 30
0.0
 40
2.0170177999999992
 50
90.273700000002734
 51
165.14839999999501
  0
ARC
  5
157DA
  8
AM_0
 10
599.84218097236055
 20
311.79938404048681
 30
0.0
 40
2.0170177999999992
 50
90.273700000002734
 51
165.14839999999501
  0
LINE
  5
157DB
  8
AM_0
 10
596.84648329019365
 20
310.43637404048673
 30
0.0
 11
593.65254122342083
 21
310.43637404048673
 31
0.0
  0
ARC
  5
157DC
  8
AM_0
 10
599.84218097236055
 20
309.77938404048678
 30
0.0
 40
2.0170177999999992
 50
90.273700000002734
 51
165.14839999999501
  0
LINE
  5
157DD
  8
AM_0
 10
631.15254097236061
 20
283.30638404048682
 30
0.0
 11
659.6525409723605
 21
283.30638404048682
 31
0.0
  0
ARC
  5
157DE
  8
AM_0
 10
631.15254097236061
 20
282.30638404048682
 30
0.0
 40
0.9999999999999998
 50
89.999999999999986
 51
180.0
1001
GENIUS_GENOBJ-N-FIL_13
1002
{
1000
OWNER
1000
GEN
1002
}
1001
GENIUS_GENODEF_13
1002
{
1000
HIER
1070
     0
1002
}
1002
{
1000
MANEDIT
1070
     0
1002
}
1002
{
1000
NOSEL
1070
     0
1002
}
1002
{
1000
BEHIND
1070
     0
1002
}
1002
{
1000
OTHER
1070
     0
1002
}
1002
{
1000
REACTOR
1002
}
  0
LINE
  5
15819
  8
AM_0
 10
731.47252097236071
 20
308.19638404048669
 30
0.0
 11
718.15254097236038
 21
308.19638404048669
 31
0.0
  0
LINE
  5
1581A
  8
AM_0
 10
731.41252097236065
 20
302.91638404048672
 30
0.0
 11
718.15254097236038
 21
302.91638404048672
 31
0.0
  0
LINE
  5
1581B
  8
AM_0
 10
731.53252097236043
 20
313.23637404048668
 30
0.0
 11
718.03252097236054
 21
313.23637404048668
 31
0.0
  0
LINE
  5
1581C
  8
AM_0
 10
731.51253097236054
 20
311.59637404048669
 30
0.0
 11
718.15254097236038
 21
311.59637404048669
 31
0.0
  0
ARC
  5
1581D
  8
AM_0
 10
730.0131549730072
 20
287.57582404048691
 30
0.0
 40
6.0113901999999966
 50
93.439150000000865
 51
134.59596000000141
  0
ARC
  5
1581E
  8
AM_0
 10
730.46896497300725
 20
291.52796404048678
 30
0.0
 40
4.9987220999999984
 50
185.4135635000037
 51
260.5999409999983
  0
LINE
  5
1581F
  8
AM_0
 10
693.65254097236027
 20
296.2763840404869
 30
0.0
 11
729.6525409723605
 21
294.62364375865729
 31
0.0
  0
ARC
  5
15820
  8
AM_0
 10
715.65254097236073
 20
284.93638404048693
 30
0.0
 40
1.000000699999998
 50
270.00000299999761
 51
89.999999999999986
  0
ARC
  5
15821
  8
AM_0
 10
726.50231497300751
 20
291.1339540404868
 30
0.0
 40
1.0127640999999981
 50
134.49466000000089
 51
184.39325279999781
  0
ARC
  5
15822
  8
AM_0
 10
714.64320097236055
 20
309.78704404048671
 30
0.0
 40
2.0093488999999991
 50
0.2659600000003289
 51
89.734039999999638
  0
LINE
  5
15823
  8
AM_0
 10
716.65254097236073
 20
311.81637404048678
 30
0.0
 11
716.65254097236073
 21
304.41638404048678
 31
0.0
  0
ARC
  5
15824
  8
AM_0
 10
718.14522097236056
 20
304.40907404048681
 30
0.0
 40
1.4927157999999989
 50
179.71971999999951
 51
270.28027900000012
  0
ARC
  5
15825
  8
AM_0
 10
718.1463809723607
 20
309.69021404048681
 30
0.0
 40
1.4938501999999989
 50
179.7636399999989
 51
270.23636099999788
  0
ARC
  5
15826
  8
AM_0
 10
714.64461097236074
 20
313.84069404048682
 30
0.0
 40
1.9956942999999989
 50
14.97487999999842
 51
89.772649999998436
  0
ARC
  5
15827
  8
AM_0
 10
714.64503097236025
 20
313.16888404048677
 30
0.0
 40
2.007501099999998
 50
0.213699999997808
 51
89.78631000000108
  0
ARC
  5
15828
  8
AM_0
 10
714.64738097236057
 20
311.81121404048668
 30
0.0
 40
2.0051612999999988
 50
0.1472899999997176
 51
89.852710000000229
  0
ARC
  5
15829
  8
AM_0
 10
718.14839097236074
 20
313.09225404048681
 30
0.0
 40
1.4958794999999989
 50
179.84196000000071
 51
270.1580459999978
  0
ARC
  5
1582A
  8
AM_0
 10
718.02061097236071
 20
314.73243404048679
 30
0.0
 40
1.4961156999999989
 50
194.55818600000069
 51
270.45650499999601
  0
LINE
  5
1582B
  8
AM_0
 10
743.65254097236027
 20
299.41638404048678
 30
0.0
 11
743.65254097236027
 21
298.89637404048671
 31
0.0
  0
LINE
  5
1582C
  8
AM_0
 10
743.87254097236064
 20
299.53637404048681
 30
0.0
 11
745.15251097236046
 21
298.81639404048673
 31
0.0
  0
LINE
  5
1582D
  8
AM_0
 10
733.91252097236065
 20
298.27638404048668
 30
0.0
 11
733.39253097236053
 21
301.25637404048678
 31
0.0
  0
ARC
  5
1582E
  8
AM_0
 10
743.35902097236055
 20
296.5652640404868
 30
0.0
 40
1.0112084999999991
 50
59.481190000002343
 51
89.234310000002381
  0
ARC
  5
1582F
  8
AM_0
 10
743.37495097236069
 20
297.53193404048682
 30
0.0
 40
1.005138299999998
 50
61.6320599999979
 51
87.857709999999315
  0
ARC
  5
15830
  8
AM_0
 10
743.36028097236056
 20
290.90971404048679
 30
0.0
 40
1.0067359999999981
 50
59.413569999998458
 51
89.301939999998908
  0
ARC
  5
15831
  8
AM_0
 10
743.34688097236051
 20
292.04606404048678
 30
0.0
 40
1.0103179999999981
 50
57.311419999998783
 51
89.679859999998698
  0
ARC
  5
15832
  8
AM_0
 10
743.39424097236054
 20
295.4231740404868
 30
0.0
 40
1.0131911999999981
 50
61.831239999999241
 51
90.096279999999368
  0
ARC
  5
15833
  8
AM_0
 10
743.43929097236037
 20
284.61015404048692
 30
0.0
 40
1.0062370999999981
 50
66.995380000001106
 51
90.384759999995637
  0
ARC
  5
15834
  8
AM_0
 10
743.50987097236055
 20
282.66139404048681
 30
0.0
 40
1.015145099999998
 50
73.832330000000681
 51
90.978379999996932
  0
LINE
  5
15835
  8
AM_0
 10
729.6525409723605
 20
289.43638404048693
 30
0.0
 11
729.6525409723605
 21
286.65638404048678
 31
0.0
  0
LINE
  5
15836
  8
AM_0
 10
729.6525409723605
 20
298.27638404048668
 30
0.0
 11
729.6525409723605
 21
286.66636404048683
 31
0.0
  0
LINE
  5
15837
  8
AM_0
 10
739.65254097236027
 20
284.23637404048679
 30
0.0
 11
734.48077011355042
 21
284.23637404048679
 31
0.0
  0
ARC
  5
15838
  8
AM_0
 10
732.10133097236064
 20
284.93638404048693
 30
0.0
 40
1.0000386999999991
 50
269.4956679999986
 51
90.504339999996859
  0
ARC
  5
15839
  8
AM_0
 10
732.97252097236048
 20
284.97636404048683
 30
0.0
 40
1.6800001999999989
 50
270.00000299999761
 51
89.999999999999986
  0
LINE
  5
1583A
  8
AM_0
 10
743.43254097236047
 20
285.61637404048679
 30
0.0
 11
740.35252097236071
 21
285.61637404048679
 31
0.0
  0
ARC
  5
1583B
  8
AM_0
 10
740.65883097236065
 20
282.67005404048678
 30
0.0
 40
1.0063294999999981
 50
90.359249999995995
 51
179.640750000004
  0
LINE
  5
1583C
  8
AM_0
 10
743.49254097236064
 20
283.67637404048679
 30
0.0
 11
740.6525409723605
 21
283.67637404048679
 31
0.0
  0
ARC
  5
1583D
  8
AM_0
 10
740.34810097236073
 20
286.31193404048679
 30
0.0
 40
0.69557893
 50
179.63466000000051
 51
270.36533599999723
  0
LINE
  5
1583E
  8
AM_0
 10
739.65254097236027
 20
292.61637404048679
 30
0.0
 11
729.6525409723605
 21
292.61637404048679
 31
0.0
  0
LINE
  5
1583F
  8
AM_0
 10
739.65254097236027
 20
298.27638404048668
 30
0.0
 11
729.6525409723605
 21
298.27638404048668
 31
0.0
  0
LINE
  5
15840
  8
AM_0
 10
743.41252097236065
 20
298.53637404048692
 30
0.0
 11
740.15254097236073
 21
298.53637404048692
 31
0.0
  0
LINE
  5
15841
  8
AM_0
 10
743.37254097236053
 20
297.57636404048679
 30
0.0
 11
739.65254097236027
 21
297.57636404048679
 31
0.0
  0
ARC
  5
15842
  8
AM_0
 10
740.65959097236043
 20
295.42930404048678
 30
0.0
 40
1.0070831999999981
 50
90.401579999998404
 51
179.59842000000151
  0
LINE
  5
15843
  8
AM_0
 10
743.35252097236048
 20
293.05638404048682
 30
0.0
 11
739.65254097236027
 21
293.05638404048682
 31
0.0
  0
ARC
  5
15844
  8
AM_0
 10
740.65794097236051
 20
290.9109640404867
 30
0.0
 40
1.005422699999998
 50
90.308189999996685
 51
179.69181000000319
  0
LINE
  5
15845
  8
AM_0
 10
743.37254097236053
 20
291.91636404048671
 30
0.0
 11
740.6525409723605
 21
291.91636404048671
 31
0.0
  0
LINE
  5
15846
  8
AM_0
 10
743.39253097236053
 20
296.43638404048681
 30
0.0
 11
740.6525409723605
 21
296.43638404048681
 31
0.0
  0
ARC
  5
15847
  8
AM_0
 10
740.15889097236061
 20
298.03001404048672
 30
0.0
 40
0.50640076
 50
90.719699999998198
 51
179.28029999999521
  0
ARC
  5
15848
  8
AM_0
 10
744.65300097236059
 20
284.09168404048688
 30
0.0
 40
0.9995326999999996
 50
0.2681300000001308
 51
67.684949999999489
  0
LINE
  5
15849
  8
AM_0
 10
743.65254097236027
 20
285.31639404048678
 30
0.0
 11
743.65254097236027
 21
284.25636404048669
 31
0.0
  0
LINE
  5
1584A
  8
AM_0
 10
743.79256097236055
 20
283.6363640404868
 30
0.0
 11
744.93254097236058
 21
283.27635404048681
 31
0.0
  0
ARC
  5
1584B
  8
AM_0
 10
744.64809097236048
 20
282.3130340404868
 30
0.0
 40
1.004450099999999
 50
0.1901499999997262
 51
73.549649999996703
  0
LINE
  5
1584C
  8
AM_0
 10
743.83253097236047
 20
285.53636404048677
 30
0.0
 11
745.03252097236054
 21
285.01637404048682
 31
0.0
  0
ARC
  5
1584D
  8
AM_0
 10
744.64537097236064
 20
297.9461840404868
 30
0.0
 40
1.007194199999998
 50
359.44232
 51
59.766580000002023
  0
ARC
  5
1584E
  8
AM_0
 10
744.64754097236073
 20
294.76536404048682
 30
0.0
 40
1.0050607999999981
 50
0.6283999999989116
 51
62.441189999996062
  0
ARC
  5
1584F
  8
AM_0
 10
744.65080097236046
 20
291.1937740404868
 30
0.0
 40
1.0017338999999981
 50
0.1495399999973931
 51
57.262370000003038
  0
ARC
  5
15850
  8
AM_0
 10
744.64699097236064
 20
290.16709404048669
 30
0.0
 40
1.005592899999999
 50
0.5283799999988388
 51
59.818669999999848
  0
ARC
  5
15851
  8
AM_0
 10
744.65355097236045
 20
295.79093404048677
 30
0.0
 40
0.9989832599999996
 50
0.3123899999989832
 51
60.034639999996749
  0
ARC
  5
15852
  8
AM_0
 10
744.64949097236035
 20
296.89646404048682
 30
0.0
 40
1.003051899999998
 50
359.99423000000229
 51
63.787349999998312
  0
LINE
  5
15853
  8
AM_0
 10
743.65254097236027
 20
292.75636404048669
 30
0.0
 11
743.65254097236027
 21
292.27638404048679
 31
0.0
  0
LINE
  5
15854
  8
AM_0
 10
743.65254097236027
 20
297.3163940404869
 30
0.0
 11
743.65254097236027
 21
296.77638404048679
 31
0.0
  0
LINE
  5
15855
  8
AM_0
 10
743.8725109723606
 20
296.31639404048678
 30
0.0
 11
745.11253097236056
 21
295.6563540404868
 31
0.0
  0
LINE
  5
15856
  8
AM_0
 10
743.87254097236064
 20
291.77638404048679
 30
0.0
 11
745.1525409723605
 21
291.03636404048672
 31
0.0
  0
LINE
  5
15857
  8
AM_0
 10
743.89253097236065
 20
292.89634404048672
 30
0.0
 11
745.19255097236055
 21
292.03636404048677
 31
0.0
  0
LINE
  5
15858
  8
AM_0
 10
743.85252097236071
 20
298.41638404048672
 30
0.0
 11
745.09251097236051
 21
297.79640404048678
 31
0.0
  0
LINE
  5
15859
  8
AM_0
 10
743.87254097236064
 20
297.43635404048678
 30
0.0
 11
745.15251097236046
 21
296.65638404048678
 31
0.0
  0
ARC
  5
1585A
  8
AM_0
 10
743.36165097236074
 20
298.67462404048689
 30
0.0
 40
1.001807999999998
 50
59.338330000005243
 51
89.37717999999613
  0
LINE
  5
1585B
  8
AM_0
 10
733.45253097236059
 20
310.05638404048671
 30
0.0
 11
734.37251097236071
 21
306.17637404048679
 31
0.0
  0
LINE
  5
1585C
  8
AM_0
 10
733.47252097236071
 20
311.71635404048681
 30
0.0
 11
734.35252097236071
 21
308.1763640404867
 31
0.0
  0
ARC
  5
1585D
  8
AM_0
 10
735.80269097236044
 20
308.5551440404866
 30
0.0
 40
1.4987989999999991
 50
194.6381350000004
 51
270.37655799999698
  0
LINE
  5
1585E
  8
AM_0
 10
735.81252097236074
 20
307.05638404048682
 30
0.0
 11
734.17253097236051
 21
307.05638404048682
 31
0.0
  0
LINE
  5
1585F
  8
AM_0
 10
735.83253097236047
 20
305.01637404048671
 30
0.0
 11
733.7725409723605
 21
305.01637404048671
 31
0.0
  0
ARC
  5
15860
  8
AM_0
 10
735.86137097236053
 20
302.4553240404868
 30
0.0
 40
1.498966199999999
 50
191.5036759999999
 51
269.66153200000082
  0
LINE
  5
15861
  8
AM_0
 10
735.85252097236037
 20
300.95637404048682
 30
0.0
 11
733.43254097236047
 21
300.95637404048682
 31
0.0
  0
ARC
  5
15862
  8
AM_0
 10
735.83620097236064
 20
306.51977404048682
 30
0.0
 40
1.5034073999999991
 50
193.20385600000469
 51
269.86041400000022
  0
LINE
  5
15863
  8
AM_0
 10
739.65254097236027
 20
307.31411037057939
 30
0.0
 11
734.81255097236055
 21
307.41636404048683
 31
0.0
  0
ARC
  5
15864
  8
AM_0
 10
731.47343097236035
 20
306.1918040404866
 30
0.0
 40
2.0045697999999992
 50
12.227909999996781
 51
90.025959999996459
  0
ARC
  5
15865
  8
AM_0
 10
731.41612097236055
 20
300.90982404048668
 30
0.0
 40
2.0065659999999981
 50
9.9456800000009853
 51
90.102469999995733
  0
LINE
  5
15866
  8
AM_0
 10
733.43251097236055
 20
306.61636404048681
 30
0.0
 11
734.39253097236065
 21
302.15637404048681
 31
0.0
  0
LINE
  5
15867
  8
AM_0
 10
743.37254097236053
 20
299.67637404048679
 30
0.0
 11
740.15254097236073
 21
299.67637404048679
 31
0.0
  0
ARC
  5
15868
  8
AM_0
 10
740.14818097236048
 20
300.1720240404868
 30
0.0
 40
0.4956644499999998
 50
179.49662000000049
 51
270.5033810000005
  0
ARC
  5
15869
  8
AM_0
 10
731.52525097236071
 20
311.22904404048671
 30
0.0
 40
2.007332599999998
 50
14.05006000000024
 51
89.792179999998822
  0
ARC
  5
1586A
  8
AM_0
 10
731.5062409723605
 20
309.59649404048668
 30
0.0
 40
1.9998908999999989
 50
13.29430000000143
 51
89.819579999998538
  0
LINE
  5
15BF0
  8
AM_0
 10
204.42144439084311
 20
314.80904619214817
 30
0.0
 11
220.42144439084319
 21
314.80904619214817
 31
0.0
  0
LINE
  5
15BF1
  8
AM_0
 10
204.42144439084311
 20
185.06349327926301
 30
0.0
 11
220.42144439084319
 21
185.06349327926301
 31
0.0
  0
LINE
  5
15D33
  8
AM_0
 10
203.4184196357661
 20
441.5956042269961
 30
0.0
 11
203.41841963576601
 21
453.44682926183771
 31
0.0
  0
LINE
  5
15D34
  8
AM_0
 10
207.41841975097509
 20
441.5956042269961
 30
0.0
 11
186.8536514294436
 21
441.5956042269961
 31
0.0
  0
LINE
  5
15D35
  8
AM_0
 10
207.41841975097509
 20
441.5956042269961
 30
0.0
 11
207.41841975097509
 21
396.59605288590473
 31
0.0
  0
LINE
  5
15D36
  8
ﾁｭｳｼﾝｾﾝ1
 10
88.418405872784518
 20
419.09582855645021
 30
0.0
 11
212.41841508691149
 21
419.09582855645021
 31
0.0
  0
LINE
  5
15D37
  8
ﾁｭｳｼﾝｾﾝ1
 10
150.41841047984789
 20
394.09582855645021
 30
0.0
 11
150.41841047984789
 21
444.09582855645021
 31
0.0
  0
LINE
  5
15D38
  8
AM_0
 10
93.418408838115624
 20
441.5956042269961
 30
0.0
 11
112.4756613296158
 21
441.5956042269961
 31
0.0
  0
LINE
  5
15D39
  8
AM_0
 10
97.418408953324942
 20
441.5956042269961
 30
0.0
 11
97.418408953324942
 21
453.27784027420751
 31
0.0
  0
LINE
  5
15D3A
  8
AM_0
 10
93.418410536848128
 20
396.59605355645027
 30
0.0
 11
93.418410536848128
 21
441.59560355645021
 31
0.0
  0
LINE
  5
15D3B
  8
AM_0
 10
93.418408838115624
 20
441.5956042269961
 30
0.0
 11
93.418408838115624
 21
396.59605288590473
 31
0.0
  0
LINE
  5
15D3C
  8
AM_0
 10
207.4183783205377
 20
437.39581634941902
 30
0.0
 11
93.418408838115624
 21
437.39581634941902
 31
0.0
  0
LINE
  5
15D3D
  8
AM_0
 10
96.41840883811561
 20
434.09582855645027
 30
0.0
 11
96.41840883811561
 21
404.09582855644999
 31
0.0
  0
LINE
  5
15D3E
  8
AM_0
 10
96.418378320537855
 20
404.09582855645021
 30
0.0
 11
93.418378320537855
 21
402.36377774888132
 31
0.0
  0
LINE
  5
15D3F
  8
AM_0
 10
114.0684027346
 20
404.09582855644999
 30
0.0
 11
96.41840883811561
 21
404.09582855644999
 31
0.0
  0
LINE
  5
15D40
  8
AM_0
 10
114.0684027346
 20
434.79584076348129
 30
0.0
 11
114.0684027346
 21
403.39584686699692
 31
0.0
  0
LINE
  5
15D41
  8
AM_0
 10
115.4183783205377
 20
403.39584686699692
 30
0.0
 11
114.0684027346
 21
403.39584686699692
 31
0.0
  0
LINE
  5
15D42
  8
AM_0
 10
115.4183783205377
 20
434.79584076348129
 30
0.0
 11
115.4183783205377
 21
403.39584686699692
 31
0.0
  0
LINE
  5
15D43
  8
AM_0
 10
139.4183783205377
 20
404.09582855644999
 30
0.0
 11
115.4183783205377
 21
404.09582855644999
 31
0.0
  0
LINE
  5
15D44
  8
AM_0
 10
114.0684027346
 20
434.09582855645027
 30
0.0
 11
96.41840883811561
 21
434.09582855645027
 31
0.0
  0
LINE
  5
15D45
  8
AM_0
 10
96.418378320537855
 20
434.09582855645027
 30
0.0
 11
93.418378320537855
 21
435.82787936401922
 31
0.0
  0
LINE
  5
15D46
  8
AM_0
 10
115.4183783205377
 20
434.79584076348129
 30
0.0
 11
114.0684027346
 21
434.79584076348129
 31
0.0
  0
LINE
  5
15D47
  8
AM_0
 10
139.4183783205377
 20
434.09582855645027
 30
0.0
 11
115.4183783205377
 21
434.09582855645027
 31
0.0
  0
LINE
  5
15D48
  8
AM_0
 10
139.4183783205377
 20
434.3458285564501
 30
0.0
 11
139.4183783205377
 21
403.8458285564501
 31
0.0
  0
LINE
  5
15D49
  8
AM_0
 10
161.41837832053761
 20
403.8458285564501
 30
0.0
 11
139.4183783205377
 21
403.8458285564501
 31
0.0
  0
LINE
  5
15D4A
  8
AM_0
 10
161.41837832053761
 20
434.3458285564501
 30
0.0
 11
161.41837832053761
 21
403.8458285564501
 31
0.0
  0
LINE
  5
15D4B
  8
AM_0
 10
185.41837832053761
 20
404.09582855644999
 30
0.0
 11
161.41837832053761
 21
404.09582855644999
 31
0.0
  0
LINE
  5
15D4C
  8
AM_0
 10
161.41837832053761
 20
434.3458285564501
 30
0.0
 11
139.4183783205377
 21
434.3458285564501
 31
0.0
  0
LINE
  5
15D4D
  8
AM_0
 10
185.41837832053761
 20
434.09582855645027
 30
0.0
 11
161.41837832053761
 21
434.09582855645027
 31
0.0
  0
LINE
  5
15D4E
  8
AM_0
 10
185.41837832053761
 20
434.79584076348129
 30
0.0
 11
186.7683844240531
 21
434.79584076348129
 31
0.0
  0
LINE
  5
15D4F
  8
AM_0
 10
186.7683844240531
 20
434.79584076348129
 30
0.0
 11
186.7683844240531
 21
403.39584686699692
 31
0.0
  0
LINE
  5
15D50
  8
AM_0
 10
185.41837832053761
 20
434.79584076348129
 30
0.0
 11
185.41837832053761
 21
403.39584686699692
 31
0.0
  0
LINE
  5
15D51
  8
AM_0
 10
185.41837832053761
 20
403.39584686699692
 30
0.0
 11
186.7683844240531
 21
403.39584686699692
 31
0.0
  0
LINE
  5
15D52
  8
AM_0
 10
204.4183783205379
 20
404.09582855644999
 30
0.0
 11
186.7683844240531
 21
404.09582855644999
 31
0.0
  0
LINE
  5
15D53
  8
AM_0
 10
204.4183783205377
 20
434.09582855645027
 30
0.0
 11
204.4183783205379
 21
404.09582855644999
 31
0.0
  0
LINE
  5
15D54
  8
AM_0
 10
204.41837832053761
 20
404.09582855645021
 30
0.0
 11
207.41837832053761
 21
402.36377774888132
 31
0.0
  0
LINE
  5
15D55
  8
AM_0
 10
204.4183783205379
 20
434.09582855645027
 30
0.0
 11
186.7683844240531
 21
434.09582855645027
 31
0.0
  0
LINE
  5
15D56
  8
AM_0
 10
204.41837832053761
 20
434.09582855645027
 30
0.0
 11
207.41837832053761
 21
435.82787936401922
 31
0.0
  0
LINE
  5
15D57
  8
AM_0
 10
194.4184196357661
 20
441.5956042269961
 30
0.0
 11
194.4184196357659
 21
449.09582855644999
 31
0.0
  0
LINE
  5
15D58
  8
AM_0
 10
106.4184089533249
 20
441.5956042269961
 30
0.0
 11
106.4184089533249
 21
449.0958285564501
 31
0.0
  0
LINE
  5
15D59
  8
AM_0
 10
97.418408953324942
 20
449.0958285564501
 30
0.0
 11
106.4184089533248
 21
449.09582855644999
 31
0.0
  0
LINE
  5
15D5A
  8
AM_0
 10
194.4184196357661
 20
449.09582855644999
 30
0.0
 11
203.4184196357661
 21
449.09582855644999
 31
0.0
  0
LINE
  5
15D5B
  8
AM_0
 10
97.418408953324942
 20
441.5956042269961
 30
0.0
 11
106.4184089533248
 21
449.09582855644999
 31
0.0
  0
LINE
  5
15D5C
  8
AM_0
 10
97.418408953324871
 20
449.09552945051132
 30
0.0
 11
106.4184089533249
 21
441.5956042269961
 31
0.0
  0
LINE
  5
15D5D
  8
AM_0
 10
203.41841963576601
 20
449.09552945051138
 30
0.0
 11
194.4184196357661
 21
441.5956042269961
 31
0.0
  0
LINE
  5
15D5E
  8
AM_0
 10
203.41841963576601
 20
441.5956042269961
 30
0.0
 11
194.4184196357659
 21
449.09582855644999
 31
0.0
  0
POLYLINE
  5
15D5F
  8
AM_4
 66
     1
 10
0.0
 20
0.0
 30
0.0
  0
VERTEX
  5
15D60
  8
AM_4
 10
203.41841963576601
 20
453.44682926183771
 30
0.0
  0
VERTEX
  5
15D61
  8
AM_4
 10
202.89925499848189
 20
453.26674341133071
 30
0.0
  0
VERTEX
  5
15D62
  8
AM_4
 10
201.44431078036121
 20
452.79802574300862
 30
0.0
  0
VERTEX
  5
15D63
  8
AM_4
 10
200.23633861332641
 20
452.43145780818588
 30
0.0
  0
VERTEX
  5
15D64
  8
AM_4
 10
199.22156232449149
 20
452.12889910645748
 30
0.0
  0
VERTEX
  5
15D65
  8
AM_4
 10
198.3462057409705
 20
451.85220913741807
 30
0.0
  0
VERTEX
  5
15D66
  8
AM_4
 10
197.55649268987719
 20
451.56324740066248
 30
0.0
  0
VERTEX
  5
15D67
  8
AM_4
 10
196.80798727282311
 20
451.23125530769869
 30
0.0
  0
VERTEX
  5
15D68
  8
AM_4
 10
196.0936146894075
 20
450.85500191768978
 30
0.0
  0
VERTEX
  5
15D69
  8
AM_4
 10
195.41564041372749
 20
450.44063820171237
 30
0.0
  0
VERTEX
  5
15D6A
  8
AM_4
 10
194.7763299198794
 20
449.99431513084329
 30
0.0
  0
VERTEX
  5
15D6B
  8
AM_4
 10
194.1779486819604
 20
449.5221836761587
 30
0.0
  0
VERTEX
  5
15D6C
  8
AM_4
 10
193.62276217406699
 20
449.0303948087352
 30
0.0
  0
VERTEX
  5
15D6D
  8
AM_4
 10
193.1130358702959
 20
448.52509949964968
 30
0.0
  0
VERTEX
  5
15D6E
  8
AM_4
 10
192.65103524474409
 20
448.01244871997812
 30
0.0
  0
VERTEX
  5
15D6F
  8
AM_4
 10
192.23740480509281
 20
447.49847275963663
 30
0.0
  0
VERTEX
  5
15D70
  8
AM_4
 10
191.8663051933631
 20
446.98871918389489
 30
0.0
  0
VERTEX
  5
15D71
  8
AM_4
 10
191.53027608516061
 20
446.4886148768623
 30
0.0
  0
VERTEX
  5
15D72
  8
AM_4
 10
191.221857156091
 20
446.00358672264758
 30
0.0
  0
VERTEX
  5
15D73
  8
AM_4
 10
190.93358808175969
 20
445.53906160536042
 30
0.0
  0
VERTEX
  5
15D74
  8
AM_4
 10
190.65800853777259
 20
445.10046640910957
 30
0.0
  0
VERTEX
  5
15D75
  8
AM_4
 10
190.38765819973511
 20
444.69322801800422
 30
0.0
  0
VERTEX
  5
15D76
  8
AM_4
 10
190.11507674325321
 20
444.32277331615308
 30
0.0
  0
VERTEX
  5
15D77
  8
AM_4
 10
189.83429510349771
 20
443.99244353204051
 30
0.0
  0
VERTEX
  5
15D78
  8
AM_4
 10
189.54530925390239
 20
443.69723727164859
 30
0.0
  0
VERTEX
  5
15D79
  8
AM_4
 10
189.24960642746629
 20
443.43006748533458
 30
0.0
  0
VERTEX
  5
15D7A
  8
AM_4
 10
188.94867385718811
 20
443.18384712345568
 30
0.0
  0
VERTEX
  5
15D7B
  8
AM_4
 10
188.64399877606701
 20
442.95148913636888
 30
0.0
  0
VERTEX
  5
15D7C
  8
AM_4
 10
188.3370684171021
 20
442.72590647443161
 30
0.0
  0
VERTEX
  5
15D7D
  8
AM_4
 10
188.02937001329241
 20
442.50001208800097
 30
0.0
  0
VERTEX
  5
15D7E
  8
AM_4
 10
187.72239079763679
 20
442.26671892743383
 30
0.0
  0
VERTEX
  5
15D7F
  8
AM_4
 10
187.41411461832999
 20
442.0208657346422
 30
0.0
  0
VERTEX
  5
15D80
  8
AM_4
 10
187.08851178434861
 20
441.76499441775559
 30
0.0
  0
VERTEX
  5
15D81
  8
AM_4
 10
186.7260492198653
 20
441.50357267645842
 30
0.0
  0
VERTEX
  5
15D82
  8
AM_4
 10
186.307193849052
 20
441.24106821043438
 30
0.0
  0
VERTEX
  5
15D83
  8
AM_4
 10
185.81241259608149
 20
440.98194871936829
 30
0.0
  0
VERTEX
  5
15D84
  8
AM_4
 10
185.2221723851259
 20
440.7306819029443
 30
0.0
  0
VERTEX
  5
15D85
  8
AM_4
 10
184.51694014035741
 20
440.49173546084643
 30
0.0
  0
VERTEX
  5
15D86
  8
AM_4
 10
183.67718278594859
 20
440.26957709275882
 30
0.0
  0
VERTEX
  5
15D87
  8
AM_4
 10
182.69132642616711
 20
440.06870291824077
 30
0.0
  0
VERTEX
  5
15D88
  8
AM_4
 10
181.57963388566151
 20
439.89372273635018
 30
0.0
  0
VERTEX
  5
15D89
  8
AM_4
 10
180.37032716917571
 20
439.74927476601982
 30
0.0
  0
VERTEX
  5
15D8A
  8
AM_4
 10
179.09162828145381
 20
439.6399972261824
 30
0.0
  0
VERTEX
  5
15D8B
  8
AM_4
 10
177.7717592272393
 20
439.57052833577097
 30
0.0
  0
VERTEX
  5
15D8C
  8
AM_4
 10
176.43894201127659
 20
439.54550631371808
 30
0.0
  0
VERTEX
  5
15D8D
  8
AM_4
 10
175.1213986383091
 20
439.56956937895688
 30
0.0
  0
VERTEX
  5
15D8E
  8
AM_4
 10
173.8473511130812
 20
439.64735575041999
 30
0.0
  0
VERTEX
  5
15D8F
  8
AM_4
 10
172.6369425913318
 20
439.7795246662933
 30
0.0
  0
VERTEX
  5
15D90
  8
AM_4
 10
171.47800083278111
 20
439.95081944177429
 30
0.0
  0
VERTEX
  5
15D91
  8
AM_4
 10
170.3502747481449
 20
440.1420044113143
 30
0.0
  0
VERTEX
  5
15D92
  8
AM_4
 10
169.23351324813819
 20
440.33384390936379
 30
0.0
  0
VERTEX
  5
15D93
  8
AM_4
 10
168.1074652434769
 20
440.50710227037371
 30
0.0
  0
VERTEX
  5
15D94
  8
AM_4
 10
166.95187964487641
 20
440.64254382879523
 30
0.0
  0
VERTEX
  5
15D95
  8
AM_4
 10
165.74650536305191
 20
440.72093291907862
 30
0.0
  0
VERTEX
  5
15D96
  8
AM_4
 10
164.47109130871931
 20
440.7230338756749
 30
0.0
  0
VERTEX
  5
15D97
  8
AM_4
 10
163.11382435864709
 20
440.6371016282946
 30
0.0
  0
VERTEX
  5
15D98
  8
AM_4
 10
161.69664325381771
 20
440.48135348768631
 30
0.0
  0
VERTEX
  5
15D99
  8
AM_4
 10
160.2499247012662
 20
440.28149735985841
 30
0.0
  0
VERTEX
  5
15D9A
  8
AM_4
 10
158.80404540802809
 20
440.06324115081878
 30
0.0
  0
VERTEX
  5
15D9B
  8
AM_4
 10
157.3893820811391
 20
439.85229276657577
 30
0.0
  0
VERTEX
  5
15D9C
  8
AM_4
 10
156.03631142763459
 20
439.67436011313748
 30
0.0
  0
VERTEX
  5
15D9D
  8
AM_4
 10
154.7752101545496
 20
439.55515109651259
 30
0.0
  0
VERTEX
  5
15D9E
  8
AM_4
 10
153.63645496891991
 20
439.52037362270858
 30
0.0
  0
VERTEX
  5
15D9F
  8
AM_4
 10
152.63747437753861
 20
439.58688899000981
 30
0.0
  0
VERTEX
  5
15DA0
  8
AM_4
 10
151.7439040862298
 20
439.73617206580087
 30
0.0
  0
VERTEX
  5
15DA1
  8
AM_4
 10
150.9084316005754
 20
439.9408511097426
 30
0.0
  0
VERTEX
  5
15DA2
  8
AM_4
 10
150.08374442615741
 20
440.17355438149548
 30
0.0
  0
VERTEX
  5
15DA3
  8
AM_4
 10
149.22253006855749
 20
440.40691014071967
 30
0.0
  0
VERTEX
  5
15DA4
  8
AM_4
 10
148.27747603335769
 20
440.61354664707568
 30
0.0
  0
VERTEX
  5
15DA5
  8
AM_4
 10
147.20126982613991
 20
440.7660921602245
 30
0.0
  0
VERTEX
  5
15DA6
  8
AM_4
 10
145.9465989524858
 20
440.8371749398263
 30
0.0
  0
VERTEX
  5
15DA7
  8
AM_4
 10
144.4826409775834
 20
440.80860243893437
 30
0.0
  0
VERTEX
  5
15DA8
  8
AM_4
 10
142.8445337050442
 20
440.69889888417327
 30
0.0
  0
VERTEX
  5
15DA9
  8
AM_4
 10
141.08390499808581
 20
440.53576769556048
 30
0.0
  0
VERTEX
  5
15DAA
  8
AM_4
 10
139.25238271992549
 20
440.34691229311341
 30
0.0
  0
VERTEX
  5
15DAB
  8
AM_4
 10
137.4015947337808
 20
440.16003609684878
 30
0.0
  0
VERTEX
  5
15DAC
  8
AM_4
 10
135.58316890286949
 20
440.0028425267846
 30
0.0
  0
VERTEX
  5
15DAD
  8
AM_4
 10
133.8487330904087
 20
439.903035002938
 30
0.0
  0
VERTEX
  5
15DAE
  8
AM_4
 10
132.24991515961611
 20
439.8883169453261
 30
0.0
  0
VERTEX
  5
15DAF
  8
AM_4
 10
130.8241776188774
 20
439.9769923667788
 30
0.0
  0
VERTEX
  5
15DB0
  8
AM_4
 10
129.55232155725241
 20
440.14976765137521
 30
0.0
  0
VERTEX
  5
15DB1
  8
AM_4
 10
128.4009827089686
 20
440.37794977600601
 30
0.0
  0
VERTEX
  5
15DB2
  8
AM_4
 10
127.33679680825421
 20
440.63284571756299
 30
0.0
  0
VERTEX
  5
15DB3
  8
AM_4
 10
126.3263995893368
 20
440.88576245293677
 30
0.0
  0
VERTEX
  5
15DB4
  8
AM_4
 10
125.3364267864446
 20
441.10800695901929
 30
0.0
  0
VERTEX
  5
15DB5
  8
AM_4
 10
124.333514133805
 20
441.27088621270099
 30
0.0
  0
VERTEX
  5
15DB6
  8
AM_4
 10
123.2842973656462
 20
441.34570719087361
 30
0.0
  0
VERTEX
  5
15DB7
  8
AM_4
 10
122.165288297909
 20
441.3143081580717
 30
0.0
  0
VERTEX
  5
15DB8
  8
AM_4
 10
120.99250307338539
 20
441.20065252940259
 30
0.0
  0
VERTEX
  5
15DB9
  8
AM_4
 10
119.7918339165809
 20
441.03923500761778
 30
0.0
  0
VERTEX
  5
15DBA
  8
AM_4
 10
118.58917305200031
 20
440.86455029546829
 30
0.0
  0
VERTEX
  5
15DBB
  8
AM_4
 10
117.410412704149
 20
440.71109309570528
 30
0.0
  0
VERTEX
  5
15DBC
  8
AM_4
 10
116.281445097532
 20
440.61335811107932
 30
0.0
  0
VERTEX
  5
15DBD
  8
AM_4
 10
115.2281624566545
 20
440.60584004434219
 30
0.0
  0
VERTEX
  5
15DBE
  8
AM_4
 10
114.2764570060217
 20
440.72303359824429
 30
0.0
  0
VERTEX
  5
15DBF
  8
AM_4
 10
113.4449733608257
 20
440.9898212836892
 30
0.0
  0
VERTEX
  5
15DC0
  8
AM_4
 10
112.7233656990073
 20
441.39263684418688
 30
0.0
  0
VERTEX
  5
15DC1
  8
AM_4
 10
112.09404058919441
 20
441.90830183139968
 30
0.0
  0
VERTEX
  5
15DC2
  8
AM_4
 10
111.53940460001451
 20
442.51363779699
 30
0.0
  0
VERTEX
  5
15DC3
  8
AM_4
 10
111.0418643000959
 20
443.18546629261971
 30
0.0
  0
VERTEX
  5
15DC4
  8
AM_4
 10
110.5838262580658
 20
443.9006088699511
 30
0.0
  0
VERTEX
  5
15DC5
  8
AM_4
 10
110.14769704255249
 20
444.63588708064663
 30
0.0
  0
VERTEX
  5
15DC6
  8
AM_4
 10
109.71588322218351
 20
445.36812247636828
 30
0.0
  0
VERTEX
  5
15DC7
  8
AM_4
 10
109.273889578821
 20
446.07709635829548
 30
0.0
  0
VERTEX
  5
15DC8
  8
AM_4
 10
108.8196137472642
 20
446.75442902567528
 30
0.0
  0
VERTEX
  5
15DC9
  8
AM_4
 10
108.3540515755468
 20
447.3947005272716
 30
0.0
  0
VERTEX
  5
15DCA
  8
AM_4
 10
107.8781989117021
 20
447.9924909118489
 30
0.0
  0
VERTEX
  5
15DCB
  8
AM_4
 10
107.39305160376369
 20
448.54238022817083
 30
0.0
  0
VERTEX
  5
15DCC
  8
AM_4
 10
106.8996054997652
 20
449.0389485250019
 30
0.0
  0
VERTEX
  5
15DCD
  8
AM_4
 10
106.3988564477399
 20
449.47677585110603
 30
0.0
  0
VERTEX
  5
15DCE
  8
AM_4
 10
105.89180029572159
 20
449.85044225524729
 30
0.0
  0
VERTEX
  5
15DCF
  8
AM_4
 10
105.38076070034271
 20
450.15738294445458
 30
0.0
  0
VERTEX
  5
15DD0
  8
AM_4
 10
104.87337255263201
 20
450.40645375881502
 30
0.0
  0
VERTEX
  5
15DD1
  8
AM_4
 10
104.3785985522178
 20
450.6093656966803
 30
0.0
  0
VERTEX
  5
15DD2
  8
AM_4
 10
103.90540139872741
 20
450.77782975640253
 30
0.0
  0
VERTEX
  5
15DD3
  8
AM_4
 10
103.46274379178919
 20
450.92355693633328
 30
0.0
  0
VERTEX
  5
15DD4
  8
AM_4
 10
103.0595884310307
 20
451.0582582348249
 30
0.0
  0
VERTEX
  5
15DD5
  8
AM_4
 10
102.70489801608009
 20
451.19364465022858
 30
0.0
  0
VERTEX
  5
15DD6
  8
AM_4
 10
102.40763524656531
 20
451.34142718089669
 30
0.0
  0
VERTEX
  5
15DD7
  8
AM_4
 10
102.1582841772031
 20
451.5128550136335
 30
0.0
  0
VERTEX
  5
15DD8
  8
AM_4
 10
101.8734142830674
 20
451.71733008905579
 30
0.0
  0
VERTEX
  5
15DD9
  8
AM_4
 10
101.45111639432101
 20
451.96379253623257
 30
0.0
  0
VERTEX
  5
15DDA
  8
AM_4
 10
100.7894813411268
 20
452.2611824842333
 30
0.0
  0
VERTEX
  5
15DDB
  8
AM_4
 10
99.786599953647652
 20
452.61844006212709
 30
0.0
  0
VERTEX
  5
15DDC
  8
AM_4
 10
98.340563062046172
 20
453.04450539898352
 30
0.0
  0
VERTEX
  5
15DDD
  8
AM_4
 10
97.418408953324942
 20
453.27784027420751
 30
0.0
  0
SEQEND
  5
15DDE
  8
AM_4
  0
LINE
  5
15DDF
  8
AM_0
 10
207.41841975097509
 20
396.59605288590433
 30
0.0
 11
186.8536514294436
 21
396.59605288590421
 31
0.0
  0
POLYLINE
  5
15DE0
  8
AM_4
 66
     1
 10
0.0
 20
0.0
 30
0.0
  0
VERTEX
  5
15DE1
  8
AM_4
 10
203.41841963576601
 20
384.7448278510625
 30
0.0
  0
VERTEX
  5
15DE2
  8
AM_4
 10
202.89925499848189
 20
384.92491370156961
 30
0.0
  0
VERTEX
  5
15DE3
  8
AM_4
 10
201.44431078036121
 20
385.39363136989181
 30
0.0
  0
VERTEX
  5
15DE4
  8
AM_4
 10
200.23633861332641
 20
385.76019930471449
 30
0.0
  0
VERTEX
  5
15DE5
  8
AM_4
 10
199.22156232449149
 20
386.06275800644289
 30
0.0
  0
VERTEX
  5
15DE6
  8
AM_4
 10
198.3462057409705
 20
386.33944797548241
 30
0.0
  0
VERTEX
  5
15DE7
  8
AM_4
 10
197.55649268987719
 20
386.62840971223801
 30
0.0
  0
VERTEX
  5
15DE8
  8
AM_4
 10
196.80798727282311
 20
386.96040180520168
 30
0.0
  0
VERTEX
  5
15DE9
  8
AM_4
 10
196.0936146894075
 20
387.3366551952106
 30
0.0
  0
VERTEX
  5
15DEA
  8
AM_4
 10
195.41564041372749
 20
387.75101891118783
 30
0.0
  0
VERTEX
  5
15DEB
  8
AM_4
 10
194.7763299198794
 20
388.19734198205703
 30
0.0
  0
VERTEX
  5
15DEC
  8
AM_4
 10
194.1779486819604
 20
388.66947343674161
 30
0.0
  0
VERTEX
  5
15DED
  8
AM_4
 10
193.62276217406699
 20
389.16126230416501
 30
0.0
  0
VERTEX
  5
15DEE
  8
AM_4
 10
193.1130358702959
 20
389.66655761325057
 30
0.0
  0
VERTEX
  5
15DEF
  8
AM_4
 10
192.65103524474409
 20
390.17920839292208
 30
0.0
  0
VERTEX
  5
15DF0
  8
AM_4
 10
192.23740480509281
 20
390.6931843532638
 30
0.0
  0
VERTEX
  5
15DF1
  8
AM_4
 10
191.8663051933631
 20
391.20293792900549
 30
0.0
  0
VERTEX
  5
15DF2
  8
AM_4
 10
191.53027608516061
 20
391.70304223603807
 30
0.0
  0
VERTEX
  5
15DF3
  8
AM_4
 10
191.221857156091
 20
392.18807039025268
 30
0.0
  0
VERTEX
  5
15DF4
  8
AM_4
 10
190.93358808175969
 20
392.6525955075399
 30
0.0
  0
VERTEX
  5
15DF5
  8
AM_4
 10
190.65800853777259
 20
393.0911907037908
 30
0.0
  0
VERTEX
  5
15DF6
  8
AM_4
 10
190.38765819973511
 20
393.49842909489632
 30
0.0
  0
VERTEX
  5
15DF7
  8
AM_4
 10
190.11507674325321
 20
393.8688837967473
 30
0.0
  0
VERTEX
  5
15DF8
  8
AM_4
 10
189.83429510349771
 20
394.19921358085981
 30
0.0
  0
VERTEX
  5
15DF9
  8
AM_4
 10
189.54530925390239
 20
394.49441984125178
 30
0.0
  0
VERTEX
  5
15DFA
  8
AM_4
 10
189.24960642746629
 20
394.7615896275658
 30
0.0
  0
VERTEX
  5
15DFB
  8
AM_4
 10
188.94867385718811
 20
395.00780998944458
 30
0.0
  0
VERTEX
  5
15DFC
  8
AM_4
 10
188.64399877606701
 20
395.24016797653138
 30
0.0
  0
VERTEX
  5
15DFD
  8
AM_4
 10
188.3370684171021
 20
395.46575063846871
 30
0.0
  0
VERTEX
  5
15DFE
  8
AM_4
 10
188.02937001329241
 20
395.6916450248994
 30
0.0
  0
VERTEX
  5
15DFF
  8
AM_4
 10
187.72239079763679
 20
395.92493818546649
 30
0.0
  0
VERTEX
  5
15E00
  8
AM_4
 10
187.41411461832999
 20
396.17079137825817
 30
0.0
  0
VERTEX
  5
15E01
  8
AM_4
 10
187.08851178434861
 20
396.42666269514478
 30
0.0
  0
VERTEX
  5
15E02
  8
AM_4
 10
186.7260492198653
 20
396.68808443644213
 30
0.0
  0
VERTEX
  5
15E03
  8
AM_4
 10
186.307193849052
 20
396.95058890246588
 30
0.0
  0
VERTEX
  5
15E04
  8
AM_4
 10
185.81241259608149
 20
397.20970839353203
 30
0.0
  0
VERTEX
  5
15E05
  8
AM_4
 10
185.2221723851259
 20
397.46097520995608
 30
0.0
  0
VERTEX
  5
15E06
  8
AM_4
 10
184.51694014035741
 20
397.699921652054
 30
0.0
  0
VERTEX
  5
15E07
  8
AM_4
 10
183.67718278594859
 20
397.92208002014149
 30
0.0
  0
VERTEX
  5
15E08
  8
AM_4
 10
182.69132642616711
 20
398.12295419465971
 30
0.0
  0
VERTEX
  5
15E09
  8
AM_4
 10
181.57963388566151
 20
398.2979343765503
 30
0.0
  0
VERTEX
  5
15E0A
  8
AM_4
 10
180.37032716917571
 20
398.44238234688072
 30
0.0
  0
VERTEX
  5
15E0B
  8
AM_4
 10
179.09162828145381
 20
398.55165988671803
 30
0.0
  0
VERTEX
  5
15E0C
  8
AM_4
 10
177.7717592272393
 20
398.62112877712929
 30
0.0
  0
VERTEX
  5
15E0D
  8
AM_4
 10
176.43894201127659
 20
398.64615079918218
 30
0.0
  0
VERTEX
  5
15E0E
  8
AM_4
 10
175.1213986383091
 20
398.62208773394337
 30
0.0
  0
VERTEX
  5
15E0F
  8
AM_4
 10
173.8473511130812
 20
398.54430136248038
 30
0.0
  0
VERTEX
  5
15E10
  8
AM_4
 10
172.6369425913318
 20
398.41213244660707
 30
0.0
  0
VERTEX
  5
15E11
  8
AM_4
 10
171.47800083278111
 20
398.24083767112597
 30
0.0
  0
VERTEX
  5
15E12
  8
AM_4
 10
170.3502747481449
 20
398.04965270158613
 30
0.0
  0
VERTEX
  5
15E13
  8
AM_4
 10
169.23351324813819
 20
397.85781320353658
 30
0.0
  0
VERTEX
  5
15E14
  8
AM_4
 10
168.1074652434769
 20
397.6845548425265
 30
0.0
  0
VERTEX
  5
15E15
  8
AM_4
 10
166.95187964487641
 20
397.5491132841052
 30
0.0
  0
VERTEX
  5
15E16
  8
AM_4
 10
165.74650536305191
 20
397.4707241938217
 30
0.0
  0
VERTEX
  5
15E17
  8
AM_4
 10
164.47109130871931
 20
397.46862323722542
 30
0.0
  0
VERTEX
  5
15E18
  8
AM_4
 10
163.11382435864709
 20
397.55455548460571
 30
0.0
  0
VERTEX
  5
15E19
  8
AM_4
 10
161.69664325381771
 20
397.71030362521401
 30
0.0
  0
VERTEX
  5
15E1A
  8
AM_4
 10
160.2499247012662
 20
397.91015975304202
 30
0.0
  0
VERTEX
  5
15E1B
  8
AM_4
 10
158.80404540802809
 20
398.12841596208159
 30
0.0
  0
VERTEX
  5
15E1C
  8
AM_4
 10
157.3893820811391
 20
398.33936434632471
 30
0.0
  0
VERTEX
  5
15E1D
  8
AM_4
 10
156.03631142763459
 20
398.51729699976278
 30
0.0
  0
VERTEX
  5
15E1E
  8
AM_4
 10
154.7752101545496
 20
398.63650601638778
 30
0.0
  0
VERTEX
  5
15E1F
  8
AM_4
 10
153.63645496891991
 20
398.67128349019163
 30
0.0
  0
VERTEX
  5
15E20
  8
AM_4
 10
152.63747437753861
 20
398.6047681228905
 30
0.0
  0
VERTEX
  5
15E21
  8
AM_4
 10
151.7439040862298
 20
398.45548504709927
 30
0.0
  0
VERTEX
  5
15E22
  8
AM_4
 10
150.9084316005754
 20
398.25080600315772
 30
0.0
  0
VERTEX
  5
15E23
  8
AM_4
 10
150.08374442615741
 20
398.01810273140501
 30
0.0
  0
VERTEX
  5
15E24
  8
AM_4
 10
149.22253006855749
 20
397.78474697218081
 30
0.0
  0
VERTEX
  5
15E25
  8
AM_4
 10
148.27747603335769
 20
397.57811046582452
 30
0.0
  0
VERTEX
  5
15E26
  8
AM_4
 10
147.20126982613991
 20
397.42556495267581
 30
0.0
  0
VERTEX
  5
15E27
  8
AM_4
 10
145.9465989524858
 20
397.35448217307402
 30
0.0
  0
VERTEX
  5
15E28
  8
AM_4
 10
144.4826409775834
 20
397.383054673966
 30
0.0
  0
VERTEX
  5
15E29
  8
AM_4
 10
142.8445337050442
 20
397.49275822872693
 30
0.0
  0
VERTEX
  5
15E2A
  8
AM_4
 10
141.08390499808581
 20
397.65588941733978
 30
0.0
  0
VERTEX
  5
15E2B
  8
AM_4
 10
139.25238271992549
 20
397.84474481978708
 30
0.0
  0
VERTEX
  5
15E2C
  8
AM_4
 10
137.4015947337808
 20
398.0316210160517
 30
0.0
  0
VERTEX
  5
15E2D
  8
AM_4
 10
135.58316890286949
 20
398.18881458611583
 30
0.0
  0
VERTEX
  5
15E2E
  8
AM_4
 10
133.8487330904087
 20
398.28862210996238
 30
0.0
  0
VERTEX
  5
15E2F
  8
AM_4
 10
132.24991515961611
 20
398.30334016757439
 30
0.0
  0
VERTEX
  5
15E30
  8
AM_4
 10
130.8241776188774
 20
398.21466474612151
 30
0.0
  0
VERTEX
  5
15E31
  8
AM_4
 10
129.55232155725241
 20
398.04188946152522
 30
0.0
  0
VERTEX
  5
15E32
  8
AM_4
 10
128.4009827089686
 20
397.81370733689431
 30
0.0
  0
VERTEX
  5
15E33
  8
AM_4
 10
127.33679680825421
 20
397.55881139533739
 30
0.0
  0
VERTEX
  5
15E34
  8
AM_4
 10
126.3263995893368
 20
397.30589465996349
 30
0.0
  0
VERTEX
  5
15E35
  8
AM_4
 10
125.3364267864446
 20
397.08365015388119
 30
0.0
  0
VERTEX
  5
15E36
  8
AM_4
 10
124.333514133805
 20
396.92077090019927
 30
0.0
  0
VERTEX
  5
15E37
  8
AM_4
 10
123.2842973656462
 20
396.8459499220267
 30
0.0
  0
VERTEX
  5
15E38
  8
AM_4
 10
122.165288297909
 20
396.87734895482868
 30
0.0
  0
VERTEX
  5
15E39
  8
AM_4
 10
120.99250307338539
 20
396.99100458349773
 30
0.0
  0
VERTEX
  5
15E3A
  8
AM_4
 10
119.7918339165809
 20
397.15242210528248
 30
0.0
  0
VERTEX
  5
15E3B
  8
AM_4
 10
118.58917305200031
 20
397.32710681743202
 30
0.0
  0
VERTEX
  5
15E3C
  8
AM_4
 10
117.410412704149
 20
397.48056401719509
 30
0.0
  0
VERTEX
  5
15E3D
  8
AM_4
 10
116.281445097532
 20
397.57829900182099
 30
0.0
  0
VERTEX
  5
15E3E
  8
AM_4
 10
115.2281624566545
 20
397.5858170685583
 30
0.0
  0
VERTEX
  5
15E3F
  8
AM_4
 10
114.2764570060217
 20
397.46862351465597
 30
0.0
  0
VERTEX
  5
15E40
  8
AM_4
 10
113.4449733608257
 20
397.20183582921118
 30
0.0
  0
VERTEX
  5
15E41
  8
AM_4
 10
112.7233656990073
 20
396.79902026871349
 30
0.0
  0
VERTEX
  5
15E42
  8
AM_4
 10
112.09404058919441
 20
396.28335528150058
 30
0.0
  0
VERTEX
  5
15E43
  8
AM_4
 10
111.53940460001451
 20
395.67801931591032
 30
0.0
  0
VERTEX
  5
15E44
  8
AM_4
 10
111.0418643000959
 20
395.00619082028078
 30
0.0
  0
VERTEX
  5
15E45
  8
AM_4
 10
110.5838262580658
 20
394.29104824294922
 30
0.0
  0
VERTEX
  5
15E46
  8
AM_4
 10
110.14769704255249
 20
393.55577003225369
 30
0.0
  0
VERTEX
  5
15E47
  8
AM_4
 10
109.71588322218351
 20
392.82353463653197
 30
0.0
  0
VERTEX
  5
15E48
  8
AM_4
 10
109.273889578821
 20
392.11456075460478
 30
0.0
  0
VERTEX
  5
15E49
  8
AM_4
 10
108.8196137472642
 20
391.43722808722509
 30
0.0
  0
VERTEX
  5
15E4A
  8
AM_4
 10
108.3540515755468
 20
390.79695658562872
 30
0.0
  0
VERTEX
  5
15E4B
  8
AM_4
 10
107.8781989117021
 20
390.19916620105141
 30
0.0
  0
VERTEX
  5
15E4C
  8
AM_4
 10
107.39305160376369
 20
389.64927688472949
 30
0.0
  0
VERTEX
  5
15E4D
  8
AM_4
 10
106.8996054997652
 20
389.15270858789842
 30
0.0
  0
VERTEX
  5
15E4E
  8
AM_4
 10
106.3988564477399
 20
388.71488126179429
 30
0.0
  0
VERTEX
  5
15E4F
  8
AM_4
 10
105.89180029572159
 20
388.34121485765297
 30
0.0
  0
VERTEX
  5
15E50
  8
AM_4
 10
105.38076070034271
 20
388.03427416844579
 30
0.0
  0
VERTEX
  5
15E51
  8
AM_4
 10
104.87337255263201
 20
387.78520335408541
 30
0.0
  0
VERTEX
  5
15E52
  8
AM_4
 10
104.3785985522178
 20
387.58229141622002
 30
0.0
  0
VERTEX
  5
15E53
  8
AM_4
 10
103.90540139872741
 20
387.41382735649779
 30
0.0
  0
VERTEX
  5
15E54
  8
AM_4
 10
103.46274379178919
 20
387.26810017656697
 30
0.0
  0
VERTEX
  5
15E55
  8
AM_4
 10
103.0595884310307
 20
387.13339887807552
 30
0.0
  0
VERTEX
  5
15E56
  8
AM_4
 10
102.70489801608009
 20
386.9980124626718
 30
0.0
  0
VERTEX
  5
15E57
  8
AM_4
 10
102.40763524656531
 20
386.8502299320038
 30
0.0
  0
VERTEX
  5
15E58
  8
AM_4
 10
102.1582841772031
 20
386.67880209926687
 30
0.0
  0
VERTEX
  5
15E59
  8
AM_4
 10
101.8734142830674
 20
386.47432702384469
 30
0.0
  0
VERTEX
  5
15E5A
  8
AM_4
 10
101.45111639432101
 20
386.2278645766678
 30
0.0
  0
VERTEX
  5
15E5B
  8
AM_4
 10
100.7894813411268
 20
385.93047462866713
 30
0.0
  0
VERTEX
  5
15E5C
  8
AM_4
 10
99.786599953647652
 20
385.57321705077328
 30
0.0
  0
VERTEX
  5
15E5D
  8
AM_4
 10
98.340563062046172
 20
385.1471517139168
 30
0.0
  0
VERTEX
  5
15E5E
  8
AM_4
 10
97.418408953324942
 20
384.91381683869292
 30
0.0
  0
SEQEND
  5
15E5F
  8
AM_4
  0
LINE
  5
15E60
  8
AM_0
 10
203.41841963576601
 20
396.59605288590433
 30
0.0
 11
194.4184196357659
 21
389.09582855645027
 31
0.0
  0
LINE
  5
15E61
  8
AM_0
 10
203.41841963576601
 20
389.09612766238922
 30
0.0
 11
194.4184196357661
 21
396.59605288590433
 31
0.0
  0
LINE
  5
15E62
  8
AM_0
 10
194.4184196357661
 20
389.09582855645027
 30
0.0
 11
203.4184196357661
 21
389.09582855645027
 31
0.0
  0
LINE
  5
15E63
  8
AM_0
 10
194.4184196357661
 20
396.59605288590433
 30
0.0
 11
194.4184196357659
 21
389.09582855645021
 31
0.0
  0
LINE
  5
15E64
  8
AM_0
 10
203.4184196357661
 20
396.59605288590421
 30
0.0
 11
203.41841963576601
 21
384.7448278510625
 31
0.0
  0
LINE
  5
15E65
  8
AM_0
 10
93.418408838115624
 20
396.59605288590433
 30
0.0
 11
112.4756613296158
 21
396.59605288590433
 31
0.0
  0
LINE
  5
15E66
  8
AM_0
 10
97.418408953324942
 20
396.59605288590433
 30
0.0
 11
97.418408953324942
 21
384.91381683869292
 31
0.0
  0
LINE
  5
15E67
  8
AM_0
 10
97.418408953324871
 20
389.09612766238922
 30
0.0
 11
106.4184089533249
 21
396.59605288590421
 31
0.0
  0
LINE
  5
15E68
  8
AM_0
 10
97.418408953324942
 20
396.59605288590433
 30
0.0
 11
106.4184089533248
 21
389.09582855645021
 31
0.0
  0
LINE
  5
15E69
  8
AM_0
 10
106.4184089533249
 20
396.59605288590421
 30
0.0
 11
106.4184089533249
 21
389.09582855645021
 31
0.0
  0
LINE
  5
15E6A
  8
AM_0
 10
97.418408953324942
 20
389.09582855645021
 30
0.0
 11
106.4184089533248
 21
389.09582855645021
 31
0.0
  0
LINE
  5
16276
  8
AM_0
 10
475.65255814979639
 20
568.78976145439674
 30
0.0
 11
400.65255591462221
 21
568.78976145439674
 31
0.0
  0
LINE
  5
16278
  8
AM_0
 10
545.79107952719653
 20
564.78976896458255
 30
0.0
 11
376.51403590812907
 21
564.78976896458232
 31
0.0
  0
LINE
  5
1627A
  8
AM_0
 10
547.15259079824148
 20
486.7897590106063
 30
0.0
 11
375.1525551546631
 21
486.7897590106063
 31
0.0
  0
LINE
  5
1627B
  8
ﾁｭｳｼﾝｾﾝ1
 10
754.39649079824142
 20
515.78975987487365
 30
0.0
 11
368.90255515466299
 21
515.78975987487354
 31
0.0
1001
GENIUS_GENODEF_13
1002
{
1000
HIER
1070
     0
1002
}
1002
{
1000
MANEDIT
1070
     0
1002
}
1002
{
1000
NOSEL
1070
     0
1002
}
1002
{
1000
BEHIND
1070
     0
1002
}
1002
{
1000
REACTOR
1002
}
1001
GENIUS_GENOBJ-N-CEN_13
1002
{
1000
OWNER
1000
GEN
1002
}
  0
LINE
  5
1627C
  8
AM_0
 10
573.65259079824136
 20
577.28975487487412
 30
0.0
 11
573.65259079824136
 21
454.28977487487367
 31
0.0
  0
LINE
  5
1627D
  8
AM_0
 10
547.15259079816553
 20
486.7897590106063
 30
0.0
 11
545.79107952719653
 21
564.78976896458232
 31
0.0
  0
LINE
  5
16281
  8
AM_0
 10
584.65259079824148
 20
579.78978987487392
 30
0.0
 11
584.65259079824148
 21
451.78977487487379
 31
0.0
  0
LINE
  5
16282
  8
AM_0
 10
584.65259079824148
 20
478.64978487487377
 30
0.0
 11
574.65259079824125
 21
478.64978487487377
 31
0.0
  0
LINE
  5
16283
  8
AM_0
 10
584.65263206489169
 20
478.64977487489631
 30
0.0
 11
574.65263206489806
 21
478.64976376378502
 31
0.0
  0
LINE
  5
16284
  8
AM_0
 10
584.65259079824148
 20
463.74977487487388
 30
0.0
 11
574.65259079824125
 21
463.74977487487388
 31
0.0
  0
LINE
  5
16285
  8
AM_0
 10
584.65264862045865
 20
463.7497648749054
 30
0.0
 11
574.65264862046502
 21
463.7497537637941
 31
0.0
  0
LINE
  5
16286
  8
AM_0
 10
584.65259079824148
 20
451.78977487487379
 30
0.0
 11
575.52598797064593
 21
451.78977487487379
 31
0.0
  0
LINE
  5
16287
  8
AM_0
 10
554.79396034268916
 20
486.96407049610173
 30
0.0
 11
557.49286375009285
 21
456.11546338937859
 31
0.0
  0
LINE
  5
16288
  8
AM_0
 10
570.6525907982417
 20
454.28977487487367
 30
0.0
 11
559.48525314627614
 21
454.28977487487413
 31
0.0
  0
ARC
  5
16289
  8
AM_0
 10
570.6525907982417
 20
451.28977487487379
 30
0.0
 40
2.9999999999999978
 50
35.685334712654601
 51
90.0
1001
GENIUS_GENOBJ-N-FIL_13
1002
{
1000
OWNER
1000
GEN
1002
}
1001
GENIUS_GENODEF_13
1002
{
1000
HIER
1070
     0
1002
}
1002
{
1000
MANEDIT
1070
     0
1002
}
1002
{
1000
NOSEL
1070
     0
1002
}
1002
{
1000
BEHIND
1070
     0
1002
}
1002
{
1000
OTHER
1070
     0
1002
}
1002
{
1000
REACTOR
1002
}
  0
ARC
  5
1628A
  8
AM_0
 10
575.52598797064593
 20
454.78977487487367
 30
0.0
 40
2.9999999999999978
 50
215.68533471265459
 51
270.0
1001
GENIUS_GENOBJ-N-FIL_13
1002
{
1000
OWNER
1000
GEN
1002
}
1001
GENIUS_GENODEF_13
1002
{
1000
HIER
1070
     0
1002
}
1002
{
1000
MANEDIT
1070
     0
1002
}
1002
{
1000
NOSEL
1070
     0
1002
}
1002
{
1000
BEHIND
1070
     0
1002
}
1002
{
1000
OTHER
1070
     0
1002
}
1002
{
1000
REACTOR
1002
}
  0
ARC
  5
1628B
  8
AM_0
 10
559.48525314627614
 20
456.2897748748739
 30
0.0
 40
2.0
 50
184.99999999999969
 51
270.0
1001
GENIUS_GENOBJ-N-FIL_13
1002
{
1000
OWNER
1000
GEN
1002
}
1001
GENIUS_GENODEF_13
1002
{
1000
HIER
1070
     0
1002
}
1002
{
1000
MANEDIT
1070
     0
1002
}
1002
{
1000
NOSEL
1070
     0
1002
}
1002
{
1000
BEHIND
1070
     0
1002
}
1002
{
1000
OTHER
1070
     0
1002
}
1002
{
1000
REACTOR
1002
}
  0
ARC
  5
1628C
  8
AM_0
 10
552.80157094650576
 20
486.7897590106063
 30
0.0
 40
2.0
 50
4.9999999999997407
 51
90.0
1001
GENIUS_GENOBJ-N-FIL_13
1002
{
1000
OWNER
1000
GEN
1002
}
1001
GENIUS_GENODEF_13
1002
{
1000
HIER
1070
     0
1002
}
1002
{
1000
MANEDIT
1070
     0
1002
}
1002
{
1000
NOSEL
1070
     0
1002
}
1002
{
1000
BEHIND
1070
     0
1002
}
1002
{
1000
OTHER
1070
     0
1002
}
1002
{
1000
REACTOR
1002
}
  0
ARC
  5
1628E
  8
AM_0
 10
548.13528785931965
 20
487.7897590106063
 30
0.0
 40
1.0
 50
90.0
 51
181.00001177349739
1001
GENIUS_GENOBJ-N-FIL_13
1002
{
1000
OWNER
1000
GEN
1002
}
1001
GENIUS_GENODEF_13
1002
{
1000
HIER
1070
     0
1002
}
1002
{
1000
MANEDIT
1070
     0
1002
}
1002
{
1000
NOSEL
1070
     0
1002
}
1002
{
1000
BEHIND
1070
     0
1002
}
1002
{
1000
OTHER
1070
     0
1002
}
1002
{
1000
REACTOR
1002
}
  0
LINE
  5
1628F
  8
AM_0
 10
552.80157094650588
 20
488.7897590106063
 30
0.0
 11
548.13528785931965
 21
488.7897590106063
 31
0.0
  0
LINE
  5
16294
  8
AM_0
 10
584.65259079824148
 20
579.78975487487401
 30
0.0
 11
575.52598797064593
 21
579.78975487487401
 31
0.0
  0
LINE
  5
16295
  8
AM_0
 10
584.65259079824148
 20
567.82975487487374
 30
0.0
 11
574.65259079824125
 21
567.82975487487374
 31
0.0
  0
LINE
  5
16296
  8
AM_0
 10
584.65259079824148
 20
552.92974487487379
 30
0.0
 11
574.65259079824125
 21
552.92974487487379
 31
0.0
  0
LINE
  5
16297
  8
AM_0
 10
560.8198946841743
 20
562.78976896458255
 30
0.0
 11
547.7913841904591
 21
562.78976896458255
 31
0.0
  0
LINE
  5
16298
  8
AM_0
 10
563.76141437249669
 20
575.46406636036932
 30
0.0
 11
562.81228408035793
 21
564.61545747908713
 31
0.0
  0
ARC
  5
16299
  8
AM_0
 10
560.8198946841743
 20
564.78976896458255
 30
0.0
 40
2.0
 50
270.0
 51
355.00000000000028
1001
GENIUS_GENOBJ-N-FIL_13
1002
{
1000
OWNER
1000
GEN
1002
}
1001
GENIUS_GENODEF_13
1002
{
1000
HIER
1070
     0
1002
}
1002
{
1000
MANEDIT
1070
     0
1002
}
1002
{
1000
NOSEL
1070
     0
1002
}
1002
{
1000
BEHIND
1070
     0
1002
}
1002
{
1000
OTHER
1070
     0
1002
}
1002
{
1000
REACTOR
1002
}
  0
LINE
  5
1629A
  8
AM_0
 10
570.6525907982417
 20
577.28975487487401
 30
0.0
 11
565.75380376867997
 21
577.28975487487389
 31
0.0
  0
ARC
  5
1629B
  8
AM_0
 10
575.52598797064593
 20
576.78975487487401
 30
0.0
 40
2.9999999999999978
 50
90.0
 51
144.31466528734541
1001
GENIUS_GENOBJ-N-FIL_13
1002
{
1000
OWNER
1000
GEN
1002
}
1001
GENIUS_GENODEF_13
1002
{
1000
HIER
1070
     0
1002
}
1002
{
1000
MANEDIT
1070
     0
1002
}
1002
{
1000
NOSEL
1070
     0
1002
}
1002
{
1000
BEHIND
1070
     0
1002
}
1002
{
1000
OTHER
1070
     0
1002
}
1002
{
1000
REACTOR
1002
}
  0
ARC
  5
1629C
  8
AM_0
 10
570.6525907982417
 20
580.28975487487367
 30
0.0
 40
2.9999999999999978
 50
270.0
 51
324.31466528734541
1001
GENIUS_GENOBJ-N-FIL_13
1002
{
1000
OWNER
1000
GEN
1002
}
1001
GENIUS_GENODEF_13
1002
{
1000
HIER
1070
     0
1002
}
1002
{
1000
MANEDIT
1070
     0
1002
}
1002
{
1000
NOSEL
1070
     0
1002
}
1002
{
1000
BEHIND
1070
     0
1002
}
1002
{
1000
OTHER
1070
     0
1002
}
1002
{
1000
REACTOR
1002
}
  0
ARC
  5
1629D
  8
AM_0
 10
565.75380376867997
 20
575.28975487487367
 30
0.0
 40
2.0
 50
90.0
 51
175.00000000000031
1001
GENIUS_GENOBJ-N-FIL_13
1002
{
1000
OWNER
1000
GEN
1002
}
1001
GENIUS_GENODEF_13
1002
{
1000
HIER
1070
     0
1002
}
1002
{
1000
MANEDIT
1070
     0
1002
}
1002
{
1000
NOSEL
1070
     0
1002
}
1002
{
1000
BEHIND
1070
     0
1002
}
1002
{
1000
OTHER
1070
     0
1002
}
1002
{
1000
REACTOR
1002
}
  0
ARC
  5
1629E
  8
AM_0
 10
547.79138419045876
 20
564.78976896458255
 30
0.0
 40
2.0
 50
181.00001177355611
 51
270.0
1001
GENIUS_GENOBJ-N-FIL_13
1002
{
1000
OWNER
1000
GEN
1002
}
1001
GENIUS_GENODEF_13
1002
{
1000
HIER
1070
     0
1002
}
1002
{
1000
MANEDIT
1070
     0
1002
}
1002
{
1000
NOSEL
1070
     0
1002
}
1002
{
1000
BEHIND
1070
     0
1002
}
1002
{
1000
OTHER
1070
     0
1002
}
1002
{
1000
REACTOR
1002
}
  0
LINE
  5
1629F
  8
AM_0
 10
475.65255814979639
 20
568.78976145439674
 30
0.0
 11
475.65255814979639
 21
564.78976133518734
 31
0.0
  0
LINE
  5
162A0
  8
ﾁｭｳｼﾝｾﾝ1
 10
438.1525570322093
 20
577.78976157360626
 30
0.0
 11
438.15255703220902
 21
440.7897590106063
 31
0.0
  0
LINE
  5
162A4
  8
AM_0
 10
375.1525551546631
 20
486.7897590106063
 30
0.0
 11
376.51403590812907
 21
564.78976896458232
 31
0.0
  0
LINE
  5
162AD
  8
AM_0
 10
415.65255636165699
 20
572.78976157360626
 30
0.0
 11
460.6525577027615
 21
572.78976157360626
 31
0.0
  0
LINE
  5
162AE
  8
AM_0
 10
460.6525577027615
 20
572.78976157360626
 30
0.0
 11
460.6525577027615
 21
568.78976145439674
 31
0.0
  0
LINE
  5
162AF
  8
AM_0
 10
400.65255591462221
 20
568.78976145439674
 30
0.0
 11
400.65255591462221
 21
564.78976133518734
 31
0.0
  0
LINE
  5
162B0
  8
AM_0
 10
415.65255636165699
 20
572.78976157360626
 30
0.0
 11
415.65255636165699
 21
568.78976145439674
 31
0.0
  0
LINE
  5
162B1
  8
ｶｸﾚｾﾝ2
 10
616.15265079824132
 20
484.2897598748736
 30
0.0
 11
690.15265079824144
 21
484.2897598748736
 31
0.0
  0
LINE
  5
162B2
  8
ｶｸﾚｾﾝ2
 10
613.15265079824132
 20
487.2897598748736
 30
0.0
 11
613.15265079824132
 21
544.28975987487365
 31
0.0
  0
ARC
  5
162B3
  8
ｶｸﾚｾﾝ2
 10
616.15265079824155
 20
487.2897598748736
 30
0.0
 40
3.0
 50
180.0
 51
270.0
  0
LINE
  5
162B4
  8
ｶｸﾚｾﾝ2
 10
616.15265079824132
 20
547.28975987487365
 30
0.0
 11
690.15265079824144
 21
547.28975987487365
 31
0.0
  0
ARC
  5
162B5
  8
ｶｸﾚｾﾝ2
 10
616.15265079824155
 20
544.28975987487377
 30
0.0
 40
3.0
 50
90.0
 51
180.0
  0
LINE
  5
162B6
  8
ｶｸﾚｾﾝ2
 10
693.15265079824144
 20
544.28975987487365
 30
0.0
 11
693.15265079824144
 21
487.2897598748736
 31
0.0
  0
ARC
  5
162B7
  8
ｶｸﾚｾﾝ2
 10
690.15265079824144
 20
544.28975987487365
 30
0.0
 40
3.0
 50
0.0
 51
90.0
  0
ARC
  5
162B8
  8
ｶｸﾚｾﾝ2
 10
690.15265079824144
 20
487.2897598748736
 30
0.0
 40
3.0
 50
270.0
 51
0.0
  0
LINE
  5
162B9
  8
AM_0
 10
717.65262079824163
 20
579.67973987487358
 30
0.0
 11
664.65262079824151
 21
579.67973987487358
 31
0.0
  0
LINE
  5
162BA
  8
AM_0
 10
717.65262079824163
 20
581.02974987487346
 30
0.0
 11
664.65262079824151
 21
581.02974987487346
 31
0.0
  0
LINE
  5
162BB
  8
AM_0
 10
717.65262079824163
 20
581.70973987487355
 30
0.0
 11
664.65262079824151
 21
581.70973987487355
 31
0.0
  0
LINE
  5
162BC
  8
AM_0
 10
717.6526207982414
 20
451.89974887487358
 30
0.0
 11
664.65262079824151
 21
451.89974887487358
 31
0.0
  0
LINE
  5
162BD
  8
AM_0
 10
717.6526207982414
 20
450.54973487487359
 30
0.0
 11
664.65262079824151
 21
450.54973487487359
 31
0.0
  0
LINE
  5
162BE
  8
AM_0
 10
717.6526207982414
 20
449.87975287487359
 30
0.0
 11
664.65262079824151
 21
449.87975287487359
 31
0.0
  0
LINE
  5
162BF
  8
AM_0
 10
695.65262079824129
 20
469.43973987487362
 30
0.0
 11
593.65262079824151
 21
469.43973987487362
 31
0.0
  0
LINE
  5
162C0
  8
AM_0
 10
695.65262079824163
 20
562.1397498748737
 30
0.0
 11
593.65262079824151
 21
562.1397498748737
 31
0.0
  0
LINE
  5
162C1
  8
AM_0
 10
600.30259079824134
 20
479.78975987487343
 30
0.0
 11
735.10257079824135
 21
479.78975987487343
 31
0.0
  0
LINE
  5
162C2
  8
AM_0
 10
717.65262079824163
 20
577.64973987487372
 30
0.0
 11
600.8426307982412
 21
577.64973987487372
 31
0.0
  0
LINE
  5
162C3
  8
AM_0
 10
717.6526207982414
 20
453.92974787487373
 30
0.0
 11
600.8426307982412
 21
453.92974787487373
 31
0.0
  0
LINE
  5
162C4
  8
AM_0
 10
726.97263079824154
 20
552.5097398748735
 30
0.0
 11
596.83262079824135
 21
552.5097398748735
 31
0.0
  0
LINE
  5
162C5
  8
AM_0
 10
600.30259079824134
 20
551.78975987487354
 30
0.0
 11
726.10257079824135
 21
551.78975987487354
 31
0.0
  0
LINE
  5
162C6
  8
AM_0
 10
600.30259079824134
 20
481.78974987487351
 30
0.0
 11
735.10257079824135
 21
481.78974987487351
 31
0.0
  0
LINE
  5
162C7
  8
AM_0
 10
596.83262079824135
 20
482.41974987487367
 30
0.0
 11
735.97263079824143
 21
482.41974987487367
 31
0.0
  0
LINE
  5
162C8
  8
AM_0
 10
735.97263079824143
 20
479.06973987487362
 30
0.0
 11
596.83262079824135
 21
479.06973987487362
 31
0.0
  0
LINE
  5
162C9
  8
AM_0
 10
596.83262079824135
 20
549.15973987487359
 30
0.0
 11
726.97263079824154
 21
549.15973987487359
 31
0.0
  0
LINE
  5
162CA
  8
AM_0
 10
597.7076507982415
 20
489.7897457748735
 30
0.0
 11
735.10257079824135
 21
489.78973987487348
 31
0.0
  0
LINE
  5
162CB
  8
AM_0
 10
597.70765074588132
 20
491.78975397487358
 30
0.0
 11
735.10257079824135
 21
491.78975987487343
 31
0.0
  0
LINE
  5
162CC
  8
AM_0
 10
736.19260079824141
 20
489.30974987487338
 30
0.0
 11
596.61762079824132
 21
489.30973987487351
 31
0.0
  0
LINE
  5
162CD
  8
AM_0
 10
736.19260079824141
 20
492.22975987487359
 30
0.0
 11
596.61762072179613
 21
492.22973987487359
 31
0.0
  0
LINE
  5
162CE
  8
AM_0
 10
736.32261079824139
 20
499.44973987487373
 30
0.0
 11
596.48761079824135
 21
499.44975987487351
 31
0.0
  0
LINE
  5
162CF
  8
AM_0
 10
597.71764525608251
 20
499.78976184511521
 30
0.0
 11
735.09263079824143
 21
499.78975987487348
 31
0.0
  0
LINE
  5
162D0
  8
AM_0
 10
597.71764515136283
 20
501.78975790554438
 30
0.0
 11
735.09263079824154
 21
501.78973987487348
 31
0.0
  0
LINE
  5
162D1
  8
AM_0
 10
736.32261079824139
 20
502.10974987487327
 30
0.0
 11
596.48761072860293
 21
502.10975987487348
 31
0.0
  0
LINE
  5
162D2
  8
AM_0
 10
736.38260079824158
 20
509.51974987487358
 30
0.0
 11
596.42762079824149
 21
509.51973587487367
 31
0.0
  0
LINE
  5
162D3
  8
AM_0
 10
597.71764525608251
 20
509.7897418451152
 30
0.0
 11
735.09263079824154
 21
509.78975987487343
 31
0.0
  0
LINE
  5
162D4
  8
AM_0
 10
597.71764515136283
 20
511.78973790554443
 30
0.0
 11
735.09263079824154
 21
511.78975987487348
 31
0.0
  0
LINE
  5
162D5
  8
AM_0
 10
736.38260079824158
 20
512.05974987487355
 30
0.0
 11
596.42762073174435
 21
512.05974387487356
 31
0.0
  0
LINE
  5
162D6
  8
AM_0
 10
736.38260079824158
 20
519.52974987487335
 30
0.0
 11
596.42762079824149
 21
519.52972587487363
 31
0.0
  0
LINE
  5
162D7
  8
AM_0
 10
597.71764525608251
 20
519.78974184511526
 30
0.0
 11
735.09263079824154
 21
519.78973987487336
 31
0.0
  0
LINE
  5
162D8
  8
AM_0
 10
597.71764515136283
 20
521.78973790554426
 30
0.0
 11
735.09263079824154
 21
521.78975987487354
 31
0.0
  0
LINE
  5
162D9
  8
AM_0
 10
736.38260079824158
 20
522.05974987487355
 30
0.0
 11
596.42762073200595
 21
522.0597338748737
 31
0.0
  0
LINE
  5
162DA
  8
AM_0
 10
736.32261079824139
 20
529.46974987487363
 30
0.0
 11
596.48761079824135
 21
529.46974987487363
 31
0.0
  0
LINE
  5
162DB
  8
AM_0
 10
597.71764525608251
 20
529.78976184511532
 30
0.0
 11
735.09263079824154
 21
529.78973987487359
 31
0.0
  0
LINE
  5
162DC
  8
AM_0
 10
597.71764515136283
 20
531.78975790554432
 30
0.0
 11
735.09263079824154
 21
531.78973987487336
 31
0.0
  0
LINE
  5
162DD
  8
AM_0
 10
736.32261079824139
 20
532.12973987487328
 30
0.0
 11
596.48761072860293
 21
532.12974987487348
 31
0.0
  0
LINE
  5
162DE
  8
AM_0
 10
727.19260079824153
 20
539.34974987487351
 30
0.0
 11
596.62261079824134
 21
539.34974987487351
 31
0.0
  0
LINE
  5
162DF
  8
AM_0
 10
597.71264079824152
 20
539.78973577487352
 30
0.0
 11
726.10257079824135
 21
539.78975987487354
 31
0.0
  0
LINE
  5
162E0
  8
AM_0
 10
597.71264074588134
 20
541.78974397487355
 30
0.0
 11
726.10257079824135
 21
541.7897398748737
 31
0.0
  0
LINE
  5
162E1
  8
AM_0
 10
727.19260079824153
 20
542.27972987487362
 30
0.0
 11
596.62261072153422
 21
542.27974987487335
 31
0.0
  0
LINE
  5
162E2
  8
AM_0
 10
600.30260979836373
 20
549.78974152060562
 30
0.0
 11
726.10257079824135
 21
549.7897398748737
 31
0.0
  0
LINE
  5
162E3
  8
AM_0
 10
745.65259079824136
 20
467.19974987487359
 30
0.0
 11
745.65259079824136
 21
510.78976987487363
 31
0.0
  0
LINE
  5
162E4
  8
AM_0
 10
740.65265079824144
 20
458.35976087487359
 30
0.0
 11
740.65265079824144
 21
515.78975987487365
 31
0.0
  0
LINE
  5
162E5
  8
AM_0
 10
747.15259079824148
 20
535.78974987487345
 30
0.0
 11
747.15259079824148
 21
495.78976987487368
 31
0.0
  0
LINE
  5
162E6
  8
AM_0
 10
748.14649079824142
 20
500.56786987487328
 30
0.0
 11
748.14649079824142
 21
531.01149987487327
 31
0.0
  0
LINE
  5
162E7
  8
AM_0
 10
736.93259079824145
 20
564.13974987487359
 30
0.0
 11
736.39255079824159
 21
567.12974987487371
 31
0.0
  0
LINE
  5
162E8
  8
AM_0
 10
743.65265079824144
 20
565.28975987487365
 30
0.0
 11
743.65265079824144
 21
564.75975987487368
 31
0.0
  0
LINE
  5
162E9
  8
AM_0
 10
743.88263079824139
 20
565.40975987487354
 30
0.0
 11
745.15265079824144
 21
564.66974987487367
 31
0.0
  0
LINE
  5
162EA
  8
AM_0
 10
740.65265079824144
 20
573.21974987487363
 30
0.0
 11
740.65265079824144
 21
515.78975987487365
 31
0.0
  0
ARC
  5
162EB
  8
AM_0
 10
717.65806079824142
 20
579.03517987487339
 30
0.0
 40
1.9945760999999991
 50
359.84400999999718
 51
90.155991999999955
  0
ARC
  5
162EC
  8
AM_0
 10
717.65012079824135
 20
579.71489987487348
 30
0.0
 40
1.994844099999999
 50
14.36279999999921
 51
89.928342000002075
  0
LINE
  5
162ED
  8
AM_0
 10
734.54264079824145
 20
579.08973987487354
 30
0.0
 11
721.04264079824145
 21
579.08973987487354
 31
0.0
  0
LINE
  5
162EE
  8
AM_0
 10
734.51261079824155
 20
577.45973987487378
 30
0.0
 11
721.15262079824163
 21
577.45973987487378
 31
0.0
  0
LINE
  5
162EF
  8
AM_0
 10
734.48258079824177
 20
574.05974987487355
 30
0.0
 11
721.15262079824163
 21
574.05974987487355
 31
0.0
  0
LINE
  5
162F0
  8
AM_0
 10
734.42264079824145
 20
568.76973987487361
 30
0.0
 11
721.15262079824163
 21
568.76973987487361
 31
0.0
  0
ARC
  5
162F1
  8
AM_0
 10
734.48093079824139
 20
572.06434987487319
 30
0.0
 40
1.9953879999999991
 50
12.01538000000024
 51
89.951933000002214
  0
LINE
  5
162F2
  8
AM_0
 10
736.46262079824135
 20
575.91974987487356
 30
0.0
 11
737.38266079824155
 21
572.03975987487354
 31
0.0
  0
ARC
  5
162F3
  8
AM_0
 10
738.82432079824127
 20
574.41684987487338
 30
0.0
 40
1.5070961
 50
194.09782000000331
 51
269.9351799999983
  0
LINE
  5
162F4
  8
AM_0
 10
738.82261079824161
 20
572.90974987487357
 30
0.0
 11
737.17258079824126
 21
572.90974987487357
 31
0.0
  0
LINE
  5
162F5
  8
AM_0
 10
740.65268079824136
 20
573.21974987487363
 30
0.0
 11
737.83262079824135
 21
573.28973987487336
 31
0.0
  0
ARC
  5
162F6
  8
AM_0
 10
734.54532079824139
 20
577.09196987487326
 30
0.0
 40
1.9977800999999991
 50
14.13223000000314
 51
90.076919000002306
  0
LINE
  5
162F7
  8
AM_0
 10
736.48264079824162
 20
577.57975987487328
 30
0.0
 11
737.36265079824148
 21
574.04976987487328
 31
0.0
  0
ARC
  5
162F8
  8
AM_0
 10
734.51981079824145
 20
575.46428987487332
 30
0.0
 40
1.9954841000000001
 50
13.19407999999817
 51
90.206542000000866
  0
LINE
  5
162F9
  8
AM_0
 10
738.86265079824136
 20
566.82972987487346
 30
0.0
 11
736.44260079824153
 21
566.82972987487346
 31
0.0
  0
ARC
  5
162FA
  8
AM_0
 10
738.86142079824128
 20
568.33387987487333
 30
0.0
 40
1.50414
 50
192.44475000000341
 51
270.04575000000148
  0
LINE
  5
162FB
  8
AM_0
 10
738.84263079824154
 20
570.88972987487352
 30
0.0
 11
736.7826307982416
 21
570.88972987487352
 31
0.0
  0
ARC
  5
162FC
  8
AM_0
 10
738.84342079824125
 20
572.39254987487357
 30
0.0
 40
1.5028081
 50
193.57782000000279
 51
269.96920999999838
  0
ARC
  5
162FD
  8
AM_0
 10
743.39062079824134
 20
564.54387987487348
 30
0.0
 40
0.9959119600000002
 50
60.393009999995428
 51
90.45855599999615
  0
ARC
  5
162FE
  8
AM_0
 10
741.15723079824147
 20
566.0443798748737
 30
0.0
 40
0.5046359900000002
 50
180.5237599999995
 51
269.47624000000047
  0
LINE
  5
162FF
  8
AM_0
 10
743.38263079824139
 20
565.53975987487365
 30
0.0
 11
741.15259079824136
 21
565.53975987487365
 31
0.0
  0
ARC
  5
16300
  8
AM_0
 10
734.43076079824141
 20
566.7763098748735
 30
0.0
 40
1.993431999999999
 50
10.21196999999983
 51
90.234116000000725
  0
LINE
  5
16301
  8
AM_0
 10
736.43259079824145
 20
572.47973987487364
 30
0.0
 11
737.39261079824155
 21
568.00973987487362
 31
0.0
  0
LINE
  5
16302
  8
AM_0
 10
719.65262079824163
 20
577.67973987487369
 30
0.0
 11
719.65262079824163
 21
570.26973987487349
 31
0.0
  0
ARC
  5
16303
  8
AM_0
 10
717.65537079824139
 20
577.68252987487335
 30
0.0
 40
1.9972080000000001
 50
359.91986000000099
 51
90.080142999999566
  0
ARC
  5
16304
  8
AM_0
 10
717.65622079824141
 20
575.65335987487356
 30
0.0
 40
1.996383999999999
 50
359.89615999999739
 51
90.103836999999984
  0
ARC
  5
16305
  8
AM_0
 10
721.03898079824125
 20
580.59663987487352
 30
0.0
 40
1.506888
 50
194.8769300000055
 51
270.1377700000005
  0
ARC
  5
16306
  8
AM_0
 10
721.15647079824146
 20
578.9635798748734
 30
0.0
 40
1.503848099999999
 50
180.14640000000301
 51
269.85359999999702
  0
ARC
  5
16307
  8
AM_0
 10
721.15439079824148
 20
575.56152987487326
 30
0.0
 40
1.5017959999999979
 50
180.06854999999891
 51
269.93145000000101
  0
ARC
  5
16308
  8
AM_0
 10
721.15830079824127
 20
570.2754098748735
 30
0.0
 40
1.505676
 50
180.21552999999901
 51
269.78448000000111
  0
LINE
  5
16309
  8
AM_0
 10
747.15259079824148
 20
530.93976987487349
 30
0.0
 11
742.87262079824143
 21
530.93976987487349
 31
0.0
  0
LINE
  5
1630A
  8
AM_0
 10
741.65265079824144
 20
531.78975987487365
 30
0.0
 11
744.65265079824144
 21
531.78975987487365
 31
0.0
  0
LINE
  5
1630B
  8
AM_0
 10
741.65265079824144
 20
529.78974987487345
 30
0.0
 11
744.65265079824144
 21
529.78974987487345
 31
0.0
  0
LINE
  5
1630C
  8
AM_0
 10
741.65265079824144
 20
541.78974987487345
 30
0.0
 11
744.65265079824144
 21
541.78974987487345
 31
0.0
  0
LINE
  5
1630D
  8
AM_0
 10
741.65265079824144
 20
539.78975987487365
 30
0.0
 11
744.65265079824144
 21
539.78975987487365
 31
0.0
  0
LINE
  5
1630E
  8
AM_0
 10
743.84265079824138
 20
551.39977987487362
 30
0.0
 11
745.04266079824129
 21
550.88977987487362
 31
0.0
  0
LINE
  5
1630F
  8
AM_0
 10
743.79260079824144
 20
549.48975987487336
 30
0.0
 11
744.94263079824145
 21
549.13974987487336
 31
0.0
  0
LINE
  5
16310
  8
AM_0
 10
743.89264079824136
 20
563.28975987487365
 30
0.0
 11
745.17267079824126
 21
562.51976987487365
 31
0.0
  0
LINE
  5
16311
  8
AM_0
 10
743.90265079824144
 20
558.74971987487356
 30
0.0
 11
745.20264079824142
 21
557.89972987487363
 31
0.0
  0
LINE
  5
16312
  8
AM_0
 10
743.88263079824139
 20
557.63973987487361
 30
0.0
 11
745.16266079824118
 21
556.88973987487361
 31
0.0
  0
LINE
  5
16313
  8
AM_0
 10
743.86261079824146
 20
564.28978987487335
 30
0.0
 11
745.10260079824127
 21
563.65978987487347
 31
0.0
  0
LINE
  5
16314
  8
AM_0
 10
743.87262079824143
 20
562.1797798748737
 30
0.0
 11
745.12268079824139
 21
561.50977987487363
 31
0.0
  0
LINE
  5
16315
  8
AM_0
 10
741.65265079824144
 20
509.7897598748736
 30
0.0
 11
744.65265079824144
 21
509.7897598748736
 31
0.0
  0
LINE
  5
16316
  8
AM_0
 10
741.65265079824144
 20
511.78974987487339
 30
0.0
 11
744.65265079824144
 21
511.78974987487339
 31
0.0
  0
LINE
  5
16317
  8
AM_0
 10
741.65265079824144
 20
521.78975987487365
 30
0.0
 11
744.65265079824144
 21
521.78975987487365
 31
0.0
  0
LINE
  5
16318
  8
AM_0
 10
741.65265079824144
 20
519.78975987487365
 30
0.0
 11
744.65265079824144
 21
519.78975987487365
 31
0.0
  0
LINE
  5
16319
  8
AM_0
 10
745.65259079824136
 20
563.80976987487361
 30
0.0
 11
745.65259079824136
 21
520.78974987487345
 31
0.0
  0
ARC
  5
1631A
  8
AM_0
 10
744.65784079824141
 20
557.06735987487355
 30
0.0
 40
0.9948279899999999
 50
359.56186999999977
 51
56.795310000000541
  0
ARC
  5
1631B
  8
AM_0
 10
744.65942079824163
 20
563.80767987487354
 30
0.0
 40
0.99319202
 50
0.1204399999996219
 51
60.226600000003252
  0
ARC
  5
1631C
  8
AM_0
 10
744.65704079824127
 20
562.76944987487354
 30
0.0
 40
0.99558806
 50
0.0177499999989372
 51
63.412509999995592
  0
ARC
  5
1631D
  8
AM_0
 10
744.65820079824141
 20
561.66872987487352
 30
0.0
 40
0.9944360299999999
 50
0.0595100000006976
 51
58.847829999999441
  0
ARC
  5
1631E
  8
AM_0
 10
744.65942079824163
 20
560.63118987487326
 30
0.0
 40
0.9932120399999999
 50
359.91816999999918
 51
62.200659999995572
  0
ARC
  5
1631F
  8
AM_0
 10
744.65857079824127
 20
556.03295987487354
 30
0.0
 40
0.99407601
 50
359.81535999999909
 51
59.530799999997029
  0
ARC
  5
16320
  8
AM_0
 10
744.65625079824144
 20
549.97133987487348
 30
0.0
 40
0.99640006
 50
359.90960000000132
 51
67.18261000000129
  0
ARC
  5
16321
  8
AM_0
 10
744.6563707982416
 20
548.18550987487345
 30
0.0
 40
0.9962600499999998
 50
359.66950999999978
 51
73.302510000000908
  0
ARC
  5
16322
  8
AM_0
 10
744.65759079824136
 20
540.79468987487337
 30
0.0
 40
0.9950800499999999
 50
359.7159300000007
 51
90.284078999998727
  0
ARC
  5
16323
  8
AM_0
 10
744.65247079824155
 20
540.78997987487355
 30
0.0
 40
1.0002040000000001
 50
270.01167999999927
 51
359.9883299999953
  0
LINE
  5
16324
  8
AM_0
 10
747.15265079824144
 20
535.78977987487349
 30
0.0
 11
745.65265079824144
 21
535.91977987487371
 31
0.0
  0
ARC
  5
16325
  8
AM_0
 10
744.65759079824136
 20
530.79466987487353
 30
0.0
 40
0.99508399
 50
359.71612999999547
 51
90.283867000002516
  0
LINE
  5
16326
  8
AM_0
 10
747.15259079824148
 20
533.06975987487363
 30
0.0
 11
745.65259079824136
 21
533.06975987487363
 31
0.0
  0
LINE
  5
16327
  8
AM_0
 10
747.64649079824142
 20
533.78151987487331
 30
0.0
 11
747.14649079824142
 21
533.74150987487315
 31
0.0
  0
LINE
  5
16328
  8
AM_0
 10
748.14649079824142
 20
531.01149987487327
 30
0.0
 11
747.64649079824142
 21
533.78151987487331
 31
0.0
  0
ARC
  5
16329
  8
AM_0
 10
744.65247079824155
 20
530.78995987487338
 30
0.0
 40
1.000199999999998
 50
270.01146999999992
 51
359.98853000000008
  0
ARC
  5
1632A
  8
AM_0
 10
744.65759079824136
 20
520.79468987487326
 30
0.0
 40
0.9950879799999999
 50
359.71634999999952
 51
90.283654999997125
  0
ARC
  5
1632B
  8
AM_0
 10
744.65247079824155
 20
520.78995987487349
 30
0.0
 40
1.0001959999999981
 50
270.01126000000068
 51
359.98875000000061
  0
ARC
  5
1632C
  8
AM_0
 10
744.65759079824136
 20
510.79468987487348
 30
0.0
 40
0.9950800499999999
 50
359.71590000000032
 51
90.284105999997195
  0
POINT
  5
1632D
  8
AM_0
 10
748.14649079824142
 20
515.78972987487339
 30
0.0
  0
ARC
  5
1632E
  8
AM_0
 10
744.65247079824155
 20
510.7899798748735
 30
0.0
 40
1.0002040000000001
 50
270.01170000000161
 51
359.98829999999828
  0
LINE
  5
1632F
  8
AM_0
 10
695.65262079824163
 20
562.13972987487352
 30
0.0
 11
730.65262079824163
 21
560.10972987487355
 31
0.0
  0
ARC
  5
16330
  8
AM_0
 10
718.6526207982414
 20
550.78973987487348
 30
0.0
 40
1.0000040999999991
 50
270.0
 51
89.999997000002296
  0
ARC
  5
16331
  8
AM_0
 10
726.10257079824135
 20
550.78973987487348
 30
0.0
 40
1.0000040999999991
 50
270.0
 51
89.999997000002296
  0
ARC
  5
16332
  8
AM_0
 10
726.97263079824143
 20
550.83473987487355
 30
0.0
 40
1.6750081000000001
 50
270.0
 51
89.999997000002296
  0
LINE
  5
16333
  8
AM_0
 10
740.65262079824129
 20
550.09973987487353
 30
0.0
 11
730.65262079824163
 21
550.09973987487353
 31
0.0
  0
LINE
  5
16334
  8
AM_0
 10
740.65262079824129
 20
564.13972987487352
 30
0.0
 11
730.65262079824163
 21
564.13972987487352
 31
0.0
  0
LINE
  5
16335
  8
AM_0
 10
740.65262079824129
 20
558.47973987487364
 30
0.0
 11
730.65262079824163
 21
558.47973987487364
 31
0.0
  0
ARC
  5
16336
  8
AM_0
 10
741.65503079824146
 20
556.77738987487328
 30
0.0
 40
1.002375999999999
 50
90.135590000000704
 51
179.864408009996
  0
ARC
  5
16337
  8
AM_0
 10
743.42786079824145
 20
563.39572987487327
 30
0.0
 40
0.9941280500000002
 50
64.065190000002104
 51
90.877191999998061
  0
ARC
  5
16338
  8
AM_0
 10
743.38379079824142
 20
562.43555987487355
 30
0.0
 40
0.9942600099999999
 50
59.218909999997692
 51
90.644117999997505
  0
ARC
  5
16339
  8
AM_0
 10
743.41754079824136
 20
561.29439987487353
 30
0.0
 40
0.99546796
 50
62.796340000000029
 51
90.858551999998383
  0
ARC
  5
1633A
  8
AM_0
 10
741.65161079824145
 20
561.29074987487354
 30
0.0
 40
0.9990080599999998
 50
89.943157000003893
 51
180.05685000000281
  0
ARC
  5
1633B
  8
AM_0
 10
741.1510007982414
 20
563.8913998748734
 30
0.0
 40
0.4983640000000002
 50
89.811401999999163
 51
180.18859000000489
  0
LINE
  5
1633C
  8
AM_0
 10
743.37262079824143
 20
563.42974987487355
 30
0.0
 11
740.65265079824144
 21
563.42974987487355
 31
0.0
  0
LINE
  5
1633D
  8
AM_0
 10
743.40259079824136
 20
562.28975987487365
 30
0.0
 11
741.65265079824144
 21
562.28975987487365
 31
0.0
  0
LINE
  5
1633E
  8
AM_0
 10
743.41266079824118
 20
564.38974987487336
 30
0.0
 11
741.15259079824136
 21
564.38974987487336
 31
0.0
  0
LINE
  5
1633F
  8
AM_0
 10
743.65265079824144
 20
563.1897698748736
 30
0.0
 11
743.65265079824144
 21
562.63976987487365
 31
0.0
  0
ARC
  5
16340
  8
AM_0
 10
743.34601079824142
 20
557.92356987487346
 30
0.0
 40
0.9962120099999999
 50
56.030099999999067
 51
89.618093999998152
  0
ARC
  5
16341
  8
AM_0
 10
743.37323079824159
 20
556.78327987487353
 30
0.0
 40
0.9965200400000001
 50
59.256719999997742
 51
89.45878700000047
  0
LINE
  5
16342
  8
AM_0
 10
743.35260079824138
 20
558.91976987487362
 30
0.0
 11
740.65265079824144
 21
558.91976987487362
 31
0.0
  0
LINE
  5
16343
  8
AM_0
 10
743.38263079824139
 20
557.77974987487346
 30
0.0
 11
741.65265079824144
 21
557.77974987487346
 31
0.0
  0
LINE
  5
16344
  8
AM_0
 10
743.65265079824144
 20
558.61974987487349
 30
0.0
 11
743.65265079824144
 21
558.14975987487355
 31
0.0
  0
ARC
  5
16345
  8
AM_0
 10
743.45166079824139
 20
550.48427987487355
 30
0.0
 40
0.99548006
 50
66.872969999998432
 51
89.942679000001277
  0
ARC
  5
16346
  8
AM_0
 10
741.35718079824142
 20
552.18430987487352
 30
0.0
 40
0.7045519900000002
 50
180.36910999999949
 51
269.63089000000048
  0
LINE
  5
16347
  8
AM_0
 10
743.45264079824142
 20
551.47975987487337
 30
0.0
 11
741.35266079824135
 21
551.47975987487337
 31
0.0
  0
LINE
  5
16348
  8
AM_0
 10
743.65265079824144
 20
551.17975987487364
 30
0.0
 11
743.65265079824144
 21
550.11975987487369
 31
0.0
  0
ARC
  5
16349
  8
AM_0
 10
727.5027207982414
 20
556.99989987487368
 30
0.0
 40
1.004135999999999
 50
134.2025639999982
 51
185.15116000000421
  0
LINE
  5
1634A
  8
AM_0
 10
730.65262079824163
 20
564.13972987487352
 30
0.0
 11
730.65262079824163
 21
550.09973987487353
 31
0.0
  0
ARC
  5
1634B
  8
AM_0
 10
731.03141079824138
 20
553.45779987487333
 30
0.0
 40
6.0039081999999979
 50
93.61728599999789
 51
134.7763069999983
  0
ARC
  5
1634C
  8
AM_0
 10
731.48771079824144
 20
557.38751987487353
 30
0.0
 40
5.0078917000000001
 50
185.47467999999949
 51
260.40127999999839
  0
ARC
  5
1634D
  8
AM_0
 10
741.65753079824162
 20
542.79466987487353
 30
0.0
 40
1.0049318999999981
 50
180.28041999999689
 51
269.71958000000308
  0
ARC
  5
1634E
  8
AM_0
 10
743.51349079824138
 20
548.53704987487333
 30
0.0
 40
0.99277198
 50
73.668180000001442
 51
90.625191999999927
  0
ARC
  5
1634F
  8
AM_0
 10
741.65094079824178
 20
548.53145987487335
 30
0.0
 40
0.99829602
 50
89.902039000000997
 51
180.09796000000259
  0
LINE
  5
16350
  8
AM_0
 10
743.50262079824142
 20
549.52974987487335
 30
0.0
 11
741.65265079824144
 21
549.52974987487335
 31
0.0
  0
ARC
  5
16351
  8
AM_0
 10
741.65247079824155
 20
538.7899098748735
 30
0.0
 40
0.99985206
 50
89.991452999997875
 51
180.00854999999979
  0
LINE
  5
16352
  8
AM_0
 10
743.65265079824144
 20
541.41976987487351
 30
0.0
 11
743.65265079824144
 21
540.04976987487339
 31
0.0
  0
ARC
  5
16353
  8
AM_0
 10
727.19260079824141
 20
540.81474987487354
 30
0.0
 40
1.4650000000000001
 50
270.0
 51
89.999997000002296
  0
ARC
  5
16354
  8
AM_0
 10
726.10257079824135
 20
540.78973987487325
 30
0.0
 40
1.0000040999999991
 50
270.0
 51
89.999997000002296
  0
ARC
  5
16355
  8
AM_0
 10
718.6526207982414
 20
540.78973987487325
 30
0.0
 40
1.0000040999999991
 50
270.0
 51
89.999997000002296
  0
ARC
  5
16356
  8
AM_0
 10
741.65247079824155
 20
518.7899098748735
 30
0.0
 40
0.99984801
 50
89.991221000001829
 51
180.00877999999949
  0
ARC
  5
16357
  8
AM_0
 10
736.32261079824139
 20
530.79974987487333
 30
0.0
 40
1.3300000000000001
 50
270.0
 51
89.999997000002296
  0
ARC
  5
16358
  8
AM_0
 10
741.65753079824162
 20
532.79466987487353
 30
0.0
 40
1.004928
 50
180.2802199999997
 51
269.71978000000018
  0
ARC
  5
16359
  8
AM_0
 10
741.65247079824155
 20
528.78989987487353
 30
0.0
 40
0.9998440099999999
 50
89.991009000001426
 51
180.00898999999711
  0
LINE
  5
1635A
  8
AM_0
 10
743.65265079824144
 20
531.39974987487369
 30
0.0
 11
743.65265079824144
 21
530.1897698748736
 31
0.0
  0
ARC
  5
1635B
  8
AM_0
 10
735.10129079824139
 20
530.7897598748732
 30
0.0
 40
1.000035999999999
 50
269.50070999999838
 51
90.499283999999903
  0
ARC
  5
1635C
  8
AM_0
 10
736.38260079824147
 20
520.79472987487338
 30
0.0
 40
1.265004
 50
270.0
 51
89.999997000002296
  0
LINE
  5
1635D
  8
AM_0
 10
743.65265079824144
 20
521.39975987487355
 30
0.0
 11
743.65265079824144
 21
520.23973987487364
 31
0.0
  0
ARC
  5
1635E
  8
AM_0
 10
741.65753079824162
 20
522.79465987487367
 30
0.0
 40
1.0049238999999981
 50
180.2800099999962
 51
269.71998999999721
  0
ARC
  5
1635F
  8
AM_0
 10
735.10129079824139
 20
520.78973987487325
 30
0.0
 40
1.000035999999999
 50
269.50070999999838
 51
90.499283999999903
  0
ARC
  5
16360
  8
AM_0
 10
718.6526207982414
 20
530.7897598748732
 30
0.0
 40
1.0000040999999991
 50
270.0
 51
89.999997000002296
  0
ARC
  5
16361
  8
AM_0
 10
718.6526207982414
 20
520.78973987487325
 30
0.0
 40
1.0000040999999991
 50
270.0
 51
89.999997000002296
  0
ARC
  5
16362
  8
AM_0
 10
735.10129079824139
 20
510.78973987487331
 30
0.0
 40
1.000035999999999
 50
269.50070999999838
 51
90.499283999999903
  0
ARC
  5
16363
  8
AM_0
 10
736.38260079824147
 20
510.78973987487331
 30
0.0
 40
1.270003999999999
 50
270.0
 51
89.999997000002296
  0
ARC
  5
16364
  8
AM_0
 10
741.65759079824136
 20
512.79467987487351
 30
0.0
 40
1.0049318999999981
 50
180.280450000001
 51
269.719549999999
  0
ARC
  5
16365
  8
AM_0
 10
741.65247079824155
 20
508.78990987487327
 30
0.0
 40
0.99985206
 50
89.991425999998739
 51
180.00857000000201
  0
LINE
  5
16366
  8
AM_0
 10
743.65265079824144
 20
510.17974987487361
 30
0.0
 11
743.65265079824144
 21
511.33976987487358
 31
0.0
  0
ARC
  5
16367
  8
AM_0
 10
718.6526207982414
 20
510.78973987487331
 30
0.0
 40
1.0000040999999991
 50
270.0
 51
89.999997000002296
  0
LINE
  5
16368
  8
AM_0
 10
743.88263079824139
 20
466.17979087487362
 30
0.0
 11
745.15265079824144
 21
466.90978687487348
 31
0.0
  0
LINE
  5
16369
  8
AM_0
 10
743.86267079824142
 20
467.29978587487352
 30
0.0
 11
745.10266079824135
 21
467.92978387487358
 31
0.0
  0
LINE
  5
1636A
  8
AM_0
 10
743.90265079824144
 20
472.82976987487342
 30
0.0
 11
745.20264079824142
 21
473.67977587487349
 31
0.0
  0
LINE
  5
1636B
  8
AM_0
 10
743.89264079824136
 20
468.28979187487369
 30
0.0
 11
745.17267079824126
 21
469.05980387487358
 31
0.0
  0
LINE
  5
1636C
  8
AM_0
 10
743.88263079824139
 20
473.93977787487358
 30
0.0
 11
745.16260079824144
 21
474.68976287487368
 31
0.0
  0
LINE
  5
1636D
  8
AM_0
 10
743.87262079824143
 20
469.40975687487372
 30
0.0
 11
745.12262079824143
 21
470.06974487487361
 31
0.0
  0
LINE
  5
1636E
  8
AM_0
 10
743.84265079824138
 20
480.17978387487352
 30
0.0
 11
745.04260079824144
 21
480.69974987487359
 31
0.0
  0
LINE
  5
1636F
  8
AM_0
 10
743.79260079824144
 20
482.08977987487361
 30
0.0
 11
744.94263079824145
 21
482.44977987487351
 31
0.0
  0
LINE
  5
16370
  8
AM_0
 10
747.15259079824148
 20
500.63974987487359
 30
0.0
 11
742.57263079824145
 21
500.63974987487359
 31
0.0
  0
LINE
  5
16371
  8
AM_0
 10
741.65265079824144
 20
489.78976987487363
 30
0.0
 11
744.65265079824144
 21
489.78976987487363
 31
0.0
  0
LINE
  5
16372
  8
AM_0
 10
741.65265079824144
 20
491.7897598748736
 30
0.0
 11
744.65265079824144
 21
491.7897598748736
 31
0.0
  0
LINE
  5
16373
  8
AM_0
 10
741.65265079824144
 20
499.78974987487339
 30
0.0
 11
744.65265079824144
 21
499.78974987487339
 31
0.0
  0
LINE
  5
16374
  8
AM_0
 10
741.65265079824144
 20
501.78976987487363
 30
0.0
 11
744.65265079824144
 21
501.78976987487363
 31
0.0
  0
ARC
  5
16375
  8
AM_0
 10
744.65759079824136
 20
500.79467987487351
 30
0.0
 40
0.99508399
 50
359.71611000000212
 51
90.283894000000515
  0
LINE
  5
16376
  8
AM_0
 10
747.15259079824148
 20
498.50975987487362
 30
0.0
 11
745.65259079824136
 21
498.50975987487362
 31
0.0
  0
LINE
  5
16377
  8
AM_0
 10
747.64649079824142
 20
497.7979098748732
 30
0.0
 11
747.14646079824126
 21
497.83791987487348
 31
0.0
  0
ARC
  5
16378
  8
AM_0
 10
744.65247079824155
 20
500.78996987487329
 30
0.0
 40
1.000199999999998
 50
270.01149000000231
 51
359.98849999999652
  0
LINE
  5
16379
  8
AM_0
 10
748.14649079824142
 20
500.56789987487338
 30
0.0
 11
747.64649079824142
 21
497.7979098748732
 31
0.0
  0
LINE
  5
1637A
  8
AM_0
 10
747.15259079824148
 20
495.7897598748736
 30
0.0
 11
745.65265079824144
 21
495.6597598748736
 31
0.0
  0
ARC
  5
1637B
  8
AM_0
 10
744.65247079824155
 20
490.78995987487332
 30
0.0
 40
1.0001959999999981
 50
270.01128000000313
 51
359.98871999999687
  0
ARC
  5
1637C
  8
AM_0
 10
744.65759079824136
 20
490.79469987487329
 30
0.0
 40
0.99508399
 50
359.71632000000022
 51
90.283675999997456
  0
ARC
  5
1637D
  8
AM_0
 10
744.65613079824129
 20
481.61822987487352
 30
0.0
 40
0.9964760499999998
 50
292.82034000000129
 51
0.0874199999992698
  0
ARC
  5
1637E
  8
AM_0
 10
744.65625079824144
 20
483.40410287487327
 30
0.0
 40
0.9963800299999999
 50
286.70292999999862
 51
359.75050999999979
  0
ARC
  5
1637F
  8
AM_0
 10
744.65356079824141
 20
474.51444687487339
 30
0.0
 40
0.9991000299999999
 50
303.33823000000478
 51
0.3045799999989818
  0
ARC
  5
16380
  8
AM_0
 10
744.65417079824135
 20
475.54906187487342
 30
0.0
 40
0.9984599899999999
 50
300.61344999999829
 51
0.0403800000005283
  0
ARC
  5
16381
  8
AM_0
 10
744.65491079824142
 20
470.95105387487348
 30
0.0
 40
0.99770796
 50
297.95523999999739
 51
359.9259500000004
  0
ARC
  5
16382
  8
AM_0
 10
744.65698079824142
 20
468.82011887487351
 30
0.0
 40
0.99566799
 50
296.59016999999852
 51
359.97956999999923
  0
ARC
  5
16383
  8
AM_0
 10
744.65503079824146
 20
467.77442587487349
 30
0.0
 40
0.9976240400000001
 50
299.92046000000022
 51
359.73248999999612
  0
ARC
  5
16384
  8
AM_0
 10
744.65387079824143
 20
469.9132578748733
 30
0.0
 40
0.9987800700000001
 50
301.29144999999937
 51
0.3733299999998518
  0
ARC
  5
16385
  8
AM_0
 10
731.02237079824135
 20
478.1362498748735
 30
0.0
 40
6.007896399999999
 50
225.38273000000569
 51
266.47155000000168
  0
LINE
  5
16386
  8
AM_0
 10
730.6526207982414
 20
467.4397498748736
 30
0.0
 11
730.6526207982414
 21
479.12975026274211
 31
0.0
  0
ARC
  5
16387
  8
AM_0
 10
741.65247079824155
 20
488.78991987487331
 30
0.0
 40
0.99984801
 50
89.991193000001289
 51
180.00881000000291
  0
ARC
  5
16388
  8
AM_0
 10
736.32261079824139
 20
500.77975987487338
 30
0.0
 40
1.3300000000000001
 50
270.0
 51
89.999997000002296
  0
ARC
  5
16389
  8
AM_0
 10
741.65753079824162
 20
502.79466987487342
 30
0.0
 40
1.004928
 50
180.28023999999991
 51
269.71976000000001
  0
LINE
  5
1638A
  8
AM_0
 10
743.65265079824144
 20
500.17976987487361
 30
0.0
 11
743.65265079824144
 21
501.39974987487352
 31
0.0
  0
ARC
  5
1638B
  8
AM_0
 10
741.65247079824155
 20
498.7899098748735
 30
0.0
 40
0.9998440099999999
 50
89.99098200000229
 51
180.0090200000005
  0
ARC
  5
1638C
  8
AM_0
 10
735.10129079824139
 20
500.78975987487331
 30
0.0
 40
1.000035999999999
 50
269.50070999999838
 51
90.499283999999903
  0
ARC
  5
1638D
  8
AM_0
 10
736.19260079824141
 20
490.76973987487349
 30
0.0
 40
1.4599999999999991
 50
270.0
 51
89.999997000002296
  0
LINE
  5
1638E
  8
AM_0
 10
743.65265079824144
 20
490.1597598748736
 30
0.0
 11
743.65265079824144
 21
491.52974987487352
 31
0.0
  0
ARC
  5
1638F
  8
AM_0
 10
741.65753079824162
 20
492.79466987487342
 30
0.0
 40
1.0049238999999981
 50
180.28002999999609
 51
269.7199600000007
  0
ARC
  5
16390
  8
AM_0
 10
735.10257079824135
 20
490.78974987487328
 30
0.0
 40
1.0000040999999991
 50
270.0
 51
89.999997000002296
  0
ARC
  5
16391
  8
AM_0
 10
718.6526207982414
 20
500.78975987487331
 30
0.0
 40
1.0000040999999991
 50
270.0
 51
89.999997000002296
  0
ARC
  5
16392
  8
AM_0
 10
718.6526207982414
 20
490.78974987487328
 30
0.0
 40
1.0000040999999991
 50
270.0
 51
89.999997000002296
  0
ARC
  5
16393
  8
AM_0
 10
735.10256816831975
 20
480.78974282487331
 30
0.0
 40
1.000007050003423
 50
270.00015068234609
 51
89.999849317653869
  0
ARC
  5
16394
  8
AM_0
 10
735.97263079824143
 20
480.74473987487329
 30
0.0
 40
1.6750081000000001
 50
270.0
 51
89.999997000002296
  0
LINE
  5
16395
  8
AM_0
 10
743.65265079824144
 20
480.39975387487368
 30
0.0
 11
743.65265079824144
 21
481.45975187487358
 31
0.0
  0
LINE
  5
16396
  8
AM_0
 10
740.65262079824129
 20
481.48974987487338
 30
0.0
 11
737.48258079824143
 21
481.48974987487338
 31
0.0
  0
ARC
  5
16397
  8
AM_0
 10
741.65594079824143
 20
483.05311287487342
 30
0.0
 40
1.003363999999999
 50
180.1917200000035
 51
269.80829000000131
  0
ARC
  5
16398
  8
AM_0
 10
743.51208079824141
 20
483.05244887487351
 30
0.0
 40
1.0027280000000001
 50
269.45960000000059
 51
286.24702999999738
  0
LINE
  5
16399
  8
AM_0
 10
743.50262079824142
 20
482.04976387487358
 30
0.0
 11
741.65265079824144
 21
482.04976387487358
 31
0.0
  0
ARC
  5
1639A
  8
AM_0
 10
741.35205079824152
 20
479.40031887487328
 30
0.0
 40
0.69944
 50
89.954159999999803
 51
180.04584000000011
  0
ARC
  5
1639B
  8
AM_0
 10
743.44965079824135
 20
481.10498487487342
 30
0.0
 40
1.005223999999999
 50
270.1706399999963
 51
293.01371000000171
  0
LINE
  5
1639C
  8
AM_0
 10
743.45264079824142
 20
480.09975887487337
 30
0.0
 11
741.35266079824135
 21
480.09975887487337
 31
0.0
  0
ARC
  5
1639D
  8
AM_0
 10
743.38928079824143
 20
474.8107578748735
 30
0.0
 40
1.001012
 50
269.61980000000278
 51
299.52863999999983
  0
ARC
  5
1639E
  8
AM_0
 10
741.65509079824153
 20
474.8122218748735
 30
0.0
 40
1.0024599999999999
 50
180.14038000000539
 51
269.85962000000097
  0
LINE
  5
1639F
  8
AM_0
 10
743.38263079824139
 20
473.80976587487368
 30
0.0
 11
741.65265079824144
 21
473.80976587487368
 31
0.0
  0
ARC
  5
163A0
  8
AM_0
 10
718.6526207982414
 20
480.78973987487348
 30
0.0
 40
1.0000040999999991
 50
270.0
 51
89.999997000002296
  0
ARC
  5
163A1
  8
AM_0
 10
727.50608079824144
 20
474.58083987487322
 30
0.0
 40
1.007376
 50
174.93659510000259
 51
225.7096799999976
  0
ARC
  5
163A2
  8
AM_0
 10
731.48240079824143
 20
474.19686987487353
 30
0.0
 40
5.0021839000000003
 50
99.548574999998934
 51
174.57547400000229
  0
LINE
  5
163A3
  8
AM_0
 10
695.65256079824144
 20
469.4397498748736
 30
0.0
 11
730.65256079824144
 21
471.46974987487363
 31
0.0
  0
ARC
  5
163A4
  8
AM_0
 10
734.48069079824143
 20
459.52545087487351
 30
0.0
 40
1.995695899999999
 50
270.05521999999718
 51
347.97746999999998
  0
LINE
  5
163A5
  8
AM_0
 10
740.65262079824129
 20
458.35974087487358
 30
0.0
 11
737.83262079824135
 21
458.28974087487359
 31
0.0
  0
ARC
  5
163A6
  8
AM_0
 10
738.81766079824138
 20
457.16796787487351
 30
0.0
 40
1.501779999999999
 50
89.810617000000875
 51
165.66716400000089
  0
LINE
  5
163A7
  8
AM_0
 10
719.65262079824129
 20
453.8997418748736
 30
0.0
 11
719.65262079824129
 21
461.30974487487362
 31
0.0
  0
LINE
  5
163A8
  8
AM_0
 10
736.46262079824135
 20
455.6597358748736
 30
0.0
 11
737.38266079824143
 21
459.53973287487349
 31
0.0
  0
LINE
  5
163A9
  8
AM_0
 10
740.65262079824129
 20
467.4397498748736
 30
0.0
 11
730.6526207982414
 21
467.4397498748736
 31
0.0
  0
LINE
  5
163AA
  8
AM_0
 10
734.42264079824145
 20
462.80974487487367
 30
0.0
 11
721.1526207982414
 21
462.80974487487367
 31
0.0
  0
LINE
  5
163AB
  8
AM_0
 10
740.65262079824129
 20
473.09974987487351
 30
0.0
 11
730.6526207982414
 21
473.09974987487351
 31
0.0
  0
LINE
  5
163AC
  8
AM_0
 10
736.93259079824145
 20
467.4397498748736
 30
0.0
 11
736.39255079824147
 21
464.44972887487359
 31
0.0
  0
ARC
  5
163AD
  8
AM_0
 10
741.15222079824139
 20
465.54019587487329
 30
0.0
 40
0.49955601
 50
89.949105999995879
 51
180.0508899999968
  0
ARC
  5
163AE
  8
AM_0
 10
743.35986079824136
 20
473.67026187487352
 30
0.0
 40
1.0005360000000001
 50
269.58677999999787
 51
302.85360000000082
  0
LINE
  5
163AF
  8
AM_0
 10
743.35260079824138
 20
472.66975087487373
 30
0.0
 11
740.65265079824144
 21
472.66975087487373
 31
0.0
  0
LINE
  5
163B0
  8
AM_0
 10
743.65265079824144
 20
472.95976687487359
 30
0.0
 11
743.65265079824144
 21
473.4297528748736
 31
0.0
  0
ARC
  5
163B1
  8
AM_0
 10
743.37195079824153
 20
467.04083687487338
 30
0.0
 40
1.001135899999998
 50
270.61249000000061
 51
300.67199999999639
  0
ARC
  5
163B2
  8
AM_0
 10
743.40680079824153
 20
468.18902287487327
 30
0.0
 40
0.99928796
 50
270.33380999999861
 51
297.13873000000308
  0
ARC
  5
163B3
  8
AM_0
 10
741.15607079824144
 20
467.69314987487348
 30
0.0
 40
0.50340396
 50
180.3861300000047
 51
269.61387000000178
  0
LINE
  5
163B4
  8
AM_0
 10
743.38263079824139
 20
466.03975387487361
 30
0.0
 11
741.15259079824136
 21
466.03975387487361
 31
0.0
  0
LINE
  5
163B5
  8
AM_0
 10
743.41266079824118
 20
467.1897708748736
 30
0.0
 11
741.15259079824136
 21
467.1897708748736
 31
0.0
  0
LINE
  5
163B6
  8
AM_0
 10
743.65265079824144
 20
466.28976087487359
 30
0.0
 11
743.65265079824144
 21
466.81975987487363
 31
0.0
  0
ARC
  5
163B7
  8
AM_0
 10
743.38129079824148
 20
469.15341687487353
 30
0.0
 40
1.003687999999999
 50
269.5072500000025
 51
300.6297300000009
  0
LINE
  5
163B8
  8
AM_0
 10
743.37262079824143
 20
468.14976987487358
 30
0.0
 11
740.65265079824144
 21
468.14976987487358
 31
0.0
  0
LINE
  5
163B9
  8
AM_0
 10
743.40259079824136
 20
469.28976087487359
 30
0.0
 11
741.65265079824144
 21
469.28976087487359
 31
0.0
  0
LINE
  5
163BA
  8
AM_0
 10
743.65265079824144
 20
468.38975187487353
 30
0.0
 11
743.65265079824144
 21
468.93975487487359
 31
0.0
  0
ARC
  5
163BB
  8
AM_0
 10
743.39746079824135
 20
470.29038687487349
 30
0.0
 40
1.0006280000000001
 50
270.29529000000059
 51
298.35013999999939
  0
ARC
  5
163BC
  8
AM_0
 10
741.65668079824127
 20
470.29384287487329
 30
0.0
 40
1.004083999999998
 50
180.23263000000361
 51
269.76737000000293
  0
LINE
  5
163BD
  8
AM_0
 10
738.82261079824127
 20
458.6697528748735
 30
0.0
 11
737.17258079824126
 21
458.6697528748735
 31
0.0
  0
LINE
  5
163BE
  8
AM_0
 10
738.84263079824143
 20
460.6897498748736
 30
0.0
 11
736.78263079824126
 21
460.6897498748736
 31
0.0
  0
ARC
  5
163BF
  8
AM_0
 10
738.83829079824136
 20
459.19341187487322
 30
0.0
 40
1.4963319999999991
 50
89.835409999999186
 51
166.61756199999891
  0
LINE
  5
163C0
  8
AM_0
 10
738.86265079824136
 20
464.75974987487342
 30
0.0
 11
736.44260079824141
 21
464.75974987487342
 31
0.0
  0
ARC
  5
163C1
  8
AM_0
 10
738.86246079824127
 20
463.25695687487359
 30
0.0
 40
1.5027881000000001
 50
89.995332000003117
 51
167.98665799999779
  0
ARC
  5
163C2
  8
AM_0
 10
734.4256307982414
 20
464.80937087487359
 30
0.0
 40
1.9996280999999989
 50
269.91467
 51
349.63923999999781
  0
LINE
  5
163C3
  8
AM_0
 10
736.43259079824145
 20
459.10974087487358
 30
0.0
 11
737.39261079824144
 21
463.56975487487358
 31
0.0
  0
ARC
  5
163C4
  8
AM_0
 10
721.15299079824138
 20
461.3093788748734
 30
0.0
 40
1.5003600999999991
 50
90.013814999999965
 51
179.9861839999985
  0
LINE
  5
163C5
  8
AM_0
 10
734.51261079824144
 20
454.11974287487368
 30
0.0
 11
721.1526207982414
 21
454.11974287487368
 31
0.0
  0
LINE
  5
163C6
  8
AM_0
 10
734.54264079824145
 20
452.48973787487358
 30
0.0
 11
721.04264079824145
 21
452.48973787487358
 31
0.0
  0
LINE
  5
163C7
  8
AM_0
 10
734.48258079824143
 20
457.5297388748736
 30
0.0
 11
721.1526207982414
 21
457.5297388748736
 31
0.0
  0
ARC
  5
163C8
  8
AM_0
 10
734.51468079824144
 20
456.12168087487322
 30
0.0
 40
2.001947899999998
 50
269.94051999999903
 51
346.6588600000016
  0
ARC
  5
163C9
  8
AM_0
 10
734.54020079824136
 20
454.49405587487342
 30
0.0
 40
2.0043239999999991
 50
270.0689100000011
 51
345.72195000000022
  0
LINE
  5
163CA
  8
AM_0
 10
736.48258079824143
 20
453.99975487487359
 30
0.0
 11
737.36258079824131
 21
457.53975587487338
 31
0.0
  0
ARC
  5
163CB
  8
AM_0
 10
717.65152079824145
 20
451.87617387487347
 30
0.0
 40
1.996427999999999
 50
270.0323900000019
 51
345.3053699999993
  0
ARC
  5
163CC
  8
AM_0
 10
717.65281079824126
 20
452.54956787487328
 30
0.0
 40
1.999824
 50
269.99493999999879
 51
0.0050600000012402
  0
ARC
  5
163CD
  8
AM_0
 10
717.65098079824145
 20
455.93138787487351
 30
0.0
 40
2.001640099999999
 50
270.04695999999808
 51
359.95303999999533
  0
ARC
  5
163CE
  8
AM_0
 10
721.15122079824141
 20
452.62118487487351
 30
0.0
 40
1.498559999999999
 50
89.944884999996916
 51
180.05511999999939
  0
ARC
  5
163CF
  8
AM_0
 10
721.15415079824129
 20
456.02822787487338
 30
0.0
 40
1.5015080999999979
 50
90.057548999996854
 51
179.94245300200021
  0
ARC
  5
163D0
  8
AM_0
 10
717.65012079824135
 20
453.9022588748735
 30
0.0
 40
2.0025157999999981
 50
270.0718999999998
 51
359.92810000000009
  0
ARC
  5
163D1
  8
AM_0
 10
721.03391079824144
 20
450.98946287487342
 30
0.0
 40
1.5003120000000001
 50
89.668336999999084
 51
165.3169660000006
  0
LINE
  5
163D2
  8
AM_0
 10
593.65262079824151
 20
578.78975487487378
 30
0.0
 11
593.65262078204864
 21
452.78978589903898
 31
0.0
  0
LINE
  5
163D3
  8
ﾁｭｳｼﾝｾﾝ1
 10
644.65265079824132
 20
550.28975987487365
 30
0.0
 11
644.65265079824132
 21
481.2897598748736
 31
0.0
1001
GENIUS_GENODEF_13
1002
{
1000
HIER
1070
     0
1002
}
1002
{
1000
MANEDIT
1070
     0
1002
}
1002
{
1000
NOSEL
1070
     0
1002
}
1002
{
1000
BEHIND
1070
     0
1002
}
1002
{
1000
REACTOR
1002
}
1001
GENIUS_GENOBJ-N-CEN_13
1002
{
1000
OWNER
1000
GEN
1002
}
  0
LINE
  5
163D4
  8
AM_0
 10
598.91260079824133
 20
576.16974987487379
 30
0.0
 11
595.45261079824149
 21
563.24972987487365
 31
0.0
  0
ARC
  5
163D5
  8
AM_0
 10
664.65323079824134
 20
579.7091298748735
 30
0.0
 40
2.000623899999999
 50
90.017824000002122
 51
179.9821759990013
  0
ARC
  5
163D6
  8
AM_0
 10
664.64969079824152
 20
579.0326598748735
 30
0.0
 40
1.9970881
 50
89.916374999999235
 51
180.08362000000139
  0
ARC
  5
163D7
  8
AM_0
 10
664.65238079824155
 20
577.68000987487358
 30
0.0
 40
1.9997199999999991
 50
89.991937999999706
 51
180.00806000000401
  0
LINE
  5
163D8
  8
AM_0
 10
662.65262079824151
 20
579.70973987487366
 30
0.0
 11
662.65262079824151
 21
577.64973987487372
 31
0.0
  0
LINE
  5
163D9
  8
AM_0
 10
593.94260079824153
 20
566.82972987487346
 30
0.0
 11
596.3526007982415
 21
566.82972987487346
 31
0.0
  0
LINE
  5
163DA
  8
AM_0
 10
598.94263079824134
 20
576.28973987487348
 30
0.0
 11
593.65262079824151
 21
576.28973987487348
 31
0.0
  0
ARC
  5
163DB
  8
AM_0
 10
593.94678079824132
 20
568.33021987487359
 30
0.0
 40
1.500475999999999
 50
269.84172000000018
 51
347.66777000000133
  0
LINE
  5
163DC
  8
AM_0
 10
596.8426307982412
 20
574.70977987487345
 30
0.0
 11
595.40262079824151
 21
568.00978987487372
 31
0.0
  0
ARC
  5
163DD
  8
AM_0
 10
598.7981607982415
 20
574.28956987487356
 30
0.0
 40
2.0001799999999981
 50
89.872485000002044
 51
167.87364800000211
  0
ARC
  5
163DE
  8
AM_0
 10
600.84217079824134
 20
575.65193987487362
 30
0.0
 40
1.997795899999999
 50
89.986419000002854
 51
164.97840299999771
  0
LINE
  5
163DF
  8
AM_0
 10
592.65262079824151
 20
579.78975487487367
 30
0.0
 11
584.65259079824148
 21
579.78975487487367
 31
0.0
  0
ARC
  5
163E0
  8
AM_0
 10
592.65757079824152
 20
578.79471487487365
 30
0.0
 40
0.9950640200000001
 50
359.714940000002
 51
90.285061999999584
  0
LINE
  5
163E1
  8
AM_0
 10
592.65262079824151
 20
567.82974987487353
 30
0.0
 11
584.65259079824148
 21
567.82974987487353
 31
0.0
  0
ARC
  5
163E2
  8
AM_0
 10
592.65821079824127
 20
566.83535987487357
 30
0.0
 40
0.9944000200000001
 50
359.67649000000222
 51
90.323509000000016
  0
ARC
  5
163E3
  8
AM_0
 10
600.31080079824153
 20
550.78973987487359
 30
0.0
 40
1.000031899999998
 50
90.469299999997844
 51
269.53070000000201
  0
ARC
  5
163E4
  8
AM_0
 10
596.83262079824135
 20
550.83473987487355
 30
0.0
 40
1.675
 50
89.999997000002296
 51
270.0
  0
ARC
  5
163E5
  8
AM_0
 10
594.00235079824131
 20
563.64213987487335
 30
0.0
 40
1.502391899999999
 50
270.00936000000007
 51
344.85998999999862
  0
LINE
  5
163E6
  8
AM_0
 10
593.65262079824151
 20
552.93974987487366
 30
0.0
 11
584.65259079824148
 21
552.93974987487366
 31
0.0
  0
ARC
  5
163E7
  8
AM_0
 10
596.62261079824134
 20
540.81474987487366
 30
0.0
 40
1.4650000000000001
 50
90.00000299999769
 51
270.0
  0
ARC
  5
163E8
  8
AM_0
 10
597.71264079824152
 20
540.7897398748737
 30
0.0
 40
1.0000040999999991
 50
90.00000299999769
 51
270.0
  0
ARC
  5
163E9
  8
AM_0
 10
596.48761079824135
 20
530.79974987487356
 30
0.0
 40
1.3300000000000001
 50
90.00000299999769
 51
270.0
  0
ARC
  5
163EA
  8
AM_0
 10
597.70893079824145
 20
530.78975987487354
 30
0.0
 40
1.000035999999999
 50
89.500716000000082
 51
270.49929000000162
  0
ARC
  5
163EB
  8
AM_0
 10
597.70893079824145
 20
520.7897398748737
 30
0.0
 40
1.000035999999999
 50
89.500716000000082
 51
270.49929000000162
  0
ARC
  5
163EC
  8
AM_0
 10
596.42762079824149
 20
520.7947298748735
 30
0.0
 40
1.265004
 50
90.00000299999769
 51
270.0
  0
ARC
  5
163ED
  8
AM_0
 10
596.42762079824149
 20
510.78973987487348
 30
0.0
 40
1.270003999999999
 50
90.00000299999769
 51
270.0
  0
ARC
  5
163EE
  8
AM_0
 10
597.70893079824145
 20
510.78973987487348
 30
0.0
 40
1.000035999999999
 50
89.500716000000082
 51
270.49929000000162
  0
ARC
  5
163EF
  8
AM_0
 10
664.6534807982415
 20
451.88061487487357
 30
0.0
 40
2.0008759
 50
180.0251100000024
 51
269.97488999999757
  0
ARC
  5
163F0
  8
AM_0
 10
664.65494079824134
 20
452.55208487487369
 30
0.0
 40
2.002332
 50
180.06674000000129
 51
269.93325999999871
  0
ARC
  5
163F1
  8
AM_0
 10
664.65763079824148
 20
453.90475387487351
 30
0.0
 40
2.0050240000000001
 50
180.1434100000013
 51
269.85658999999868
  0
LINE
  5
163F2
  8
AM_0
 10
662.65262079824151
 20
451.87974487487372
 30
0.0
 11
662.65262079824151
 21
453.92974787487373
 31
0.0
  0
ARC
  5
163F3
  8
AM_0
 10
596.48761079824135
 20
500.77975987487349
 30
0.0
 40
1.3300000000000001
 50
90.00000299999769
 51
270.0
  0
ARC
  5
163F4
  8
AM_0
 10
597.70893079824145
 20
500.78975987487343
 30
0.0
 40
1.000035999999999
 50
89.500716000000082
 51
270.49929000000162
  0
ARC
  5
163F5
  8
AM_0
 10
597.7076507982415
 20
490.78974987487339
 30
0.0
 40
1.0000040999999991
 50
90.00000299999769
 51
270.0
  0
ARC
  5
163F6
  8
AM_0
 10
596.61762079824132
 20
490.76973987487361
 30
0.0
 40
1.4599999999999991
 50
90.00000299999769
 51
270.0
  0
ARC
  5
163F7
  8
AM_0
 10
600.31080079824153
 20
480.78973987487348
 30
0.0
 40
1.000031899999998
 50
90.469299999997844
 51
269.53070000000201
  0
ARC
  5
163F8
  8
AM_0
 10
596.83262079824135
 20
480.74473987487352
 30
0.0
 40
1.675
 50
89.999997000002296
 51
270.0
  0
LINE
  5
163F9
  8
AM_0
 10
593.65262079824151
 20
478.6397398748735
 30
0.0
 11
584.65259079824148
 21
478.6397398748735
 31
0.0
  0
LINE
  5
163FA
  8
AM_0
 10
596.84260079824128
 20
456.86973487487359
 30
0.0
 11
595.40259079824148
 21
463.56973187487358
 31
0.0
  0
LINE
  5
163FB
  8
AM_0
 10
598.91260079824133
 20
455.40973587487372
 30
0.0
 11
595.45261079824149
 21
468.32974187487338
 31
0.0
  0
LINE
  5
163FC
  8
AM_0
 10
593.94260079824153
 20
464.75974987487342
 30
0.0
 11
596.3526007982415
 21
464.75974987487342
 31
0.0
  0
ARC
  5
163FD
  8
AM_0
 10
594.0073007982412
 20
467.9437478748734
 30
0.0
 40
1.495995999999999
 50
14.952339999994351
 51
90.178293000000224
  0
ARC
  5
163FE
  8
AM_0
 10
593.94553079824152
 20
463.26041387487328
 30
0.0
 40
1.499328
 50
11.906159999999311
 51
90.111848999999921
  0
LINE
  5
163FF
  8
AM_0
 10
592.65262079824151
 20
463.74973987487363
 30
0.0
 11
584.65259079824148
 21
463.74973987487363
 31
0.0
  0
ARC
  5
16400
  8
AM_0
 10
592.65314079824134
 20
464.74922087487357
 30
0.0
 40
0.9994760199999999
 50
269.9700799999996
 51
0.0299099999979458
  0
LINE
  5
16401
  8
AM_0
 10
598.94263079824134
 20
455.28974087487359
 30
0.0
 11
593.65262079824151
 21
455.28974087487359
 31
0.0
  0
ARC
  5
16402
  8
AM_0
 10
600.84720079824137
 20
455.93415787487362
 30
0.0
 40
2.0044159999999991
 50
195.16665999999881
 51
269.86852000000118
  0
ARC
  5
16403
  8
AM_0
 10
598.80329079824151
 20
457.29627887487362
 30
0.0
 40
2.0065319999999991
 50
192.2731300000045
 51
269.98073000000318
  0
LINE
  5
16404
  8
AM_0
 10
592.6526207982414
 20
451.78977487487379
 30
0.0
 11
584.65259079824148
 21
451.78977487487379
 31
0.0
  0
ARC
  5
16405
  8
AM_0
 10
592.65244079824117
 20
452.78996587487359
 30
0.0
 40
1.000179999999999
 50
270.01032000000009
 51
359.98968999999448
  0
LINE
  5
16421
  8
AM_0
 10
376.652555563291
 20
566.78976888658212
 30
0.0
 11
397.652555563291
 21
566.78976888658212
 31
0.0
  0
LINE
  5
16422
  8
AM_0
 10
395.152555563291
 20
576.78976888658224
 30
0.0
 11
379.15255556329112
 21
576.78976888658224
 31
0.0
  0
LINE
  5
16423
  8
AM_0
 10
376.652555563291
 20
566.78976888658212
 30
0.0
 11
376.652555563291
 21
564.78976888658224
 31
0.0
  0
LINE
  5
16424
  8
AM_0
 10
379.15255556329112
 20
576.78976888658224
 30
0.0
 11
379.15255556329112
 21
566.78976888658212
 31
0.0
  0
LINE
  5
16425
  8
AM_0
 10
397.652555563291
 20
566.78976888658212
 30
0.0
 11
397.652555563291
 21
564.78976888658224
 31
0.0
  0
LINE
  5
16426
  8
AM_0
 10
395.152555563291
 20
566.78976888658212
 30
0.0
 11
395.152555563291
 21
576.78976888658224
 31
0.0
  0
LINE
  5
16427
  8
AM_0
 10
524.6525903436135
 20
566.78976888658212
 30
0.0
 11
545.65259034361361
 21
566.78976888658212
 31
0.0
  0
LINE
  5
16428
  8
AM_0
 10
543.15259034361361
 20
576.78976888658224
 30
0.0
 11
527.15259034361384
 21
576.78976888658224
 31
0.0
  0
LINE
  5
16429
  8
AM_0
 10
524.6525903436135
 20
566.78976888658212
 30
0.0
 11
524.6525903436135
 21
564.78976888658224
 31
0.0
  0
LINE
  5
1642A
  8
AM_0
 10
527.15259034361384
 20
576.78976888658224
 30
0.0
 11
527.15259034361384
 21
566.78976888658212
 31
0.0
  0
LINE
  5
1642B
  8
AM_0
 10
545.65259034361361
 20
566.78976888658212
 30
0.0
 11
545.65259034361361
 21
564.78976888658224
 31
0.0
  0
LINE
  5
1642C
  8
AM_0
 10
543.15259034361361
 20
566.78976888658212
 30
0.0
 11
543.15259034361361
 21
576.78976888658224
 31
0.0
  0
LINE
  5
1642D
  8
AM_0
 10
547.15259068924161
 20
486.7897590106063
 30
0.0
 11
549.15254097236141
 21
445.7897590106063
 31
0.0
  0
LINE
  5
1642E
  8
AM_0
 10
373.15247275798231
 20
445.78975901060659
 30
0.0
 11
549.15254097236141
 21
445.7897590106063
 31
0.0
  0
LINE
  5
1642F
  8
AM_0
 10
375.39887931060832
 20
486.7897590106063
 30
0.0
 11
373.15247275798231
 21
445.78975901060659
 31
0.0
  0
LINE
  5
16430
  8
AM_0
 10
548.3720725691926
 20
461.78975901060659
 30
0.0
 11
374.02911921754372
 21
461.78975901060647
 31
0.0
  0
LINE
  5
16431
  8
AM_0
 10
396.03507274195579
 20
445.78975901060659
 30
0.0
 11
396.03507274195579
 21
461.78975901060647
 31
0.0
  0
LINE
  5
16432
  8
ﾁｭｳｼﾝｾﾝ1
 10
403.15259245114362
 20
440.78975901060659
 30
0.0
 11
403.15259245114362
 21
466.78975901060659
 31
0.0
  0
LINE
  5
16433
  8
ﾁｭｳｼﾝｾﾝ1
 10
519.15256056265639
 20
440.78975901060647
 30
0.0
 11
519.15256056265605
 21
466.78975901060647
 31
0.0
  0
LINE
  5
16434
  8
AM_0
 10
526.26997355918741
 20
445.7897590106063
 30
0.0
 11
526.26997355918741
 21
461.78975901060659
 31
0.0
  0
LINE
  5
169C2
  8
ﾁｭｳｼﾝｾﾝ
 10
226.1729430619944
 20
168.93626973570571
 30
0.0
 11
199.60894306199449
 21
168.93626973570571
 31
0.0
1001
GENIUS_GENODEF_13
1002
{
1000
HIER
1070
     0
1002
}
1002
{
1000
MANEDIT
1070
     0
1002
}
1002
{
1000
NOSEL
1070
     0
1002
}
1002
{
1000
BEHIND
1070
     0
1002
}
1002
{
1000
OTHER
1070
     0
1002
}
1002
{
1000
REACTOR
1002
}
1001
GENIUS_GENOBJ-N-CEN_13
1002
{
1000
OWNER
1000
GEN
1002
}
  0
LINE
  5
169C3
  8
ﾁｭｳｼﾝｾﾝ
 10
226.17294609976699
 20
330.93626507279981
 30
0.0
 11
199.60894609976711
 21
330.93626606903928
 31
0.0
1001
GENIUS_GENODEF_13
1002
{
1000
HIER
1070
     0
1002
}
1002
{
1000
MANEDIT
1070
     0
1002
}
1002
{
1000
NOSEL
1070
     0
1002
}
1002
{
1000
BEHIND
1070
     0
1002
}
1002
{
1000
OTHER
1070
     0
1002
}
1002
{
1000
REACTOR
1002
}
1001
GENIUS_GENOBJ-N-CEN_13
1002
{
1000
OWNER
1000
GEN
1002
}
  0
TEXT
  5
16D27
  8
AM_0
 10
42.735702645519041
 20
530.05931562004321
 30
0.0
 40
10.0
  1
VC04-007FMH~VC04-060FMH
1001
ACAD
1000
MTEXTBEGIN
1070
    73
1070
     1
1070
    44
1040
1.0
1070
    74
1070
     0
1000
MTEXTEND
  0
VIEWPORT
  5
89
 67
     1
  8
0
 10
210.0
 20
148.5
 30
0.0
 40
420.0
 41
297.0
 68
     1
 69
     1
1001
ACAD
1000
MVIEW
1002
{
1070
    16
1010
0.0
1020
0.0
1030
0.0
1010
0.0
1020
0.0
1030
1.0
1040
0.0
1040
297.0
1040
221.70154043645701
1040
148.5
1040
50.0
1040
0.0
1040
0.0
1070
     0
1070
   100
1070
     1
1070
     1
1070
     0
1070
     0
1070
     0
1070
     0
1040
0.0
1040
0.0
1040
0.0
1040
10.0
1040
10.0
1040
10.0
1040
10.0
1070
     0
1002
{
1002
}
1002
}
1001
GENIUS_GENOREF_13
1005
1B94
1001
GENIUS_GENSCREG_15
1000
PF
1040
1.0
1000
DF
1040
1.0
1000
MIN
1011
0.0
1021
0.0
1031
0.0
1021
0.0
1031
0.0
1000
MAX
1011
420.0
1021
0.0
1031
0.0
1021
297.0
1031
0.0
1000
FLAGS
1070
     4
  0
ENDSEC
  0
EOF
