  0
SECTION
  2
HEADER
  9
$ACADVER
  1
AC1009
  9
$INSBASE
 10
0.0
 20
0.0
 30
0.0
  9
$EXTMIN
 10
170.3978605139973
 20
193.513795893539
 30
-0.0000000000112498
  9
$EXTMAX
 10
963.17419678202623
 20
708.63220383486725
 30
0.0000000000002956
  9
$LIMMIN
 10
0.0
 20
0.0
  9
$LIMMAX
 10
1138.0
 20
740.00000000000011
  9
$ORTHOMODE
 70
     0
  9
$REGENMODE
 70
     1
  9
$FILLMODE
 70
     1
  9
$QTEXTMODE
 70
     0
  9
$MIRRTEXT
 70
     1
  9
$DRAGMODE
 70
     2
  9
$LTSCALE
 40
4.0
  9
$OSMODE
 70
   551
  9
$ATTMODE
 70
     1
  9
$TEXTSIZE
 40
2.5
  9
$TRACEWID
 40
1.0
  9
$TEXTSTYLE
  7
STANDARD
  9
$CLAYER
  8
AM_0
  9
$CELTYPE
  6
BYLAYER
  9
$CECOLOR
 62
   256
  9
$DIMSCALE
 40
4.0
  9
$DIMASZ
 40
2.5
  9
$DIMEXO
 40
1.0
  9
$DIMDLI
 40
7.0
  9
$DIMRND
 40
0.0
  9
$DIMDLE
 40
0.0
  9
$DIMEXE
 40
1.0
  9
$DIMTP
 40
0.1
  9
$DIMTM
 40
0.1000000001
  9
$DIMTXT
 40
2.5
  9
$DIMCEN
 40
0.0
  9
$DIMTSZ
 40
0.0
  9
$DIMTOL
 70
     0
  9
$DIMLIM
 70
     0
  9
$DIMTIH
 70
     0
  9
$DIMTOH
 70
     0
  9
$DIMSE1
 70
     0
  9
$DIMSE2
 70
     0
  9
$DIMTAD
 70
     3
  9
$DIMZIN
 70
     8
  9
$DIMBLK
  1

  9
$DIMASO
 70
     1
  9
$DIMSHO
 70
     1
  9
$DIMPOST
  1

  9
$DIMAPOST
  1
"
  9
$DIMALT
 70
     0
  9
$DIMALTD
 70
     2
  9
$DIMALTF
 40
0.0393701
  9
$DIMLFAC
 40
1.0
  9
$DIMTOFL
 70
     1
  9
$DIMTVP
 40
0.0
  9
$DIMTIX
 70
     0
  9
$DIMSOXD
 70
     0
  9
$DIMSAH
 70
     0
  9
$DIMBLK1
  1

  9
$DIMBLK2
  1

  9
$DIMSTYLE
  2
AM_JIS
  9
$DIMCLRD
 70
   256
  9
$DIMCLRE
 70
   256
  9
$DIMCLRT
 70
     4
  9
$DIMTFAC
 40
0.71
  9
$DIMGAP
 40
1.0
  9
$LUNITS
 70
     2
  9
$LUPREC
 70
     2
  9
$SKETCHINC
 40
1.0
  9
$FILLETRAD
 40
0.0
  9
$AUNITS
 70
     0
  9
$AUPREC
 70
     3
  9
$MENU
  1
.
  9
$ELEVATION
 40
0.0
  9
$PELEVATION
 40
0.0
  9
$THICKNESS
 40
0.0
  9
$LIMCHECK
 70
     0
  9
$BLIPMODE
 70
     0
  9
$CHAMFERA
 40
10.0
  9
$CHAMFERB
 40
10.0
  9
$SKPOLY
 70
     0
  9
$TDCREATE
 40
2452753.643349607
  9
$TDUPDATE
 40
2458544.4392454051
  9
$TDINDWG
 40
0.6989538773
  9
$TDUSRTIMER
 40
0.698953669
  9
$USRTIMER
 70
     1
  9
$ANGBASE
 50
0.0
  9
$ANGDIR
 70
     0
  9
$PDMODE
 70
     0
  9
$PDSIZE
 40
0.0
  9
$PLINEWID
 40
0.0
  9
$COORDS
 70
     1
  9
$SPLFRAME
 70
     0
  9
$SPLINETYPE
 70
     6
  9
$SPLINESEGS
 70
     8
  9
$ATTDIA
 70
     1
  9
$ATTREQ
 70
     1
  9
$HANDLING
 70
     1
  9
$HANDSEED
  5
1ABAC
  9
$SURFTAB1
 70
     6
  9
$SURFTAB2
 70
     6
  9
$SURFTYPE
 70
     6
  9
$SURFU
 70
     6
  9
$SURFV
 70
     6
  9
$UCSNAME
  2

  9
$UCSORG
 10
0.0
 20
0.0
 30
0.0
  9
$UCSXDIR
 10
1.0
 20
0.0
 30
0.0
  9
$UCSYDIR
 10
0.0
 20
1.0
 30
0.0
  9
$PUCSNAME
  2

  9
$PUCSORG
 10
0.0
 20
0.0
 30
0.0
  9
$PUCSXDIR
 10
1.0
 20
0.0
 30
0.0
  9
$PUCSYDIR
 10
0.0
 20
1.0
 30
0.0
  9
$USERI1
 70
     0
  9
$USERI2
 70
     0
  9
$USERI3
 70
     0
  9
$USERI4
 70
     0
  9
$USERI5
 70
     0
  9
$USERR1
 40
0.0
  9
$USERR2
 40
0.0
  9
$USERR3
 40
0.0
  9
$USERR4
 40
0.0
  9
$USERR5
 40
0.0
  9
$WORLDVIEW
 70
     1
  9
$SHADEDGE
 70
     3
  9
$SHADEDIF
 70
    70
  9
$TILEMODE
 70
     1
  9
$MAXACTVP
 70
    48
  9
$PLIMCHECK
 70
     0
  9
$PEXTMIN
 10
1.0000000000000000E+020
 20
1.0000000000000000E+020
 30
1.0000000000000000E+020
  9
$PEXTMAX
 10
-1.0000000000000000E+020
 20
-1.0000000000000000E+020
 30
-1.0000000000000000E+020
  9
$PLIMMIN
 10
0.0
 20
0.0
  9
$PLIMMAX
 10
420.0
 20
297.0
  9
$UNITMODE
 70
     0
  9
$VISRETAIN
 70
     1
  9
$PLINEGEN
 70
     0
  9
$PSLTSCALE
 70
     1
  0
ENDSEC
  0
SECTION
  2
TABLES
  0
TABLE
  2
VPORT
 70
     1
  0
VPORT
  2
*ACTIVE
 70
     0
 10
0.0
 20
0.0
 11
1.0
 21
1.0
 12
566.78602864801167
 22
451.07299986420321
 13
0.0
 23
0.0
 14
10.0
 24
10.0
 15
40.0
 25
40.0
 16
0.0
 26
0.0
 36
1.0
 17
0.0
 27
0.0
 37
0.0
 40
518.65468991804232
 41
1.7571592210767459
 42
50.0
 43
0.0
 44
0.0
 50
0.0
 51
0.0
 71
     0
 72
   100
 73
     1
 74
     1
 75
     0
 76
     0
 77
     0
 78
     0
  0
ENDTAB
  0
TABLE
  2
LTYPE
 70
    26
  0
LTYPE
  2
CONTINUOUS
 70
     0
  3
Solid line
 72
    65
 73
     0
 40
0.0
  0
LTYPE
  2
PHANTOM2
 70
     0
  3
Phantom (.5x) ___ _ _ ___ _ _ ___ _ _ ___ _ _
 72
    65
 73
     6
 40
31.75
 49
15.875
 49
-3.174999999999998
 49
3.174999999999998
 49
-3.174999999999998
 49
3.174999999999998
 49
-3.174999999999998
  0
LTYPE
  2
CENTER
 70
     0
  3
Center ____ _ ____ _ ____ _ ____ _ ____ _ ____
 72
    65
 73
     4
 40
50.799999999999997
 49
31.75
 49
-6.349999999999997
 49
6.349999999999997
 49
-6.349999999999997
  0
LTYPE
  2
ACANSTGBM
 70
     0
  3
__ . . __ . .
 72
    65
 73
     6
 40
9.0
 49
4.0
 49
-1.0
 49
1.0
 49
-1.0
 49
1.0
 49
-1.0
  0
LTYPE
  2
ACANSTGLM
 70
     0
  3
_ _ _ _ _
 72
    65
 73
     2
 40
3.0
 49
2.0
 49
-1.0
  0
LTYPE
  2
GEN3B
 70
     0
  3
 - - - - -
 72
    65
 73
     2
 40
1.0
 49
0.5
 49
-0.5
  0
LTYPE
  2
GEN7A
 70
     0
  3
__ . __ . __
 72
    65
 73
     4
 40
7.375
 49
4.75
 49
-0.875
 49
0.875
 49
-0.875
  0
LTYPE
  2
AM_ISO02W050
 70
     0
  3
__ __ __ __ __ __ __ __ __ __ __ __ __ __ __
 72
    65
 73
     2
 40
7.5
 49
6.0
 49
-1.5
  0
LTYPE
  2
AM_ISO08W050
 70
     0
  3
____ . ____ . ____ . ____ . ____ . ____ . ____
 72
    65
 73
     4
 40
18.0
 49
12.0
 49
-1.5
 49
3.0
 49
-1.5
  0
LTYPE
  2
AM_ISO09W050
 70
     0
  3
_____ . . _____ . . _____ . . ____ .. ____
 72
    65
 73
     6
 40
22.5
 49
12.0
 49
-1.5
 49
3.0
 49
-1.5
 49
3.0
 49
-1.5
  0
LTYPE
  2
AMCONSTR
 70
     0
  3
_______________________
 72
    65
 73
     2
 40
9999.0
 49
9999.0
 49
0.0
  0
LTYPE
  2
AM_ISO02W050X2
 70
     0
  3
 _ _ _ _ _ _ _ _ _ _ _ _
 72
    65
 73
     2
 40
3.75
 49
3.0
 49
-0.75
  0
LTYPE
  2
AM_ISO08W050X2
 70
     0
  3
__ . __ . __ . __ . __ . __
 72
    65
 73
     4
 40
9.0
 49
6.0
 49
-0.75
 49
1.5
 49
-0.75
  0
LTYPE
  2
AMZIGZAG
 70
     0
  3
/\/-/\/-/\/-/\/-/\/-/\/
 72
    65
 73
     2
 40
11.0001
 49
0.0001
 49
-11.0
  0
LTYPE
  2
ACJISTGB
 70
     0
  3
__ . . __ . .
 72
    65
 73
     6
 40
9.0
 49
4.0
 49
-1.0
 49
1.0
 49
-1.0
 49
1.0
 49
-1.0
  0
LTYPE
  2
ACJISTGL
 70
     0
  3
_ _ _ _ _
 72
    65
 73
     2
 40
3.0
 49
2.0
 49
-1.0
  0
LTYPE
  2
ACISOWELD
 70
     0
  3
_ _ _ _ _
 72
    65
 73
     2
 40
2.0
 49
2.0
 49
-1.0
  0
LTYPE
  2
ACISOTGB
 70
     0
  3
__ . . __ . .
 72
    65
 73
     6
 40
9.0
 49
4.0
 49
-1.0
 49
1.0
 49
-1.0
 49
1.0
 49
-1.0
  0
LTYPE
  2
ACISOTGL
 70
     0
  3
_ _ _ _ _
 72
    65
 73
     2
 40
3.0
 49
2.0
 49
-1.0
  0
LTYPE
  2
HIDDEN
 70
     0
  3
Hidden __ __ __ __ __ __ __ __ __ __ __ __ __ _
 72
    65
 73
     2
 40
9.5249999999999968
 49
6.349999999999997
 49
-3.174999999999998
  0
LTYPE
  2
CENTER2
 70
     0
  3
Center (.5x) ___ _ ___ _ ___ _ ___ _ ___ _ ___
 72
    65
 73
     4
 40
1.125
 49
0.75
 49
-0.125
 49
0.125
 49
-0.125
  0
LTYPE
  2
HIDDEN2
 70
     0
  3
Hidden (.5x) _ _ _ _ _ _ _ _ _ _ _ _ _ _ _ _ _
 72
    65
 73
     2
 40
0.1875
 49
0.125
 49
-0.0625
  0
LTYPE
  2
AMZIGZAG2
 70
     0
  3
/\/-/\/-/\/-/\/-/\/-/\/
 72
    65
 73
     2
 40
0.4401
 49
0.0001
 49
-0.4400000000000001
  0
LTYPE
  2
ACANSTGB
 70
     0
  3
__ . . __ . .
 72
    65
 73
     6
 40
0.35433070866
 49
0.15748031496
 49
-0.03937007874
 49
0.03937007874
 49
-0.03937007874
 49
0.03937007874
 49
-0.03937007874
  0
LTYPE
  2
ACANSTGL
 70
     0
  3
_ _ _ _ _
 72
    65
 73
     2
 40
0.11811023622
 49
0.07874015748
 49
-0.03937007874
  0
ENDTAB
  0
TABLE
  2
LAYER
 70
     9
  0
LAYER
  2
0
 70
     0
 62
     7
  6
CONTINUOUS
  0
LAYER
  2
AM_0
 70
     0
 62
     7
  6
CONTINUOUS
  0
LAYER
  2
DEFPOINTS
 70
     0
 62
     7
  6
CONTINUOUS
  0
LAYER
  2
ｷｲﾛ
 70
     0
 62
     2
  6
CONTINUOUS
  0
LAYER
  2
ｶｸﾚｾﾝ2
 70
     0
 62
     3
  6
GEN3B
  0
LAYER
  2
ﾁｭｳｼﾝｾﾝ1
 70
     0
 62
     1
  6
GEN7A
  0
LAYER
  2
AM_0N
 70
     0
 62
     7
  6
CONTINUOUS
  0
LAYER
  2
AM_5
 70
     0
 62
     2
  6
CONTINUOUS
  0
LAYER
  2
AM_4
 70
     0
 62
     2
  6
CONTINUOUS
  0
ENDTAB
  0
TABLE
  2
STYLE
 70
    10
  0
STYLE
  2
STANDARD
 70
     0
 40
0.0
 41
0.8299999999999999
 50
0.0
 71
     0
 42
2.5
  3
txt.shx
  4
bigfont.shx
  0
STYLE
  2
ANNOTATIVE
 70
     0
 40
0.0
 41
1.0
 50
0.0
 71
     0
 42
0.2
  3
txt
  4

  0
STYLE
  2
ACANSTS
 70
     0
 40
1.0
 41
1.0
 50
0.0
 71
     0
 42
2.5
  3
romans.shx
  4
bigfont.shx
  0
STYLE
  2
ACANSGDT
 70
     0
 40
0.0
 41
1.0
 50
0.0
 71
     0
 42
2.5
  3
amgdt.shx
  4

  0
STYLE
  2

 70
     1
 40
0.0
 41
1.0
 50
0.0
 71
     0
 42
2.5
  3
ltypeshp.shx
  4

  0
STYLE
  2
ACJISTS
 70
     0
 40
1.0
 41
1.0
 50
0.0
 71
     0
 42
2.5
  3
isocp.shx
  4
bigfont.shx
  0
STYLE
  2
ACJISGDT
 70
     0
 40
0.0
 41
1.0
 50
0.0
 71
     0
 42
2.5
  3
amgdt.shx
  4

  0
STYLE
  2
ACISOTS
 70
     0
 40
3.0
 41
1.0
 50
0.0
 71
     0
 42
2.5
  3
isocp.shx
  4
extfont.shx
  0
STYLE
  2
ACISOGDT
 70
     0
 40
0.0
 41
1.0
 50
0.0
 71
     0
 42
2.5
  3
amgdt.shx
  4

  0
STYLE
  2

 70
     1
 40
0.0
 41
1.0
 50
0.0
 71
     0
 42
2.5
  3
genltshp.shx
  4

  0
ENDTAB
  0
TABLE
  2
VIEW
 70
    12
  0
VIEW
  2
GEN1
 70
     0
 40
95.824742268041234
 10
71.5
 20
137.08762886597941
 41
143.0
 11
0.0
 21
0.0
 31
1.0
 12
0.0
 22
0.0
 32
0.0
 42
50.0
 43
0.0
 44
0.0
 50
0.0
 71
     0
  0
VIEW
  2
GEN2
 70
     0
 40
95.824742268041234
 10
214.5
 20
137.08762886597941
 41
143.0
 11
0.0
 21
0.0
 31
1.0
 12
0.0
 22
0.0
 32
0.0
 42
50.0
 43
0.0
 44
0.0
 50
0.0
 71
     0
  0
VIEW
  2
GEN3
 70
     0
 40
95.824742268041234
 10
71.5
 20
47.912371134020603
 41
143.0
 11
0.0
 21
0.0
 31
1.0
 12
0.0
 22
0.0
 32
0.0
 42
50.0
 43
0.0
 44
0.0
 50
0.0
 71
     0
  0
VIEW
  2
GEN4
 70
     0
 40
95.824742268041234
 10
214.5
 20
47.912371134020603
 41
143.0
 11
0.0
 21
0.0
 31
1.0
 12
0.0
 22
0.0
 32
0.0
 42
50.0
 43
0.0
 44
0.0
 50
0.0
 71
     0
  0
VIEW
  2
GEN5
 70
     0
 40
95.824742268041234
 10
143.0
 20
92.500000000000057
 41
143.0
 11
0.0
 21
0.0
 31
1.0
 12
0.0
 22
0.0
 32
0.0
 42
50.0
 43
0.0
 44
0.0
 50
0.0
 71
     0
  0
VIEW
  2
GEN6
 70
     0
 40
191.64756804123709
 10
143.0
 20
92.5
 41
285.99714
 11
0.0
 21
0.0
 31
1.0
 12
0.0
 22
0.0
 32
0.0
 42
50.0
 43
0.0
 44
0.0
 50
0.0
 71
     0
  0
VIEW
  2
AM_VIEW1
 70
     0
 40
370.00000000000023
 10
332.86372007366492
 20
555.00000000000011
 41
665.72744014732962
 11
0.0
 21
0.0
 31
1.0
 12
0.0
 22
0.0
 32
0.0
 42
50.0
 43
0.0
 44
0.0
 50
0.0
 71
     0
  0
VIEW
  2
AM_VIEW2
 70
     0
 40
370.00000000000023
 10
805.13627992633485
 20
555.00000000000011
 41
665.72744014732962
 11
0.0
 21
0.0
 31
1.0
 12
0.0
 22
0.0
 32
0.0
 42
50.0
 43
0.0
 44
0.0
 50
0.0
 71
     0
  0
VIEW
  2
AM_VIEW3
 70
     0
 40
370.00000000000023
 10
332.86372007366492
 20
185.0
 41
665.72744014732962
 11
0.0
 21
0.0
 31
1.0
 12
0.0
 22
0.0
 32
0.0
 42
50.0
 43
0.0
 44
0.0
 50
0.0
 71
     0
  0
VIEW
  2
AM_VIEW4
 70
     0
 40
370.00000000000023
 10
805.13627992633485
 20
185.0
 41
665.72744014732962
 11
0.0
 21
0.0
 31
1.0
 12
0.0
 22
0.0
 32
0.0
 42
50.0
 43
0.0
 44
0.0
 50
0.0
 71
     0
  0
VIEW
  2
AM_VIEW5
 70
     0
 40
370.00000000000023
 10
569.0
 20
370.00000000000023
 41
665.72744014732962
 11
0.0
 21
0.0
 31
1.0
 12
0.0
 22
0.0
 32
0.0
 42
50.0
 43
0.0
 44
0.0
 50
0.0
 71
     0
  0
VIEW
  2
AM_VIEW6
 70
     0
 40
739.99260000000015
 10
569.0
 20
370.00000000000023
 41
1331.4415657458569
 11
0.0
 21
0.0
 31
1.0
 12
0.0
 22
0.0
 32
0.0
 42
50.0
 43
0.0
 44
0.0
 50
0.0
 71
     0
  0
ENDTAB
  0
TABLE
  2
UCS
 70
     0
  0
ENDTAB
  0
TABLE
  2
APPID
 70
    97
  0
APPID
  2
ACAD
 70
     0
  0
APPID
  2
ACADANNOTATIVE
 70
     0
  0
APPID
  2
MCAD_NO_VIS
 70
     0
  0
APPID
  2
ACAD_TEMP_GRAPHIC
 70
     0
  0
APPID
  2
AD_DRAW
 70
     0
  0
APPID
  2
DESIGNERASSEMBLIES
 70
     0
  0
APPID
  2
ASURF_PCURVE_APPNAME
 70
     0
  0
APPID
  2
GENIUS_GE3SECT_13
 70
     0
  0
APPID
  2
GENIUS_GENCFG_13
 70
     0
  0
APPID
  2
GENIUS_GE3CFG0_13
 70
     0
  0
APPID
  2
GENIUS_GENCFG0_13
 70
     0
  0
APPID
  2
GENIUS_GENCFG1_13
 70
     0
  0
APPID
  2
GENIUS_GENCFG2_13
 70
     0
  0
APPID
  2
GENIUS_GENCFG3_13
 70
     0
  0
APPID
  2
GENIUS_GENCFG4_13
 70
     0
  0
APPID
  2
GENIUS_GEVCFG0_13
 70
     0
  0
APPID
  2
GENIUS_GENOENT_13
 70
     0
  0
APPID
  2
GENIUS_GENREC_14
 70
     0
  0
APPID
  2
GENIUS_GENODEF_13
 70
     0
  0
APPID
  2
GENIUS_GENOBJ-N-REC_13
 70
     0
  0
APPID
  2
GENIUS_GENHINW_13
 70
     0
  0
APPID
  2
GENIUS_FIRSTVISTXT_14
 70
     0
  0
APPID
  2
GENIUS_GENOBJ-N-LEADER_13
 70
     0
  0
APPID
  2
GENIUS_GENOREF_13
 70
     0
  0
APPID
  2
GENIUS_GENOLIS_13
 70
     0
  0
APPID
  2
GEV_VCCNULL_SWITCH_OFF
 70
     0
  0
APPID
  2
GENIUS_GENDTOL_13
 70
     0
  0
APPID
  2
GENIUS_GEFCFG0_13
 70
     0
  0
APPID
  2
GENIUS_GENOBJ-N-TIT_13
 70
     0
  0
APPID
  2
GENIUS_GENTITLE_13
 70
     0
  0
APPID
  2
GENIUS_GENZVEED_13
 70
     0
  0
APPID
  2
GENIUS_GENOBJ-N-SDF_13
 70
     0
  0
APPID
  2
GENIUS_GENSCREG_13
 70
     0
  0
APPID
  2
GENIUS_DUMCFG0_13
 70
     0
  0
APPID
  2
GEVID936201362
 70
     0
  0
APPID
  2
GEVDC
 70
     0
  0
APPID
  2
GEVCON
 70
     0
  0
APPID
  2
VCC
 70
     0
  0
APPID
  2
GEVPT
 70
     0
  0
APPID
  2
GEVIT
 70
     0
  0
APPID
  2
GENBH
 70
     0
  0
APPID
  2
GEVMK
 70
     0
  0
APPID
  2
GENIUS_GENBH_13
 70
     0
  0
APPID
  2
GENIUS_GENOBJ-NBEHI-BHF_13
 70
     0
  0
APPID
  2
GENIUS_GENOBJ-NBEHI-BHB_13
 70
     0
  0
APPID
  2
GENIUS_GENOBJ-F-DESC_13
 70
     0
  0
APPID
  2
GENIUS_GEFDESC_14
 70
     0
  0
APPID
  2
GENIUS_GENOBJ-F-PART_13
 70
     0
  0
APPID
  2
GENIUS_GEFSTDP_13
 70
     0
  0
APPID
  2
GENIUS_GEFPARTINS_13
 70
     0
  0
APPID
  2
GENIUS_GENTRA_14
 70
     0
  0
APPID
  2
GENIUS_GENINF13_13
 70
     0
  0
APPID
  2
GENIUS_GENOBJ-N-INFOPT_13
 70
     0
  0
APPID
  2
GENIUS_GENOBJ-N-RSSYM_13
 70
     0
  0
APPID
  2
GENIUS_GENSYMENT_13
 70
     0
  0
APPID
  2
GENIUS_GENSCSYM_13
 70
     0
  0
APPID
  2
GENIUS_GEFINFNAM_13
 70
     0
  0
APPID
  2
GENIUS_GENSCREG_15
 70
     0
  0
APPID
  2
GENIUS_GENOBJ-N-CEN_13
 70
     0
  0
APPID
  2
GENIUS_GENOBJ-N-CRS_13
 70
     0
  0
APPID
  2
GENIUS_GENOBJ-N-CRC_13
 70
     0
  0
APPID
  2
GENIUS_GENCRC_14
 70
     0
  0
APPID
  2
GEVID942827039
 70
     0
  0
APPID
  2
GEVID942827040
 70
     0
  0
APPID
  2
GEVID942827041
 70
     0
  0
APPID
  2
GENIUS_GENOBJ-F-SCPASSM_13
 70
     0
  0
APPID
  2
GENIUS_GENDIMSH_14
 70
     0
  0
APPID
  2
GENIUS_GENFIL_13
 70
     0
  0
APPID
  2
GENIUS_GENOBJ-N-CHA_13
 70
     0
  0
APPID
  2
GENIUS_GENOBJ-N-FIL_13
 70
     0
  0
APPID
  2
GEVID942827042
 70
     0
  0
APPID
  2
GEVID946020473
 70
     0
  0
APPID
  2
GEVID946020474
 70
     0
  0
APPID
  2
GEVID946020475
 70
     0
  0
APPID
  2
GENIUS_GENOBJ-N-HTC_13
 70
     0
  0
APPID
  2
GENIUS_GENHATCH_13
 70
     0
  0
APPID
  2
GEVID948854295
 70
     0
  0
APPID
  2
GEVID939402019
 70
     0
  0
APPID
  2
GEVID952919491
 70
     0
  0
APPID
  2
GEVID952919492
 70
     0
  0
APPID
  2
GENIUS_GEFWELD_13
 70
     0
  0
APPID
  2
GENIUS_GENOBJ-F-WELS_13
 70
     0
  0
APPID
  2
GEVID952919493
 70
     0
  0
APPID
  2
GENIUS_GENOBJ-N-RSBK_13
 70
     0
  0
APPID
  2
GENIUS_GENOBJ-N-LIB_13
 70
     0
  0
APPID
  2
GENIUS_GENSCALE_13
 70
     0
  0
APPID
  2
GEVID986376691
 70
     0
  0
APPID
  2
ACATTRIBSERVICES
 70
     0
  0
APPID
  2
DCO15
 70
     0
  0
APPID
  2
ACADM_DIM_EDIT
 70
     0
  0
APPID
  2
AMDT_DM_ADJ
 70
     0
  0
APPID
  2
ACAD_MLEADERVER
 70
     0
  0
APPID
  2
ACAD_DSTYLE_DIMBREAK
 70
     0
  0
APPID
  2
ACAD_DSTYLE_DIMJAG
 70
     0
  0
APPID
  2
ACAD_NAV_VCDISPLAY
 70
     0
  0
APPID
  2
ACAD_EXEMPT_FROM_CAD_STANDARDS
 70
     0
  0
APPID
  2
ACADANNOPO
 70
     0
  0
ENDTAB
  0
TABLE
  2
DIMSTYLE
 70
    24
  0
DIMSTYLE
  2
STANDARD
 70
     0
  3

  4

  5

  6

  7

 40
1.0
 41
0.18
 42
0.0625
 43
0.38
 44
0.18
 45
0.0
 46
0.0
 47
0.0
 48
0.0
140
0.18
141
0.09
142
0.0
143
25.399999999999999
144
1.0
145
0.0
146
1.0
147
0.09
 71
     0
 72
     0
 73
     1
 74
     1
 75
     0
 76
     0
 77
     0
 78
     0
170
     0
171
     2
172
     0
173
     0
174
     0
175
     0
176
     0
177
     0
178
     0
  0
DIMSTYLE
  2
ANNOTATIVE
 70
     0
  3

  4

  5

  6

  7

 40
1.0
 41
0.18
 42
0.0625
 43
0.38
 44
0.18
 45
0.0
 46
0.0
 47
0.0
 48
0.0
140
0.18
141
0.09
142
0.0
143
25.399999999999999
144
1.0
145
0.0
146
1.0
147
0.09
 71
     0
 72
     0
 73
     1
 74
     1
 75
     0
 76
     0
 77
     0
 78
     0
170
     0
171
     2
172
     0
173
     0
174
     0
175
     0
176
     0
177
     0
178
     0
  0
DIMSTYLE
  2
AM_JIS
 70
     0
  3

  4
"
  5

  6

  7

 40
1.0
 41
2.5
 42
1.0
 43
7.0
 44
1.0
 45
0.0
 46
0.0
 47
0.1
 48
0.1000000001
140
2.5
141
0.0
142
0.0
143
0.0393701
144
1.0
145
0.0
146
0.71
147
1.0
 71
     0
 72
     0
 73
     0
 74
     0
 75
     0
 76
     0
 77
     3
 78
     8
170
     0
171
     2
172
     1
173
     0
174
     0
175
     0
176
   256
177
   256
178
     4
  0
DIMSTYLE
  2
AM_JIS$3
 70
     0
  3

  4
"
  5

  6

  7

 40
1.0
 41
2.5
 42
1.0
 43
7.0
 44
1.0
 45
0.0
 46
0.0
 47
0.1
 48
0.1000000001
140
2.5
141
0.0
142
0.0
143
0.0393701
144
1.0
145
0.0
146
0.71
147
1.0
 71
     0
 72
     0
 73
     0
 74
     1
 75
     0
 76
     0
 77
     3
 78
     8
170
     0
171
     2
172
     0
173
     0
174
     0
175
     0
176
   256
177
   256
178
     4
  0
DIMSTYLE
  2
AM_JIS$4
 70
     0
  3

  4
"
  5

  6

  7

 40
1.0
 41
2.5
 42
1.0
 43
7.0
 44
1.0
 45
0.0
 46
0.0
 47
0.1
 48
0.1000000001
140
2.5
141
0.0
142
0.0
143
0.0393701
144
1.0
145
0.0
146
0.71
147
1.0
 71
     0
 72
     0
 73
     0
 74
     0
 75
     0
 76
     0
 77
     3
 78
     8
170
     0
171
     2
172
     0
173
     0
174
     0
175
     0
176
   256
177
   256
178
     4
  0
DIMSTYLE
  2
AM_JIS$6
 70
     0
  3

  4
"
  5

  6

  7

 40
1.0
 41
2.5
 42
1.0
 43
7.0
 44
1.0
 45
0.0
 46
0.0
 47
0.1
 48
0.1000000001
140
2.5
141
0.0
142
0.0
143
0.0393701
144
1.0
145
0.0
146
0.71
147
1.0
 71
     0
 72
     0
 73
     0
 74
     0
 75
     0
 76
     0
 77
     0
 78
     8
170
     0
171
     2
172
     1
173
     0
174
     0
175
     0
176
   256
177
   256
178
     4
  0
DIMSTYLE
  2
AM_JIS$7
 70
     0
  3

  4
"
  5

  6

  7

 40
1.0
 41
2.5
 42
1.0
 43
7.0
 44
1.0
 45
0.0
 46
0.0
 47
0.1
 48
0.1000000001
140
2.5
141
0.0
142
0.0
143
0.0393701
144
1.0
145
0.0
146
0.71
147
1.0
 71
     0
 72
     0
 73
     0
 74
     0
 75
     0
 76
     0
 77
     3
 78
     8
170
     0
171
     2
172
     1
173
     0
174
     0
175
     0
176
   256
177
   256
178
     4
  0
DIMSTYLE
  2
AM_JIS$SF
 70
     0
  3

  4
"
  5

  6

  7

 40
1.0
 41
2.5
 42
1.0
 43
10.0
 44
1.0
 45
0.0
 46
0.0
 47
0.1
 48
0.1
140
3.5
141
0.0
142
0.0
143
0.0393701
144
1.0
145
0.0
146
0.71
147
1.5
 71
     0
 72
     0
 73
     0
 74
     0
 75
     1
 76
     1
 77
     3
 78
     8
170
     0
171
     2
172
     1
173
     0
174
     0
175
     0
176
   256
177
   256
178
     4
  0
DIMSTYLE
  2
AM_JIS$SH
 70
     0
  3

  4
"
  5

  6

  7

 40
1.0
 41
2.5
 42
1.0
 43
10.0
 44
1.0
 45
0.0
 46
0.0
 47
0.1
 48
0.1
140
3.5
141
0.0
142
0.0
143
0.0393701
144
1.0
145
0.0
146
0.71
147
1.5
 71
     0
 72
     0
 73
     0
 74
     0
 75
     1
 76
     0
 77
     3
 78
     8
170
     0
171
     2
172
     1
173
     1
174
     0
175
     0
176
   256
177
   256
178
     4
  0
DIMSTYLE
  2
AM_ISO
 70
     0
  3

  4
"
  5

  6

  7

 40
1.0
 41
2.5
 42
1.0
 43
10.0
 44
1.0
 45
0.0
 46
0.0
 47
0.0
 48
0.000000001
140
3.0
141
0.0
142
0.0
143
0.0393701
144
1.0
145
0.0
146
0.71
147
1.299999999999998
 71
     1
 72
     0
 73
     0
 74
     0
 75
     0
 76
     0
 77
     1
 78
     8
170
     0
171
     2
172
     1
173
     0
174
     0
175
     0
176
   256
177
   256
178
     4
  0
DIMSTYLE
  2
AM_ISO$3
 70
     0
  3

  4
"
  5

  6

  7

 40
1.0
 41
2.5
 42
1.0
 43
10.0
 44
1.0
 45
0.0
 46
0.0
 47
0.0
 48
0.000000001
140
2.5
141
0.0
142
0.0
143
0.0393701
144
1.0
145
0.0
146
0.71
147
1.299999999999998
 71
     1
 72
     0
 73
     0
 74
     1
 75
     0
 76
     0
 77
     1
 78
     8
170
     0
171
     2
172
     0
173
     0
174
     0
175
     0
176
   256
177
   256
178
     4
  0
DIMSTYLE
  2
AM_ISO$4
 70
     0
  3

  4
"
  5

  6

  7

 40
1.0
 41
2.5
 42
1.0
 43
10.0
 44
1.0
 45
0.0
 46
0.0
 47
0.0
 48
0.000000001
140
2.5
141
0.0
142
0.0
143
0.0393701
144
1.0
145
0.0
146
0.71
147
1.299999999999998
 71
     1
 72
     0
 73
     0
 74
     1
 75
     0
 76
     0
 77
     1
 78
     8
170
     0
171
     2
172
     0
173
     0
174
     0
175
     0
176
   256
177
   256
178
     4
  0
DIMSTYLE
  2
AM_ISO$6
 70
     0
  3

  4
"
  5

  6

  7

 40
1.0
 41
2.5
 42
1.0
 43
10.0
 44
1.0
 45
0.0
 46
0.0
 47
0.0
 48
0.000000001
140
2.5
141
0.0
142
0.0
143
0.0393701
144
1.0
145
0.0
146
0.71
147
1.299999999999998
 71
     1
 72
     0
 73
     0
 74
     0
 75
     0
 76
     0
 77
     0
 78
     8
170
     0
171
     2
172
     1
173
     0
174
     0
175
     0
176
   256
177
   256
178
     4
  0
DIMSTYLE
  2
AM_ISO$7
 70
     0
  3

  4
"
  5

  6

  7

 40
1.0
 41
2.5
 42
1.0
 43
10.0
 44
1.0
 45
0.0
 46
0.0
 47
0.0
 48
0.000000001
140
2.5
141
0.0
142
0.0
143
0.0393701
144
1.0
145
0.0
146
0.71
147
1.299999999999998
 71
     1
 72
     0
 73
     0
 74
     0
 75
     0
 76
     0
 77
     1
 78
     8
170
     0
171
     2
172
     1
173
     0
174
     0
175
     0
176
   256
177
   256
178
     4
  0
DIMSTYLE
  2
AM_ISO$SF
 70
     0
  3

  4
"
  5

  6

  7

 40
1.0
 41
2.5
 42
1.0
 43
10.0
 44
1.0
 45
0.0
 46
0.0
 47
0.1
 48
0.1
140
3.5
141
0.0
142
0.0
143
0.0393701
144
1.0
145
0.0
146
0.71
147
1.5
 71
     0
 72
     0
 73
     0
 74
     0
 75
     1
 76
     1
 77
     1
 78
     8
170
     0
171
     2
172
     1
173
     0
174
     0
175
     0
176
   256
177
   256
178
     4
  0
DIMSTYLE
  2
AM_ISO$SH
 70
     0
  3

  4
"
  5

  6

  7

 40
1.0
 41
2.5
 42
1.0
 43
10.0
 44
1.0
 45
0.0
 46
0.0
 47
0.1
 48
0.1
140
3.5
141
0.0
142
0.0
143
0.0393701
144
2.0
145
0.0
146
0.71
147
1.5
 71
     0
 72
     0
 73
     0
 74
     0
 75
     1
 76
     1
 77
     1
 78
     8
170
     0
171
     2
172
     1
173
     1
174
     0
175
     0
176
   256
177
   256
178
     4
  0
DIMSTYLE
  2
AM_JIS$0
 70
     0
  3

  4
"
  5

  6

  7

 40
1.0
 41
2.5
 42
1.0
 43
7.0
 44
1.0
 45
0.0
 46
0.0
 47
0.1
 48
0.1000000001
140
2.5
141
0.0
142
0.0
143
0.0393701
144
1.0
145
0.0
146
0.71
147
1.0
 71
     0
 72
     0
 73
     0
 74
     0
 75
     0
 76
     0
 77
     3
 78
     8
170
     0
171
     2
172
     1
173
     0
174
     0
175
     0
176
   256
177
   256
178
     4
  0
DIMSTYLE
  2
AM_ANSI
 70
     0
  3

  4
mm
  5

  6

  7

 40
1.0
 41
0.12
 42
0.05
 43
0.5
 44
0.1
 45
0.0
 46
0.0
 47
0.1
 48
0.1
140
0.12
141
0.0
142
0.0
143
25.399999999999999
144
1.0
145
0.0
146
0.71
147
0.06
 71
     0
 72
     0
 73
     1
 74
     1
 75
     0
 76
     0
 77
     0
 78
     7
170
     0
171
     2
172
     0
173
     0
174
     0
175
     0
176
   256
177
   256
178
     2
  0
DIMSTYLE
  2
AM_ANSI$3
 70
     0
  3

  4
mm
  5

  6

  7

 40
1.0
 41
0.12
 42
0.05
 43
0.5
 44
0.1
 45
0.0
 46
0.0
 47
0.1
 48
0.1
140
0.12
141
0.0
142
0.0
143
25.399999999999999
144
1.0
145
0.0
146
0.71
147
0.06
 71
     0
 72
     0
 73
     1
 74
     1
 75
     0
 76
     0
 77
     0
 78
     7
170
     0
171
     2
172
     0
173
     0
174
     0
175
     0
176
   256
177
   256
178
     2
  0
DIMSTYLE
  2
AM_ANSI$4
 70
     0
  3

  4
mm
  5

  6

  7

 40
1.0
 41
0.12
 42
0.05
 43
0.5
 44
0.1
 45
0.0
 46
0.0
 47
0.1
 48
0.1
140
0.12
141
0.0
142
0.0
143
25.399999999999999
144
1.0
145
0.0
146
0.71
147
0.06
 71
     0
 72
     0
 73
     1
 74
     1
 75
     0
 76
     0
 77
     0
 78
     7
170
     0
171
     2
172
     0
173
     0
174
     0
175
     0
176
   256
177
   256
178
     2
  0
DIMSTYLE
  2
AM_ANSI$7
 70
     0
  3

  4
mm
  5

  6

  7

 40
1.0
 41
0.12
 42
0.05
 43
0.5
 44
0.1
 45
0.0
 46
0.0
 47
0.1
 48
0.1
140
0.12
141
0.0
142
0.0
143
25.399999999999999
144
1.0
145
0.0
146
0.71
147
0.06
 71
     0
 72
     0
 73
     1
 74
     1
 75
     0
 76
     0
 77
     0
 78
     7
170
     0
171
     2
172
     0
173
     0
174
     0
175
     0
176
   256
177
   256
178
     2
  0
DIMSTYLE
  2
AM_ANSI$SF
 70
     0
  3

  4
mm
  5

  6

  7

 40
1.0
 41
0.12
 42
0.05
 43
0.5
 44
0.1
 45
0.0
 46
0.0
 47
0.1
 48
0.1
140
0.12
141
0.0
142
0.0
143
25.399999999999999
144
1.0
145
0.0
146
0.71
147
0.06
 71
     0
 72
     0
 73
     1
 74
     1
 75
     1
 76
     1
 77
     0
 78
     7
170
     0
171
     2
172
     0
173
     0
174
     0
175
     0
176
   256
177
   256
178
     2
  0
DIMSTYLE
  2
AM_ANSI$SH
 70
     0
  3

  4
mm
  5

  6
GENAXEH
  7

 40
1.0
 41
0.12
 42
0.05
 43
0.5
 44
0.1
 45
0.0
 46
0.0
 47
0.1
 48
0.1
140
0.12
141
0.0
142
0.0
143
25.399999999999999
144
1.0
145
0.0
146
0.71
147
0.06
 71
     0
 72
     0
 73
     1
 74
     1
 75
     1
 76
     1
 77
     0
 78
     7
170
     0
171
     2
172
     0
173
     1
174
     0
175
     0
176
   256
177
   256
178
     2
  0
ENDTAB
  0
ENDSEC
  0
SECTION
  2
BLOCKS
  0
BLOCK
  8
0
  2
$MODEL_SPACE
 70
     0
 10
0.0
 20
0.0
 30
0.0
  3
$MODEL_SPACE
  1

  0
ENDBLK
  5
1A9ED
  8
0
  0
BLOCK
 67
     1
  8
0
  2
$PAPER_SPACE
 70
     0
 10
0.0
 20
0.0
 30
0.0
  3
$PAPER_SPACE
  1

  0
ENDBLK
  5
1A9E9
 67
     1
  8
0
  0
BLOCK
  8
0
  2
_OPEN30
 70
     0
 10
0.0
 20
0.0
 30
0.0
  3
_OPEN30
  1

  0
LINE
  5
21C5
  8
0
 62
     0
 10
-1.0
 20
0.26794919
 30
0.0
 11
0.0
 21
0.0
 31
0.0
  0
LINE
  5
21C6
  8
0
 62
     0
 10
0.0
 20
0.0
 30
0.0
 11
-1.0
 21
-0.26794919
 31
0.0
  0
LINE
  5
21C7
  8
0
 62
     0
 10
0.0
 20
0.0
 30
0.0
 11
-1.0
 21
0.0
 31
0.0
  0
ENDBLK
  5
21C9
  8
0
  0
BLOCK
  8
0
  2
GENAXEH
 70
     0
 10
0.0
 20
0.0
 30
0.0
  3
GENAXEH
  1

  0
LINE
  5
21D0
  8
0
 10
-1.0
 20
0.0
 30
0.0
 11
1.0
 21
0.0
 31
0.0
  0
ENDBLK
  5
21D2
  8
0
  0
BLOCK
  8
0
  2
_NONE
 70
     0
 10
0.0
 20
0.0
 30
0.0
  3
_NONE
  1

  0
ENDBLK
  5
8193
  8
0
  0
BLOCK
  8
0
  2
_ACMFILLEDHALF
 70
     0
 10
0.0
 20
0.0
 30
0.0
  3
_ACMFILLEDHALF
  1

  0
TRACE
  5
1AAF7
  8
AM_0
 62
     0
 10
-0.8
 20
0.0
 30
0.0
 11
-1.0
 21
0.166666666
 31
0.0
 12
0.0
 22
0.0
 32
0.0
 13
0.0
 23
0.0
 33
0.0
  0
LINE
  5
1AAF8
  8
AM_0
 62
     0
 10
-1.0
 20
0.0
 30
0.0
 11
-0.8
 21
0.0
 31
0.0
  0
ENDBLK
  5
1AAF6
  8
0
  0
ENDSEC
  0
SECTION
  2
ENTITIES
  0
POINT
  5
1B94
  8
0
 10
0.0
 20
0.0
 30
0.0
1001
GENIUS_GENODEF_13
1002
{
1000
HIER
1070
     1
1002
}
1002
{
1000
MANEDIT
1070
     0
1002
}
1002
{
1000
NOSEL
1070
     0
1002
}
1002
{
1000
BEHIND
1070
     0
1002
}
1002
{
1000
REACTOR
1002
}
1001
GENIUS_GENOBJ-N-SDF_13
1002
{
1000
OWNER
1000
GEN
1002
}
1001
GENIUS_GENOENT_13
1002
{
1000
MYREF
1005
1B94
1002
}
1002
{
1000
GRP
1005
0
1002
}
1001
GENIUS_GENOLIS_13
1002
{
1000
ENT
1005
89
1002
}
  0
ARC
  5
18E0A
  8
0
 10
570.36665924064005
 20
364.62265412234342
 30
0.0
 40
5.0
 50
69.332681879990645
 51
180.0
1001
GENIUS_GENOBJ-N-FIL_13
1002
{
1000
OWNER
1000
GEN
1002
}
1001
GENIUS_GENODEF_13
1002
{
1000
HIER
1070
     0
1002
}
1002
{
1000
MANEDIT
1070
     0
1002
}
1002
{
1000
NOSEL
1070
     0
1002
}
1002
{
1000
BEHIND
1070
     0
1002
}
1002
{
1000
OTHER
1070
     0
1002
}
1002
{
1000
REACTOR
1002
}
  0
ARC
  5
18E0B
  8
0
 10
575.36665924064016
 20
379.52862571595261
 30
0.0
 40
10.0
 50
90.0
 51
180.0
1001
GENIUS_GENODEF_13
1002
{
1000
HIER
1070
     0
1002
}
1002
{
1000
MANEDIT
1070
     0
1002
}
1002
{
1000
NOSEL
1070
     0
1002
}
1002
{
1000
BEHIND
1070
     0
1002
}
1002
{
1000
OTHER
1070
     0
1002
}
1002
{
1000
REACTOR
1002
}
1001
GENIUS_GENOBJ-N-FIL_13
1002
{
1000
OWNER
1000
GEN
1002
}
  0
LINE
  5
18E0C
  8
0
 10
574.1545637579037
 20
403.29160463551108
 30
0.0
 11
566.25606125620891
 21
384.86173385644071
 31
0.0
  0
LINE
  5
18E0D
  8
0
 10
575.74116296763759
 20
422.22524408881418
 30
0.0
 11
560.74118960842361
 21
387.22524622333339
 31
0.0
  0
ARC
  5
18E0E
  8
0
 10
568.36665924064005
 20
340.52862571595318
 30
0.0
 40
3.0000000000000631
 50
270.0
 51
89.99999999999838
  0
ARC
  5
18E0F
  8
0
 10
568.36889849274814
 20
290.52862655166138
 30
0.0
 40
3.0000000000000631
 50
270.0
 51
89.99999999999838
  0
ARC
  5
18E10
  8
0
 10
570.36665924064005
 20
266.43459730956272
 30
0.0
 40
5.0
 50
180.0
 51
290.66731812000938
1001
GENIUS_GENOBJ-N-FIL_13
1002
{
1000
OWNER
1000
GEN
1002
}
1001
GENIUS_GENODEF_13
1002
{
1000
HIER
1070
     0
1002
}
1002
{
1000
MANEDIT
1070
     0
1002
}
1002
{
1000
NOSEL
1070
     0
1002
}
1002
{
1000
BEHIND
1070
     0
1002
}
1002
{
1000
OTHER
1070
     0
1002
}
1002
{
1000
REACTOR
1002
}
  0
LINE
  5
18E11
  8
0
 10
575.74116296763759
 20
208.83200734309199
 30
0.0
 11
560.74118960842361
 21
243.83200520857301
 31
0.0
  0
LINE
  5
18E13
  8
0
 10
574.1545637579037
 20
227.76564679639449
 30
0.0
 11
566.25606125620868
 21
246.19551757546529
 31
0.0
  0
ARC
  5
18E14
  8
0
 10
575.36665924064016
 20
251.5286257159531
 30
0.0
 40
10.0
 50
180.0
 51
270.0
1001
GENIUS_GENOBJ-N-FIL_13
1002
{
1000
OWNER
1000
GEN
1002
}
1001
GENIUS_GENODEF_13
1002
{
1000
HIER
1070
     0
1002
}
1002
{
1000
MANEDIT
1070
     0
1002
}
1002
{
1000
NOSEL
1070
     0
1002
}
1002
{
1000
BEHIND
1070
     0
1002
}
1002
{
1000
OTHER
1070
     0
1002
}
1002
{
1000
REACTOR
1002
}
  0
LINE
  5
18E20
  8
ﾁｭｳｼﾝｾﾝ1
 10
769.56518231630582
 20
315.5286257159529
 30
0.0
 11
554.36665924064027
 21
315.5286257159529
 31
0.0
  0
LINE
  5
18E3D
  8
0
 10
214.62410662576369
 20
368.52862767260359
 30
0.0
 11
214.62410662576369
 21
392.5286276726037
 31
0.0
  0
LINE
  5
18E3F
  8
ﾁｭｳｼﾝｾﾝ1
 10
276.12410840180041
 20
226.48685712855931
 30
0.0
 11
276.12410840180041
 21
404.57039430334572
 31
0.0
  0
LINE
  5
18E41
  8
AM_0
 10
217.12410662576369
 20
237.2741372763266
 30
0.0
 11
217.12410662576369
 21
393.7831141555788
 31
0.0
  0
LINE
  5
18E43
  8
AM_0
 10
310.12410963599621
 20
235.650809281888
 30
0.0
 11
310.12410963599621
 21
395.40644215001731
 31
0.0
  0
LINE
  5
18E44
  8
AM_0
 10
376.12410840180041
 20
198.52862571595281
 30
0.0
 11
376.12410840180041
 21
432.5286257159525
 31
0.0
  0
LINE
  5
18E46
  8
AM_0
 10
559.36665924064005
 20
380.52862767260439
 30
0.0
 11
559.36665924064005
 21
250.52862375930241
 31
0.0
  0
LINE
  5
18E47
  8
AM_0
 10
565.36665924064005
 20
380.52862767260439
 30
0.0
 11
565.36665924064005
 21
250.52862375930241
 31
0.0
  0
LINE
  5
18E48
  8
AM_0
 10
253.12410840134041
 20
236.52898999434271
 30
0.0
 11
258.31410840144389
 21
233.52898999428271
 31
0.0
  0
LINE
  5
18E49
  8
ﾁｭｳｼﾝｾﾝ1
 10
207.62027214713439
 20
333.52898999628269
 30
0.0
 11
344.62794465646641
 21
333.52898999628258
 31
0.0
  0
LINE
  5
18E4B
  8
AM_0
 10
217.12410662576369
 20
237.2741372763266
 30
0.0
 11
317.12410963599598
 21
235.52862330776691
 31
0.0
  0
LINE
  5
18E4D
  8
ﾁｭｳｼﾝｾﾝ1
 10
381.1241084018003
 20
315.52862571595278
 30
0.0
 11
201.5530096567677
 21
315.5286257159525
 31
0.0
  0
LINE
  5
18E55
  8
0
 10
214.62410662576369
 20
262.52862375930169
 30
0.0
 11
214.62410662576369
 21
238.52862375930169
 31
0.0
  0
LINE
  5
18E56
  8
0
 10
202.62410662576369
 20
259.52862375930169
 30
0.0
 11
202.62410662576369
 21
241.52862375930169
 31
0.0
  0
LINE
  5
18E57
  8
0
 10
202.62410662576369
 20
241.52862375930169
 30
0.0
 11
214.62410662576369
 21
241.52862375930169
 31
0.0
  0
LINE
  5
18E58
  8
0
 10
214.62410662576369
 20
238.52862375930169
 30
0.0
 11
217.12410662576369
 21
238.52862375930169
 31
0.0
  0
LINE
  5
18E5B
  8
AM_0
 10
207.12410632474101
 20
340.52862646851088
 30
0.0
 11
207.12410632474101
 21
290.5286249633948
 31
0.0
  0
LINE
  5
18E5C
  8
AM_0
 10
212.12410647525189
 20
365.52862692304541
 30
0.0
 11
212.12410647525141
 21
265.52862450885982
 31
0.0
  0
LINE
  5
18E5D
  8
0
 10
212.12410647525141
 20
265.52862450885982
 30
0.0
 11
217.12410662576369
 21
265.52862450885982
 31
0.0
  0
LINE
  5
18E5E
  8
0
 10
214.62410662576369
 20
259.52862375930169
 30
0.0
 11
202.62410662576369
 21
259.52862375930169
 31
0.0
  0
LINE
  5
18E5F
  8
AM_0
 10
212.1241064752524
 20
290.5286249633948
 30
0.0
 11
207.12410632474101
 21
290.5286249633948
 31
0.0
  0
LINE
  5
18E60
  8
0
 10
217.12410662576369
 20
262.52862375930169
 30
0.0
 11
214.62410662576369
 21
262.52862375930169
 31
0.0
  0
LINE
  5
18E61
  8
0
 10
212.12410647525189
 20
365.52862692304541
 30
0.0
 11
217.12410662576369
 21
365.52862692304541
 31
0.0
  0
LINE
  5
18E62
  8
AM_0
 10
212.1241064752524
 20
340.52862646851088
 30
0.0
 11
207.12410632474101
 21
340.52862646851088
 31
0.0
  0
ARC
  5
18E63
  8
AM_0
 10
211.9048444907952
 20
348.52875999628259
 30
0.0
 40
1.0003311999999971
 50
90.785589999996475
 51
268.0685399999997
  0
LINE
  5
18E64
  8
AM_0
 10
212.12410647525141
 20
347.52026617235219
 30
0.0
 11
211.87111449079501
 21
347.52898999628269
 31
0.0
  0
LINE
  5
18E65
  8
AM_0
 10
212.12410647525141
 20
349.53789810201653
 30
0.0
 11
211.87111449079501
 21
349.5289899962828
 31
0.0
  0
LINE
  5
18E66
  8
AM_0
 10
217.12410662576369
 20
367.46094253363202
 30
0.0
 11
215.2711244907953
 21
367.52898999628258
 31
0.0
  0
LINE
  5
18E67
  8
AM_0
 10
214.6311244907954
 20
367.78899999628271
 30
0.0
 11
214.6311244907954
 21
365.52862692304541
 31
0.0
  0
ARC
  5
18E68
  8
AM_0
 10
215.3168444907954
 20
368.52846999628269
 30
0.0
 40
1.0005305999999969
 50
133.81804811085581
 51
267.38127000000162
  0
LINE
  5
18E69
  8
0
 10
217.12410662576369
 20
368.52862767260359
 30
0.0
 11
214.62410662576369
 21
368.52862767260359
 31
0.0
  0
LINE
  5
18E75
  8
AM_0
 10
317.12410963599598
 20
235.52862330776691
 30
0.0
 11
348.17646773713039
 21
234.98658046847621
 31
0.0
  0
LINE
  5
18E77
  8
AM_0
 10
293.92409840215618
 20
233.52898999428271
 30
0.0
 11
258.31410840144389
 21
233.52898999428271
 31
0.0
  0
LINE
  5
18E78
  8
AM_0
 10
297.76468658252361
 20
235.74472445495999
 30
0.0
 11
293.92409840215618
 21
233.52898999428271
 31
0.0
  0
LINE
  5
18E7C
  8
AM_0
 10
351.12410840180041
 20
201.33302250286059
 30
0.0
 11
351.12410840180041
 21
231.98703741994279
 31
0.0
  0
LINE
  5
18E7D
  8
AM_0
 10
376.12410840180041
 20
198.52862571595281
 30
0.0
 11
353.05430940839523
 21
199.33424084882239
 31
0.0
  0
LINE
  5
18E7F
  8
ﾁｭｳｼﾝｾﾝ1
 10
348.11731905207512
 20
215.5286257159519
 30
0.0
 11
379.75831230684321
 21
215.52862571595199
 31
0.0
  0
ARC
  5
18E81
  8
0
 10
353.12410840180041
 20
201.33302250286059
 30
0.0
 40
1.999999999999998
 50
180.0
 51
267.99999999999642
1001
GENIUS_GENOBJ-N-FIL_13
1002
{
1000
OWNER
1000
GEN
1002
}
1001
GENIUS_GENODEF_13
1002
{
1000
HIER
1070
     0
1002
}
1002
{
1000
MANEDIT
1070
     0
1002
}
1002
{
1000
NOSEL
1070
     0
1002
}
1002
{
1000
BEHIND
1070
     0
1002
}
1002
{
1000
OTHER
1070
     0
1002
}
1002
{
1000
REACTOR
1002
}
  0
ARC
  5
18E88
  8
AM_0
 10
348.1241084018003
 20
231.98703741994279
 30
0.0
 40
2.9999999999999969
 50
0.0
 51
88.999959580877544
1001
GENIUS_GENOBJ-N-FIL_13
1002
{
1000
OWNER
1000
GEN
1002
}
1001
GENIUS_GENODEF_13
1002
{
1000
HIER
1070
     0
1002
}
1002
{
1000
MANEDIT
1070
     0
1002
}
1002
{
1000
NOSEL
1070
     0
1002
}
1002
{
1000
BEHIND
1070
     0
1002
}
1002
{
1000
OTHER
1070
     0
1002
}
1002
{
1000
REACTOR
1002
}
  0
ARC
  5
18E9E
  8
AM_0
 10
576.36665969217472
 20
250.5286237593026
 30
0.0
 40
11.000000451534831
 50
180.0
 51
203.19855493455009
  0
ARC
  5
18E9F
  8
AM_0
 10
576.36665969217472
 20
250.5286237593026
 30
0.0
 40
17.000000451534831
 50
180.0
 51
203.19855493455009
  0
ARC
  5
18EA1
  8
0
 10
568.36665924064005
 20
296.52862571595318
 30
0.0
 40
3.0
 50
180.0
 51
270.0
1001
GENIUS_GENODEF_13
1002
{
1000
HIER
1070
     0
1002
}
1002
{
1000
MANEDIT
1070
     0
1002
}
1002
{
1000
NOSEL
1070
     0
1002
}
1002
{
1000
BEHIND
1070
     0
1002
}
1002
{
1000
OTHER
1070
     0
1002
}
1002
{
1000
REACTOR
1002
}
1001
GENIUS_GENOBJ-N-FIL_13
1002
{
1000
OWNER
1000
GEN
1002
}
  0
ARC
  5
18EA2
  8
0
 10
568.36665924064005
 20
284.52862571595318
 30
0.0
 40
3.0
 50
90.0
 51
180.0
1001
GENIUS_GENODEF_13
1002
{
1000
HIER
1070
     0
1002
}
1002
{
1000
MANEDIT
1070
     0
1002
}
1002
{
1000
NOSEL
1070
     0
1002
}
1002
{
1000
BEHIND
1070
     0
1002
}
1002
{
1000
OTHER
1070
     0
1002
}
1002
{
1000
REACTOR
1002
}
1001
GENIUS_GENOBJ-N-FIL_13
1002
{
1000
OWNER
1000
GEN
1002
}
  0
ARC
  5
18EA4
  8
0
 10
568.36665924064005
 20
334.52862571595318
 30
0.0
 40
3.0
 50
90.0
 51
180.0
1001
GENIUS_GENODEF_13
1002
{
1000
HIER
1070
     0
1002
}
1002
{
1000
MANEDIT
1070
     0
1002
}
1002
{
1000
NOSEL
1070
     0
1002
}
1002
{
1000
BEHIND
1070
     0
1002
}
1002
{
1000
OTHER
1070
     0
1002
}
1002
{
1000
REACTOR
1002
}
1001
GENIUS_GENOBJ-N-FIL_13
1002
{
1000
OWNER
1000
GEN
1002
}
  0
ARC
  5
18EA5
  8
0
 10
568.36665924064005
 20
346.5286257159533
 30
0.0
 40
3.0
 50
180.0
 51
270.0
1001
GENIUS_GENODEF_13
1002
{
1000
HIER
1070
     0
1002
}
1002
{
1000
MANEDIT
1070
     0
1002
}
1002
{
1000
NOSEL
1070
     0
1002
}
1002
{
1000
BEHIND
1070
     0
1002
}
1002
{
1000
OTHER
1070
     0
1002
}
1002
{
1000
REACTOR
1002
}
1001
GENIUS_GENOBJ-N-FIL_13
1002
{
1000
OWNER
1000
GEN
1002
}
  0
LINE
  5
18EA7
  8
AM_0
 10
217.12410662576369
 20
393.7831141555788
 30
0.0
 11
317.12410963599598
 21
395.52862812413832
 31
0.0
  0
LINE
  5
18EA9
  8
0
 10
202.62410662576369
 20
389.5286276726037
 30
0.0
 11
214.62410662576369
 21
389.5286276726037
 31
0.0
  0
LINE
  5
18EAA
  8
0
 10
214.62410662576369
 20
371.5286276726037
 30
0.0
 11
202.62410662576369
 21
371.5286276726037
 31
0.0
  0
LINE
  5
18EAB
  8
0
 10
202.62410662576369
 20
371.5286276726037
 30
0.0
 11
202.62410662576369
 21
389.5286276726037
 31
0.0
  0
LINE
  5
18EAC
  8
0
 10
214.62410662576369
 20
392.5286276726037
 30
0.0
 11
217.12410662576369
 21
392.5286276726037
 31
0.0
  0
ARC
  5
18EAD
  8
AM_0
 10
241.1242894018003
 20
394.36191599628302
 30
0.0
 40
1.0001850000000001
 50
1.551130999995167
 51
180.16761299999791
  0
LINE
  5
18EAE
  8
AM_0
 10
240.11645202264589
 20
394.21583800912367
 30
0.0
 11
240.1241086815678
 21
394.35899006053842
 31
0.0
  0
LINE
  5
18EAF
  8
AM_0
 10
242.1288996018354
 20
394.2535756520877
 30
0.0
 11
242.12410840180041
 21
394.38898999628282
 31
0.0
  0
LINE
  5
18EB0
  8
AM_0
 10
252.19333079887181
 20
394.44230499593618
 30
0.0
 11
252.1241084013202
 21
396.44898699754123
 31
0.0
  0
LINE
  5
18EB1
  8
AM_0
 10
250.0514096998597
 20
394.40213945099123
 30
0.0
 11
250.12407840128
 21
396.44899499754121
 31
0.0
  0
ARC
  5
18EB2
  8
AM_0
 10
251.12434840130001
 20
396.41277799754027
 30
0.0
 40
1.000393500020007
 50
2.074439999994933
 51
179.0714379999965
  0
LINE
  5
18EBA
  8
AM_0
 10
317.12410963599598
 20
395.52862812413832
 30
0.0
 11
348.17646265319092
 21
396.07061822787449
 31
0.0
  0
ARC
  5
18EBB
  8
AM_0
 10
301.12383840230018
 20
396.41243899754079
 30
0.0
 40
1.0004025000200061
 50
0.9479099999998869
 51
177.90620799999991
  0
ARC
  5
18EBC
  8
AM_0
 10
281.1235284019001
 20
398.4405679975809
 30
0.0
 40
1.000603800020011
 50
0.4821899999981778
 51
177.2262829999969
  0
ARC
  5
18EBD
  8
AM_0
 10
271.12465840170012
 20
398.441246997581
 30
0.0
 40
1.000584800020009
 50
2.7350399999978929
 51
179.5564910000007
  0
ARC
  5
18EBE
  8
AM_0
 10
276.12410840180041
 20
333.52898999628269
 30
0.0
 40
63.503836254666012
 50
76.113685254996753
 51
106.0348967062143
  0
LINE
  5
18EBF
  8
AM_0
 10
260.02370890729679
 20
394.95792743766151
 30
0.0
 11
260.12410840148038
 21
397.8089959975685
 31
0.0
  0
ARC
  5
18EC0
  8
AM_0
 10
261.12450840150018
 20
397.76829999756768
 30
0.0
 40
1.000414000020007
 50
2.331049999997969
 51
179.96048300000021
  0
LINE
  5
18EC1
  8
AM_0
 10
262.20411795945103
 20
395.4884209583592
 30
0.0
 11
262.12407840152008
 21
397.80899199756851
 31
0.0
  0
LINE
  5
18EC2
  8
AM_0
 10
270.06390196896177
 20
396.7430004453185
 30
0.0
 11
270.12410840168042
 21
398.48898799758223
 31
0.0
  0
LINE
  5
18EC3
  8
AM_0
 10
272.1640822112397
 20
396.90923464419723
 30
0.0
 11
272.12410840171992
 21
398.4889919975821
 31
0.0
  0
ARC
  5
18EC4
  8
AM_0
 10
291.12367840209998
 20
397.76762499756768
 30
0.0
 40
1.0004282000200071
 50
0.0782200000044953
 51
177.6302479999965
  0
LINE
  5
18EC5
  8
AM_0
 10
290.04409885142542
 20
395.48842095672478
 30
0.0
 11
290.12410840208008
 21
397.80899199756851
 31
0.0
  0
LINE
  5
18EC6
  8
AM_0
 10
280.06416495386628
 20
396.91047919798848
 30
0.0
 11
280.12410840187999
 21
398.48898799758223
 31
0.0
  0
LINE
  5
18EC7
  8
AM_0
 10
282.18431493878711
 20
396.74300043533412
 30
0.0
 11
282.12410840192001
 21
398.48898799758223
 31
0.0
  0
LINE
  5
18EC8
  8
AM_0
 10
300.0804715882976
 20
395.34029003682298
 30
0.0
 11
300.12407840228002
 21
396.44899499754121
 31
0.0
  0
LINE
  5
18EC9
  8
AM_0
 10
292.2162363809814
 20
395.1928190152131
 30
0.0
 11
292.12410840212021
 21
397.80899199756851
 31
0.0
  0
LINE
  5
18ECA
  8
AM_0
 10
302.15796672449972
 20
395.37924745887972
 30
0.0
 11
302.12410840232019
 21
396.44899099754122
 31
0.0
  0
LINE
  5
18ECD
  8
AM_0
 10
351.12410840180041
 20
399.0701613651475
 30
0.0
 11
351.12410840180041
 21
429.72422892904478
 31
0.0
  0
ARC
  5
18ECF
  8
AM_0
 10
348.1241084018003
 20
399.0701613651475
 30
0.0
 40
2.9999999999999969
 50
270.9999433082416
 51
0.0
1001
GENIUS_GENOBJ-N-FIL_13
1002
{
1000
OWNER
1000
GEN
1002
}
1001
GENIUS_GENODEF_13
1002
{
1000
HIER
1070
     0
1002
}
1002
{
1000
MANEDIT
1070
     0
1002
}
1002
{
1000
NOSEL
1070
     0
1002
}
1002
{
1000
BEHIND
1070
     0
1002
}
1002
{
1000
OTHER
1070
     0
1002
}
1002
{
1000
REACTOR
1002
}
  0
LINE
  5
18EDC
  8
ﾁｭｳｼﾝｾﾝ1
 10
348.11731905207512
 20
415.5286257159525
 30
0.0
 11
379.75831230684321
 21
415.5286257159525
 31
0.0
  0
LINE
  5
18EDF
  8
AM_0
 10
376.12410840180041
 20
432.5286257159525
 30
0.0
 11
353.05430940839523
 21
431.72301058308312
 31
0.0
  0
ARC
  5
18EE0
  8
0
 10
353.12410840180041
 20
429.72422892904478
 30
0.0
 40
1.999999999999998
 50
92.000000000003624
 51
180.0
1001
GENIUS_GENODEF_13
1002
{
1000
HIER
1070
     0
1002
}
1002
{
1000
MANEDIT
1070
     0
1002
}
1002
{
1000
NOSEL
1070
     0
1002
}
1002
{
1000
BEHIND
1070
     0
1002
}
1002
{
1000
OTHER
1070
     0
1002
}
1002
{
1000
REACTOR
1002
}
1001
GENIUS_GENOBJ-N-FIL_13
1002
{
1000
OWNER
1000
GEN
1002
}
  0
ARC
  5
18EE1
  8
AM_0
 10
576.36665969217472
 20
380.52862767260399
 30
0.0
 40
11.000000451534831
 50
156.80144506544991
 51
180.0
  0
ARC
  5
18EE2
  8
AM_0
 10
576.36665969217472
 20
380.52862767260399
 30
0.0
 40
17.000000451534831
 50
156.80144506544991
 51
180.0
  0
ARC
  5
18EE3
  8
AM_0
 10
941.68661486114308
 20
368.56893474879541
 30
0.0
 40
1.6800002000336001
 50
270.00000299999761
 51
89.999999999999986
  0
ARC
  5
18EE4
  8
AM_0
 10
939.18304486109298
 20
375.1205347489265
 30
0.0
 40
4.9987221000999753
 50
185.4135635000037
 51
260.59994100000478
  0
ARC
  5
18EE5
  8
AM_0
 10
804.55273485840053
 20
368.57894474879578
 30
0.0
 40
1.680011000033599
 50
90.208029999998075
 51
269.79196900000039
  0
LINE
  5
18EE6
  8
AM_0
 10
948.36663486127702
 20
390.94893474924311
 30
0.0
 11
948.36663486127702
 21
276.0989347469461
 31
0.0
  0
LINE
  5
18EE7
  8
AM_0
 10
802.36663485835675
 20
273.02895474688461
 30
0.0
 11
802.36663511460438
 21
396.52895504966239
 31
0.0
  0
LINE
  5
18EE8
  8
AM_0
 10
954.36663486139673
 20
381.54854474905511
 30
0.0
 11
954.36663486139673
 21
338.52895474819462
 31
0.0
  0
ARC
  5
18EEA
  8
0
 10
751.36663444250235
 20
380.52862767260359
 30
0.0
 40
12.0
 50
166.39104615428531
 51
290.66731812000938
  0
ARC
  5
18EEB
  8
0
 10
757.36663489403702
 20
364.62265412234342
 30
0.0
 40
5.0
 50
0.0
 51
110.6673181200093
1001
GENIUS_GENODEF_13
1002
{
1000
HIER
1070
     0
1002
}
1002
{
1000
MANEDIT
1070
     0
1002
}
1002
{
1000
NOSEL
1070
     0
1002
}
1002
{
1000
BEHIND
1070
     0
1002
}
1002
{
1000
OTHER
1070
     0
1002
}
1002
{
1000
REACTOR
1002
}
1001
GENIUS_GENOBJ-N-FIL_13
1002
{
1000
OWNER
1000
GEN
1002
}
  0
LINE
  5
18EED
  8
ﾁｭｳｼﾝｾﾝ1
 10
636.36666149831433
 20
437.5286257159525
 30
0.0
 11
636.36666149831433
 21
193.5286257159531
 31
0.0
  0
LINE
  5
18EEE
  8
AM_0
 10
782.36663485795668
 20
272.02899625153498
 30
0.0
 11
782.36663485795668
 21
395.02897625399521
 31
0.0
  0
LINE
  5
18EEF
  8
AM_0
 10
793.36663485817701
 20
269.5289899962828
 30
0.0
 11
793.36663485817701
 21
397.52897999628271
 31
0.0
  0
LINE
  5
18EF0
  8
AM_0
 10
768.36663489403713
 20
380.52862767260439
 30
0.0
 11
768.36663489403702
 21
250.52862375930241
 31
0.0
  0
LINE
  5
18EF1
  8
AM_0
 10
762.36663489403713
 20
380.52862767260439
 30
0.0
 11
762.36663489403691
 21
250.52862375930241
 31
0.0
  0
ARC
  5
18EF2
  8
0
 10
576.36665969217472
 20
380.52862767260359
 30
0.0
 40
12.0
 50
249.33268187999059
 51
13.6089538457147
  0
ARC
  5
18EF4
  8
AM_0
 10
924.36663486079703
 20
368.5289547487946
 30
0.0
 40
1.0000007000199991
 50
270.00000299999761
 51
89.999999999999986
  0
ARC
  5
18EF5
  8
AM_0
 10
924.36663486079703
 20
358.52895474859457
 30
0.0
 40
1.0000007000199991
 50
270.00000299999761
 51
89.999999999999986
  0
LINE
  5
18EF6
  8
AM_0
 10
940.80662238022524
 20
367.52895478986079
 30
0.0
 11
868.36663485967665
 21
367.52895478986079
 31
0.0
  0
LINE
  5
18EF7
  8
AM_0
 10
941.6966248611435
 20
366.89895474876232
 30
0.0
 11
868.36663485967665
 21
366.89895474876232
 31
0.0
  0
LINE
  5
18EF8
  8
AM_0
 10
868.36663485967665
 20
369.52895474881478
 30
0.0
 11
940.81661486112557
 21
369.52895474881478
 31
0.0
  0
LINE
  5
18EF9
  8
AM_0
 10
839.86663485910685
 20
359.52895474861458
 30
0.0
 11
940.81661486112557
 21
359.52895474861458
 31
0.0
  0
LINE
  5
18EFA
  8
AM_0
 10
941.90661486114743
 20
360.01894474862428
 30
0.0
 11
839.00646638727756
 21
360.01894474862428
 31
0.0
  0
LINE
  5
18EFB
  8
AM_0
 10
805.44184877189309
 20
357.52895474857479
 30
0.0
 11
940.81661486112557
 21
357.52895474857479
 31
0.0
  0
LINE
  5
18EFC
  8
AM_0
 10
941.90661486114743
 20
357.09893474856602
 30
0.0
 11
804.52187870984392
 21
357.09893474856602
 31
0.0
  0
ARC
  5
18EFD
  8
AM_0
 10
924.36663486079703
 20
348.5289547483946
 30
0.0
 40
1.0000007000199991
 50
270.00000299999761
 51
89.999999999999986
  0
ARC
  5
18EFE
  8
AM_0
 10
924.36663486079703
 20
338.52895474819462
 30
0.0
 40
1.0000007000199991
 50
270.00000299999761
 51
89.999999999999986
  0
ARC
  5
18EFF
  8
AM_0
 10
924.36663486079703
 20
328.5289547479947
 30
0.0
 40
1.0000032000200001
 50
270.00000299999761
 51
89.999999999999986
  0
ARC
  5
18F00
  8
AM_0
 10
924.36663486079703
 20
318.52895474779461
 30
0.0
 40
1.0000032000200001
 50
270.00000299999761
 51
89.999999999999986
  0
ARC
  5
18F01
  8
AM_0
 10
924.36663486079681
 20
298.52895474739461
 30
0.0
 40
1.0000032000200001
 50
270.00000299999761
 51
89.999999999999986
  0
ARC
  5
18F02
  8
AM_0
 10
924.36663486079703
 20
308.52895474759458
 30
0.0
 40
1.0000032000200001
 50
270.00000299999761
 51
89.999999999999986
  0
ARC
  5
18F03
  8
AM_0
 10
923.37023486077669
 20
273.66533474689732
 30
0.0
 40
1.9963853000399261
 50
269.8961630000066
 51
0.1038400000026171
  0
ARC
  5
18F04
  8
AM_0
 10
923.36413486077674
 20
269.60378474681607
 30
0.0
 40
1.994845200039896
 50
270.07165800000439
 51
345.63719999999978
  0
ARC
  5
18F05
  8
AM_0
 10
923.37206486077685
 20
270.28350474682981
 30
0.0
 40
1.9945769000398901
 50
269.84400800000009
 51
0.1559899999962555
  0
ARC
  5
18F06
  8
AM_0
 10
923.36941486077671
 20
271.63616474685682
 30
0.0
 40
1.997208400039943
 50
269.91985700000038
 51
0.0801399999989042
  0
LINE
  5
18F07
  8
AM_0
 10
901.36663486033672
 20
287.17894474716769
 30
0.0
 11
938.36663486107682
 21
289.32494658664052
 31
0.0
  0
LINE
  5
18F08
  8
AM_0
 10
942.03662486115002
 20
347.21895474836839
 30
0.0
 11
869.63660818998653
 21
347.2189547483685
 31
0.0
  0
LINE
  5
18F09
  8
AM_0
 10
870.92660266528162
 20
347.5289547483747
 30
0.0
 11
940.81661486112557
 21
347.52895474837447
 31
0.0
  0
LINE
  5
18F0A
  8
AM_0
 10
870.92660266528162
 20
349.52895474841461
 30
0.0
 11
940.81661486112557
 21
349.52895474841461
 31
0.0
  0
LINE
  5
18F0B
  8
AM_0
 10
942.03662486115002
 20
349.87893474842178
 30
0.0
 11
869.63660818998653
 21
349.87893474842178
 31
0.0
  0
LINE
  5
18F0C
  8
AM_0
 10
932.68661486096323
 20
300.15896474742721
 30
0.0
 11
868.36663485967665
 21
300.15896474742721
 31
0.0
  0
LINE
  5
18F0D
  8
AM_0
 10
868.36663485967665
 20
297.5289547473746
 30
0.0
 11
931.81661486094595
 21
297.5289547473746
 31
0.0
  0
LINE
  5
18F0E
  8
AM_0
 10
868.36663485967665
 20
299.52895474741467
 30
0.0
 11
931.81661486094595
 21
299.52895474741467
 31
0.0
  0
LINE
  5
18F0F
  8
AM_0
 10
932.68661486096323
 20
296.80895474736019
 30
0.0
 11
868.36663485967665
 21
296.80895474736019
 31
0.0
  0
LINE
  5
18F10
  8
AM_0
 10
870.92487491611485
 20
317.52895474777461
 30
0.0
 11
940.80660486112583
 21
317.52895474777461
 31
0.0
  0
LINE
  5
18F11
  8
AM_0
 10
870.92395141634847
 20
319.52895474781479
 30
0.0
 11
940.80660486112583
 21
319.52895474781468
 31
0.0
  0
LINE
  5
18F12
  8
AM_0
 10
870.92660607071821
 20
327.52895474797481
 30
0.0
 11
940.80660486112583
 21
327.52895474797469
 31
0.0
  0
LINE
  5
18F13
  8
AM_0
 10
870.9266060707198
 20
329.52895474801483
 30
0.0
 11
940.80660486112583
 21
329.5289547480146
 31
0.0
  0
LINE
  5
18F14
  8
AM_0
 10
942.03662486115002
 20
317.18895474776792
 30
0.0
 11
869.83142159216914
 21
317.18895474776792
 31
0.0
  0
LINE
  5
18F15
  8
AM_0
 10
942.03662486115002
 20
319.84893474782109
 30
0.0
 11
869.83142159216914
 21
319.84893474782109
 31
0.0
  0
LINE
  5
18F16
  8
AM_0
 10
942.09661486115135
 20
327.25893474796919
 30
0.0
 11
869.83142159216914
 21
327.25893474796919
 31
0.0
  0
LINE
  5
18F17
  8
AM_0
 10
942.09661486115135
 20
329.78893474801981
 30
0.0
 11
869.83142159216914
 21
329.78893474801981
 31
0.0
  0
LINE
  5
18F18
  8
AM_0
 10
942.10662486115154
 20
337.26894474816947
 30
0.0
 11
869.63660818998653
 21
337.26894474816947
 31
0.0
  0
LINE
  5
18F19
  8
AM_0
 10
870.92660266528162
 20
337.52895474817473
 30
0.0
 11
940.81661486112557
 21
337.52895474817473
 31
0.0
  0
LINE
  5
18F1A
  8
AM_0
 10
870.92660266528162
 20
339.52895474821457
 30
0.0
 11
940.81661486112557
 21
339.52895474821457
 31
0.0
  0
LINE
  5
18F1B
  8
AM_0
 10
942.10662486115154
 20
339.8089547482204
 30
0.0
 11
869.63660818998653
 21
339.8089547482204
 31
0.0
  0
LINE
  5
18F1C
  8
AM_0
 10
839.8556805722792
 20
307.52895474757469
 30
0.0
 11
931.81661486094595
 21
307.52895474757457
 31
0.0
  0
LINE
  5
18F1D
  8
AM_0
 10
932.90661486096758
 20
307.03893474756478
 30
0.0
 11
839.0064130309546
 21
307.03893474756478
 31
0.0
  0
LINE
  5
18F1E
  8
AM_0
 10
805.44184877189309
 20
309.52895474761448
 30
0.0
 11
931.81661486094595
 21
309.52895474761448
 31
0.0
  0
LINE
  5
18F1F
  8
AM_0
 10
932.90661486096758
 20
309.96895474762351
 30
0.0
 11
804.35184882423096
 21
309.96895474762351
 31
0.0
  0
LINE
  5
18F21
  8
ﾁｭｳｼﾝｾﾝ1
 10
961.86053486144669
 20
333.52898031013518
 30
0.0
 11
745.21806931060303
 21
333.52898559182478
 31
0.0
  0
CIRCLE
  5
18F2C
  8
0
 10
751.36663444250235
 20
250.52862375930209
 30
0.0
 40
5.0
  0
ARC
  5
18F2D
  8
0
 10
751.36663444250235
 20
250.52862375930229
 30
0.0
 40
12.0
 50
69.332681879990645
 51
193.60895384571469
  0
ARC
  5
18F2F
  8
0
 10
748.98300400361893
 20
229.7352404354715
 30
0.0
 40
5.0
 50
228.39296489486389
 51
336.80144506545003
1001
GENIUS_GENOBJ-N-FIL_13
1002
{
1000
OWNER
1000
GEN
1002
}
1001
GENIUS_GENODEF_13
1002
{
1000
HIER
1070
     0
1002
}
1002
{
1000
MANEDIT
1070
     0
1002
}
1002
{
1000
NOSEL
1070
     0
1002
}
1002
{
1000
BEHIND
1070
     0
1002
}
1002
{
1000
OTHER
1070
     0
1002
}
1002
{
1000
REACTOR
1002
}
  0
ARC
  5
18F31
  8
0
 10
736.36666149831422
 20
215.5286257159535
 30
0.0
 40
16.999999999999702
 50
270.0
 51
336.80144506545003
  0
LINE
  5
18F32
  8
0
  6
CONTINUOUS
 62
     7
 10
752.36663489403702
 20
241.52862571595301
 30
0.0
 11
714.60930218543399
 21
241.52862571595301
 31
0.0
  0
CIRCLE
  5
18F33
  8
ｷｲﾛ
 10
751.36663444250235
 20
250.52862375930209
 30
0.0
 40
6.0
  0
ARC
  5
18F35
  8
0
 10
671.36666149831433
 20
243.5286257159533
 30
0.0
 40
11.0
 50
90.0
 51
169.19307712513961
  0
ARC
  5
18F36
  8
0
 10
671.36666149831433
 20
243.5286257159533
 30
0.0
 40
11.0
 50
10.806922874860341
 51
90.0
  0
CIRCLE
  5
18F37
  8
0
 10
576.36665969217472
 20
250.52862375930229
 30
0.0
 40
5.0
  0
CIRCLE
  5
18F38
  8
ｷｲﾛ
 10
576.36665969217472
 20
250.52862375930229
 30
0.0
 40
6.0
  0
ARC
  5
18F39
  8
0
 10
576.36665969217472
 20
250.52862375930229
 30
0.0
 40
12.0
 50
346.39104615428528
 51
110.6673181200093
  0
LINE
  5
18F3B
  8
0
 10
591.36663263636274
 20
198.52862571595341
 30
0.0
 11
736.36666149831422
 21
198.52862571595341
 31
0.0
  0
LINE
  5
18F3C
  8
0
 10
609.39438901368283
 20
204.52862571595341
 30
0.0
 11
718.33890512099424
 21
204.52862571595341
 31
0.0
  0
ARC
  5
18F3D
  8
0
 10
655.65042785281275
 20
246.5286257159533
 30
0.0
 40
5.0
 50
270.0
 51
349.19307712513972
1001
GENIUS_GENOBJ-N-FIL_13
1002
{
1000
OWNER
1000
GEN
1002
}
1001
GENIUS_GENODEF_13
1002
{
1000
HIER
1070
     0
1002
}
1002
{
1000
MANEDIT
1070
     0
1002
}
1002
{
1000
NOSEL
1070
     0
1002
}
1002
{
1000
BEHIND
1070
     0
1002
}
1002
{
1000
OTHER
1070
     0
1002
}
1002
{
1000
REACTOR
1002
}
  0
ARC
  5
18F3F
  8
0
 10
591.36663263636274
 20
215.5286257159535
 30
0.0
 40
16.999999999999702
 50
203.19855493455009
 51
270.0
  0
LINE
  5
18F42
  8
0
 10
604.73517485912419
 20
224.6545272515954
 30
0.0
 11
619.48795297992274
 21
239.40730537239389
 31
0.0
  0
LINE
  5
18F43
  8
0
 10
600.49253417200475
 20
228.89716793871469
 30
0.0
 11
615.24531229280365
 21
243.64994605951341
 31
0.0
  0
ARC
  5
18F45
  8
0
 10
578.75029013105814
 20
229.73524043547181
 30
0.0
 40
5.0
 50
203.19855493455009
 51
311.60703510513599
1001
GENIUS_GENOBJ-N-FIL_13
1002
{
1000
OWNER
1000
GEN
1002
}
1001
GENIUS_GENODEF_13
1002
{
1000
HIER
1070
     0
1002
}
1002
{
1000
MANEDIT
1070
     0
1002
}
1002
{
1000
NOSEL
1070
     0
1002
}
1002
{
1000
BEHIND
1070
     0
1002
}
1002
{
1000
OTHER
1070
     0
1002
}
1002
{
1000
REACTOR
1002
}
  0
ARC
  5
18F46
  8
0
 10
591.36663263636274
 20
215.5286257159529
 30
0.0
 40
14.0
 50
341.59151982941722
 51
131.60703510513599
  0
CIRCLE
  5
18F48
  8
0
 10
591.36663263636274
 20
215.5286257159535
 30
0.0
 40
7.0
  0
ARC
  5
18F49
  8
0
 10
609.39438901368283
 20
209.5286257159535
 30
0.0
 40
5.0
 50
161.59151982941691
 51
270.0
1001
GENIUS_GENOBJ-N-FIL_13
1002
{
1000
OWNER
1000
GEN
1002
}
1001
GENIUS_GENODEF_13
1002
{
1000
HIER
1070
     0
1002
}
1002
{
1000
MANEDIT
1070
     0
1002
}
1002
{
1000
NOSEL
1070
     0
1002
}
1002
{
1000
BEHIND
1070
     0
1002
}
1002
{
1000
OTHER
1070
     0
1002
}
1002
{
1000
REACTOR
1002
}
  0
ARC
  5
18F4A
  8
0
 10
606.85649520268362
 20
222.53320690803619
 30
0.0
 40
3.0
 50
135.0000000000046
 51
204.3326835064922
1001
GENIUS_GENOBJ-N-FIL_13
1002
{
1000
OWNER
1000
GEN
1002
}
1001
GENIUS_GENODEF_13
1002
{
1000
HIER
1070
     0
1002
}
1002
{
1000
MANEDIT
1070
     0
1002
}
1002
{
1000
NOSEL
1070
     0
1002
}
1002
{
1000
BEHIND
1070
     0
1002
}
1002
{
1000
OTHER
1070
     0
1002
}
1002
{
1000
REACTOR
1002
}
  0
ARC
  5
18F4B
  8
0
 10
592.88937180772064
 20
246.5286257159533
 30
0.0
 40
5.0
 50
166.39104615428531
 51
270.0
1001
GENIUS_GENOBJ-N-FIL_13
1002
{
1000
OWNER
1000
GEN
1002
}
1001
GENIUS_GENODEF_13
1002
{
1000
HIER
1070
     0
1002
}
1002
{
1000
MANEDIT
1070
     0
1002
}
1002
{
1000
NOSEL
1070
     0
1002
}
1002
{
1000
BEHIND
1070
     0
1002
}
1002
{
1000
OTHER
1070
     0
1002
}
1002
{
1000
REACTOR
1002
}
  0
LINE
  5
18F4C
  8
0
  6
CONTINUOUS
 62
     7
 10
613.12399194924319
 20
241.52862571595301
 30
0.0
 11
575.36665924064016
 21
241.52862571595301
 31
0.0
  0
ARC
  5
18F4D
  8
0
 10
598.37121382844521
 20
231.01848828227489
 30
0.0
 40
3.0
 50
245.66731649351581
 51
315.0000000000046
1001
GENIUS_GENODEF_13
1002
{
1000
HIER
1070
     0
1002
}
1002
{
1000
MANEDIT
1070
     0
1002
}
1002
{
1000
NOSEL
1070
     0
1002
}
1002
{
1000
BEHIND
1070
     0
1002
}
1002
{
1000
OTHER
1070
     0
1002
}
1002
{
1000
REACTOR
1002
}
1001
GENIUS_GENOBJ-N-FIL_13
1002
{
1000
OWNER
1000
GEN
1002
}
  0
LINE
  5
18F4E
  8
0
  6
CONTINUOUS
 62
     7
 10
655.65042785281275
 20
241.52862571595301
 30
0.0
 11
620.36663263636319
 21
241.52862571595301
 31
0.0
  0
ARC
  5
18F4F
  8
0
 10
617.36663263636308
 20
241.52862571595401
 30
0.0
 40
3.0000000000000631
 50
315.0000000000046
 51
135.0000000000046
  0
LINE
  5
18F52
  8
0
  6
CONTINUOUS
 62
     7
 10
707.3666614983141
 20
241.52862571595301
 30
0.0
 11
687.08289514381613
 21
241.52862571595301
 31
0.0
  0
CIRCLE
  5
18F53
  8
AM_0
 10
671.36666149831433
 20
243.52862571595259
 30
0.0
 40
6.5
  0
CIRCLE
  5
18F54
  8
AM_0
 10
671.36666149831433
 20
243.52862571595259
 30
0.0
 40
8.5
  0
POLYLINE
  5
18F55
  8
AM_0
 66
     1
 10
0.0
 20
0.0
 30
0.0
 70
     1
  0
VERTEX
  5
18F56
  8
AM_0
 10
669.6346106907456
 20
240.5286257159531
 30
0.0
  0
VERTEX
  5
18F57
  8
AM_0
 10
667.90255988317665
 20
243.5286257159531
 30
0.0
  0
VERTEX
  5
18F58
  8
AM_0
 10
669.6346106907456
 20
246.5286257159531
 30
0.0
  0
VERTEX
  5
18F59
  8
AM_0
 10
673.09871230588328
 20
246.5286257159531
 30
0.0
  0
VERTEX
  5
18F5A
  8
AM_0
 10
674.83076311345212
 20
243.5286257159531
 30
0.0
  0
VERTEX
  5
18F5B
  8
AM_0
 10
673.09871230588328
 20
240.5286257159531
 30
0.0
  0
SEQEND
  5
18F5C
  8
AM_0
  0
ARC
  5
18F5D
  8
0
 10
687.08289514381613
 20
246.5286257159533
 30
0.0
 40
5.0
 50
190.80692287486031
 51
269.99999999999841
1001
GENIUS_GENOBJ-N-FIL_13
1002
{
1000
OWNER
1000
GEN
1002
}
1001
GENIUS_GENODEF_13
1002
{
1000
HIER
1070
     0
1002
}
1002
{
1000
MANEDIT
1070
     0
1002
}
1002
{
1000
NOSEL
1070
     0
1002
}
1002
{
1000
BEHIND
1070
     0
1002
}
1002
{
1000
OTHER
1070
     0
1002
}
1002
{
1000
REACTOR
1002
}
  0
ARC
  5
18F5F
  8
0
 10
736.36666149831422
 20
215.5286257159529
 30
0.0
 40
14.0
 50
48.392964894863901
 51
198.408480170583
  0
LINE
  5
18F60
  8
0
 10
722.99811927555299
 20
224.6545272515954
 30
0.0
 11
708.24534115475433
 21
239.40730537239389
 31
0.0
  0
ARC
  5
18F61
  8
0
 10
718.33890512099424
 20
209.5286257159535
 30
0.0
 40
5.0
 50
270.0
 51
18.408480170583069
1001
GENIUS_GENOBJ-N-FIL_13
1002
{
1000
OWNER
1000
GEN
1002
}
1001
GENIUS_GENODEF_13
1002
{
1000
HIER
1070
     0
1002
}
1002
{
1000
MANEDIT
1070
     0
1002
}
1002
{
1000
NOSEL
1070
     0
1002
}
1002
{
1000
BEHIND
1070
     0
1002
}
1002
{
1000
OTHER
1070
     0
1002
}
1002
{
1000
REACTOR
1002
}
  0
ARC
  5
18F62
  8
0
 10
720.87679893199288
 20
222.53320690803619
 30
0.0
 40
3.0
 50
335.66731649350783
 51
44.999999999995381
1001
GENIUS_GENOBJ-N-FIL_13
1002
{
1000
OWNER
1000
GEN
1002
}
1001
GENIUS_GENODEF_13
1002
{
1000
HIER
1070
     0
1002
}
1002
{
1000
MANEDIT
1070
     0
1002
}
1002
{
1000
NOSEL
1070
     0
1002
}
1002
{
1000
BEHIND
1070
     0
1002
}
1002
{
1000
OTHER
1070
     0
1002
}
1002
{
1000
REACTOR
1002
}
  0
CIRCLE
  5
18F63
  8
0
 10
736.36666149831422
 20
215.5286257159535
 30
0.0
 40
7.0
  0
LINE
  5
18F64
  8
0
 10
727.24075996267209
 20
228.89716793871469
 30
0.0
 11
712.48798184187342
 21
243.64994605951341
 31
0.0
  0
ARC
  5
18F65
  8
0
 10
710.3666614983141
 20
241.52862571595401
 30
0.0
 40
3.0000000000000631
 50
44.999999999995381
 51
224.9999999999954
  0
ARC
  5
18F66
  8
0
 10
729.36208030623163
 20
231.01848828227489
 30
0.0
 40
3.0
 50
224.9999999999954
 51
294.33268350648427
1001
GENIUS_GENODEF_13
1002
{
1000
HIER
1070
     0
1002
}
1002
{
1000
MANEDIT
1070
     0
1002
}
1002
{
1000
NOSEL
1070
     0
1002
}
1002
{
1000
BEHIND
1070
     0
1002
}
1002
{
1000
OTHER
1070
     0
1002
}
1002
{
1000
REACTOR
1002
}
1001
GENIUS_GENOBJ-N-FIL_13
1002
{
1000
OWNER
1000
GEN
1002
}
  0
ARC
  5
18F67
  8
0
 10
734.84392232695643
 20
246.5286257159533
 30
0.0
 40
5.0
 50
270.0
 51
13.6089538457147
1001
GENIUS_GENODEF_13
1002
{
1000
HIER
1070
     0
1002
}
1002
{
1000
MANEDIT
1070
     0
1002
}
1002
{
1000
NOSEL
1070
     0
1002
}
1002
{
1000
BEHIND
1070
     0
1002
}
1002
{
1000
OTHER
1070
     0
1002
}
1002
{
1000
REACTOR
1002
}
1001
GENIUS_GENOBJ-N-FIL_13
1002
{
1000
OWNER
1000
GEN
1002
}
  0
POLYLINE
  5
18F68
  8
AM_0
 66
     1
 10
0.0
 20
0.0
 30
0.0
 70
     8
  0
VERTEX
  5
1A879
  8
AM_0
 10
611.36699999999985
 20
315.529
 30
0.0
 70
    32
  0
VERTEX
  5
1A87A
  8
AM_0
 10
611.39699999999993
 20
316.755
 30
0.0
 70
    32
  0
VERTEX
  5
1A87B
  8
AM_0
 10
611.48699999999985
 20
317.9790000000001
 30
0.0
 70
    32
  0
VERTEX
  5
1A87C
  8
AM_0
 10
611.63699999999994
 20
319.197
 30
0.0
 70
    32
  0
VERTEX
  5
1A87D
  8
AM_0
 10
611.84699999999998
 20
320.40600000000001
 30
0.0
 70
    32
  0
VERTEX
  5
1A87E
  8
AM_0
 10
612.11599999999987
 20
321.60300000000001
 30
0.0
 70
    32
  0
VERTEX
  5
1A87F
  8
AM_0
 10
612.44299999999998
 20
322.786
 30
0.0
 70
    32
  0
VERTEX
  5
1A880
  8
AM_0
 10
612.82799999999997
 20
323.95100000000002
 30
0.0
 70
    32
  0
VERTEX
  5
1A881
  8
AM_0
 10
613.26999999999987
 20
325.096
 30
0.0
 70
    32
  0
VERTEX
  5
1A882
  8
AM_0
 10
613.76699999999994
 20
326.21800000000002
 30
0.0
 70
    32
  0
VERTEX
  5
1A883
  8
AM_0
 10
614.31899999999985
 20
327.31400000000002
 30
0.0
 70
    32
  0
VERTEX
  5
1A884
  8
AM_0
 10
614.923
 20
328.38099999999997
 30
0.0
 70
    32
  0
VERTEX
  5
1A885
  8
AM_0
 10
615.58000000000004
 20
329.41800000000001
 30
0.0
 70
    32
  0
VERTEX
  5
1A886
  8
AM_0
 10
616.28599999999994
 20
330.42099999999999
 30
0.0
 70
    32
  0
VERTEX
  5
1A887
  8
AM_0
 10
617.04099999999994
 20
331.38900000000001
 30
0.0
 70
    32
  0
VERTEX
  5
1A888
  8
AM_0
 10
617.84299999999996
 20
332.3180000000001
 30
0.0
 70
    32
  0
VERTEX
  5
1A889
  8
AM_0
 10
618.68899999999996
 20
333.20699999999999
 30
0.0
 70
    32
  0
VERTEX
  5
1A88A
  8
AM_0
 10
619.57799999999997
 20
334.05300000000011
 30
0.0
 70
    32
  0
VERTEX
  5
1A88B
  8
AM_0
 10
620.50699999999995
 20
334.85399999999998
 30
0.0
 70
    32
  0
VERTEX
  5
1A88C
  8
AM_0
 10
621.47400000000005
 20
335.60899999999998
 30
0.0
 70
    32
  0
VERTEX
  5
1A88D
  8
AM_0
 10
622.47699999999986
 20
336.31599999999997
 30
0.0
 70
    32
  0
VERTEX
  5
1A88E
  8
AM_0
 10
623.51400000000001
 20
336.97199999999998
 30
0.0
 70
    32
  0
VERTEX
  5
1A88F
  8
AM_0
 10
624.58199999999999
 20
337.577
 30
0.0
 70
    32
  0
VERTEX
  5
1A890
  8
AM_0
 10
625.678
 20
338.12900000000002
 30
0.0
 70
    32
  0
VERTEX
  5
1A891
  8
AM_0
 10
626.79999999999995
 20
338.62599999999998
 30
0.0
 70
    32
  0
VERTEX
  5
1A892
  8
AM_0
 10
627.94399999999996
 20
339.0680000000001
 30
0.0
 70
    32
  0
VERTEX
  5
1A893
  8
AM_0
 10
629.11000000000001
 20
339.45299999999997
 30
0.0
 70
    32
  0
VERTEX
  5
1A894
  8
AM_0
 10
630.29199999999992
 20
339.77999999999997
 30
0.0
 70
    32
  0
VERTEX
  5
1A895
  8
AM_0
 10
631.48900000000003
 20
340.04899999999998
 30
0.0
 70
    32
  0
VERTEX
  5
1A896
  8
AM_0
 10
632.69799999999987
 20
340.25900000000001
 30
0.0
 70
    32
  0
VERTEX
  5
1A897
  8
AM_0
 10
633.91599999999994
 20
340.40899999999999
 30
0.0
 70
    32
  0
VERTEX
  5
1A898
  8
AM_0
 10
635.13999999999987
 20
340.49900000000002
 30
0.0
 70
    32
  0
VERTEX
  5
1A899
  8
AM_0
 10
636.36699999999985
 20
340.529
 30
0.0
 70
    32
  0
VERTEX
  5
1A89A
  8
AM_0
 10
637.59300000000007
 20
340.49900000000002
 30
0.0
 70
    32
  0
VERTEX
  5
1A89B
  8
AM_0
 10
638.81700000000001
 20
340.40899999999999
 30
0.0
 70
    32
  0
VERTEX
  5
1A89C
  8
AM_0
 10
640.03499999999985
 20
340.25900000000001
 30
0.0
 70
    32
  0
VERTEX
  5
1A89D
  8
AM_0
 10
641.24400000000003
 20
340.04899999999998
 30
0.0
 70
    32
  0
VERTEX
  5
1A89E
  8
AM_0
 10
642.44100000000003
 20
339.77999999999997
 30
0.0
 70
    32
  0
VERTEX
  5
1A89F
  8
AM_0
 10
643.62400000000002
 20
339.45299999999997
 30
0.0
 70
    32
  0
VERTEX
  5
1A8A0
  8
AM_0
 10
644.78899999999999
 20
339.0680000000001
 30
0.0
 70
    32
  0
VERTEX
  5
1A8A1
  8
AM_0
 10
645.93399999999997
 20
338.62599999999998
 30
0.0
 70
    32
  0
VERTEX
  5
1A8A2
  8
AM_0
 10
647.05600000000004
 20
338.12900000000002
 30
0.0
 70
    32
  0
VERTEX
  5
1A8A3
  8
AM_0
 10
648.15199999999993
 20
337.577
 30
0.0
 70
    32
  0
VERTEX
  5
1A8A4
  8
AM_0
 10
649.21900000000005
 20
336.97199999999998
 30
0.0
 70
    32
  0
VERTEX
  5
1A8A5
  8
AM_0
 10
650.25599999999986
 20
336.31599999999997
 30
0.0
 70
    32
  0
VERTEX
  5
1A8A6
  8
AM_0
 10
651.25900000000001
 20
335.60899999999998
 30
0.0
 70
    32
  0
VERTEX
  5
1A8A7
  8
AM_0
 10
652.226
 20
334.85399999999998
 30
0.0
 70
    32
  0
VERTEX
  5
1A8A8
  8
AM_0
 10
653.15599999999995
 20
334.05300000000011
 30
0.0
 70
    32
  0
VERTEX
  5
1A8A9
  8
AM_0
 10
654.04399999999998
 20
333.20699999999999
 30
0.0
 70
    32
  0
VERTEX
  5
1A8AA
  8
AM_0
 10
654.88999999999987
 20
332.3180000000001
 30
0.0
 70
    32
  0
VERTEX
  5
1A8AB
  8
AM_0
 10
655.69199999999989
 20
331.38900000000001
 30
0.0
 70
    32
  0
VERTEX
  5
1A8AC
  8
AM_0
 10
656.447
 20
330.42099999999999
 30
0.0
 70
    32
  0
VERTEX
  5
1A8AD
  8
AM_0
 10
657.15300000000002
 20
329.41800000000001
 30
0.0
 70
    32
  0
VERTEX
  5
1A8AE
  8
AM_0
 10
657.80999999999995
 20
328.38099999999997
 30
0.0
 70
    32
  0
VERTEX
  5
1A8AF
  8
AM_0
 10
658.41499999999996
 20
327.31400000000002
 30
0.0
 70
    32
  0
VERTEX
  5
1A8B0
  8
AM_0
 10
658.96600000000001
 20
326.21800000000002
 30
0.0
 70
    32
  0
VERTEX
  5
1A8B1
  8
AM_0
 10
659.46399999999994
 20
325.096
 30
0.0
 70
    32
  0
VERTEX
  5
1A8B2
  8
AM_0
 10
659.90499999999997
 20
323.95100000000002
 30
0.0
 70
    32
  0
VERTEX
  5
1A8B3
  8
AM_0
 10
660.28999999999985
 20
322.786
 30
0.0
 70
    32
  0
VERTEX
  5
1A8B4
  8
AM_0
 10
660.61699999999985
 20
321.60300000000001
 30
0.0
 70
    32
  0
VERTEX
  5
1A8B5
  8
AM_0
 10
660.88599999999997
 20
320.40600000000001
 30
0.0
 70
    32
  0
VERTEX
  5
1A8B6
  8
AM_0
 10
661.096
 20
319.197
 30
0.0
 70
    32
  0
VERTEX
  5
1A8B7
  8
AM_0
 10
661.24600000000009
 20
317.9790000000001
 30
0.0
 70
    32
  0
VERTEX
  5
1A8B8
  8
AM_0
 10
661.33699999999988
 20
316.755
 30
0.0
 70
    32
  0
VERTEX
  5
1A8B9
  8
AM_0
 10
661.36699999999985
 20
315.529
 30
0.0
 70
    32
  0
VERTEX
  5
1A8BA
  8
AM_0
 10
661.33699999999988
 20
314.30200000000002
 30
0.0
 70
    32
  0
VERTEX
  5
1A8BB
  8
AM_0
 10
661.24600000000009
 20
313.07799999999997
 30
0.0
 70
    32
  0
VERTEX
  5
1A8BC
  8
AM_0
 10
661.096
 20
311.86000000000001
 30
0.0
 70
    32
  0
VERTEX
  5
1A8BD
  8
AM_0
 10
660.88599999999997
 20
310.65100000000001
 30
0.0
 70
    32
  0
VERTEX
  5
1A8BE
  8
AM_0
 10
660.61699999999985
 20
309.45400000000001
 30
0.0
 70
    32
  0
VERTEX
  5
1A8BF
  8
AM_0
 10
660.28999999999985
 20
308.27100000000002
 30
0.0
 70
    32
  0
VERTEX
  5
1A8C0
  8
AM_0
 10
659.90499999999997
 20
307.10599999999999
 30
0.0
 70
    32
  0
VERTEX
  5
1A8C1
  8
AM_0
 10
659.46399999999994
 20
305.96100000000001
 30
0.0
 70
    32
  0
VERTEX
  5
1A8C2
  8
AM_0
 10
658.96600000000001
 20
304.83999999999997
 30
0.0
 70
    32
  0
VERTEX
  5
1A8C3
  8
AM_0
 10
658.41499999999996
 20
303.74299999999999
 30
0.0
 70
    32
  0
VERTEX
  5
1A8C4
  8
AM_0
 10
657.80999999999995
 20
302.67599999999999
 30
0.0
 70
    32
  0
VERTEX
  5
1A8C5
  8
AM_0
 10
657.15300000000002
 20
301.63900000000001
 30
0.0
 70
    32
  0
VERTEX
  5
1A8C6
  8
AM_0
 10
656.447
 20
300.63600000000002
 30
0.0
 70
    32
  0
VERTEX
  5
1A8C7
  8
AM_0
 10
655.69199999999989
 20
299.66800000000001
 30
0.0
 70
    32
  0
VERTEX
  5
1A8C8
  8
AM_0
 10
654.88999999999987
 20
298.73899999999998
 30
0.0
 70
    32
  0
VERTEX
  5
1A8C9
  8
AM_0
 10
654.04399999999998
 20
297.851
 30
0.0
 70
    32
  0
VERTEX
  5
1A8CA
  8
AM_0
 10
653.15599999999995
 20
297.00400000000002
 30
0.0
 70
    32
  0
VERTEX
  5
1A8CB
  8
AM_0
 10
652.226
 20
296.20299999999997
 30
0.0
 70
    32
  0
VERTEX
  5
1A8CC
  8
AM_0
 10
651.25900000000001
 20
295.44799999999998
 30
0.0
 70
    32
  0
VERTEX
  5
1A8CD
  8
AM_0
 10
650.25599999999986
 20
294.74099999999999
 30
0.0
 70
    32
  0
VERTEX
  5
1A8CE
  8
AM_0
 10
649.21900000000005
 20
294.08499999999998
 30
0.0
 70
    32
  0
VERTEX
  5
1A8CF
  8
AM_0
 10
648.15199999999993
 20
293.48000000000002
 30
0.0
 70
    32
  0
VERTEX
  5
1A8D0
  8
AM_0
 10
647.05600000000004
 20
292.928
 30
0.0
 70
    32
  0
VERTEX
  5
1A8D1
  8
AM_0
 10
645.93399999999997
 20
292.43099999999998
 30
0.0
 70
    32
  0
VERTEX
  5
1A8D2
  8
AM_0
 10
644.78899999999999
 20
291.99000000000001
 30
0.0
 70
    32
  0
VERTEX
  5
1A8D3
  8
AM_0
 10
643.62400000000002
 20
291.60500000000002
 30
0.0
 70
    32
  0
VERTEX
  5
1A8D4
  8
AM_0
 10
642.44100000000003
 20
291.27699999999999
 30
0.0
 70
    32
  0
VERTEX
  5
1A8D5
  8
AM_0
 10
641.24400000000003
 20
291.00900000000001
 30
0.0
 70
    32
  0
VERTEX
  5
1A8D6
  8
AM_0
 10
640.03499999999985
 20
290.79899999999998
 30
0.0
 70
    32
  0
VERTEX
  5
1A8D7
  8
AM_0
 10
638.81700000000001
 20
290.649
 30
0.0
 70
    32
  0
VERTEX
  5
1A8D8
  8
AM_0
 10
637.59300000000007
 20
290.55799999999999
 30
0.0
 70
    32
  0
VERTEX
  5
1A8D9
  8
AM_0
 10
636.36699999999985
 20
290.52800000000002
 30
0.0
 70
    32
  0
VERTEX
  5
1A8DA
  8
AM_0
 10
635.13999999999987
 20
290.55799999999999
 30
0.0
 70
    32
  0
VERTEX
  5
1A8DB
  8
AM_0
 10
633.91599999999994
 20
290.649
 30
0.0
 70
    32
  0
VERTEX
  5
1A8DC
  8
AM_0
 10
632.69799999999987
 20
290.79899999999998
 30
0.0
 70
    32
  0
VERTEX
  5
1A8DD
  8
AM_0
 10
631.48900000000003
 20
291.00900000000001
 30
0.0
 70
    32
  0
VERTEX
  5
1A8DE
  8
AM_0
 10
630.29199999999992
 20
291.27699999999999
 30
0.0
 70
    32
  0
VERTEX
  5
1A8DF
  8
AM_0
 10
629.11000000000001
 20
291.60500000000002
 30
0.0
 70
    32
  0
VERTEX
  5
1A8E0
  8
AM_0
 10
627.94399999999996
 20
291.99000000000001
 30
0.0
 70
    32
  0
VERTEX
  5
1A8E1
  8
AM_0
 10
626.79999999999995
 20
292.43099999999998
 30
0.0
 70
    32
  0
VERTEX
  5
1A8E2
  8
AM_0
 10
625.678
 20
292.928
 30
0.0
 70
    32
  0
VERTEX
  5
1A8E3
  8
AM_0
 10
624.58199999999999
 20
293.48000000000002
 30
0.0
 70
    32
  0
VERTEX
  5
1A8E4
  8
AM_0
 10
623.51400000000001
 20
294.08499999999998
 30
0.0
 70
    32
  0
VERTEX
  5
1A8E5
  8
AM_0
 10
622.47699999999986
 20
294.74099999999999
 30
0.0
 70
    32
  0
VERTEX
  5
1A8E6
  8
AM_0
 10
621.47400000000005
 20
295.44799999999998
 30
0.0
 70
    32
  0
VERTEX
  5
1A8E7
  8
AM_0
 10
620.50699999999995
 20
296.20299999999997
 30
0.0
 70
    32
  0
VERTEX
  5
1A8E8
  8
AM_0
 10
619.57799999999997
 20
297.00400000000002
 30
0.0
 70
    32
  0
VERTEX
  5
1A8E9
  8
AM_0
 10
618.68899999999996
 20
297.851
 30
0.0
 70
    32
  0
VERTEX
  5
1A8EA
  8
AM_0
 10
617.84299999999996
 20
298.73899999999998
 30
0.0
 70
    32
  0
VERTEX
  5
1A8EB
  8
AM_0
 10
617.04099999999994
 20
299.66800000000001
 30
0.0
 70
    32
  0
VERTEX
  5
1A8EC
  8
AM_0
 10
616.28599999999994
 20
300.63600000000002
 30
0.0
 70
    32
  0
VERTEX
  5
1A8ED
  8
AM_0
 10
615.58000000000004
 20
301.63900000000001
 30
0.0
 70
    32
  0
VERTEX
  5
1A8EE
  8
AM_0
 10
614.923
 20
302.67599999999999
 30
0.0
 70
    32
  0
VERTEX
  5
1A8EF
  8
AM_0
 10
614.31899999999985
 20
303.74299999999999
 30
0.0
 70
    32
  0
VERTEX
  5
1A8F0
  8
AM_0
 10
613.76699999999994
 20
304.83999999999997
 30
0.0
 70
    32
  0
VERTEX
  5
1A8F1
  8
AM_0
 10
613.26999999999987
 20
305.96100000000001
 30
0.0
 70
    32
  0
VERTEX
  5
1A8F2
  8
AM_0
 10
612.82799999999997
 20
307.10599999999999
 30
0.0
 70
    32
  0
VERTEX
  5
1A8F3
  8
AM_0
 10
612.44299999999998
 20
308.27100000000002
 30
0.0
 70
    32
  0
VERTEX
  5
1A8F4
  8
AM_0
 10
612.11599999999987
 20
309.45400000000001
 30
0.0
 70
    32
  0
VERTEX
  5
1A8F5
  8
AM_0
 10
611.84699999999998
 20
310.65100000000001
 30
0.0
 70
    32
  0
VERTEX
  5
1A8F6
  8
AM_0
 10
611.63699999999994
 20
311.86000000000001
 30
0.0
 70
    32
  0
VERTEX
  5
1A8F7
  8
AM_0
 10
611.48699999999985
 20
313.07799999999997
 30
0.0
 70
    32
  0
VERTEX
  5
1A8F8
  8
AM_0
 10
611.39699999999993
 20
314.30200000000002
 30
0.0
 70
    32
  0
VERTEX
  5
1A8F9
  8
AM_0
 10
611.36699999999985
 20
315.529
 30
0.0
 70
    32
  0
SEQEND
  5
1A8FA
  8
AM_0
  0
CIRCLE
  5
18F69
  8
0
 10
636.36666149831433
 20
315.5286257159529
 30
0.0
 40
50.0
  0
LINE
  5
18F6B
  8
AM_0
 10
641.3666616474261
 20
336.3290606471835
 30
0.0
 11
631.36666134920245
 21
336.3290606471835
 31
0.0
  0
LINE
  5
18F6C
  8
AM_0
 10
631.36666134920245
 20
332.29913550274478
 30
0.0
 11
631.36666134920245
 21
336.3290606471835
 31
0.0
  0
LINE
  5
18F6D
  8
AM_0
 10
641.3666616474261
 20
332.29913550274478
 30
0.0
 11
641.3666616474261
 21
336.3290606471835
 31
0.0
  0
LINE
  5
18F6F
  8
AM_0
 10
895.36663486021666
 20
256.5289847465545
 30
0.0
 11
895.36663486021666
 21
249.0289847464044
 31
0.0
  0
LINE
  5
18F70
  8
AM_0
 10
900.8666348603266
 20
260.0289847466243
 30
0.0
 11
900.8666348603266
 21
240.5289847462345
 31
0.0
  0
LINE
  5
18F71
  8
AM_0
 10
891.86663486014731
 20
256.5289847465545
 30
0.0
 11
891.86663486014731
 21
249.0289847464044
 31
0.0
  0
LINE
  5
18F72
  8
AM_0
 10
880.36663485991699
 20
249.0289847464044
 30
0.0
 11
880.36663485991699
 21
256.5289847465545
 31
0.0
  0
LINE
  5
18F73
  8
AM_0
 10
883.86663485998702
 20
256.5289847465545
 30
0.0
 11
883.86663485998702
 21
249.0289847464044
 31
0.0
  0
ARC
  5
18F74
  8
AM_0
 10
887.86663486006694
 20
249.0289847464044
 30
0.0
 40
7.5000000001500009
 50
180.0
 51
0.0
  0
LINE
  5
18F75
  8
AM_0
 10
820.8666348587268
 20
260.0289847466243
 30
0.0
 11
820.8666348587268
 21
253.0289847464845
 31
0.0
  0
LINE
  5
18F76
  8
AM_0
 10
834.5626348590007
 20
233.52898474609449
 30
0.0
 11
870.17063485971255
 21
233.52898474609449
 31
0.0
  0
LINE
  5
18F77
  8
AM_0
 10
820.8666348587268
 20
253.0289847464845
 30
0.0
 11
878.36663485987708
 21
253.0289847464845
 31
0.0
  0
LINE
  5
18F78
  8
AM_0
 10
823.36663485877705
 20
236.52898474615441
 30
0.0
 11
898.36663486027714
 21
236.52898474615429
 31
0.0
  0
LINE
  5
18F79
  8
0
 10
751.99213116703959
 20
208.83200734309199
 30
0.0
 11
766.86210158693268
 21
243.52866449657421
 31
0.0
  0
LINE
  5
18F7A
  8
0
 10
753.57873037677302
 20
227.76564679639449
 30
0.0
 11
761.47723287846804
 21
246.19551757546509
 31
0.0
  0
ARC
  5
18F7B
  8
0
 10
752.36663489403702
 20
251.5286257159533
 30
0.0
 40
10.0
 50
270.0
 51
0.0
1001
GENIUS_GENODEF_13
1002
{
1000
HIER
1070
     0
1002
}
1002
{
1000
MANEDIT
1070
     0
1002
}
1002
{
1000
NOSEL
1070
     0
1002
}
1002
{
1000
BEHIND
1070
     0
1002
}
1002
{
1000
OTHER
1070
     0
1002
}
1002
{
1000
REACTOR
1002
}
1001
GENIUS_GENOBJ-N-FIL_13
1002
{
1000
OWNER
1000
GEN
1002
}
  0
ARC
  5
18F7C
  8
AM_0
 10
751.36663444250212
 20
250.5286237593026
 30
0.0
 40
17.000000451534831
 50
336.80144506545003
 51
0.0
  0
ARC
  5
18F7D
  8
AM_0
 10
751.36663444250212
 20
250.5286237593026
 30
0.0
 40
11.000000451534831
 50
336.80144506545003
 51
0.0
  0
LINE
  5
18F7E
  8
AM_0
 10
822.36663485875704
 20
253.0289847464845
 30
0.0
 11
822.36663485875704
 21
237.5289847461745
 31
0.0
  0
ARC
  5
18F7F
  8
AM_0
 10
823.36663485877705
 20
237.52898474617439
 30
0.0
 40
1.00000000002
 50
180.0
 51
270.0
  0
LINE
  5
18F80
  8
AM_0
 10
829.3666348588971
 20
236.52898474615441
 30
0.0
 11
834.5626348590007
 21
233.52898474609449
 31
0.0
  0
ARC
  5
18F81
  8
AM_0
 10
886.86663486004704
 20
248.02898474638471
 30
0.0
 40
7.5000000001499947
 50
180.0
 51
270.0
  0
LINE
  5
18F82
  8
AM_0
 10
870.17063485971255
 20
233.52898474609449
 30
0.0
 11
875.3594103700201
 21
236.52898474615441
 31
0.0
  0
ARC
  5
18F83
  8
AM_0
 10
878.36663485987708
 20
252.02898474646469
 30
0.0
 40
1.00000000002
 50
0.0
 51
89.999999999999986
  0
LINE
  5
18F84
  8
AM_0
 10
879.36663485989709
 20
248.02898474638471
 30
0.0
 11
879.36663485989709
 21
252.02898474646469
 31
0.0
  0
LINE
  5
18F85
  8
AM_0
 10
899.36663486029693
 20
253.0289847464845
 30
0.0
 11
899.36663486029693
 21
237.5289847461745
 31
0.0
  0
ARC
  5
18F86
  8
AM_0
 10
888.86663486008672
 20
248.02898474638471
 30
0.0
 40
7.500000000149992
 50
270.0
 51
0.0
  0
ARC
  5
18F87
  8
AM_0
 10
898.36663486027714
 20
237.5289847461745
 30
0.0
 40
1.00000000002
 50
270.0
 51
0.0
  0
ARC
  5
18F88
  8
AM_0
 10
887.86663486006694
 20
249.0289847464044
 30
0.0
 40
4.0000000000799956
 50
180.0
 51
0.0
  0
LINE
  5
18F89
  8
AM_0
 10
886.86663486004704
 20
240.5289847462345
 30
0.0
 11
888.86663486008672
 21
240.5289847462345
 31
0.0
  0
LINE
  5
18F8A
  8
AM_0
 10
900.8666348603266
 20
253.0289847464845
 30
0.0
 11
897.36663486025725
 21
253.0289847464845
 31
0.0
  0
ARC
  5
18F8B
  8
AM_0
 10
897.36663486025725
 20
252.02898474646469
 30
0.0
 40
1.00000000002
 50
89.999999999999986
 51
180.0
  0
LINE
  5
18F8C
  8
AM_0
 10
900.8666348603266
 20
240.5289847462345
 30
0.0
 11
899.36663486029693
 21
240.5289847462345
 31
0.0
  0
LINE
  5
18F8D
  8
AM_0
 10
896.36663486023679
 20
252.02898474646469
 30
0.0
 11
896.36663486023679
 21
248.02898474638471
 31
0.0
  0
LINE
  5
18F8E
  8
AM_0
 10
808.54662485848041
 20
369.52895474881478
 30
0.0
 11
868.36663485967665
 21
369.52895474881478
 31
0.0
  0
LINE
  5
18F8F
  8
AM_0
 10
808.54662485848041
 20
367.52895474877459
 30
0.0
 11
868.36663485967665
 21
367.52895474877459
 31
0.0
  0
LINE
  5
18F90
  8
AM_0
 10
823.86663485878694
 20
366.89895474876232
 30
0.0
 11
838.86663485908696
 21
366.89895474876232
 31
0.0
  0
LINE
  5
18F91
  8
AM_0
 10
808.54662485848041
 20
299.52901474741458
 30
0.0
 11
868.36663485967665
 21
299.52901474741458
 31
0.0
  0
LINE
  5
18F92
  8
AM_0
 10
808.54662485848041
 20
297.52901474737462
 30
0.0
 11
868.36663485967665
 21
297.52901474737462
 31
0.0
  0
LINE
  5
18F93
  8
AM_0
 10
868.36663485967665
 20
296.79903474736
 30
0.0
 11
808.54662485848041
 21
296.79903474736
 31
0.0
  0
LINE
  5
18F94
  8
AM_0
 10
823.8666348587866
 20
300.15901474742719
 30
0.0
 11
838.86663485908673
 21
300.15901474742719
 31
0.0
  0
LINE
  5
18F95
  8
AM_0
 10
823.8666348587866
 20
300.15901474742719
 30
0.0
 11
838.86663485908673
 21
300.15901474742719
 31
0.0
  0
LINE
  5
18F96
  8
AM_0
 10
868.36663485967665
 20
271.66902474685747
 30
0.0
 11
808.54662485848041
 21
271.66902474685747
 31
0.0
  0
LINE
  5
18F97
  8
AM_0
 10
902.36663486035673
 20
287.18901474716779
 30
0.0
 11
808.54662485848041
 21
287.18901474716779
 31
0.0
  0
LINE
  5
18F98
  8
AM_0
 10
820.8666348587268
 20
260.0289847466243
 30
0.0
 11
900.8666348603266
 21
260.0289847466243
 31
0.0
  0
LINE
  5
18F99
  8
AM_0
 10
900.8666348603266
 20
256.5289847465545
 30
0.0
 11
820.8666348587268
 21
256.5289847465545
 31
0.0
  0
LINE
  5
18F9A
  8
AM_0
 10
771.8320815024648
 20
302.45229843001772
 30
0.0
 11
771.83208150246628
 21
364.60567407551281
 31
0.0
  0
ARC
  5
18F9B
  8
AM_0
 10
459.0843614335746
 20
333.5289879372109
 30
0.0
 40
316.22122811834907
 50
354.36014466263367
 51
5.639854129946368
  0
LINE
  5
18F9C
  8
AM_0
 10
793.36663485817701
 20
281.48899625172447
 30
0.0
 11
783.36663485797658
 21
281.48899625172447
 31
0.0
  0
LINE
  5
18F9D
  8
AM_0
 10
793.36663485817701
 20
296.38900625202223
 30
0.0
 11
783.36663485797658
 21
296.38900625202223
 31
0.0
  0
LINE
  5
18F9E
  8
AM_0
 10
793.36663485817701
 20
269.52899625148513
 30
0.0
 11
784.24003203039854
 21
269.52899625148513
 31
0.0
  0
ARC
  5
18F9F
  8
AM_0
 10
769.36663485769714
 20
269.02899625147541
 30
0.0
 40
3.000000000059996
 50
90.0
 51
109.4712198979468
1001
GENIUS_GENODEF_13
1002
{
1000
HIER
1070
     0
1002
}
1002
{
1000
MANEDIT
1070
     0
1002
}
1002
{
1000
NOSEL
1070
     0
1002
}
1002
{
1000
BEHIND
1070
     0
1002
}
1002
{
1000
OTHER
1070
     0
1002
}
1002
{
1000
REACTOR
1002
}
1001
GENIUS_GENOBJ-N-FIL_13
1002
{
1000
OWNER
1000
GEN
1002
}
  0
ARC
  5
18FA0
  8
0
 10
757.36663489403702
 20
266.43459730956272
 30
0.0
 40
5.0
 50
249.33268187999059
 51
0.0
1001
GENIUS_GENOBJ-N-FIL_13
1002
{
1000
OWNER
1000
GEN
1002
}
1001
GENIUS_GENODEF_13
1002
{
1000
HIER
1070
     0
1002
}
1002
{
1000
MANEDIT
1070
     0
1002
}
1002
{
1000
NOSEL
1070
     0
1002
}
1002
{
1000
BEHIND
1070
     0
1002
}
1002
{
1000
OTHER
1070
     0
1002
}
1002
{
1000
REACTOR
1002
}
  0
ARC
  5
18FA1
  8
AM_0
 10
779.36663485789654
 20
269.02899625147518
 30
0.0
 40
3.000000000059996
 50
35.685334712656889
 51
90.0
1001
GENIUS_GENOBJ-N-FIL_13
1002
{
1000
OWNER
1000
GEN
1002
}
1001
GENIUS_GENODEF_13
1002
{
1000
HIER
1070
     0
1002
}
1002
{
1000
MANEDIT
1070
     0
1002
}
1002
{
1000
NOSEL
1070
     0
1002
}
1002
{
1000
BEHIND
1070
     0
1002
}
1002
{
1000
OTHER
1070
     0
1002
}
1002
{
1000
REACTOR
1002
}
  0
LINE
  5
18FA2
  8
AM_0
 10
779.36663485789654
 20
272.02899625153498
 30
0.0
 11
769.36663485769714
 21
272.0289962515352
 31
0.0
  0
ARC
  5
18FA3
  8
AM_0
 10
784.24003203039854
 20
272.5289962515451
 30
0.0
 40
3.000000000059996
 50
215.6853347126569
 51
270.0
1001
GENIUS_GENOBJ-N-FIL_13
1002
{
1000
OWNER
1000
GEN
1002
}
1001
GENIUS_GENODEF_13
1002
{
1000
HIER
1070
     0
1002
}
1002
{
1000
MANEDIT
1070
     0
1002
}
1002
{
1000
NOSEL
1070
     0
1002
}
1002
{
1000
BEHIND
1070
     0
1002
}
1002
{
1000
OTHER
1070
     0
1002
}
1002
{
1000
REACTOR
1002
}
  0
LINE
  5
18FA4
  8
AM_0
 10
770.7951005040378
 20
299.80026761369669
 30
0.0
 11
768.36663489403702
 21
299.80026761369669
 31
0.0
  0
ARC
  5
18FA5
  8
0
 10
759.3643956419287
 20
290.52862655166138
 30
0.0
 40
3.0000000000000631
 50
90.000000000001606
 51
270.0
  0
ARC
  5
18FA6
  8
0
 10
759.36663489403668
 20
296.52862571595318
 30
0.0
 40
3.0
 50
270.0
 51
0.0
1001
GENIUS_GENODEF_13
1002
{
1000
HIER
1070
     0
1002
}
1002
{
1000
MANEDIT
1070
     0
1002
}
1002
{
1000
NOSEL
1070
     0
1002
}
1002
{
1000
BEHIND
1070
     0
1002
}
1002
{
1000
OTHER
1070
     0
1002
}
1002
{
1000
REACTOR
1002
}
1001
GENIUS_GENOBJ-N-FIL_13
1002
{
1000
OWNER
1000
GEN
1002
}
  0
ARC
  5
18FA7
  8
0
 10
759.36663489403668
 20
284.52862571595318
 30
0.0
 40
3.0
 50
0.0
 51
90.0
1001
GENIUS_GENODEF_13
1002
{
1000
HIER
1070
     0
1002
}
1002
{
1000
MANEDIT
1070
     0
1002
}
1002
{
1000
NOSEL
1070
     0
1002
}
1002
{
1000
BEHIND
1070
     0
1002
}
1002
{
1000
OTHER
1070
     0
1002
}
1002
{
1000
REACTOR
1002
}
1001
GENIUS_GENOBJ-N-FIL_13
1002
{
1000
OWNER
1000
GEN
1002
}
  0
ARC
  5
18FA8
  8
AM_0
 10
770.7951005040378
 20
302.80026761375677
 30
0.0
 40
3.000000000059996
 50
270.0
 51
353.33928567968309
1001
GENIUS_GENODEF_13
1002
{
1000
HIER
1070
     0
1002
}
1002
{
1000
MANEDIT
1070
     0
1002
}
1002
{
1000
NOSEL
1070
     0
1002
}
1002
{
1000
BEHIND
1070
     0
1002
}
1002
{
1000
OTHER
1070
     0
1002
}
1002
{
1000
REACTOR
1002
}
1001
GENIUS_GENOBJ-N-FIL_13
1002
{
1000
OWNER
1000
GEN
1002
}
  0
LINE
  5
18FA9
  8
AM_0
 10
802.36663485835675
 20
290.66902474723742
 30
0.0
 11
802.36663485835675
 21
283.06902474708539
 31
0.0
  0
LINE
  5
18FAA
  8
AM_0
 10
803.36663485837664
 20
290.66902474723742
 30
0.0
 11
803.36663485837664
 21
283.06902474708539
 31
0.0
  0
LINE
  5
18FAB
  8
AM_0
 10
806.60662485844159
 20
273.1690147468874
 30
0.0
 11
803.87081485838701
 21
283.3690147470914
 31
0.0
  0
ARC
  5
18FAC
  8
AM_0
 10
804.26663485839435
 20
285.06902474712552
 30
0.0
 40
1.700000800033999
 50
270.000020000002
 51
359.999989999999
  0
LINE
  5
18FAD
  8
AM_0
 10
822.36663485875704
 20
264.5289847467144
 30
0.0
 11
810.06591356226261
 21
264.5289847467144
 31
0.0
  0
LINE
  5
18FAE
  8
AM_0
 10
802.36663485835675
 20
269.52895479917458
 30
0.0
 11
810.06591356226261
 21
264.5289847467144
 31
0.0
  0
LINE
  5
18FAF
  8
AM_0
 10
803.36663485837664
 20
283.06902474708539
 30
0.0
 11
802.36663485835675
 21
283.06902474708539
 31
0.0
  0
ARC
  5
18FB0
  8
AM_0
 10
801.35821485833651
 20
282.49742474707392
 30
0.0
 40
1.0084445000201681
 50
270.4777999999996
 51
350.45392999999711
  0
ARC
  5
18FB1
  8
AM_0
 10
801.36663485833674
 20
270.5289547468347
 30
0.0
 40
1.00000000002
 50
270.00000299999761
 51
0.0000100000009905
  0
LINE
  5
18FB2
  8
AM_0
 10
806.6466348584421
 20
273.02902474688449
 30
0.0
 11
802.36663485835675
 21
273.02902474688449
 31
0.0
  0
LINE
  5
18FB3
  8
AM_0
 10
802.36663485835675
 20
270.5289547468347
 30
0.0
 11
802.36663485835675
 21
273.02895474688461
 31
0.0
  0
LINE
  5
18FB4
  8
0
  6
CONTINUOUS
 62
     7
 10
801.36663485817644
 20
281.48902417565171
 30
0.0
 11
793.36663485817701
 21
281.48902417565171
 31
0.0
  0
LINE
  5
18FB5
  8
AM_0
 10
793.36663485817701
 20
269.52895999628282
 30
0.0
 11
793.36663485817701
 21
273.52895999628288
 31
0.0
  0
LINE
  5
18FB6
  8
0
  6
CONTINUOUS
 62
     7
 10
802.3666964527755
 20
269.52895451318238
 30
0.0
 11
793.36663485817701
 21
269.52895451318238
 31
0.0
  0
ARC
  5
18FB7
  8
AM_0
 10
808.55627485848072
 20
273.68601474689768
 30
0.0
 40
2.0170178000403389
 50
194.8516000000017
 51
269.72630000000368
  0
LINE
  5
18FB8
  8
AM_0
 10
822.36663485875704
 20
260.0289847466243
 30
0.0
 11
822.36663485875704
 21
264.5289847467144
 31
0.0
  0
LINE
  5
18FB9
  8
AM_0
 10
805.44184877189309
 20
307.52895474757469
 30
0.0
 11
822.87758914559151
 21
307.52895474757469
 31
0.0
  0
LINE
  5
18FBA
  8
AM_0
 10
808.54662485848041
 20
300.15901474742719
 30
0.0
 11
822.8666348587667
 21
300.15901474742719
 31
0.0
  0
LINE
  5
18FBB
  8
AM_0
 10
823.72685668691895
 20
307.03893474756478
 30
0.0
 11
804.35293141375416
 21
307.03893474756478
 31
0.0
  0
ARC
  5
18FBC
  8
AM_0
 10
808.02661485847
 20
298.52901474739463
 30
0.0
 40
1.0000074000200001
 50
89.999997000002296
 51
270.0
  0
ARC
  5
18FBD
  8
AM_0
 10
804.55273485840053
 20
298.47902474739368
 30
0.0
 40
1.680011000033599
 50
90.208030999999565
 51
269.79197000000192
  0
LINE
  5
18FBE
  8
AM_0
 10
808.54662485848041
 20
296.79903474736
 30
0.0
 11
802.36663490767671
 21
296.79903474736
 31
0.0
  0
LINE
  5
18FBF
  8
AM_0
 10
802.36663485835675
 20
287.6463847471768
 30
0.0
 11
803.36663485837664
 21
287.06905474716552
 31
0.0
  0
LINE
  5
18FC0
  8
AM_0
 10
802.36663485835675
 20
286.64638474715679
 30
0.0
 11
803.36663485837664
 21
286.06902474714531
 31
0.0
  0
ARC
  5
18FC1
  8
AM_0
 10
801.7057748583436
 20
285.70223474713799
 30
0.0
 40
1.486805900029734
 50
14.282739999999089
 51
63.610220000000879
  0
LINE
  5
18FC2
  8
AM_0
 10
803.36663485837664
 20
290.66902474723742
 30
0.0
 11
802.36663485835675
 21
290.66902474723742
 31
0.0
  0
LINE
  5
18FC3
  8
0
  6
CONTINUOUS
 62
     7
 10
801.36663485817644
 20
296.389034175652
 30
0.0
 11
793.36663485817701
 21
296.389034175652
 31
0.0
  0
LINE
  5
18FC4
  8
AM_0
 10
808.02661485847
 20
297.52901474737462
 30
0.0
 11
808.54662485848041
 21
297.52901474737462
 31
0.0
  0
LINE
  5
18FC5
  8
AM_0
 10
808.54662485848041
 20
287.18901474716779
 30
0.0
 11
805.96661485842844
 21
287.18901474716779
 31
0.0
  0
LINE
  5
18FC6
  8
AM_0
 10
805.96661485842844
 20
288.6690247471974
 30
0.0
 11
805.96661485842844
 21
285.06902474712552
 31
0.0
  0
LINE
  5
18FC7
  8
AM_0
 10
803.36663485837664
 20
283.36902474709137
 30
0.0
 11
804.26663485839435
 21
283.36902474709137
 31
0.0
  0
LINE
  5
18FC8
  8
AM_0
 10
803.36663485837664
 20
290.3690147472314
 30
0.0
 11
804.26663485839435
 21
290.3690147472314
 31
0.0
  0
ARC
  5
18FC9
  8
AM_0
 10
804.26663485839435
 20
288.6690247471974
 30
0.0
 40
1.6999969000339981
 50
0.0000200000019969
 51
89.999997000002296
  0
LINE
  5
18FCA
  8
AM_0
 10
808.02661485847
 20
299.52901474741458
 30
0.0
 11
808.54662485848041
 21
299.52901474741458
 31
0.0
  0
ARC
  5
18FCB
  8
AM_0
 10
804.35184882423096
 20
308.5039347475942
 30
0.0
 40
1.4650004000292971
 50
89.999999999999986
 51
269.99999700000228
  0
ARC
  5
18FCC
  8
AM_0
 10
805.44184882425293
 20
308.5289547475947
 30
0.0
 40
1.0000032000200001
 50
89.999999999999986
 51
269.99999700000228
  0
LINE
  5
18FCD
  8
AM_0
 10
804.54662485840038
 20
300.15901474742719
 30
0.0
 11
808.54662485848041
 21
300.15901474742719
 31
0.0
  0
ARC
  5
18FCE
  8
AM_0
 10
822.8666348587667
 20
306.52901474755453
 30
0.0
 40
1.00000000002
 50
0.0
 51
89.999999999999986
1001
GENIUS_GENOBJ-N-FIL_13
1002
{
1000
OWNER
1000
GEN
1002
}
1001
GENIUS_GENODEF_13
1002
{
1000
HIER
1070
     0
1002
}
1002
{
1000
MANEDIT
1070
     0
1002
}
1002
{
1000
NOSEL
1070
     0
1002
}
1002
{
1000
BEHIND
1070
     0
1002
}
1002
{
1000
OTHER
1070
     0
1002
}
1002
{
1000
REACTOR
1002
}
  0
ARC
  5
18FCF
  8
AM_0
 10
822.8666348587667
 20
301.1590147474472
 30
0.0
 40
1.00000000002
 50
270.0
 51
0.0
1001
GENIUS_GENOBJ-N-FIL_13
1002
{
1000
OWNER
1000
GEN
1002
}
1001
GENIUS_GENODEF_13
1002
{
1000
HIER
1070
     0
1002
}
1002
{
1000
MANEDIT
1070
     0
1002
}
1002
{
1000
NOSEL
1070
     0
1002
}
1002
{
1000
BEHIND
1070
     0
1002
}
1002
{
1000
OTHER
1070
     0
1002
}
1002
{
1000
REACTOR
1002
}
  0
LINE
  5
18FD0
  8
AM_0
 10
823.8666348587866
 20
306.52901474755453
 30
0.0
 11
823.8666348587866
 21
301.1590147474472
 31
0.0
  0
CIRCLE
  5
18FD1
  8
AM_0
 10
833.86663485898669
 20
305.0289847475247
 30
0.0
 40
0.750000000015
  0
CIRCLE
  5
18FD2
  8
AM_0
 10
828.86663485888675
 20
305.0289847475247
 30
0.0
 40
0.750000000015
  0
ARC
  5
18FD3
  8
0
 10
759.36663489403668
 20
340.52862571595318
 30
0.0
 40
3.0000000000000631
 50
90.000000000001606
 51
270.0
  0
ARC
  5
18FD4
  8
0
 10
759.36663489403668
 20
334.52862571595318
 30
0.0
 40
3.0
 50
0.0
 51
90.0
1001
GENIUS_GENODEF_13
1002
{
1000
HIER
1070
     0
1002
}
1002
{
1000
MANEDIT
1070
     0
1002
}
1002
{
1000
NOSEL
1070
     0
1002
}
1002
{
1000
BEHIND
1070
     0
1002
}
1002
{
1000
OTHER
1070
     0
1002
}
1002
{
1000
REACTOR
1002
}
1001
GENIUS_GENOBJ-N-FIL_13
1002
{
1000
OWNER
1000
GEN
1002
}
  0
LINE
  5
18FD5
  8
AM_0
 10
770.79510050403906
 20
367.25770489183373
 30
0.0
 11
768.27847370741108
 21
367.25770489183373
 31
0.0
  0
ARC
  5
18FD6
  8
0
 10
759.36663489403668
 20
346.5286257159533
 30
0.0
 40
3.0
 50
270.0
 51
0.0
1001
GENIUS_GENODEF_13
1002
{
1000
HIER
1070
     0
1002
}
1002
{
1000
MANEDIT
1070
     0
1002
}
1002
{
1000
NOSEL
1070
     0
1002
}
1002
{
1000
BEHIND
1070
     0
1002
}
1002
{
1000
OTHER
1070
     0
1002
}
1002
{
1000
REACTOR
1002
}
1001
GENIUS_GENOBJ-N-FIL_13
1002
{
1000
OWNER
1000
GEN
1002
}
  0
ARC
  5
18FD7
  8
AM_0
 10
770.79510050403906
 20
364.2577048917737
 30
0.0
 40
3.000000000059996
 50
6.6607143203167842
 51
90.0
1001
GENIUS_GENOBJ-N-FIL_13
1002
{
1000
OWNER
1000
GEN
1002
}
1001
GENIUS_GENODEF_13
1002
{
1000
HIER
1070
     0
1002
}
1002
{
1000
MANEDIT
1070
     0
1002
}
1002
{
1000
NOSEL
1070
     0
1002
}
1002
{
1000
BEHIND
1070
     0
1002
}
1002
{
1000
OTHER
1070
     0
1002
}
1002
{
1000
REACTOR
1002
}
  0
LINE
  5
18FD8
  8
AM_0
 10
808.54662485848041
 20
366.89895474876232
 30
0.0
 11
822.86663485876693
 21
366.89895474876232
 31
0.0
  0
LINE
  5
18FD9
  8
AM_0
 10
805.44184877189309
 20
359.52895474861458
 30
0.0
 11
822.86663485876693
 21
359.52895474861458
 31
0.0
  0
LINE
  5
18FDA
  8
AM_0
 10
823.726803330596
 20
360.01894474862428
 30
0.0
 11
804.36812346400814
 21
360.01894474862428
 31
0.0
  0
LINE
  5
18FDB
  8
AM_0
 10
808.02661485847011
 20
369.52895474881478
 30
0.0
 11
808.54662485848041
 21
369.52895474881478
 31
0.0
  0
LINE
  5
18FDC
  8
AM_0
 10
808.02661485847011
 20
367.52895474877459
 30
0.0
 11
808.54662485848041
 21
367.52895474877459
 31
0.0
  0
ARC
  5
18FDD
  8
AM_0
 10
808.02661485847011
 20
368.52895474879477
 30
0.0
 40
1.0000074000200001
 50
89.999999999999986
 51
270.00000299999761
  0
ARC
  5
18FDE
  8
AM_0
 10
804.35184882423141
 20
358.55403474859497
 30
0.0
 40
1.4650004000292971
 50
90.000002999997605
 51
270.0
  0
ARC
  5
18FDF
  8
AM_0
 10
805.44184882425293
 20
358.5290147485947
 30
0.0
 40
1.0000032000200001
 50
90.000002999997605
 51
270.0
  0
LINE
  5
18FE0
  8
AM_0
 10
804.54662485840038
 20
366.89895474876232
 30
0.0
 11
808.54662485848041
 21
366.89895474876232
 31
0.0
  0
LINE
  5
18FE1
  8
AM_0
 10
823.86663485878694
 20
360.5289547486347
 30
0.0
 11
823.86663485878694
 21
365.89895474874203
 31
0.0
  0
ARC
  5
18FE2
  8
AM_0
 10
822.86663485876693
 20
360.5289547486347
 30
0.0
 40
1.00000000002
 50
270.0
 51
0.0
1001
GENIUS_GENOBJ-N-FIL_13
1002
{
1000
OWNER
1000
GEN
1002
}
1001
GENIUS_GENODEF_13
1002
{
1000
HIER
1070
     0
1002
}
1002
{
1000
MANEDIT
1070
     0
1002
}
1002
{
1000
NOSEL
1070
     0
1002
}
1002
{
1000
BEHIND
1070
     0
1002
}
1002
{
1000
OTHER
1070
     0
1002
}
1002
{
1000
REACTOR
1002
}
  0
ARC
  5
18FE3
  8
AM_0
 10
822.86663485876693
 20
365.89895474874203
 30
0.0
 40
1.00000000002
 50
0.0
 51
89.999999999999986
1001
GENIUS_GENOBJ-N-FIL_13
1002
{
1000
OWNER
1000
GEN
1002
}
1001
GENIUS_GENODEF_13
1002
{
1000
HIER
1070
     0
1002
}
1002
{
1000
MANEDIT
1070
     0
1002
}
1002
{
1000
NOSEL
1070
     0
1002
}
1002
{
1000
BEHIND
1070
     0
1002
}
1002
{
1000
OTHER
1070
     0
1002
}
1002
{
1000
REACTOR
1002
}
  0
CIRCLE
  5
18FE4
  8
AM_0
 10
833.86663485898669
 20
362.02898474866453
 30
0.0
 40
0.750000000015
  0
CIRCLE
  5
18FE5
  8
AM_0
 10
828.86663485888675
 20
362.02898474866453
 30
0.0
 40
0.750000000015
  0
LINE
  5
18FE6
  8
AM_0
 10
923.36663486077668
 20
271.6689347468573
 30
0.0
 11
868.36663485967665
 21
271.66893474685747
 31
0.0
  0
LINE
  5
18FE7
  8
AM_0
 10
901.36663486033672
 20
287.17894474716769
 30
0.0
 11
868.36663485967665
 21
287.17894474716769
 31
0.0
  0
LINE
  5
18FE8
  8
AM_0
 10
839.86663485910674
 20
300.15901474742719
 30
0.0
 11
868.36663485967665
 21
300.15901474742719
 31
0.0
  0
ARC
  5
18FE9
  8
AM_0
 10
839.86663485910674
 20
306.52901474755453
 30
0.0
 40
1.00000000002
 50
89.999999999999986
 51
180.00000000000659
1001
GENIUS_GENOBJ-N-FIL_13
1002
{
1000
OWNER
1000
GEN
1002
}
1001
GENIUS_GENODEF_13
1002
{
1000
HIER
1070
     0
1002
}
1002
{
1000
MANEDIT
1070
     0
1002
}
1002
{
1000
NOSEL
1070
     0
1002
}
1002
{
1000
BEHIND
1070
     0
1002
}
1002
{
1000
OTHER
1070
     0
1002
}
1002
{
1000
REACTOR
1002
}
  0
ARC
  5
18FEA
  8
AM_0
 10
839.86663485910674
 20
301.1590147474472
 30
0.0
 40
1.00000000002
 50
180.0
 51
270.0
1001
GENIUS_GENOBJ-N-FIL_13
1002
{
1000
OWNER
1000
GEN
1002
}
1001
GENIUS_GENODEF_13
1002
{
1000
HIER
1070
     0
1002
}
1002
{
1000
MANEDIT
1070
     0
1002
}
1002
{
1000
NOSEL
1070
     0
1002
}
1002
{
1000
BEHIND
1070
     0
1002
}
1002
{
1000
OTHER
1070
     0
1002
}
1002
{
1000
REACTOR
1002
}
  0
LINE
  5
18FEB
  8
AM_0
 10
838.86663485908673
 20
306.52901474755453
 30
0.0
 11
838.86663485908673
 21
301.1590147474472
 31
0.0
  0
ARC
  5
18FEC
  8
AM_0
 10
870.91788819001204
 20
308.5289547475947
 30
0.0
 40
1.0000380000199991
 50
89.500710000004887
 51
270.49928400000641
  0
LINE
  5
18FED
  8
AM_0
 10
923.36663486077668
 20
267.60894474677627
 30
0.0
 11
882.36663485995712
 21
267.60894474677627
 31
0.0
  0
LINE
  5
18FEE
  8
AM_0
 10
923.36663486077668
 20
268.28893474678972
 30
0.0
 11
882.36663485995712
 21
268.28893474678972
 31
0.0
  0
LINE
  5
18FEF
  8
AM_0
 10
923.36663486077668
 20
269.63894474681689
 30
0.0
 11
882.36663485995712
 21
269.638944746817
 31
0.0
  0
LINE
  5
18FF0
  8
AM_0
 10
882.36663485995712
 20
260.0289847466243
 30
0.0
 11
882.36663485995712
 21
271.66902474685702
 31
0.0
  0
ARC
  5
18FF1
  8
AM_0
 10
869.69659818998787
 20
318.51894474779448
 30
0.0
 40
1.3300010000266
 50
89.999999999999986
 51
269.99999700000228
  0
ARC
  5
18FF2
  8
AM_0
 10
870.91788819001204
 20
318.52895474779478
 30
0.0
 40
1.0000380000199991
 50
89.500710000004887
 51
270.49928400000641
  0
ARC
  5
18FF3
  8
AM_0
 10
869.63660818998653
 20
328.52395474799459
 30
0.0
 40
1.265005000025299
 50
89.999999999999986
 51
269.99999700000228
  0
ARC
  5
18FF4
  8
AM_0
 10
869.63660818998653
 20
338.53401474819469
 30
0.0
 40
1.265005000025299
 50
90.000002999997605
 51
270.0
  0
ARC
  5
18FF5
  8
AM_0
 10
870.91788819001204
 20
328.52895474799482
 30
0.0
 40
1.0000380000199991
 50
89.500710000004887
 51
270.49928400000641
  0
ARC
  5
18FF6
  8
AM_0
 10
870.91788819001204
 20
338.5290147481947
 30
0.0
 40
1.0000380000199991
 50
89.500715999993588
 51
270.49928999999509
  0
LINE
  5
18FF7
  8
AM_0
 10
839.86663485910685
 20
366.89895474876232
 30
0.0
 11
868.36663485967665
 21
366.89895474876232
 31
0.0
  0
LINE
  5
18FF8
  8
AM_0
 10
838.86663485908696
 20
360.5289547486347
 30
0.0
 11
838.86663485908696
 21
365.89895474874203
 31
0.0
  0
ARC
  5
18FF9
  8
AM_0
 10
839.86663485910685
 20
360.5289547486347
 30
0.0
 40
1.00000000002
 50
180.0
 51
270.0
1001
GENIUS_GENOBJ-N-FIL_13
1002
{
1000
OWNER
1000
GEN
1002
}
1001
GENIUS_GENODEF_13
1002
{
1000
HIER
1070
     0
1002
}
1002
{
1000
MANEDIT
1070
     0
1002
}
1002
{
1000
NOSEL
1070
     0
1002
}
1002
{
1000
BEHIND
1070
     0
1002
}
1002
{
1000
OTHER
1070
     0
1002
}
1002
{
1000
REACTOR
1002
}
  0
ARC
  5
18FFA
  8
AM_0
 10
839.86663485910685
 20
365.89895474874203
 30
0.0
 40
1.00000000002
 50
89.999999999999986
 51
180.0
1001
GENIUS_GENOBJ-N-FIL_13
1002
{
1000
OWNER
1000
GEN
1002
}
1001
GENIUS_GENODEF_13
1002
{
1000
HIER
1070
     0
1002
}
1002
{
1000
MANEDIT
1070
     0
1002
}
1002
{
1000
NOSEL
1070
     0
1002
}
1002
{
1000
BEHIND
1070
     0
1002
}
1002
{
1000
OTHER
1070
     0
1002
}
1002
{
1000
REACTOR
1002
}
  0
ARC
  5
18FFB
  8
AM_0
 10
869.69659818998787
 20
348.53902474839481
 30
0.0
 40
1.3300010000266
 50
90.000002999997605
 51
270.0
  0
ARC
  5
18FFC
  8
AM_0
 10
870.91788819001204
 20
348.5290147483945
 30
0.0
 40
1.0000380000199991
 50
89.500715999993588
 51
270.49928999999509
  0
ARC
  5
18FFD
  8
AM_0
 10
870.91788819001204
 20
358.52895471799968
 30
0.0
 40
1.0000380000199991
 50
89.500715999993588
 51
270.49928999999509
  0
LINE
  5
19006
  8
AM_0
 10
954.36663486139673
 20
285.50933474713418
 30
0.0
 11
954.36663486139673
 21
328.5289547479947
 31
0.0
  0
LINE
  5
19007
  8
AM_0
 10
942.64660486116236
 20
285.17891474712758
 30
0.0
 11
942.10659486115162
 21
282.18892474706769
 31
0.0
  0
LINE
  5
19008
  8
AM_0
 10
948.36663486127702
 20
276.14856704909113
 30
0.0
 11
943.54662486118059
 21
276.02895474694469
 31
0.0
  0
LINE
  5
19009
  8
AM_0
 10
940.19662486111361
 20
275.25893474692919
 30
0.0
 11
926.86663486084672
 21
275.25893474692919
 31
0.0
  0
LINE
  5
1900A
  8
AM_0
 10
940.13662486111241
 20
280.54894474703502
 30
0.0
 11
926.86663486084672
 21
280.54894474703502
 31
0.0
  0
LINE
  5
1900B
  8
AM_0
 10
940.22662486111392
 20
271.8589447468612
 30
0.0
 11
926.86663486084672
 21
271.8589447468612
 31
0.0
  0
LINE
  5
1900C
  8
AM_0
 10
940.25662486111469
 20
270.2289347468286
 30
0.0
 11
926.75662486084457
 21
270.2289347468286
 31
0.0
  0
LINE
  5
1900D
  8
AM_0
 10
925.36663486081682
 20
271.63894474685679
 30
0.0
 11
925.36663486081682
 21
279.0489447470049
 31
0.0
  0
ARC
  5
1900E
  8
AM_0
 10
926.86840486084645
 20
273.75713474689928
 30
0.0
 40
1.5017979000300341
 50
90.068549999998908
 51
179.93145000000101
  0
ARC
  5
1900F
  8
AM_0
 10
926.75298486084455
 20
268.7220747467984
 30
0.0
 40
1.5068883000301361
 50
89.862229999999485
 51
165.1230700000024
  0
ARC
  5
19010
  8
AM_0
 10
926.87045486084639
 20
270.3550947468313
 30
0.0
 40
1.5038475000300751
 50
90.146399999989924
 51
179.85360000000341
  0
ARC
  5
19011
  8
AM_0
 10
926.87228486084655
 20
279.04326474700503
 30
0.0
 40
1.505674500030113
 50
90.215519999992267
 51
179.78447000000099
  0
LINE
  5
19012
  8
AM_0
 10
944.57662486120125
 20
282.48894474707379
 30
0.0
 11
942.15661486115232
 21
282.48894474707379
 31
0.0
  0
ARC
  5
19013
  8
AM_0
 10
944.57540486120138
 20
280.98479474704368
 30
0.0
 40
1.5041398000300801
 50
89.954250000005004
 51
167.5552499999952
  0
ARC
  5
19014
  8
AM_0
 10
940.14477486111264
 20
282.5423547470748
 30
0.0
 40
1.993433400039867
 50
269.76588400000571
 51
349.78803000000022
  0
ARC
  5
19015
  8
AM_0
 10
944.5574348612007
 20
276.92614474696251
 30
0.0
 40
1.502808100030055
 50
90.03078999999498
 51
166.42217999999869
  0
ARC
  5
19016
  8
AM_0
 10
944.53832486120029
 20
274.90184474692228
 30
0.0
 40
1.5070969000301411
 50
90.064820000001674
 51
165.90218000000371
  0
LINE
  5
19017
  8
AM_0
 10
944.53662486120004
 20
276.40896474695239
 30
0.0
 11
942.88662486116721
 21
276.40896474695239
 31
0.0
  0
LINE
  5
19018
  8
AM_0
 10
944.55660486120075
 20
278.42894474699278
 30
0.0
 11
942.49661486115895
 21
278.42894474699278
 31
0.0
  0
ARC
  5
19019
  8
AM_0
 10
940.19494486111341
 20
277.25432474696908
 30
0.0
 40
1.995389500039906
 50
270.04806699999131
 51
347.98461999999989
  0
ARC
  5
1901A
  8
AM_0
 10
940.23382486111393
 20
273.85442474690097
 30
0.0
 40
1.995482300039908
 50
269.79345799999908
 51
346.80592000000257
  0
LINE
  5
1901B
  8
AM_0
 10
942.17660486115301
 20
273.39895474689212
 30
0.0
 11
943.09661486117125
 21
277.2789547469697
 31
0.0
  0
LINE
  5
1901C
  8
AM_0
 10
942.19659486115324
 20
271.73894474685881
 30
0.0
 11
943.07659486117086
 21
275.26894474692938
 31
0.0
  0
ARC
  5
1901D
  8
AM_0
 10
940.2593048611144
 20
272.22674474686858
 30
0.0
 40
1.9977812000399551
 50
269.92308099999781
 51
345.86776999999688
  0
LINE
  5
1901E
  8
AM_0
 10
942.14660486115235
 20
276.83895474696078
 30
0.0
 11
943.10662486117155
 21
281.30895474705028
 31
0.0
  0
LINE
  5
1901F
  8
AM_0
 10
948.36663486127702
 20
299.2189547474083
 30
0.0
 11
938.36663486107682
 21
299.2189547474083
 31
0.0
  0
LINE
  5
19020
  8
AM_0
 10
948.36663486127702
 20
290.83895474724062
 30
0.0
 11
938.36663486107682
 21
290.83895474724062
 31
0.0
  0
LINE
  5
19021
  8
AM_0
 10
948.36663486127702
 20
285.17894474712762
 30
0.0
 11
938.36663486107682
 21
285.17894474712762
 31
0.0
  0
ARC
  5
19022
  8
AM_0
 10
932.68661486096323
 20
298.48394474739371
 30
0.0
 40
1.675006300033498
 50
270.00000299999761
 51
89.999999999999986
  0
ARC
  5
19023
  8
AM_0
 10
931.81661486094595
 20
298.52895474739461
 30
0.0
 40
1.0000032000200001
 50
270.00000299999761
 51
89.999999999999986
  0
LINE
  5
19024
  8
AM_0
 10
938.36663486107682
 20
285.17894474712762
 30
0.0
 11
938.36663486107682
 21
299.2189547474083
 31
0.0
  0
ARC
  5
19025
  8
AM_0
 10
938.7454248610843
 20
295.86089474734138
 30
0.0
 40
6.0039072001200786
 50
225.22369300001091
 51
266.38271400000212
  0
ARC
  5
19026
  8
AM_0
 10
939.2016548610934
 20
291.93117474726262
 30
0.0
 40
5.0078936001001564
 50
99.598719999994145
 51
174.52532000000039
  0
LINE
  5
19027
  8
AM_0
 10
925.36663486081682
 20
296.2889347473498
 30
0.0
 11
925.36663486081682
 21
296.35894474735119
 31
0.0
  0
ARC
  5
19028
  8
AM_0
 10
935.21670486101414
 20
292.3187847472704
 30
0.0
 40
1.004136700020082
 50
174.84883999999599
 51
225.7974360000018
  0
ARC
  5
19029
  8
AM_0
 10
932.90661486096758
 20
308.50393474759409
 30
0.0
 40
1.4650004000292971
 50
270.00000299999761
 51
89.999999999999986
  0
ARC
  5
1902A
  8
AM_0
 10
931.81661486094595
 20
308.52895474759458
 30
0.0
 40
1.0000032000200001
 50
270.00000299999761
 51
89.999999999999986
  0
LINE
  5
1902B
  8
AM_0
 10
952.10662486135163
 20
287.02895474716462
 30
0.0
 11
949.36663486129669
 21
287.02895474716462
 31
0.0
  0
LINE
  5
1902C
  8
AM_0
 10
952.58663486136152
 20
287.14895474716701
 30
0.0
 11
953.82662486138622
 21
287.80892474718041
 31
0.0
  0
ARC
  5
1902D
  8
AM_0
 10
953.3676448613769
 20
287.67440474717762
 30
0.0
 40
0.99898326001998
 50
299.96535999999588
 51
359.68761000000092
  0
ARC
  5
1902E
  8
AM_0
 10
953.36163486137696
 20
288.69997474719821
 30
0.0
 40
1.0050608000201
 50
297.55880999999511
 51
359.37160000000108
  0
LINE
  5
1902F
  8
AM_0
 10
952.58663486136152
 20
286.02892474714457
 30
0.0
 11
953.86663486138696
 21
286.80892474716018
 31
0.0
  0
LINE
  5
19030
  8
AM_0
 10
952.36663486135683
 20
286.148954747147
 30
0.0
 11
952.36663486135683
 21
286.68895474715782
 31
0.0
  0
ARC
  5
19031
  8
AM_0
 10
952.07311486135063
 20
286.90004474716199
 30
0.0
 40
1.011208500020224
 50
270.76568699999262
 51
300.51881000001219
  0
ARC
  5
19032
  8
AM_0
 10
952.10833486135152
 20
288.042134747185
 30
0.0
 40
1.0131912000202621
 50
269.90372399999882
 51
298.1687600000007
  0
ARC
  5
19033
  8
AM_0
 10
953.35946486137664
 20
285.51912474713453
 30
0.0
 40
1.007194200020143
 50
300.23341999999798
 51
0.557679999999936
  0
LINE
  5
19034
  8
AM_0
 10
952.56661486136068
 20
285.04894474712501
 30
0.0
 11
953.80663486138508
 21
285.66893474713743
 31
0.0
  0
LINE
  5
19035
  8
AM_0
 10
952.58660486136125
 20
283.92894474710261
 30
0.0
 11
953.86660486138669
 21
284.64895474711722
 31
0.0
  0
LINE
  5
19036
  8
AM_0
 10
952.36663486135683
 20
284.048944747105
 30
0.0
 11
952.36663486135683
 21
284.56893474711541
 31
0.0
  0
ARC
  5
19037
  8
AM_0
 10
952.07574486135059
 20
284.79070474711989
 30
0.0
 40
1.001808000020036
 50
270.62281999999078
 51
300.66166999999638
  0
ARC
  5
19038
  8
AM_0
 10
952.08904486135134
 20
285.93337474714281
 30
0.0
 40
1.005138300020102
 50
272.14229099999102
 51
298.36793999999628
  0
ARC
  5
19039
  8
AM_0
 10
953.36358486137681
 20
286.56884474715531
 30
0.0
 40
1.0030519000200611
 50
296.21265000000881
 51
0.005769999997685
  0
LINE
  5
1903A
  8
AM_0
 10
952.08663486135117
 20
291.54894474725501
 30
0.0
 11
949.36663486129669
 21
291.54894474725501
 31
0.0
  0
ARC
  5
1903B
  8
AM_0
 10
953.3648948613768
 20
292.27157474726943
 30
0.0
 40
1.001733900020034
 50
302.73763000000417
 51
359.85046000000261
  0
LINE
  5
1903C
  8
AM_0
 10
952.60662486136164
 20
290.56893474723518
 30
0.0
 11
953.90664486138735
 21
291.42891474725258
 31
0.0
  0
LINE
  5
1903D
  8
AM_0
 10
952.36663486135683
 20
290.70894474723832
 30
0.0
 11
952.36663486135683
 21
291.18895474724792
 31
0.0
  0
LINE
  5
1903E
  8
AM_0
 10
952.58660486136125
 20
291.68895474725792
 30
0.0
 11
953.86660486138669
 21
292.42898474727269
 31
0.0
  0
ARC
  5
1903F
  8
AM_0
 10
952.0609748613507
 20
291.41924474725238
 30
0.0
 40
1.0103180000202041
 50
270.32013999999481
 51
302.68858000000682
  0
ARC
  5
19040
  8
AM_0
 10
952.07437486135075
 20
292.55559474727522
 30
0.0
 40
1.0067360000201351
 50
270.6980609999984
 51
300.58643000000149
  0
ARC
  5
19041
  8
AM_0
 10
953.36108486137675
 20
293.29821474728988
 30
0.0
 40
1.00559290002011
 50
300.18133000000722
 51
359.47162000000122
  0
LINE
  5
19042
  8
AM_0
 10
952.08663486135117
 20
285.88894474714181
 30
0.0
 11
948.36663486127702
 21
285.88894474714181
 31
0.0
  0
ARC
  5
19043
  8
AM_0
 10
949.37368486129662
 20
288.03600474718468
 30
0.0
 40
1.0070832000201411
 50
180.40157798000081
 51
269.59842200000139
  0
LINE
  5
19044
  8
AM_0
 10
952.12661486135198
 20
284.92894474712261
 30
0.0
 11
948.86663486128634
 21
284.92894474712261
 31
0.0
  0
LINE
  5
19045
  8
AM_0
 10
952.08663486135117
 20
283.7889347470998
 30
0.0
 11
948.86663486128634
 21
283.7889347470998
 31
0.0
  0
LINE
  5
19046
  8
AM_0
 10
952.06661486135044
 20
290.40896474723218
 30
0.0
 11
948.36663486127702
 21
290.40896474723218
 31
0.0
  0
ARC
  5
19047
  8
AM_0
 10
949.37203486129715
 20
292.55434474727502
 30
0.0
 40
1.005422700020107
 50
180.30819238000211
 51
269.69181100000611
  0
LINE
  5
19048
  8
AM_0
 10
949.36663486129669
 20
309.52895474761448
 30
0.0
 11
953.36663486137695
 21
309.52895474761448
 31
0.0
  0
ARC
  5
19049
  8
AM_0
 10
953.37441486137698
 20
308.53676474759482
 30
0.0
 40
0.9922232600198446
 50
359.54915999999702
 51
90.450850000007364
  0
ARC
  5
1904A
  8
AM_0
 10
949.37451486129726
 20
310.5368247476348
 30
0.0
 40
1.007920400020158
 50
180.44848996000141
 51
269.55151199999528
  0
LINE
  5
1904B
  8
AM_0
 10
949.36663486129669
 20
307.52895474757457
 30
0.0
 11
953.36663486137695
 21
307.52895474757457
 31
0.0
  0
ARC
  5
1904C
  8
AM_0
 10
953.3621848613767
 20
301.152274747447
 30
0.0
 40
1.0044501000200881
 50
286.45034999999609
 51
359.80985000000021
  0
LINE
  5
1904D
  8
AM_0
 10
952.20663486135345
 20
299.78893474741989
 30
0.0
 11
949.36663486129669
 21
299.78893474741989
 31
0.0
  0
ARC
  5
1904E
  8
AM_0
 10
953.3670948613767
 20
299.37362474741138
 30
0.0
 40
0.999532700019991
 50
292.3150500000005
 51
359.73186999999979
  0
LINE
  5
1904F
  8
AM_0
 10
952.54662486136044
 20
297.92894474738262
 30
0.0
 11
953.74661486138405
 21
298.44893474739308
 31
0.0
  0
LINE
  5
19050
  8
AM_0
 10
952.36663486135683
 20
298.14895474738699
 30
0.0
 11
952.36663486135683
 21
299.20894474740828
 31
0.0
  0
ARC
  5
19051
  8
AM_0
 10
952.22396486135381
 20
300.8039447474402
 30
0.0
 40
1.015145100020302
 50
269.02161899999908
 51
286.16767000000561
  0
LINE
  5
19052
  8
AM_0
 10
952.50662486135946
 20
299.82894474742068
 30
0.0
 11
953.64663486138238
 21
300.1889247474279
 31
0.0
  0
ARC
  5
19053
  8
AM_0
 10
952.15338486135272
 20
298.85515474740117
 30
0.0
 40
1.006237100020124
 50
269.61524400000241
 51
293.00462000000027
  0
ARC
  5
19054
  8
AM_0
 10
949.35760486129629
 20
306.5379847475549
 30
0.0
 40
0.9910124500198204
 50
89.478000000004286
 51
180.5220023800002
  0
ARC
  5
19055
  8
AM_0
 10
949.37292486129661
 20
300.79525474743991
 30
0.0
 40
1.006329500020124
 50
180.35925376000381
 51
269.640748000001
  0
LINE
  5
19056
  8
AM_0
 10
952.14663486135237
 20
297.84893474738101
 30
0.0
 11
949.06661486129042
 21
297.84893474738101
 31
0.0
  0
LINE
  5
19057
  8
AM_0
 10
952.36663486135706
 20
307.90896474758222
 30
0.0
 11
952.36663486135706
 21
309.26894474760923
 31
0.0
  0
ARC
  5
19058
  8
AM_0
 10
953.35754486137694
 20
308.53804474759488
 30
0.0
 40
1.0091312000201811
 50
270.51612600000101
 51
359.48387000000042
  0
LINE
  5
1905A
  8
AM_0
 10
956.86053486144635
 20
318.30709474779019
 30
0.0
 11
956.86053486144635
 21
348.75072474839902
 31
0.0
  0
LINE
  5
1905B
  8
AM_0
 10
955.86663486142652
 20
353.5289547484947
 30
0.0
 11
955.86663486142652
 21
313.52895474769468
 31
0.0
  0
ARC
  5
1905C
  8
AM_0
 10
942.03662486115002
 20
318.51894474779442
 30
0.0
 40
1.3300010000266
 50
270.00000299999761
 51
89.999999999999986
  0
ARC
  5
1905D
  8
AM_0
 10
940.81533486112585
 20
318.52895474779461
 30
0.0
 40
1.0000380000199991
 50
269.50071599999359
 51
90.499289999995028
  0
ARC
  5
1905E
  8
AM_0
 10
940.80660486112583
 20
338.52895474819462
 30
0.0
 40
1.000012400019999
 50
270.00000299999761
 51
89.999999999999986
  0
ARC
  5
1905F
  8
AM_0
 10
942.09661486115135
 20
328.52395474799459
 30
0.0
 40
1.265005000025299
 50
270.00000299999761
 51
89.999999999999986
  0
ARC
  5
19060
  8
AM_0
 10
940.81533486112585
 20
328.5289547479947
 30
0.0
 40
1.0000380000199991
 50
269.50071599999359
 51
90.499289999995028
  0
ARC
  5
19061
  8
AM_0
 10
942.09649486115165
 20
338.51894474819449
 30
0.0
 40
1.270038400025399
 50
269.55481099999332
 51
90.445190000005567
  0
ARC
  5
19062
  8
AM_0
 10
949.35760486129629
 20
326.53798474795491
 30
0.0
 40
0.9910124500198204
 50
89.478000000004286
 51
180.5220023800002
  0
LINE
  5
19063
  8
AM_0
 10
955.86663486142652
 20
313.5289247476947
 30
0.0
 11
954.36663486139673
 21
313.4089247476922
 31
0.0
  0
LINE
  5
19064
  8
AM_0
 10
956.86053486144635
 20
318.30712474779028
 30
0.0
 11
956.36053486143635
 21
315.53713474773468
 31
0.0
  0
LINE
  5
19065
  8
AM_0
 10
956.36053486143635
 20
315.53713474773468
 30
0.0
 11
955.86050486142665
 21
315.5771447477357
 31
0.0
  0
LINE
  5
19066
  8
AM_0
 10
949.36663486129669
 20
319.52895474781468
 30
0.0
 11
953.36663486137695
 21
319.52895474781468
 31
0.0
  0
ARC
  5
19067
  8
AM_0
 10
953.37441486137698
 20
318.53676474779479
 30
0.0
 40
0.9922232600198446
 50
359.54915999999702
 51
90.450850000007364
  0
LINE
  5
19068
  8
AM_0
 10
949.36663486129669
 20
317.52895474777461
 30
0.0
 11
953.36663486137695
 21
317.52895474777461
 31
0.0
  0
ARC
  5
19069
  8
AM_0
 10
953.35754486137694
 20
318.53804474779491
 30
0.0
 40
1.0091312000201811
 50
270.51612600000101
 51
359.48387000000042
  0
LINE
  5
1906A
  8
AM_0
 10
952.36663486135706
 20
317.92894474778268
 30
0.0
 11
952.36663486135706
 21
319.14895474780701
 31
0.0
  0
ARC
  5
1906B
  8
AM_0
 10
949.37451486129726
 20
320.53682474783483
 30
0.0
 40
1.007920400020158
 50
180.44848996000141
 51
269.55151199999528
  0
ARC
  5
1906C
  8
AM_0
 10
949.35760486129629
 20
316.53798474775488
 30
0.0
 40
0.9910124500198204
 50
89.478000000004286
 51
180.5220023800002
  0
LINE
  5
1906D
  8
AM_0
 10
949.36663486129669
 20
339.52895474821457
 30
0.0
 11
953.36663486137695
 21
339.52895474821457
 31
0.0
  0
LINE
  5
1906E
  8
AM_0
 10
949.36663486129669
 20
337.52895474817473
 30
0.0
 11
953.36663486137695
 21
337.52895474817473
 31
0.0
  0
ARC
  5
1906F
  8
AM_0
 10
953.35754486137694
 20
338.51986474819438
 30
0.0
 40
1.0091312000201811
 50
0.5161299999996111
 51
89.483870000000422
  0
LINE
  5
19070
  8
AM_0
 10
952.36663486135706
 20
339.12893474820658
 30
0.0
 11
952.36663486135706
 21
337.96895474818348
 31
0.0
  0
ARC
  5
19071
  8
AM_0
 10
949.35760486129629
 20
340.51992474823447
 30
0.0
 40
0.9910124500198204
 50
179.47800000000419
 51
270.52199999999573
  0
POINT
  5
19072
  8
AM_0
 10
956.86053486144635
 20
333.52895474809441
 30
0.0
  0
LINE
  5
19073
  8
AM_0
 10
949.36663486129669
 20
329.5289547480146
 30
0.0
 11
953.36663486137695
 21
329.5289547480146
 31
0.0
  0
LINE
  5
19074
  8
AM_0
 10
949.36663486129669
 20
327.52895474797469
 30
0.0
 11
953.36663486137695
 21
327.52895474797469
 31
0.0
  0
ARC
  5
19075
  8
AM_0
 10
953.35754486137694
 20
328.53804474799489
 30
0.0
 40
1.0091312000201811
 50
270.51612600000101
 51
359.48387000000042
  0
LINE
  5
19076
  8
AM_0
 10
952.36663486135706
 20
327.92894474798248
 30
0.0
 11
952.36663486135706
 21
329.0889547480059
 31
0.0
  0
ARC
  5
19077
  8
AM_0
 10
953.37441486137698
 20
328.53676474799488
 30
0.0
 40
0.9922232600198446
 50
359.54915999999702
 51
90.450850000007364
  0
ARC
  5
19078
  8
AM_0
 10
949.37451486129726
 20
330.53682474803492
 30
0.0
 40
1.007920400020158
 50
180.44848996000141
 51
269.55151199999528
  0
ARC
  5
19079
  8
AM_0
 10
953.37441486137698
 20
338.5211447481945
 30
0.0
 40
0.9922232600198446
 50
269.54915500000459
 51
0.4508500000008742
  0
ARC
  5
1907A
  8
AM_0
 10
949.37451486129726
 20
336.52105474815482
 30
0.0
 40
1.007920400020158
 50
90.448489999990556
 51
179.55151000000271
  0
ARC
  5
1907B
  8
AM_0
 10
940.80660486112583
 20
348.5289547483946
 30
0.0
 40
1.000012400019999
 50
270.00000299999761
 51
89.999999999999986
  0
ARC
  5
1907C
  8
AM_0
 10
942.03448486115008
 20
348.53893474839469
 30
0.0
 40
1.330023200026599
 50
269.6615320000073
 51
90.338480000010406
  0
LINE
  5
1907D
  8
AM_0
 10
946.36663486123655
 20
367.82894474878083
 30
0.0
 11
943.18661486117298
 21
367.82894474878083
 31
0.0
  0
ARC
  5
1907E
  8
AM_0
 10
940.81542486112585
 20
368.5289547487946
 30
0.0
 40
1.0000387000199991
 50
269.4956680000052
 51
90.504340000003268
  0
ARC
  5
1907F
  8
AM_0
 10
940.81542486112585
 20
358.52895474859457
 30
0.0
 40
1.0000387000199991
 50
269.4956680000052
 51
90.504340000003268
  0
ARC
  5
19080
  8
AM_0
 10
941.90392486114763
 20
358.54894474859498
 30
0.0
 40
1.460102600029201
 50
269.32100699999552
 51
90.679000000004308
  0
LINE
  5
19081
  8
AM_0
 10
955.86663486142652
 20
353.5289547484947
 30
0.0
 11
954.36663486139673
 21
353.6489547484972
 31
0.0
  0
LINE
  5
19082
  8
AM_0
 10
956.86053486144635
 20
348.75072474839902
 30
0.0
 11
956.36053486143635
 21
351.52074474845449
 31
0.0
  0
LINE
  5
19083
  8
AM_0
 10
956.36053486143635
 20
351.52074474845449
 30
0.0
 11
955.86053486142623
 21
351.48073474845359
 31
0.0
  0
LINE
  5
19084
  8
AM_0
 10
949.36663486129669
 20
347.52895474837447
 30
0.0
 11
953.36663486137695
 21
347.52895474837447
 31
0.0
  0
LINE
  5
19085
  8
AM_0
 10
949.36663486129669
 20
349.52895474841461
 30
0.0
 11
953.36663486137695
 21
349.52895474841461
 31
0.0
  0
ARC
  5
19086
  8
AM_0
 10
953.35754486137694
 20
348.51986474839441
 30
0.0
 40
1.0091312000201811
 50
0.5161299999996111
 51
89.483870000000422
  0
ARC
  5
19087
  8
AM_0
 10
953.37441486137698
 20
348.52114474839448
 30
0.0
 40
0.9922232600198446
 50
269.54915500000459
 51
0.4508500000008742
  0
LINE
  5
19088
  8
AM_0
 10
952.36663486135706
 20
349.12893474840661
 30
0.0
 11
952.36663486135706
 21
347.90896474838218
 31
0.0
  0
ARC
  5
19089
  8
AM_0
 10
949.35760486129629
 20
350.51992474843451
 30
0.0
 40
0.9910124500198204
 50
179.47800000000419
 51
270.52199999999573
  0
ARC
  5
1908A
  8
AM_0
 10
949.37451486129726
 20
346.52105474835457
 30
0.0
 40
1.007920400020158
 50
90.448489999990556
 51
179.55151000000271
  0
ARC
  5
1908B
  8
AM_0
 10
952.15338486135272
 20
368.20272474878823
 30
0.0
 40
1.006237100020124
 50
66.995379999999813
 51
90.384760000002103
  0
LINE
  5
1908C
  8
AM_0
 10
952.20663486135345
 20
367.2689447487694
 30
0.0
 11
949.36663486129669
 21
367.2689447487694
 31
0.0
  0
ARC
  5
1908D
  8
AM_0
 10
953.3670948613767
 20
367.68425474877768
 30
0.0
 40
0.999532700019991
 50
0.2681300000001557
 51
67.684949999999489
  0
LINE
  5
1908E
  8
AM_0
 10
952.50665486135961
 20
367.22893474876838
 30
0.0
 11
953.64663486138238
 21
366.8689247487614
 31
0.0
  0
ARC
  5
1908F
  8
AM_0
 10
952.22396486135381
 20
366.25396474874918
 30
0.0
 40
1.015145100020302
 50
73.832329999994457
 51
90.978379999990494
  0
LINE
  5
19090
  8
AM_0
 10
952.54662486136044
 20
369.12893474880661
 30
0.0
 11
953.74661486138461
 21
368.60894474879632
 31
0.0
  0
LINE
  5
19091
  8
AM_0
 10
952.36663486135706
 20
368.90896474880219
 30
0.0
 11
952.36663486135706
 21
367.84893474878112
 31
0.0
  0
ARC
  5
19092
  8
AM_0
 10
949.06219486129089
 20
369.90450474882232
 30
0.0
 40
0.6955789300139117
 50
179.63466000000051
 51
270.3653360000103
  0
LINE
  5
19093
  8
AM_0
 10
952.14663486135237
 20
369.20894474880822
 30
0.0
 11
949.06661486129042
 21
369.20894474880822
 31
0.0
  0
LINE
  5
19094
  8
AM_0
 10
949.36663486129669
 20
359.52895474861458
 30
0.0
 11
953.36663486137695
 21
359.52895474861458
 31
0.0
  0
ARC
  5
19095
  8
AM_0
 10
953.35754486137694
 20
358.5198647485945
 30
0.0
 40
1.0091312000201811
 50
0.5161299999996111
 51
89.483870000000422
  0
LINE
  5
19096
  8
AM_0
 10
949.36663486129669
 20
357.52895474857479
 30
0.0
 11
953.36663486137695
 21
357.52895474857479
 31
0.0
  0
ARC
  5
19097
  8
AM_0
 10
953.37441486137698
 20
358.52114474859439
 30
0.0
 40
0.9922232600198446
 50
269.54915500000459
 51
0.4508500000008742
  0
LINE
  5
19098
  8
AM_0
 10
952.36663486135706
 20
359.14895474860703
 30
0.0
 11
952.36663486135706
 21
357.78893474857972
 31
0.0
  0
ARC
  5
19099
  8
AM_0
 10
949.35760486129629
 20
360.51992474863471
 30
0.0
 40
0.9910124500198204
 50
179.47800000000419
 51
270.52199999999573
  0
ARC
  5
1909A
  8
AM_0
 10
949.37451486129726
 20
356.52105474855477
 30
0.0
 40
1.007920400020158
 50
90.448489999990556
 51
179.55151000000271
  0
ARC
  5
1909B
  8
AM_0
 10
953.3621848613767
 20
365.90560474874218
 30
0.0
 40
1.0044501000200881
 50
0.1901499999997002
 51
73.549650000003865
  0
ARC
  5
1909C
  8
AM_0
 10
949.37292486129729
 20
366.26262474874932
 30
0.0
 40
1.006329500020124
 50
90.359249999995924
 51
179.640750000004
  0
ARC
  5
1909E
  8
AM_0
 10
923.35912486077655
 20
396.76145474935942
 30
0.0
 40
2.007501100040149
 50
0.2137000000042958
 51
89.78631000000108
  0
ARC
  5
1909F
  8
AM_0
 10
923.36147486077698
 20
395.4037847493322
 30
0.0
 40
2.005161300040101
 50
0.147289999999717
 51
89.852710000006752
  0
ARC
  5
190A0
  8
AM_0
 10
923.35870486077636
 20
397.43326474937282
 30
0.0
 40
1.995694300039913
 50
14.97487999999842
 51
89.772649999998436
  0
ARC
  5
190A1
  8
AM_0
 10
923.35729486077685
 20
393.37961474929159
 30
0.0
 40
2.0093489000401861
 50
0.2659600000002775
 51
89.734039999999638
  0
LINE
  5
190A2
  8
AM_0
 10
902.36663486035673
 20
379.86895474902161
 30
0.0
 11
938.36663486107705
 21
378.21621446715881
 31
0.0
  0
LINE
  5
190A3
  8
AM_0
 10
941.6966248611435
 20
370.25893474882929
 30
0.0
 11
868.36663485967665
 21
370.25893474882929
 31
0.0
  0
ARC
  5
190B8
  8
0
 10
736.36666149831422
 20
415.5286257159529
 30
0.0
 40
16.999999999999702
 50
23.198554934550121
 51
90.0
  0
ARC
  5
190B9
  8
0
 10
748.98300400361893
 20
401.32201099643419
 30
0.0
 40
5.0
 50
23.198554934550121
 51
131.60703510513599
1001
GENIUS_GENOBJ-N-FIL_13
1002
{
1000
OWNER
1000
GEN
1002
}
1001
GENIUS_GENODEF_13
1002
{
1000
HIER
1070
     0
1002
}
1002
{
1000
MANEDIT
1070
     0
1002
}
1002
{
1000
NOSEL
1070
     0
1002
}
1002
{
1000
BEHIND
1070
     0
1002
}
1002
{
1000
OTHER
1070
     0
1002
}
1002
{
1000
REACTOR
1002
}
  0
CIRCLE
  5
190BB
  8
0
 10
751.36663444250235
 20
380.52862767260359
 30
0.0
 40
5.0
  0
CIRCLE
  5
190BC
  8
ｷｲﾛ
 10
751.36663444250235
 20
380.52862767260359
 30
0.0
 40
6.0
  0
LINE
  5
190BD
  8
0
  6
CONTINUOUS
 62
     7
 10
752.36663489403702
 20
389.52862571595261
 30
0.0
 11
714.60930218543353
 21
389.52862571595261
 31
0.0
  0
ARC
  5
190BF
  8
0
 10
655.65042785281275
 20
384.52862571595261
 30
0.0
 40
5.0
 50
10.806922874860341
 51
90.0
1001
GENIUS_GENOBJ-N-FIL_13
1002
{
1000
OWNER
1000
GEN
1002
}
1001
GENIUS_GENODEF_13
1002
{
1000
HIER
1070
     0
1002
}
1002
{
1000
MANEDIT
1070
     0
1002
}
1002
{
1000
NOSEL
1070
     0
1002
}
1002
{
1000
BEHIND
1070
     0
1002
}
1002
{
1000
OTHER
1070
     0
1002
}
1002
{
1000
REACTOR
1002
}
  0
LINE
  5
190C0
  8
0
 10
591.36663263636274
 20
432.5286257159529
 30
0.0
 11
736.36666149831456
 21
432.5286257159525
 31
0.0
  0
LINE
  5
190C1
  8
0
 10
609.39438901368283
 20
426.52862571595199
 30
0.0
 11
718.33890512099424
 21
426.52862571595199
 31
0.0
  0
ARC
  5
190C2
  8
0
 10
591.36663263636274
 20
415.5286257159529
 30
0.0
 40
16.999999999999702
 50
90.0
 51
156.80144506544991
  0
LINE
  5
190C3
  8
0
 10
604.73517485912453
 20
406.40272418031049
 30
0.0
 11
619.48795297992285
 21
391.6499460595121
 31
0.0
  0
LINE
  5
190C4
  8
0
 10
600.49253417200475
 20
402.16008349319111
 30
0.0
 11
615.24531229280365
 21
387.40730537239301
 31
0.0
  0
ARC
  5
190C5
  8
0
 10
591.36663263636274
 20
415.5286257159529
 30
0.0
 40
14.0
 50
228.39296489486389
 51
18.408480170583069
  0
ARC
  5
190C6
  8
0
 10
592.88937180772064
 20
384.52862571595261
 30
0.0
 40
5.0
 50
90.0
 51
193.60895384571469
1001
GENIUS_GENOBJ-N-FIL_13
1002
{
1000
OWNER
1000
GEN
1002
}
1001
GENIUS_GENODEF_13
1002
{
1000
HIER
1070
     0
1002
}
1002
{
1000
MANEDIT
1070
     0
1002
}
1002
{
1000
NOSEL
1070
     0
1002
}
1002
{
1000
BEHIND
1070
     0
1002
}
1002
{
1000
OTHER
1070
     0
1002
}
1002
{
1000
REACTOR
1002
}
  0
LINE
  5
190C7
  8
0
  6
CONTINUOUS
 62
     7
 10
613.1239919492441
 20
389.52862571595261
 30
0.0
 11
575.36665924064016
 21
389.52862571595261
 31
0.0
  0
CIRCLE
  5
190C8
  8
0
 10
576.36665969217472
 20
380.5286276726045
 30
0.0
 40
5.0
  0
CIRCLE
  5
190C9
  8
ｷｲﾛ
 10
576.36665969217472
 20
380.5286276726045
 30
0.0
 40
6.0
  0
LINE
  5
190CA
  8
ﾁｭｳｼﾝｾﾝ1
 10
576.36661737757299
 20
415.5286257159529
 30
0.0
 11
606.36661737757299
 21
415.5286257159529
 31
0.0
  0
CIRCLE
  5
190CB
  8
0
 10
591.36663263636274
 20
415.5286257159529
 30
0.0
 40
7.0
  0
ARC
  5
190CD
  8
0
 10
578.75029013105825
 20
401.32201099643419
 30
0.0
 40
5.0
 50
48.392964894863901
 51
156.80144506544991
1001
GENIUS_GENOBJ-N-FIL_13
1002
{
1000
OWNER
1000
GEN
1002
}
1001
GENIUS_GENODEF_13
1002
{
1000
HIER
1070
     0
1002
}
1002
{
1000
MANEDIT
1070
     0
1002
}
1002
{
1000
NOSEL
1070
     0
1002
}
1002
{
1000
BEHIND
1070
     0
1002
}
1002
{
1000
OTHER
1070
     0
1002
}
1002
{
1000
REACTOR
1002
}
  0
LINE
  5
190CE
  8
ﾁｭｳｼﾝｾﾝ1
 10
591.36663263636274
 20
400.52862571596069
 30
0.0
 11
591.36663263636274
 21
430.52862571594488
 31
0.0
  0
ARC
  5
190CF
  8
0
 10
598.37121382844521
 20
400.03876314963162
 30
0.0
 40
3.0
 50
44.999999999995381
 51
114.3326835064841
1001
GENIUS_GENODEF_13
1002
{
1000
HIER
1070
     0
1002
}
1002
{
1000
MANEDIT
1070
     0
1002
}
1002
{
1000
NOSEL
1070
     0
1002
}
1002
{
1000
BEHIND
1070
     0
1002
}
1002
{
1000
OTHER
1070
     0
1002
}
1002
{
1000
REACTOR
1002
}
1001
GENIUS_GENOBJ-N-FIL_13
1002
{
1000
OWNER
1000
GEN
1002
}
  0
ARC
  5
190D0
  8
0
 10
606.85649520268362
 20
408.52404452387032
 30
0.0
 40
3.0
 50
155.6673164935078
 51
224.9999999999954
1001
GENIUS_GENOBJ-N-FIL_13
1002
{
1000
OWNER
1000
GEN
1002
}
1001
GENIUS_GENODEF_13
1002
{
1000
HIER
1070
     0
1002
}
1002
{
1000
MANEDIT
1070
     0
1002
}
1002
{
1000
NOSEL
1070
     0
1002
}
1002
{
1000
BEHIND
1070
     0
1002
}
1002
{
1000
OTHER
1070
     0
1002
}
1002
{
1000
REACTOR
1002
}
  0
ARC
  5
190D1
  8
0
 10
609.39438901368283
 20
421.52862571595261
 30
0.0
 40
5.0
 50
90.0
 51
198.408480170583
1001
GENIUS_GENOBJ-N-FIL_13
1002
{
1000
OWNER
1000
GEN
1002
}
1001
GENIUS_GENODEF_13
1002
{
1000
HIER
1070
     0
1002
}
1002
{
1000
MANEDIT
1070
     0
1002
}
1002
{
1000
NOSEL
1070
     0
1002
}
1002
{
1000
BEHIND
1070
     0
1002
}
1002
{
1000
OTHER
1070
     0
1002
}
1002
{
1000
REACTOR
1002
}
  0
LINE
  5
190D2
  8
0
  6
CONTINUOUS
 62
     7
 10
655.65042785281275
 20
389.52862571595261
 30
0.0
 11
620.36663263636342
 21
389.52862571595261
 31
0.0
  0
ARC
  5
190D3
  8
0
 10
617.36663263636308
 20
389.52862571595261
 30
0.0
 40
3.0000000000000631
 50
224.9999999999954
 51
44.999999999995381
  0
LINE
  5
190D4
  8
0
  6
CONTINUOUS
 62
     7
 10
707.3666614983141
 20
389.52862571595261
 30
0.0
 11
687.08289514381613
 21
389.52862571595261
 31
0.0
  0
ARC
  5
190D5
  8
0
 10
671.36666149831433
 20
387.52862571595261
 30
0.0
 40
11.0
 50
270.0
 51
349.19307712513972
  0
ARC
  5
190D6
  8
0
 10
671.36666149831433
 20
387.52862571595261
 30
0.0
 40
11.0
 50
190.80692287486031
 51
270.0
  0
CIRCLE
  5
190D7
  8
AM_0
 10
671.36666149831433
 20
387.52862571595313
 30
0.0
 40
8.5
  0
CIRCLE
  5
190D8
  8
AM_0
 10
671.36666149831433
 20
387.52862571595313
 30
0.0
 40
6.5
  0
POLYLINE
  5
190D9
  8
AM_0
 66
     1
 10
0.0
 20
0.0
 30
0.0
 70
     1
  0
VERTEX
  5
190DA
  8
AM_0
 10
669.6346106907456
 20
390.52862571595261
 30
0.0
  0
VERTEX
  5
190DB
  8
AM_0
 10
667.90255988317665
 20
387.52862571595261
 30
0.0
  0
VERTEX
  5
190DC
  8
AM_0
 10
669.6346106907456
 20
384.52862571595261
 30
0.0
  0
VERTEX
  5
190DD
  8
AM_0
 10
673.09871230588328
 20
384.52862571595261
 30
0.0
  0
VERTEX
  5
190DE
  8
AM_0
 10
674.83076311345212
 20
387.52862571595261
 30
0.0
  0
VERTEX
  5
190DF
  8
AM_0
 10
673.09871230588328
 20
390.52862571595261
 30
0.0
  0
SEQEND
  5
190E0
  8
AM_0
  0
ARC
  5
190E1
  8
0
 10
687.08289514381613
 20
384.52862571595261
 30
0.0
 40
5.0
 50
90.000000000001606
 51
169.19307712513961
1001
GENIUS_GENOBJ-N-FIL_13
1002
{
1000
OWNER
1000
GEN
1002
}
1001
GENIUS_GENODEF_13
1002
{
1000
HIER
1070
     0
1002
}
1002
{
1000
MANEDIT
1070
     0
1002
}
1002
{
1000
NOSEL
1070
     0
1002
}
1002
{
1000
BEHIND
1070
     0
1002
}
1002
{
1000
OTHER
1070
     0
1002
}
1002
{
1000
REACTOR
1002
}
  0
LINE
  5
190E2
  8
0
 10
722.99811927555311
 20
406.40272418031049
 30
0.0
 11
708.24534115475433
 21
391.6499460595121
 31
0.0
  0
LINE
  5
190E3
  8
0
 10
727.24075996267209
 20
402.16008349319111
 30
0.0
 11
712.48798184187376
 21
387.40730537239301
 31
0.0
  0
ARC
  5
190E4
  8
0
 10
736.36666149831422
 20
415.5286257159529
 30
0.0
 40
14.0
 50
161.59151982941691
 51
311.60703510513599
  0
ARC
  5
190E5
  8
0
 10
710.3666614983141
 20
389.52862571595261
 30
0.0
 40
3.0000000000000631
 50
135.0000000000046
 51
315.0000000000046
  0
ARC
  5
190E6
  8
0
 10
734.84392232695643
 20
384.52862571595261
 30
0.0
 40
5.0
 50
346.39104615428528
 51
90.0
1001
GENIUS_GENODEF_13
1002
{
1000
HIER
1070
     0
1002
}
1002
{
1000
MANEDIT
1070
     0
1002
}
1002
{
1000
NOSEL
1070
     0
1002
}
1002
{
1000
BEHIND
1070
     0
1002
}
1002
{
1000
OTHER
1070
     0
1002
}
1002
{
1000
REACTOR
1002
}
1001
GENIUS_GENOBJ-N-FIL_13
1002
{
1000
OWNER
1000
GEN
1002
}
  0
ARC
  5
190E7
  8
0
 10
718.33890512099424
 20
421.52862571595261
 30
0.0
 40
5.0
 50
341.59151982941722
 51
90.0
1001
GENIUS_GENOBJ-N-FIL_13
1002
{
1000
OWNER
1000
GEN
1002
}
1001
GENIUS_GENODEF_13
1002
{
1000
HIER
1070
     0
1002
}
1002
{
1000
MANEDIT
1070
     0
1002
}
1002
{
1000
NOSEL
1070
     0
1002
}
1002
{
1000
BEHIND
1070
     0
1002
}
1002
{
1000
OTHER
1070
     0
1002
}
1002
{
1000
REACTOR
1002
}
  0
ARC
  5
190E8
  8
0
 10
720.87679893199288
 20
408.52404452387032
 30
0.0
 40
3.0
 50
315.0000000000046
 51
24.332683506492181
1001
GENIUS_GENOBJ-N-FIL_13
1002
{
1000
OWNER
1000
GEN
1002
}
1001
GENIUS_GENODEF_13
1002
{
1000
HIER
1070
     0
1002
}
1002
{
1000
MANEDIT
1070
     0
1002
}
1002
{
1000
NOSEL
1070
     0
1002
}
1002
{
1000
BEHIND
1070
     0
1002
}
1002
{
1000
OTHER
1070
     0
1002
}
1002
{
1000
REACTOR
1002
}
  0
CIRCLE
  5
190EA
  8
0
 10
736.36666149831422
 20
415.5286257159529
 30
0.0
 40
7.0
  0
ARC
  5
190EB
  8
0
 10
729.36208030623163
 20
400.03876314963162
 30
0.0
 40
3.0
 50
65.667316493515841
 51
135.0000000000046
1001
GENIUS_GENODEF_13
1002
{
1000
HIER
1070
     0
1002
}
1002
{
1000
MANEDIT
1070
     0
1002
}
1002
{
1000
NOSEL
1070
     0
1002
}
1002
{
1000
BEHIND
1070
     0
1002
}
1002
{
1000
OTHER
1070
     0
1002
}
1002
{
1000
REACTOR
1002
}
1001
GENIUS_GENOBJ-N-FIL_13
1002
{
1000
OWNER
1000
GEN
1002
}
  0
LINE
  5
190F0
  8
AM_0
 10
868.36663485967665
 20
370.25893474882929
 30
0.0
 11
808.54662485848041
 21
370.25893474882929
 31
0.0
  0
LINE
  5
190F1
  8
AM_0
 10
868.36663485967665
 20
395.38894474933198
 30
0.0
 11
808.54662485848041
 21
395.38894474933198
 31
0.0
  0
LINE
  5
190F2
  8
AM_0
 10
923.36663486077725
 20
397.40894474937232
 30
0.0
 11
808.56686448810103
 21
397.40894474937232
 31
0.0
  0
LINE
  5
190F3
  8
AM_0
 10
923.36663486077725
 20
398.76894474939951
 30
0.0
 11
808.56686448291248
 21
398.76894474939951
 31
0.0
  0
LINE
  5
190F4
  8
AM_0
 10
923.36663486077725
 20
399.42894474941278
 30
0.0
 11
808.56686448041012
 21
399.42894474941249
 31
0.0
  0
LINE
  5
190F5
  8
AM_0
 10
902.36663486035673
 20
379.86895474902161
 30
0.0
 11
808.54662485848041
 21
379.86895474902161
 31
0.0
  0
LINE
  5
190F6
  8
AM_0
 10
793.36663485817701
 20
397.52897625404518
 30
0.0
 11
784.24003203039854
 21
397.52897625404518
 31
0.0
  0
LINE
  5
190F7
  8
AM_0
 10
793.36663485817701
 20
370.66896625350802
 30
0.0
 11
783.36663485797658
 21
370.66896625350802
 31
0.0
  0
LINE
  5
190F8
  8
AM_0
 10
793.36663485817701
 20
385.568976253806
 30
0.0
 11
783.36663485797658
 21
385.568976253806
 31
0.0
  0
LINE
  5
190F9
  8
0
 10
753.57873037677371
 20
403.29160463551108
 30
0.0
 11
761.47723287846804
 21
384.86173385644071
 31
0.0
  0
LINE
  5
190FA
  8
0
 10
751.99213116703993
 20
422.22524408881418
 30
0.0
 11
766.9921045262538
 21
387.2252462233335
 31
0.0
  0
LINE
  5
190FB
  8
AM_0
 10
763.43351941835101
 20
395.52862571595261
 30
0.0
 11
778.94813196195003
 21
395.52862571595261
 31
0.0
  0
ARC
  5
190FC
  8
AM_0
 10
751.36663444250212
 20
380.52862767260399
 30
0.0
 40
17.000000451534831
 50
0.0
 51
23.198554934550121
  0
ARC
  5
190FD
  8
AM_0
 10
751.36663444250212
 20
380.52862767260399
 30
0.0
 40
11.000000451534831
 50
0.0
 51
23.198554934550121
  0
ARC
  5
190FE
  8
0
 10
752.36663489403702
 20
379.52862571595261
 30
0.0
 40
10.0
 50
0.0
 51
90.0
1001
GENIUS_GENOBJ-N-FIL_13
1002
{
1000
OWNER
1000
GEN
1002
}
1001
GENIUS_GENODEF_13
1002
{
1000
HIER
1070
     0
1002
}
1002
{
1000
MANEDIT
1070
     0
1002
}
1002
{
1000
NOSEL
1070
     0
1002
}
1002
{
1000
BEHIND
1070
     0
1002
}
1002
{
1000
OTHER
1070
     0
1002
}
1002
{
1000
REACTOR
1002
}
  0
ARC
  5
190FF
  8
AM_0
 10
778.94813196195003
 20
400.52862571595261
 30
0.0
 40
5.0
 50
270.0
 51
311.41341755255212
1001
GENIUS_GENOBJ-N-FIL_13
1002
{
1000
OWNER
1000
GEN
1002
}
1001
GENIUS_GENODEF_13
1002
{
1000
HIER
1070
     0
1002
}
1002
{
1000
MANEDIT
1070
     0
1002
}
1002
{
1000
NOSEL
1070
     0
1002
}
1002
{
1000
BEHIND
1070
     0
1002
}
1002
{
1000
OTHER
1070
     0
1002
}
1002
{
1000
REACTOR
1002
}
  0
ARC
  5
19100
  8
AM_0
 10
784.24003203039854
 20
394.52897625398521
 30
0.0
 40
3.000000000059996
 50
90.0
 51
131.413417552552
1001
GENIUS_GENOBJ-N-FIL_13
1002
{
1000
OWNER
1000
GEN
1002
}
1001
GENIUS_GENODEF_13
1002
{
1000
HIER
1070
     0
1002
}
1002
{
1000
MANEDIT
1070
     0
1002
}
1002
{
1000
NOSEL
1070
     0
1002
}
1002
{
1000
BEHIND
1070
     0
1002
}
1002
{
1000
OTHER
1070
     0
1002
}
1002
{
1000
REACTOR
1002
}
  0
ARC
  5
19101
  8
AM_0
 10
808.55627485817695
 20
396.75195474809448
 30
0.0
 40
2.0170177999999992
 50
90.273699999996154
 51
165.14839999999819
  0
ARC
  5
19102
  8
AM_0
 10
808.55627485817695
 20
397.4119547480945
 30
0.0
 40
2.0170177999999992
 50
90.273699999996154
 51
165.14839999999819
  0
ARC
  5
19103
  8
AM_0
 10
802.02542329586629
 20
386.5489447480947
 30
0.0
 40
2.0
 50
279.8230490397213
 51
344.98570240157858
1001
GENIUS_GENOBJ-N-FIL_13
1002
{
1000
OWNER
1000
GEN
1002
}
1001
GENIUS_GENODEF_13
1002
{
1000
HIER
1070
     0
1002
}
1002
{
1000
MANEDIT
1070
     0
1002
}
1002
{
1000
NOSEL
1070
     0
1002
}
1002
{
1000
BEHIND
1070
     0
1002
}
1002
{
1000
OTHER
1070
     0
1002
}
1002
{
1000
REACTOR
1002
}
  0
LINE
  5
19104
  8
AM_0
 10
806.60662485844182
 20
393.88895474930212
 30
0.0
 11
803.87081485838746
 21
383.68895474909777
 31
0.0
  0
LINE
  5
19105
  8
AM_0
 10
803.36663485837664
 20
383.98894474910378
 30
0.0
 11
802.36663485835675
 21
383.98894474910378
 31
0.0
  0
LINE
  5
19106
  8
AM_0
 10
803.36663485837664
 20
376.38894474895187
 30
0.0
 11
802.36663485835675
 21
376.38894474895187
 31
0.0
  0
LINE
  5
19107
  8
AM_0
 10
802.36663485835675
 20
379.41158474901232
 30
0.0
 11
803.36663485837664
 21
379.98891474902399
 31
0.0
  0
LINE
  5
19108
  8
AM_0
 10
808.54662485848041
 20
370.25893474882929
 30
0.0
 11
802.36663506009722
 21
370.25893474882929
 31
0.0
  0
ARC
  5
19109
  8
AM_0
 10
801.70577485834383
 20
381.35573474905118
 30
0.0
 40
1.486805900029734
 50
296.38977999999901
 51
345.71726000000092
  0
LINE
  5
1910A
  8
AM_0
 10
802.36663485835675
 20
380.41158474903227
 30
0.0
 11
803.36663485837664
 21
380.98894474904398
 31
0.0
  0
LINE
  5
1910B
  8
AM_0
 10
802.36663485835675
 20
376.38894474895187
 30
0.0
 11
802.36663485835675
 21
383.98894474910378
 31
0.0
  0
LINE
  5
1910C
  8
0
  6
CONTINUOUS
 62
     7
 10
801.36663485817644
 20
370.66893451318202
 30
0.0
 11
793.36663485817701
 21
370.66893451318202
 31
0.0
  0
LINE
  5
1910D
  8
AM_0
 10
803.36663485837664
 20
383.68894474909791
 30
0.0
 11
804.26663485839492
 21
383.68894474909791
 31
0.0
  0
ARC
  5
1910E
  8
AM_0
 10
804.26663485839492
 20
381.98894474906388
 30
0.0
 40
1.700000800033999
 50
0.0000100000009905
 51
89.999979999997976
  0
LINE
  5
1910F
  8
AM_0
 10
808.54662485848041
 20
379.86895474902161
 30
0.0
 11
805.96661485842856
 21
379.86895474902161
 31
0.0
  0
LINE
  5
19110
  8
AM_0
 10
803.36663485837664
 20
376.688954748958
 30
0.0
 11
804.26663485839492
 21
376.688954748958
 31
0.0
  0
ARC
  5
19111
  8
AM_0
 10
804.26663485839492
 20
378.388944748992
 30
0.0
 40
1.6999969000339981
 50
270.00000299999761
 51
359.99998000000448
  0
LINE
  5
19112
  8
AM_0
 10
805.96661485842856
 20
378.388944748992
 30
0.0
 11
805.96661485842856
 21
381.98894474906388
 31
0.0
  0
LINE
  5
19113
  8
AM_0
 10
803.36663485837664
 20
376.38894474895187
 30
0.0
 11
803.36663485837664
 21
383.98894474910378
 31
0.0
  0
ARC
  5
19114
  8
AM_0
 10
801.35754485833695
 20
396.51986474935478
 30
0.0
 40
1.0091312000201811
 50
0.5161299999996111
 51
89.483870000000422
  0
ARC
  5
19115
  8
AM_0
 10
801.35821485833674
 20
384.56054474911519
 30
0.0
 40
1.0084445000201681
 50
9.5460700000028318
 51
89.522200000000367
  0
LINE
  5
19116
  8
AM_0
 10
804.10147850934356
 20
384.5489447480943
 30
0.0
 11
802.36663508956724
 21
384.5489447480947
 31
0.0
  0
LINE
  5
19117
  8
AM_0
 10
805.56057717601016
 20
394.02894474809449
 30
0.0
 11
802.36663510923711
 21
394.02894474809449
 31
0.0
  0
LINE
  5
19118
  8
0
  6
CONTINUOUS
 62
     7
 10
801.36663485817644
 20
397.52894451318213
 30
0.0
 11
793.36663485817701
 21
397.52894451318213
 31
0.0
  0
LINE
  5
19119
  8
0
  6
CONTINUOUS
 62
     7
 10
801.36663485817644
 20
385.56894451318232
 30
0.0
 11
793.36663485817701
 21
385.56894451318232
 31
0.0
  0
ARC
  5
1911A
  8
AM_0
 10
808.55627485817695
 20
395.39195474809441
 30
0.0
 40
2.0170177999999992
 50
90.273699999996154
 51
165.14839999999819
  0
ARC
  5
1911B
  8
AM_0
 10
808.55627485848072
 20
393.37195474929172
 30
0.0
 40
2.0170178000403389
 50
90.273699999996154
 51
165.14839999999819
  0
LINE
  5
1911C
  8
AM_0
 10
806.60662485817716
 20
397.92895474809433
 30
0.0
 11
805.05147239896814
 21
392.13083459942601
 31
0.0
  0
LINE
  5
1911D
  8
AM_0
 10
804.83103052484375
 20
390.64895474809452
 30
0.0
 11
803.11974997803316
 21
390.64895474809452
 31
0.0
  0
LINE
  5
1911E
  8
AM_0
 10
804.64864050934352
 20
388.60894474809447
 30
0.0
 11
802.74960829586655
 21
388.60894474809447
 31
0.0
  0
LINE
  5
1911F
  8
AM_0
 10
806.60662485817716
 20
395.90895474809429
 30
0.0
 11
803.95714571680151
 21
386.0308245994259
 31
0.0
  0
LINE
  5
19120
  8
AM_0
 10
806.60662485817716
 20
397.26895474809442
 30
0.0
 11
804.68133071680131
 21
390.0908245994259
 31
0.0
  0
ARC
  5
19121
  8
AM_0
 10
802.74960829586655
 20
390.6089447480943
 30
0.0
 40
2.0
 50
270.0
 51
344.98570240157858
1001
GENIUS_GENODEF_13
1002
{
1000
HIER
1070
     0
1002
}
1002
{
1000
MANEDIT
1070
     0
1002
}
1002
{
1000
NOSEL
1070
     0
1002
}
1002
{
1000
BEHIND
1070
     0
1002
}
1002
{
1000
OTHER
1070
     0
1002
}
1002
{
1000
REACTOR
1002
}
1001
GENIUS_GENOBJ-N-FIL_13
1002
{
1000
OWNER
1000
GEN
1002
}
  0
ARC
  5
19122
  8
AM_0
 10
803.11974997803316
 20
392.64895474809452
 30
0.0
 40
2.0
 50
270.0
 51
344.98570240157858
1001
GENIUS_GENOBJ-N-FIL_13
1002
{
1000
OWNER
1000
GEN
1002
}
1001
GENIUS_GENODEF_13
1002
{
1000
HIER
1070
     0
1002
}
1002
{
1000
MANEDIT
1070
     0
1002
}
1002
{
1000
NOSEL
1070
     0
1002
}
1002
{
1000
BEHIND
1070
     0
1002
}
1002
{
1000
OTHER
1070
     0
1002
}
1002
{
1000
REACTOR
1002
}
  0
LINE
  5
19123
  8
AM_0
 10
923.36663486077725
 20
395.38894474933181
 30
0.0
 11
868.36663485967665
 21
395.38894474933198
 31
0.0
  0
LINE
  5
19162
  8
AM_0
 10
948.36663486127702
 20
390.90668107933482
 30
0.0
 11
943.52664486118044
 21
391.00893474924419
 31
0.0
  0
LINE
  5
19163
  8
AM_0
 10
948.36663486127702
 20
381.86895474906152
 30
0.0
 11
938.36663486107705
 21
381.86895474906152
 31
0.0
  0
LINE
  5
19164
  8
AM_0
 10
948.36663486127702
 20
376.20894474894828
 30
0.0
 11
938.36663486107705
 21
376.20894474894828
 31
0.0
  0
ARC
  5
19165
  8
AM_0
 10
944.57546486120054
 20
386.0478947491452
 30
0.0
 40
1.498966200029979
 50
191.50367599999851
 51
269.6615320000073
  0
LINE
  5
19166
  8
AM_0
 10
942.62661486116167
 20
381.86895474906152
 30
0.0
 11
942.10662486115154
 21
384.84894474912107
 31
0.0
  0
ARC
  5
19167
  8
AM_0
 10
938.72723486108418
 20
371.1683947488475
 30
0.0
 40
6.0113902001202257
 50
93.439149999994356
 51
134.59596000000829
  0
ARC
  5
19168
  8
AM_0
 10
935.21639486101378
 20
374.72652474891851
 30
0.0
 40
1.0127641000202541
 50
134.4946600000055
 51
184.39325279999781
  0
LINE
  5
19169
  8
AM_0
 10
938.36663486107705
 20
373.0289547488847
 30
0.0
 11
938.36663486107682
 21
370.24895474882902
 31
0.0
  0
LINE
  5
1916A
  8
AM_0
 10
938.36663486107705
 20
381.86895474906152
 30
0.0
 11
938.36663486107682
 21
370.25893474882929
 31
0.0
  0
LINE
  5
1916B
  8
AM_0
 10
940.24661486111449
 20
396.82894474936069
 30
0.0
 11
926.74661486084472
 21
396.82894474936069
 31
0.0
  0
LINE
  5
1916C
  8
AM_0
 10
940.22662486111415
 20
395.18894474932779
 30
0.0
 11
926.86663486084672
 21
395.18894474932779
 31
0.0
  0
LINE
  5
1916D
  8
AM_0
 10
940.18661486111353
 20
391.7889547492598
 30
0.0
 11
926.86663486084672
 21
391.7889547492598
 31
0.0
  0
LINE
  5
1916E
  8
AM_0
 10
940.1266148611121
 20
386.50895474915433
 30
0.0
 11
926.86663486084672
 21
386.50895474915433
 31
0.0
  0
ARC
  5
1916F
  8
AM_0
 10
926.7347048608442
 20
398.32500474939047
 30
0.0
 40
1.4961157000299199
 50
194.55818600000069
 51
270.45650500000249
  0
ARC
  5
19170
  8
AM_0
 10
926.86047486084669
 20
393.28278474928982
 30
0.0
 40
1.493850200029875
 50
179.7636399999989
 51
270.23636099999129
  0
ARC
  5
19171
  8
AM_0
 10
926.85931486084655
 20
388.00164474918421
 30
0.0
 40
1.492715800029853
 50
179.7197199999994
 51
270.28027900000671
  0
ARC
  5
19172
  8
AM_0
 10
926.86248486084673
 20
396.68482474935792
 30
0.0
 40
1.4958795000299161
 50
179.8419600000008
 51
270.15804599999137
  0
LINE
  5
19173
  8
AM_0
 10
925.36663486081682
 20
395.40894474933231
 30
0.0
 11
925.36663486081682
 21
388.00895474918428
 31
0.0
  0
ARC
  5
19174
  8
AM_0
 10
940.2393448611142
 20
394.82161474932042
 30
0.0
 40
2.007332600040145
 50
14.05006000000181
 51
89.792179999998822
  0
LINE
  5
19175
  8
AM_0
 10
944.52661486120007
 20
390.64895474923691
 30
0.0
 11
942.88662486116721
 21
390.64895474923691
 31
0.0
  0
LINE
  5
19176
  8
AM_0
 10
944.56661486120072
 20
384.54894474911492
 30
0.0
 11
942.14663486115251
 21
384.54894474911492
 31
0.0
  0
ARC
  5
19177
  8
AM_0
 10
944.55029486120065
 20
390.11234474922628
 30
0.0
 40
1.503407400030067
 50
193.20385600000469
 51
269.86041400000028
  0
LINE
  5
19178
  8
AM_0
 10
944.54662486120014
 20
388.60894474919633
 30
0.0
 11
942.48663486115925
 21
388.60894474919633
 31
0.0
  0
ARC
  5
19179
  8
AM_0
 10
944.51678486119965
 20
392.14771474926692
 30
0.0
 40
1.498799000029974
 50
194.63813500000211
 51
270.3765580000034
  0
LINE
  5
1917A
  8
AM_0
 10
942.14660486115235
 20
390.20893474922832
 30
0.0
 11
943.10662486117155
 21
385.74894474913913
 31
0.0
  0
ARC
  5
1917B
  8
AM_0
 10
940.13021486111211
 20
384.50239474911422
 30
0.0
 40
2.0065660000401291
 50
9.9456799999998662
 51
90.102469999995733
  0
LINE
  5
1917C
  8
AM_0
 10
942.16662486115274
 20
393.6489547492971
 30
0.0
 11
943.08660486117128
 21
389.76894474921949
 31
0.0
  0
ARC
  5
1917D
  8
AM_0
 10
940.18752486111316
 20
389.78437474921958
 30
0.0
 40
2.0045698000400902
 50
12.22791000000317
 51
90.025959999996459
  0
LINE
  5
1917E
  8
AM_0
 10
942.18661486115354
 20
395.30892474933017
 30
0.0
 11
943.06661486117105
 21
391.76893474925942
 31
0.0
  0
ARC
  5
1917F
  8
AM_0
 10
940.220334861114
 20
393.18906474928781
 30
0.0
 40
1.9998909000399949
 50
13.29430000000143
 51
89.819579999998567
  0
ARC
  5
19180
  8
AM_0
 10
953.35946486137664
 20
381.53875474905487
 30
0.0
 40
1.007194200020143
 50
359.44232
 51
59.766580000002023
  0
LINE
  5
19181
  8
AM_0
 10
952.56661486136068
 20
382.00895474906417
 30
0.0
 11
953.80660486138561
 21
381.38897474905173
 31
0.0
  0
ARC
  5
19182
  8
AM_0
 10
952.07311486135063
 20
380.15783474902719
 30
0.0
 40
1.011208500020224
 50
59.481189999987812
 51
89.234310000002381
  0
LINE
  5
19183
  8
AM_0
 10
952.58663486136163
 20
383.12894474908683
 30
0.0
 11
953.86660486138669
 21
382.40896474907231
 31
0.0
  0
LINE
  5
19184
  8
AM_0
 10
952.36663486135706
 20
383.0089547490843
 30
0.0
 11
952.36663486135706
 21
382.48894474907382
 31
0.0
  0
ARC
  5
19185
  8
AM_0
 10
952.08904486135134
 20
381.12450474904648
 30
0.0
 40
1.005138300020102
 50
61.632060000003641
 51
87.857709999999443
  0
ARC
  5
19186
  8
AM_0
 10
952.07574486135104
 20
382.26719474906918
 30
0.0
 40
1.001808000020036
 50
59.338330000003559
 51
89.377179999996088
  0
ARC
  5
19187
  8
AM_0
 10
948.8729848612868
 20
381.62258474905661
 30
0.0
 40
0.506400760010128
 50
90.719699999998198
 51
179.28029999999521
  0
ARC
  5
19188
  8
AM_0
 10
948.86227486128655
 20
383.76459474909927
 30
0.0
 40
0.4956644500099134
 50
179.49662000000041
 51
270.5033810000005
  0
LINE
  5
19189
  8
AM_0
 10
952.12661486135198
 20
382.1289447490667
 30
0.0
 11
948.8666348612868
 21
382.1289447490667
 31
0.0
  0
LINE
  5
1918A
  8
AM_0
 10
952.08663486135117
 20
383.26894474908971
 30
0.0
 11
948.8666348612868
 21
383.26894474908971
 31
0.0
  0
LINE
  5
1918B
  8
AM_0
 10
952.08663486135117
 20
381.16893474904742
 30
0.0
 11
948.36663486127702
 21
381.16893474904742
 31
0.0
  0
LINE
  5
1918C
  8
AM_0
 10
952.10662486135163
 20
380.02895474902482
 30
0.0
 11
949.36663486129669
 21
380.02895474902482
 31
0.0
  0
ARC
  5
1918D
  8
AM_0
 10
952.10833486135152
 20
379.01574474900428
 30
0.0
 40
1.0131912000202621
 50
61.831239999999241
 51
90.096279999999354
  0
LINE
  5
1918E
  8
AM_0
 10
952.60662486136164
 20
376.48891474895379
 30
0.0
 11
953.9066448613878
 21
375.62893474893679
 31
0.0
  0
LINE
  5
1918F
  8
AM_0
 10
952.36663486135706
 20
376.34893474895102
 30
0.0
 11
952.36663486135706
 21
375.86895474894152
 31
0.0
  0
LINE
  5
19190
  8
AM_0
 10
952.08663486135117
 20
375.50893474893428
 30
0.0
 11
949.36663486129669
 21
375.50893474893428
 31
0.0
  0
ARC
  5
19191
  8
AM_0
 10
953.36489486137702
 20
374.78634474891982
 30
0.0
 40
1.001733900020034
 50
0.1495400000039063
 51
57.262369999995776
  0
ARC
  5
19192
  8
AM_0
 10
953.36108486137675
 20
373.7596647488993
 30
0.0
 40
1.00559290002011
 50
0.5283799999988892
 51
59.818669999992579
  0
LINE
  5
19193
  8
AM_0
 10
952.58663486136163
 20
375.36895474893163
 30
0.0
 11
953.86663486138696
 21
374.62893474891678
 31
0.0
  0
ARC
  5
19194
  8
AM_0
 10
952.07437486135075
 20
374.50228474891418
 30
0.0
 40
1.0067360000201351
 50
59.413569999998458
 51
89.301940000005473
  0
ARC
  5
19195
  8
AM_0
 10
953.36163486137696
 20
378.35793474899123
 30
0.0
 40
1.0050608000201
 50
0.6283999999989876
 51
62.441190000004852
  0
ARC
  5
19196
  8
AM_0
 10
952.0609748613507
 20
375.63863474893679
 30
0.0
 40
1.0103180000202041
 50
57.311419999993312
 51
89.67986000000522
  0
ARC
  5
19197
  8
AM_0
 10
953.36764486137724
 20
379.38350474901182
 30
0.0
 40
0.99898326001998
 50
0.3123899999989826
 51
60.034640000004039
  0
LINE
  5
19198
  8
AM_0
 10
952.58660486136159
 20
379.90896474902229
 30
0.0
 11
953.82662486138634
 21
379.24892474900889
 31
0.0
  0
ARC
  5
19199
  8
AM_0
 10
949.37203486129715
 20
374.50353474891432
 30
0.0
 40
1.005422700020107
 50
90.308189999990162
 51
179.69180999999671
  0
LINE
  5
1919A
  8
AM_0
 10
952.06661486135124
 20
376.6489547489569
 30
0.0
 11
948.36663486127702
 21
376.6489547489569
 31
0.0
  0
ARC
  5
1919B
  8
AM_0
 10
949.37368486129662
 20
379.02187474900438
 30
0.0
 40
1.0070832000201411
 50
90.401579999998404
 51
179.5984200000016
  0
ARC
  5
1919C
  8
AM_0
 10
953.36358486137681
 20
380.48903474903398
 30
0.0
 40
1.0030519000200611
 50
359.99423000000229
 51
63.787349999991029
  0
LINE
  5
1919D
  8
AM_0
 10
952.58663486136163
 20
381.02892474904468
 30
0.0
 11
953.86660486138669
 21
380.248954749029
 31
0.0
  0
LINE
  5
1919E
  8
AM_0
 10
952.36663486135706
 20
380.90896474904201
 30
0.0
 11
952.36663486135706
 21
380.3689547490315
 31
0.0
  0
LINE
  5
19503
  8
AM_0
 10
351.12410840180041
 20
396.12206665834219
 30
0.0
 11
376.12410840180041
 21
396.12206665834219
 31
0.0
  0
LINE
  5
19504
  8
AM_0
 10
351.12410840180041
 20
234.93518477356329
 30
0.0
 11
376.12410840180041
 21
234.93518477356329
 31
0.0
  0
LINE
  5
197B5
  8
AM_0
 10
340.1241103104291
 20
514.80893380585883
 30
0.0
 11
340.1241103104291
 21
501.40531435030641
 31
0.0
  0
LINE
  5
197B6
  8
AM_0
 10
212.12410649317169
 20
514.80893380585883
 30
0.0
 11
212.12410649317181
 21
500.84833076846832
 31
0.0
  0
POLYLINE
  5
197B7
  8
AM_4
 66
     1
 10
0.0
 20
0.0
 30
0.0
  0
VERTEX
  5
197B8
  8
AM_4
 10
340.1241103104291
 20
501.40531435030641
 30
0.0
  0
VERTEX
  5
197B9
  8
AM_4
 10
339.63233983757721
 20
501.4781767665105
 30
0.0
  0
VERTEX
  5
197BA
  8
AM_4
 10
338.13081807606972
 20
501.85238585740541
 30
0.0
  0
VERTEX
  5
197BB
  8
AM_4
 10
337.01059403120598
 20
502.28166936746783
 30
0.0
  0
VERTEX
  5
197BC
  8
AM_4
 10
336.15688931286201
 20
502.74286364259513
 30
0.0
  0
VERTEX
  5
197BD
  8
AM_4
 10
335.4549255309127
 20
503.21280502868422
 30
0.0
  0
VERTEX
  5
197BE
  8
AM_4
 10
334.7899242952335
 20
503.66832987163212
 30
0.0
  0
VERTEX
  5
197BF
  8
AM_4
 10
334.07018177812409
 20
504.09210592685048
 30
0.0
  0
VERTEX
  5
197C0
  8
AM_4
 10
333.29629240157982
 20
504.49012658781169
 30
0.0
  0
VERTEX
  5
197C1
  8
AM_4
 10
332.49192515002051
 20
504.87421665750162
 30
0.0
  0
VERTEX
  5
197C2
  8
AM_4
 10
331.6807490078657
 20
505.256200938907
 30
0.0
  0
VERTEX
  5
197C3
  8
AM_4
 10
330.886432959535
 20
505.64790423501501
 30
0.0
  0
VERTEX
  5
197C4
  8
AM_4
 10
330.13264598944818
 20
506.06115134881128
 30
0.0
  0
VERTEX
  5
197C5
  8
AM_4
 10
329.44305708202501
 20
506.50776708328323
 30
0.0
  0
VERTEX
  5
197C6
  8
AM_4
 10
328.84133522168497
 20
506.999576241417
 30
0.0
  0
VERTEX
  5
197C7
  8
AM_4
 10
328.34185472327192
 20
507.5446510062763
 30
0.0
  0
VERTEX
  5
197C8
  8
AM_4
 10
327.92181122332659
 20
508.13605308123351
 30
0.0
  0
VERTEX
  5
197C9
  8
AM_4
 10
327.54910568881388
 20
508.76309154973779
 30
0.0
  0
VERTEX
  5
197CA
  8
AM_4
 10
327.19163908669918
 20
509.41507549523851
 30
0.0
  0
VERTEX
  5
197CB
  8
AM_4
 10
326.81731238394701
 20
510.08131400118469
 30
0.0
  0
VERTEX
  5
197CC
  8
AM_4
 10
326.39402654752251
 20
510.75111615102583
 30
0.0
  0
VERTEX
  5
197CD
  8
AM_4
 10
325.88968254439038
 20
511.41379102821139
 30
0.0
  0
VERTEX
  5
197CE
  8
AM_4
 10
325.2721813415161
 20
512.05864771619031
 30
0.0
  0
VERTEX
  5
197CF
  8
AM_4
 10
324.51785395504749
 20
512.67515728173805
 30
0.0
  0
VERTEX
  5
197D0
  8
AM_4
 10
323.63675159786533
 20
513.25343872493465
 30
0.0
  0
VERTEX
  5
197D1
  8
AM_4
 10
322.6473555320332
 20
513.78377302918625
 30
0.0
  0
VERTEX
  5
197D2
  8
AM_4
 10
321.56814701961508
 20
514.25644117789875
 30
0.0
  0
VERTEX
  5
197D3
  8
AM_4
 10
320.41760732267483
 20
514.66172415447875
 30
0.0
  0
VERTEX
  5
197D4
  8
AM_4
 10
319.21421770327601
 20
514.98990294233181
 30
0.0
  0
VERTEX
  5
197D5
  8
AM_4
 10
317.9764594234822
 20
515.23125852486385
 30
0.0
  0
VERTEX
  5
197D6
  8
AM_4
 10
316.72281374535771
 20
515.37607188548157
 30
0.0
  0
VERTEX
  5
197D7
  8
AM_4
 10
315.46797921642877
 20
515.4207793840734
 30
0.0
  0
VERTEX
  5
197D8
  8
AM_4
 10
314.21152352607362
 20
515.38643888645754
 30
0.0
  0
VERTEX
  5
197D9
  8
AM_4
 10
312.94923164913251
 20
515.30026363493562
 30
0.0
  0
VERTEX
  5
197DA
  8
AM_4
 10
311.67688856044617
 20
515.18946687180812
 30
0.0
  0
VERTEX
  5
197DB
  8
AM_4
 10
310.39027923485548
 20
515.08126183937645
 30
0.0
  0
VERTEX
  5
197DC
  8
AM_4
 10
309.08518864720111
 20
515.00286177994201
 30
0.0
  0
VERTEX
  5
197DD
  8
AM_4
 10
307.75740177232359
 20
514.98147993580505
 30
0.0
  0
VERTEX
  5
197DE
  8
AM_4
 10
306.40270358506342
 20
515.04432954926756
 30
0.0
  0
VERTEX
  5
197DF
  8
AM_4
 10
305.01990304533399
 20
515.20872320703279
 30
0.0
  0
VERTEX
  5
197E0
  8
AM_4
 10
303.61990505333853
 20
515.45237087341445
 30
0.0
  0
VERTEX
  5
197E1
  8
AM_4
 10
302.21663849435242
 20
515.74308185712937
 30
0.0
  0
VERTEX
  5
197E2
  8
AM_4
 10
300.82403225365141
 20
516.04866546689379
 30
0.0
  0
VERTEX
  5
197E3
  8
AM_4
 10
299.45601521651088
 20
516.33693101142455
 30
0.0
  0
VERTEX
  5
197E4
  8
AM_4
 10
298.12651626820661
 20
516.57568779943801
 30
0.0
  0
VERTEX
  5
197E5
  8
AM_4
 10
296.84946429401418
 20
516.73274513965055
 30
0.0
  0
VERTEX
  5
197E6
  8
AM_4
 10
295.6387881792092
 20
516.77591234077863
 30
0.0
  0
VERTEX
  5
197E7
  8
AM_4
 10
294.49907684615482
 20
516.68447018527206
 30
0.0
  0
VERTEX
  5
197E8
  8
AM_4
 10
293.39755936556332
 20
516.48358535051284
 30
0.0
  0
VERTEX
  5
197E9
  8
AM_4
 10
292.29212484523492
 20
516.20989598761594
 30
0.0
  0
VERTEX
  5
197EA
  8
AM_4
 10
291.14066239296972
 20
515.90004024769632
 30
0.0
  0
VERTEX
  5
197EB
  8
AM_4
 10
289.9010611165678
 20
515.59065628186897
 30
0.0
  0
VERTEX
  5
197EC
  8
AM_4
 10
288.53121012382888
 20
515.3183822412492
 30
0.0
  0
VERTEX
  5
197ED
  8
AM_4
 10
286.98899852255317
 20
515.11985627695162
 30
0.0
  0
VERTEX
  5
197EE
  8
AM_4
 10
285.23231542054111
 20
515.03171654009179
 30
0.0
  0
VERTEX
  5
197EF
  8
AM_4
 10
283.23330206274511
 20
515.07861953884526
 30
0.0
  0
VERTEX
  5
197F0
  8
AM_4
 10
281.02110824273012
 20
515.2372952096332
 30
0.0
  0
VERTEX
  5
197F1
  8
AM_4
 10
278.63913589121393
 20
515.47249184593625
 30
0.0
  0
VERTEX
  5
197F2
  8
AM_4
 10
276.13078693891413
 20
515.74895774123615
 30
0.0
  0
VERTEX
  5
197F3
  8
AM_4
 10
273.53946331654879
 20
516.03144118901423
 30
0.0
  0
VERTEX
  5
197F4
  8
AM_4
 10
270.90856695483518
 20
516.28469048275156
 30
0.0
  0
VERTEX
  5
197F5
  8
AM_4
 10
268.28149978449147
 20
516.47345391593035
 30
0.0
  0
VERTEX
  5
197F6
  8
AM_4
 10
265.7016637362351
 20
516.56247978203112
 30
0.0
  0
VERTEX
  5
197F7
  8
AM_4
 10
263.20523221935002
 20
516.52798145885731
 30
0.0
  0
VERTEX
  5
197F8
  8
AM_4
 10
260.79946455738491
 20
516.39203266149786
 30
0.0
  0
VERTEX
  5
197F9
  8
AM_4
 10
258.48439155245461
 20
516.18817218936442
 30
0.0
  0
VERTEX
  5
197FA
  8
AM_4
 10
256.2600440066737
 20
515.94993884186761
 30
0.0
  0
VERTEX
  5
197FB
  8
AM_4
 10
254.12645272215721
 20
515.71087141841815
 30
0.0
  0
VERTEX
  5
197FC
  8
AM_4
 10
252.08364850101961
 20
515.50450871842725
 30
0.0
  0
VERTEX
  5
197FD
  8
AM_4
 10
250.13166214537631
 20
515.36438954130574
 30
0.0
  0
VERTEX
  5
197FE
  8
AM_4
 10
248.27052445734151
 20
515.32405268646471
 30
0.0
  0
VERTEX
  5
197FF
  8
AM_4
 10
246.49923142094249
 20
515.40571502712373
 30
0.0
  0
VERTEX
  5
19800
  8
AM_4
 10
244.8126397478556
 20
515.58630573173764
 30
0.0
  0
VERTEX
  5
19801
  8
AM_4
 10
243.20457133166889
 20
515.83143204256999
 30
0.0
  0
VERTEX
  5
19802
  8
AM_4
 10
241.6688480659713
 20
516.10670120188445
 30
0.0
  0
VERTEX
  5
19803
  8
AM_4
 10
240.19929184435131
 20
516.37772045194481
 30
0.0
  0
VERTEX
  5
19804
  8
AM_4
 10
238.78972456039719
 20
516.61009703501395
 30
0.0
  0
VERTEX
  5
19805
  8
AM_4
 10
237.4339681076975
 20
516.76943819335634
 30
0.0
  0
VERTEX
  5
19806
  8
AM_4
 10
236.12584437984069
 20
516.82135116923484
 30
0.0
  0
VERTEX
  5
19807
  8
AM_4
 10
234.8612326742018
 20
516.7391580322751
 30
0.0
  0
VERTEX
  5
19808
  8
AM_4
 10
233.644241903302
 20
516.52704016154883
 30
0.0
  0
VERTEX
  5
19809
  8
AM_4
 10
232.48103838344881
 20
516.19689376348981
 30
0.0
  0
VERTEX
  5
1980A
  8
AM_4
 10
231.37778843095009
 20
515.76061504453151
 30
0.0
  0
VERTEX
  5
1980B
  8
AM_4
 10
230.3406583621132
 20
515.23010021110736
 30
0.0
  0
VERTEX
  5
1980C
  8
AM_4
 10
229.37581449324591
 20
514.61724546965138
 30
0.0
  0
VERTEX
  5
1980D
  8
AM_4
 10
228.4894231406557
 20
513.9339470265968
 30
0.0
  0
VERTEX
  5
1980E
  8
AM_4
 10
227.6876506206504
 20
513.19210108837774
 30
0.0
  0
VERTEX
  5
1980F
  8
AM_4
 10
226.97309570808659
 20
512.40464485467965
 30
0.0
  0
VERTEX
  5
19810
  8
AM_4
 10
226.33408701201759
 20
511.5886794981987
 30
0.0
  0
VERTEX
  5
19811
  8
AM_4
 10
225.75538560004551
 20
510.76234718488257
 30
0.0
  0
VERTEX
  5
19812
  8
AM_4
 10
225.22175253977269
 20
509.94379008068
 30
0.0
  0
VERTEX
  5
19813
  8
AM_4
 10
224.71794889880161
 20
509.15115035153877
 30
0.0
  0
VERTEX
  5
19814
  8
AM_4
 10
224.22873574473431
 20
508.40257016340718
 30
0.0
  0
VERTEX
  5
19815
  8
AM_4
 10
223.7388741451731
 20
507.71619168223322
 30
0.0
  0
VERTEX
  5
19816
  8
AM_4
 10
223.23312516772049
 20
507.11015707396513
 30
0.0
  0
VERTEX
  5
19817
  8
AM_4
 10
222.70070807759171
 20
506.59602117058779
 30
0.0
  0
VERTEX
  5
19818
  8
AM_4
 10
222.14867493045529
 20
506.15898946823359
 30
0.0
  0
VERTEX
  5
19819
  8
AM_4
 10
221.58853597959319
 20
505.77768012907228
 30
0.0
  0
VERTEX
  5
1981A
  8
AM_4
 10
221.03180147828701
 20
505.43071131527222
 30
0.0
  0
VERTEX
  5
1981B
  8
AM_4
 10
220.4899816798185
 20
505.09670118900277
 30
0.0
  0
VERTEX
  5
1981C
  8
AM_4
 10
219.9745868374693
 20
504.75426791243342
 30
0.0
  0
VERTEX
  5
1981D
  8
AM_4
 10
219.49712720452141
 20
504.38202964773279
 30
0.0
  0
VERTEX
  5
1981E
  8
AM_4
 10
219.06911303425639
 20
503.95860455707071
 30
0.0
  0
VERTEX
  5
1981F
  8
AM_4
 10
218.68346524137201
 20
503.47157389586488
 30
0.0
  0
VERTEX
  5
19820
  8
AM_4
 10
218.25874738623131
 20
502.94437129253117
 30
0.0
  0
VERTEX
  5
19821
  8
AM_4
 10
217.6949336906132
 20
502.40939346873353
 30
0.0
  0
VERTEX
  5
19822
  8
AM_4
 10
216.8919983762965
 20
501.89903714613632
 30
0.0
  0
VERTEX
  5
19823
  8
AM_4
 10
215.74991566506009
 20
501.44569904640429
 30
0.0
  0
VERTEX
  5
19824
  8
AM_4
 10
214.16865977868321
 20
501.08177589120157
 30
0.0
  0
VERTEX
  5
19825
  8
AM_4
 10
212.12410649317181
 20
500.84833076846832
 30
0.0
  0
SEQEND
  5
19826
  8
AM_4
  0
LINE
  5
19827
  8
ﾁｭｳｼﾝｾﾝ1
 10
350.12411045954047
 20
539.80943455143222
 30
0.0
 11
202.12410634406001
 21
539.80943455143233
 31
0.0
  0
LINE
  5
19828
  8
AM_0
 10
231.47411244757561
 20
557.30943836612937
 30
0.0
 11
210.12410634406001
 21
557.30943836612937
 31
0.0
  0
LINE
  5
19829
  8
AM_0
 10
231.47411244757561
 20
522.30943836612948
 30
0.0
 11
210.12410634406001
 21
522.30943836612948
 31
0.0
  0
LINE
  5
1982A
  8
AM_0
 10
345.12410634406001
 20
560.50941852970379
 30
0.0
 11
207.12410634406001
 21
560.50941852970379
 31
0.0
  0
LINE
  5
1982B
  8
AM_0
 10
221.12410649317169
 20
573.8094345514321
 30
0.0
 11
212.12410649317169
 21
573.8094345514321
 31
0.0
  0
LINE
  5
1982C
  8
AM_0
 10
212.12410649317169
 20
573.8094345514321
 30
0.0
 11
221.12410649317169
 21
564.80993529700538
 31
0.0
  0
LINE
  5
1982D
  8
AM_0
 10
221.12410649317169
 20
573.8094345514321
 30
0.0
 11
212.12410649317169
 21
564.80993529700538
 31
0.0
  0
LINE
  5
1982E
  8
AM_0
 10
229.67759777631861
 20
564.80993529700538
 30
0.0
 11
207.12410634406001
 21
564.80993529700538
 31
0.0
  0
POLYLINE
  5
1982F
  8
AM_4
 66
     1
 10
0.0
 20
0.0
 30
0.0
  0
VERTEX
  5
19830
  8
AM_4
 10
340.1241103104291
 20
578.21355475255803
 30
0.0
  0
VERTEX
  5
19831
  8
AM_4
 10
339.63233983757721
 20
578.1406923363536
 30
0.0
  0
VERTEX
  5
19832
  8
AM_4
 10
338.13081807606972
 20
577.76648324545909
 30
0.0
  0
VERTEX
  5
19833
  8
AM_4
 10
337.01059403120598
 20
577.33719973539655
 30
0.0
  0
VERTEX
  5
19834
  8
AM_4
 10
336.15688931286201
 20
576.8760054602692
 30
0.0
  0
VERTEX
  5
19835
  8
AM_4
 10
335.4549255309127
 20
576.40606407418011
 30
0.0
  0
VERTEX
  5
19836
  8
AM_4
 10
334.7899242952335
 20
575.95053923123226
 30
0.0
  0
VERTEX
  5
19837
  8
AM_4
 10
334.07018177812409
 20
575.52676317601356
 30
0.0
  0
VERTEX
  5
19838
  8
AM_4
 10
333.29629240157982
 20
575.12874251505264
 30
0.0
  0
VERTEX
  5
19839
  8
AM_4
 10
332.49192515002051
 20
574.74465244536282
 30
0.0
  0
VERTEX
  5
1983A
  8
AM_4
 10
331.6807490078657
 20
574.3626681639571
 30
0.0
  0
VERTEX
  5
1983B
  8
AM_4
 10
330.886432959535
 20
573.97096486784915
 30
0.0
  0
VERTEX
  5
1983C
  8
AM_4
 10
330.13264598944818
 20
573.55771775405287
 30
0.0
  0
VERTEX
  5
1983D
  8
AM_4
 10
329.44305708202501
 20
573.11110201958115
 30
0.0
  0
VERTEX
  5
1983E
  8
AM_4
 10
328.84133522168497
 20
572.61929286144721
 30
0.0
  0
VERTEX
  5
1983F
  8
AM_4
 10
328.34185472327192
 20
572.07421809658797
 30
0.0
  0
VERTEX
  5
19840
  8
AM_4
 10
327.92181122332659
 20
571.48281602163081
 30
0.0
  0
VERTEX
  5
19841
  8
AM_4
 10
327.54910568881388
 20
570.85577755312625
 30
0.0
  0
VERTEX
  5
19842
  8
AM_4
 10
327.19163908669918
 20
570.2037936076257
 30
0.0
  0
VERTEX
  5
19843
  8
AM_4
 10
326.81731238394701
 20
569.53755510167957
 30
0.0
  0
VERTEX
  5
19844
  8
AM_4
 10
326.39402654752251
 20
568.86775295183838
 30
0.0
  0
VERTEX
  5
19845
  8
AM_4
 10
325.88968254439038
 20
568.20507807465287
 30
0.0
  0
VERTEX
  5
19846
  8
AM_4
 10
325.2721813415161
 20
567.56022138667413
 30
0.0
  0
VERTEX
  5
19847
  8
AM_4
 10
324.51785395504749
 20
566.94371182112604
 30
0.0
  0
VERTEX
  5
19848
  8
AM_4
 10
323.63675159786533
 20
566.36543037792956
 30
0.0
  0
VERTEX
  5
19849
  8
AM_4
 10
322.6473555320332
 20
565.83509607367785
 30
0.0
  0
VERTEX
  5
1984A
  8
AM_4
 10
321.56814701961508
 20
565.36242792496523
 30
0.0
  0
VERTEX
  5
1984B
  8
AM_4
 10
320.41760732267483
 20
564.95714494838558
 30
0.0
  0
VERTEX
  5
1984C
  8
AM_4
 10
319.21421770327601
 20
564.62896616053263
 30
0.0
  0
VERTEX
  5
1984D
  8
AM_4
 10
317.9764594234822
 20
564.38761057800025
 30
0.0
  0
VERTEX
  5
1984E
  8
AM_4
 10
316.72281374535771
 20
564.24279721738253
 30
0.0
  0
VERTEX
  5
1984F
  8
AM_4
 10
315.46797921642877
 20
564.19808971879092
 30
0.0
  0
VERTEX
  5
19850
  8
AM_4
 10
314.21152352607362
 20
564.23243021640678
 30
0.0
  0
VERTEX
  5
19851
  8
AM_4
 10
312.94923164913251
 20
564.31860546792882
 30
0.0
  0
VERTEX
  5
19852
  8
AM_4
 10
311.67688856044617
 20
564.42940223105586
 30
0.0
  0
VERTEX
  5
19853
  8
AM_4
 10
310.39027923485548
 20
564.53760726348764
 30
0.0
  0
VERTEX
  5
19854
  8
AM_4
 10
309.08518864720111
 20
564.61600732292231
 30
0.0
  0
VERTEX
  5
19855
  8
AM_4
 10
307.75740177232359
 20
564.63738916705904
 30
0.0
  0
VERTEX
  5
19856
  8
AM_4
 10
306.40270358506342
 20
564.57453955359665
 30
0.0
  0
VERTEX
  5
19857
  8
AM_4
 10
305.01990304533399
 20
564.41014589583165
 30
0.0
  0
VERTEX
  5
19858
  8
AM_4
 10
303.61990505333853
 20
564.16649822944964
 30
0.0
  0
VERTEX
  5
19859
  8
AM_4
 10
302.21663849435242
 20
563.87578724573495
 30
0.0
  0
VERTEX
  5
1985A
  8
AM_4
 10
300.82403225365141
 20
563.57020363597053
 30
0.0
  0
VERTEX
  5
1985B
  8
AM_4
 10
299.45601521651088
 20
563.28193809143954
 30
0.0
  0
VERTEX
  5
1985C
  8
AM_4
 10
298.12651626820661
 20
563.04318130342597
 30
0.0
  0
VERTEX
  5
1985D
  8
AM_4
 10
296.84946429401418
 20
562.88612396321355
 30
0.0
  0
VERTEX
  5
1985E
  8
AM_4
 10
295.6387881792092
 20
562.84295676208558
 30
0.0
  0
VERTEX
  5
1985F
  8
AM_4
 10
294.49907684615482
 20
562.93439891759215
 30
0.0
  0
VERTEX
  5
19860
  8
AM_4
 10
293.39755936556332
 20
563.13528375235148
 30
0.0
  0
VERTEX
  5
19861
  8
AM_4
 10
292.29212484523492
 20
563.40897311524816
 30
0.0
  0
VERTEX
  5
19862
  8
AM_4
 10
291.14066239296972
 20
563.71882885516811
 30
0.0
  0
VERTEX
  5
19863
  8
AM_4
 10
289.9010611165678
 20
564.02821282099535
 30
0.0
  0
VERTEX
  5
19864
  8
AM_4
 10
288.53121012382888
 20
564.30048686161524
 30
0.0
  0
VERTEX
  5
19865
  8
AM_4
 10
286.98899852255317
 20
564.49901282591247
 30
0.0
  0
VERTEX
  5
19866
  8
AM_4
 10
285.23231542054111
 20
564.58715256277264
 30
0.0
  0
VERTEX
  5
19867
  8
AM_4
 10
283.23330206274511
 20
564.54024956401884
 30
0.0
  0
VERTEX
  5
19868
  8
AM_4
 10
281.02110824273012
 20
564.38157389323101
 30
0.0
  0
VERTEX
  5
19869
  8
AM_4
 10
278.63913589121393
 20
564.14637725692785
 30
0.0
  0
VERTEX
  5
1986A
  8
AM_4
 10
276.13078693891413
 20
563.86991136162806
 30
0.0
  0
VERTEX
  5
1986B
  8
AM_4
 10
273.53946331654879
 20
563.58742791385009
 30
0.0
  0
VERTEX
  5
1986C
  8
AM_4
 10
270.90856695483518
 20
563.33417862011265
 30
0.0
  0
VERTEX
  5
1986D
  8
AM_4
 10
268.28149978449147
 20
563.14541518693386
 30
0.0
  0
VERTEX
  5
1986E
  8
AM_4
 10
265.7016637362351
 20
563.05638932083332
 30
0.0
  0
VERTEX
  5
1986F
  8
AM_4
 10
263.20523221935002
 20
563.09088764400713
 30
0.0
  0
VERTEX
  5
19870
  8
AM_4
 10
260.79946455738491
 20
563.22683644136623
 30
0.0
  0
VERTEX
  5
19871
  8
AM_4
 10
258.48439155245461
 20
563.4306969134999
 30
0.0
  0
VERTEX
  5
19872
  8
AM_4
 10
256.2600440066737
 20
563.66893026099683
 30
0.0
  0
VERTEX
  5
19873
  8
AM_4
 10
254.12645272215721
 20
563.90799768444606
 30
0.0
  0
VERTEX
  5
19874
  8
AM_4
 10
252.08364850101961
 20
564.1143603844373
 30
0.0
  0
VERTEX
  5
19875
  8
AM_4
 10
250.13166214537631
 20
564.25447956155847
 30
0.0
  0
VERTEX
  5
19876
  8
AM_4
 10
248.27052445734151
 20
564.2948164163995
 30
0.0
  0
VERTEX
  5
19877
  8
AM_4
 10
246.49923142094249
 20
564.21315407574048
 30
0.0
  0
VERTEX
  5
19878
  8
AM_4
 10
244.8126397478556
 20
564.0325633711268
 30
0.0
  0
VERTEX
  5
19879
  8
AM_4
 10
243.20457133166889
 20
563.78743706029422
 30
0.0
  0
VERTEX
  5
1987A
  8
AM_4
 10
241.6688480659713
 20
563.51216790097965
 30
0.0
  0
VERTEX
  5
1987B
  8
AM_4
 10
240.19929184435131
 20
563.24114865091963
 30
0.0
  0
VERTEX
  5
1987C
  8
AM_4
 10
238.78972456039719
 20
563.00877206785015
 30
0.0
  0
VERTEX
  5
1987D
  8
AM_4
 10
237.4339681076975
 20
562.84943090950799
 30
0.0
  0
VERTEX
  5
1987E
  8
AM_4
 10
236.12584437984069
 20
562.79751793362948
 30
0.0
  0
VERTEX
  5
1987F
  8
AM_4
 10
234.8612326742018
 20
562.87971107058922
 30
0.0
  0
VERTEX
  5
19880
  8
AM_4
 10
233.644241903302
 20
563.0918289413155
 30
0.0
  0
VERTEX
  5
19881
  8
AM_4
 10
232.48103838344881
 20
563.42197533937451
 30
0.0
  0
VERTEX
  5
19882
  8
AM_4
 10
231.37778843095009
 20
563.85825405833293
 30
0.0
  0
VERTEX
  5
19883
  8
AM_4
 10
230.3406583621132
 20
564.38876889175685
 30
0.0
  0
VERTEX
  5
19884
  8
AM_4
 10
229.37581449324591
 20
565.00162363321294
 30
0.0
  0
VERTEX
  5
19885
  8
AM_4
 10
228.4894231406557
 20
565.68492207626741
 30
0.0
  0
VERTEX
  5
19886
  8
AM_4
 10
227.6876506206504
 20
566.42676801448681
 30
0.0
  0
VERTEX
  5
19887
  8
AM_4
 10
226.97309570808659
 20
567.21422424818468
 30
0.0
  0
VERTEX
  5
19888
  8
AM_4
 10
226.33408701201759
 20
568.03018960466545
 30
0.0
  0
VERTEX
  5
19889
  8
AM_4
 10
225.75538560004551
 20
568.85652191798169
 30
0.0
  0
VERTEX
  5
1988A
  8
AM_4
 10
225.22175253977269
 20
569.67507902218415
 30
0.0
  0
VERTEX
  5
1988B
  8
AM_4
 10
224.71794889880161
 20
570.46771875132538
 30
0.0
  0
VERTEX
  5
1988C
  8
AM_4
 10
224.22873574473431
 20
571.21629893945715
 30
0.0
  0
VERTEX
  5
1988D
  8
AM_4
 10
223.7388741451731
 20
571.90267742063111
 30
0.0
  0
VERTEX
  5
1988E
  8
AM_4
 10
223.23312516772049
 20
572.50871202889925
 30
0.0
  0
VERTEX
  5
1988F
  8
AM_4
 10
222.70070807759171
 20
573.02284793227636
 30
0.0
  0
VERTEX
  5
19890
  8
AM_4
 10
222.14867493045529
 20
573.45987963463051
 30
0.0
  0
VERTEX
  5
19891
  8
AM_4
 10
221.58853597959319
 20
573.84118897379187
 30
0.0
  0
VERTEX
  5
19892
  8
AM_4
 10
221.03180147828701
 20
574.18815778759222
 30
0.0
  0
VERTEX
  5
19893
  8
AM_4
 10
220.4899816798185
 20
574.52216791386149
 30
0.0
  0
VERTEX
  5
19894
  8
AM_4
 10
219.9745868374693
 20
574.86460119043102
 30
0.0
  0
VERTEX
  5
19895
  8
AM_4
 10
219.49712720452141
 20
575.23683945513153
 30
0.0
  0
VERTEX
  5
19896
  8
AM_4
 10
219.06911303425639
 20
575.66026454579355
 30
0.0
  0
VERTEX
  5
19897
  8
AM_4
 10
218.68346524137201
 20
576.14729520699916
 30
0.0
  0
VERTEX
  5
19898
  8
AM_4
 10
218.25874738623131
 20
576.67449781033315
 30
0.0
  0
VERTEX
  5
19899
  8
AM_4
 10
217.6949336906132
 20
577.20947563413085
 30
0.0
  0
VERTEX
  5
1989A
  8
AM_4
 10
216.8919983762965
 20
577.71983195672794
 30
0.0
  0
VERTEX
  5
1989B
  8
AM_4
 10
215.74991566506009
 20
578.17317005645975
 30
0.0
  0
VERTEX
  5
1989C
  8
AM_4
 10
214.16865977868321
 20
578.53709321166275
 30
0.0
  0
VERTEX
  5
1989D
  8
AM_4
 10
212.12410649317181
 20
578.77053833439595
 30
0.0
  0
SEQEND
  5
1989E
  8
AM_4
  0
LINE
  5
1989F
  8
AM_0
 10
229.67759777631861
 20
514.80893380585883
 30
0.0
 11
207.12410634406001
 21
514.80893380585883
 31
0.0
  0
LINE
  5
198A0
  8
AM_0
 10
221.12410649317169
 20
505.80943455143199
 30
0.0
 11
212.12410649317169
 21
514.80893380585883
 31
0.0
  0
LINE
  5
198A1
  8
AM_0
 10
212.12410649317169
 20
505.80943455143199
 30
0.0
 11
221.12410649317169
 21
514.80893380585883
 31
0.0
  0
LINE
  5
198A2
  8
AM_0
 10
221.12410649317169
 20
505.80943455143199
 30
0.0
 11
212.12410649317169
 21
505.80943455143199
 31
0.0
  0
LINE
  5
198A3
  8
AM_0
 10
212.12410649317169
 20
564.80993529700538
 30
0.0
 11
212.12410649317181
 21
578.77053833439595
 31
0.0
  0
LINE
  5
198A4
  8
AM_0
 10
207.12410634406001
 20
514.80893380585883
 30
0.0
 11
207.12410634406001
 21
564.80993529700538
 31
0.0
  0
LINE
  5
198A5
  8
AM_0
 10
210.12410634406001
 20
557.30943836612937
 30
0.0
 11
210.12410634406001
 21
522.30943836612948
 31
0.0
  0
LINE
  5
198A6
  8
AM_0
 10
210.12410634406001
 20
522.30943073673484
 30
0.0
 11
207.12410634406001
 21
520.577379929166
 31
0.0
  0
LINE
  5
198A7
  8
AM_0
 10
210.12410634406001
 20
557.30943836612937
 30
0.0
 11
207.12410634406001
 21
559.04148917369821
 31
0.0
  0
LINE
  5
198A8
  8
AM_0
 10
342.12410634406001
 20
557.30943836612937
 30
0.0
 11
320.77410024054439
 21
557.30943836612937
 31
0.0
  0
LINE
  5
198A9
  8
AM_0
 10
342.12410634406001
 20
522.30943836612948
 30
0.0
 11
320.77410024054439
 21
522.30943836612948
 31
0.0
  0
LINE
  5
198AA
  8
AM_0
 10
345.1241104595407
 20
564.80993529700538
 30
0.0
 11
319.87780836886287
 21
564.80993529700538
 31
0.0
  0
LINE
  5
198AB
  8
AM_0
 10
345.1241104595407
 20
514.80893380585883
 30
0.0
 11
319.87780836886287
 21
514.80893380585883
 31
0.0
  0
LINE
  5
198AC
  8
AM_0
 10
221.12410649317169
 20
564.80993529700538
 30
0.0
 11
221.12410649317161
 21
573.8094345514321
 31
0.0
  0
LINE
  5
198AD
  8
ﾁｭｳｼﾝｾﾝ1
 10
276.12410840180041
 20
509.80943455143222
 30
0.0
 11
276.12410840180041
 21
569.8094345514321
 31
0.0
  0
LINE
  5
198AE
  8
AM_0
 10
293.12410634406001
 20
557.55943836612948
 30
0.0
 11
259.12410634406001
 21
557.55943836612948
 31
0.0
  0
LINE
  5
198AF
  8
AM_0
 10
293.12410634406001
 20
522.05943836612937
 30
0.0
 11
259.12410634406001
 21
522.05943836612937
 31
0.0
  0
LINE
  5
198B0
  8
AM_0
 10
231.47411244757561
 20
558.30943836612926
 30
0.0
 11
231.47411244757561
 21
521.30943836612926
 31
0.0
  0
LINE
  5
198B1
  8
AM_0
 10
233.12410634406001
 20
558.30943836612926
 30
0.0
 11
233.12410634406001
 21
521.30943836612926
 31
0.0
  0
LINE
  5
198B2
  8
AM_0
 10
259.12410634406001
 20
557.55943836612948
 30
0.0
 11
259.12410634406001
 21
522.05943836612937
 31
0.0
  0
LINE
  5
198B3
  8
AM_0
 10
259.12410634406001
 20
522.30943836612948
 30
0.0
 11
233.12410634406001
 21
522.30943836612948
 31
0.0
  0
LINE
  5
198B4
  8
AM_0
 10
221.12410649317169
 20
514.80893380585883
 30
0.0
 11
221.12410649317161
 21
505.80943455143199
 31
0.0
  0
LINE
  5
198B5
  8
AM_0
 10
231.47411244757561
 20
521.30943836612926
 30
0.0
 11
233.12410634406001
 21
521.30943836612926
 31
0.0
  0
LINE
  5
198B6
  8
AM_0
 10
259.12410634406001
 20
557.30943836612937
 30
0.0
 11
233.12410634406001
 21
557.30943836612937
 31
0.0
  0
LINE
  5
198B7
  8
AM_0
 10
231.47411244757561
 20
558.30943836612926
 30
0.0
 11
233.12410634406001
 21
558.30943836612926
 31
0.0
  0
LINE
  5
198B8
  8
AM_0
 10
293.12410634406001
 20
557.55943836612948
 30
0.0
 11
293.12410634406001
 21
522.05943836612937
 31
0.0
  0
LINE
  5
198B9
  8
AM_0
 10
319.12410634406001
 20
558.30943836612926
 30
0.0
 11
319.12410634406001
 21
521.30943836612926
 31
0.0
  0
LINE
  5
198BA
  8
AM_0
 10
320.77410024054439
 20
558.30943836612926
 30
0.0
 11
320.77410024054439
 21
521.30943836612926
 31
0.0
  0
LINE
  5
198BB
  8
AM_0
 10
319.12410634406001
 20
522.30943836612948
 30
0.0
 11
293.12410634406001
 21
522.30943836612948
 31
0.0
  0
LINE
  5
198BC
  8
AM_0
 10
320.77410024054439
 20
521.30943836612926
 30
0.0
 11
319.12410634406001
 21
521.30943836612926
 31
0.0
  0
LINE
  5
198BD
  8
AM_0
 10
319.12410634406001
 20
557.30943836612937
 30
0.0
 11
293.12410634406001
 21
557.30943836612937
 31
0.0
  0
LINE
  5
198BE
  8
AM_0
 10
320.77410024054439
 20
558.30943836612926
 30
0.0
 11
319.12410634406001
 21
558.30943836612926
 31
0.0
  0
LINE
  5
198BF
  8
AM_0
 10
331.12411031042888
 20
564.80993529700515
 30
0.0
 11
331.12411031042888
 21
573.8094345514321
 31
0.0
  0
LINE
  5
198C0
  8
AM_0
 10
331.12411031042888
 20
573.8094345514321
 30
0.0
 11
340.1241103104291
 21
564.80993529700538
 31
0.0
  0
LINE
  5
198C1
  8
AM_0
 10
340.1241103104291
 20
573.8094345514321
 30
0.0
 11
331.12411031042888
 21
564.80993529700538
 31
0.0
  0
LINE
  5
198C2
  8
AM_0
 10
340.1241103104291
 20
564.80993529700538
 30
0.0
 11
340.1241103104291
 21
578.21355475255803
 31
0.0
  0
LINE
  5
198C3
  8
AM_0
 10
345.1241104595407
 20
514.80893380585883
 30
0.0
 11
345.1241104595407
 21
564.80993529700538
 31
0.0
  0
LINE
  5
198C4
  8
AM_0
 10
342.12410634406001
 20
557.30943836612937
 30
0.0
 11
342.12410634406001
 21
522.30943836612948
 31
0.0
  0
LINE
  5
198C5
  8
AM_0
 10
342.12410634406001
 20
522.30943073673484
 30
0.0
 11
345.12410634406001
 21
520.577379929166
 31
0.0
  0
LINE
  5
198C6
  8
AM_0
 10
340.1241103104291
 20
505.80943455143199
 30
0.0
 11
331.12411031042888
 21
514.80893380585883
 31
0.0
  0
LINE
  5
198C7
  8
AM_0
 10
331.12411031042888
 20
505.80943455143199
 30
0.0
 11
340.1241103104291
 21
514.80893380585883
 31
0.0
  0
LINE
  5
198C8
  8
AM_0
 10
331.12411031042888
 20
514.80893380585906
 30
0.0
 11
331.12411031042888
 21
505.80943455143199
 31
0.0
  0
LINE
  5
198C9
  8
AM_0
 10
340.12411031042888
 20
505.80943455143199
 30
0.0
 11
331.12411031042888
 21
505.80943455143199
 31
0.0
  0
LINE
  5
198CA
  8
AM_0
 10
342.12410634406001
 20
557.30943836612937
 30
0.0
 11
345.12410634406001
 21
559.04148917369821
 31
0.0
  0
LINE
  5
198CB
  8
AM_0
 10
340.12411031042888
 20
573.8094345514321
 30
0.0
 11
331.12411031042888
 21
573.8094345514321
 31
0.0
  0
LINE
  5
198CC
  8
AM_0
 10
764.62469970927032
 20
693.59437343641082
 30
0.0
 11
563.1142194857407
 21
693.59437343641082
 31
0.0
  0
LINE
  5
198CD
  8
AM_0
 10
686.36746269143134
 20
698.59437358552282
 30
0.0
 11
586.36586030519777
 21
698.59437358552282
 31
0.0
  0
LINE
  5
198D2
  8
AM_0
 10
766.37024858762004
 20
600.59437066293515
 30
0.0
 11
561.37027299162355
 21
600.59437066293492
 31
0.0
  0
LINE
  5
198D3
  8
ﾁｭｳｼﾝｾﾝ1
 10
963.11414858816011
 20
634.5943716768935
 30
0.0
 11
556.37027299162355
 21
634.5943716768935
 31
0.0
1001
GENIUS_GENODEF_13
1002
{
1000
HIER
1070
     0
1002
}
1002
{
1000
MANEDIT
1070
     0
1002
}
1002
{
1000
NOSEL
1070
     0
1002
}
1002
{
1000
BEHIND
1070
     0
1002
}
1002
{
1000
REACTOR
1002
}
1001
GENIUS_GENOBJ-N-CEN_13
1002
{
1000
OWNER
1000
GEN
1002
}
  0
LINE
  5
198D4
  8
AM_0
 10
764.62469970927032
 20
693.59437343641082
 30
0.0
 11
766.37024858777272
 21
600.59437066293515
 31
0.0
  0
LINE
  5
198D8
  8
AM_0
 10
782.37024858816039
 20
696.09436667689397
 30
0.0
 11
782.37024858816039
 21
573.09438667689403
 31
0.0
  0
LINE
  5
198D9
  8
AM_0
 10
793.37024858816005
 20
698.59440167689422
 30
0.0
 11
793.37024858816005
 21
570.59438667689403
 31
0.0
  0
ARC
  5
198DA
  8
AM_0
 10
779.37024858816028
 20
570.09438667689403
 30
0.0
 40
2.9999999999999969
 50
35.685334712654601
 51
90.0
1001
GENIUS_GENOBJ-N-FIL_13
1002
{
1000
OWNER
1000
GEN
1002
}
1001
GENIUS_GENODEF_13
1002
{
1000
HIER
1070
     0
1002
}
1002
{
1000
MANEDIT
1070
     0
1002
}
1002
{
1000
NOSEL
1070
     0
1002
}
1002
{
1000
BEHIND
1070
     0
1002
}
1002
{
1000
OTHER
1070
     0
1002
}
1002
{
1000
REACTOR
1002
}
  0
LINE
  5
198DB
  8
AM_0
 10
793.37024858816005
 20
570.59438667689403
 30
0.0
 11
784.24364576056462
 21
570.59438667689403
 31
0.0
  0
ARC
  5
198DC
  8
AM_0
 10
784.24364576056462
 20
573.59438667689381
 30
0.0
 40
2.9999999999999969
 50
215.68533471265459
 51
270.0
1001
GENIUS_GENOBJ-N-FIL_13
1002
{
1000
OWNER
1000
GEN
1002
}
1001
GENIUS_GENODEF_13
1002
{
1000
HIER
1070
     0
1002
}
1002
{
1000
MANEDIT
1070
     0
1002
}
1002
{
1000
NOSEL
1070
     0
1002
}
1002
{
1000
BEHIND
1070
     0
1002
}
1002
{
1000
OTHER
1070
     0
1002
}
1002
{
1000
REACTOR
1002
}
  0
LINE
  5
198DD
  8
AM_0
 10
793.37024858816005
 20
582.55438667689407
 30
0.0
 11
783.37024858816039
 21
582.55438667689407
 31
0.0
  0
LINE
  5
198DE
  8
AM_0
 10
793.37030641037745
 20
582.55437667692559
 30
0.0
 11
783.37030641038348
 21
582.55436556581435
 31
0.0
  0
LINE
  5
198DF
  8
AM_0
 10
793.37024858816005
 20
597.45439667689425
 30
0.0
 11
783.37024858816039
 21
597.45439667689425
 31
0.0
  0
LINE
  5
198E0
  8
AM_0
 10
793.37028985481095
 20
597.45438667691678
 30
0.0
 11
783.37028985481663
 21
597.45437556580532
 31
0.0
  0
ARC
  5
198E1
  8
AM_0
 10
776.78382510916992
 20
575.09438667689403
 30
0.0
 40
2.0
 50
184.99999999999969
 51
270.0
1001
GENIUS_GENODEF_13
1002
{
1000
HIER
1070
     0
1002
}
1002
{
1000
MANEDIT
1070
     0
1002
}
1002
{
1000
NOSEL
1070
     0
1002
}
1002
{
1000
BEHIND
1070
     0
1002
}
1002
{
1000
OTHER
1070
     0
1002
}
1002
{
1000
REACTOR
1002
}
1001
GENIUS_GENOBJ-N-FIL_13
1002
{
1000
OWNER
1000
GEN
1002
}
  0
LINE
  5
198E3
  8
AM_0
 10
779.37024858816028
 20
573.09438667689403
 30
0.0
 11
776.78382510916992
 21
573.09438667689415
 31
0.0
  0
LINE
  5
198E4
  8
AM_0
 10
772.52997563630902
 20
600.76868214843046
 30
0.0
 11
774.79143571298641
 21
574.92007519139872
 31
0.0
  0
ARC
  5
198E6
  8
AM_0
 10
767.35165537414582
 20
601.59437066293503
 30
0.0
 40
1.0
 50
90.0
 51
181.0752778360613
1001
GENIUS_GENODEF_13
1002
{
1000
HIER
1070
     0
1002
}
1002
{
1000
MANEDIT
1070
     0
1002
}
1002
{
1000
NOSEL
1070
     0
1002
}
1002
{
1000
BEHIND
1070
     0
1002
}
1002
{
1000
OTHER
1070
     0
1002
}
1002
{
1000
REACTOR
1002
}
1001
GENIUS_GENOBJ-N-FIL_13
1002
{
1000
OWNER
1000
GEN
1002
}
  0
ARC
  5
198E7
  8
AM_0
 10
770.53758624012562
 20
600.59437066293503
 30
0.0
 40
2.0
 50
4.9999999999997398
 51
90.0
1001
GENIUS_GENOBJ-N-FIL_13
1002
{
1000
OWNER
1000
GEN
1002
}
1001
GENIUS_GENODEF_13
1002
{
1000
HIER
1070
     0
1002
}
1002
{
1000
MANEDIT
1070
     0
1002
}
1002
{
1000
NOSEL
1070
     0
1002
}
1002
{
1000
BEHIND
1070
     0
1002
}
1002
{
1000
OTHER
1070
     0
1002
}
1002
{
1000
REACTOR
1002
}
  0
LINE
  5
198E8
  8
AM_0
 10
770.53758624012539
 20
602.59437066293526
 30
0.0
 11
767.35165537414582
 21
602.59437066293526
 31
0.0
  0
ARC
  5
198ED
  8
AM_0
 10
779.37024858816028
 20
699.09436667689408
 30
0.0
 40
2.9999999999999969
 50
270.0
 51
324.31466528734541
1001
GENIUS_GENOBJ-N-FIL_13
1002
{
1000
OWNER
1000
GEN
1002
}
1001
GENIUS_GENODEF_13
1002
{
1000
HIER
1070
     0
1002
}
1002
{
1000
MANEDIT
1070
     0
1002
}
1002
{
1000
NOSEL
1070
     0
1002
}
1002
{
1000
BEHIND
1070
     0
1002
}
1002
{
1000
OTHER
1070
     0
1002
}
1002
{
1000
REACTOR
1002
}
  0
LINE
  5
198EE
  8
AM_0
 10
793.37024858816005
 20
671.73435667689375
 30
0.0
 11
783.37024858816039
 21
671.73435667689375
 31
0.0
  0
LINE
  5
198EF
  8
AM_0
 10
793.37024858816005
 20
686.63436667689405
 30
0.0
 11
783.37024858816039
 21
686.63436667689405
 31
0.0
  0
LINE
  5
198F0
  8
AM_0
 10
793.37024858816005
 20
698.5943666768942
 30
0.0
 11
784.24364576056462
 21
698.5943666768942
 31
0.0
  0
ARC
  5
198F1
  8
AM_0
 10
784.24364576056462
 20
695.59436667689397
 30
0.0
 40
2.9999999999999969
 50
90.0
 51
144.31466528734541
1001
GENIUS_GENOBJ-N-FIL_13
1002
{
1000
OWNER
1000
GEN
1002
}
1001
GENIUS_GENODEF_13
1002
{
1000
HIER
1070
     0
1002
}
1002
{
1000
MANEDIT
1070
     0
1002
}
1002
{
1000
NOSEL
1070
     0
1002
}
1002
{
1000
BEHIND
1070
     0
1002
}
1002
{
1000
OTHER
1070
     0
1002
}
1002
{
1000
REACTOR
1002
}
  0
ARC
  5
198F2
  8
AM_0
 10
766.62505196645634
 20
693.59437343641071
 30
0.0
 40
2.0
 50
181.07527783597001
 51
270.0
1001
GENIUS_GENODEF_13
1002
{
1000
HIER
1070
     0
1002
}
1002
{
1000
MANEDIT
1070
     0
1002
}
1002
{
1000
NOSEL
1070
     0
1002
}
1002
{
1000
BEHIND
1070
     0
1002
}
1002
{
1000
OTHER
1070
     0
1002
}
1002
{
1000
REACTOR
1002
}
1001
GENIUS_GENOBJ-N-FIL_13
1002
{
1000
OWNER
1000
GEN
1002
}
  0
LINE
  5
198F3
  8
AM_0
 10
772.60421993449722
 20
694.26867816238951
 30
0.0
 11
772.52997563630902
 21
693.42006195091562
 31
0.0
  0
ARC
  5
198F4
  8
AM_0
 10
770.53758624012562
 20
693.59437343641071
 30
0.0
 40
2.0
 50
270.0
 51
355.00000000000023
1001
GENIUS_GENODEF_13
1002
{
1000
HIER
1070
     0
1002
}
1002
{
1000
MANEDIT
1070
     0
1002
}
1002
{
1000
NOSEL
1070
     0
1002
}
1002
{
1000
BEHIND
1070
     0
1002
}
1002
{
1000
OTHER
1070
     0
1002
}
1002
{
1000
REACTOR
1002
}
1001
GENIUS_GENOBJ-N-FIL_13
1002
{
1000
OWNER
1000
GEN
1002
}
  0
LINE
  5
198F5
  8
AM_0
 10
770.53758624012539
 20
691.59437343641082
 30
0.0
 11
766.62505196645634
 21
691.59437343641082
 31
0.0
  0
ARC
  5
198F6
  8
AM_0
 10
774.59660933068074
 20
694.09436667689408
 30
0.0
 40
2.0
 50
90.0
 51
175.00000000000031
1001
GENIUS_GENOBJ-N-FIL_13
1002
{
1000
OWNER
1000
GEN
1002
}
1001
GENIUS_GENODEF_13
1002
{
1000
HIER
1070
     0
1002
}
1002
{
1000
MANEDIT
1070
     0
1002
}
1002
{
1000
NOSEL
1070
     0
1002
}
1002
{
1000
BEHIND
1070
     0
1002
}
1002
{
1000
OTHER
1070
     0
1002
}
1002
{
1000
REACTOR
1002
}
  0
LINE
  5
198F7
  8
AM_0
 10
779.37024858816028
 20
696.09436667689397
 30
0.0
 11
774.59660933068074
 21
696.09436667689397
 31
0.0
  0
LINE
  5
198F8
  8
AM_0
 10
686.36746269143134
 20
698.59437358552282
 30
0.0
 11
686.36746269143134
 21
693.59437343641082
 31
0.0
  0
LINE
  5
198F9
  8
ﾁｭｳｼﾝｾﾝ1
 10
636.36666149831433
 20
529.59437066293492
 30
0.0
 11
636.36666149831433
 21
708.59437373463425
 31
0.0
  0
LINE
  5
198FD
  8
AM_0
 10
563.1142194857407
 20
693.59437343641082
 30
0.0
 11
561.37027299162355
 21
600.59437066293492
 31
0.0
  0
LINE
  5
19905
  8
AM_0
 10
611.36616075274117
 20
698.59437358552282
 30
0.0
 11
611.36616075274117
 21
703.59437373463425
 31
0.0
  0
LINE
  5
19906
  8
AM_0
 10
661.36716224388761
 20
698.59437358552282
 30
0.0
 11
661.36716224388761
 21
703.59437373463425
 31
0.0
  0
LINE
  5
19907
  8
AM_0
 10
586.36586030519777
 20
698.59437358552282
 30
0.0
 11
586.36586030519777
 21
696.09437343641082
 31
0.0
  0
LINE
  5
19908
  8
AM_0
 10
661.36716224388761
 20
703.59437373463425
 30
0.0
 11
611.36616075274117
 21
703.59437373463425
 31
0.0
  0
LINE
  5
19909
  8
ｶｸﾚｾﾝ2
 10
824.87030858816036
 20
603.09437167689362
 30
0.0
 11
898.87030858816036
 21
603.09437167689362
 31
0.0
  0
LINE
  5
1990A
  8
ｶｸﾚｾﾝ2
 10
824.87030858816036
 20
666.09437167689362
 30
0.0
 11
898.87030858816036
 21
666.09437167689362
 31
0.0
  0
LINE
  5
1990B
  8
AM_0
 10
926.37027858816032
 20
570.70436067689354
 30
0.0
 11
873.37027858816043
 21
570.70436067689354
 31
0.0
  0
LINE
  5
1990C
  8
AM_0
 10
926.37027858816032
 20
569.3543466768939
 30
0.0
 11
873.37027858816043
 21
569.3543466768939
 31
0.0
  0
LINE
  5
1990D
  8
AM_0
 10
926.37027858816032
 20
568.68436467689355
 30
0.0
 11
873.37027858816043
 21
568.68436467689355
 31
0.0
  0
LINE
  5
1990E
  8
AM_0
 10
904.37027858816043
 20
588.24435167689387
 30
0.0
 11
802.37027858816055
 21
588.24435167689387
 31
0.0
  0
LINE
  5
1990F
  8
AM_0
 10
904.37027858816043
 20
680.94436167689378
 30
0.0
 11
802.37027858816055
 21
680.94436167689378
 31
0.0
  0
LINE
  5
19910
  8
AM_0
 10
809.02024858816014
 20
598.59437167689362
 30
0.0
 11
943.82022858816015
 21
598.59437167689362
 31
0.0
  0
LINE
  5
19911
  8
AM_0
 10
926.37027858816032
 20
572.73435967689375
 30
0.0
 11
809.56028858816001
 21
572.73435967689375
 31
0.0
  0
LINE
  5
19912
  8
AM_0
 10
935.69028858816046
 20
671.31435167689381
 30
0.0
 11
805.55027858816004
 21
671.31435167689381
 31
0.0
  0
LINE
  5
19913
  8
AM_0
 10
809.02024858816014
 20
670.59437167689362
 30
0.0
 11
934.82022858816015
 21
670.59437167689362
 31
0.0
  0
LINE
  5
19914
  8
AM_0
 10
809.02024858816014
 20
600.59436167689375
 30
0.0
 11
943.82022858816015
 21
600.59436167689375
 31
0.0
  0
LINE
  5
19915
  8
AM_0
 10
805.55027858816004
 20
601.22436167689375
 30
0.0
 11
944.69028858816046
 21
601.22436167689375
 31
0.0
  0
LINE
  5
19916
  8
AM_0
 10
944.69028858816046
 20
597.87435167689375
 30
0.0
 11
805.55027858816004
 21
597.87435167689375
 31
0.0
  0
LINE
  5
19917
  8
AM_0
 10
805.55027858816004
 20
667.9643516768939
 30
0.0
 11
935.69028858816046
 21
667.9643516768939
 31
0.0
  0
LINE
  5
19918
  8
AM_0
 10
806.42530858816042
 20
608.59435757689346
 30
0.0
 11
943.82022858816015
 21
608.59435167689378
 31
0.0
  0
LINE
  5
19919
  8
AM_0
 10
806.42530853580035
 20
610.59436577689382
 30
0.0
 11
943.82022858816015
 21
610.59437167689362
 31
0.0
  0
LINE
  5
1991A
  8
AM_0
 10
944.91025858816045
 20
608.11436167689374
 30
0.0
 11
805.33527858816012
 21
608.11435167689365
 31
0.0
  0
LINE
  5
1991B
  8
AM_0
 10
944.91025858816045
 20
611.03437167689356
 30
0.0
 11
805.33527851171505
 21
611.03435167689361
 31
0.0
  0
LINE
  5
1991C
  8
AM_0
 10
945.04026858815996
 20
618.25435167689375
 30
0.0
 11
805.20526858816015
 21
618.25437167689381
 31
0.0
  0
LINE
  5
1991D
  8
AM_0
 10
806.43530304600131
 20
618.5943736471354
 30
0.0
 11
943.81028858816035
 21
618.59437167689362
 31
0.0
  0
LINE
  5
1991E
  8
AM_0
 10
806.43530294128175
 20
620.59436970756462
 30
0.0
 11
943.81028858816035
 21
620.59435167689378
 31
0.0
  0
LINE
  5
1991F
  8
AM_0
 10
945.04026858815996
 20
620.9143616768938
 30
0.0
 11
805.20526851852162
 21
620.91437167689355
 31
0.0
  0
LINE
  5
19920
  8
AM_0
 10
945.10025858816005
 20
628.32436167689355
 30
0.0
 11
805.14527858816041
 21
628.32434767689358
 31
0.0
  0
LINE
  5
19921
  8
AM_0
 10
806.43530304600131
 20
628.59435364713545
 30
0.0
 11
943.81028858816035
 21
628.59437167689362
 31
0.0
  0
LINE
  5
19922
  8
AM_0
 10
806.43530294128175
 20
630.59434970756445
 30
0.0
 11
943.81028858816035
 21
630.59437167689362
 31
0.0
  0
LINE
  5
19923
  8
AM_0
 10
945.10025858816005
 20
630.86436167689374
 30
0.0
 11
805.14527852166304
 21
630.86435567689375
 31
0.0
  0
LINE
  5
19924
  8
AM_0
 10
945.10025858816005
 20
638.33436167689376
 30
0.0
 11
805.14527858816041
 21
638.33433767689382
 31
0.0
  0
LINE
  5
19925
  8
AM_0
 10
806.43530304600131
 20
638.59435364713545
 30
0.0
 11
943.81028858816035
 21
638.59435167689378
 31
0.0
  0
LINE
  5
19926
  8
AM_0
 10
806.43530294128175
 20
640.59434970756467
 30
0.0
 11
943.81028858816035
 21
640.59437167689362
 31
0.0
  0
LINE
  5
19927
  8
AM_0
 10
945.10025858816005
 20
640.86436167689374
 30
0.0
 11
805.14527852192498
 21
640.86434567689355
 31
0.0
  0
LINE
  5
19928
  8
AM_0
 10
945.04026858815996
 20
648.27436167689382
 30
0.0
 11
805.20526858816015
 21
648.27436167689382
 31
0.0
  0
LINE
  5
19929
  8
AM_0
 10
806.43530304600131
 20
648.59437364713551
 30
0.0
 11
943.81028858816035
 21
648.59435167689355
 31
0.0
  0
LINE
  5
1992A
  8
AM_0
 10
806.43530294128175
 20
650.59436970756462
 30
0.0
 11
943.81028858816035
 21
650.59435167689378
 31
0.0
  0
LINE
  5
1992B
  8
AM_0
 10
945.04026858815996
 20
650.93435167689381
 30
0.0
 11
805.20526851852162
 21
650.93436167689345
 31
0.0
  0
LINE
  5
1992C
  8
AM_0
 10
935.91025858816045
 20
658.15436167689381
 30
0.0
 11
805.34026858816026
 21
658.15436167689381
 31
0.0
  0
LINE
  5
1992D
  8
AM_0
 10
806.4302985881601
 20
658.59434757689382
 30
0.0
 11
934.82022858816015
 21
658.59437167689362
 31
0.0
  0
LINE
  5
1992E
  8
AM_0
 10
806.43029853580038
 20
660.59435577689374
 30
0.0
 11
934.82022858816015
 21
660.59435167689355
 31
0.0
  0
LINE
  5
1992F
  8
AM_0
 10
935.91025858816045
 20
661.08434167689381
 30
0.0
 11
805.34026851145302
 21
661.08436167689376
 31
0.0
  0
LINE
  5
19930
  8
AM_0
 10
809.02026758828231
 20
668.59435332262558
 30
0.0
 11
934.82022858816015
 21
668.59435167689355
 31
0.0
  0
LINE
  5
19931
  8
AM_0
 10
926.37027858816032
 20
698.48435167689388
 30
0.0
 11
873.37027858816043
 21
698.48435167689388
 31
0.0
  0
LINE
  5
19932
  8
AM_0
 10
926.37027858816032
 20
699.83436167689365
 30
0.0
 11
873.37027858816043
 21
699.83436167689365
 31
0.0
  0
LINE
  5
19933
  8
AM_0
 10
926.37027858816032
 20
700.51435167689385
 30
0.0
 11
873.37027858816043
 21
700.51435167689385
 31
0.0
  0
LINE
  5
19934
  8
AM_0
 10
926.37027858816032
 20
696.45435167689391
 30
0.0
 11
809.56028858816001
 21
696.45435167689391
 31
0.0
  0
LINE
  5
19935
  8
ｶｸﾚｾﾝ2
 10
901.87030858816036
 20
663.09437167689362
 30
0.0
 11
901.87030858816036
 21
606.09437167689362
 31
0.0
  0
LINE
  5
19936
  8
AM_0
 10
954.37024858816039
 20
586.00436167689361
 30
0.0
 11
954.37024858816039
 21
629.59438167689382
 31
0.0
  0
LINE
  5
19937
  8
AM_0
 10
949.37030858816036
 20
577.16437267689355
 30
0.0
 11
949.37030858816036
 21
634.5943716768935
 31
0.0
  0
LINE
  5
19938
  8
AM_0
 10
955.87024858816028
 20
654.59436167689375
 30
0.0
 11
955.87024858816028
 21
614.59438167689382
 31
0.0
  0
LINE
  5
19939
  8
AM_0
 10
956.86414858816045
 20
619.37248167689324
 30
0.0
 11
956.86414858816045
 21
649.8161116768938
 31
0.0
  0
LINE
  5
1993A
  8
AM_0
 10
945.65024858816025
 20
682.94436167689389
 30
0.0
 11
945.11020858816039
 21
685.9343616768939
 31
0.0
  0
LINE
  5
1993B
  8
AM_0
 10
952.37030858816036
 20
684.0943716768935
 30
0.0
 11
952.37030858816036
 21
683.56437167689376
 31
0.0
  0
LINE
  5
1993C
  8
AM_0
 10
952.60028858816042
 20
684.21437167689362
 30
0.0
 11
953.87030858816036
 21
683.47436167689375
 31
0.0
  0
LINE
  5
1993D
  8
AM_0
 10
949.37030858816036
 20
692.02436167689382
 30
0.0
 11
949.37030858816036
 21
634.5943716768935
 31
0.0
  0
ARC
  5
1993E
  8
AM_0
 10
926.37571858816045
 20
697.83979167689336
 30
0.0
 40
1.9945760999999991
 50
359.84400999999718
 51
90.155991999999955
  0
ARC
  5
1993F
  8
AM_0
 10
926.36777858816038
 20
698.51951167689356
 30
0.0
 40
1.994844099999999
 50
14.362799999999609
 51
89.928342000002061
  0
LINE
  5
19940
  8
AM_0
 10
943.14029858816036
 20
687.57435167689357
 30
0.0
 11
929.87027858816032
 21
687.57435167689357
 31
0.0
  0
LINE
  5
19941
  8
AM_0
 10
943.26029858816014
 20
697.89435167689362
 30
0.0
 11
929.76029858816014
 21
697.89435167689362
 31
0.0
  0
LINE
  5
19942
  8
AM_0
 10
943.23026858816036
 20
696.26435167689374
 30
0.0
 11
929.87027858816032
 21
696.26435167689374
 31
0.0
  0
LINE
  5
19943
  8
AM_0
 10
943.20023858816012
 20
692.86436167689374
 30
0.0
 11
929.87027858816032
 21
692.86436167689374
 31
0.0
  0
ARC
  5
19944
  8
AM_0
 10
943.19858858816031
 20
690.8689616768936
 30
0.0
 40
1.9953879999999991
 50
12.01538000000024
 51
89.951933000002214
  0
LINE
  5
19945
  8
AM_0
 10
945.18027858816038
 20
694.72436167689375
 30
0.0
 11
946.10031858816035
 21
690.8443716768935
 31
0.0
  0
ARC
  5
19946
  8
AM_0
 10
947.5419785881603
 20
693.2214616768938
 30
0.0
 40
1.5070961
 50
194.09782000000331
 51
269.9351799999983
  0
LINE
  5
19947
  8
AM_0
 10
947.54026858816007
 20
691.71436167689387
 30
0.0
 11
945.89023858815983
 21
691.71436167689387
 31
0.0
  0
LINE
  5
19948
  8
AM_0
 10
949.37033858816005
 20
692.02436167689382
 30
0.0
 11
946.55027858815981
 21
692.09435167689378
 31
0.0
  0
LINE
  5
19949
  8
AM_0
 10
945.20029858816042
 20
696.38437167689381
 30
0.0
 11
946.08030858816062
 21
692.85438167689381
 31
0.0
  0
ARC
  5
1994A
  8
AM_0
 10
943.23746858816014
 20
694.26890167689362
 30
0.0
 40
1.9954841000000001
 50
13.19407999999857
 51
90.206542000000866
  0
ARC
  5
1994B
  8
AM_0
 10
943.26297858816031
 20
695.89658167689356
 30
0.0
 40
1.9977800999999991
 50
14.13223000000314
 51
90.076919000002306
  0
LINE
  5
1994C
  8
AM_0
 10
947.58030858816039
 20
685.63434167689365
 30
0.0
 11
945.16025858816033
 21
685.63434167689365
 31
0.0
  0
ARC
  5
1994D
  8
AM_0
 10
947.57907858816054
 20
687.13849167689364
 30
0.0
 40
1.50414
 50
192.44475000000341
 51
270.04575000000148
  0
LINE
  5
1994E
  8
AM_0
 10
947.56028858816035
 20
689.6943416768936
 30
0.0
 11
945.5002885881604
 21
689.6943416768936
 31
0.0
  0
ARC
  5
1994F
  8
AM_0
 10
947.5610785881604
 20
691.19716167689376
 30
0.0
 40
1.5028081
 50
193.57782000000239
 51
269.96920999999838
  0
ARC
  5
19950
  8
AM_0
 10
952.10827858816015
 20
683.34849167689345
 30
0.0
 40
0.9959119600000002
 50
60.393010000004303
 51
90.45855599999615
  0
ARC
  5
19951
  8
AM_0
 10
949.87488858816005
 20
684.84899167689366
 30
0.0
 40
0.5046359900000002
 50
180.5237599999995
 51
269.47624000000047
  0
LINE
  5
19952
  8
AM_0
 10
952.10028858816031
 20
684.34437167689362
 30
0.0
 11
949.87024858816039
 21
684.34437167689362
 31
0.0
  0
ARC
  5
19953
  8
AM_0
 10
943.14841858816044
 20
685.58092167689347
 30
0.0
 40
1.993431999999999
 50
10.21196999999983
 51
90.234116000000725
  0
LINE
  5
19954
  8
AM_0
 10
945.15024858816014
 20
691.28435167689361
 30
0.0
 11
946.11026858816035
 21
686.81435167689381
 31
0.0
  0
LINE
  5
19955
  8
AM_0
 10
928.37027858816055
 20
696.48435167689365
 30
0.0
 11
928.37027858816055
 21
689.0743516768938
 31
0.0
  0
ARC
  5
19956
  8
AM_0
 10
929.8720485881604
 20
694.36614167689379
 30
0.0
 40
1.501795999999997
 50
180.06854999999891
 51
269.93145000000101
  0
ARC
  5
19957
  8
AM_0
 10
929.75663858816029
 20
699.40125167689382
 30
0.0
 40
1.506888
 50
194.8769300000049
 51
270.1377700000005
  0
ARC
  5
19958
  8
AM_0
 10
926.37302858816054
 20
696.48714167689377
 30
0.0
 40
1.9972080000000001
 50
359.91986000000099
 51
90.080142999999566
  0
ARC
  5
19959
  8
AM_0
 10
926.37387858816055
 20
694.45797167689375
 30
0.0
 40
1.996383999999999
 50
359.89615999999739
 51
90.103836999999984
  0
ARC
  5
1995A
  8
AM_0
 10
929.87412858816037
 20
697.76819167689348
 30
0.0
 40
1.503848099999999
 50
180.14640000000301
 51
269.85359999999702
  0
ARC
  5
1995B
  8
AM_0
 10
929.87595858816053
 20
689.08002167689381
 30
0.0
 40
1.505676
 50
180.21552999999901
 51
269.78448000000111
  0
LINE
  5
1995C
  8
AM_0
 10
955.87024858816028
 20
649.74438167689379
 30
0.0
 11
951.59027858816034
 21
649.74438167689379
 31
0.0
  0
LINE
  5
1995D
  8
AM_0
 10
950.37030858816036
 20
650.59437167689362
 30
0.0
 11
953.37030858816036
 21
650.59437167689362
 31
0.0
  0
LINE
  5
1995E
  8
AM_0
 10
950.37030858816036
 20
648.59436167689375
 30
0.0
 11
953.37030858816036
 21
648.59436167689375
 31
0.0
  0
LINE
  5
1995F
  8
AM_0
 10
950.37030858816036
 20
660.59436167689375
 30
0.0
 11
953.37030858816036
 21
660.59436167689375
 31
0.0
  0
LINE
  5
19960
  8
AM_0
 10
950.37030858816036
 20
658.59437167689362
 30
0.0
 11
953.37030858816036
 21
658.59437167689362
 31
0.0
  0
LINE
  5
19961
  8
AM_0
 10
952.56030858816041
 20
670.20439167689358
 30
0.0
 11
953.7603185881602
 21
669.69439167689382
 31
0.0
  0
LINE
  5
19962
  8
AM_0
 10
952.51025858816035
 20
668.29437167689377
 30
0.0
 11
953.66028858816037
 21
667.94436167689378
 31
0.0
  0
LINE
  5
19963
  8
AM_0
 10
952.61029858816028
 20
682.09437167689362
 30
0.0
 11
953.89032858815995
 21
681.32438167689349
 31
0.0
  0
LINE
  5
19964
  8
AM_0
 10
952.62030858816013
 20
677.55433167689375
 30
0.0
 11
953.92029858816045
 21
676.70434167689382
 31
0.0
  0
LINE
  5
19965
  8
AM_0
 10
952.60028858816042
 20
676.44435167689358
 30
0.0
 11
953.88031858816043
 21
675.6943516768938
 31
0.0
  0
LINE
  5
19966
  8
AM_0
 10
952.58026858815992
 20
683.09440167689365
 30
0.0
 11
953.82025858816007
 21
682.46440167689354
 31
0.0
  0
LINE
  5
19967
  8
AM_0
 10
952.59027858816034
 20
680.98439167689367
 30
0.0
 11
953.84033858816008
 21
680.31439167689382
 31
0.0
  0
LINE
  5
19968
  8
AM_0
 10
950.37030858816036
 20
628.59437167689362
 30
0.0
 11
953.37030858816036
 21
628.59437167689362
 31
0.0
  0
LINE
  5
19969
  8
AM_0
 10
950.37030858816036
 20
630.59436167689375
 30
0.0
 11
953.37030858816036
 21
630.59436167689375
 31
0.0
  0
LINE
  5
1996A
  8
AM_0
 10
950.37030858816036
 20
640.59437167689362
 30
0.0
 11
953.37030858816036
 21
640.59437167689362
 31
0.0
  0
LINE
  5
1996B
  8
AM_0
 10
950.37030858816036
 20
638.5943716768935
 30
0.0
 11
953.37030858816036
 21
638.5943716768935
 31
0.0
  0
LINE
  5
1996C
  8
AM_0
 10
954.37024858816039
 20
682.61438167689357
 30
0.0
 11
954.37024858816039
 21
639.59436167689375
 31
0.0
  0
ARC
  5
1996D
  8
AM_0
 10
953.37549858816033
 20
675.87197167689374
 30
0.0
 40
0.9948279899999999
 50
359.56186999999977
 51
56.795310000000541
  0
ARC
  5
1996E
  8
AM_0
 10
953.37707858816032
 20
679.43580167689379
 30
0.0
 40
0.9932120399999999
 50
359.91816999999918
 51
62.200660000004291
  0
ARC
  5
1996F
  8
AM_0
 10
953.37707858816032
 20
682.61229167689362
 30
0.0
 40
0.99319202
 50
0.1204399999996219
 51
60.226600000001909
  0
ARC
  5
19970
  8
AM_0
 10
953.37469858816041
 20
681.57406167689362
 30
0.0
 40
0.99558806
 50
0.0177499999989372
 51
63.412510000004303
  0
ARC
  5
19971
  8
AM_0
 10
953.37585858816055
 20
680.47334167689382
 30
0.0
 40
0.9944360299999999
 50
0.0595100000006976
 51
58.847829999999441
  0
ARC
  5
19972
  8
AM_0
 10
953.37390858816036
 20
668.77595167689356
 30
0.0
 40
0.99640006
 50
359.90960000000121
 51
67.18261000000129
  0
ARC
  5
19973
  8
AM_0
 10
953.37622858816042
 20
674.8375716768935
 30
0.0
 40
0.99407601
 50
359.81535999999909
 51
59.53080000000589
  0
ARC
  5
19974
  8
AM_0
 10
953.3740285881604
 20
666.99012167689375
 30
0.0
 40
0.9962600499999998
 50
359.66950999999978
 51
73.302510000000908
  0
LINE
  5
19975
  8
AM_0
 10
955.87030858816036
 20
654.59439167689379
 30
0.0
 11
954.37030858816013
 21
654.72439167689379
 31
0.0
  0
ARC
  5
19976
  8
AM_0
 10
953.37524858816039
 20
659.59930167689345
 30
0.0
 40
0.9950800499999999
 50
359.7159300000007
 51
90.284078999998712
  0
ARC
  5
19977
  8
AM_0
 10
953.37012858816036
 20
659.59459167689374
 30
0.0
 40
1.0002040000000001
 50
270.01167999999927
 51
359.9883299999953
  0
ARC
  5
19978
  8
AM_0
 10
953.37524858816039
 20
649.59928167689361
 30
0.0
 40
0.99508399
 50
359.71612999999547
 51
90.283866999995979
  0
ARC
  5
19979
  8
AM_0
 10
953.37012858816036
 20
649.59457167689345
 30
0.0
 40
1.0001999999999971
 50
270.01146999999992
 51
359.98853000000008
  0
LINE
  5
1997A
  8
AM_0
 10
955.87024858816028
 20
651.87437167689382
 30
0.0
 11
954.37024858816039
 21
651.87437167689382
 31
0.0
  0
LINE
  5
1997B
  8
AM_0
 10
956.36414858816022
 20
652.58613167689361
 30
0.0
 11
955.86414858816045
 21
652.54612167689356
 31
0.0
  0
LINE
  5
1997C
  8
AM_0
 10
956.86414858816045
 20
649.8161116768938
 30
0.0
 11
956.36414858816022
 21
652.58613167689361
 31
0.0
  0
ARC
  5
1997D
  8
AM_0
 10
953.37524858816039
 20
639.59930167689379
 30
0.0
 40
0.9950879799999999
 50
359.71634999999952
 51
90.283654999997125
  0
ARC
  5
1997E
  8
AM_0
 10
953.37012858816036
 20
639.59457167689345
 30
0.0
 40
1.0001959999999981
 50
270.01126000000068
 51
359.98875000000061
  0
ARC
  5
1997F
  8
AM_0
 10
953.37524858816039
 20
629.59930167689345
 30
0.0
 40
0.9950800499999999
 50
359.71590000000032
 51
90.284105999997195
  0
POINT
  5
19980
  8
AM_0
 10
956.86414858816011
 20
634.59434167689346
 30
0.0
  0
ARC
  5
19981
  8
AM_0
 10
953.37012858816036
 20
629.59459167689374
 30
0.0
 40
1.0002040000000001
 50
270.01170000000161
 51
359.98829999999822
  0
LINE
  5
19982
  8
AM_0
 10
904.37027858816043
 20
680.94434167689349
 30
0.0
 11
939.37027858816043
 21
678.91434167689374
 31
0.0
  0
ARC
  5
19983
  8
AM_0
 10
927.37027858816055
 20
669.59435167689355
 30
0.0
 40
1.0000040999999991
 50
270.0
 51
89.999997000002296
  0
ARC
  5
19984
  8
AM_0
 10
934.82022858816015
 20
669.59435167689355
 30
0.0
 40
1.0000040999999991
 50
270.0
 51
89.999997000002296
  0
ARC
  5
19985
  8
AM_0
 10
935.69028858816046
 20
669.63935167689374
 30
0.0
 40
1.6750081000000001
 50
270.0
 51
89.999997000002296
  0
LINE
  5
19986
  8
AM_0
 10
949.37027858816043
 20
668.9043516768935
 30
0.0
 11
939.37027858816043
 21
668.9043516768935
 31
0.0
  0
LINE
  5
19987
  8
AM_0
 10
949.37027858816043
 20
682.9443416768936
 30
0.0
 11
939.37027858816043
 21
682.9443416768936
 31
0.0
  0
LINE
  5
19988
  8
AM_0
 10
949.37027858816043
 20
677.28435167689361
 30
0.0
 11
939.37027858816043
 21
677.28435167689361
 31
0.0
  0
ARC
  5
19989
  8
AM_0
 10
950.37268858816014
 20
675.58200167689381
 30
0.0
 40
1.002375999999999
 50
90.135590000000704
 51
179.864408009996
  0
ARC
  5
1998A
  8
AM_0
 10
952.13519858816039
 20
680.09901167689361
 30
0.0
 40
0.99546796
 50
62.796340000000008
 51
90.858551999998383
  0
ARC
  5
1998B
  8
AM_0
 10
950.36926858816014
 20
680.09536167689362
 30
0.0
 40
0.9990080599999998
 50
89.943157000003893
 51
180.05685000000281
  0
LINE
  5
1998C
  8
AM_0
 10
952.12024858816005
 20
681.09437167689362
 30
0.0
 11
950.37030858816036
 21
681.09437167689362
 31
0.0
  0
ARC
  5
1998D
  8
AM_0
 10
952.06366858816045
 20
676.72818167689366
 30
0.0
 40
0.9962120099999999
 50
56.030099999999067
 51
89.618093999998152
  0
ARC
  5
1998E
  8
AM_0
 10
952.0908885881604
 20
675.58789167689361
 30
0.0
 40
0.9965200400000001
 50
59.256719999999092
 51
89.45878700000047
  0
LINE
  5
1998F
  8
AM_0
 10
952.07025858816007
 20
677.72438167689381
 30
0.0
 11
949.37030858816036
 21
677.72438167689381
 31
0.0
  0
LINE
  5
19990
  8
AM_0
 10
952.10028858816031
 20
676.58436167689365
 30
0.0
 11
950.37030858816036
 21
676.58436167689365
 31
0.0
  0
LINE
  5
19991
  8
AM_0
 10
952.37030858816036
 20
677.4243616768938
 30
0.0
 11
952.37030858816036
 21
676.95437167689374
 31
0.0
  0
ARC
  5
19992
  8
AM_0
 10
952.14551858816037
 20
682.2003416768938
 30
0.0
 40
0.9941280500000002
 50
64.065190000002104
 51
90.877191999998061
  0
ARC
  5
19993
  8
AM_0
 10
952.10144858816045
 20
681.24017167689374
 30
0.0
 40
0.9942600099999999
 50
59.218909999997692
 51
90.644117999997491
  0
ARC
  5
19994
  8
AM_0
 10
949.86865858816032
 20
682.69601167689382
 30
0.0
 40
0.4983640000000002
 50
89.811401999999177
 51
180.18859000000501
  0
LINE
  5
19995
  8
AM_0
 10
952.09027858816012
 20
682.23436167689385
 30
0.0
 11
949.37030858816036
 21
682.23436167689385
 31
0.0
  0
LINE
  5
19996
  8
AM_0
 10
952.13031858816043
 20
683.19436167689378
 30
0.0
 11
949.87024858816039
 21
683.19436167689378
 31
0.0
  0
LINE
  5
19997
  8
AM_0
 10
952.37030858816036
 20
681.99438167689379
 30
0.0
 11
952.37030858816036
 21
681.4443816768935
 31
0.0
  0
ARC
  5
19998
  8
AM_0
 10
952.16931858815997
 20
669.28889167689374
 30
0.0
 40
0.99548006
 50
66.872969999999881
 51
89.942679000001263
  0
ARC
  5
19999
  8
AM_0
 10
950.07483858816045
 20
670.98892167689382
 30
0.0
 40
0.7045519900000004
 50
180.36910999999941
 51
269.63089000000048
  0
LINE
  5
1999A
  8
AM_0
 10
952.17029858816045
 20
670.28437167689378
 30
0.0
 11
950.07031858816015
 21
670.28437167689378
 31
0.0
  0
LINE
  5
1999B
  8
AM_0
 10
952.37030858816036
 20
669.9843716768936
 30
0.0
 11
952.37030858816036
 21
668.92437167689366
 31
0.0
  0
ARC
  5
1999C
  8
AM_0
 10
936.22037858816066
 20
675.80451167689375
 30
0.0
 40
1.004135999999999
 50
134.20256399999931
 51
185.1511600000043
  0
LINE
  5
1999D
  8
AM_0
 10
939.37027858816043
 20
682.9443416768936
 30
0.0
 11
939.37027858816043
 21
668.9043516768935
 31
0.0
  0
ARC
  5
1999E
  8
AM_0
 10
939.74906858816053
 20
672.26241167689363
 30
0.0
 40
6.003908199999997
 50
93.617285999997875
 51
134.77630699999941
  0
ARC
  5
1999F
  8
AM_0
 10
940.20536858816035
 20
676.19213167689361
 30
0.0
 40
5.0078917000000001
 50
185.4746799999993
 51
260.40127999999839
  0
ARC
  5
199A0
  8
AM_0
 10
950.37518858816031
 20
661.59928167689361
 30
0.0
 40
1.0049318999999981
 50
180.28041999999681
 51
269.7195799999966
  0
ARC
  5
199A1
  8
AM_0
 10
952.23114858816029
 20
667.34166167689364
 30
0.0
 40
0.99277198
 50
73.668180000001442
 51
90.625191999999927
  0
ARC
  5
199A2
  8
AM_0
 10
950.36859858816024
 20
667.33607167689365
 30
0.0
 40
0.99829602
 50
89.902039000000997
 51
180.09796000000259
  0
LINE
  5
199A3
  8
AM_0
 10
952.22027858816045
 20
668.33436167689365
 30
0.0
 11
950.37030858816036
 21
668.33436167689365
 31
0.0
  0
LINE
  5
199A4
  8
AM_0
 10
952.37030858816036
 20
660.22438167689381
 30
0.0
 11
952.37030858816036
 21
658.85438167689381
 31
0.0
  0
ARC
  5
199A5
  8
AM_0
 10
950.37012858816036
 20
657.59452167689358
 30
0.0
 40
0.99985206
 50
89.991452999997875
 51
180.00854999999979
  0
ARC
  5
199A6
  8
AM_0
 10
935.91025858816045
 20
659.6193616768935
 30
0.0
 40
1.4650000000000001
 50
270.0
 51
89.999997000002296
  0
ARC
  5
199A7
  8
AM_0
 10
934.82022858816015
 20
659.59435167689367
 30
0.0
 40
1.0000040999999991
 50
270.0
 51
89.999997000002296
  0
ARC
  5
199A8
  8
AM_0
 10
927.37027858816055
 20
659.59435167689367
 30
0.0
 40
1.0000040999999991
 50
270.0
 51
89.999997000002296
  0
ARC
  5
199A9
  8
ｶｸﾚｾﾝ2
 10
898.87030858816058
 20
663.09437167689362
 30
0.0
 40
3.0
 50
0.0
 51
90.0
  0
ARC
  5
199AA
  8
AM_0
 10
950.37012858816036
 20
637.59452167689335
 30
0.0
 40
0.99984801
 50
89.991221000001829
 51
180.0087799999994
  0
ARC
  5
199AB
  8
AM_0
 10
945.04026858816064
 20
649.60436167689363
 30
0.0
 40
1.3300000000000001
 50
270.0
 51
89.999997000002296
  0
ARC
  5
199AC
  8
AM_0
 10
950.37012858816036
 20
647.5945116768936
 30
0.0
 40
0.9998440099999999
 50
89.991009000001426
 51
180.00898999999711
  0
LINE
  5
199AD
  8
AM_0
 10
952.37030858816036
 20
650.20436167689365
 30
0.0
 11
952.37030858816036
 21
648.99438167689379
 31
0.0
  0
ARC
  5
199AE
  8
AM_0
 10
950.37518858816031
 20
651.5992816768935
 30
0.0
 40
1.004928
 50
180.2802199999997
 51
269.71978000000013
  0
ARC
  5
199AF
  8
AM_0
 10
943.81894858816042
 20
649.59437167689362
 30
0.0
 40
1.000035999999999
 50
269.50070999999838
 51
90.499283999999889
  0
ARC
  5
199B0
  8
AM_0
 10
945.10025858816005
 20
639.5993416768938
 30
0.0
 40
1.265004
 50
270.0
 51
89.999997000002296
  0
LINE
  5
199B1
  8
AM_0
 10
952.37030858816036
 20
640.20437167689374
 30
0.0
 11
952.37030858816036
 21
639.0443516768936
 31
0.0
  0
ARC
  5
199B2
  8
AM_0
 10
950.37518858816031
 20
641.59927167689375
 30
0.0
 40
1.0049238999999981
 50
180.28000999999611
 51
269.71998999999721
  0
ARC
  5
199B3
  8
AM_0
 10
943.81894858816042
 20
639.59435167689355
 30
0.0
 40
1.000035999999999
 50
269.50070999999838
 51
90.499283999999889
  0
ARC
  5
199B4
  8
AM_0
 10
927.37027858816055
 20
649.59437167689362
 30
0.0
 40
1.0000040999999991
 50
270.0
 51
89.999997000002296
  0
ARC
  5
199B5
  8
AM_0
 10
927.37027858816055
 20
639.59435167689355
 30
0.0
 40
1.0000040999999991
 50
270.0
 51
89.999997000002296
  0
ARC
  5
199B6
  8
AM_0
 10
943.81894858816042
 20
629.59435167689355
 30
0.0
 40
1.000035999999999
 50
269.50070999999838
 51
90.499283999999889
  0
ARC
  5
199B7
  8
AM_0
 10
950.37524858816028
 20
631.59929167689347
 30
0.0
 40
1.0049318999999981
 50
180.280450000001
 51
269.719549999999
  0
ARC
  5
199B8
  8
AM_0
 10
945.10025858816005
 20
629.59435167689355
 30
0.0
 40
1.270003999999999
 50
270.0
 51
89.999997000002296
  0
LINE
  5
199B9
  8
AM_0
 10
952.37030858816036
 20
628.98436167689374
 30
0.0
 11
952.37030858816036
 21
630.14438167689354
 31
0.0
  0
ARC
  5
199BA
  8
AM_0
 10
950.37012858816036
 20
627.59452167689381
 30
0.0
 40
0.99985206
 50
89.991425999998739
 51
180.00857000000201
  0
ARC
  5
199BB
  8
AM_0
 10
927.37027858816055
 20
629.59435167689355
 30
0.0
 40
1.0000040999999991
 50
270.0
 51
89.999997000002296
  0
LINE
  5
199BC
  8
AM_0
 10
952.60028858816042
 20
584.98440267689386
 30
0.0
 11
953.87030858816036
 21
585.71439867689378
 31
0.0
  0
LINE
  5
199BD
  8
AM_0
 10
952.58032858816046
 20
586.10439767689377
 30
0.0
 11
953.82031858816038
 21
586.73439567689366
 31
0.0
  0
LINE
  5
199BE
  8
AM_0
 10
952.62030858816013
 20
591.63438167689378
 30
0.0
 11
953.92029858816045
 21
592.48438767689379
 31
0.0
  0
LINE
  5
199BF
  8
AM_0
 10
952.61029858816028
 20
587.09440367689365
 30
0.0
 11
953.89032858815995
 21
587.8644156768936
 31
0.0
  0
LINE
  5
199C0
  8
AM_0
 10
952.60028858816042
 20
592.74438967689355
 30
0.0
 11
953.88025858816013
 21
593.4943746768937
 31
0.0
  0
LINE
  5
199C1
  8
AM_0
 10
952.59027858816034
 20
588.21436867689374
 30
0.0
 11
953.84027858816012
 21
588.87435667689374
 31
0.0
  0
LINE
  5
199C2
  8
AM_0
 10
952.56030858816041
 20
598.98439567689366
 30
0.0
 11
953.76025858816035
 21
599.50436167689361
 31
0.0
  0
LINE
  5
199C3
  8
AM_0
 10
952.51025858816035
 20
600.89439167689375
 30
0.0
 11
953.66028858816037
 21
601.25439167689376
 31
0.0
  0
LINE
  5
199C4
  8
AM_0
 10
955.87024858816028
 20
619.44436167689355
 30
0.0
 11
951.29028858816014
 21
619.44436167689355
 31
0.0
  0
LINE
  5
199C5
  8
AM_0
 10
950.37030858816036
 20
608.59438167689382
 30
0.0
 11
953.37030858816036
 21
608.59438167689382
 31
0.0
  0
LINE
  5
199C6
  8
AM_0
 10
950.37030858816036
 20
610.59437167689362
 30
0.0
 11
953.37030858816036
 21
610.59437167689362
 31
0.0
  0
LINE
  5
199C7
  8
AM_0
 10
950.37030858816036
 20
618.59436167689375
 30
0.0
 11
953.37030858816036
 21
618.59436167689375
 31
0.0
  0
LINE
  5
199C8
  8
AM_0
 10
950.37030858816036
 20
620.59438167689382
 30
0.0
 11
953.37030858816036
 21
620.59438167689382
 31
0.0
  0
LINE
  5
199C9
  8
AM_0
 10
955.87024858816028
 20
617.31437167689376
 30
0.0
 11
954.37024858816039
 21
617.31437167689376
 31
0.0
  0
LINE
  5
199CA
  8
AM_0
 10
956.36414858816022
 20
616.6025216768935
 30
0.0
 11
955.86411858816041
 21
616.64253167689355
 31
0.0
  0
ARC
  5
199CB
  8
AM_0
 10
953.37012858816036
 20
619.59458167689365
 30
0.0
 40
1.0001999999999971
 50
270.01149000000231
 51
359.98849999999652
  0
LINE
  5
199CC
  8
AM_0
 10
956.86414858816045
 20
619.37251167689362
 30
0.0
 11
956.36414858816022
 21
616.6025216768935
 31
0.0
  0
ARC
  5
199CD
  8
AM_0
 10
953.37524858816039
 20
619.59929167689336
 30
0.0
 40
0.99508399
 50
359.716110000002
 51
90.283894000000515
  0
ARC
  5
199CE
  8
AM_0
 10
953.37012858816036
 20
609.59457167689357
 30
0.0
 40
1.0001959999999981
 50
270.01127999999659
 51
359.98871999999687
  0
ARC
  5
199CF
  8
AM_0
 10
953.37524858816039
 20
609.59931167689365
 30
0.0
 40
0.99508399
 50
359.71632000000022
 51
90.283675999997428
  0
LINE
  5
199D0
  8
AM_0
 10
955.87024858816028
 20
614.59437167689362
 30
0.0
 11
954.37030858816013
 21
614.46437167689362
 31
0.0
  0
ARC
  5
199D1
  8
AM_0
 10
953.37378858816044
 20
600.42284167689365
 30
0.0
 40
0.9964760499999998
 50
292.82034000000129
 51
0.0874199999992698
  0
ARC
  5
199D2
  8
AM_0
 10
953.37390858816036
 20
602.20871467689381
 30
0.0
 40
0.9963800299999999
 50
286.70292999999862
 51
359.75050999999979
  0
ARC
  5
199D3
  8
AM_0
 10
953.3712185881601
 20
593.31905867689375
 30
0.0
 40
0.9991000299999999
 50
303.33823000000478
 51
0.3045799999989818
  0
ARC
  5
199D4
  8
AM_0
 10
953.37182858816016
 20
594.35367367689355
 30
0.0
 40
0.9984599899999999
 50
300.61344999999972
 51
0.0403800000005283
  0
ARC
  5
199D5
  8
AM_0
 10
953.37256858816045
 20
589.7556656768935
 30
0.0
 40
0.99770796
 50
297.95523999999739
 51
359.9259500000004
  0
ARC
  5
199D6
  8
AM_0
 10
953.37463858816011
 20
587.62473067689382
 30
0.0
 40
0.99566799
 50
296.59016999999852
 51
359.97956999999923
  0
ARC
  5
199D7
  8
AM_0
 10
953.37268858816037
 20
586.57903767689345
 30
0.0
 40
0.9976240400000001
 50
299.92046000000028
 51
359.73248999999601
  0
ARC
  5
199D8
  8
AM_0
 10
953.37152858816034
 20
588.71786967689366
 30
0.0
 40
0.9987800700000001
 50
301.29144999999937
 51
0.3733299999999318
  0
ARC
  5
199D9
  8
AM_0
 10
939.74002858816004
 20
596.94086167689375
 30
0.0
 40
6.007896399999999
 50
225.38273000000689
 51
266.47155000000168
  0
LINE
  5
199DA
  8
AM_0
 10
939.37027858816043
 20
586.24436167689362
 30
0.0
 11
939.3702785881602
 21
597.93436206476235
 31
0.0
  0
ARC
  5
199DB
  8
AM_0
 10
950.37012858816036
 20
607.59453167689378
 30
0.0
 40
0.99984801
 50
89.991193000001289
 51
180.00881000000291
  0
ARC
  5
199DC
  8
AM_0
 10
945.04026858816064
 20
619.58437167689362
 30
0.0
 40
1.3300000000000001
 50
270.0
 51
89.999997000002296
  0
LINE
  5
199DD
  8
AM_0
 10
952.37030858816036
 20
618.9843816768938
 30
0.0
 11
952.37030858816036
 21
620.20436167689365
 31
0.0
  0
ARC
  5
199DE
  8
AM_0
 10
950.37012858816036
 20
617.59452167689381
 30
0.0
 40
0.9998440099999999
 50
89.99098200000229
 51
180.0090200000005
  0
ARC
  5
199DF
  8
AM_0
 10
950.37518858816031
 20
621.59928167689361
 30
0.0
 40
1.004928
 50
180.28023999999991
 51
269.71976000000001
  0
ARC
  5
199E0
  8
AM_0
 10
943.81894858816042
 20
619.59437167689362
 30
0.0
 40
1.000035999999999
 50
269.50070999999838
 51
90.499283999999889
  0
ARC
  5
199E1
  8
AM_0
 10
944.91025858816045
 20
609.57435167689334
 30
0.0
 40
1.4599999999999991
 50
270.0
 51
89.999997000002296
  0
LINE
  5
199E2
  8
AM_0
 10
952.37030858816036
 20
608.96437167689385
 30
0.0
 11
952.37030858816036
 21
610.33436167689365
 31
0.0
  0
ARC
  5
199E3
  8
AM_0
 10
950.37518858816031
 20
611.59928167689361
 30
0.0
 40
1.0049238999999981
 50
180.28002999999609
 51
269.7199600000007
  0
ARC
  5
199E4
  8
AM_0
 10
943.82022858816015
 20
609.59436167689364
 30
0.0
 40
1.0000040999999991
 50
270.0
 51
89.999997000002296
  0
ARC
  5
199E5
  8
AM_0
 10
927.37027858816055
 20
619.59437167689362
 30
0.0
 40
1.0000040999999991
 50
270.0
 51
89.999997000002296
  0
ARC
  5
199E6
  8
AM_0
 10
927.37027858816055
 20
609.59436167689364
 30
0.0
 40
1.0000040999999991
 50
270.0
 51
89.999997000002296
  0
ARC
  5
199E7
  8
AM_0
 10
943.82022595823821
 20
599.59435462689362
 30
0.0
 40
1.000007050003423
 50
270.00015068234609
 51
89.999849317653869
  0
LINE
  5
199E8
  8
AM_0
 10
952.37030858816036
 20
599.20436567689364
 30
0.0
 11
952.37030858816036
 21
600.26436367689359
 31
0.0
  0
ARC
  5
199E9
  8
AM_0
 10
944.69028858816046
 20
599.54935167689337
 30
0.0
 40
1.6750081000000001
 50
270.0
 51
89.999997000002296
  0
LINE
  5
199EA
  8
AM_0
 10
949.37027858816043
 20
600.2943616768938
 30
0.0
 11
946.20023858816035
 21
600.2943616768938
 31
0.0
  0
ARC
  5
199EB
  8
AM_0
 10
950.37359858816012
 20
601.85772467689355
 30
0.0
 40
1.003363999999999
 50
180.1917200000035
 51
269.80829000000131
  0
ARC
  5
199EC
  8
AM_0
 10
952.22973858816044
 20
601.85706067689375
 30
0.0
 40
1.0027280000000001
 50
269.45960000000059
 51
286.24702999999738
  0
LINE
  5
199ED
  8
AM_0
 10
952.22027858816045
 20
600.85437567689382
 30
0.0
 11
950.37030858816036
 21
600.85437567689382
 31
0.0
  0
ARC
  5
199EE
  8
AM_0
 10
952.10693858816012
 20
593.61536967689347
 30
0.0
 40
1.001012
 50
269.6197999999963
 51
299.52863999999983
  0
ARC
  5
199EF
  8
AM_0
 10
950.37274858816045
 20
593.61683367689375
 30
0.0
 40
1.002459999999999
 50
180.14038000000539
 51
269.85962000000097
  0
LINE
  5
199F0
  8
AM_0
 10
952.10028858816031
 20
592.6143776768937
 30
0.0
 11
950.37030858816036
 21
592.6143776768937
 31
0.0
  0
ARC
  5
199F1
  8
AM_0
 10
950.06970858816044
 20
598.20493067689381
 30
0.0
 40
0.69944
 50
89.954159999999803
 51
180.04584000000011
  0
ARC
  5
199F2
  8
AM_0
 10
952.16730858816004
 20
599.90959667689356
 30
0.0
 40
1.005223999999999
 50
270.1706399999963
 51
293.01371000000171
  0
LINE
  5
199F3
  8
AM_0
 10
952.17029858816045
 20
598.90437067689379
 30
0.0
 11
950.07031858816015
 21
598.90437067689379
 31
0.0
  0
ARC
  5
199F4
  8
AM_0
 10
927.37027858816055
 20
599.59435167689355
 30
0.0
 40
1.0000040999999991
 50
270.0
 51
89.999997000002296
  0
ARC
  5
199F5
  8
AM_0
 10
936.22373858816036
 20
593.38545167689358
 30
0.0
 40
1.007376
 50
174.93659510000259
 51
225.70967999999641
  0
ARC
  5
199F6
  8
AM_0
 10
940.20005858816035
 20
593.00148167689349
 30
0.0
 40
5.0021839000000003
 50
99.548574999998905
 51
174.57547400000249
  0
ARC
  5
199F7
  8
ｶｸﾚｾﾝ2
 10
898.87030858816058
 20
606.09437167689362
 30
0.0
 40
3.0
 50
270.0
 51
0.0
  0
LINE
  5
199F8
  8
AM_0
 10
904.37021858816036
 20
588.24436167689362
 30
0.0
 11
939.37021858816036
 21
590.27436167689382
 31
0.0
  0
LINE
  5
199F9
  8
AM_0
 10
928.37027858816055
 20
572.70435367689356
 30
0.0
 11
928.37027858816055
 21
580.11435667689386
 31
0.0
  0
ARC
  5
199FA
  8
AM_0
 10
943.19834858816046
 20
578.33006267689348
 30
0.0
 40
1.995695899999999
 50
270.05521999999718
 51
347.9774699999997
  0
LINE
  5
199FB
  8
AM_0
 10
949.37027858816043
 20
577.1643526768936
 30
0.0
 11
946.55027858815981
 21
577.09435267689355
 31
0.0
  0
ARC
  5
199FC
  8
AM_0
 10
947.53531858816029
 20
575.97257967689382
 30
0.0
 40
1.501779999999999
 50
89.81061700000086
 51
165.6671640000005
  0
LINE
  5
199FD
  8
AM_0
 10
945.18027858816038
 20
574.46434767689379
 30
0.0
 11
946.10031858816035
 21
578.34434467689346
 31
0.0
  0
LINE
  5
199FE
  8
AM_0
 10
943.14029858816036
 20
581.61435667689375
 30
0.0
 11
929.87027858816032
 21
581.61435667689375
 31
0.0
  0
LINE
  5
199FF
  8
AM_0
 10
949.37027858816043
 20
586.24436167689362
 30
0.0
 11
939.37027858816043
 21
586.24436167689362
 31
0.0
  0
LINE
  5
19A00
  8
AM_0
 10
949.37027858816043
 20
591.90436167689381
 30
0.0
 11
939.37027858816043
 21
591.90436167689381
 31
0.0
  0
LINE
  5
19A01
  8
AM_0
 10
945.65024858816025
 20
586.24436167689362
 30
0.0
 11
945.11020858816039
 21
583.25434067689366
 31
0.0
  0
ARC
  5
19A02
  8
AM_0
 10
949.86987858816065
 20
584.34480767689365
 30
0.0
 40
0.49955601
 50
89.949105999995894
 51
180.0508899999968
  0
ARC
  5
19A03
  8
AM_0
 10
952.08960858816044
 20
585.84544867689374
 30
0.0
 40
1.0011358999999971
 50
270.61249000000061
 51
300.67199999999639
  0
ARC
  5
19A04
  8
AM_0
 10
952.12445858816034
 20
586.99363467689363
 30
0.0
 40
0.99928796
 50
270.33380999999861
 51
297.13873000000308
  0
ARC
  5
19A05
  8
AM_0
 10
949.87372858816013
 20
586.49776167689356
 30
0.0
 40
0.50340396
 50
180.3861300000047
 51
269.61387000000178
  0
LINE
  5
19A06
  8
AM_0
 10
952.10028858816031
 20
584.84436567689374
 30
0.0
 11
949.87024858816039
 21
584.84436567689374
 31
0.0
  0
LINE
  5
19A07
  8
AM_0
 10
952.13031858816043
 20
585.99438267689379
 30
0.0
 11
949.87024858816039
 21
585.99438267689379
 31
0.0
  0
LINE
  5
19A08
  8
AM_0
 10
952.37030858816036
 20
585.09437267689361
 30
0.0
 11
952.37030858816036
 21
585.62437167689382
 31
0.0
  0
ARC
  5
19A09
  8
AM_0
 10
952.09894858816028
 20
587.9580286768936
 30
0.0
 40
1.003687999999999
 50
269.50724999999602
 51
300.6297300000009
  0
LINE
  5
19A0A
  8
AM_0
 10
952.09027858816012
 20
586.9543816768936
 30
0.0
 11
949.37030858816036
 21
586.9543816768936
 31
0.0
  0
LINE
  5
19A0B
  8
AM_0
 10
952.12024858816005
 20
588.0943726768935
 30
0.0
 11
950.37030858816036
 21
588.0943726768935
 31
0.0
  0
LINE
  5
19A0C
  8
AM_0
 10
952.37030858816036
 20
587.19436367689366
 30
0.0
 11
952.37030858816036
 21
587.74436667689361
 31
0.0
  0
ARC
  5
19A0D
  8
AM_0
 10
952.11511858816039
 20
589.09499867689374
 30
0.0
 40
1.0006280000000001
 50
270.29529000000059
 51
298.35013999999939
  0
ARC
  5
19A0E
  8
AM_0
 10
950.37433858816041
 20
589.09845467689365
 30
0.0
 40
1.0040839999999971
 50
180.23263000000361
 51
269.76736999999639
  0
ARC
  5
19A0F
  8
AM_0
 10
952.07751858816005
 20
592.47487367689382
 30
0.0
 40
1.0005360000000001
 50
269.58677999999787
 51
302.85360000000082
  0
LINE
  5
19A10
  8
AM_0
 10
952.07025858816007
 20
591.47436267689375
 30
0.0
 11
949.37030858816036
 21
591.47436267689375
 31
0.0
  0
LINE
  5
19A11
  8
AM_0
 10
952.37030858816036
 20
591.76437867689367
 30
0.0
 11
952.37030858816036
 21
592.23436467689351
 31
0.0
  0
LINE
  5
19A12
  8
AM_0
 10
947.54026858816007
 20
577.47436467689374
 30
0.0
 11
945.89023858815983
 21
577.47436467689374
 31
0.0
  0
LINE
  5
19A13
  8
AM_0
 10
947.56028858816035
 20
579.49436167689362
 30
0.0
 11
945.5002885881604
 21
579.49436167689362
 31
0.0
  0
ARC
  5
19A14
  8
AM_0
 10
947.55594858816028
 20
577.99802367689358
 30
0.0
 40
1.4963319999999991
 50
89.835409999999186
 51
166.61756199999849
  0
LINE
  5
19A15
  8
AM_0
 10
947.58030858816039
 20
583.56436167689378
 30
0.0
 11
945.16025858816033
 21
583.56436167689378
 31
0.0
  0
ARC
  5
19A16
  8
AM_0
 10
947.58011858816042
 20
582.06156867689356
 30
0.0
 40
1.5027881000000001
 50
89.995332000003089
 51
167.98665799999739
  0
ARC
  5
19A17
  8
AM_0
 10
943.14328858816032
 20
583.61398267689367
 30
0.0
 40
1.999628099999998
 50
269.91467
 51
349.63923999999759
  0
LINE
  5
19A18
  8
AM_0
 10
945.15024858816014
 20
577.9143526768936
 30
0.0
 11
946.11026858816035
 21
582.3743666768936
 31
0.0
  0
ARC
  5
19A19
  8
AM_0
 10
929.87064858816041
 20
580.11399067689365
 30
0.0
 40
1.5003600999999991
 50
90.013814999999965
 51
179.9861839999985
  0
LINE
  5
19A1A
  8
AM_0
 10
943.23026858816036
 20
572.9243546768937
 30
0.0
 11
929.87027858816032
 21
572.9243546768937
 31
0.0
  0
LINE
  5
19A1B
  8
AM_0
 10
943.26029858816014
 20
571.2943496768936
 30
0.0
 11
929.76029858816014
 21
571.2943496768936
 31
0.0
  0
LINE
  5
19A1C
  8
AM_0
 10
943.20023858816012
 20
576.33435067689356
 30
0.0
 11
929.87027858816032
 21
576.33435067689356
 31
0.0
  0
ARC
  5
19A1D
  8
AM_0
 10
943.23233858816059
 20
574.92629267689358
 30
0.0
 40
2.001947899999998
 50
269.94051999999903
 51
346.6588600000016
  0
ARC
  5
19A1E
  8
AM_0
 10
943.2578585881605
 20
573.29866767689361
 30
0.0
 40
2.0043239999999991
 50
270.0689100000011
 51
345.72195000000022
  0
LINE
  5
19A1F
  8
AM_0
 10
945.20023858816035
 20
572.80436667689389
 30
0.0
 11
946.08023858816046
 21
576.34436767689374
 31
0.0
  0
ARC
  5
19A20
  8
AM_0
 10
926.36917858816014
 20
570.68078567689361
 30
0.0
 40
1.996427999999999
 50
270.0323900000019
 51
345.3053699999997
  0
ARC
  5
19A21
  8
AM_0
 10
926.37046858816041
 20
571.35417967689364
 30
0.0
 40
1.999824
 50
269.99493999999879
 51
0.0050600000012402
  0
ARC
  5
19A22
  8
AM_0
 10
929.86887858816056
 20
571.42579667689347
 30
0.0
 40
1.498559999999999
 50
89.944884999996916
 51
180.05511999999939
  0
ARC
  5
19A23
  8
AM_0
 10
926.36777858816038
 20
572.70687067689335
 30
0.0
 40
2.0025157999999981
 50
270.0718999999998
 51
359.92810000000009
  0
ARC
  5
19A24
  8
AM_0
 10
929.75156858816035
 20
569.79407467689362
 30
0.0
 40
1.5003120000000001
 50
89.668336999999084
 51
165.31696600000029
  0
ARC
  5
19A25
  8
AM_0
 10
929.87180858816043
 20
574.83283967689363
 30
0.0
 40
1.501508099999997
 50
90.057548999996854
 51
179.94245300200021
  0
ARC
  5
19A26
  8
AM_0
 10
926.36863858816025
 20
574.7359996768937
 30
0.0
 40
2.001640099999999
 50
270.04695999999808
 51
359.95303999999533
  0
LINE
  5
19A27
  8
ｶｸﾚｾﾝ2
 10
821.87030858816013
 20
606.09437167689362
 30
0.0
 11
821.87030858816013
 21
663.09437167689362
 31
0.0
  0
LINE
  5
19A28
  8
ﾁｭｳｼﾝｾﾝ1
 10
853.37030858816036
 20
669.09437167689362
 30
0.0
 11
853.37030858816036
 21
600.09437167689362
 31
0.0
1001
GENIUS_GENODEF_13
1002
{
1000
HIER
1070
     0
1002
}
1002
{
1000
MANEDIT
1070
     0
1002
}
1002
{
1000
NOSEL
1070
     0
1002
}
1002
{
1000
BEHIND
1070
     0
1002
}
1002
{
1000
REACTOR
1002
}
1001
GENIUS_GENOBJ-N-CEN_13
1002
{
1000
OWNER
1000
GEN
1002
}
  0
LINE
  5
19A29
  8
AM_0
 10
802.37027858816055
 20
697.59436667689408
 30
0.0
 11
802.37027857196745
 21
571.59439770105905
 31
0.0
  0
LINE
  5
19A2A
  8
AM_0
 10
807.63025858816013
 20
694.97436167689375
 30
0.0
 11
804.17026858816041
 21
682.05434167689361
 31
0.0
  0
ARC
  5
19A2B
  8
AM_0
 10
873.37088858816037
 20
698.51374167689335
 30
0.0
 40
2.000623899999999
 50
90.017824000002122
 51
179.9821759990013
  0
ARC
  5
19A2C
  8
AM_0
 10
873.36734858816055
 20
697.83727167689358
 30
0.0
 40
1.9970881
 50
89.916374999999235
 51
180.08362000000139
  0
ARC
  5
19A2D
  8
AM_0
 10
873.37003858816058
 20
696.48462167689365
 30
0.0
 40
1.9997199999999991
 50
89.991937999999706
 51
180.00806000000401
  0
LINE
  5
19A2E
  8
AM_0
 10
871.37027858816043
 20
698.51435167689374
 30
0.0
 11
871.37027858816043
 21
696.45435167689391
 31
0.0
  0
LINE
  5
19A2F
  8
AM_0
 10
802.66025858816045
 20
685.63434167689365
 30
0.0
 11
805.0702585881603
 21
685.63434167689365
 31
0.0
  0
ARC
  5
19A30
  8
AM_0
 10
802.66443858816035
 20
687.13483167689355
 30
0.0
 40
1.500475999999999
 50
269.84172000000018
 51
347.66777000000133
  0
LINE
  5
19A31
  8
AM_0
 10
807.66028858816026
 20
695.09435167689355
 30
0.0
 11
802.37027858816055
 21
695.09435167689355
 31
0.0
  0
LINE
  5
19A32
  8
AM_0
 10
805.56028858816035
 20
693.51439167689375
 30
0.0
 11
804.12027858816055
 21
686.81440167689379
 31
0.0
  0
ARC
  5
19A33
  8
AM_0
 10
807.5158185881603
 20
693.09418167689364
 30
0.0
 40
2.0001799999999981
 50
89.872485000002044
 51
167.87364800000211
  0
ARC
  5
19A34
  8
AM_0
 10
809.55982858816049
 20
694.45655167689347
 30
0.0
 40
1.997795899999999
 50
89.986419000002854
 51
164.97840299999831
  0
LINE
  5
19A35
  8
AM_0
 10
801.37027858816009
 20
698.59436667689408
 30
0.0
 11
793.37024858816005
 21
698.59436667689408
 31
0.0
  0
ARC
  5
19A36
  8
AM_0
 10
801.37522858816044
 20
697.59932667689407
 30
0.0
 40
0.9950640200000001
 50
359.714940000002
 51
90.285061999999584
  0
LINE
  5
19A37
  8
AM_0
 10
801.37027858816009
 20
686.6343616768936
 30
0.0
 11
793.37024858816005
 21
686.6343616768936
 31
0.0
  0
ARC
  5
19A38
  8
AM_0
 10
801.37586858816053
 20
685.63997167689377
 30
0.0
 40
0.9944000200000001
 50
359.67649000000222
 51
90.323509000000001
  0
ARC
  5
19A39
  8
ｶｸﾚｾﾝ2
 10
824.87030858816058
 20
663.09437167689362
 30
0.0
 40
3.0
 50
90.0
 51
180.0
  0
ARC
  5
19A3A
  8
AM_0
 10
809.02845858816045
 20
669.59435167689355
 30
0.0
 40
1.0000318999999971
 50
90.469299999997844
 51
269.53070000000201
  0
ARC
  5
19A3B
  8
AM_0
 10
805.5502785881605
 20
669.63935167689374
 30
0.0
 40
1.675
 50
89.999997000002296
 51
270.0
  0
ARC
  5
19A3C
  8
AM_0
 10
802.72000858816011
 20
682.44675167689365
 30
0.0
 40
1.502391899999999
 50
270.00936000000007
 51
344.85998999999862
  0
LINE
  5
19A3D
  8
AM_0
 10
802.37027858816055
 20
671.74436167689362
 30
0.0
 11
793.37024858816005
 21
671.74436167689362
 31
0.0
  0
ARC
  5
19A3E
  8
AM_0
 10
805.34026858816037
 20
659.6193616768935
 30
0.0
 40
1.4650000000000001
 50
90.00000299999769
 51
270.0
  0
ARC
  5
19A3F
  8
AM_0
 10
806.43029858816055
 20
659.59435167689367
 30
0.0
 40
1.0000040999999991
 50
90.00000299999769
 51
270.0
  0
ARC
  5
19A40
  8
AM_0
 10
806.42658858816014
 20
649.59437167689362
 30
0.0
 40
1.000035999999999
 50
89.500716000000082
 51
270.49929000000162
  0
ARC
  5
19A41
  8
AM_0
 10
805.20526858816049
 20
649.60436167689363
 30
0.0
 40
1.3300000000000001
 50
90.00000299999769
 51
270.0
  0
ARC
  5
19A42
  8
AM_0
 10
806.42658858816014
 20
639.59435167689355
 30
0.0
 40
1.000035999999999
 50
89.500716000000082
 51
270.49929000000162
  0
ARC
  5
19A43
  8
AM_0
 10
805.14527858816041
 20
639.5993416768938
 30
0.0
 40
1.265004
 50
90.00000299999769
 51
270.0
  0
ARC
  5
19A44
  8
AM_0
 10
805.14527858816041
 20
629.59435167689355
 30
0.0
 40
1.270003999999999
 50
90.00000299999769
 51
270.0
  0
ARC
  5
19A45
  8
AM_0
 10
806.42658858816014
 20
629.59435167689355
 30
0.0
 40
1.000035999999999
 50
89.500716000000082
 51
270.49929000000162
  0
ARC
  5
19A46
  8
AM_0
 10
873.37113858816053
 20
570.68522667689376
 30
0.0
 40
2.0008759
 50
180.0251100000024
 51
269.97488999999757
  0
ARC
  5
19A47
  8
AM_0
 10
873.37259858816049
 20
571.35669667689365
 30
0.0
 40
2.002332
 50
180.06674000000129
 51
269.93325999999871
  0
ARC
  5
19A48
  8
AM_0
 10
873.37528858816052
 20
572.70936567689364
 30
0.0
 40
2.0050240000000001
 50
180.1434100000013
 51
269.85658999999868
  0
LINE
  5
19A49
  8
AM_0
 10
871.37027858816043
 20
570.68435667689346
 30
0.0
 11
871.37027858816043
 21
572.73435967689375
 31
0.0
  0
ARC
  5
19A4A
  8
ｶｸﾚｾﾝ2
 10
824.87030858816058
 20
606.09437167689362
 30
0.0
 40
3.0
 50
180.0
 51
270.0
  0
ARC
  5
19A4B
  8
AM_0
 10
805.20526858816049
 20
619.58437167689362
 30
0.0
 40
1.3300000000000001
 50
90.00000299999769
 51
270.0
  0
ARC
  5
19A4C
  8
AM_0
 10
806.42658858816014
 20
619.59437167689362
 30
0.0
 40
1.000035999999999
 50
89.500716000000082
 51
270.49929000000162
  0
ARC
  5
19A4D
  8
AM_0
 10
806.42530858816042
 20
609.59436167689364
 30
0.0
 40
1.0000040999999991
 50
90.00000299999769
 51
270.0
  0
ARC
  5
19A4E
  8
AM_0
 10
805.33527858816012
 20
609.57435167689334
 30
0.0
 40
1.4599999999999991
 50
90.00000299999769
 51
270.0
  0
ARC
  5
19A4F
  8
AM_0
 10
809.02845858816045
 20
599.59435167689355
 30
0.0
 40
1.0000318999999971
 50
90.469299999997844
 51
269.53070000000201
  0
ARC
  5
19A50
  8
AM_0
 10
805.5502785881605
 20
599.54935167689337
 30
0.0
 40
1.675
 50
89.999997000002296
 51
270.0
  0
LINE
  5
19A51
  8
AM_0
 10
802.37027858816055
 20
597.44435167689358
 30
0.0
 11
793.37024858816005
 21
597.44435167689358
 31
0.0
  0
LINE
  5
19A52
  8
AM_0
 10
805.56025858815985
 20
575.67434667689361
 30
0.0
 11
804.12024858816028
 21
582.37434367689355
 31
0.0
  0
LINE
  5
19A53
  8
AM_0
 10
807.63025858816013
 20
574.21434767689345
 30
0.0
 11
804.17026858816041
 21
587.13435367689374
 31
0.0
  0
LINE
  5
19A54
  8
AM_0
 10
802.66025858816045
 20
583.56436167689378
 30
0.0
 11
805.0702585881603
 21
583.56436167689378
 31
0.0
  0
ARC
  5
19A55
  8
AM_0
 10
802.72495858816023
 20
586.74835967689364
 30
0.0
 40
1.495995999999999
 50
14.95233999999475
 51
90.178293000000224
  0
ARC
  5
19A56
  8
AM_0
 10
802.66318858816055
 20
582.06502567689336
 30
0.0
 40
1.499328
 50
11.906159999999311
 51
90.111848999999921
  0
LINE
  5
19A57
  8
AM_0
 10
801.37027858816009
 20
582.55435167689382
 30
0.0
 11
793.37024858816005
 21
582.55435167689382
 31
0.0
  0
ARC
  5
19A58
  8
AM_0
 10
801.37079858816037
 20
583.55383267689365
 30
0.0
 40
0.9994760199999999
 50
269.9700799999996
 51
0.0299099999979458
  0
LINE
  5
19A59
  8
AM_0
 10
807.66028858816026
 20
574.09435267689389
 30
0.0
 11
802.37027858816055
 21
574.09435267689389
 31
0.0
  0
ARC
  5
19A5A
  8
AM_0
 10
809.56485858816052
 20
574.73876967689375
 30
0.0
 40
2.0044159999999991
 50
195.1666599999993
 51
269.86852000000118
  0
ARC
  5
19A5B
  8
AM_0
 10
807.52094858816042
 20
576.10089067689364
 30
0.0
 40
2.0065319999999991
 50
192.2731300000041
 51
269.98073000000318
  0
LINE
  5
19A5C
  8
AM_0
 10
801.37027858816009
 20
570.59438667689403
 30
0.0
 11
793.37024858816005
 21
570.59438667689403
 31
0.0
  0
ARC
  5
19A5D
  8
AM_0
 10
801.3700985881602
 20
571.59457767689355
 30
0.0
 40
1.0001799999999981
 50
270.01032000000009
 51
359.98968999999448
  0
LINE
  5
19A60
  8
0
 10
564.36897105473349
 20
696.09437343641082
 30
0.0
 11
588.36897105473361
 21
696.09437343641082
 31
0.0
  0
LINE
  5
19A61
  8
0
 10
564.36897105473349
 20
693.59437343641082
 30
0.0
 11
564.36897105473349
 21
696.09437343641082
 31
0.0
  0
LINE
  5
19A62
  8
0
 10
585.36897105473349
 20
708.09437343641082
 30
0.0
 11
585.36897105473349
 21
696.09437343641082
 31
0.0
  0
LINE
  5
19A63
  8
0
 10
567.36897105473361
 20
696.09437343641082
 30
0.0
 11
567.36897105473361
 21
708.09437343641082
 31
0.0
  0
LINE
  5
19A64
  8
0
 10
567.36897105473361
 20
708.09437343641082
 30
0.0
 11
585.36897105473349
 21
708.09437343641082
 31
0.0
  0
LINE
  5
19A65
  8
0
 10
588.36897105473361
 20
696.09437343641082
 30
0.0
 11
588.36897105473361
 21
693.59437343641082
 31
0.0
  0
LINE
  5
19A66
  8
0
 10
739.37024814028575
 20
696.09437343641082
 30
0.0
 11
763.37024814028575
 21
696.09437343641082
 31
0.0
  0
LINE
  5
19A67
  8
0
 10
739.37024814028575
 20
693.59437343641082
 30
0.0
 11
739.37024814028575
 21
696.09437343641082
 31
0.0
  0
LINE
  5
19A68
  8
0
 10
760.37024814028575
 20
708.09437343641082
 30
0.0
 11
760.37024814028575
 21
696.09437343641082
 31
0.0
  0
LINE
  5
19A69
  8
0
 10
742.37024814028575
 20
696.09437343641082
 30
0.0
 11
742.37024814028575
 21
708.09437343641082
 31
0.0
  0
LINE
  5
19A6A
  8
0
 10
742.37024814028575
 20
708.09437343641082
 30
0.0
 11
760.37024814028575
 21
708.09437343641082
 31
0.0
  0
LINE
  5
19A6B
  8
0
 10
763.37024814028575
 20
696.09437343641082
 30
0.0
 11
763.37024814028575
 21
693.59437343641082
 31
0.0
  0
LINE
  5
19E0C
  8
AM_0
 10
768.36663489403736
 20
534.59437066293515
 30
0.0
 11
559.36665924064005
 21
534.59437066293481
 31
0.0
  0
LINE
  5
19E17
  8
AM_0
 10
767.61042795978835
 20
559.59437066293515
 30
0.0
 11
560.12560384328515
 21
559.59437066293481
 31
0.0
  0
LINE
  5
19E18
  8
AM_0
 10
561.37027299162355
 20
600.59437066293492
 30
0.0
 11
559.36665924064005
 21
534.59437066293481
 31
0.0
  0
LINE
  5
19E19
  8
AM_0
 10
766.37024858762004
 20
600.59437066293515
 30
0.0
 11
768.36663489403736
 21
534.59437066293515
 31
0.0
  0
LINE
  5
19E1A
  8
AM_0
 10
582.00828108116491
 20
534.59437066293481
 30
0.0
 11
582.00828108116491
 21
559.59437066293481
 31
0.0
  0
LINE
  5
19E1B
  8
ﾁｭｳｼﾝｾﾝ1
 10
591.36663263636251
 20
529.59437066293469
 30
0.0
 11
591.36663263636251
 21
564.59437066293492
 31
0.0
  0
LINE
  5
19E1F
  8
AM_0
 10
745.7250130535125
 20
534.59437066293481
 30
0.0
 11
745.7250130535125
 21
559.59437066293481
 31
0.0
  0
LINE
  5
19E20
  8
ﾁｭｳｼﾝｾﾝ1
 10
736.36666149831501
 20
529.59437066293469
 30
0.0
 11
736.36666149831501
 21
564.59437066293492
 31
0.0
  0
LINE
  5
19E21
  8
ﾁｭｳｼﾝｾﾝ1
 10
721.36666149831422
 20
415.5286257159529
 30
0.0
 11
751.36666149831422
 21
415.5286257159529
 31
0.0
  0
LINE
  5
19E22
  8
ﾁｭｳｼﾝｾﾝ1
 10
736.36667675710396
 20
400.52862571596091
 30
0.0
 11
736.36667675710396
 21
430.52862571594522
 31
0.0
  0
LINE
  5
19E23
  8
ﾁｭｳｼﾝｾﾝ1
 10
721.36666149831422
 20
215.5286257159535
 30
0.0
 11
751.36666149831422
 21
215.5286257159535
 31
0.0
  0
LINE
  5
19E24
  8
ﾁｭｳｼﾝｾﾝ1
 10
736.36667675710396
 20
200.52862571596131
 30
0.0
 11
736.36667675710396
 21
230.52862571594571
 31
0.0
  0
LINE
  5
19E25
  8
ﾁｭｳｼﾝｾﾝ1
 10
576.36663263636274
 20
215.5286257159535
 30
0.0
 11
606.36663263636274
 21
215.5286257159535
 31
0.0
  0
LINE
  5
19E26
  8
ﾁｭｳｼﾝｾﾝ1
 10
591.36664789515225
 20
200.52862571596131
 30
0.0
 11
591.36664789515225
 21
230.52862571594571
 31
0.0
  0
TEXT
  5
1A81E
  8
AM_0
 10
170.40353143130949
 20
656.91572042373275
 30
0.0
 40
10.0
  1
VC04-080FMH~VC04-240FMH
1001
ACAD
1000
MTEXTBEGIN
1070
    73
1070
     1
1070
    44
1040
1.0
1070
    74
1070
     0
1000
MTEXTEND
  0
ARC
  5
1AB48
  8
AM_0
 10
636.36666149831433
 20
315.5286257159529
 30
0.0
 40
17.5
 50
106.601550108455
 51
73.398449891545326
  0
VIEWPORT
  5
89
 67
     1
  8
0
 10
210.0
 20
148.5
 30
0.0
 40
420.0
 41
297.0
 68
     1
 69
     1
1001
ACAD
1000
MVIEW
1002
{
1070
    16
1010
0.0
1020
0.0
1030
0.0
1010
0.0
1020
0.0
1030
1.0
1040
0.0
1040
297.0
1040
221.70154043645701
1040
148.5
1040
50.0
1040
0.0
1040
0.0
1070
     0
1070
   100
1070
     1
1070
     1
1070
     0
1070
     0
1070
     0
1070
     0
1040
0.0
1040
0.0
1040
0.0
1040
10.0
1040
10.0
1040
10.0
1040
10.0
1070
     0
1002
{
1002
}
1002
}
1001
GENIUS_GENOREF_13
1005
1B94
1001
GENIUS_GENSCREG_15
1000
PF
1040
1.0
1000
DF
1040
1.0
1000
MIN
1011
0.0
1021
0.0
1031
0.0
1021
0.0
1031
0.0
1000
MAX
1011
420.0
1021
0.0
1031
0.0
1021
297.0
1031
0.0
1000
FLAGS
1070
     4
  0
ENDSEC
  0
EOF
