  0
SECTION
  2
HEADER
  9
$ACADVER
  1
AC1009
  9
$INSBASE
 10
0.0
 20
0.0
 30
0.0
  9
$EXTMIN
 10
171.6133756521312
 20
185.49682811076849
 30
-0.0000000000000058
  9
$EXTMAX
 10
998.684603317506
 20
721.56097582257485
 30
0.0000000000000104
  9
$LIMMIN
 10
0.0
 20
0.0
  9
$LIMMAX
 10
1138.0
 20
740.00000000000011
  9
$ORTHOMODE
 70
     0
  9
$REGENMODE
 70
     1
  9
$FILLMODE
 70
     1
  9
$QTEXTMODE
 70
     0
  9
$MIRRTEXT
 70
     1
  9
$DRAGMODE
 70
     2
  9
$LTSCALE
 40
4.0
  9
$OSMODE
 70
   551
  9
$ATTMODE
 70
     1
  9
$TEXTSIZE
 40
2.5
  9
$TRACEWID
 40
1.0
  9
$TEXTSTYLE
  7
STANDARD
  9
$CLAYER
  8
AM_0
  9
$CELTYPE
  6
BYLAYER
  9
$CECOLOR
 62
   256
  9
$DIMSCALE
 40
4.0
  9
$DIMASZ
 40
2.5
  9
$DIMEXO
 40
1.0
  9
$DIMDLI
 40
7.0
  9
$DIMRND
 40
0.0
  9
$DIMDLE
 40
0.0
  9
$DIMEXE
 40
1.0
  9
$DIMTP
 40
0.1
  9
$DIMTM
 40
0.1000000001
  9
$DIMTXT
 40
2.5
  9
$DIMCEN
 40
0.0
  9
$DIMTSZ
 40
0.0
  9
$DIMTOL
 70
     0
  9
$DIMLIM
 70
     0
  9
$DIMTIH
 70
     0
  9
$DIMTOH
 70
     0
  9
$DIMSE1
 70
     0
  9
$DIMSE2
 70
     0
  9
$DIMTAD
 70
     3
  9
$DIMZIN
 70
     8
  9
$DIMBLK
  1

  9
$DIMASO
 70
     1
  9
$DIMSHO
 70
     1
  9
$DIMPOST
  1

  9
$DIMAPOST
  1
"
  9
$DIMALT
 70
     0
  9
$DIMALTD
 70
     2
  9
$DIMALTF
 40
0.0393701
  9
$DIMLFAC
 40
1.0
  9
$DIMTOFL
 70
     1
  9
$DIMTVP
 40
0.0
  9
$DIMTIX
 70
     0
  9
$DIMSOXD
 70
     0
  9
$DIMSAH
 70
     0
  9
$DIMBLK1
  1

  9
$DIMBLK2
  1

  9
$DIMSTYLE
  2
AM_JIS
  9
$DIMCLRD
 70
   256
  9
$DIMCLRE
 70
   256
  9
$DIMCLRT
 70
     4
  9
$DIMTFAC
 40
0.71
  9
$DIMGAP
 40
1.0
  9
$LUNITS
 70
     2
  9
$LUPREC
 70
     2
  9
$SKETCHINC
 40
1.0
  9
$FILLETRAD
 40
0.0
  9
$AUNITS
 70
     0
  9
$AUPREC
 70
     3
  9
$MENU
  1
.
  9
$ELEVATION
 40
0.0
  9
$PELEVATION
 40
0.0
  9
$THICKNESS
 40
0.0
  9
$LIMCHECK
 70
     0
  9
$BLIPMODE
 70
     0
  9
$CHAMFERA
 40
10.0
  9
$CHAMFERB
 40
10.0
  9
$SKPOLY
 70
     0
  9
$TDCREATE
 40
2452753.643349607
  9
$TDUPDATE
 40
2458544.4399772459
  9
$TDINDWG
 40
0.6921906366
  9
$TDUSRTIMER
 40
0.6921877315
  9
$USRTIMER
 70
     1
  9
$ANGBASE
 50
0.0
  9
$ANGDIR
 70
     0
  9
$PDMODE
 70
     0
  9
$PDSIZE
 40
0.0
  9
$PLINEWID
 40
0.0
  9
$COORDS
 70
     1
  9
$SPLFRAME
 70
     0
  9
$SPLINETYPE
 70
     6
  9
$SPLINESEGS
 70
     8
  9
$ATTDIA
 70
     1
  9
$ATTREQ
 70
     1
  9
$HANDLING
 70
     1
  9
$HANDSEED
  5
1B276
  9
$SURFTAB1
 70
     6
  9
$SURFTAB2
 70
     6
  9
$SURFTYPE
 70
     6
  9
$SURFU
 70
     6
  9
$SURFV
 70
     6
  9
$UCSNAME
  2

  9
$UCSORG
 10
0.0
 20
0.0
 30
0.0
  9
$UCSXDIR
 10
1.0
 20
0.0
 30
0.0
  9
$UCSYDIR
 10
0.0
 20
1.0
 30
0.0
  9
$PUCSNAME
  2

  9
$PUCSORG
 10
0.0
 20
0.0
 30
0.0
  9
$PUCSXDIR
 10
1.0
 20
0.0
 30
0.0
  9
$PUCSYDIR
 10
0.0
 20
1.0
 30
0.0
  9
$USERI1
 70
     0
  9
$USERI2
 70
     0
  9
$USERI3
 70
     0
  9
$USERI4
 70
     0
  9
$USERI5
 70
     0
  9
$USERR1
 40
0.0
  9
$USERR2
 40
0.0
  9
$USERR3
 40
0.0
  9
$USERR4
 40
0.0
  9
$USERR5
 40
0.0
  9
$WORLDVIEW
 70
     1
  9
$SHADEDGE
 70
     3
  9
$SHADEDIF
 70
    70
  9
$TILEMODE
 70
     1
  9
$MAXACTVP
 70
    48
  9
$PLIMCHECK
 70
     0
  9
$PEXTMIN
 10
1.0000000000000000E+020
 20
1.0000000000000000E+020
 30
1.0000000000000000E+020
  9
$PEXTMAX
 10
-1.0000000000000000E+020
 20
-1.0000000000000000E+020
 30
-1.0000000000000000E+020
  9
$PLIMMIN
 10
0.0
 20
0.0
  9
$PLIMMAX
 10
420.0
 20
297.0
  9
$UNITMODE
 70
     0
  9
$VISRETAIN
 70
     1
  9
$PLINEGEN
 70
     0
  9
$PSLTSCALE
 70
     1
  0
ENDSEC
  0
SECTION
  2
TABLES
  0
TABLE
  2
VPORT
 70
     1
  0
VPORT
  2
*ACTIVE
 70
     0
 10
0.0
 20
0.0
 11
1.0
 21
1.0
 12
585.14898948481857
 22
453.52890196667158
 13
0.0
 23
0.0
 14
10.0
 24
10.0
 15
40.0
 25
40.0
 16
0.0
 26
0.0
 36
1.0
 17
0.0
 27
0.0
 37
0.0
 40
539.74422195239072
 41
1.7571592210767459
 42
50.0
 43
0.0
 44
0.0
 50
0.0
 51
0.0
 71
     0
 72
   100
 73
     1
 74
     1
 75
     0
 76
     0
 77
     0
 78
     0
  0
ENDTAB
  0
TABLE
  2
LTYPE
 70
    27
  0
LTYPE
  2
CONTINUOUS
 70
     0
  3
Solid line
 72
    65
 73
     0
 40
0.0
  0
LTYPE
  2
PHANTOM2
 70
     0
  3
Phantom (.5x) ___ _ _ ___ _ _ ___ _ _ ___ _ _
 72
    65
 73
     6
 40
31.75
 49
15.875
 49
-3.174999999999998
 49
3.174999999999998
 49
-3.174999999999998
 49
3.174999999999998
 49
-3.174999999999998
  0
LTYPE
  2
CENTER
 70
     0
  3
Center ____ _ ____ _ ____ _ ____ _ ____ _ ____
 72
    65
 73
     4
 40
50.799999999999997
 49
31.75
 49
-6.349999999999997
 49
6.349999999999997
 49
-6.349999999999997
  0
LTYPE
  2
GEN3B
 70
     0
  3
 - - - - -
 72
    65
 73
     2
 40
1.0
 49
0.5
 49
-0.5
  0
LTYPE
  2
GEN7A
 70
     0
  3
__ . __ . __
 72
    65
 73
     4
 40
7.375
 49
4.75
 49
-0.875
 49
0.875
 49
-0.875
  0
LTYPE
  2
AM_ISO02W050
 70
     0
  3
__ __ __ __ __ __ __ __ __ __ __ __ __ __ __
 72
    65
 73
     2
 40
7.5
 49
6.0
 49
-1.5
  0
LTYPE
  2
AM_ISO08W050
 70
     0
  3
____ . ____ . ____ . ____ . ____ . ____ . ____
 72
    65
 73
     4
 40
18.0
 49
12.0
 49
-1.5
 49
3.0
 49
-1.5
  0
LTYPE
  2
AM_ISO09W050
 70
     0
  3
_____ . . _____ . . _____ . . ____ .. ____
 72
    65
 73
     6
 40
22.5
 49
12.0
 49
-1.5
 49
3.0
 49
-1.5
 49
3.0
 49
-1.5
  0
LTYPE
  2
AMCONSTR
 70
     0
  3
_______________________
 72
    65
 73
     2
 40
9999.0
 49
9999.0
 49
0.0
  0
LTYPE
  2
AM_ISO02W050X2
 70
     0
  3
 _ _ _ _ _ _ _ _ _ _ _ _
 72
    65
 73
     2
 40
3.75
 49
3.0
 49
-0.75
  0
LTYPE
  2
AM_ISO08W050X2
 70
     0
  3
__ . __ . __ . __ . __ . __
 72
    65
 73
     4
 40
9.0
 49
6.0
 49
-0.75
 49
1.5
 49
-0.75
  0
LTYPE
  2
AMZIGZAG
 70
     0
  3
/\/-/\/-/\/-/\/-/\/-/\/
 72
    65
 73
     2
 40
11.0001
 49
0.0001
 49
-11.0
  0
LTYPE
  2
ACISOWELD
 70
     0
  3
_ _ _ _ _
 72
    65
 73
     2
 40
2.0
 49
2.0
 49
-1.0
  0
LTYPE
  2
ACISOTGB
 70
     0
  3
__ . . __ . .
 72
    65
 73
     6
 40
9.0
 49
4.0
 49
-1.0
 49
1.0
 49
-1.0
 49
1.0
 49
-1.0
  0
LTYPE
  2
ACISOTGL
 70
     0
  3
_ _ _ _ _
 72
    65
 73
     2
 40
3.0
 49
2.0
 49
-1.0
  0
LTYPE
  2
HIDDEN
 70
     0
  3
Hidden __ __ __ __ __ __ __ __ __ __ __ __ __ _
 72
    65
 73
     2
 40
9.5249999999999968
 49
6.349999999999997
 49
-3.174999999999998
  0
LTYPE
  2
ACANSTGBM
 70
     0
  3
__ . . __ . .
 72
    65
 73
     6
 40
9.0
 49
4.0
 49
-1.0
 49
1.0
 49
-1.0
 49
1.0
 49
-1.0
  0
LTYPE
  2
ACANSTGLM
 70
     0
  3
_ _ _ _ _
 72
    65
 73
     2
 40
3.0
 49
2.0
 49
-1.0
  0
LTYPE
  2
ACJISTGB
 70
     0
  3
__ . . __ . .
 72
    65
 73
     6
 40
9.0
 49
4.0
 49
-1.0
 49
1.0
 49
-1.0
 49
1.0
 49
-1.0
  0
LTYPE
  2
ACJISTGL
 70
     0
  3
_ _ _ _ _
 72
    65
 73
     2
 40
3.0
 49
2.0
 49
-1.0
  0
LTYPE
  2
ACJISWELD
 70
     0
  3
_ _ _ _ _
 72
    65
 73
     2
 40
2.0
 49
2.0
 49
-1.0
  0
LTYPE
  2
CENTER2
 70
     0
  3
Center (.5x) ___ _ ___ _ ___ _ ___ _ ___ _ ___
 72
    65
 73
     4
 40
1.125
 49
0.75
 49
-0.125
 49
0.125
 49
-0.125
  0
LTYPE
  2
HIDDEN2
 70
     0
  3
Hidden (.5x) _ _ _ _ _ _ _ _ _ _ _ _ _ _ _ _ _
 72
    65
 73
     2
 40
0.1875
 49
0.125
 49
-0.0625
  0
LTYPE
  2
AMZIGZAG2
 70
     0
  3
/\/-/\/-/\/-/\/-/\/-/\/
 72
    65
 73
     2
 40
0.4401
 49
0.0001
 49
-0.4400000000000001
  0
LTYPE
  2
ACANSTGB
 70
     0
  3
__ . . __ . .
 72
    65
 73
     6
 40
0.35433070866
 49
0.15748031496
 49
-0.03937007874
 49
0.03937007874
 49
-0.03937007874
 49
0.03937007874
 49
-0.03937007874
  0
LTYPE
  2
ACANSTGL
 70
     0
  3
_ _ _ _ _
 72
    65
 73
     2
 40
0.11811023622
 49
0.07874015748
 49
-0.03937007874
  0
ENDTAB
  0
TABLE
  2
LAYER
 70
     9
  0
LAYER
  2
0
 70
     0
 62
     7
  6
CONTINUOUS
  0
LAYER
  2
AM_0
 70
     0
 62
     7
  6
CONTINUOUS
  0
LAYER
  2
DEFPOINTS
 70
     0
 62
     7
  6
CONTINUOUS
  0
LAYER
  2
ｷｲﾛ
 70
     0
 62
     2
  6
CONTINUOUS
  0
LAYER
  2
ｶｸﾚｾﾝ2
 70
     0
 62
     3
  6
GEN3B
  0
LAYER
  2
ﾁｭｳｼﾝｾﾝ1
 70
     0
 62
     1
  6
GEN7A
  0
LAYER
  2
AM_0N
 70
     0
 62
     7
  6
CONTINUOUS
  0
LAYER
  2
AM_5
 70
     0
 62
     2
  6
CONTINUOUS
  0
LAYER
  2
AM_4
 70
     0
 62
     2
  6
CONTINUOUS
  0
ENDTAB
  0
TABLE
  2
STYLE
 70
    10
  0
STYLE
  2
STANDARD
 70
     0
 40
0.0
 41
0.8299999999999999
 50
0.0
 71
     0
 42
2.5
  3
txt.shx
  4
bigfont.shx
  0
STYLE
  2
ANNOTATIVE
 70
     0
 40
0.0
 41
1.0
 50
0.0
 71
     0
 42
0.2
  3
txt
  4

  0
STYLE
  2

 70
     1
 40
0.0
 41
1.0
 50
0.0
 71
     0
 42
2.5
  3
ltypeshp.shx
  4

  0
STYLE
  2
ACISOTS
 70
     0
 40
1.0
 41
1.0
 50
0.0
 71
     0
 42
2.5
  3
isocp.shx
  4
extfont.shx
  0
STYLE
  2
ACISOGDT
 70
     0
 40
0.0
 41
1.0
 50
0.0
 71
     0
 42
2.5
  3
amgdt.shx
  4

  0
STYLE
  2
ACANSTS
 70
     0
 40
1.0
 41
1.0
 50
0.0
 71
     0
 42
2.5
  3
romans.shx
  4
bigfont.shx
  0
STYLE
  2
ACANSGDT
 70
     0
 40
0.0
 41
1.0
 50
0.0
 71
     0
 42
2.5
  3
amgdt.shx
  4

  0
STYLE
  2
ACJISGDT
 70
     0
 40
0.0
 41
1.0
 50
0.0
 71
     0
 42
2.5
  3
amgdt.shx
  4

  0
STYLE
  2
ACJISTS
 70
     0
 40
1.0
 41
1.0
 50
0.0
 71
     0
 42
2.5
  3
isocp.shx
  4
extfont.shx
  0
STYLE
  2

 70
     1
 40
0.0
 41
1.0
 50
0.0
 71
     0
 42
2.5
  3
genltshp.shx
  4

  0
ENDTAB
  0
TABLE
  2
VIEW
 70
    12
  0
VIEW
  2
GEN1
 70
     0
 40
95.824742268041234
 10
71.5
 20
137.08762886597941
 41
143.0
 11
0.0
 21
0.0
 31
1.0
 12
0.0
 22
0.0
 32
0.0
 42
50.0
 43
0.0
 44
0.0
 50
0.0
 71
     0
  0
VIEW
  2
GEN2
 70
     0
 40
95.824742268041234
 10
214.5
 20
137.08762886597941
 41
143.0
 11
0.0
 21
0.0
 31
1.0
 12
0.0
 22
0.0
 32
0.0
 42
50.0
 43
0.0
 44
0.0
 50
0.0
 71
     0
  0
VIEW
  2
GEN3
 70
     0
 40
95.824742268041234
 10
71.5
 20
47.912371134020603
 41
143.0
 11
0.0
 21
0.0
 31
1.0
 12
0.0
 22
0.0
 32
0.0
 42
50.0
 43
0.0
 44
0.0
 50
0.0
 71
     0
  0
VIEW
  2
GEN4
 70
     0
 40
95.824742268041234
 10
214.5
 20
47.912371134020603
 41
143.0
 11
0.0
 21
0.0
 31
1.0
 12
0.0
 22
0.0
 32
0.0
 42
50.0
 43
0.0
 44
0.0
 50
0.0
 71
     0
  0
VIEW
  2
GEN5
 70
     0
 40
95.824742268041234
 10
143.0
 20
92.500000000000057
 41
143.0
 11
0.0
 21
0.0
 31
1.0
 12
0.0
 22
0.0
 32
0.0
 42
50.0
 43
0.0
 44
0.0
 50
0.0
 71
     0
  0
VIEW
  2
GEN6
 70
     0
 40
191.64756804123709
 10
143.0
 20
92.5
 41
285.99714
 11
0.0
 21
0.0
 31
1.0
 12
0.0
 22
0.0
 32
0.0
 42
50.0
 43
0.0
 44
0.0
 50
0.0
 71
     0
  0
VIEW
  2
AM_VIEW1
 70
     0
 40
370.00000000000023
 10
332.86372007366492
 20
555.00000000000011
 41
665.72744014732962
 11
0.0
 21
0.0
 31
1.0
 12
0.0
 22
0.0
 32
0.0
 42
50.0
 43
0.0
 44
0.0
 50
0.0
 71
     0
  0
VIEW
  2
AM_VIEW2
 70
     0
 40
370.00000000000023
 10
805.13627992633485
 20
555.00000000000011
 41
665.72744014732962
 11
0.0
 21
0.0
 31
1.0
 12
0.0
 22
0.0
 32
0.0
 42
50.0
 43
0.0
 44
0.0
 50
0.0
 71
     0
  0
VIEW
  2
AM_VIEW3
 70
     0
 40
370.00000000000023
 10
332.86372007366492
 20
185.0
 41
665.72744014732962
 11
0.0
 21
0.0
 31
1.0
 12
0.0
 22
0.0
 32
0.0
 42
50.0
 43
0.0
 44
0.0
 50
0.0
 71
     0
  0
VIEW
  2
AM_VIEW4
 70
     0
 40
370.00000000000023
 10
805.13627992633485
 20
185.0
 41
665.72744014732962
 11
0.0
 21
0.0
 31
1.0
 12
0.0
 22
0.0
 32
0.0
 42
50.0
 43
0.0
 44
0.0
 50
0.0
 71
     0
  0
VIEW
  2
AM_VIEW5
 70
     0
 40
370.00000000000023
 10
569.0
 20
370.00000000000023
 41
665.72744014732962
 11
0.0
 21
0.0
 31
1.0
 12
0.0
 22
0.0
 32
0.0
 42
50.0
 43
0.0
 44
0.0
 50
0.0
 71
     0
  0
VIEW
  2
AM_VIEW6
 70
     0
 40
739.99260000000015
 10
569.0
 20
370.00000000000023
 41
1331.4415657458569
 11
0.0
 21
0.0
 31
1.0
 12
0.0
 22
0.0
 32
0.0
 42
50.0
 43
0.0
 44
0.0
 50
0.0
 71
     0
  0
ENDTAB
  0
TABLE
  2
UCS
 70
     0
  0
ENDTAB
  0
TABLE
  2
APPID
 70
   101
  0
APPID
  2
ACAD
 70
     0
  0
APPID
  2
ACADANNOTATIVE
 70
     0
  0
APPID
  2
MCAD_NO_VIS
 70
     0
  0
APPID
  2
ACAD_TEMP_GRAPHIC
 70
     0
  0
APPID
  2
AD_DRAW
 70
     0
  0
APPID
  2
DESIGNERASSEMBLIES
 70
     0
  0
APPID
  2
ASURF_PCURVE_APPNAME
 70
     0
  0
APPID
  2
GENIUS_GE3SECT_13
 70
     0
  0
APPID
  2
GENIUS_GENCFG_13
 70
     0
  0
APPID
  2
GENIUS_GE3CFG0_13
 70
     0
  0
APPID
  2
GENIUS_GENCFG0_13
 70
     0
  0
APPID
  2
GENIUS_GENCFG1_13
 70
     0
  0
APPID
  2
GENIUS_GENCFG2_13
 70
     0
  0
APPID
  2
GENIUS_GENCFG3_13
 70
     0
  0
APPID
  2
GENIUS_GENCFG4_13
 70
     0
  0
APPID
  2
GENIUS_GEVCFG0_13
 70
     0
  0
APPID
  2
GENIUS_GENOENT_13
 70
     0
  0
APPID
  2
GENIUS_GENREC_14
 70
     0
  0
APPID
  2
GENIUS_GENODEF_13
 70
     0
  0
APPID
  2
GENIUS_GENOBJ-N-REC_13
 70
     0
  0
APPID
  2
GENIUS_GENHINW_13
 70
     0
  0
APPID
  2
GENIUS_FIRSTVISTXT_14
 70
     0
  0
APPID
  2
GENIUS_GENOBJ-N-LEADER_13
 70
     0
  0
APPID
  2
GENIUS_GENOREF_13
 70
     0
  0
APPID
  2
GENIUS_GENOLIS_13
 70
     0
  0
APPID
  2
GEV_VCCNULL_SWITCH_OFF
 70
     0
  0
APPID
  2
GENIUS_GENDTOL_13
 70
     0
  0
APPID
  2
GENIUS_GEFCFG0_13
 70
     0
  0
APPID
  2
GENIUS_GENOBJ-N-TIT_13
 70
     0
  0
APPID
  2
GENIUS_GENTITLE_13
 70
     0
  0
APPID
  2
GENIUS_GENZVEED_13
 70
     0
  0
APPID
  2
GENIUS_GENOBJ-N-SDF_13
 70
     0
  0
APPID
  2
GENIUS_GENSCREG_13
 70
     0
  0
APPID
  2
GENIUS_DUMCFG0_13
 70
     0
  0
APPID
  2
GEVID936201362
 70
     0
  0
APPID
  2
GEVDC
 70
     0
  0
APPID
  2
GEVCON
 70
     0
  0
APPID
  2
VCC
 70
     0
  0
APPID
  2
GEVPT
 70
     0
  0
APPID
  2
GEVIT
 70
     0
  0
APPID
  2
GENBH
 70
     0
  0
APPID
  2
GEVMK
 70
     0
  0
APPID
  2
GENIUS_GENBH_13
 70
     0
  0
APPID
  2
GENIUS_GENOBJ-NBEHI-BHF_13
 70
     0
  0
APPID
  2
GENIUS_GENOBJ-NBEHI-BHB_13
 70
     0
  0
APPID
  2
GENIUS_GENOBJ-F-DESC_13
 70
     0
  0
APPID
  2
GENIUS_GEFDESC_14
 70
     0
  0
APPID
  2
GENIUS_GENOBJ-F-PART_13
 70
     0
  0
APPID
  2
GENIUS_GEFSTDP_13
 70
     0
  0
APPID
  2
GENIUS_GEFPARTINS_13
 70
     0
  0
APPID
  2
GENIUS_GENTRA_14
 70
     0
  0
APPID
  2
GENIUS_GENINF13_13
 70
     0
  0
APPID
  2
GENIUS_GENOBJ-N-INFOPT_13
 70
     0
  0
APPID
  2
GENIUS_GENOBJ-N-RSSYM_13
 70
     0
  0
APPID
  2
GENIUS_GENSYMENT_13
 70
     0
  0
APPID
  2
GENIUS_GENSCSYM_13
 70
     0
  0
APPID
  2
GENIUS_GEFINFNAM_13
 70
     0
  0
APPID
  2
GENIUS_GENSCREG_15
 70
     0
  0
APPID
  2
GENIUS_GENOBJ-N-CEN_13
 70
     0
  0
APPID
  2
GENIUS_GENOBJ-N-CRS_13
 70
     0
  0
APPID
  2
GENIUS_GENOBJ-N-CRC_13
 70
     0
  0
APPID
  2
GENIUS_GENCRC_14
 70
     0
  0
APPID
  2
GEVID942827039
 70
     0
  0
APPID
  2
GEVID942827040
 70
     0
  0
APPID
  2
GEVID942827041
 70
     0
  0
APPID
  2
GENIUS_GENOBJ-F-SCPASSM_13
 70
     0
  0
APPID
  2
GENIUS_GENDIMSH_14
 70
     0
  0
APPID
  2
GENIUS_GENFIL_13
 70
     0
  0
APPID
  2
GENIUS_GENOBJ-N-CHA_13
 70
     0
  0
APPID
  2
GENIUS_GENOBJ-N-FIL_13
 70
     0
  0
APPID
  2
GEVID942827042
 70
     0
  0
APPID
  2
GEVID946020473
 70
     0
  0
APPID
  2
GEVID946020474
 70
     0
  0
APPID
  2
GEVID946020475
 70
     0
  0
APPID
  2
GENIUS_GENOBJ-N-HTC_13
 70
     0
  0
APPID
  2
GENIUS_GENHATCH_13
 70
     0
  0
APPID
  2
GEVID948854295
 70
     0
  0
APPID
  2
GEVID939402019
 70
     0
  0
APPID
  2
GEVID952919491
 70
     0
  0
APPID
  2
GEVID952919492
 70
     0
  0
APPID
  2
GENIUS_GEFWELD_13
 70
     0
  0
APPID
  2
GENIUS_GENOBJ-F-WELS_13
 70
     0
  0
APPID
  2
GEVID952919493
 70
     0
  0
APPID
  2
GENIUS_GENOBJ-N-RSBK_13
 70
     0
  0
APPID
  2
GENIUS_GENOBJ-N-LIB_13
 70
     0
  0
APPID
  2
GENIUS_GENSCALE_13
 70
     0
  0
APPID
  2
GEVID986376691
 70
     0
  0
APPID
  2
ACATTRIBSERVICES
 70
     0
  0
APPID
  2
DCO15
 70
     0
  0
APPID
  2
ACADM_DIM_EDIT
 70
     0
  0
APPID
  2
AMDT_DM_ADJ
 70
     0
  0
APPID
  2
ACAD_MLEADERVER
 70
     0
  0
APPID
  2
CONTENTBLOCKDESCRIPTION
 70
     0
  0
APPID
  2
GEVID1057795304
 70
     0
  0
APPID
  2
GENIUS_GEFSH_13
 70
     0
  0
APPID
  2
GENIUS_GENOBJ-F-SHS_13
 70
     0
  0
APPID
  2
ACAD_DSTYLE_DIMBREAK
 70
     0
  0
APPID
  2
ACAD_DSTYLE_DIMJAG
 70
     0
  0
APPID
  2
ACAD_NAV_VCDISPLAY
 70
     0
  0
APPID
  2
ACAD_EXEMPT_FROM_CAD_STANDARDS
 70
     0
  0
APPID
  2
ACADANNOPO
 70
     0
  0
ENDTAB
  0
TABLE
  2
DIMSTYLE
 70
    23
  0
DIMSTYLE
  2
STANDARD
 70
     0
  3

  4

  5

  6

  7

 40
1.0
 41
0.18
 42
0.0625
 43
0.38
 44
0.18
 45
0.0
 46
0.0
 47
0.0
 48
0.0
140
0.18
141
0.09
142
0.0
143
25.399999999999999
144
1.0
145
0.0
146
1.0
147
0.09
 71
     0
 72
     0
 73
     1
 74
     1
 75
     0
 76
     0
 77
     0
 78
     0
170
     0
171
     2
172
     0
173
     0
174
     0
175
     0
176
     0
177
     0
178
     0
  0
DIMSTYLE
  2
ANNOTATIVE
 70
     0
  3

  4

  5

  6

  7

 40
1.0
 41
0.18
 42
0.0625
 43
0.38
 44
0.18
 45
0.0
 46
0.0
 47
0.0
 48
0.0
140
0.18
141
0.09
142
0.0
143
25.399999999999999
144
1.0
145
0.0
146
1.0
147
0.09
 71
     0
 72
     0
 73
     1
 74
     1
 75
     0
 76
     0
 77
     0
 78
     0
170
     0
171
     2
172
     0
173
     0
174
     0
175
     0
176
     0
177
     0
178
     0
  0
DIMSTYLE
  2
AM_JIS
 70
     0
  3

  4
"
  5

  6

  7

 40
1.0
 41
2.0
 42
1.0
 43
8.0
 44
1.0
 45
0.0
 46
0.0
 47
0.1
 48
0.1
140
2.5
141
0.0
142
0.0
143
0.0393701
144
1.0
145
0.0
146
0.71
147
1.5
 71
     0
 72
     0
 73
     0
 74
     0
 75
     0
 76
     0
 77
     3
 78
     8
170
     0
171
     2
172
     1
173
     0
174
     0
175
     0
176
     2
177
     2
178
     4
  0
DIMSTYLE
  2
AM_ISO
 70
     0
  3

  4
"
  5

  6

  7

 40
1.0
 41
2.5
 42
1.0
 43
10.0
 44
1.0
 45
0.0
 46
0.0
 47
0.1
 48
0.1
140
3.5
141
0.0
142
0.0
143
0.0393701
144
1.0
145
0.0
146
0.71
147
1.5
 71
     0
 72
     0
 73
     0
 74
     0
 75
     0
 76
     0
 77
     1
 78
     8
170
     0
171
     2
172
     1
173
     0
174
     0
175
     0
176
   256
177
   256
178
     2
  0
DIMSTYLE
  2
AM_ISO$3
 70
     0
  3

  4
"
  5

  6

  7

 40
1.0
 41
2.5
 42
1.0
 43
10.0
 44
1.0
 45
0.0
 46
0.0
 47
0.1
 48
0.1
140
3.5
141
0.0
142
0.0
143
0.0393701
144
1.0
145
0.0
146
0.71
147
1.5
 71
     0
 72
     0
 73
     0
 74
     1
 75
     0
 76
     0
 77
     1
 78
     8
170
     0
171
     2
172
     0
173
     0
174
     0
175
     0
176
   256
177
   256
178
     2
  0
DIMSTYLE
  2
AM_ISO$4
 70
     0
  3

  4
"
  5

  6

  7

 40
1.0
 41
2.5
 42
1.0
 43
10.0
 44
1.0
 45
0.0
 46
0.0
 47
0.1
 48
0.1
140
3.5
141
0.0
142
0.0
143
0.0393701
144
1.0
145
0.0
146
0.71
147
1.5
 71
     0
 72
     0
 73
     0
 74
     1
 75
     0
 76
     0
 77
     1
 78
     8
170
     0
171
     2
172
     0
173
     0
174
     0
175
     0
176
   256
177
   256
178
     2
  0
DIMSTYLE
  2
AM_ISO$6
 70
     0
  3

  4
"
  5

  6

  7

 40
1.0
 41
2.5
 42
1.0
 43
10.0
 44
1.0
 45
0.0
 46
0.0
 47
0.1
 48
0.1
140
3.5
141
0.0
142
0.0
143
0.0393701
144
1.0
145
0.0
146
0.71
147
1.5
 71
     0
 72
     0
 73
     0
 74
     0
 75
     0
 76
     0
 77
     0
 78
     8
170
     0
171
     2
172
     1
173
     0
174
     0
175
     0
176
   256
177
   256
178
     2
  0
DIMSTYLE
  2
AM_ISO$7
 70
     0
  3

  4
"
  5

  6

  7

 40
1.0
 41
2.5
 42
1.0
 43
10.0
 44
1.0
 45
0.0
 46
0.0
 47
0.1
 48
0.1
140
5.0
141
0.0
142
0.0
143
0.0393701
144
1.0
145
0.0
146
0.71
147
1.5
 71
     0
 72
     0
 73
     0
 74
     0
 75
     0
 76
     0
 77
     1
 78
     8
170
     0
171
     2
172
     1
173
     0
174
     0
175
     0
176
   256
177
   256
178
     2
  0
DIMSTYLE
  2
AM_ISO$SF
 70
     0
  3

  4
"
  5

  6

  7

 40
1.0
 41
2.5
 42
1.0
 43
10.0
 44
1.0
 45
0.0
 46
0.0
 47
0.1
 48
0.1
140
3.5
141
0.0
142
0.0
143
0.0393701
144
1.0
145
0.0
146
0.71
147
1.5
 71
     0
 72
     0
 73
     0
 74
     0
 75
     1
 76
     1
 77
     1
 78
     8
170
     0
171
     2
172
     1
173
     0
174
     0
175
     0
176
   256
177
   256
178
     2
  0
DIMSTYLE
  2
AM_ISO$SH
 70
     0
  3

  4
"
  5

  6

  7

 40
1.0
 41
2.5
 42
1.0
 43
10.0
 44
1.0
 45
0.0
 46
0.0
 47
0.1
 48
0.1
140
3.5
141
0.0
142
0.0
143
0.0393701
144
2.0
145
0.0
146
0.71
147
1.5
 71
     0
 72
     0
 73
     0
 74
     0
 75
     1
 76
     1
 77
     1
 78
     8
170
     0
171
     2
172
     1
173
     1
174
     0
175
     0
176
   256
177
   256
178
     2
  0
DIMSTYLE
  2
AM_ANSI
 70
     0
  3

  4
"
  5

  6

  7

 40
1.0
 41
2.5
 42
1.0
 43
10.0
 44
1.0
 45
0.0
 46
0.0
 47
0.1
 48
0.1
140
3.5
141
0.0
142
0.0
143
0.0393701
144
1.0
145
0.0
146
0.71
147
1.5
 71
     0
 72
     0
 73
     1
 74
     1
 75
     0
 76
     0
 77
     0
 78
     8
170
     0
171
     2
172
     0
173
     0
174
     0
175
     0
176
     2
177
     2
178
     4
  0
DIMSTYLE
  2
AM_ANSI$3
 70
     0
  3

  4
"
  5

  6

  7

 40
1.0
 41
2.5
 42
1.0
 43
10.0
 44
1.0
 45
0.0
 46
0.0
 47
0.1
 48
0.1
140
3.5
141
0.0
142
0.0
143
0.0393701
144
1.0
145
0.0
146
0.71
147
1.5
 71
     0
 72
     0
 73
     1
 74
     1
 75
     0
 76
     0
 77
     0
 78
     8
170
     0
171
     2
172
     0
173
     0
174
     0
175
     0
176
     2
177
     2
178
     4
  0
DIMSTYLE
  2
AM_ANSI$4
 70
     0
  3

  4
"
  5

  6

  7

 40
1.0
 41
2.5
 42
1.0
 43
10.0
 44
1.0
 45
0.0
 46
0.0
 47
0.1
 48
0.1
140
3.5
141
0.0
142
0.0
143
0.0393701
144
1.0
145
0.0
146
0.71
147
1.5
 71
     0
 72
     0
 73
     1
 74
     1
 75
     0
 76
     0
 77
     0
 78
     8
170
     0
171
     2
172
     0
173
     0
174
     0
175
     0
176
     2
177
     2
178
     4
  0
DIMSTYLE
  2
AM_ANSI$7
 70
     0
  3

  4
"
  5

  6

  7

 40
1.0
 41
2.5
 42
1.0
 43
10.0
 44
1.0
 45
0.0
 46
0.0
 47
0.1
 48
0.1
140
5.0
141
0.0
142
0.0
143
0.0393701
144
1.0
145
0.0
146
0.71
147
1.5
 71
     0
 72
     0
 73
     1
 74
     1
 75
     0
 76
     0
 77
     0
 78
     8
170
     0
171
     2
172
     0
173
     0
174
     0
175
     0
176
     2
177
     2
178
     4
  0
DIMSTYLE
  2
AM_ANSI$SF
 70
     0
  3

  4
"
  5

  6

  7

 40
1.0
 41
2.5
 42
1.0
 43
10.0
 44
1.0
 45
0.0
 46
0.0
 47
0.1
 48
0.1
140
3.5
141
0.0
142
0.0
143
0.0393701
144
1.0
145
0.0
146
0.71
147
1.5
 71
     0
 72
     0
 73
     1
 74
     1
 75
     1
 76
     1
 77
     0
 78
     8
170
     0
171
     2
172
     0
173
     0
174
     0
175
     0
176
     2
177
     2
178
     4
  0
DIMSTYLE
  2
AM_ANSI$SH
 70
     0
  3

  4
"
  5

  6

  7

 40
1.0
 41
2.5
 42
1.0
 43
10.0
 44
1.0
 45
0.0
 46
0.0
 47
0.1
 48
0.1
140
3.5
141
0.0
142
0.0
143
0.0393701
144
1.0
145
0.0
146
0.71
147
1.5
 71
     0
 72
     0
 73
     1
 74
     1
 75
     1
 76
     1
 77
     0
 78
     8
170
     0
171
     2
172
     0
173
     1
174
     0
175
     0
176
     2
177
     2
178
     4
  0
DIMSTYLE
  2
AM_JIS$3
 70
     0
  3

  4
"
  5

  6

  7

 40
1.0
 41
2.0
 42
1.0
 43
10.0
 44
1.0
 45
0.0
 46
0.0
 47
0.1
 48
0.1
140
2.5
141
0.0
142
0.0
143
0.0393701
144
1.0
145
0.0
146
0.71
147
1.5
 71
     0
 72
     0
 73
     0
 74
     1
 75
     0
 76
     0
 77
     3
 78
     8
170
     0
171
     2
172
     0
173
     0
174
     0
175
     0
176
     2
177
     2
178
     4
  0
DIMSTYLE
  2
AM_JIS$4
 70
     0
  3

  4
"
  5

  6

  7

 40
1.0
 41
2.0
 42
1.0
 43
10.0
 44
1.0
 45
0.0
 46
0.0
 47
0.1
 48
0.1
140
2.5
141
0.0
142
0.0
143
0.0393701
144
1.0
145
0.0
146
0.71
147
1.5
 71
     0
 72
     0
 73
     0
 74
     0
 75
     0
 76
     0
 77
     3
 78
     8
170
     0
171
     2
172
     0
173
     0
174
     0
175
     0
176
     2
177
     2
178
     4
  0
DIMSTYLE
  2
AM_JIS$6
 70
     0
  3

  4
"
  5

  6

  7

 40
1.0
 41
2.0
 42
1.0
 43
10.0
 44
1.0
 45
0.0
 46
0.0
 47
0.1
 48
0.1
140
2.5
141
0.0
142
0.0
143
0.0393701
144
1.0
145
0.0
146
0.71
147
1.5
 71
     0
 72
     0
 73
     0
 74
     0
 75
     0
 76
     0
 77
     0
 78
     8
170
     0
171
     2
172
     1
173
     0
174
     0
175
     0
176
     2
177
     2
178
     4
  0
DIMSTYLE
  2
AM_JIS$7
 70
     0
  3

  4
"
  5

  6

  7

 40
1.0
 41
2.0
 42
1.0
 43
10.0
 44
1.0
 45
0.0
 46
0.0
 47
0.1
 48
0.1
140
2.5
141
0.0
142
0.0
143
0.0393701
144
1.0
145
0.0
146
0.71
147
1.5
 71
     0
 72
     0
 73
     0
 74
     0
 75
     0
 76
     0
 77
     3
 78
     8
170
     0
171
     2
172
     1
173
     0
174
     0
175
     0
176
     2
177
     2
178
     4
  0
DIMSTYLE
  2
AM_JIS$SF
 70
     0
  3

  4
"
  5

  6

  7

 40
1.0
 41
2.0
 42
1.0
 43
10.0
 44
1.0
 45
0.0
 46
0.0
 47
0.1
 48
0.1
140
2.5
141
0.0
142
0.0
143
0.0393701
144
1.0
145
0.0
146
0.71
147
1.5
 71
     0
 72
     0
 73
     0
 74
     0
 75
     1
 76
     1
 77
     3
 78
     8
170
     0
171
     2
172
     1
173
     0
174
     0
175
     0
176
     2
177
     2
178
     4
  0
DIMSTYLE
  2
AM_JIS$SH
 70
     0
  3

  4
"
  5

  6

  7

 40
1.0
 41
2.0
 42
1.0
 43
10.0
 44
1.0
 45
0.0
 46
0.0
 47
0.1
 48
0.1
140
2.5
141
0.0
142
0.0
143
0.0393701
144
2.0
145
0.0
146
0.71
147
1.5
 71
     0
 72
     0
 73
     0
 74
     0
 75
     1
 76
     1
 77
     3
 78
     8
170
     0
171
     2
172
     1
173
     1
174
     0
175
     0
176
     2
177
     2
178
     4
  0
ENDTAB
  0
ENDSEC
  0
SECTION
  2
BLOCKS
  0
BLOCK
  8
0
  2
$MODEL_SPACE
 70
     0
 10
0.0
 20
0.0
 30
0.0
  3
$MODEL_SPACE
  1

  0
ENDBLK
  5
1B0B2
  8
0
  0
BLOCK
 67
     1
  8
0
  2
$PAPER_SPACE
 70
     0
 10
0.0
 20
0.0
 30
0.0
  3
$PAPER_SPACE
  1

  0
ENDBLK
  5
1B0AE
 67
     1
  8
0
  0
BLOCK
  8
0
  2
GENAXEH
 70
     0
 10
0.0
 20
0.0
 30
0.0
  3
GENAXEH
  1

  0
LINE
  5
1A950
  8
0
 10
-1.0
 20
0.0
 30
0.0
 11
1.0
 21
0.0
 31
0.0
  0
ENDBLK
  5
1A951
  8
0
  0
BLOCK
  8
0
  6
BYBLOCK
 62
     0
  2
$6-44
 70
     0
 10
0.0
 20
0.0
 30
0.0
  3
$6-44
  1

  0
ARC
  5
19FFC
  8
AM_0
 10
-2.300003000000002
 20
2.3999909999999431
 30
0.0
 40
2.2000009999999981
 50
90.000002999999296
 51
179.99997799999841
  0
ARC
  5
19FFD
  8
AM_0
 10
2.300003000000002
 20
2.3999909999999431
 30
0.0
 40
2.1999970000000002
 50
0.0
 51
89.999981999999179
  0
LINE
  5
19FFE
  8
AM_0
 10
-0.0494449999999915
 20
0.0
 30
0.0
 11
-0.8000000000000112
 21
1.30000000000001
 31
0.0
  0
LINE
  5
19FFF
  8
AM_0
 10
0.9505550000000083
 20
0.0
 30
0.0
 11
0.1999999999999886
 21
1.30000000000001
 31
0.0
  0
LINE
  5
1A000
  8
AM_0
 10
4.5999999999999934
 20
1.30000000000001
 30
0.0
 11
4.5999999999999934
 21
0.0
 31
0.0
  0
LINE
  5
1A001
  8
AM_0
 10
-4.5999999999999934
 20
1.30000000000001
 30
0.0
 11
-4.5999999999999934
 21
0.0
 31
0.0
  0
LINE
  5
1A002
  8
AM_0
 10
4.5999999999999934
 20
0.0
 30
0.0
 11
-4.5999999999999934
 21
0.0
 31
0.0
  0
LINE
  5
1A003
  8
AM_0
 10
2.300003000000002
 20
4.6000029999999583
 30
0.0
 11
-2.300003000000002
 21
4.6000029999999583
 31
0.0
  0
LINE
  5
1A004
  8
AM_0
 10
4.5999999999999934
 20
1.30000000000001
 30
0.0
 11
-4.5999999999999934
 21
1.30000000000001
 31
0.0
  0
LINE
  5
1A005
  8
AM_0
 10
-4.5
 20
1.30000000000001
 30
0.0
 11
-4.5
 21
2.3999909999999431
 31
0.0
  0
LINE
  5
1A006
  8
AM_0
 10
4.5
 20
1.30000000000001
 30
0.0
 11
4.5
 21
2.3999909999999431
 31
0.0
  0
ENDBLK
  5
1A007
  8
0
  6
BYBLOCK
 62
     0
  0
BLOCK
  8
0
  2
_OPEN30
 70
     0
 10
0.0
 20
0.0
 30
0.0
  3
_OPEN30
  1

  0
LINE
  5
1A997
  8
0
  6
BYBLOCK
 62
     0
 10
-1.0
 20
0.26794919
 30
0.0
 11
0.0
 21
0.0
 31
0.0
  0
LINE
  5
1A998
  8
0
  6
BYBLOCK
 62
     0
 10
0.0
 20
0.0
 30
0.0
 11
-1.0
 21
-0.26794919
 31
0.0
  0
LINE
  5
1A999
  8
0
  6
BYBLOCK
 62
     0
 10
0.0
 20
0.0
 30
0.0
 11
-1.0
 21
0.0
 31
0.0
  0
ENDBLK
  5
1A99A
  8
0
  0
BLOCK
  8
0
  2
_ACMFILLEDHALF
 70
     0
 10
0.0
 20
0.0
 30
0.0
  3
_ACMFILLEDHALF
  1

  0
TRACE
  5
1B1C0
  8
AM_0
 62
     0
 10
-0.8
 20
0.0
 30
0.0
 11
-1.0
 21
0.166666666
 31
0.0
 12
0.0
 22
0.0
 32
0.0
 13
0.0
 23
0.0
 33
0.0
  0
LINE
  5
1B1C1
  8
AM_0
 62
     0
 10
-1.0
 20
0.0
 30
0.0
 11
-0.8
 21
0.0
 31
0.0
  0
ENDBLK
  5
1B1BF
  8
0
  0
ENDSEC
  0
SECTION
  2
ENTITIES
  0
POINT
  5
1B94
  8
0
 10
0.0
 20
0.0
 30
0.0
1001
GENIUS_GENODEF_13
1002
{
1000
HIER
1070
     1
1002
}
1002
{
1000
MANEDIT
1070
     0
1002
}
1002
{
1000
NOSEL
1070
     0
1002
}
1002
{
1000
BEHIND
1070
     0
1002
}
1002
{
1000
REACTOR
1002
}
1001
GENIUS_GENOBJ-N-SDF_13
1002
{
1000
OWNER
1000
GEN
1002
}
1001
GENIUS_GENOENT_13
1002
{
1000
MYREF
1005
1B94
1002
}
1002
{
1000
GRP
1005
0
1002
}
1001
GENIUS_GENOLIS_13
1002
{
1000
ENT
1005
89
1002
}
  0
LINE
  5
18D4F
  8
0
 10
565.62427640704675
 20
429.30398187140219
 30
0.0
 11
674.56879251435839
 21
429.30398187140219
 31
0.0
  0
POLYLINE
  5
18D50
  8
AM_0
 66
     1
 10
0.0
 20
0.0
 30
0.0
 70
     8
  0
VERTEX
  5
1AB2E
  8
AM_0
 10
567.59699999999987
 20
318.30399999999997
 30
0.0
 70
    32
  0
VERTEX
  5
1AB2F
  8
AM_0
 10
567.62699999999995
 20
319.53100000000001
 30
0.0
 70
    32
  0
VERTEX
  5
1AB30
  8
AM_0
 10
567.71699999999998
 20
320.75400000000002
 30
0.0
 70
    32
  0
VERTEX
  5
1AB31
  8
AM_0
 10
567.86699999999985
 20
321.97199999999998
 30
0.0
 70
    32
  0
VERTEX
  5
1AB32
  8
AM_0
 10
568.07699999999988
 20
323.18099999999998
 30
0.0
 70
    32
  0
VERTEX
  5
1AB33
  8
AM_0
 10
568.346
 20
324.37900000000002
 30
0.0
 70
    32
  0
VERTEX
  5
1AB34
  8
AM_0
 10
568.67299999999989
 20
325.56099999999998
 30
0.0
 70
    32
  0
VERTEX
  5
1AB35
  8
AM_0
 10
569.05799999999988
 20
326.726
 30
0.0
 70
    32
  0
VERTEX
  5
1AB36
  8
AM_0
 10
569.5
 20
327.87099999999998
 30
0.0
 70
    32
  0
VERTEX
  5
1AB37
  8
AM_0
 10
569.99699999999984
 20
328.99299999999999
 30
0.0
 70
    32
  0
VERTEX
  5
1AB38
  8
AM_0
 10
570.54899999999998
 20
330.089
 30
0.0
 70
    32
  0
VERTEX
  5
1AB39
  8
AM_0
 10
571.15300000000002
 20
331.15699999999998
 30
0.0
 70
    32
  0
VERTEX
  5
1AB3A
  8
AM_0
 10
571.80999999999995
 20
332.19400000000002
 30
0.0
 70
    32
  0
VERTEX
  5
1AB3B
  8
AM_0
 10
572.51599999999985
 20
333.197
 30
0.0
 70
    32
  0
VERTEX
  5
1AB3C
  8
AM_0
 10
573.27099999999984
 20
334.16399999999999
 30
0.0
 70
    32
  0
VERTEX
  5
1AB3D
  8
AM_0
 10
574.07299999999998
 20
335.09300000000002
 30
0.0
 70
    32
  0
VERTEX
  5
1AB3E
  8
AM_0
 10
574.91899999999987
 20
335.98200000000003
 30
0.0
 70
    32
  0
VERTEX
  5
1AB3F
  8
AM_0
 10
575.80799999999988
 20
336.82799999999997
 30
0.0
 70
    32
  0
VERTEX
  5
1AB40
  8
AM_0
 10
576.73699999999985
 20
337.63
 30
0.0
 70
    32
  0
VERTEX
  5
1AB41
  8
AM_0
 10
577.70399999999995
 20
338.38499999999999
 30
0.0
 70
    32
  0
VERTEX
  5
1AB42
  8
AM_0
 10
578.70699999999988
 20
339.09100000000001
 30
0.0
 70
    32
  0
VERTEX
  5
1AB43
  8
AM_0
 10
579.74400000000003
 20
339.7480000000001
 30
0.0
 70
    32
  0
VERTEX
  5
1AB44
  8
AM_0
 10
580.81200000000001
 20
340.35199999999998
 30
0.0
 70
    32
  0
VERTEX
  5
1AB45
  8
AM_0
 10
581.90800000000002
 20
340.904
 30
0.0
 70
    32
  0
VERTEX
  5
1AB46
  8
AM_0
 10
583.02899999999988
 20
341.40100000000001
 30
0.0
 70
    32
  0
VERTEX
  5
1AB47
  8
AM_0
 10
584.17399999999986
 20
341.84300000000002
 30
0.0
 70
    32
  0
VERTEX
  5
1AB48
  8
AM_0
 10
585.33900000000006
 20
342.22800000000001
 30
0.0
 70
    32
  0
VERTEX
  5
1AB49
  8
AM_0
 10
586.52199999999993
 20
342.55500000000001
 30
0.0
 70
    32
  0
VERTEX
  5
1AB4A
  8
AM_0
 10
587.71900000000005
 20
342.82400000000001
 30
0.0
 70
    32
  0
VERTEX
  5
1AB4B
  8
AM_0
 10
588.928
 20
343.03399999999999
 30
0.0
 70
    32
  0
VERTEX
  5
1AB4C
  8
AM_0
 10
590.14599999999984
 20
343.18400000000003
 30
0.0
 70
    32
  0
VERTEX
  5
1AB4D
  8
AM_0
 10
591.37
 20
343.274
 30
0.0
 70
    32
  0
VERTEX
  5
1AB4E
  8
AM_0
 10
592.59699999999987
 20
343.30399999999997
 30
0.0
 70
    32
  0
VERTEX
  5
1AB4F
  8
AM_0
 10
593.82299999999987
 20
343.274
 30
0.0
 70
    32
  0
VERTEX
  5
1AB50
  8
AM_0
 10
595.04700000000003
 20
343.18400000000003
 30
0.0
 70
    32
  0
VERTEX
  5
1AB51
  8
AM_0
 10
596.26499999999999
 20
343.03399999999999
 30
0.0
 70
    32
  0
VERTEX
  5
1AB52
  8
AM_0
 10
597.47400000000005
 20
342.82400000000001
 30
0.0
 70
    32
  0
VERTEX
  5
1AB53
  8
AM_0
 10
598.67099999999994
 20
342.55500000000001
 30
0.0
 70
    32
  0
VERTEX
  5
1AB54
  8
AM_0
 10
599.85400000000004
 20
342.22800000000001
 30
0.0
 70
    32
  0
VERTEX
  5
1AB55
  8
AM_0
 10
601.01900000000001
 20
341.84300000000002
 30
0.0
 70
    32
  0
VERTEX
  5
1AB56
  8
AM_0
 10
602.16399999999987
 20
341.40100000000001
 30
0.0
 70
    32
  0
VERTEX
  5
1AB57
  8
AM_0
 10
603.28499999999985
 20
340.904
 30
0.0
 70
    32
  0
VERTEX
  5
1AB58
  8
AM_0
 10
604.38099999999986
 20
340.35199999999998
 30
0.0
 70
    32
  0
VERTEX
  5
1AB59
  8
AM_0
 10
605.44900000000007
 20
339.7480000000001
 30
0.0
 70
    32
  0
VERTEX
  5
1AB5A
  8
AM_0
 10
606.48599999999999
 20
339.09100000000001
 30
0.0
 70
    32
  0
VERTEX
  5
1AB5B
  8
AM_0
 10
607.48900000000003
 20
338.38499999999999
 30
0.0
 70
    32
  0
VERTEX
  5
1AB5C
  8
AM_0
 10
608.45600000000002
 20
337.63
 30
0.0
 70
    32
  0
VERTEX
  5
1AB5D
  8
AM_0
 10
609.38599999999985
 20
336.82799999999997
 30
0.0
 70
    32
  0
VERTEX
  5
1AB5E
  8
AM_0
 10
610.27399999999989
 20
335.98200000000003
 30
0.0
 70
    32
  0
VERTEX
  5
1AB5F
  8
AM_0
 10
611.12
 20
335.09300000000002
 30
0.0
 70
    32
  0
VERTEX
  5
1AB60
  8
AM_0
 10
611.92200000000003
 20
334.16399999999999
 30
0.0
 70
    32
  0
VERTEX
  5
1AB61
  8
AM_0
 10
612.67700000000002
 20
333.197
 30
0.0
 70
    32
  0
VERTEX
  5
1AB62
  8
AM_0
 10
613.38300000000004
 20
332.19400000000002
 30
0.0
 70
    32
  0
VERTEX
  5
1AB63
  8
AM_0
 10
614.03999999999985
 20
331.15699999999998
 30
0.0
 70
    32
  0
VERTEX
  5
1AB64
  8
AM_0
 10
614.64499999999987
 20
330.089
 30
0.0
 70
    32
  0
VERTEX
  5
1AB65
  8
AM_0
 10
615.19600000000003
 20
328.99299999999999
 30
0.0
 70
    32
  0
VERTEX
  5
1AB66
  8
AM_0
 10
615.69399999999985
 20
327.87099999999998
 30
0.0
 70
    32
  0
VERTEX
  5
1AB67
  8
AM_0
 10
616.13499999999988
 20
326.726
 30
0.0
 70
    32
  0
VERTEX
  5
1AB68
  8
AM_0
 10
616.51999999999987
 20
325.56099999999998
 30
0.0
 70
    32
  0
VERTEX
  5
1AB69
  8
AM_0
 10
616.84699999999998
 20
324.37900000000002
 30
0.0
 70
    32
  0
VERTEX
  5
1AB6A
  8
AM_0
 10
617.11599999999999
 20
323.18099999999998
 30
0.0
 70
    32
  0
VERTEX
  5
1AB6B
  8
AM_0
 10
617.32599999999991
 20
321.97199999999998
 30
0.0
 70
    32
  0
VERTEX
  5
1AB6C
  8
AM_0
 10
617.476
 20
320.75400000000002
 30
0.0
 70
    32
  0
VERTEX
  5
1AB6D
  8
AM_0
 10
617.56600000000003
 20
319.53100000000001
 30
0.0
 70
    32
  0
VERTEX
  5
1AB6E
  8
AM_0
 10
617.59699999999987
 20
318.30399999999997
 30
0.0
 70
    32
  0
VERTEX
  5
1AB6F
  8
AM_0
 10
617.56600000000003
 20
317.077
 30
0.0
 70
    32
  0
VERTEX
  5
1AB70
  8
AM_0
 10
617.476
 20
315.85399999999998
 30
0.0
 70
    32
  0
VERTEX
  5
1AB71
  8
AM_0
 10
617.32599999999991
 20
314.63600000000002
 30
0.0
 70
    32
  0
VERTEX
  5
1AB72
  8
AM_0
 10
617.11599999999999
 20
313.42700000000002
 30
0.0
 70
    32
  0
VERTEX
  5
1AB73
  8
AM_0
 10
616.84699999999998
 20
312.22899999999998
 30
0.0
 70
    32
  0
VERTEX
  5
1AB74
  8
AM_0
 10
616.51999999999987
 20
311.04700000000003
 30
0.0
 70
    32
  0
VERTEX
  5
1AB75
  8
AM_0
 10
616.13499999999988
 20
309.88200000000001
 30
0.0
 70
    32
  0
VERTEX
  5
1AB76
  8
AM_0
 10
615.69399999999985
 20
308.73700000000002
 30
0.0
 70
    32
  0
VERTEX
  5
1AB77
  8
AM_0
 10
615.19600000000003
 20
307.61500000000001
 30
0.0
 70
    32
  0
VERTEX
  5
1AB78
  8
AM_0
 10
614.64499999999987
 20
306.51900000000001
 30
0.0
 70
    32
  0
VERTEX
  5
1AB79
  8
AM_0
 10
614.03999999999985
 20
305.45100000000002
 30
0.0
 70
    32
  0
VERTEX
  5
1AB7A
  8
AM_0
 10
613.38300000000004
 20
304.41399999999999
 30
0.0
 70
    32
  0
VERTEX
  5
1AB7B
  8
AM_0
 10
612.67700000000002
 20
303.411
 30
0.0
 70
    32
  0
VERTEX
  5
1AB7C
  8
AM_0
 10
611.92200000000003
 20
302.44400000000002
 30
0.0
 70
    32
  0
VERTEX
  5
1AB7D
  8
AM_0
 10
611.12
 20
301.51499999999999
 30
0.0
 70
    32
  0
VERTEX
  5
1AB7E
  8
AM_0
 10
610.27399999999989
 20
300.62599999999998
 30
0.0
 70
    32
  0
VERTEX
  5
1AB7F
  8
AM_0
 10
609.38599999999985
 20
299.77999999999997
 30
0.0
 70
    32
  0
VERTEX
  5
1AB80
  8
AM_0
 10
608.45600000000002
 20
298.97800000000001
 30
0.0
 70
    32
  0
VERTEX
  5
1AB81
  8
AM_0
 10
607.48900000000003
 20
298.22300000000001
 30
0.0
 70
    32
  0
VERTEX
  5
1AB82
  8
AM_0
 10
606.48599999999999
 20
297.517
 30
0.0
 70
    32
  0
VERTEX
  5
1AB83
  8
AM_0
 10
605.44900000000007
 20
296.86000000000001
 30
0.0
 70
    32
  0
VERTEX
  5
1AB84
  8
AM_0
 10
604.38099999999986
 20
296.25599999999997
 30
0.0
 70
    32
  0
VERTEX
  5
1AB85
  8
AM_0
 10
603.28499999999985
 20
295.70400000000001
 30
0.0
 70
    32
  0
VERTEX
  5
1AB86
  8
AM_0
 10
602.16399999999987
 20
295.20699999999999
 30
0.0
 70
    32
  0
VERTEX
  5
1AB87
  8
AM_0
 10
601.01900000000001
 20
294.76499999999999
 30
0.0
 70
    32
  0
VERTEX
  5
1AB88
  8
AM_0
 10
599.85400000000004
 20
294.38
 30
0.0
 70
    32
  0
VERTEX
  5
1AB89
  8
AM_0
 10
598.67099999999994
 20
294.053
 30
0.0
 70
    32
  0
VERTEX
  5
1AB8A
  8
AM_0
 10
597.47400000000005
 20
293.78399999999999
 30
0.0
 70
    32
  0
VERTEX
  5
1AB8B
  8
AM_0
 10
596.26499999999999
 20
293.57400000000001
 30
0.0
 70
    32
  0
VERTEX
  5
1AB8C
  8
AM_0
 10
595.04700000000003
 20
293.42399999999998
 30
0.0
 70
    32
  0
VERTEX
  5
1AB8D
  8
AM_0
 10
593.82299999999987
 20
293.334
 30
0.0
 70
    32
  0
VERTEX
  5
1AB8E
  8
AM_0
 10
592.59699999999987
 20
293.303
 30
0.0
 70
    32
  0
VERTEX
  5
1AB8F
  8
AM_0
 10
591.37
 20
293.334
 30
0.0
 70
    32
  0
VERTEX
  5
1AB90
  8
AM_0
 10
590.14599999999984
 20
293.42399999999998
 30
0.0
 70
    32
  0
VERTEX
  5
1AB91
  8
AM_0
 10
588.928
 20
293.57400000000001
 30
0.0
 70
    32
  0
VERTEX
  5
1AB92
  8
AM_0
 10
587.71900000000005
 20
293.78399999999999
 30
0.0
 70
    32
  0
VERTEX
  5
1AB93
  8
AM_0
 10
586.52199999999993
 20
294.053
 30
0.0
 70
    32
  0
VERTEX
  5
1AB94
  8
AM_0
 10
585.33900000000006
 20
294.38
 30
0.0
 70
    32
  0
VERTEX
  5
1AB95
  8
AM_0
 10
584.17399999999986
 20
294.76499999999999
 30
0.0
 70
    32
  0
VERTEX
  5
1AB96
  8
AM_0
 10
583.02899999999988
 20
295.20699999999999
 30
0.0
 70
    32
  0
VERTEX
  5
1AB97
  8
AM_0
 10
581.90800000000002
 20
295.70400000000001
 30
0.0
 70
    32
  0
VERTEX
  5
1AB98
  8
AM_0
 10
580.81200000000001
 20
296.25599999999997
 30
0.0
 70
    32
  0
VERTEX
  5
1AB99
  8
AM_0
 10
579.74400000000003
 20
296.86000000000001
 30
0.0
 70
    32
  0
VERTEX
  5
1AB9A
  8
AM_0
 10
578.70699999999988
 20
297.517
 30
0.0
 70
    32
  0
VERTEX
  5
1AB9B
  8
AM_0
 10
577.70399999999995
 20
298.22300000000001
 30
0.0
 70
    32
  0
VERTEX
  5
1AB9C
  8
AM_0
 10
576.73699999999985
 20
298.97800000000001
 30
0.0
 70
    32
  0
VERTEX
  5
1AB9D
  8
AM_0
 10
575.80799999999988
 20
299.77999999999997
 30
0.0
 70
    32
  0
VERTEX
  5
1AB9E
  8
AM_0
 10
574.91899999999987
 20
300.62599999999998
 30
0.0
 70
    32
  0
VERTEX
  5
1AB9F
  8
AM_0
 10
574.07299999999998
 20
301.51499999999999
 30
0.0
 70
    32
  0
VERTEX
  5
1ABA0
  8
AM_0
 10
573.27099999999984
 20
302.44400000000002
 30
0.0
 70
    32
  0
VERTEX
  5
1ABA1
  8
AM_0
 10
572.51599999999985
 20
303.411
 30
0.0
 70
    32
  0
VERTEX
  5
1ABA2
  8
AM_0
 10
571.80999999999995
 20
304.41399999999999
 30
0.0
 70
    32
  0
VERTEX
  5
1ABA3
  8
AM_0
 10
571.15300000000002
 20
305.45100000000002
 30
0.0
 70
    32
  0
VERTEX
  5
1ABA4
  8
AM_0
 10
570.54899999999998
 20
306.51900000000001
 30
0.0
 70
    32
  0
VERTEX
  5
1ABA5
  8
AM_0
 10
569.99699999999984
 20
307.61500000000001
 30
0.0
 70
    32
  0
VERTEX
  5
1ABA6
  8
AM_0
 10
569.5
 20
308.73700000000002
 30
0.0
 70
    32
  0
VERTEX
  5
1ABA7
  8
AM_0
 10
569.05799999999988
 20
309.88200000000001
 30
0.0
 70
    32
  0
VERTEX
  5
1ABA8
  8
AM_0
 10
568.67299999999989
 20
311.04700000000003
 30
0.0
 70
    32
  0
VERTEX
  5
1ABA9
  8
AM_0
 10
568.346
 20
312.22899999999998
 30
0.0
 70
    32
  0
VERTEX
  5
1ABAA
  8
AM_0
 10
568.07699999999988
 20
313.42700000000002
 30
0.0
 70
    32
  0
VERTEX
  5
1ABAB
  8
AM_0
 10
567.86699999999985
 20
314.63600000000002
 30
0.0
 70
    32
  0
VERTEX
  5
1ABAC
  8
AM_0
 10
567.71699999999998
 20
315.85399999999998
 30
0.0
 70
    32
  0
VERTEX
  5
1ABAD
  8
AM_0
 10
567.62699999999995
 20
317.077
 30
0.0
 70
    32
  0
VERTEX
  5
1ABAE
  8
AM_0
 10
567.59699999999987
 20
318.30399999999997
 30
0.0
 70
    32
  0
SEQEND
  5
1ABAF
  8
AM_0
  0
LINE
  5
18D51
  8
0
 10
565.62427640704675
 20
207.30398187140361
 30
0.0
 11
674.56879251435839
 21
207.30398187140361
 31
0.0
  0
LINE
  5
18D5A
  8
ﾁｭｳｼﾝｾﾝ1
 10
998.60000000000002
 20
318.3039818714031
 30
0.0
 11
505.59654663400431
 21
318.30398187140293
 31
0.0
  0
LINE
  5
18D5E
  8
0
 10
547.59652002972678
 20
201.30398187140361
 30
0.0
 11
692.59654889167837
 21
201.30398187140361
 31
0.0
  0
LINE
  5
18D5F
  8
0
  6
CONTINUOUS
 62
     7
 10
569.35387934260723
 20
244.3039818714031
 30
0.0
 11
531.59654663400431
 21
244.3039818714031
 31
0.0
  0
LINE
  5
18D60
  8
0
 10
560.96506225248845
 20
227.42988340704559
 30
0.0
 11
575.71784037328689
 21
242.182661527844
 31
0.0
  0
LINE
  5
18D61
  8
0
 10
556.72242156536913
 20
231.672524094165
 30
0.0
 11
571.4751996861678
 21
246.42530221496361
 31
0.0
  0
CIRCLE
  5
18D62
  8
0
 10
592.59654889167837
 20
318.30398187140293
 30
0.0
 40
50.0
  0
LINE
  5
18D63
  8
0
 10
547.59652002972678
 20
435.30398187140281
 30
0.0
 11
692.59654889167882
 21
435.30398187140281
 31
0.0
  0
LINE
  5
18D65
  8
0
  6
CONTINUOUS
 62
     7
 10
569.35387934260825
 20
392.3039818714027
 30
0.0
 11
531.59654663400431
 21
392.3039818714027
 31
0.0
  0
LINE
  5
18D66
  8
0
 10
560.96506225248856
 20
409.17808033576063
 30
0.0
 11
575.71784037328712
 21
394.42530221496219
 31
0.0
  0
LINE
  5
18D67
  8
0
 10
556.72242156536913
 20
404.93543964864102
 30
0.0
 11
571.4751996861678
 21
390.18266152784321
 31
0.0
  0
ARC
  5
18D82
  8
0
 10
526.59654663400386
 20
367.39801027779367
 30
0.0
 40
5.0
 50
69.332681879990645
 51
180.0
1001
GENIUS_GENOBJ-N-FIL_13
1002
{
1000
OWNER
1000
GEN
1002
}
1001
GENIUS_GENODEF_13
1002
{
1000
HIER
1070
     0
1002
}
1002
{
1000
MANEDIT
1070
     0
1002
}
1002
{
1000
NOSEL
1070
     0
1002
}
1002
{
1000
BEHIND
1070
     0
1002
}
1002
{
1000
OTHER
1070
     0
1002
}
1002
{
1000
REACTOR
1002
}
  0
ARC
  5
18D83
  8
0
 10
532.59654708553899
 20
383.3039838280539
 30
0.0
 40
12.0
 50
249.33268187999059
 51
13.60895384571479
  0
LINE
  5
18D86
  8
ﾁｭｳｼﾝｾﾝ1
 10
270.04498948951789
 20
185.54838773349741
 30
0.0
 11
270.04498941552208
 21
409.3978661835331
 31
0.0
  0
LINE
  5
18D87
  8
AM_0
 10
211.04498765807469
 20
240.04949343177711
 30
0.0
 11
211.04498765807469
 21
396.55847031102928
 31
0.0
  0
LINE
  5
18D89
  8
AM_0
 10
304.04499066830681
 20
238.4261654373386
 30
0.0
 11
304.04499066830692
 21
398.18179830546802
 31
0.0
  0
LINE
  5
18D8B
  8
AM_0
 10
370.04498943411153
 20
201.30398187140329
 30
0.0
 11
370.04498943411153
 21
435.30398187140281
 31
0.0
  0
LINE
  5
18D8F
  8
AM_0
 10
515.59654663400431
 20
383.30398382805458
 30
0.0
 11
515.59654663400431
 21
253.3039799147526
 31
0.0
  0
LINE
  5
18D90
  8
AM_0
 10
521.59654663400431
 20
383.30398382805458
 30
0.0
 11
521.59654663400431
 21
253.3039799147526
 31
0.0
  0
LINE
  5
18D98
  8
AM_0
 10
211.04498765807469
 20
240.04949343177711
 30
0.0
 11
304.04499066830681
 21
238.4261654373386
 31
0.0
  0
LINE
  5
18D9A
  8
ﾁｭｳｼﾝｾﾝ1
 10
380.04498943411153
 20
318.30398187140281
 30
0.0
 11
184.496361342927
 21
318.30398187140321
 31
0.0
  0
LINE
  5
18DA4
  8
0
 10
208.54498765807469
 20
265.30397991475218
 30
0.0
 11
208.54498765807469
 21
241.3039799147522
 31
0.0
  0
LINE
  5
18DA5
  8
0
 10
196.5449876580746
 20
262.30397991475218
 30
0.0
 11
196.5449876580746
 21
244.3039799147522
 31
0.0
  0
LINE
  5
18DA9
  8
0
 10
196.5449876580746
 20
244.3039799147522
 30
0.0
 11
208.54498765807469
 21
244.3039799147522
 31
0.0
  0
LINE
  5
18DAA
  8
0
 10
208.54498765807469
 20
241.3039799147522
 30
0.0
 11
211.04498765807469
 21
241.3039799147522
 31
0.0
  0
LINE
  5
18DB9
  8
0
 10
201.04498735705141
 20
343.30398262396147
 30
0.0
 11
201.04498735705141
 21
293.3039811188454
 31
0.0
  0
LINE
  5
18DBA
  8
0
 10
206.04498750756261
 20
368.30398307849589
 30
0.0
 11
206.0449875075625
 21
268.3039806643103
 31
0.0
  0
LINE
  5
18DBD
  8
0
 10
208.54498765807469
 20
262.30397991475218
 30
0.0
 11
196.5449876580746
 21
262.30397991475218
 31
0.0
  0
LINE
  5
18DBF
  8
0
 10
211.04498765807469
 20
265.30397991475218
 30
0.0
 11
208.54498765807469
 21
265.30397991475218
 31
0.0
  0
LINE
  5
18DC1
  8
0
 10
206.0449875075625
 20
268.3039806643103
 30
0.0
 11
211.04498765807469
 21
268.3039806643103
 31
0.0
  0
LINE
  5
18DCD
  8
0
 10
206.04498750756289
 20
293.3039811188454
 30
0.0
 11
201.04498735705141
 21
293.3039811188454
 31
0.0
  0
LINE
  5
18DDF
  8
0
 10
206.04498750756289
 20
343.30398262396147
 30
0.0
 11
201.04498735705141
 21
343.30398262396147
 31
0.0
  0
LINE
  5
18DE5
  8
0
 10
206.04498750756261
 20
368.30398307849589
 30
0.0
 11
211.04498765807469
 21
368.30398307849589
 31
0.0
  0
LINE
  5
18DF0
  8
AM_0
 10
370.04498943411153
 20
201.30398187140329
 30
0.0
 11
346.97519044070623
 21
202.1095970042729
 31
0.0
  0
LINE
  5
18DF1
  8
ﾁｭｳｼﾝｾﾝ1
 10
342.03820008438572
 20
218.30398187140241
 30
0.0
 11
373.67919333915398
 21
218.30398187140261
 31
0.0
  0
LINE
  5
18DFB
  8
AM_0
 10
345.04498943411159
 20
204.1083786583111
 30
0.0
 11
345.04498943411159
 21
234.7623935753933
 31
0.0
  0
ARC
  5
18DFD
  8
0
 10
347.04498943411159
 20
204.1083786583111
 30
0.0
 40
2.0
 50
180.0
 51
267.9999999999996
1001
GENIUS_GENOBJ-N-FIL_13
1002
{
1000
OWNER
1000
GEN
1002
}
1001
GENIUS_GENODEF_13
1002
{
1000
HIER
1070
     0
1002
}
1002
{
1000
MANEDIT
1070
     0
1002
}
1002
{
1000
NOSEL
1070
     0
1002
}
1002
{
1000
BEHIND
1070
     0
1002
}
1002
{
1000
OTHER
1070
     0
1002
}
1002
{
1000
REACTOR
1002
}
  0
LINE
  5
18E00
  8
AM_0
 10
304.04499066830681
 20
238.4261654373386
 30
0.0
 11
342.09734876944111
 21
237.76193662392669
 31
0.0
  0
ARC
  5
18E03
  8
AM_0
 10
342.04498943411159
 20
234.7623935753933
 30
0.0
 40
3.0
 50
0.0
 51
88.999959580874275
1001
GENIUS_GENOBJ-N-FIL_13
1002
{
1000
OWNER
1000
GEN
1002
}
1001
GENIUS_GENODEF_13
1002
{
1000
HIER
1070
     0
1002
}
1002
{
1000
MANEDIT
1070
     0
1002
}
1002
{
1000
NOSEL
1070
     0
1002
}
1002
{
1000
BEHIND
1070
     0
1002
}
1002
{
1000
OTHER
1070
     0
1002
}
1002
{
1000
REACTOR
1002
}
  0
CIRCLE
  5
18E20
  8
0
 10
532.59654708553899
 20
253.30397991475249
 30
0.0
 40
5.0
  0
ARC
  5
18E21
  8
0
 10
532.59654708553899
 20
253.30397991475249
 30
0.0
 40
12.0
 50
346.39104615428522
 51
110.6673181200093
  0
CIRCLE
  5
18E22
  8
ｷｲﾛ
 10
532.59654708553899
 20
253.30397991475249
 30
0.0
 40
6.0
  0
LINE
  5
18E27
  8
0
 10
531.97105036100163
 20
211.60736349854221
 30
0.0
 11
516.97107700178776
 21
246.60736136402321
 31
0.0
  0
LINE
  5
18E28
  8
0
 10
530.38445115126774
 20
230.5410029518446
 30
0.0
 11
522.48594864957295
 21
248.97087373091551
 31
0.0
  0
ARC
  5
18E29
  8
0
 10
531.5965466340042
 20
254.30398187140329
 30
0.0
 40
10.0
 50
180.0
 51
270.0
1001
GENIUS_GENOBJ-N-FIL_13
1002
{
1000
OWNER
1000
GEN
1002
}
1001
GENIUS_GENODEF_13
1002
{
1000
HIER
1070
     0
1002
}
1002
{
1000
MANEDIT
1070
     0
1002
}
1002
{
1000
NOSEL
1070
     0
1002
}
1002
{
1000
BEHIND
1070
     0
1002
}
1002
{
1000
OTHER
1070
     0
1002
}
1002
{
1000
REACTOR
1002
}
  0
ARC
  5
18E2A
  8
AM_0
 10
532.59654708553899
 20
253.30397991475269
 30
0.0
 40
11.000000451534831
 50
180.0
 51
203.19855493455009
  0
ARC
  5
18E2B
  8
AM_0
 10
532.59654708553899
 20
253.30397991475269
 30
0.0
 40
17.000000451534831
 50
180.0
 51
203.19855493455009
  0
ARC
  5
18E2C
  8
0
 10
563.086382596048
 20
225.30856306348639
 30
0.0
 40
3.0
 50
135.00000000000421
 51
204.3326835064922
1001
GENIUS_GENOBJ-N-FIL_13
1002
{
1000
OWNER
1000
GEN
1002
}
1001
GENIUS_GENODEF_13
1002
{
1000
HIER
1070
     0
1002
}
1002
{
1000
MANEDIT
1070
     0
1002
}
1002
{
1000
NOSEL
1070
     0
1002
}
1002
{
1000
BEHIND
1070
     0
1002
}
1002
{
1000
OTHER
1070
     0
1002
}
1002
{
1000
REACTOR
1002
}
  0
ARC
  5
18E2E
  8
0
 10
547.59652002972678
 20
218.30398187140301
 30
0.0
 40
14.0
 50
341.591519829417
 51
131.60703510513599
  0
ARC
  5
18E2F
  8
0
 10
547.59652002972678
 20
218.30398187140369
 30
0.0
 40
16.999999999999702
 50
203.19855493455009
 51
270.0
  0
CIRCLE
  5
18E31
  8
0
 10
547.59652002972678
 20
218.30398187140369
 30
0.0
 40
7.0
  0
ARC
  5
18E32
  8
0
 10
565.62427640704675
 20
212.30398187140369
 30
0.0
 40
5.0
 50
161.591519829417
 51
270.0
1001
GENIUS_GENOBJ-N-FIL_13
1002
{
1000
OWNER
1000
GEN
1002
}
1001
GENIUS_GENODEF_13
1002
{
1000
HIER
1070
     0
1002
}
1002
{
1000
MANEDIT
1070
     0
1002
}
1002
{
1000
NOSEL
1070
     0
1002
}
1002
{
1000
BEHIND
1070
     0
1002
}
1002
{
1000
OTHER
1070
     0
1002
}
1002
{
1000
REACTOR
1002
}
  0
ARC
  5
18E33
  8
0
 10
549.11925920108479
 20
249.30398187140349
 30
0.0
 40
5.0
 50
166.39104615428519
 51
270.0
1001
GENIUS_GENOBJ-N-FIL_13
1002
{
1000
OWNER
1000
GEN
1002
}
1001
GENIUS_GENODEF_13
1002
{
1000
HIER
1070
     0
1002
}
1002
{
1000
MANEDIT
1070
     0
1002
}
1002
{
1000
NOSEL
1070
     0
1002
}
1002
{
1000
BEHIND
1070
     0
1002
}
1002
{
1000
OTHER
1070
     0
1002
}
1002
{
1000
REACTOR
1002
}
  0
ARC
  5
18E34
  8
0
 10
534.98017752442206
 20
232.51059659092201
 30
0.0
 40
5.0
 50
203.19855493455009
 51
311.60703510513599
1001
GENIUS_GENOBJ-N-FIL_13
1002
{
1000
OWNER
1000
GEN
1002
}
1001
GENIUS_GENODEF_13
1002
{
1000
HIER
1070
     0
1002
}
1002
{
1000
MANEDIT
1070
     0
1002
}
1002
{
1000
NOSEL
1070
     0
1002
}
1002
{
1000
BEHIND
1070
     0
1002
}
1002
{
1000
OTHER
1070
     0
1002
}
1002
{
1000
REACTOR
1002
}
  0
ARC
  5
18E35
  8
0
 10
554.60110122180936
 20
233.793844437725
 30
0.0
 40
3.0
 50
245.66731649351581
 51
315.00000000000432
1001
GENIUS_GENODEF_13
1002
{
1000
HIER
1070
     0
1002
}
1002
{
1000
MANEDIT
1070
     0
1002
}
1002
{
1000
NOSEL
1070
     0
1002
}
1002
{
1000
BEHIND
1070
     0
1002
}
1002
{
1000
OTHER
1070
     0
1002
}
1002
{
1000
REACTOR
1002
}
1001
GENIUS_GENOBJ-N-FIL_13
1002
{
1000
OWNER
1000
GEN
1002
}
  0
ARC
  5
18E38
  8
0
 10
524.5965466340042
 20
299.30398187140321
 30
0.0
 40
3.0
 50
180.0
 51
270.0
1001
GENIUS_GENODEF_13
1002
{
1000
HIER
1070
     0
1002
}
1002
{
1000
MANEDIT
1070
     0
1002
}
1002
{
1000
NOSEL
1070
     0
1002
}
1002
{
1000
BEHIND
1070
     0
1002
}
1002
{
1000
OTHER
1070
     0
1002
}
1002
{
1000
REACTOR
1002
}
1001
GENIUS_GENOBJ-N-FIL_13
1002
{
1000
OWNER
1000
GEN
1002
}
  0
ARC
  5
18E39
  8
0
 10
524.5965466340042
 20
287.30398187140321
 30
0.0
 40
3.0
 50
90.0
 51
180.0
1001
GENIUS_GENODEF_13
1002
{
1000
HIER
1070
     0
1002
}
1002
{
1000
MANEDIT
1070
     0
1002
}
1002
{
1000
NOSEL
1070
     0
1002
}
1002
{
1000
BEHIND
1070
     0
1002
}
1002
{
1000
OTHER
1070
     0
1002
}
1002
{
1000
REACTOR
1002
}
1001
GENIUS_GENOBJ-N-FIL_13
1002
{
1000
OWNER
1000
GEN
1002
}
  0
ARC
  5
18E3A
  8
0
 10
526.59654663400386
 20
269.20995346501292
 30
0.0
 40
5.0
 50
180.0
 51
290.66731812000938
1001
GENIUS_GENOBJ-N-FIL_13
1002
{
1000
OWNER
1000
GEN
1002
}
1001
GENIUS_GENODEF_13
1002
{
1000
HIER
1070
     0
1002
}
1002
{
1000
MANEDIT
1070
     0
1002
}
1002
{
1000
NOSEL
1070
     0
1002
}
1002
{
1000
BEHIND
1070
     0
1002
}
1002
{
1000
OTHER
1070
     0
1002
}
1002
{
1000
REACTOR
1002
}
  0
ARC
  5
18E3B
  8
0
 10
524.59878588611264
 20
293.30398270711157
 30
0.0
 40
3.0000000000000631
 50
270.0
 51
89.99999999999838
  0
ARC
  5
18E3C
  8
0
 10
524.5965466340042
 20
337.30398187140321
 30
0.0
 40
3.0
 50
90.0
 51
180.0
1001
GENIUS_GENODEF_13
1002
{
1000
HIER
1070
     0
1002
}
1002
{
1000
MANEDIT
1070
     0
1002
}
1002
{
1000
NOSEL
1070
     0
1002
}
1002
{
1000
BEHIND
1070
     0
1002
}
1002
{
1000
OTHER
1070
     0
1002
}
1002
{
1000
REACTOR
1002
}
1001
GENIUS_GENOBJ-N-FIL_13
1002
{
1000
OWNER
1000
GEN
1002
}
  0
ARC
  5
18E3D
  8
0
 10
524.5965466340042
 20
349.30398187140332
 30
0.0
 40
3.0
 50
180.0
 51
270.0
1001
GENIUS_GENODEF_13
1002
{
1000
HIER
1070
     0
1002
}
1002
{
1000
MANEDIT
1070
     0
1002
}
1002
{
1000
NOSEL
1070
     0
1002
}
1002
{
1000
BEHIND
1070
     0
1002
}
1002
{
1000
OTHER
1070
     0
1002
}
1002
{
1000
REACTOR
1002
}
1001
GENIUS_GENOBJ-N-FIL_13
1002
{
1000
OWNER
1000
GEN
1002
}
  0
ARC
  5
18E3E
  8
0
 10
524.5965466340042
 20
343.30398187140321
 30
0.0
 40
3.0000000000000631
 50
270.0
 51
89.99999999999838
  0
LINE
  5
18E42
  8
AM_0
 10
211.04498765807469
 20
396.55847031102928
 30
0.0
 11
304.04499066830692
 21
398.18179830546802
 31
0.0
  0
LINE
  5
18E46
  8
0
 10
208.54498765807469
 20
371.30398382805419
 30
0.0
 11
208.54498765807469
 21
395.3039838280543
 31
0.0
  0
LINE
  5
18E47
  8
0
 10
196.5449876580746
 20
374.30398382805419
 30
0.0
 11
196.5449876580746
 21
392.30398382805419
 31
0.0
  0
LINE
  5
18E48
  8
0
 10
208.54498765807469
 20
374.30398382805419
 30
0.0
 11
196.5449876580746
 21
374.30398382805419
 31
0.0
  0
LINE
  5
18E49
  8
0
 10
211.04498765807469
 20
371.30398382805419
 30
0.0
 11
208.54498765807469
 21
371.30398382805419
 31
0.0
  0
LINE
  5
18E4A
  8
0
 10
196.5449876580746
 20
392.30398382805419
 30
0.0
 11
208.54498765807469
 21
392.30398382805419
 31
0.0
  0
LINE
  5
18E4B
  8
0
 10
208.54498765807469
 20
395.3039838280543
 30
0.0
 11
211.04498765807469
 21
395.3039838280543
 31
0.0
  0
LINE
  5
18E4F
  8
AM_0
 10
370.04498943411153
 20
435.30398187140281
 30
0.0
 11
346.97519044070623
 21
434.4983667385336
 31
0.0
  0
LINE
  5
18E51
  8
ﾁｭｳｼﾝｾﾝ1
 10
342.03820008438572
 20
418.30398187140321
 30
0.0
 11
373.67919333915398
 21
418.30398187140281
 31
0.0
  0
LINE
  5
18E53
  8
AM_0
 10
345.04498943411107
 20
401.8455175205977
 30
0.0
 11
345.04498943411159
 21
432.49958508449532
 31
0.0
  0
ARC
  5
18E54
  8
AM_0
 10
342.04498943411107
 20
401.8455175205977
 30
0.0
 40
3.0
 50
270.99994330824478
 51
0.0
1001
GENIUS_GENOBJ-N-FIL_13
1002
{
1000
OWNER
1000
GEN
1002
}
1001
GENIUS_GENODEF_13
1002
{
1000
HIER
1070
     0
1002
}
1002
{
1000
MANEDIT
1070
     0
1002
}
1002
{
1000
NOSEL
1070
     0
1002
}
1002
{
1000
BEHIND
1070
     0
1002
}
1002
{
1000
OTHER
1070
     0
1002
}
1002
{
1000
REACTOR
1002
}
  0
LINE
  5
18E57
  8
AM_0
 10
304.04499066830692
 20
398.18179830546802
 30
0.0
 11
342.0973436855017
 21
398.84597438332497
 31
0.0
  0
ARC
  5
18E5A
  8
0
 10
347.04498943411159
 20
432.49958508449532
 30
0.0
 40
2.0
 50
92.000000000000426
 51
180.0
1001
GENIUS_GENODEF_13
1002
{
1000
HIER
1070
     0
1002
}
1002
{
1000
MANEDIT
1070
     0
1002
}
1002
{
1000
NOSEL
1070
     0
1002
}
1002
{
1000
BEHIND
1070
     0
1002
}
1002
{
1000
OTHER
1070
     0
1002
}
1002
{
1000
REACTOR
1002
}
1001
GENIUS_GENOBJ-N-FIL_13
1002
{
1000
OWNER
1000
GEN
1002
}
  0
ARC
  5
18E68
  8
0
 10
547.59652002972678
 20
418.30398187140321
 30
0.0
 40
16.999999999999702
 50
90.0
 51
156.80144506544991
  0
LINE
  5
18E69
  8
ﾁｭｳｼﾝｾﾝ1
 10
547.59652002972678
 20
403.30398187140332
 30
0.0
 11
547.59652002972678
 21
433.3039818714031
 31
0.0
  0
ARC
  5
18E6A
  8
0
 10
565.62427640704675
 20
424.30398187140281
 30
0.0
 40
5.0
 50
90.0
 51
198.40848017058289
1001
GENIUS_GENOBJ-N-FIL_13
1002
{
1000
OWNER
1000
GEN
1002
}
1001
GENIUS_GENODEF_13
1002
{
1000
HIER
1070
     0
1002
}
1002
{
1000
MANEDIT
1070
     0
1002
}
1002
{
1000
NOSEL
1070
     0
1002
}
1002
{
1000
BEHIND
1070
     0
1002
}
1002
{
1000
OTHER
1070
     0
1002
}
1002
{
1000
REACTOR
1002
}
  0
LINE
  5
18E6B
  8
0
 10
530.38445115126774
 20
406.0669607909611
 30
0.0
 11
522.48594864957317
 21
387.63709001189079
 31
0.0
  0
ARC
  5
18E6C
  8
0
 10
531.5965466340042
 20
382.30398187140281
 30
0.0
 40
10.0
 50
90.0
 51
180.0
1001
GENIUS_GENODEF_13
1002
{
1000
HIER
1070
     0
1002
}
1002
{
1000
MANEDIT
1070
     0
1002
}
1002
{
1000
NOSEL
1070
     0
1002
}
1002
{
1000
BEHIND
1070
     0
1002
}
1002
{
1000
OTHER
1070
     0
1002
}
1002
{
1000
REACTOR
1002
}
1001
GENIUS_GENOBJ-N-FIL_13
1002
{
1000
OWNER
1000
GEN
1002
}
  0
LINE
  5
18E6D
  8
0
 10
531.97105036100197
 20
425.00060024426449
 30
0.0
 11
516.97107700178776
 21
390.00060237878358
 31
0.0
  0
ARC
  5
18E6E
  8
AM_0
 10
532.59654708553899
 20
383.3039838280543
 30
0.0
 40
11.000000451534831
 50
156.80144506544991
 51
180.0
  0
ARC
  5
18E6F
  8
AM_0
 10
532.59654708553899
 20
383.3039838280543
 30
0.0
 40
17.000000451534831
 50
156.80144506544991
 51
180.0
  0
ARC
  5
18E70
  8
0
 10
549.11925920108479
 20
387.30398187140281
 30
0.0
 40
5.0
 50
90.0
 51
193.60895384571481
1001
GENIUS_GENOBJ-N-FIL_13
1002
{
1000
OWNER
1000
GEN
1002
}
1001
GENIUS_GENODEF_13
1002
{
1000
HIER
1070
     0
1002
}
1002
{
1000
MANEDIT
1070
     0
1002
}
1002
{
1000
NOSEL
1070
     0
1002
}
1002
{
1000
BEHIND
1070
     0
1002
}
1002
{
1000
OTHER
1070
     0
1002
}
1002
{
1000
REACTOR
1002
}
  0
CIRCLE
  5
18E71
  8
0
 10
532.59654708553899
 20
383.30398382805458
 30
0.0
 40
5.0
  0
CIRCLE
  5
18E72
  8
ｷｲﾛ
 10
532.59654708553899
 20
383.30398382805458
 30
0.0
 40
6.0
  0
LINE
  5
18E73
  8
ﾁｭｳｼﾝｾﾝ1
 10
532.59652002972655
 20
418.30398187140281
 30
0.0
 11
562.59652002972689
 21
418.30398187140281
 31
0.0
  0
CIRCLE
  5
18E75
  8
0
 10
547.59652002972678
 20
418.30398187140321
 30
0.0
 40
7.0
  0
ARC
  5
18E76
  8
0
 10
547.59652002972678
 20
418.30398187140321
 30
0.0
 40
14.0
 50
228.39296489486389
 51
18.40848017058293
  0
ARC
  5
18E77
  8
0
 10
534.98017752442252
 20
404.09736715188461
 30
0.0
 40
5.0
 50
48.392964894863901
 51
156.80144506544991
1001
GENIUS_GENOBJ-N-FIL_13
1002
{
1000
OWNER
1000
GEN
1002
}
1001
GENIUS_GENODEF_13
1002
{
1000
HIER
1070
     0
1002
}
1002
{
1000
MANEDIT
1070
     0
1002
}
1002
{
1000
NOSEL
1070
     0
1002
}
1002
{
1000
BEHIND
1070
     0
1002
}
1002
{
1000
OTHER
1070
     0
1002
}
1002
{
1000
REACTOR
1002
}
  0
ARC
  5
18E78
  8
0
 10
554.60110122180936
 20
402.81411930508159
 30
0.0
 40
3.0
 50
44.99999999999568
 51
114.3326835064841
1001
GENIUS_GENODEF_13
1002
{
1000
HIER
1070
     0
1002
}
1002
{
1000
MANEDIT
1070
     0
1002
}
1002
{
1000
NOSEL
1070
     0
1002
}
1002
{
1000
BEHIND
1070
     0
1002
}
1002
{
1000
OTHER
1070
     0
1002
}
1002
{
1000
REACTOR
1002
}
1001
GENIUS_GENOBJ-N-FIL_13
1002
{
1000
OWNER
1000
GEN
1002
}
  0
ARC
  5
18E79
  8
0
 10
563.086382596048
 20
411.29940067932051
 30
0.0
 40
3.0
 50
155.6673164935076
 51
224.99999999999571
1001
GENIUS_GENOBJ-N-FIL_13
1002
{
1000
OWNER
1000
GEN
1002
}
1001
GENIUS_GENODEF_13
1002
{
1000
HIER
1070
     0
1002
}
1002
{
1000
MANEDIT
1070
     0
1002
}
1002
{
1000
NOSEL
1070
     0
1002
}
1002
{
1000
BEHIND
1070
     0
1002
}
1002
{
1000
OTHER
1070
     0
1002
}
1002
{
1000
REACTOR
1002
}
  0
ARC
  5
18E82
  8
0
 10
713.59652228740083
 20
367.39801027779367
 30
0.0
 40
5.0
 50
0.0
 51
110.6673181200093
1001
GENIUS_GENODEF_13
1002
{
1000
HIER
1070
     0
1002
}
1002
{
1000
MANEDIT
1070
     0
1002
}
1002
{
1000
NOSEL
1070
     0
1002
}
1002
{
1000
BEHIND
1070
     0
1002
}
1002
{
1000
OTHER
1070
     0
1002
}
1002
{
1000
REACTOR
1002
}
1001
GENIUS_GENOBJ-N-FIL_13
1002
{
1000
OWNER
1000
GEN
1002
}
  0
ARC
  5
18E83
  8
0
 10
707.5965218358665
 20
383.3039838280539
 30
0.0
 40
12.0
 50
166.39104615428519
 51
290.66731812000938
  0
LINE
  5
18E84
  8
ﾁｭｳｼﾝｾﾝ1
 10
592.59654889167837
 20
445.30398187140281
 30
0.0
 11
592.59654889167837
 21
191.30398187140321
 31
0.0
  0
LINE
  5
18E85
  8
AM_0
 10
745.09652229415133
 20
388.80537732699918
 30
0.0
 11
745.09652229415053
 21
318.30398187140321
 31
0.0
  0
LINE
  5
18E86
  8
AM_0
 10
759.09652229835126
 20
391.80545187140331
 30
0.0
 11
759.09652229835103
 21
318.30398187140321
 31
0.0
  0
ARC
  5
18E87
  8
AM_0
 10
335.43799571725492
 20
318.30398187140861
 30
0.0
 40
397.24800335969718
 50
353.33928567968309
 51
6.6607143203167842
  0
LINE
  5
18E88
  8
AM_0
 10
724.59652228740106
 20
383.30398382805458
 30
0.0
 11
724.59652228740083
 21
253.3039799147526
 31
0.0
  0
LINE
  5
18E89
  8
AM_0
 10
718.59652228740117
 20
383.30398382805458
 30
0.0
 11
718.59652228740083
 21
253.3039799147526
 31
0.0
  0
LINE
  5
18E8A
  8
AM_0
 10
729.68599907689304
 20
272.5752632323946
 30
0.0
 11
729.68599907689179
 21
364.03270051041159
 31
0.0
  0
POLYLINE
  5
18E98
  8
AM_0
 66
     1
 10
0.0
 20
0.0
 30
0.0
 70
     8
  0
VERTEX
  5
1ABB0
  8
AM_0
 10
748.09699999999998
 20
244.803
 30
0.0
 70
    32
  0
VERTEX
  5
1ABB1
  8
AM_0
 10
748.08000000000004
 20
244.803
 30
0.0
 70
    32
  0
VERTEX
  5
1ABB2
  8
AM_0
 10
748.06299999999987
 20
244.803
 30
0.0
 70
    32
  0
VERTEX
  5
1ABB3
  8
AM_0
 10
748.04600000000005
 20
244.803
 30
0.0
 70
    32
  0
VERTEX
  5
1ABB4
  8
AM_0
 10
748.029
 20
244.803
 30
0.0
 70
    32
  0
VERTEX
  5
1ABB5
  8
AM_0
 10
748.01199999999994
 20
244.804
 30
0.0
 70
    32
  0
VERTEX
  5
1ABB6
  8
AM_0
 10
747.995
 20
244.804
 30
0.0
 70
    32
  0
VERTEX
  5
1ABB7
  8
AM_0
 10
747.97799999999995
 20
244.80500000000001
 30
0.0
 70
    32
  0
VERTEX
  5
1ABB8
  8
AM_0
 10
747.96100000000001
 20
244.80600000000001
 30
0.0
 70
    32
  0
VERTEX
  5
1ABB9
  8
AM_0
 10
747.94399999999985
 20
244.80600000000001
 30
0.0
 70
    32
  0
VERTEX
  5
1ABBA
  8
AM_0
 10
747.92700000000002
 20
244.80699999999999
 30
0.0
 70
    32
  0
VERTEX
  5
1ABBB
  8
AM_0
 10
747.90999999999985
 20
244.80799999999999
 30
0.0
 70
    32
  0
VERTEX
  5
1ABBC
  8
AM_0
 10
747.89300000000003
 20
244.809
 30
0.0
 70
    32
  0
VERTEX
  5
1ABBD
  8
AM_0
 10
747.87699999999995
 20
244.81100000000001
 30
0.0
 70
    32
  0
VERTEX
  5
1ABBE
  8
AM_0
 10
747.86000000000001
 20
244.81200000000001
 30
0.0
 70
    32
  0
VERTEX
  5
1ABBF
  8
AM_0
 10
747.84300000000007
 20
244.81299999999999
 30
0.0
 70
    32
  0
VERTEX
  5
1ABC0
  8
AM_0
 10
747.82600000000002
 20
244.815
 30
0.0
 70
    32
  0
VERTEX
  5
1ABC1
  8
AM_0
 10
747.80899999999986
 20
244.816
 30
0.0
 70
    32
  0
VERTEX
  5
1ABC2
  8
AM_0
 10
747.79199999999992
 20
244.81800000000001
 30
0.0
 70
    32
  0
VERTEX
  5
1ABC3
  8
AM_0
 10
747.77499999999998
 20
244.81999999999999
 30
0.0
 70
    32
  0
VERTEX
  5
1ABC4
  8
AM_0
 10
747.75800000000004
 20
244.822
 30
0.0
 70
    32
  0
VERTEX
  5
1ABC5
  8
AM_0
 10
747.74199999999985
 20
244.82400000000001
 30
0.0
 70
    32
  0
VERTEX
  5
1ABC6
  8
AM_0
 10
747.72500000000002
 20
244.82599999999999
 30
0.0
 70
    32
  0
VERTEX
  5
1ABC7
  8
AM_0
 10
747.70799999999997
 20
244.828
 30
0.0
 70
    32
  0
VERTEX
  5
1ABC8
  8
AM_0
 10
747.69100000000003
 20
244.83000000000001
 30
0.0
 70
    32
  0
VERTEX
  5
1ABC9
  8
AM_0
 10
747.67399999999986
 20
244.83199999999999
 30
0.0
 70
    32
  0
VERTEX
  5
1ABCA
  8
AM_0
 10
747.65800000000002
 20
244.83500000000001
 30
0.0
 70
    32
  0
VERTEX
  5
1ABCB
  8
AM_0
 10
747.64100000000008
 20
244.83699999999999
 30
0.0
 70
    32
  0
VERTEX
  5
1ABCC
  8
AM_0
 10
747.6239999999998
 20
244.84
 30
0.0
 70
    32
  0
VERTEX
  5
1ABCD
  8
AM_0
 10
747.60699999999986
 20
244.84299999999999
 30
0.0
 70
    32
  0
VERTEX
  5
1ABCE
  8
AM_0
 10
747.59099999999989
 20
244.845
 30
0.0
 70
    32
  0
VERTEX
  5
1ABCF
  8
AM_0
 10
747.57399999999996
 20
244.84800000000001
 30
0.0
 70
    32
  0
VERTEX
  5
1ABD0
  8
AM_0
 10
747.55700000000002
 20
244.851
 30
0.0
 70
    32
  0
VERTEX
  5
1ABD1
  8
AM_0
 10
747.54100000000005
 20
244.85400000000001
 30
0.0
 70
    32
  0
VERTEX
  5
1ABD2
  8
AM_0
 10
747.52399999999989
 20
244.858
 30
0.0
 70
    32
  0
VERTEX
  5
1ABD3
  8
AM_0
 10
747.50800000000004
 20
244.86099999999999
 30
0.0
 70
    32
  0
VERTEX
  5
1ABD4
  8
AM_0
 10
747.4910000000001
 20
244.864
 30
0.0
 70
    32
  0
VERTEX
  5
1ABD5
  8
AM_0
 10
747.47399999999993
 20
244.86799999999999
 30
0.0
 70
    32
  0
VERTEX
  5
1ABD6
  8
AM_0
 10
747.45800000000008
 20
244.87100000000001
 30
0.0
 70
    32
  0
VERTEX
  5
1ABD7
  8
AM_0
 10
747.44100000000003
 20
244.875
 30
0.0
 70
    32
  0
VERTEX
  5
1ABD8
  8
AM_0
 10
747.42499999999995
 20
244.87899999999999
 30
0.0
 70
    32
  0
VERTEX
  5
1ABD9
  8
AM_0
 10
747.40800000000002
 20
244.88300000000001
 30
0.0
 70
    32
  0
VERTEX
  5
1ABDA
  8
AM_0
 10
747.39199999999994
 20
244.886
 30
0.0
 70
    32
  0
VERTEX
  5
1ABDB
  8
AM_0
 10
747.37499999999989
 20
244.89099999999999
 30
0.0
 70
    32
  0
VERTEX
  5
1ABDC
  8
AM_0
 10
747.35899999999992
 20
244.89500000000001
 30
0.0
 70
    32
  0
VERTEX
  5
1ABDD
  8
AM_0
 10
747.34199999999987
 20
244.899
 30
0.0
 70
    32
  0
VERTEX
  5
1ABDE
  8
AM_0
 10
747.32600000000002
 20
244.90299999999999
 30
0.0
 70
    32
  0
VERTEX
  5
1ABDF
  8
AM_0
 10
747.30999999999995
 20
244.90799999999999
 30
0.0
 70
    32
  0
VERTEX
  5
1ABE0
  8
AM_0
 10
747.29299999999989
 20
244.91200000000001
 30
0.0
 70
    32
  0
VERTEX
  5
1ABE1
  8
AM_0
 10
747.27699999999993
 20
244.917
 30
0.0
 70
    32
  0
VERTEX
  5
1ABE2
  8
AM_0
 10
747.26100000000008
 20
244.92099999999999
 30
0.0
 70
    32
  0
VERTEX
  5
1ABE3
  8
AM_0
 10
747.245
 20
244.92599999999999
 30
0.0
 70
    32
  0
VERTEX
  5
1ABE4
  8
AM_0
 10
747.22799999999995
 20
244.93100000000001
 30
0.0
 70
    32
  0
VERTEX
  5
1ABE5
  8
AM_0
 10
747.21199999999999
 20
244.93600000000001
 30
0.0
 70
    32
  0
VERTEX
  5
1ABE6
  8
AM_0
 10
747.19600000000003
 20
244.941
 30
0.0
 70
    32
  0
VERTEX
  5
1ABE7
  8
AM_0
 10
747.17999999999995
 20
244.946
 30
0.0
 70
    32
  0
VERTEX
  5
1ABE8
  8
AM_0
 10
747.16399999999987
 20
244.95099999999999
 30
0.0
 70
    32
  0
VERTEX
  5
1ABE9
  8
AM_0
 10
747.14800000000002
 20
244.95699999999999
 30
0.0
 70
    32
  0
VERTEX
  5
1ABEA
  8
AM_0
 10
747.13199999999995
 20
244.96199999999999
 30
0.0
 70
    32
  0
VERTEX
  5
1ABEB
  8
AM_0
 10
747.11500000000001
 20
244.96700000000001
 30
0.0
 70
    32
  0
VERTEX
  5
1ABEC
  8
AM_0
 10
747.10000000000002
 20
244.97300000000001
 30
0.0
 70
    32
  0
VERTEX
  5
1ABED
  8
AM_0
 10
747.08399999999995
 20
244.97900000000001
 30
0.0
 70
    32
  0
VERTEX
  5
1ABEE
  8
AM_0
 10
747.06799999999987
 20
244.98400000000001
 30
0.0
 70
    32
  0
VERTEX
  5
1ABEF
  8
AM_0
 10
747.05200000000002
 20
244.99000000000001
 30
0.0
 70
    32
  0
VERTEX
  5
1ABF0
  8
AM_0
 10
747.03599999999994
 20
244.99600000000001
 30
0.0
 70
    32
  0
VERTEX
  5
1ABF1
  8
AM_0
 10
747.01999999999998
 20
245.00200000000001
 30
0.0
 70
    32
  0
VERTEX
  5
1ABF2
  8
AM_0
 10
747.00399999999991
 20
245.00800000000001
 30
0.0
 70
    32
  0
VERTEX
  5
1ABF3
  8
AM_0
 10
746.98800000000006
 20
245.01499999999999
 30
0.0
 70
    32
  0
VERTEX
  5
1ABF4
  8
AM_0
 10
746.97300000000007
 20
245.02099999999999
 30
0.0
 70
    32
  0
VERTEX
  5
1ABF5
  8
AM_0
 10
746.95699999999999
 20
245.02699999999999
 30
0.0
 70
    32
  0
VERTEX
  5
1ABF6
  8
AM_0
 10
746.94100000000003
 20
245.03399999999999
 30
0.0
 70
    32
  0
VERTEX
  5
1ABF7
  8
AM_0
 10
746.92600000000004
 20
245.03999999999999
 30
0.0
 70
    32
  0
VERTEX
  5
1ABF8
  8
AM_0
 10
746.90999999999997
 20
245.047
 30
0.0
 70
    32
  0
VERTEX
  5
1ABF9
  8
AM_0
 10
746.89499999999987
 20
245.054
 30
0.0
 70
    32
  0
VERTEX
  5
1ABFA
  8
AM_0
 10
746.87899999999991
 20
245.06100000000001
 30
0.0
 70
    32
  0
VERTEX
  5
1ABFB
  8
AM_0
 10
746.86399999999992
 20
245.06800000000001
 30
0.0
 70
    32
  0
VERTEX
  5
1ABFC
  8
AM_0
 10
746.84799999999996
 20
245.07499999999999
 30
0.0
 70
    32
  0
VERTEX
  5
1ABFD
  8
AM_0
 10
746.83299999999997
 20
245.08199999999999
 30
0.0
 70
    32
  0
VERTEX
  5
1ABFE
  8
AM_0
 10
746.81799999999998
 20
245.089
 30
0.0
 70
    32
  0
VERTEX
  5
1ABFF
  8
AM_0
 10
746.80200000000002
 20
245.096
 30
0.0
 70
    32
  0
VERTEX
  5
1AC00
  8
AM_0
 10
746.78699999999992
 20
245.10300000000001
 30
0.0
 70
    32
  0
VERTEX
  5
1AC01
  8
AM_0
 10
746.77199999999993
 20
245.11099999999999
 30
0.0
 70
    32
  0
VERTEX
  5
1AC02
  8
AM_0
 10
746.75699999999995
 20
245.11799999999999
 30
0.0
 70
    32
  0
VERTEX
  5
1AC03
  8
AM_0
 10
746.74099999999999
 20
245.126
 30
0.0
 70
    32
  0
VERTEX
  5
1AC04
  8
AM_0
 10
746.72600000000011
 20
245.13399999999999
 30
0.0
 70
    32
  0
VERTEX
  5
1AC05
  8
AM_0
 10
746.7109999999999
 20
245.14099999999999
 30
0.0
 70
    32
  0
VERTEX
  5
1AC06
  8
AM_0
 10
746.69600000000003
 20
245.149
 30
0.0
 70
    32
  0
VERTEX
  5
1AC07
  8
AM_0
 10
746.68100000000004
 20
245.15700000000001
 30
0.0
 70
    32
  0
VERTEX
  5
1AC08
  8
AM_0
 10
746.66600000000005
 20
245.16499999999999
 30
0.0
 70
    32
  0
VERTEX
  5
1AC09
  8
AM_0
 10
746.65199999999993
 20
245.173
 30
0.0
 70
    32
  0
VERTEX
  5
1AC0A
  8
AM_0
 10
746.63699999999994
 20
245.18199999999999
 30
0.0
 70
    32
  0
VERTEX
  5
1AC0B
  8
AM_0
 10
746.62199999999984
 20
245.19
 30
0.0
 70
    32
  0
VERTEX
  5
1AC0C
  8
AM_0
 10
746.60699999999997
 20
245.19800000000001
 30
0.0
 70
    32
  0
VERTEX
  5
1AC0D
  8
AM_0
 10
746.59300000000007
 20
245.20699999999999
 30
0.0
 70
    32
  0
VERTEX
  5
1AC0E
  8
AM_0
 10
746.57799999999986
 20
245.215
 30
0.0
 70
    32
  0
VERTEX
  5
1AC0F
  8
AM_0
 10
746.56299999999987
 20
245.22399999999999
 30
0.0
 70
    32
  0
VERTEX
  5
1AC10
  8
AM_0
 10
746.54899999999986
 20
245.233
 30
0.0
 70
    32
  0
VERTEX
  5
1AC11
  8
AM_0
 10
746.53399999999999
 20
245.24100000000001
 30
0.0
 70
    32
  0
VERTEX
  5
1AC12
  8
AM_0
 10
746.51999999999998
 20
245.25
 30
0.0
 70
    32
  0
VERTEX
  5
1AC13
  8
AM_0
 10
746.50600000000009
 20
245.25899999999999
 30
0.0
 70
    32
  0
VERTEX
  5
1AC14
  8
AM_0
 10
746.4910000000001
 20
245.268
 30
0.0
 70
    32
  0
VERTEX
  5
1AC15
  8
AM_0
 10
746.47699999999986
 20
245.27699999999999
 30
0.0
 70
    32
  0
VERTEX
  5
1AC16
  8
AM_0
 10
746.46299999999997
 20
245.286
 30
0.0
 70
    32
  0
VERTEX
  5
1AC17
  8
AM_0
 10
746.44799999999998
 20
245.29599999999999
 30
0.0
 70
    32
  0
VERTEX
  5
1AC18
  8
AM_0
 10
746.43399999999986
 20
245.30500000000001
 30
0.0
 70
    32
  0
VERTEX
  5
1AC19
  8
AM_0
 10
746.41999999999985
 20
245.315
 30
0.0
 70
    32
  0
VERTEX
  5
1AC1A
  8
AM_0
 10
746.40599999999995
 20
245.32400000000001
 30
0.0
 70
    32
  0
VERTEX
  5
1AC1B
  8
AM_0
 10
746.39199999999994
 20
245.334
 30
0.0
 70
    32
  0
VERTEX
  5
1AC1C
  8
AM_0
 10
746.37800000000004
 20
245.34299999999999
 30
0.0
 70
    32
  0
VERTEX
  5
1AC1D
  8
AM_0
 10
746.36500000000001
 20
245.35300000000001
 30
0.0
 70
    32
  0
VERTEX
  5
1AC1E
  8
AM_0
 10
746.35100000000011
 20
245.363
 30
0.0
 70
    32
  0
VERTEX
  5
1AC1F
  8
AM_0
 10
746.33699999999999
 20
245.37299999999999
 30
0.0
 70
    32
  0
VERTEX
  5
1AC20
  8
AM_0
 10
746.32299999999998
 20
245.38300000000001
 30
0.0
 70
    32
  0
VERTEX
  5
1AC21
  8
AM_0
 10
746.30999999999995
 20
245.393
 30
0.0
 70
    32
  0
VERTEX
  5
1AC22
  8
AM_0
 10
746.29600000000005
 20
245.40299999999999
 30
0.0
 70
    32
  0
VERTEX
  5
1AC23
  8
AM_0
 10
746.28300000000002
 20
245.41300000000001
 30
0.0
 70
    32
  0
VERTEX
  5
1AC24
  8
AM_0
 10
746.26899999999989
 20
245.423
 30
0.0
 70
    32
  0
VERTEX
  5
1AC25
  8
AM_0
 10
746.25599999999997
 20
245.434
 30
0.0
 70
    32
  0
VERTEX
  5
1AC26
  8
AM_0
 10
746.24199999999985
 20
245.44399999999999
 30
0.0
 70
    32
  0
VERTEX
  5
1AC27
  8
AM_0
 10
746.22899999999993
 20
245.45500000000001
 30
0.0
 70
    32
  0
VERTEX
  5
1AC28
  8
AM_0
 10
746.21599999999989
 20
245.465
 30
0.0
 70
    32
  0
VERTEX
  5
1AC29
  8
AM_0
 10
746.20299999999986
 20
245.476
 30
0.0
 70
    32
  0
VERTEX
  5
1AC2A
  8
AM_0
 10
746.19000000000005
 20
245.48699999999999
 30
0.0
 70
    32
  0
VERTEX
  5
1AC2B
  8
AM_0
 10
746.17700000000002
 20
245.49700000000001
 30
0.0
 70
    32
  0
VERTEX
  5
1AC2C
  8
AM_0
 10
746.16399999999999
 20
245.50800000000001
 30
0.0
 70
    32
  0
VERTEX
  5
1AC2D
  8
AM_0
 10
746.15099999999995
 20
245.51900000000001
 30
0.0
 70
    32
  0
VERTEX
  5
1AC2E
  8
AM_0
 10
746.13800000000003
 20
245.53
 30
0.0
 70
    32
  0
VERTEX
  5
1AC2F
  8
AM_0
 10
746.12499999999989
 20
245.541
 30
0.0
 70
    32
  0
VERTEX
  5
1AC30
  8
AM_0
 10
746.11199999999997
 20
245.553
 30
0.0
 70
    32
  0
SEQEND
  5
1AC31
  8
AM_0
  0
LINE
  5
18E99
  8
AM_0
 10
745.09652229415133
 20
247.8025864158075
 30
0.0
 11
745.09652229415053
 21
318.30398187140321
 31
0.0
  0
CIRCLE
  5
18E9A
  8
0
 10
707.5965218358665
 20
253.30397991475229
 30
0.0
 40
5.0
  0
ARC
  5
18E9B
  8
0
 10
707.5965218358665
 20
253.30397991475249
 30
0.0
 40
12.0
 50
69.332681879990645
 51
193.60895384571481
  0
ARC
  5
18E9C
  8
0
 10
627.59654889167837
 20
246.30398187140341
 30
0.0
 40
11.0
 50
90.0
 51
169.19307712513961
  0
ARC
  5
18E9D
  8
0
 10
627.59654889167837
 20
246.30398187140341
 30
0.0
 40
11.0
 50
10.806922874860341
 51
90.0
  0
CIRCLE
  5
18E9E
  8
AM_0
 10
627.59654889167837
 20
246.30398187140281
 30
0.0
 40
8.5
  0
CIRCLE
  5
18E9F
  8
ｷｲﾛ
 10
707.5965218358665
 20
253.30397991475229
 30
0.0
 40
6.0
  0
LINE
  5
18EA1
  8
0
  6
CONTINUOUS
 62
     7
 10
663.59654889167814
 20
244.3039818714031
 30
0.0
 11
643.31278253718006
 21
244.3039818714031
 31
0.0
  0
ARC
  5
18EA4
  8
0
 10
611.88031524617691
 20
249.30398187140349
 30
0.0
 40
5.0
 50
270.0
 51
349.19307712513972
1001
GENIUS_GENOBJ-N-FIL_13
1002
{
1000
OWNER
1000
GEN
1002
}
1001
GENIUS_GENODEF_13
1002
{
1000
HIER
1070
     0
1002
}
1002
{
1000
MANEDIT
1070
     0
1002
}
1002
{
1000
NOSEL
1070
     0
1002
}
1002
{
1000
BEHIND
1070
     0
1002
}
1002
{
1000
OTHER
1070
     0
1002
}
1002
{
1000
REACTOR
1002
}
  0
LINE
  5
18EA5
  8
0
  6
CONTINUOUS
 62
     7
 10
611.88031524617691
 20
244.3039818714031
 30
0.0
 11
576.59652002972723
 21
244.3039818714031
 31
0.0
  0
ARC
  5
18EA6
  8
0
 10
573.59652002972723
 20
244.3039818714042
 30
0.0
 40
3.0000000000000631
 50
315.00000000000432
 51
135.00000000000421
  0
CIRCLE
  5
18EA7
  8
AM_0
 10
627.59654889167837
 20
246.30398187140281
 30
0.0
 40
6.5
  0
POLYLINE
  5
18EA8
  8
AM_0
 66
     1
 10
0.0
 20
0.0
 30
0.0
 70
     1
  0
VERTEX
  5
18EA9
  8
AM_0
 10
625.86449808410975
 20
243.30398187140321
 30
0.0
  0
VERTEX
  5
18EAA
  8
AM_0
 10
624.13244727654092
 20
246.30398187140329
 30
0.0
  0
VERTEX
  5
18EAB
  8
AM_0
 10
625.86449808410975
 20
249.30398187140329
 30
0.0
  0
VERTEX
  5
18EAC
  8
AM_0
 10
629.32859969924732
 20
249.30398187140329
 30
0.0
  0
VERTEX
  5
18EAD
  8
AM_0
 10
631.06065050681627
 20
246.30398187140329
 30
0.0
  0
VERTEX
  5
18EAE
  8
AM_0
 10
629.32859969924732
 20
243.30398187140321
 30
0.0
  0
SEQEND
  5
18EAF
  8
AM_0
  0
ARC
  5
18EB0
  8
0
 10
643.31278253718006
 20
249.30398187140349
 30
0.0
 40
5.0
 50
190.80692287486031
 51
269.99999999999841
1001
GENIUS_GENOBJ-N-FIL_13
1002
{
1000
OWNER
1000
GEN
1002
}
1001
GENIUS_GENODEF_13
1002
{
1000
HIER
1070
     0
1002
}
1002
{
1000
MANEDIT
1070
     0
1002
}
1002
{
1000
NOSEL
1070
     0
1002
}
1002
{
1000
BEHIND
1070
     0
1002
}
1002
{
1000
OTHER
1070
     0
1002
}
1002
{
1000
REACTOR
1002
}
  0
ARC
  5
18EB3
  8
0
 10
705.21289139698308
 20
232.51059659092189
 30
0.0
 40
5.0
 50
228.39296489486389
 51
336.80144506545003
1001
GENIUS_GENOBJ-N-FIL_13
1002
{
1000
OWNER
1000
GEN
1002
}
1001
GENIUS_GENODEF_13
1002
{
1000
HIER
1070
     0
1002
}
1002
{
1000
MANEDIT
1070
     0
1002
}
1002
{
1000
NOSEL
1070
     0
1002
}
1002
{
1000
BEHIND
1070
     0
1002
}
1002
{
1000
OTHER
1070
     0
1002
}
1002
{
1000
REACTOR
1002
}
  0
LINE
  5
18EB5
  8
0
  6
CONTINUOUS
 62
     7
 10
708.59652228740083
 20
244.3039818714031
 30
0.0
 11
670.83918957879814
 21
244.3039818714031
 31
0.0
  0
ARC
  5
18EB6
  8
0
 10
692.59654889167837
 20
218.30398187140369
 30
0.0
 40
16.999999999999702
 50
270.0
 51
336.80144506545003
  0
ARC
  5
18EB7
  8
0
 10
677.10668632535715
 20
225.30856306348639
 30
0.0
 40
3.0
 50
335.6673164935076
 51
44.99999999999568
1001
GENIUS_GENOBJ-N-FIL_13
1002
{
1000
OWNER
1000
GEN
1002
}
1001
GENIUS_GENODEF_13
1002
{
1000
HIER
1070
     0
1002
}
1002
{
1000
MANEDIT
1070
     0
1002
}
1002
{
1000
NOSEL
1070
     0
1002
}
1002
{
1000
BEHIND
1070
     0
1002
}
1002
{
1000
OTHER
1070
     0
1002
}
1002
{
1000
REACTOR
1002
}
  0
ARC
  5
18EB9
  8
0
 10
692.59654889167837
 20
218.30398187140301
 30
0.0
 40
14.0
 50
48.392964894863901
 51
198.40848017058289
  0
ARC
  5
18EBA
  8
0
 10
674.56879251435839
 20
212.30398187140369
 30
0.0
 40
5.0
 50
270.0
 51
18.40848017058293
1001
GENIUS_GENOBJ-N-FIL_13
1002
{
1000
OWNER
1000
GEN
1002
}
1001
GENIUS_GENODEF_13
1002
{
1000
HIER
1070
     0
1002
}
1002
{
1000
MANEDIT
1070
     0
1002
}
1002
{
1000
NOSEL
1070
     0
1002
}
1002
{
1000
BEHIND
1070
     0
1002
}
1002
{
1000
OTHER
1070
     0
1002
}
1002
{
1000
REACTOR
1002
}
  0
CIRCLE
  5
18EBB
  8
0
 10
692.59654889167837
 20
218.30398187140369
 30
0.0
 40
7.0
  0
LINE
  5
18EBC
  8
0
 10
683.47064735603612
 20
231.672524094165
 30
0.0
 11
668.71786923523757
 21
246.42530221496361
 31
0.0
  0
LINE
  5
18EBD
  8
0
 10
679.22800666891703
 20
227.42988340704559
 30
0.0
 11
664.47522854811837
 21
242.182661527844
 31
0.0
  0
ARC
  5
18EBE
  8
0
 10
666.59654889167814
 20
244.3039818714042
 30
0.0
 40
3.0000000000000631
 50
44.99999999999568
 51
224.99999999999571
  0
ARC
  5
18EBF
  8
0
 10
685.59196769959567
 20
233.793844437725
 30
0.0
 40
3.0
 50
224.99999999999571
 51
294.33268350648427
1001
GENIUS_GENODEF_13
1002
{
1000
HIER
1070
     0
1002
}
1002
{
1000
MANEDIT
1070
     0
1002
}
1002
{
1000
NOSEL
1070
     0
1002
}
1002
{
1000
BEHIND
1070
     0
1002
}
1002
{
1000
OTHER
1070
     0
1002
}
1002
{
1000
REACTOR
1002
}
1001
GENIUS_GENOBJ-N-FIL_13
1002
{
1000
OWNER
1000
GEN
1002
}
  0
ARC
  5
18EC0
  8
0
 10
691.0738097203207
 20
249.30398187140349
 30
0.0
 40
5.0
 50
270.0
 51
13.60895384571479
1001
GENIUS_GENODEF_13
1002
{
1000
HIER
1070
     0
1002
}
1002
{
1000
MANEDIT
1070
     0
1002
}
1002
{
1000
NOSEL
1070
     0
1002
}
1002
{
1000
BEHIND
1070
     0
1002
}
1002
{
1000
OTHER
1070
     0
1002
}
1002
{
1000
REACTOR
1002
}
1001
GENIUS_GENOBJ-N-FIL_13
1002
{
1000
OWNER
1000
GEN
1002
}
  0
LINE
  5
18EC1
  8
0
 10
708.22201856040363
 20
211.60736349854221
 30
0.0
 11
723.22199191961795
 21
246.60736136402309
 31
0.0
  0
ARC
  5
18EC2
  8
AM_0
 10
707.59652183586604
 20
253.30397991475269
 30
0.0
 40
17.000000451534831
 50
336.80144506545003
 51
0.0
  0
LINE
  5
18EC3
  8
AM_0
 10
744.12790037704451
 20
246.3025551699958
 30
0.0
 11
723.08782339835921
 21
246.3025806794507
 31
0.0
  0
LINE
  5
18EC4
  8
0
 10
709.80861777013752
 20
230.5410029518446
 30
0.0
 11
717.70712027183242
 21
248.97087373091529
 31
0.0
  0
ARC
  5
18EC5
  8
0
 10
708.59652228740083
 20
254.30398187140349
 30
0.0
 40
10.0
 50
270.0
 51
0.0
1001
GENIUS_GENODEF_13
1002
{
1000
HIER
1070
     0
1002
}
1002
{
1000
MANEDIT
1070
     0
1002
}
1002
{
1000
NOSEL
1070
     0
1002
}
1002
{
1000
BEHIND
1070
     0
1002
}
1002
{
1000
OTHER
1070
     0
1002
}
1002
{
1000
REACTOR
1002
}
1001
GENIUS_GENOBJ-N-FIL_13
1002
{
1000
OWNER
1000
GEN
1002
}
  0
ARC
  5
18EC6
  8
AM_0
 10
707.59652183586604
 20
253.30397991475269
 30
0.0
 40
11.000000451534831
 50
336.80144506545003
 51
0.0
  0
POLYLINE
  5
18EC8
  8
AM_0
 66
     1
 10
0.0
 20
0.0
 30
0.0
 70
     8
  0
VERTEX
  5
1AC32
  8
AM_0
 10
744.12800000000004
 20
246.303
 30
0.0
 70
    32
  0
VERTEX
  5
1AC33
  8
AM_0
 10
744.14499999999987
 20
246.303
 30
0.0
 70
    32
  0
VERTEX
  5
1AC34
  8
AM_0
 10
744.16199999999992
 20
246.30199999999999
 30
0.0
 70
    32
  0
VERTEX
  5
1AC35
  8
AM_0
 10
744.17899999999997
 20
246.30199999999999
 30
0.0
 70
    32
  0
VERTEX
  5
1AC36
  8
AM_0
 10
744.19600000000003
 20
246.30199999999999
 30
0.0
 70
    32
  0
VERTEX
  5
1AC37
  8
AM_0
 10
744.21299999999997
 20
246.30099999999999
 30
0.0
 70
    32
  0
VERTEX
  5
1AC38
  8
AM_0
 10
744.23000000000002
 20
246.30099999999999
 30
0.0
 70
    32
  0
VERTEX
  5
1AC39
  8
AM_0
 10
744.24600000000009
 20
246.30000000000001
 30
0.0
 70
    32
  0
VERTEX
  5
1AC3A
  8
AM_0
 10
744.26300000000003
 20
246.29900000000001
 30
0.0
 70
    32
  0
VERTEX
  5
1AC3B
  8
AM_0
 10
744.27999999999997
 20
246.29900000000001
 30
0.0
 70
    32
  0
VERTEX
  5
1AC3C
  8
AM_0
 10
744.29700000000003
 20
246.298
 30
0.0
 70
    32
  0
VERTEX
  5
1AC3D
  8
AM_0
 10
744.31399999999985
 20
246.297
 30
0.0
 70
    32
  0
VERTEX
  5
1AC3E
  8
AM_0
 10
744.33100000000002
 20
246.29599999999999
 30
0.0
 70
    32
  0
VERTEX
  5
1AC3F
  8
AM_0
 10
744.34799999999996
 20
246.29400000000001
 30
0.0
 70
    32
  0
VERTEX
  5
1AC40
  8
AM_0
 10
744.3649999999999
 20
246.29300000000001
 30
0.0
 70
    32
  0
VERTEX
  5
1AC41
  8
AM_0
 10
744.38199999999995
 20
246.292
 30
0.0
 70
    32
  0
VERTEX
  5
1AC42
  8
AM_0
 10
744.39899999999989
 20
246.28999999999999
 30
0.0
 70
    32
  0
VERTEX
  5
1AC43
  8
AM_0
 10
744.41499999999985
 20
246.28899999999999
 30
0.0
 70
    32
  0
VERTEX
  5
1AC44
  8
AM_0
 10
744.43200000000002
 20
246.28700000000001
 30
0.0
 70
    32
  0
VERTEX
  5
1AC45
  8
AM_0
 10
744.44899999999996
 20
246.285
 30
0.0
 70
    32
  0
VERTEX
  5
1AC46
  8
AM_0
 10
744.46599999999989
 20
246.28299999999999
 30
0.0
 70
    32
  0
VERTEX
  5
1AC47
  8
AM_0
 10
744.48299999999995
 20
246.28100000000001
 30
0.0
 70
    32
  0
VERTEX
  5
1AC48
  8
AM_0
 10
744.5
 20
246.279
 30
0.0
 70
    32
  0
VERTEX
  5
1AC49
  8
AM_0
 10
744.51600000000008
 20
246.27699999999999
 30
0.0
 70
    32
  0
VERTEX
  5
1AC4A
  8
AM_0
 10
744.53300000000002
 20
246.27500000000001
 30
0.0
 70
    32
  0
VERTEX
  5
1AC4B
  8
AM_0
 10
744.54999999999995
 20
246.273
 30
0.0
 70
    32
  0
VERTEX
  5
1AC4C
  8
AM_0
 10
744.56699999999989
 20
246.27000000000001
 30
0.0
 70
    32
  0
VERTEX
  5
1AC4D
  8
AM_0
 10
744.58299999999997
 20
246.268
 30
0.0
 70
    32
  0
VERTEX
  5
1AC4E
  8
AM_0
 10
744.60000000000002
 20
246.26499999999999
 30
0.0
 70
    32
  0
VERTEX
  5
1AC4F
  8
AM_0
 10
744.61699999999985
 20
246.262
 30
0.0
 70
    32
  0
VERTEX
  5
1AC50
  8
AM_0
 10
744.6339999999999
 20
246.25999999999999
 30
0.0
 70
    32
  0
VERTEX
  5
1AC51
  8
AM_0
 10
744.64999999999998
 20
246.25700000000001
 30
0.0
 70
    32
  0
VERTEX
  5
1AC52
  8
AM_0
 10
744.66699999999992
 20
246.25399999999999
 30
0.0
 70
    32
  0
VERTEX
  5
1AC53
  8
AM_0
 10
744.68399999999986
 20
246.251
 30
0.0
 70
    32
  0
VERTEX
  5
1AC54
  8
AM_0
 10
744.70000000000005
 20
246.24700000000001
 30
0.0
 70
    32
  0
VERTEX
  5
1AC55
  8
AM_0
 10
744.71699999999987
 20
246.244
 30
0.0
 70
    32
  0
VERTEX
  5
1AC56
  8
AM_0
 10
744.73399999999992
 20
246.24100000000001
 30
0.0
 70
    32
  0
VERTEX
  5
1AC57
  8
AM_0
 10
744.74999999999989
 20
246.23699999999999
 30
0.0
 70
    32
  0
VERTEX
  5
1AC58
  8
AM_0
 10
744.76699999999994
 20
246.23400000000001
 30
0.0
 70
    32
  0
VERTEX
  5
1AC59
  8
AM_0
 10
744.78300000000002
 20
246.22999999999999
 30
0.0
 70
    32
  0
VERTEX
  5
1AC5A
  8
AM_0
 10
744.79999999999995
 20
246.226
 30
0.0
 70
    32
  0
VERTEX
  5
1AC5B
  8
AM_0
 10
744.81600000000003
 20
246.22300000000001
 30
0.0
 70
    32
  0
VERTEX
  5
1AC5C
  8
AM_0
 10
744.83300000000008
 20
246.21899999999999
 30
0.0
 70
    32
  0
VERTEX
  5
1AC5D
  8
AM_0
 10
744.84899999999993
 20
246.215
 30
0.0
 70
    32
  0
VERTEX
  5
1AC5E
  8
AM_0
 10
744.8660000000001
 20
246.21000000000001
 30
0.0
 70
    32
  0
VERTEX
  5
1AC5F
  8
AM_0
 10
744.88199999999995
 20
246.20599999999999
 30
0.0
 70
    32
  0
VERTEX
  5
1AC60
  8
AM_0
 10
744.89800000000002
 20
246.202
 30
0.0
 70
    32
  0
VERTEX
  5
1AC61
  8
AM_0
 10
744.91499999999985
 20
246.19800000000001
 30
0.0
 70
    32
  0
VERTEX
  5
1AC62
  8
AM_0
 10
744.93100000000004
 20
246.19300000000001
 30
0.0
 70
    32
  0
VERTEX
  5
1AC63
  8
AM_0
 10
744.94699999999989
 20
246.18799999999999
 30
0.0
 70
    32
  0
VERTEX
  5
1AC64
  8
AM_0
 10
744.96399999999994
 20
246.184
 30
0.0
 70
    32
  0
VERTEX
  5
1AC65
  8
AM_0
 10
744.98000000000002
 20
246.179
 30
0.0
 70
    32
  0
VERTEX
  5
1AC66
  8
AM_0
 10
744.99599999999998
 20
246.17400000000001
 30
0.0
 70
    32
  0
VERTEX
  5
1AC67
  8
AM_0
 10
745.01199999999994
 20
246.16900000000001
 30
0.0
 70
    32
  0
VERTEX
  5
1AC68
  8
AM_0
 10
745.02899999999988
 20
246.16399999999999
 30
0.0
 70
    32
  0
VERTEX
  5
1AC69
  8
AM_0
 10
745.04499999999996
 20
246.15899999999999
 30
0.0
 70
    32
  0
VERTEX
  5
1AC6A
  8
AM_0
 10
745.06100000000004
 20
246.154
 30
0.0
 70
    32
  0
VERTEX
  5
1AC6B
  8
AM_0
 10
745.077
 20
246.149
 30
0.0
 70
    32
  0
VERTEX
  5
1AC6C
  8
AM_0
 10
745.09299999999996
 20
246.143
 30
0.0
 70
    32
  0
VERTEX
  5
1AC6D
  8
AM_0
 10
745.10899999999992
 20
246.13800000000001
 30
0.0
 70
    32
  0
VERTEX
  5
1AC6E
  8
AM_0
 10
745.12499999999989
 20
246.13200000000001
 30
0.0
 70
    32
  0
VERTEX
  5
1AC6F
  8
AM_0
 10
745.14099999999996
 20
246.126
 30
0.0
 70
    32
  0
VERTEX
  5
1AC70
  8
AM_0
 10
745.15699999999993
 20
246.12100000000001
 30
0.0
 70
    32
  0
VERTEX
  5
1AC71
  8
AM_0
 10
745.173
 20
246.11500000000001
 30
0.0
 70
    32
  0
VERTEX
  5
1AC72
  8
AM_0
 10
745.18899999999985
 20
246.10900000000001
 30
0.0
 70
    32
  0
VERTEX
  5
1AC73
  8
AM_0
 10
745.20399999999995
 20
246.10300000000001
 30
0.0
 70
    32
  0
VERTEX
  5
1AC74
  8
AM_0
 10
745.22000000000003
 20
246.09700000000001
 30
0.0
 70
    32
  0
VERTEX
  5
1AC75
  8
AM_0
 10
745.2360000000001
 20
246.09
 30
0.0
 70
    32
  0
VERTEX
  5
1AC76
  8
AM_0
 10
745.25199999999995
 20
246.084
 30
0.0
 70
    32
  0
VERTEX
  5
1AC77
  8
AM_0
 10
745.26699999999994
 20
246.078
 30
0.0
 70
    32
  0
VERTEX
  5
1AC78
  8
AM_0
 10
745.28300000000002
 20
246.071
 30
0.0
 70
    32
  0
VERTEX
  5
1AC79
  8
AM_0
 10
745.29899999999986
 20
246.065
 30
0.0
 70
    32
  0
VERTEX
  5
1AC7A
  8
AM_0
 10
745.31399999999985
 20
246.05799999999999
 30
0.0
 70
    32
  0
VERTEX
  5
1AC7B
  8
AM_0
 10
745.33000000000004
 20
246.05099999999999
 30
0.0
 70
    32
  0
VERTEX
  5
1AC7C
  8
AM_0
 10
745.34500000000003
 20
246.04400000000001
 30
0.0
 70
    32
  0
VERTEX
  5
1AC7D
  8
AM_0
 10
745.3610000000001
 20
246.03800000000001
 30
0.0
 70
    32
  0
VERTEX
  5
1AC7E
  8
AM_0
 10
745.37599999999998
 20
246.03100000000001
 30
0.0
 70
    32
  0
VERTEX
  5
1AC7F
  8
AM_0
 10
745.39199999999994
 20
246.023
 30
0.0
 70
    32
  0
VERTEX
  5
1AC80
  8
AM_0
 10
745.40699999999993
 20
246.01599999999999
 30
0.0
 70
    32
  0
VERTEX
  5
1AC81
  8
AM_0
 10
745.42200000000003
 20
246.00899999999999
 30
0.0
 70
    32
  0
VERTEX
  5
1AC82
  8
AM_0
 10
745.4369999999999
 20
246.00200000000001
 30
0.0
 70
    32
  0
VERTEX
  5
1AC83
  8
AM_0
 10
745.45299999999997
 20
245.994
 30
0.0
 70
    32
  0
VERTEX
  5
1AC84
  8
AM_0
 10
745.46799999999996
 20
245.98699999999999
 30
0.0
 70
    32
  0
VERTEX
  5
1AC85
  8
AM_0
 10
745.48300000000006
 20
245.97900000000001
 30
0.0
 70
    32
  0
VERTEX
  5
1AC86
  8
AM_0
 10
745.49800000000005
 20
245.971
 30
0.0
 70
    32
  0
VERTEX
  5
1AC87
  8
AM_0
 10
745.51300000000003
 20
245.964
 30
0.0
 70
    32
  0
VERTEX
  5
1AC88
  8
AM_0
 10
745.52800000000002
 20
245.95599999999999
 30
0.0
 70
    32
  0
VERTEX
  5
1AC89
  8
AM_0
 10
745.54299999999989
 20
245.94800000000001
 30
0.0
 70
    32
  0
VERTEX
  5
1AC8A
  8
AM_0
 10
745.55799999999999
 20
245.94
 30
0.0
 70
    32
  0
VERTEX
  5
1AC8B
  8
AM_0
 10
745.57299999999987
 20
245.93199999999999
 30
0.0
 70
    32
  0
VERTEX
  5
1AC8C
  8
AM_0
 10
745.58799999999997
 20
245.923
 30
0.0
 70
    32
  0
VERTEX
  5
1AC8D
  8
AM_0
 10
745.60199999999986
 20
245.91499999999999
 30
0.0
 70
    32
  0
VERTEX
  5
1AC8E
  8
AM_0
 10
745.61699999999996
 20
245.90700000000001
 30
0.0
 70
    32
  0
VERTEX
  5
1AC8F
  8
AM_0
 10
745.63199999999995
 20
245.898
 30
0.0
 70
    32
  0
VERTEX
  5
1AC90
  8
AM_0
 10
745.64599999999996
 20
245.88999999999999
 30
0.0
 70
    32
  0
VERTEX
  5
1AC91
  8
AM_0
 10
745.66099999999994
 20
245.881
 30
0.0
 70
    32
  0
VERTEX
  5
1AC92
  8
AM_0
 10
745.67600000000004
 20
245.87299999999999
 30
0.0
 70
    32
  0
VERTEX
  5
1AC93
  8
AM_0
 10
745.69000000000005
 20
245.864
 30
0.0
 70
    32
  0
VERTEX
  5
1AC94
  8
AM_0
 10
745.70500000000004
 20
245.85499999999999
 30
0.0
 70
    32
  0
VERTEX
  5
1AC95
  8
AM_0
 10
745.71899999999994
 20
245.846
 30
0.0
 70
    32
  0
VERTEX
  5
1AC96
  8
AM_0
 10
745.73299999999995
 20
245.83699999999999
 30
0.0
 70
    32
  0
VERTEX
  5
1AC97
  8
AM_0
 10
745.74800000000005
 20
245.828
 30
0.0
 70
    32
  0
VERTEX
  5
1AC98
  8
AM_0
 10
745.76199999999994
 20
245.81899999999999
 30
0.0
 70
    32
  0
VERTEX
  5
1AC99
  8
AM_0
 10
745.77599999999995
 20
245.809
 30
0.0
 70
    32
  0
VERTEX
  5
1AC9A
  8
AM_0
 10
745.78999999999985
 20
245.80000000000001
 30
0.0
 70
    32
  0
VERTEX
  5
1AC9B
  8
AM_0
 10
745.80399999999986
 20
245.791
 30
0.0
 70
    32
  0
VERTEX
  5
1AC9C
  8
AM_0
 10
745.81799999999987
 20
245.78100000000001
 30
0.0
 70
    32
  0
VERTEX
  5
1AC9D
  8
AM_0
 10
745.83199999999999
 20
245.77099999999999
 30
0.0
 70
    32
  0
VERTEX
  5
1AC9E
  8
AM_0
 10
745.846
 20
245.762
 30
0.0
 70
    32
  0
VERTEX
  5
1AC9F
  8
AM_0
 10
745.86000000000001
 20
245.75200000000001
 30
0.0
 70
    32
  0
VERTEX
  5
1ACA0
  8
AM_0
 10
745.8739999999998
 20
245.74199999999999
 30
0.0
 70
    32
  0
VERTEX
  5
1ACA1
  8
AM_0
 10
745.88699999999994
 20
245.732
 30
0.0
 70
    32
  0
VERTEX
  5
1ACA2
  8
AM_0
 10
745.90100000000007
 20
245.72200000000001
 30
0.0
 70
    32
  0
VERTEX
  5
1ACA3
  8
AM_0
 10
745.91499999999996
 20
245.71199999999999
 30
0.0
 70
    32
  0
VERTEX
  5
1ACA4
  8
AM_0
 10
745.92799999999988
 20
245.702
 30
0.0
 70
    32
  0
VERTEX
  5
1ACA5
  8
AM_0
 10
745.94200000000001
 20
245.69200000000001
 30
0.0
 70
    32
  0
VERTEX
  5
1ACA6
  8
AM_0
 10
745.95500000000004
 20
245.68199999999999
 30
0.0
 70
    32
  0
VERTEX
  5
1ACA7
  8
AM_0
 10
745.96899999999994
 20
245.67099999999999
 30
0.0
 70
    32
  0
VERTEX
  5
1ACA8
  8
AM_0
 10
745.98199999999986
 20
245.661
 30
0.0
 70
    32
  0
VERTEX
  5
1ACA9
  8
AM_0
 10
745.995
 20
245.65000000000001
 30
0.0
 70
    32
  0
VERTEX
  5
1ACAA
  8
AM_0
 10
746.0089999999999
 20
245.63999999999999
 30
0.0
 70
    32
  0
VERTEX
  5
1ACAB
  8
AM_0
 10
746.02199999999993
 20
245.62899999999999
 30
0.0
 70
    32
  0
VERTEX
  5
1ACAC
  8
AM_0
 10
746.03499999999997
 20
245.61799999999999
 30
0.0
 70
    32
  0
VERTEX
  5
1ACAD
  8
AM_0
 10
746.048
 20
245.608
 30
0.0
 70
    32
  0
VERTEX
  5
1ACAE
  8
AM_0
 10
746.06100000000004
 20
245.59700000000001
 30
0.0
 70
    32
  0
VERTEX
  5
1ACAF
  8
AM_0
 10
746.07399999999996
 20
245.58600000000001
 30
0.0
 70
    32
  0
VERTEX
  5
1ACB0
  8
AM_0
 10
746.08699999999988
 20
245.57499999999999
 30
0.0
 70
    32
  0
VERTEX
  5
1ACB1
  8
AM_0
 10
746.09899999999993
 20
245.56399999999999
 30
0.0
 70
    32
  0
VERTEX
  5
1ACB2
  8
AM_0
 10
746.11199999999997
 20
245.553
 30
0.0
 70
    32
  0
SEQEND
  5
1ACB3
  8
AM_0
  0
LINE
  5
18ECA
  8
AM_0
 10
597.59654904079036
 20
339.10441680263358
 30
0.0
 11
587.59654874256694
 21
339.10441680263358
 31
0.0
  0
LINE
  5
18ECB
  8
AM_0
 10
587.59654874256694
 20
335.07449165819492
 30
0.0
 11
587.59654874256694
 21
339.10441680263358
 31
0.0
  0
LINE
  5
18ECC
  8
AM_0
 10
597.59654904079036
 20
335.07449165819469
 30
0.0
 11
597.59654904079036
 21
339.10441680263358
 31
0.0
  0
ARC
  5
18ECD
  8
0
 10
713.59652228740083
 20
269.20995346501292
 30
0.0
 40
5.0
 50
249.33268187999059
 51
0.0
1001
GENIUS_GENOBJ-N-FIL_13
1002
{
1000
OWNER
1000
GEN
1002
}
1001
GENIUS_GENODEF_13
1002
{
1000
HIER
1070
     0
1002
}
1002
{
1000
MANEDIT
1070
     0
1002
}
1002
{
1000
NOSEL
1070
     0
1002
}
1002
{
1000
BEHIND
1070
     0
1002
}
1002
{
1000
OTHER
1070
     0
1002
}
1002
{
1000
REACTOR
1002
}
  0
LINE
  5
18ECE
  8
AM_0
 10
727.02498789740173
 20
269.57526323233458
 30
0.0
 11
724.59652228740094
 21
269.57526323233458
 31
0.0
  0
ARC
  5
18ECF
  8
0
 10
715.59652228740083
 20
299.30398187140321
 30
0.0
 40
3.0
 50
270.0
 51
0.0
1001
GENIUS_GENODEF_13
1002
{
1000
HIER
1070
     0
1002
}
1002
{
1000
MANEDIT
1070
     0
1002
}
1002
{
1000
NOSEL
1070
     0
1002
}
1002
{
1000
BEHIND
1070
     0
1002
}
1002
{
1000
OTHER
1070
     0
1002
}
1002
{
1000
REACTOR
1002
}
1001
GENIUS_GENOBJ-N-FIL_13
1002
{
1000
OWNER
1000
GEN
1002
}
  0
ARC
  5
18ED0
  8
0
 10
715.59428303529285
 20
293.30398270711157
 30
0.0
 40
3.0000000000000631
 50
90.000000000001606
 51
270.0
  0
ARC
  5
18ED1
  8
0
 10
715.59652228740083
 20
287.30398187140321
 30
0.0
 40
3.0
 50
0.0
 51
90.0
1001
GENIUS_GENODEF_13
1002
{
1000
HIER
1070
     0
1002
}
1002
{
1000
MANEDIT
1070
     0
1002
}
1002
{
1000
NOSEL
1070
     0
1002
}
1002
{
1000
BEHIND
1070
     0
1002
}
1002
{
1000
OTHER
1070
     0
1002
}
1002
{
1000
REACTOR
1002
}
1001
GENIUS_GENOBJ-N-FIL_13
1002
{
1000
OWNER
1000
GEN
1002
}
  0
ARC
  5
18ED2
  8
AM_0
 10
727.02498789740173
 20
272.5752632323946
 30
0.0
 40
3.000000000059996
 50
270.0
 51
353.33928567968309
1001
GENIUS_GENODEF_13
1002
{
1000
HIER
1070
     0
1002
}
1002
{
1000
MANEDIT
1070
     0
1002
}
1002
{
1000
NOSEL
1070
     0
1002
}
1002
{
1000
BEHIND
1070
     0
1002
}
1002
{
1000
OTHER
1070
     0
1002
}
1002
{
1000
REACTOR
1002
}
1001
GENIUS_GENOBJ-N-FIL_13
1002
{
1000
OWNER
1000
GEN
1002
}
  0
ARC
  5
18ED3
  8
0
 10
715.59652228740083
 20
343.30398187140321
 30
0.0
 40
3.0000000000000631
 50
90.000000000001606
 51
270.0
  0
ARC
  5
18ED4
  8
0
 10
715.59652228740083
 20
337.30398187140321
 30
0.0
 40
3.0
 50
0.0
 51
90.0
1001
GENIUS_GENODEF_13
1002
{
1000
HIER
1070
     0
1002
}
1002
{
1000
MANEDIT
1070
     0
1002
}
1002
{
1000
NOSEL
1070
     0
1002
}
1002
{
1000
BEHIND
1070
     0
1002
}
1002
{
1000
OTHER
1070
     0
1002
}
1002
{
1000
REACTOR
1002
}
1001
GENIUS_GENOBJ-N-FIL_13
1002
{
1000
OWNER
1000
GEN
1002
}
  0
ARC
  5
18ED5
  8
0
 10
715.59652228740083
 20
349.30398187140332
 30
0.0
 40
3.0
 50
270.0
 51
0.0
1001
GENIUS_GENODEF_13
1002
{
1000
HIER
1070
     0
1002
}
1002
{
1000
MANEDIT
1070
     0
1002
}
1002
{
1000
NOSEL
1070
     0
1002
}
1002
{
1000
BEHIND
1070
     0
1002
}
1002
{
1000
OTHER
1070
     0
1002
}
1002
{
1000
REACTOR
1002
}
1001
GENIUS_GENOBJ-N-FIL_13
1002
{
1000
OWNER
1000
GEN
1002
}
  0
LINE
  5
18ED9
  8
AM_0
 10
759.09652229835126
 20
244.8025118714032
 30
0.0
 11
759.09652229835103
 21
318.30398187140321
 31
0.0
  0
LINE
  5
18EE4
  8
AM_0
 10
759.09651621867704
 20
244.80250702171509
 30
0.0
 11
748.09651700585709
 21
244.8025264158122
 31
0.0
  0
LINE
  5
18F23
  8
AM_0
 10
747.09652229474909
 20
255.30272187140369
 30
0.0
 11
759.09652229834899
 21
255.30272187140329
 31
0.0
  0
LINE
  5
18F25
  8
AM_0
 10
747.09652229474989
 20
279.24224825011061
 30
0.0
 11
759.09652229834978
 21
279.24224825011038
 31
0.0
  0
LINE
  5
18F3D
  8
AM_0
 10
747.09652229475125
 20
357.36571549269632
 30
0.0
 11
759.09652229835103
 21
357.36571549269621
 31
0.0
  0
POLYLINE
  5
18F7E
  8
AM_0
 66
     1
 10
0.0
 20
0.0
 30
0.0
 70
     8
  0
VERTEX
  5
1AD36
  8
AM_0
 10
746.11199999999997
 20
391.05500000000001
 30
0.0
 70
    32
  0
VERTEX
  5
1AD37
  8
AM_0
 10
746.12499999999989
 20
391.06700000000001
 30
0.0
 70
    32
  0
VERTEX
  5
1AD38
  8
AM_0
 10
746.13800000000003
 20
391.07799999999997
 30
0.0
 70
    32
  0
VERTEX
  5
1AD39
  8
AM_0
 10
746.15099999999995
 20
391.089
 30
0.0
 70
    32
  0
VERTEX
  5
1AD3A
  8
AM_0
 10
746.16399999999999
 20
391.10000000000008
 30
0.0
 70
    32
  0
VERTEX
  5
1AD3B
  8
AM_0
 10
746.17700000000002
 20
391.11099999999999
 30
0.0
 70
    32
  0
VERTEX
  5
1AD3C
  8
AM_0
 10
746.19000000000005
 20
391.12099999999998
 30
0.0
 70
    32
  0
VERTEX
  5
1AD3D
  8
AM_0
 10
746.20299999999986
 20
391.13199999999989
 30
0.0
 70
    32
  0
VERTEX
  5
1AD3E
  8
AM_0
 10
746.21599999999989
 20
391.14299999999997
 30
0.0
 70
    32
  0
VERTEX
  5
1AD3F
  8
AM_0
 10
746.22899999999993
 20
391.15300000000002
 30
0.0
 70
    32
  0
VERTEX
  5
1AD40
  8
AM_0
 10
746.24199999999985
 20
391.16399999999999
 30
0.0
 70
    32
  0
VERTEX
  5
1AD41
  8
AM_0
 10
746.25599999999997
 20
391.17399999999998
 30
0.0
 70
    32
  0
VERTEX
  5
1AD42
  8
AM_0
 10
746.26899999999989
 20
391.185
 30
0.0
 70
    32
  0
VERTEX
  5
1AD43
  8
AM_0
 10
746.28300000000002
 20
391.19499999999999
 30
0.0
 70
    32
  0
VERTEX
  5
1AD44
  8
AM_0
 10
746.29600000000005
 20
391.20499999999998
 30
0.0
 70
    32
  0
VERTEX
  5
1AD45
  8
AM_0
 10
746.30999999999995
 20
391.21499999999997
 30
0.0
 70
    32
  0
VERTEX
  5
1AD46
  8
AM_0
 10
746.32299999999998
 20
391.22500000000002
 30
0.0
 70
    32
  0
VERTEX
  5
1AD47
  8
AM_0
 10
746.33699999999999
 20
391.23500000000001
 30
0.0
 70
    32
  0
VERTEX
  5
1AD48
  8
AM_0
 10
746.35100000000011
 20
391.245
 30
0.0
 70
    32
  0
VERTEX
  5
1AD49
  8
AM_0
 10
746.36500000000001
 20
391.255
 30
0.0
 70
    32
  0
VERTEX
  5
1AD4A
  8
AM_0
 10
746.37800000000004
 20
391.26499999999999
 30
0.0
 70
    32
  0
VERTEX
  5
1AD4B
  8
AM_0
 10
746.39199999999994
 20
391.274
 30
0.0
 70
    32
  0
VERTEX
  5
1AD4C
  8
AM_0
 10
746.40599999999995
 20
391.28399999999999
 30
0.0
 70
    32
  0
VERTEX
  5
1AD4D
  8
AM_0
 10
746.41999999999985
 20
391.29300000000001
 30
0.0
 70
    32
  0
VERTEX
  5
1AD4E
  8
AM_0
 10
746.43399999999986
 20
391.303
 30
0.0
 70
    32
  0
VERTEX
  5
1AD4F
  8
AM_0
 10
746.44799999999998
 20
391.31200000000001
 30
0.0
 70
    32
  0
VERTEX
  5
1AD50
  8
AM_0
 10
746.46299999999997
 20
391.32100000000003
 30
0.0
 70
    32
  0
VERTEX
  5
1AD51
  8
AM_0
 10
746.47699999999986
 20
391.33100000000002
 30
0.0
 70
    32
  0
VERTEX
  5
1AD52
  8
AM_0
 10
746.4910000000001
 20
391.33999999999997
 30
0.0
 70
    32
  0
VERTEX
  5
1AD53
  8
AM_0
 10
746.50600000000009
 20
391.34899999999999
 30
0.0
 70
    32
  0
VERTEX
  5
1AD54
  8
AM_0
 10
746.51999999999998
 20
391.358
 30
0.0
 70
    32
  0
VERTEX
  5
1AD55
  8
AM_0
 10
746.53399999999999
 20
391.36700000000002
 30
0.0
 70
    32
  0
VERTEX
  5
1AD56
  8
AM_0
 10
746.54899999999986
 20
391.375
 30
0.0
 70
    32
  0
VERTEX
  5
1AD57
  8
AM_0
 10
746.56299999999987
 20
391.38400000000001
 30
0.0
 70
    32
  0
VERTEX
  5
1AD58
  8
AM_0
 10
746.57799999999986
 20
391.39299999999997
 30
0.0
 70
    32
  0
VERTEX
  5
1AD59
  8
AM_0
 10
746.59300000000007
 20
391.40100000000001
 30
0.0
 70
    32
  0
VERTEX
  5
1AD5A
  8
AM_0
 10
746.60699999999997
 20
391.41000000000003
 30
0.0
 70
    32
  0
VERTEX
  5
1AD5B
  8
AM_0
 10
746.62199999999984
 20
391.41800000000001
 30
0.0
 70
    32
  0
VERTEX
  5
1AD5C
  8
AM_0
 10
746.63699999999994
 20
391.42599999999999
 30
0.0
 70
    32
  0
VERTEX
  5
1AD5D
  8
AM_0
 10
746.65199999999993
 20
391.435
 30
0.0
 70
    32
  0
VERTEX
  5
1AD5E
  8
AM_0
 10
746.66600000000005
 20
391.44299999999998
 30
0.0
 70
    32
  0
VERTEX
  5
1AD5F
  8
AM_0
 10
746.68100000000004
 20
391.45100000000002
 30
0.0
 70
    32
  0
VERTEX
  5
1AD60
  8
AM_0
 10
746.69600000000003
 20
391.459
 30
0.0
 70
    32
  0
VERTEX
  5
1AD61
  8
AM_0
 10
746.7109999999999
 20
391.46600000000001
 30
0.0
 70
    32
  0
VERTEX
  5
1AD62
  8
AM_0
 10
746.72600000000011
 20
391.47399999999999
 30
0.0
 70
    32
  0
VERTEX
  5
1AD63
  8
AM_0
 10
746.74099999999999
 20
391.48200000000003
 30
0.0
 70
    32
  0
VERTEX
  5
1AD64
  8
AM_0
 10
746.75699999999995
 20
391.49000000000001
 30
0.0
 70
    32
  0
VERTEX
  5
1AD65
  8
AM_0
 10
746.77199999999993
 20
391.49700000000001
 30
0.0
 70
    32
  0
VERTEX
  5
1AD66
  8
AM_0
 10
746.78699999999992
 20
391.505
 30
0.0
 70
    32
  0
VERTEX
  5
1AD67
  8
AM_0
 10
746.80200000000002
 20
391.51199999999989
 30
0.0
 70
    32
  0
VERTEX
  5
1AD68
  8
AM_0
 10
746.81799999999998
 20
391.51900000000001
 30
0.0
 70
    32
  0
VERTEX
  5
1AD69
  8
AM_0
 10
746.83299999999997
 20
391.52600000000001
 30
0.0
 70
    32
  0
VERTEX
  5
1AD6A
  8
AM_0
 10
746.84799999999996
 20
391.53300000000002
 30
0.0
 70
    32
  0
VERTEX
  5
1AD6B
  8
AM_0
 10
746.86399999999992
 20
391.54000000000002
 30
0.0
 70
    32
  0
VERTEX
  5
1AD6C
  8
AM_0
 10
746.87899999999991
 20
391.54700000000003
 30
0.0
 70
    32
  0
VERTEX
  5
1AD6D
  8
AM_0
 10
746.89499999999987
 20
391.55399999999997
 30
0.0
 70
    32
  0
VERTEX
  5
1AD6E
  8
AM_0
 10
746.90999999999997
 20
391.56099999999998
 30
0.0
 70
    32
  0
VERTEX
  5
1AD6F
  8
AM_0
 10
746.92600000000004
 20
391.56799999999998
 30
0.0
 70
    32
  0
VERTEX
  5
1AD70
  8
AM_0
 10
746.94100000000003
 20
391.57400000000001
 30
0.0
 70
    32
  0
VERTEX
  5
1AD71
  8
AM_0
 10
746.95699999999999
 20
391.58100000000002
 30
0.0
 70
    32
  0
VERTEX
  5
1AD72
  8
AM_0
 10
746.97300000000007
 20
391.58699999999999
 30
0.0
 70
    32
  0
VERTEX
  5
1AD73
  8
AM_0
 10
746.98800000000006
 20
391.59300000000002
 30
0.0
 70
    32
  0
VERTEX
  5
1AD74
  8
AM_0
 10
747.00399999999991
 20
391.60000000000002
 30
0.0
 70
    32
  0
VERTEX
  5
1AD75
  8
AM_0
 10
747.01999999999998
 20
391.60599999999999
 30
0.0
 70
    32
  0
VERTEX
  5
1AD76
  8
AM_0
 10
747.03599999999994
 20
391.61200000000002
 30
0.0
 70
    32
  0
VERTEX
  5
1AD77
  8
AM_0
 10
747.05200000000002
 20
391.61800000000011
 30
0.0
 70
    32
  0
VERTEX
  5
1AD78
  8
AM_0
 10
747.06799999999987
 20
391.62299999999999
 30
0.0
 70
    32
  0
VERTEX
  5
1AD79
  8
AM_0
 10
747.08399999999995
 20
391.62900000000002
 30
0.0
 70
    32
  0
VERTEX
  5
1AD7A
  8
AM_0
 10
747.10000000000002
 20
391.63499999999999
 30
0.0
 70
    32
  0
VERTEX
  5
1AD7B
  8
AM_0
 10
747.11500000000001
 20
391.63999999999999
 30
0.0
 70
    32
  0
VERTEX
  5
1AD7C
  8
AM_0
 10
747.13199999999995
 20
391.64600000000002
 30
0.0
 70
    32
  0
VERTEX
  5
1AD7D
  8
AM_0
 10
747.14800000000002
 20
391.65100000000001
 30
0.0
 70
    32
  0
VERTEX
  5
1AD7E
  8
AM_0
 10
747.16399999999987
 20
391.65699999999998
 30
0.0
 70
    32
  0
VERTEX
  5
1AD7F
  8
AM_0
 10
747.17999999999995
 20
391.66199999999998
 30
0.0
 70
    32
  0
VERTEX
  5
1AD80
  8
AM_0
 10
747.19600000000003
 20
391.66699999999997
 30
0.0
 70
    32
  0
VERTEX
  5
1AD81
  8
AM_0
 10
747.21199999999999
 20
391.67200000000003
 30
0.0
 70
    32
  0
VERTEX
  5
1AD82
  8
AM_0
 10
747.22799999999995
 20
391.67699999999991
 30
0.0
 70
    32
  0
VERTEX
  5
1AD83
  8
AM_0
 10
747.245
 20
391.6819999999999
 30
0.0
 70
    32
  0
VERTEX
  5
1AD84
  8
AM_0
 10
747.26100000000008
 20
391.68700000000001
 30
0.0
 70
    32
  0
VERTEX
  5
1AD85
  8
AM_0
 10
747.27699999999993
 20
391.69099999999997
 30
0.0
 70
    32
  0
VERTEX
  5
1AD86
  8
AM_0
 10
747.29299999999989
 20
391.69600000000003
 30
0.0
 70
    32
  0
VERTEX
  5
1AD87
  8
AM_0
 10
747.30999999999995
 20
391.69999999999999
 30
0.0
 70
    32
  0
VERTEX
  5
1AD88
  8
AM_0
 10
747.32600000000002
 20
391.70499999999998
 30
0.0
 70
    32
  0
VERTEX
  5
1AD89
  8
AM_0
 10
747.34199999999987
 20
391.709
 30
0.0
 70
    32
  0
VERTEX
  5
1AD8A
  8
AM_0
 10
747.35899999999992
 20
391.71300000000002
 30
0.0
 70
    32
  0
VERTEX
  5
1AD8B
  8
AM_0
 10
747.37499999999989
 20
391.71699999999998
 30
0.0
 70
    32
  0
VERTEX
  5
1AD8C
  8
AM_0
 10
747.39199999999994
 20
391.721
 30
0.0
 70
    32
  0
VERTEX
  5
1AD8D
  8
AM_0
 10
747.40800000000002
 20
391.72500000000002
 30
0.0
 70
    32
  0
VERTEX
  5
1AD8E
  8
AM_0
 10
747.42499999999995
 20
391.72899999999998
 30
0.0
 70
    32
  0
VERTEX
  5
1AD8F
  8
AM_0
 10
747.44100000000003
 20
391.733
 30
0.0
 70
    32
  0
VERTEX
  5
1AD90
  8
AM_0
 10
747.45800000000008
 20
391.73700000000002
 30
0.0
 70
    32
  0
VERTEX
  5
1AD91
  8
AM_0
 10
747.47399999999993
 20
391.74000000000001
 30
0.0
 70
    32
  0
VERTEX
  5
1AD92
  8
AM_0
 10
747.4910000000001
 20
391.74400000000003
 30
0.0
 70
    32
  0
VERTEX
  5
1AD93
  8
AM_0
 10
747.50800000000004
 20
391.74700000000001
 30
0.0
 70
    32
  0
VERTEX
  5
1AD94
  8
AM_0
 10
747.52399999999989
 20
391.75
 30
0.0
 70
    32
  0
VERTEX
  5
1AD95
  8
AM_0
 10
747.54100000000005
 20
391.75400000000002
 30
0.0
 70
    32
  0
VERTEX
  5
1AD96
  8
AM_0
 10
747.55700000000002
 20
391.75699999999989
 30
0.0
 70
    32
  0
VERTEX
  5
1AD97
  8
AM_0
 10
747.57399999999996
 20
391.75999999999999
 30
0.0
 70
    32
  0
VERTEX
  5
1AD98
  8
AM_0
 10
747.59099999999989
 20
391.76199999999989
 30
0.0
 70
    32
  0
VERTEX
  5
1AD99
  8
AM_0
 10
747.60699999999986
 20
391.76499999999999
 30
0.0
 70
    32
  0
VERTEX
  5
1AD9A
  8
AM_0
 10
747.6239999999998
 20
391.76799999999997
 30
0.0
 70
    32
  0
VERTEX
  5
1AD9B
  8
AM_0
 10
747.64100000000008
 20
391.7709999999999
 30
0.0
 70
    32
  0
VERTEX
  5
1AD9C
  8
AM_0
 10
747.65800000000002
 20
391.77300000000002
 30
0.0
 70
    32
  0
VERTEX
  5
1AD9D
  8
AM_0
 10
747.67399999999986
 20
391.77600000000001
 30
0.0
 70
    32
  0
VERTEX
  5
1AD9E
  8
AM_0
 10
747.69100000000003
 20
391.77800000000002
 30
0.0
 70
    32
  0
VERTEX
  5
1AD9F
  8
AM_0
 10
747.70799999999997
 20
391.77999999999997
 30
0.0
 70
    32
  0
VERTEX
  5
1ADA0
  8
AM_0
 10
747.72500000000002
 20
391.78199999999998
 30
0.0
 70
    32
  0
VERTEX
  5
1ADA1
  8
AM_0
 10
747.74199999999985
 20
391.78399999999999
 30
0.0
 70
    32
  0
VERTEX
  5
1ADA2
  8
AM_0
 10
747.75800000000004
 20
391.786
 30
0.0
 70
    32
  0
VERTEX
  5
1ADA3
  8
AM_0
 10
747.77499999999998
 20
391.78800000000001
 30
0.0
 70
    32
  0
VERTEX
  5
1ADA4
  8
AM_0
 10
747.79199999999992
 20
391.79000000000002
 30
0.0
 70
    32
  0
VERTEX
  5
1ADA5
  8
AM_0
 10
747.80899999999986
 20
391.79199999999997
 30
0.0
 70
    32
  0
VERTEX
  5
1ADA6
  8
AM_0
 10
747.82600000000002
 20
391.79300000000001
 30
0.0
 70
    32
  0
VERTEX
  5
1ADA7
  8
AM_0
 10
747.84300000000007
 20
391.79500000000002
 30
0.0
 70
    32
  0
VERTEX
  5
1ADA8
  8
AM_0
 10
747.86000000000001
 20
391.79599999999999
 30
0.0
 70
    32
  0
VERTEX
  5
1ADA9
  8
AM_0
 10
747.87699999999995
 20
391.79700000000003
 30
0.0
 70
    32
  0
VERTEX
  5
1ADAA
  8
AM_0
 10
747.89300000000003
 20
391.79900000000009
 30
0.0
 70
    32
  0
VERTEX
  5
1ADAB
  8
AM_0
 10
747.90999999999985
 20
391.80000000000001
 30
0.0
 70
    32
  0
VERTEX
  5
1ADAC
  8
AM_0
 10
747.92700000000002
 20
391.80099999999999
 30
0.0
 70
    32
  0
VERTEX
  5
1ADAD
  8
AM_0
 10
747.94399999999985
 20
391.80200000000002
 30
0.0
 70
    32
  0
VERTEX
  5
1ADAE
  8
AM_0
 10
747.96100000000001
 20
391.80200000000002
 30
0.0
 70
    32
  0
VERTEX
  5
1ADAF
  8
AM_0
 10
747.97799999999995
 20
391.80300000000011
 30
0.0
 70
    32
  0
VERTEX
  5
1ADB0
  8
AM_0
 10
747.995
 20
391.80399999999997
 30
0.0
 70
    32
  0
VERTEX
  5
1ADB1
  8
AM_0
 10
748.01199999999994
 20
391.80399999999997
 30
0.0
 70
    32
  0
VERTEX
  5
1ADB2
  8
AM_0
 10
748.029
 20
391.80500000000001
 30
0.0
 70
    32
  0
VERTEX
  5
1ADB3
  8
AM_0
 10
748.04600000000005
 20
391.80500000000001
 30
0.0
 70
    32
  0
VERTEX
  5
1ADB4
  8
AM_0
 10
748.06299999999987
 20
391.80500000000001
 30
0.0
 70
    32
  0
VERTEX
  5
1ADB5
  8
AM_0
 10
748.08000000000004
 20
391.80500000000001
 30
0.0
 70
    32
  0
VERTEX
  5
1ADB6
  8
AM_0
 10
748.09699999999998
 20
391.80500000000001
 30
0.0
 70
    32
  0
SEQEND
  5
1ADB7
  8
AM_0
  0
LINE
  5
18F80
  8
0
  6
CONTINUOUS
 62
     7
 10
663.59654889167814
 20
392.3039818714027
 30
0.0
 11
643.31278253718006
 21
392.3039818714027
 31
0.0
  0
ARC
  5
18F81
  8
0
 10
611.88031524617691
 20
387.30398187140281
 30
0.0
 40
5.0
 50
10.806922874860341
 51
90.0
1001
GENIUS_GENOBJ-N-FIL_13
1002
{
1000
OWNER
1000
GEN
1002
}
1001
GENIUS_GENODEF_13
1002
{
1000
HIER
1070
     0
1002
}
1002
{
1000
MANEDIT
1070
     0
1002
}
1002
{
1000
NOSEL
1070
     0
1002
}
1002
{
1000
BEHIND
1070
     0
1002
}
1002
{
1000
OTHER
1070
     0
1002
}
1002
{
1000
REACTOR
1002
}
  0
LINE
  5
18F82
  8
0
  6
CONTINUOUS
 62
     7
 10
611.88031524617713
 20
392.3039818714027
 30
0.0
 11
576.59652002972757
 21
392.3039818714027
 31
0.0
  0
ARC
  5
18F83
  8
0
 10
573.59652002972723
 20
392.30398187140281
 30
0.0
 40
3.0000000000000631
 50
224.99999999999571
 51
44.99999999999568
  0
ARC
  5
18F84
  8
0
 10
627.59654889167837
 20
390.30398187140281
 30
0.0
 40
11.0
 50
270.0
 51
349.19307712513972
  0
CIRCLE
  5
18F85
  8
AM_0
 10
627.59654889167837
 20
390.30398187140332
 30
0.0
 40
8.5
  0
ARC
  5
18F86
  8
0
 10
627.59654889167837
 20
390.30398187140281
 30
0.0
 40
11.0
 50
190.80692287486031
 51
270.0
  0
CIRCLE
  5
18F87
  8
AM_0
 10
627.59654889167837
 20
390.30398187140332
 30
0.0
 40
6.5
  0
POLYLINE
  5
18F88
  8
AM_0
 66
     1
 10
0.0
 20
0.0
 30
0.0
 70
     1
  0
VERTEX
  5
18F89
  8
AM_0
 10
625.86449808410975
 20
393.30398187140281
 30
0.0
  0
VERTEX
  5
18F8A
  8
AM_0
 10
624.13244727654092
 20
390.30398187140281
 30
0.0
  0
VERTEX
  5
18F8B
  8
AM_0
 10
625.86449808410975
 20
387.30398187140281
 30
0.0
  0
VERTEX
  5
18F8C
  8
AM_0
 10
629.32859969924732
 20
387.30398187140281
 30
0.0
  0
VERTEX
  5
18F8D
  8
AM_0
 10
631.06065050681627
 20
390.30398187140281
 30
0.0
  0
VERTEX
  5
18F8E
  8
AM_0
 10
629.32859969924732
 20
393.30398187140281
 30
0.0
  0
SEQEND
  5
18F8F
  8
AM_0
  0
ARC
  5
18F90
  8
0
 10
643.31278253718006
 20
387.30398187140281
 30
0.0
 40
5.0
 50
90.000000000001606
 51
169.19307712513961
1001
GENIUS_GENOBJ-N-FIL_13
1002
{
1000
OWNER
1000
GEN
1002
}
1001
GENIUS_GENODEF_13
1002
{
1000
HIER
1070
     0
1002
}
1002
{
1000
MANEDIT
1070
     0
1002
}
1002
{
1000
NOSEL
1070
     0
1002
}
1002
{
1000
BEHIND
1070
     0
1002
}
1002
{
1000
OTHER
1070
     0
1002
}
1002
{
1000
REACTOR
1002
}
  0
ARC
  5
18F92
  8
0
 10
674.56879251435839
 20
424.30398187140281
 30
0.0
 40
5.0
 50
341.591519829417
 51
90.0
1001
GENIUS_GENOBJ-N-FIL_13
1002
{
1000
OWNER
1000
GEN
1002
}
1001
GENIUS_GENODEF_13
1002
{
1000
HIER
1070
     0
1002
}
1002
{
1000
MANEDIT
1070
     0
1002
}
1002
{
1000
NOSEL
1070
     0
1002
}
1002
{
1000
BEHIND
1070
     0
1002
}
1002
{
1000
OTHER
1070
     0
1002
}
1002
{
1000
REACTOR
1002
}
  0
ARC
  5
18F93
  8
0
 10
692.59654889167837
 20
418.30398187140321
 30
0.0
 40
16.999999999999702
 50
23.198554934550121
 51
90.0
  0
ARC
  5
18F95
  8
0
 10
705.21289139698308
 20
404.09736715188461
 30
0.0
 40
5.0
 50
23.198554934550121
 51
131.60703510513599
1001
GENIUS_GENOBJ-N-FIL_13
1002
{
1000
OWNER
1000
GEN
1002
}
1001
GENIUS_GENODEF_13
1002
{
1000
HIER
1070
     0
1002
}
1002
{
1000
MANEDIT
1070
     0
1002
}
1002
{
1000
NOSEL
1070
     0
1002
}
1002
{
1000
BEHIND
1070
     0
1002
}
1002
{
1000
OTHER
1070
     0
1002
}
1002
{
1000
REACTOR
1002
}
  0
CIRCLE
  5
18F96
  8
ｷｲﾛ
 10
707.5965218358665
 20
383.3039838280539
 30
0.0
 40
6.0
  0
LINE
  5
18F98
  8
0
  6
CONTINUOUS
 62
     7
 10
708.59652228740083
 20
392.3039818714027
 30
0.0
 11
670.83918957879757
 21
392.3039818714027
 31
0.0
  0
LINE
  5
18F99
  8
0
 10
679.22800666891726
 20
409.17808033576063
 30
0.0
 11
664.47522854811837
 21
394.42530221496219
 31
0.0
  0
LINE
  5
18F9A
  8
0
 10
683.47064735603612
 20
404.93543964864102
 30
0.0
 11
668.71786923523791
 21
390.18266152784321
 31
0.0
  0
ARC
  5
18F9B
  8
0
 10
666.59654889167814
 20
392.30398187140281
 30
0.0
 40
3.0000000000000631
 50
135.00000000000421
 51
315.00000000000432
  0
ARC
  5
18F9C
  8
0
 10
691.0738097203207
 20
387.30398187140281
 30
0.0
 40
5.0
 50
346.39104615428522
 51
90.0
1001
GENIUS_GENODEF_13
1002
{
1000
HIER
1070
     0
1002
}
1002
{
1000
MANEDIT
1070
     0
1002
}
1002
{
1000
NOSEL
1070
     0
1002
}
1002
{
1000
BEHIND
1070
     0
1002
}
1002
{
1000
OTHER
1070
     0
1002
}
1002
{
1000
REACTOR
1002
}
1001
GENIUS_GENOBJ-N-FIL_13
1002
{
1000
OWNER
1000
GEN
1002
}
  0
ARC
  5
18F9D
  8
0
 10
677.10668632535715
 20
411.29940067932051
 30
0.0
 40
3.0
 50
315.00000000000432
 51
24.332683506492341
1001
GENIUS_GENOBJ-N-FIL_13
1002
{
1000
OWNER
1000
GEN
1002
}
1001
GENIUS_GENODEF_13
1002
{
1000
HIER
1070
     0
1002
}
1002
{
1000
MANEDIT
1070
     0
1002
}
1002
{
1000
NOSEL
1070
     0
1002
}
1002
{
1000
BEHIND
1070
     0
1002
}
1002
{
1000
OTHER
1070
     0
1002
}
1002
{
1000
REACTOR
1002
}
  0
ARC
  5
18F9E
  8
0
 10
692.59654889167837
 20
418.30398187140321
 30
0.0
 40
14.0
 50
161.591519829417
 51
311.60703510513599
  0
CIRCLE
  5
18F9F
  8
0
 10
692.59654889167837
 20
418.30398187140321
 30
0.0
 40
7.0
  0
ARC
  5
18FA0
  8
0
 10
685.59196769959567
 20
402.81411930508159
 30
0.0
 40
3.0
 50
65.667316493515841
 51
135.00000000000421
1001
GENIUS_GENODEF_13
1002
{
1000
HIER
1070
     0
1002
}
1002
{
1000
MANEDIT
1070
     0
1002
}
1002
{
1000
NOSEL
1070
     0
1002
}
1002
{
1000
BEHIND
1070
     0
1002
}
1002
{
1000
OTHER
1070
     0
1002
}
1002
{
1000
REACTOR
1002
}
1001
GENIUS_GENOBJ-N-FIL_13
1002
{
1000
OWNER
1000
GEN
1002
}
  0
LINE
  5
18FA1
  8
0
 10
709.80861777013774
 20
406.0669607909611
 30
0.0
 11
717.70712027183242
 21
387.63709001189079
 31
0.0
  0
LINE
  5
18FA2
  8
0
 10
708.22201856040397
 20
425.00060024426449
 30
0.0
 11
723.09198898029683
 21
390.30394309078281
 31
0.0
  0
ARC
  5
18FA3
  8
AM_0
 10
707.59652183586604
 20
383.3039838280543
 30
0.0
 40
17.000000451534831
 50
0.0
 51
23.198554934550121
  0
LINE
  5
18FA4
  8
AM_0
 10
727.02498789740309
 20
367.0327005104715
 30
0.0
 11
724.50836110077535
 21
367.0327005104715
 31
0.0
  0
LINE
  5
18FA5
  8
AM_0
 10
744.12790037704451
 20
390.30540857281062
 30
0.0
 11
723.09137184840802
 21
390.30538306765811
 31
0.0
  0
ARC
  5
18FA6
  8
AM_0
 10
707.59652183586604
 20
383.3039838280543
 30
0.0
 40
11.000000451534831
 50
0.0
 51
23.198554934550121
  0
CIRCLE
  5
18FA7
  8
0
 10
707.5965218358665
 20
383.3039838280539
 30
0.0
 40
5.0
  0
ARC
  5
18FA8
  8
0
 10
708.59652228740083
 20
382.30398187140281
 30
0.0
 40
10.0
 50
0.0
 51
90.0
1001
GENIUS_GENOBJ-N-FIL_13
1002
{
1000
OWNER
1000
GEN
1002
}
1001
GENIUS_GENODEF_13
1002
{
1000
HIER
1070
     0
1002
}
1002
{
1000
MANEDIT
1070
     0
1002
}
1002
{
1000
NOSEL
1070
     0
1002
}
1002
{
1000
BEHIND
1070
     0
1002
}
1002
{
1000
OTHER
1070
     0
1002
}
1002
{
1000
REACTOR
1002
}
  0
ARC
  5
18FA9
  8
AM_0
 10
727.02498789740309
 20
364.03270051041159
 30
0.0
 40
3.000000000059996
 50
6.6607143203167842
 51
90.0
1001
GENIUS_GENOBJ-N-FIL_13
1002
{
1000
OWNER
1000
GEN
1002
}
1001
GENIUS_GENODEF_13
1002
{
1000
HIER
1070
     0
1002
}
1002
{
1000
MANEDIT
1070
     0
1002
}
1002
{
1000
NOSEL
1070
     0
1002
}
1002
{
1000
BEHIND
1070
     0
1002
}
1002
{
1000
OTHER
1070
     0
1002
}
1002
{
1000
REACTOR
1002
}
  0
POLYLINE
  5
18FAA
  8
AM_0
 66
     1
 10
0.0
 20
0.0
 30
0.0
 70
     8
  0
VERTEX
  5
1ADB8
  8
AM_0
 10
746.11199999999997
 20
391.05500000000001
 30
0.0
 70
    32
  0
VERTEX
  5
1ADB9
  8
AM_0
 10
746.09899999999993
 20
391.04399999999998
 30
0.0
 70
    32
  0
VERTEX
  5
1ADBA
  8
AM_0
 10
746.08699999999988
 20
391.03300000000002
 30
0.0
 70
    32
  0
VERTEX
  5
1ADBB
  8
AM_0
 10
746.07399999999996
 20
391.02199999999999
 30
0.0
 70
    32
  0
VERTEX
  5
1ADBC
  8
AM_0
 10
746.06100000000004
 20
391.01100000000002
 30
0.0
 70
    32
  0
VERTEX
  5
1ADBD
  8
AM_0
 10
746.048
 20
391.0
 30
0.0
 70
    32
  0
VERTEX
  5
1ADBE
  8
AM_0
 10
746.03499999999997
 20
390.99000000000001
 30
0.0
 70
    32
  0
VERTEX
  5
1ADBF
  8
AM_0
 10
746.02199999999993
 20
390.97899999999998
 30
0.0
 70
    32
  0
VERTEX
  5
1ADC0
  8
AM_0
 10
746.0089999999999
 20
390.96800000000002
 30
0.0
 70
    32
  0
VERTEX
  5
1ADC1
  8
AM_0
 10
745.995
 20
390.95800000000003
 30
0.0
 70
    32
  0
VERTEX
  5
1ADC2
  8
AM_0
 10
745.98199999999986
 20
390.94699999999989
 30
0.0
 70
    32
  0
VERTEX
  5
1ADC3
  8
AM_0
 10
745.96899999999994
 20
390.93700000000001
 30
0.0
 70
    32
  0
VERTEX
  5
1ADC4
  8
AM_0
 10
745.95500000000004
 20
390.92599999999999
 30
0.0
 70
    32
  0
VERTEX
  5
1ADC5
  8
AM_0
 10
745.94200000000001
 20
390.916
 30
0.0
 70
    32
  0
VERTEX
  5
1ADC6
  8
AM_0
 10
745.92799999999988
 20
390.90600000000001
 30
0.0
 70
    32
  0
VERTEX
  5
1ADC7
  8
AM_0
 10
745.91499999999996
 20
390.89600000000002
 30
0.0
 70
    32
  0
VERTEX
  5
1ADC8
  8
AM_0
 10
745.90100000000007
 20
390.88600000000002
 30
0.0
 70
    32
  0
VERTEX
  5
1ADC9
  8
AM_0
 10
745.88699999999994
 20
390.87599999999998
 30
0.0
 70
    32
  0
VERTEX
  5
1ADCA
  8
AM_0
 10
745.8739999999998
 20
390.86599999999999
 30
0.0
 70
    32
  0
VERTEX
  5
1ADCB
  8
AM_0
 10
745.86000000000001
 20
390.85599999999999
 30
0.0
 70
    32
  0
VERTEX
  5
1ADCC
  8
AM_0
 10
745.846
 20
390.846
 30
0.0
 70
    32
  0
VERTEX
  5
1ADCD
  8
AM_0
 10
745.83199999999999
 20
390.83600000000001
 30
0.0
 70
    32
  0
VERTEX
  5
1ADCE
  8
AM_0
 10
745.81799999999987
 20
390.827
 30
0.0
 70
    32
  0
VERTEX
  5
1ADCF
  8
AM_0
 10
745.80399999999986
 20
390.81700000000001
 30
0.0
 70
    32
  0
VERTEX
  5
1ADD0
  8
AM_0
 10
745.78999999999985
 20
390.80799999999999
 30
0.0
 70
    32
  0
VERTEX
  5
1ADD1
  8
AM_0
 10
745.77599999999995
 20
390.79899999999998
 30
0.0
 70
    32
  0
VERTEX
  5
1ADD2
  8
AM_0
 10
745.76199999999994
 20
390.78899999999999
 30
0.0
 70
    32
  0
VERTEX
  5
1ADD3
  8
AM_0
 10
745.74800000000005
 20
390.77999999999997
 30
0.0
 70
    32
  0
VERTEX
  5
1ADD4
  8
AM_0
 10
745.73299999999995
 20
390.77100000000002
 30
0.0
 70
    32
  0
VERTEX
  5
1ADD5
  8
AM_0
 10
745.71899999999994
 20
390.762
 30
0.0
 70
    32
  0
VERTEX
  5
1ADD6
  8
AM_0
 10
745.70500000000004
 20
390.75299999999999
 30
0.0
 70
    32
  0
VERTEX
  5
1ADD7
  8
AM_0
 10
745.69000000000005
 20
390.74400000000003
 30
0.0
 70
    32
  0
VERTEX
  5
1ADD8
  8
AM_0
 10
745.67600000000004
 20
390.73500000000001
 30
0.0
 70
    32
  0
VERTEX
  5
1ADD9
  8
AM_0
 10
745.66099999999994
 20
390.72699999999998
 30
0.0
 70
    32
  0
VERTEX
  5
1ADDA
  8
AM_0
 10
745.64599999999996
 20
390.71800000000002
 30
0.0
 70
    32
  0
VERTEX
  5
1ADDB
  8
AM_0
 10
745.63199999999995
 20
390.70999999999998
 30
0.0
 70
    32
  0
VERTEX
  5
1ADDC
  8
AM_0
 10
745.61699999999996
 20
390.70100000000002
 30
0.0
 70
    32
  0
VERTEX
  5
1ADDD
  8
AM_0
 10
745.60199999999986
 20
390.69299999999998
 30
0.0
 70
    32
  0
VERTEX
  5
1ADDE
  8
AM_0
 10
745.58799999999997
 20
390.685
 30
0.0
 70
    32
  0
VERTEX
  5
1ADDF
  8
AM_0
 10
745.57299999999987
 20
390.67599999999999
 30
0.0
 70
    32
  0
VERTEX
  5
1ADE0
  8
AM_0
 10
745.55799999999999
 20
390.66800000000001
 30
0.0
 70
    32
  0
VERTEX
  5
1ADE1
  8
AM_0
 10
745.54299999999989
 20
390.66000000000003
 30
0.0
 70
    32
  0
VERTEX
  5
1ADE2
  8
AM_0
 10
745.52800000000002
 20
390.65199999999999
 30
0.0
 70
    32
  0
VERTEX
  5
1ADE3
  8
AM_0
 10
745.51300000000003
 20
390.64400000000001
 30
0.0
 70
    32
  0
VERTEX
  5
1ADE4
  8
AM_0
 10
745.49800000000005
 20
390.63699999999989
 30
0.0
 70
    32
  0
VERTEX
  5
1ADE5
  8
AM_0
 10
745.48300000000006
 20
390.62900000000002
 30
0.0
 70
    32
  0
VERTEX
  5
1ADE6
  8
AM_0
 10
745.46799999999996
 20
390.62099999999998
 30
0.0
 70
    32
  0
VERTEX
  5
1ADE7
  8
AM_0
 10
745.45299999999997
 20
390.61399999999998
 30
0.0
 70
    32
  0
VERTEX
  5
1ADE8
  8
AM_0
 10
745.4369999999999
 20
390.60599999999999
 30
0.0
 70
    32
  0
VERTEX
  5
1ADE9
  8
AM_0
 10
745.42200000000003
 20
390.59899999999999
 30
0.0
 70
    32
  0
VERTEX
  5
1ADEA
  8
AM_0
 10
745.40699999999993
 20
390.59199999999998
 30
0.0
 70
    32
  0
VERTEX
  5
1ADEB
  8
AM_0
 10
745.39199999999994
 20
390.58499999999998
 30
0.0
 70
    32
  0
VERTEX
  5
1ADEC
  8
AM_0
 10
745.37599999999998
 20
390.577
 30
0.0
 70
    32
  0
VERTEX
  5
1ADED
  8
AM_0
 10
745.3610000000001
 20
390.56999999999999
 30
0.0
 70
    32
  0
VERTEX
  5
1ADEE
  8
AM_0
 10
745.34500000000003
 20
390.56400000000002
 30
0.0
 70
    32
  0
VERTEX
  5
1ADEF
  8
AM_0
 10
745.33000000000004
 20
390.5569999999999
 30
0.0
 70
    32
  0
VERTEX
  5
1ADF0
  8
AM_0
 10
745.31399999999985
 20
390.55000000000001
 30
0.0
 70
    32
  0
VERTEX
  5
1ADF1
  8
AM_0
 10
745.29899999999986
 20
390.54300000000001
 30
0.0
 70
    32
  0
VERTEX
  5
1ADF2
  8
AM_0
 10
745.28300000000002
 20
390.53699999999998
 30
0.0
 70
    32
  0
VERTEX
  5
1ADF3
  8
AM_0
 10
745.26699999999994
 20
390.52999999999997
 30
0.0
 70
    32
  0
VERTEX
  5
1ADF4
  8
AM_0
 10
745.25199999999995
 20
390.524
 30
0.0
 70
    32
  0
VERTEX
  5
1ADF5
  8
AM_0
 10
745.2360000000001
 20
390.51800000000009
 30
0.0
 70
    32
  0
VERTEX
  5
1ADF6
  8
AM_0
 10
745.22000000000003
 20
390.51100000000002
 30
0.0
 70
    32
  0
VERTEX
  5
1ADF7
  8
AM_0
 10
745.20399999999995
 20
390.505
 30
0.0
 70
    32
  0
VERTEX
  5
1ADF8
  8
AM_0
 10
745.18899999999985
 20
390.49900000000002
 30
0.0
 70
    32
  0
VERTEX
  5
1ADF9
  8
AM_0
 10
745.173
 20
390.49300000000011
 30
0.0
 70
    32
  0
VERTEX
  5
1ADFA
  8
AM_0
 10
745.15699999999993
 20
390.48700000000002
 30
0.0
 70
    32
  0
VERTEX
  5
1ADFB
  8
AM_0
 10
745.14099999999996
 20
390.48200000000003
 30
0.0
 70
    32
  0
VERTEX
  5
1ADFC
  8
AM_0
 10
745.12499999999989
 20
390.476
 30
0.0
 70
    32
  0
VERTEX
  5
1ADFD
  8
AM_0
 10
745.10899999999992
 20
390.47000000000003
 30
0.0
 70
    32
  0
VERTEX
  5
1ADFE
  8
AM_0
 10
745.09299999999996
 20
390.46499999999997
 30
0.0
 70
    32
  0
VERTEX
  5
1ADFF
  8
AM_0
 10
745.077
 20
390.459
 30
0.0
 70
    32
  0
VERTEX
  5
1AE00
  8
AM_0
 10
745.06100000000004
 20
390.45400000000001
 30
0.0
 70
    32
  0
VERTEX
  5
1AE01
  8
AM_0
 10
745.04499999999996
 20
390.44900000000001
 30
0.0
 70
    32
  0
VERTEX
  5
1AE02
  8
AM_0
 10
745.02899999999988
 20
390.44400000000002
 30
0.0
 70
    32
  0
VERTEX
  5
1AE03
  8
AM_0
 10
745.01199999999994
 20
390.43900000000002
 30
0.0
 70
    32
  0
VERTEX
  5
1AE04
  8
AM_0
 10
744.99599999999998
 20
390.43400000000003
 30
0.0
 70
    32
  0
VERTEX
  5
1AE05
  8
AM_0
 10
744.98000000000002
 20
390.42900000000009
 30
0.0
 70
    32
  0
VERTEX
  5
1AE06
  8
AM_0
 10
744.96399999999994
 20
390.42400000000009
 30
0.0
 70
    32
  0
VERTEX
  5
1AE07
  8
AM_0
 10
744.94699999999989
 20
390.42000000000002
 30
0.0
 70
    32
  0
VERTEX
  5
1AE08
  8
AM_0
 10
744.93100000000004
 20
390.41500000000002
 30
0.0
 70
    32
  0
VERTEX
  5
1AE09
  8
AM_0
 10
744.91499999999985
 20
390.41000000000003
 30
0.0
 70
    32
  0
VERTEX
  5
1AE0A
  8
AM_0
 10
744.89800000000002
 20
390.40600000000001
 30
0.0
 70
    32
  0
VERTEX
  5
1AE0B
  8
AM_0
 10
744.88199999999995
 20
390.40199999999999
 30
0.0
 70
    32
  0
VERTEX
  5
1AE0C
  8
AM_0
 10
744.8660000000001
 20
390.39800000000002
 30
0.0
 70
    32
  0
VERTEX
  5
1AE0D
  8
AM_0
 10
744.84899999999993
 20
390.39299999999997
 30
0.0
 70
    32
  0
VERTEX
  5
1AE0E
  8
AM_0
 10
744.83300000000008
 20
390.38900000000001
 30
0.0
 70
    32
  0
VERTEX
  5
1AE0F
  8
AM_0
 10
744.81600000000003
 20
390.38499999999999
 30
0.0
 70
    32
  0
VERTEX
  5
1AE10
  8
AM_0
 10
744.79999999999995
 20
390.38199999999989
 30
0.0
 70
    32
  0
VERTEX
  5
1AE11
  8
AM_0
 10
744.78300000000002
 20
390.3780000000001
 30
0.0
 70
    32
  0
VERTEX
  5
1AE12
  8
AM_0
 10
744.76699999999994
 20
390.37400000000002
 30
0.0
 70
    32
  0
VERTEX
  5
1AE13
  8
AM_0
 10
744.74999999999989
 20
390.37099999999998
 30
0.0
 70
    32
  0
VERTEX
  5
1AE14
  8
AM_0
 10
744.73399999999992
 20
390.3669999999999
 30
0.0
 70
    32
  0
VERTEX
  5
1AE15
  8
AM_0
 10
744.71699999999987
 20
390.36399999999998
 30
0.0
 70
    32
  0
VERTEX
  5
1AE16
  8
AM_0
 10
744.70000000000005
 20
390.36099999999999
 30
0.0
 70
    32
  0
VERTEX
  5
1AE17
  8
AM_0
 10
744.68399999999986
 20
390.35700000000003
 30
0.0
 70
    32
  0
VERTEX
  5
1AE18
  8
AM_0
 10
744.66699999999992
 20
390.35399999999998
 30
0.0
 70
    32
  0
VERTEX
  5
1AE19
  8
AM_0
 10
744.64999999999998
 20
390.351
 30
0.0
 70
    32
  0
VERTEX
  5
1AE1A
  8
AM_0
 10
744.6339999999999
 20
390.34800000000001
 30
0.0
 70
    32
  0
VERTEX
  5
1AE1B
  8
AM_0
 10
744.61699999999985
 20
390.346
 30
0.0
 70
    32
  0
VERTEX
  5
1AE1C
  8
AM_0
 10
744.60000000000002
 20
390.34300000000002
 30
0.0
 70
    32
  0
VERTEX
  5
1AE1D
  8
AM_0
 10
744.58299999999997
 20
390.33999999999997
 30
0.0
 70
    32
  0
VERTEX
  5
1AE1E
  8
AM_0
 10
744.56699999999989
 20
390.33800000000002
 30
0.0
 70
    32
  0
VERTEX
  5
1AE1F
  8
AM_0
 10
744.54999999999995
 20
390.33499999999998
 30
0.0
 70
    32
  0
VERTEX
  5
1AE20
  8
AM_0
 10
744.53300000000002
 20
390.33300000000003
 30
0.0
 70
    32
  0
VERTEX
  5
1AE21
  8
AM_0
 10
744.51600000000008
 20
390.33100000000002
 30
0.0
 70
    32
  0
VERTEX
  5
1AE22
  8
AM_0
 10
744.5
 20
390.32900000000001
 30
0.0
 70
    32
  0
VERTEX
  5
1AE23
  8
AM_0
 10
744.48299999999995
 20
390.32600000000002
 30
0.0
 70
    32
  0
VERTEX
  5
1AE24
  8
AM_0
 10
744.46599999999989
 20
390.32499999999999
 30
0.0
 70
    32
  0
VERTEX
  5
1AE25
  8
AM_0
 10
744.44899999999996
 20
390.32299999999998
 30
0.0
 70
    32
  0
VERTEX
  5
1AE26
  8
AM_0
 10
744.43200000000002
 20
390.32099999999991
 30
0.0
 70
    32
  0
VERTEX
  5
1AE27
  8
AM_0
 10
744.41499999999985
 20
390.31900000000002
 30
0.0
 70
    32
  0
VERTEX
  5
1AE28
  8
AM_0
 10
744.39899999999989
 20
390.31799999999998
 30
0.0
 70
    32
  0
VERTEX
  5
1AE29
  8
AM_0
 10
744.38199999999995
 20
390.31599999999997
 30
0.0
 70
    32
  0
VERTEX
  5
1AE2A
  8
AM_0
 10
744.3649999999999
 20
390.315
 30
0.0
 70
    32
  0
VERTEX
  5
1AE2B
  8
AM_0
 10
744.34799999999996
 20
390.31299999999999
 30
0.0
 70
    32
  0
VERTEX
  5
1AE2C
  8
AM_0
 10
744.33100000000002
 20
390.3119999999999
 30
0.0
 70
    32
  0
VERTEX
  5
1AE2D
  8
AM_0
 10
744.31399999999985
 20
390.31099999999998
 30
0.0
 70
    32
  0
VERTEX
  5
1AE2E
  8
AM_0
 10
744.29700000000003
 20
390.31
 30
0.0
 70
    32
  0
VERTEX
  5
1AE2F
  8
AM_0
 10
744.27999999999997
 20
390.30900000000003
 30
0.0
 70
    32
  0
VERTEX
  5
1AE30
  8
AM_0
 10
744.26300000000003
 20
390.30799999999999
 30
0.0
 70
    32
  0
VERTEX
  5
1AE31
  8
AM_0
 10
744.24600000000009
 20
390.30799999999999
 30
0.0
 70
    32
  0
VERTEX
  5
1AE32
  8
AM_0
 10
744.23000000000002
 20
390.3069999999999
 30
0.0
 70
    32
  0
VERTEX
  5
1AE33
  8
AM_0
 10
744.21299999999997
 20
390.3069999999999
 30
0.0
 70
    32
  0
VERTEX
  5
1AE34
  8
AM_0
 10
744.19600000000003
 20
390.30599999999998
 30
0.0
 70
    32
  0
VERTEX
  5
1AE35
  8
AM_0
 10
744.17899999999997
 20
390.30599999999998
 30
0.0
 70
    32
  0
VERTEX
  5
1AE36
  8
AM_0
 10
744.16199999999992
 20
390.30599999999998
 30
0.0
 70
    32
  0
VERTEX
  5
1AE37
  8
AM_0
 10
744.14499999999987
 20
390.30500000000001
 30
0.0
 70
    32
  0
VERTEX
  5
1AE38
  8
AM_0
 10
744.12800000000004
 20
390.30500000000001
 30
0.0
 70
    32
  0
SEQEND
  5
1AE39
  8
AM_0
  0
LINE
  5
18FB8
  8
AM_0
 10
747.09652229475125
 20
381.30524187140321
 30
0.0
 11
759.09652229835126
 21
381.30524187140333
 31
0.0
  0
LINE
  5
18FBA
  8
AM_0
 10
759.09651621867704
 20
391.80545672109139
 30
0.0
 11
748.09651700585709
 21
391.80543732699448
 31
0.0
  0
LINE
  5
193E1
  8
ﾁｭｳｼﾝｾﾝ1
 10
692.59654889167837
 20
403.30398187140332
 30
0.0
 11
692.59654889167837
 21
433.3039818714031
 31
0.0
  0
LINE
  5
193E2
  8
ﾁｭｳｼﾝｾﾝ1
 10
677.59654889167837
 20
418.30398187140281
 30
0.0
 11
707.59654889167848
 21
418.30398187140281
 31
0.0
  0
LINE
  5
193E3
  8
ﾁｭｳｼﾝｾﾝ1
 10
692.59654889167837
 20
203.30398187140369
 30
0.0
 11
692.59654889167837
 21
233.30398187140369
 31
0.0
  0
LINE
  5
193E4
  8
ﾁｭｳｼﾝｾﾝ1
 10
677.59654889167837
 20
218.30398187140361
 30
0.0
 11
707.59654889167848
 21
218.30398187140361
 31
0.0
  0
LINE
  5
193E5
  8
ﾁｭｳｼﾝｾﾝ1
 10
547.59652002972678
 20
203.30398187140369
 30
0.0
 11
547.59652002972678
 21
233.30398187140369
 31
0.0
  0
LINE
  5
193E6
  8
ﾁｭｳｼﾝｾﾝ1
 10
532.59652002972655
 20
218.30398187140361
 30
0.0
 11
562.59652002972689
 21
218.30398187140361
 31
0.0
  0
LINE
  5
195D0
  8
AM_0
 10
339.04499147716598
 20
513.10237770607284
 30
0.0
 11
339.04499147716598
 21
563.10337919721928
 31
0.0
  0
LINE
  5
195D1
  8
ﾁｭｳｼﾝｾﾝ1
 10
270.0449894194258
 20
508.10287845164601
 30
0.0
 11
270.0449894194258
 21
568.10287845164612
 31
0.0
  0
LINE
  5
195D2
  8
AM_0
 10
201.04498736168549
 20
513.10237770607284
 30
0.0
 11
201.04498736168549
 21
563.10337919721928
 31
0.0
  0
LINE
  5
195D3
  8
AM_0
 10
215.04498751079711
 20
504.10287845164561
 30
0.0
 11
206.04498751079711
 21
504.10287845164561
 31
0.0
  0
LINE
  5
195D4
  8
AM_0
 10
206.04498751079711
 20
504.10287845164561
 30
0.0
 11
215.04498751079711
 21
513.10237770607284
 31
0.0
  0
LINE
  5
195D5
  8
AM_0
 10
215.04498751079711
 20
504.10287845164561
 30
0.0
 11
206.04498751079711
 21
513.10237770607284
 31
0.0
  0
LINE
  5
195D6
  8
AM_0
 10
223.59847879394411
 20
513.10237770607284
 30
0.0
 11
201.04498736168549
 21
513.10237770607284
 31
0.0
  0
POLYLINE
  5
195D7
  8
AM_4
 66
     1
 10
0.0
 20
0.0
 30
0.0
  0
VERTEX
  5
195D8
  8
AM_4
 10
334.04499132805449
 20
499.69875825052031
 30
0.0
  0
VERTEX
  5
195D9
  8
AM_4
 10
333.5532208552026
 20
499.77162066672452
 30
0.0
  0
VERTEX
  5
195DA
  8
AM_4
 10
332.05169909369511
 20
500.14582975761903
 30
0.0
  0
VERTEX
  5
195DB
  8
AM_4
 10
330.93147504883137
 20
500.57511326768167
 30
0.0
  0
VERTEX
  5
195DC
  8
AM_4
 10
330.07777033048723
 20
501.0363075428088
 30
0.0
  0
VERTEX
  5
195DD
  8
AM_4
 10
329.37580654853809
 20
501.50624892889817
 30
0.0
  0
VERTEX
  5
195DE
  8
AM_4
 10
328.71080531285889
 20
501.9617737718458
 30
0.0
  0
VERTEX
  5
195DF
  8
AM_4
 10
327.99106279574949
 20
502.38554982706449
 30
0.0
  0
VERTEX
  5
195E0
  8
AM_4
 10
327.21717341920521
 20
502.78357048802548
 30
0.0
  0
VERTEX
  5
195E1
  8
AM_4
 10
326.4128061676459
 20
503.16766055771552
 30
0.0
  0
VERTEX
  5
195E2
  8
AM_4
 10
325.6016300254912
 20
503.5496448391209
 30
0.0
  0
VERTEX
  5
195E3
  8
AM_4
 10
324.8073139771605
 20
503.94134813522891
 30
0.0
  0
VERTEX
  5
195E4
  8
AM_4
 10
324.05352700707391
 20
504.35459524902512
 30
0.0
  0
VERTEX
  5
195E5
  8
AM_4
 10
323.36393809965051
 20
504.80121098349719
 30
0.0
  0
VERTEX
  5
195E6
  8
AM_4
 10
322.76221623931042
 20
505.29302014163079
 30
0.0
  0
VERTEX
  5
195E7
  8
AM_4
 10
322.26273574089743
 20
505.83809490649003
 30
0.0
  0
VERTEX
  5
195E8
  8
AM_4
 10
321.84269224095198
 20
506.4294969814473
 30
0.0
  0
VERTEX
  5
195E9
  8
AM_4
 10
321.46998670643939
 20
507.0565354499517
 30
0.0
  0
VERTEX
  5
195EA
  8
AM_4
 10
321.11252010432452
 20
507.7085193954523
 30
0.0
  0
VERTEX
  5
195EB
  8
AM_4
 10
320.7381934015724
 20
508.37475790139843
 30
0.0
  0
VERTEX
  5
195EC
  8
AM_4
 10
320.31490756514791
 20
509.04456005123973
 30
0.0
  0
VERTEX
  5
195ED
  8
AM_4
 10
319.81056356201589
 20
509.70723492842518
 30
0.0
  0
VERTEX
  5
195EE
  8
AM_4
 10
319.19306235914149
 20
510.35209161640421
 30
0.0
  0
VERTEX
  5
195EF
  8
AM_4
 10
318.43873497267288
 20
510.96860118195173
 30
0.0
  0
VERTEX
  5
195F0
  8
AM_4
 10
317.55763261549077
 20
511.54688262514838
 30
0.0
  0
VERTEX
  5
195F1
  8
AM_4
 10
316.56823654965871
 20
512.07721692940015
 30
0.0
  0
VERTEX
  5
195F2
  8
AM_4
 10
315.4890280372407
 20
512.54988507811299
 30
0.0
  0
VERTEX
  5
195F3
  8
AM_4
 10
314.33848834030027
 20
512.95516805469265
 30
0.0
  0
VERTEX
  5
195F4
  8
AM_4
 10
313.1350987209014
 20
513.28334684254571
 30
0.0
  0
VERTEX
  5
195F5
  8
AM_4
 10
311.8973404411077
 20
513.52470242507775
 30
0.0
  0
VERTEX
  5
195F6
  8
AM_4
 10
310.6436947629831
 20
513.66951578569569
 30
0.0
  0
VERTEX
  5
195F7
  8
AM_4
 10
309.38886023405428
 20
513.71422328428707
 30
0.0
  0
VERTEX
  5
195F8
  8
AM_4
 10
308.13240454369912
 20
513.67988278667156
 30
0.0
  0
VERTEX
  5
195F9
  8
AM_4
 10
306.8701126667579
 20
513.59370753514941
 30
0.0
  0
VERTEX
  5
195FA
  8
AM_4
 10
305.59776957807162
 20
513.48291077202202
 30
0.0
  0
VERTEX
  5
195FB
  8
AM_4
 10
304.31116025248087
 20
513.37470573959058
 30
0.0
  0
VERTEX
  5
195FC
  8
AM_4
 10
303.0060696648265
 20
513.29630568015591
 30
0.0
  0
VERTEX
  5
195FD
  8
AM_4
 10
301.67828278994892
 20
513.27492383601907
 30
0.0
  0
VERTEX
  5
195FE
  8
AM_4
 10
300.32358460268881
 20
513.33777344948123
 30
0.0
  0
VERTEX
  5
195FF
  8
AM_4
 10
298.94078406295938
 20
513.50216710724658
 30
0.0
  0
VERTEX
  5
19600
  8
AM_4
 10
297.54078607096392
 20
513.74581477362835
 30
0.0
  0
VERTEX
  5
19601
  8
AM_4
 10
296.13751951197793
 20
514.03652575734316
 30
0.0
  0
VERTEX
  5
19602
  8
AM_4
 10
294.7449132712768
 20
514.34210936710781
 30
0.0
  0
VERTEX
  5
19603
  8
AM_4
 10
293.37689623413632
 20
514.63037491163846
 30
0.0
  0
VERTEX
  5
19604
  8
AM_4
 10
292.04739728583212
 20
514.86913169965192
 30
0.0
  0
VERTEX
  5
19605
  8
AM_4
 10
290.77034531163969
 20
515.02618903986445
 30
0.0
  0
VERTEX
  5
19606
  8
AM_4
 10
289.55966919683482
 20
515.06935624099265
 30
0.0
  0
VERTEX
  5
19607
  8
AM_4
 10
288.41995786378038
 20
514.97791408548585
 30
0.0
  0
VERTEX
  5
19608
  8
AM_4
 10
287.31844038318889
 20
514.77702925072674
 30
0.0
  0
VERTEX
  5
19609
  8
AM_4
 10
286.21300586286043
 20
514.50333988782972
 30
0.0
  0
VERTEX
  5
1960A
  8
AM_4
 10
285.06154341059522
 20
514.19348414791011
 30
0.0
  0
VERTEX
  5
1960B
  8
AM_4
 10
283.82194213419319
 20
513.88410018208288
 30
0.0
  0
VERTEX
  5
1960C
  8
AM_4
 10
282.45209114145439
 20
513.61182614146298
 30
0.0
  0
VERTEX
  5
1960D
  8
AM_4
 10
280.90987954017868
 20
513.41330017716564
 30
0.0
  0
VERTEX
  5
1960E
  8
AM_4
 10
279.15319643816662
 20
513.32516044030558
 30
0.0
  0
VERTEX
  5
1960F
  8
AM_4
 10
277.1541830803705
 20
513.3720634390595
 30
0.0
  0
VERTEX
  5
19610
  8
AM_4
 10
274.94198926035551
 20
513.5307391098471
 30
0.0
  0
VERTEX
  5
19611
  8
AM_4
 10
272.56001690883932
 20
513.76593574615015
 30
0.0
  0
VERTEX
  5
19612
  8
AM_4
 10
270.05166795653957
 20
514.04240164145017
 30
0.0
  0
VERTEX
  5
19613
  8
AM_4
 10
267.46034433417418
 20
514.32488508922802
 30
0.0
  0
VERTEX
  5
19614
  8
AM_4
 10
264.82944797246068
 20
514.57813438296535
 30
0.0
  0
VERTEX
  5
19615
  8
AM_4
 10
262.20238080211698
 20
514.76689781614414
 30
0.0
  0
VERTEX
  5
19616
  8
AM_4
 10
259.62254475386061
 20
514.85592368224491
 30
0.0
  0
VERTEX
  5
19617
  8
AM_4
 10
257.12611323697553
 20
514.8214253590711
 30
0.0
  0
VERTEX
  5
19618
  8
AM_4
 10
254.7203455750103
 20
514.68547656171199
 30
0.0
  0
VERTEX
  5
19619
  8
AM_4
 10
252.40527257008
 20
514.48161608957844
 30
0.0
  0
VERTEX
  5
1961A
  8
AM_4
 10
250.18092502429911
 20
514.24338274208139
 30
0.0
  0
VERTEX
  5
1961B
  8
AM_4
 10
248.0473337397826
 20
514.00431531863194
 30
0.0
  0
VERTEX
  5
1961C
  8
AM_4
 10
246.0045295186452
 20
513.79795261864115
 30
0.0
  0
VERTEX
  5
1961D
  8
AM_4
 10
244.0525431630017
 20
513.65783344151964
 30
0.0
  0
VERTEX
  5
1961E
  8
AM_4
 10
242.1914054749669
 20
513.6174965866785
 30
0.0
  0
VERTEX
  5
1961F
  8
AM_4
 10
240.42011243856791
 20
513.69915892733752
 30
0.0
  0
VERTEX
  5
19620
  8
AM_4
 10
238.7335207654809
 20
513.87974963195154
 30
0.0
  0
VERTEX
  5
19621
  8
AM_4
 10
237.12545234929439
 20
514.12487594278366
 30
0.0
  0
VERTEX
  5
19622
  8
AM_4
 10
235.58972908359681
 20
514.40014510209835
 30
0.0
  0
VERTEX
  5
19623
  8
AM_4
 10
234.1201728619767
 20
514.6711643521586
 30
0.0
  0
VERTEX
  5
19624
  8
AM_4
 10
232.71060557802261
 20
514.90354093522785
 30
0.0
  0
VERTEX
  5
19625
  8
AM_4
 10
231.354849125323
 20
515.06288209357001
 30
0.0
  0
VERTEX
  5
19626
  8
AM_4
 10
230.04672539746619
 20
515.11479506944875
 30
0.0
  0
VERTEX
  5
19627
  8
AM_4
 10
228.78211369182719
 20
515.03260193248877
 30
0.0
  0
VERTEX
  5
19628
  8
AM_4
 10
227.56512292092751
 20
514.82048406176273
 30
0.0
  0
VERTEX
  5
19629
  8
AM_4
 10
226.40191940107431
 20
514.49033766370371
 30
0.0
  0
VERTEX
  5
1962A
  8
AM_4
 10
225.29866944857551
 20
514.05405894474529
 30
0.0
  0
VERTEX
  5
1962B
  8
AM_4
 10
224.26153937973871
 20
513.52354411132137
 30
0.0
  0
VERTEX
  5
1962C
  8
AM_4
 10
223.29669551087139
 20
512.91068936986528
 30
0.0
  0
VERTEX
  5
1962D
  8
AM_4
 10
222.41030415828121
 20
512.22739092681093
 30
0.0
  0
VERTEX
  5
1962E
  8
AM_4
 10
221.60853163827591
 20
511.48554498859158
 30
0.0
  0
VERTEX
  5
1962F
  8
AM_4
 10
220.89397672571201
 20
510.69808875489332
 30
0.0
  0
VERTEX
  5
19630
  8
AM_4
 10
220.25496802964301
 20
509.8821233984126
 30
0.0
  0
VERTEX
  5
19631
  8
AM_4
 10
219.6762666176709
 20
509.05579108509647
 30
0.0
  0
VERTEX
  5
19632
  8
AM_4
 10
219.1426335573982
 20
508.23723398089368
 30
0.0
  0
VERTEX
  5
19633
  8
AM_4
 10
218.63882991642711
 20
507.44459425175268
 30
0.0
  0
VERTEX
  5
19634
  8
AM_4
 10
218.14961676235981
 20
506.69601406362091
 30
0.0
  0
VERTEX
  5
19635
  8
AM_4
 10
217.6597551627986
 20
506.009635582447
 30
0.0
  0
VERTEX
  5
19636
  8
AM_4
 10
217.15400618534591
 20
505.4036009741788
 30
0.0
  0
VERTEX
  5
19637
  8
AM_4
 10
216.6215890952171
 20
504.88946507080169
 30
0.0
  0
VERTEX
  5
19638
  8
AM_4
 10
216.0695559480807
 20
504.45243336844771
 30
0.0
  0
VERTEX
  5
19639
  8
AM_4
 10
215.50941699721869
 20
504.07112402928612
 30
0.0
  0
VERTEX
  5
1963A
  8
AM_4
 10
214.9526824959124
 20
503.72415521548601
 30
0.0
  0
VERTEX
  5
1963B
  8
AM_4
 10
214.41086269744389
 20
503.39014508921662
 30
0.0
  0
VERTEX
  5
1963C
  8
AM_4
 10
213.89546785509469
 20
503.04771181264681
 30
0.0
  0
VERTEX
  5
1963D
  8
AM_4
 10
213.4180082221468
 20
502.67547354794658
 30
0.0
  0
VERTEX
  5
1963E
  8
AM_4
 10
212.98999405188169
 20
502.25204845728439
 30
0.0
  0
VERTEX
  5
1963F
  8
AM_4
 10
212.6043462589974
 20
501.76501779607878
 30
0.0
  0
VERTEX
  5
19640
  8
AM_4
 10
212.17962840385681
 20
501.2378151927449
 30
0.0
  0
VERTEX
  5
19641
  8
AM_4
 10
211.6158147082387
 20
500.70283736894743
 30
0.0
  0
VERTEX
  5
19642
  8
AM_4
 10
210.81287939392189
 20
500.19248104635028
 30
0.0
  0
VERTEX
  5
19643
  8
AM_4
 10
209.67079668268559
 20
499.73914294661802
 30
0.0
  0
VERTEX
  5
19644
  8
AM_4
 10
208.0895407963086
 20
499.37521979141542
 30
0.0
  0
VERTEX
  5
19645
  8
AM_4
 10
206.0449875107972
 20
499.1417746686821
 30
0.0
  0
SEQEND
  5
19646
  8
AM_4
  0
LINE
  5
19647
  8
AM_0
 10
206.04498751079711
 20
513.10237770607284
 30
0.0
 11
206.0449875107972
 21
499.1417746686821
 31
0.0
  0
LINE
  5
19648
  8
AM_0
 10
334.04499132805438
 20
504.10287845164561
 30
0.0
 11
325.04499132805449
 21
504.10287845164561
 31
0.0
  0
LINE
  5
19649
  8
AM_0
 10
325.04499132805449
 20
504.10287845164561
 30
0.0
 11
334.04499132805449
 21
513.10237770607284
 31
0.0
  0
LINE
  5
1964A
  8
AM_0
 10
334.04499132805449
 20
504.10287845164561
 30
0.0
 11
325.04499132805449
 21
513.10237770607284
 31
0.0
  0
LINE
  5
1964B
  8
AM_0
 10
339.04499147716598
 20
513.10237770607284
 30
0.0
 11
313.79868938648838
 21
513.10237770607284
 31
0.0
  0
LINE
  5
1964C
  8
AM_0
 10
215.04498751079711
 20
513.10237770607284
 30
0.0
 11
215.044987510797
 21
504.10287845164561
 31
0.0
  0
LINE
  5
1964D
  8
AM_0
 10
325.04499132805449
 20
513.10237770607284
 30
0.0
 11
325.04499132805449
 21
504.10287845164561
 31
0.0
  0
LINE
  5
1964E
  8
AM_0
 10
334.04499132805449
 20
513.10237770607284
 30
0.0
 11
334.04499132805449
 21
499.69875825052031
 31
0.0
  0
POLYLINE
  5
1964F
  8
AM_4
 66
     1
 10
0.0
 20
0.0
 30
0.0
  0
VERTEX
  5
19650
  8
AM_4
 10
334.04499132805449
 20
576.50699865277193
 30
0.0
  0
VERTEX
  5
19651
  8
AM_4
 10
333.5532208552026
 20
576.43413623656738
 30
0.0
  0
VERTEX
  5
19652
  8
AM_4
 10
332.05169909369511
 20
576.05992714567287
 30
0.0
  0
VERTEX
  5
19653
  8
AM_4
 10
330.93147504883137
 20
575.63064363561023
 30
0.0
  0
VERTEX
  5
19654
  8
AM_4
 10
330.07777033048723
 20
575.16944936048321
 30
0.0
  0
VERTEX
  5
19655
  8
AM_4
 10
329.37580654853809
 20
574.69950797439401
 30
0.0
  0
VERTEX
  5
19656
  8
AM_4
 10
328.71080531285889
 20
574.24398313144604
 30
0.0
  0
VERTEX
  5
19657
  8
AM_4
 10
327.99106279574949
 20
573.82020707622769
 30
0.0
  0
VERTEX
  5
19658
  8
AM_4
 10
327.21717341920521
 20
573.42218641526654
 30
0.0
  0
VERTEX
  5
19659
  8
AM_4
 10
326.4128061676459
 20
573.03809634557661
 30
0.0
  0
VERTEX
  5
1965A
  8
AM_4
 10
325.6016300254912
 20
572.656112064171
 30
0.0
  0
VERTEX
  5
1965B
  8
AM_4
 10
324.8073139771605
 20
572.26440876806328
 30
0.0
  0
VERTEX
  5
1965C
  8
AM_4
 10
324.05352700707391
 20
571.85116165426666
 30
0.0
  0
VERTEX
  5
1965D
  8
AM_4
 10
323.36393809965051
 20
571.40454591979517
 30
0.0
  0
VERTEX
  5
1965E
  8
AM_4
 10
322.76221623931042
 20
570.91273676166122
 30
0.0
  0
VERTEX
  5
1965F
  8
AM_4
 10
322.26273574089743
 20
570.36766199680176
 30
0.0
  0
VERTEX
  5
19660
  8
AM_4
 10
321.84269224095198
 20
569.77625992184483
 30
0.0
  0
VERTEX
  5
19661
  8
AM_4
 10
321.46998670643939
 20
569.14922145334015
 30
0.0
  0
VERTEX
  5
19662
  8
AM_4
 10
321.11252010432452
 20
568.4972375078396
 30
0.0
  0
VERTEX
  5
19663
  8
AM_4
 10
320.7381934015724
 20
567.83099900189325
 30
0.0
  0
VERTEX
  5
19664
  8
AM_4
 10
320.31490756514791
 20
567.16119685205206
 30
0.0
  0
VERTEX
  5
19665
  8
AM_4
 10
319.81056356201589
 20
566.49852197486643
 30
0.0
  0
VERTEX
  5
19666
  8
AM_4
 10
319.19306235914149
 20
565.85366528688792
 30
0.0
  0
VERTEX
  5
19667
  8
AM_4
 10
318.43873497267288
 20
565.23715572134029
 30
0.0
  0
VERTEX
  5
19668
  8
AM_4
 10
317.55763261549077
 20
564.65887427814323
 30
0.0
  0
VERTEX
  5
19669
  8
AM_4
 10
316.56823654965871
 20
564.12853997389175
 30
0.0
  0
VERTEX
  5
1966A
  8
AM_4
 10
315.4890280372407
 20
563.65587182517925
 30
0.0
  0
VERTEX
  5
1966B
  8
AM_4
 10
314.33848834030027
 20
563.25058884859948
 30
0.0
  0
VERTEX
  5
1966C
  8
AM_4
 10
313.1350987209014
 20
562.92241006074642
 30
0.0
  0
VERTEX
  5
1966D
  8
AM_4
 10
311.8973404411077
 20
562.68105447821415
 30
0.0
  0
VERTEX
  5
1966E
  8
AM_4
 10
310.6436947629831
 20
562.53624111759655
 30
0.0
  0
VERTEX
  5
1966F
  8
AM_4
 10
309.38886023405428
 20
562.49153361900483
 30
0.0
  0
VERTEX
  5
19670
  8
AM_4
 10
308.13240454369912
 20
562.52587411662034
 30
0.0
  0
VERTEX
  5
19671
  8
AM_4
 10
306.8701126667579
 20
562.61204936814272
 30
0.0
  0
VERTEX
  5
19672
  8
AM_4
 10
305.59776957807162
 20
562.7228461312701
 30
0.0
  0
VERTEX
  5
19673
  8
AM_4
 10
304.31116025248087
 20
562.83105116370166
 30
0.0
  0
VERTEX
  5
19674
  8
AM_4
 10
303.0060696648265
 20
562.90945122313633
 30
0.0
  0
VERTEX
  5
19675
  8
AM_4
 10
301.67828278994892
 20
562.93083306727283
 30
0.0
  0
VERTEX
  5
19676
  8
AM_4
 10
300.32358460268881
 20
562.86798345381067
 30
0.0
  0
VERTEX
  5
19677
  8
AM_4
 10
298.94078406295938
 20
562.70358979604555
 30
0.0
  0
VERTEX
  5
19678
  8
AM_4
 10
297.54078607096392
 20
562.45994212966355
 30
0.0
  0
VERTEX
  5
19679
  8
AM_4
 10
296.13751951197793
 20
562.16923114594874
 30
0.0
  0
VERTEX
  5
1967A
  8
AM_4
 10
294.7449132712768
 20
561.86364753618432
 30
0.0
  0
VERTEX
  5
1967B
  8
AM_4
 10
293.37689623413632
 20
561.57538199165367
 30
0.0
  0
VERTEX
  5
1967C
  8
AM_4
 10
292.04739728583212
 20
561.33662520364032
 30
0.0
  0
VERTEX
  5
1967D
  8
AM_4
 10
290.77034531163969
 20
561.17956786342756
 30
0.0
  0
VERTEX
  5
1967E
  8
AM_4
 10
289.55966919683482
 20
561.13640066229971
 30
0.0
  0
VERTEX
  5
1967F
  8
AM_4
 10
288.41995786378038
 20
561.22784281780605
 30
0.0
  0
VERTEX
  5
19680
  8
AM_4
 10
287.31844038318889
 20
561.42872765256527
 30
0.0
  0
VERTEX
  5
19681
  8
AM_4
 10
286.21300586286043
 20
561.70241701546195
 30
0.0
  0
VERTEX
  5
19682
  8
AM_4
 10
285.06154341059522
 20
562.01227275538201
 30
0.0
  0
VERTEX
  5
19683
  8
AM_4
 10
283.82194213419319
 20
562.32165672120925
 30
0.0
  0
VERTEX
  5
19684
  8
AM_4
 10
282.45209114145439
 20
562.59393076182914
 30
0.0
  0
VERTEX
  5
19685
  8
AM_4
 10
280.90987954017868
 20
562.7924567261266
 30
0.0
  0
VERTEX
  5
19686
  8
AM_4
 10
279.15319643816662
 20
562.8805964629862
 30
0.0
  0
VERTEX
  5
19687
  8
AM_4
 10
277.1541830803705
 20
562.83369346423274
 30
0.0
  0
VERTEX
  5
19688
  8
AM_4
 10
274.94198926035551
 20
562.67501779344479
 30
0.0
  0
VERTEX
  5
19689
  8
AM_4
 10
272.56001690883932
 20
562.43982115714175
 30
0.0
  0
VERTEX
  5
1968A
  8
AM_4
 10
270.05166795653957
 20
562.16335526184173
 30
0.0
  0
VERTEX
  5
1968B
  8
AM_4
 10
267.46034433417418
 20
561.88087181406377
 30
0.0
  0
VERTEX
  5
1968C
  8
AM_4
 10
264.82944797246068
 20
561.62762252032644
 30
0.0
  0
VERTEX
  5
1968D
  8
AM_4
 10
262.20238080211698
 20
561.43885908714765
 30
0.0
  0
VERTEX
  5
1968E
  8
AM_4
 10
259.62254475386061
 20
561.34983322104722
 30
0.0
  0
VERTEX
  5
1968F
  8
AM_4
 10
257.12611323697553
 20
561.38433154422091
 30
0.0
  0
VERTEX
  5
19690
  8
AM_4
 10
254.7203455750103
 20
561.52028034158025
 30
0.0
  0
VERTEX
  5
19691
  8
AM_4
 10
252.40527257008
 20
561.7241408137138
 30
0.0
  0
VERTEX
  5
19692
  8
AM_4
 10
250.18092502429911
 20
561.96237416121073
 30
0.0
  0
VERTEX
  5
19693
  8
AM_4
 10
248.0473337397826
 20
562.20144158465985
 30
0.0
  0
VERTEX
  5
19694
  8
AM_4
 10
246.0045295186452
 20
562.40780428465109
 30
0.0
  0
VERTEX
  5
19695
  8
AM_4
 10
244.0525431630017
 20
562.5479234617726
 30
0.0
  0
VERTEX
  5
19696
  8
AM_4
 10
242.1914054749669
 20
562.58826031661363
 30
0.0
  0
VERTEX
  5
19697
  8
AM_4
 10
240.42011243856791
 20
562.50659797595461
 30
0.0
  0
VERTEX
  5
19698
  8
AM_4
 10
238.7335207654809
 20
562.32600727134059
 30
0.0
  0
VERTEX
  5
19699
  8
AM_4
 10
237.12545234929439
 20
562.08088096050824
 30
0.0
  0
VERTEX
  5
1969A
  8
AM_4
 10
235.58972908359681
 20
561.80561180119355
 30
0.0
  0
VERTEX
  5
1969B
  8
AM_4
 10
234.1201728619767
 20
561.53459255113353
 30
0.0
  0
VERTEX
  5
1969C
  8
AM_4
 10
232.71060557802261
 20
561.30221596806393
 30
0.0
  0
VERTEX
  5
1969D
  8
AM_4
 10
231.354849125323
 20
561.14287480972177
 30
0.0
  0
VERTEX
  5
1969E
  8
AM_4
 10
230.04672539746619
 20
561.09096183384315
 30
0.0
  0
VERTEX
  5
1969F
  8
AM_4
 10
228.78211369182719
 20
561.17315497080313
 30
0.0
  0
VERTEX
  5
196A0
  8
AM_4
 10
227.56512292092751
 20
561.38527284152929
 30
0.0
  0
VERTEX
  5
196A1
  8
AM_4
 10
226.40191940107431
 20
561.71541923958841
 30
0.0
  0
VERTEX
  5
196A2
  8
AM_4
 10
225.29866944857551
 20
562.15169795854683
 30
0.0
  0
VERTEX
  5
196A3
  8
AM_4
 10
224.26153937973871
 20
562.68221279197076
 30
0.0
  0
VERTEX
  5
196A4
  8
AM_4
 10
223.29669551087139
 20
563.29506753342673
 30
0.0
  0
VERTEX
  5
196A5
  8
AM_4
 10
222.41030415828121
 20
563.9783659764812
 30
0.0
  0
VERTEX
  5
196A6
  8
AM_4
 10
221.60853163827591
 20
564.72021191470049
 30
0.0
  0
VERTEX
  5
196A7
  8
AM_4
 10
220.89397672571201
 20
565.50766814839847
 30
0.0
  0
VERTEX
  5
196A8
  8
AM_4
 10
220.25496802964301
 20
566.32363350487958
 30
0.0
  0
VERTEX
  5
196A9
  8
AM_4
 10
219.6762666176709
 20
567.14996581819548
 30
0.0
  0
VERTEX
  5
196AA
  8
AM_4
 10
219.1426335573982
 20
567.96852292239828
 30
0.0
  0
VERTEX
  5
196AB
  8
AM_4
 10
218.63882991642711
 20
568.76116265153917
 30
0.0
  0
VERTEX
  5
196AC
  8
AM_4
 10
218.14961676235981
 20
569.50974283967105
 30
0.0
  0
VERTEX
  5
196AD
  8
AM_4
 10
217.6597551627986
 20
570.19612132084478
 30
0.0
  0
VERTEX
  5
196AE
  8
AM_4
 10
217.15400618534591
 20
570.80215592911316
 30
0.0
  0
VERTEX
  5
196AF
  8
AM_4
 10
216.6215890952171
 20
571.31629183249015
 30
0.0
  0
VERTEX
  5
196B0
  8
AM_4
 10
216.0695559480807
 20
571.75332353484441
 30
0.0
  0
VERTEX
  5
196B1
  8
AM_4
 10
215.50941699721869
 20
572.134632874006
 30
0.0
  0
VERTEX
  5
196B2
  8
AM_4
 10
214.9526824959124
 20
572.48160168780601
 30
0.0
  0
VERTEX
  5
196B3
  8
AM_4
 10
214.41086269744389
 20
572.8156118140754
 30
0.0
  0
VERTEX
  5
196B4
  8
AM_4
 10
213.89546785509469
 20
573.15804509064492
 30
0.0
  0
VERTEX
  5
196B5
  8
AM_4
 10
213.4180082221468
 20
573.53028335534498
 30
0.0
  0
VERTEX
  5
196B6
  8
AM_4
 10
212.98999405188169
 20
573.95370844600745
 30
0.0
  0
VERTEX
  5
196B7
  8
AM_4
 10
212.6043462589974
 20
574.44073910721318
 30
0.0
  0
VERTEX
  5
196B8
  8
AM_4
 10
212.17962840385681
 20
574.96794171054705
 30
0.0
  0
VERTEX
  5
196B9
  8
AM_4
 10
211.6158147082387
 20
575.50291953434476
 30
0.0
  0
VERTEX
  5
196BA
  8
AM_4
 10
210.81287939392189
 20
576.01327585694162
 30
0.0
  0
VERTEX
  5
196BB
  8
AM_4
 10
209.67079668268559
 20
576.46661395667365
 30
0.0
  0
VERTEX
  5
196BC
  8
AM_4
 10
208.0895407963086
 20
576.83053711187654
 30
0.0
  0
VERTEX
  5
196BD
  8
AM_4
 10
206.0449875107972
 20
577.06398223460974
 30
0.0
  0
SEQEND
  5
196BE
  8
AM_4
  0
LINE
  5
196BF
  8
AM_0
 10
223.59847879394411
 20
563.10337919721928
 30
0.0
 11
201.04498736168549
 21
563.10337919721928
 31
0.0
  0
LINE
  5
196C0
  8
AM_0
 10
215.04498751079711
 20
572.10287845164612
 30
0.0
 11
206.04498751079711
 21
563.10337919721928
 31
0.0
  0
LINE
  5
196C1
  8
AM_0
 10
206.04498751079711
 20
572.10287845164612
 30
0.0
 11
215.04498751079711
 21
563.10337919721928
 31
0.0
  0
LINE
  5
196C2
  8
AM_0
 10
215.04498751079711
 20
572.10287845164612
 30
0.0
 11
206.04498751079711
 21
572.10287845164612
 31
0.0
  0
LINE
  5
196C3
  8
AM_0
 10
339.04498736168551
 20
558.8028624299177
 30
0.0
 11
201.04498736168549
 21
558.8028624299177
 31
0.0
  0
LINE
  5
196C4
  8
AM_0
 10
225.39499346520111
 20
555.60288226634316
 30
0.0
 11
204.04498736168549
 21
555.60288226634316
 31
0.0
  0
LINE
  5
196C5
  8
AM_0
 10
225.39499346520111
 20
520.60288226634339
 30
0.0
 11
204.04498736168549
 21
520.60288226634339
 31
0.0
  0
LINE
  5
196C6
  8
ﾁｭｳｼﾝｾﾝ1
 10
344.04499147716598
 20
538.10287845164601
 30
0.0
 11
196.0449873616854
 21
538.10287845164623
 31
0.0
  0
LINE
  5
196C7
  8
AM_0
 10
204.04498736168549
 20
555.60288226634316
 30
0.0
 11
204.04498736168549
 21
520.60288226634339
 31
0.0
  0
LINE
  5
196C8
  8
AM_0
 10
204.04498736168549
 20
520.60287463694874
 30
0.0
 11
201.04498736168549
 21
518.8708238293799
 31
0.0
  0
LINE
  5
196C9
  8
AM_0
 10
206.04498751079711
 20
563.10337919721928
 30
0.0
 11
206.0449875107972
 21
577.06398223460974
 31
0.0
  0
LINE
  5
196CA
  8
AM_0
 10
204.04498736168549
 20
555.60288226634316
 30
0.0
 11
201.04498736168549
 21
557.33493307391223
 31
0.0
  0
LINE
  5
196CB
  8
AM_0
 10
334.04499132805438
 20
572.10287845164612
 30
0.0
 11
325.04499132805449
 21
572.10287845164612
 31
0.0
  0
LINE
  5
196CC
  8
AM_0
 10
334.04499132805449
 20
572.10287845164612
 30
0.0
 11
325.04499132805449
 21
563.10337919721928
 31
0.0
  0
LINE
  5
196CD
  8
AM_0
 10
325.04499132805449
 20
572.10287845164612
 30
0.0
 11
334.04499132805449
 21
563.10337919721928
 31
0.0
  0
LINE
  5
196CE
  8
AM_0
 10
339.04499147716598
 20
563.10337919721928
 30
0.0
 11
313.79868938648838
 21
563.10337919721928
 31
0.0
  0
LINE
  5
196CF
  8
AM_0
 10
336.04498736168517
 20
555.60288226634316
 30
0.0
 11
314.69498125816989
 21
555.60288226634316
 31
0.0
  0
LINE
  5
196D0
  8
AM_0
 10
336.04498736168517
 20
520.60288226634339
 30
0.0
 11
314.69498125816989
 21
520.60288226634339
 31
0.0
  0
LINE
  5
196D1
  8
AM_0
 10
287.04498736168551
 20
555.85288226634339
 30
0.0
 11
253.04498736168549
 21
555.85288226634339
 31
0.0
  0
LINE
  5
196D2
  8
AM_0
 10
287.04498736168551
 20
520.35288226634304
 30
0.0
 11
253.04498736168549
 21
520.35288226634304
 31
0.0
  0
LINE
  5
196D3
  8
AM_0
 10
253.04498736168549
 20
555.85288226634339
 30
0.0
 11
253.04498736168549
 21
520.35288226634304
 31
0.0
  0
LINE
  5
196D4
  8
AM_0
 10
227.04498736168549
 20
556.60288226634304
 30
0.0
 11
227.04498736168549
 21
519.60288226634339
 31
0.0
  0
LINE
  5
196D5
  8
AM_0
 10
225.39499346520111
 20
556.60288226634304
 30
0.0
 11
225.39499346520111
 21
519.60288226634339
 31
0.0
  0
LINE
  5
196D6
  8
AM_0
 10
253.04498736168549
 20
520.60288226634339
 30
0.0
 11
227.04498736168549
 21
520.60288226634339
 31
0.0
  0
LINE
  5
196D7
  8
AM_0
 10
225.39499346520111
 20
519.60288226634339
 30
0.0
 11
227.04498736168549
 21
519.60288226634339
 31
0.0
  0
LINE
  5
196D8
  8
AM_0
 10
253.04498736168549
 20
555.60288226634316
 30
0.0
 11
227.04498736168549
 21
555.60288226634316
 31
0.0
  0
LINE
  5
196D9
  8
AM_0
 10
215.04498751079711
 20
563.10337919721928
 30
0.0
 11
215.044987510797
 21
572.10287845164612
 31
0.0
  0
LINE
  5
196DA
  8
AM_0
 10
225.39499346520111
 20
556.60288226634304
 30
0.0
 11
227.04498736168549
 21
556.60288226634304
 31
0.0
  0
LINE
  5
196DB
  8
AM_0
 10
314.69498125816989
 20
556.60288226634304
 30
0.0
 11
314.69498125816989
 21
519.60288226634339
 31
0.0
  0
LINE
  5
196DC
  8
AM_0
 10
313.0449873616854
 20
556.60288226634304
 30
0.0
 11
313.0449873616854
 21
519.60288226634339
 31
0.0
  0
LINE
  5
196DD
  8
AM_0
 10
287.04498736168551
 20
555.85288226634339
 30
0.0
 11
287.04498736168551
 21
520.35288226634304
 31
0.0
  0
LINE
  5
196DE
  8
AM_0
 10
313.0449873616854
 20
520.60288226634339
 30
0.0
 11
287.04498736168551
 21
520.60288226634339
 31
0.0
  0
LINE
  5
196DF
  8
AM_0
 10
314.69498125816989
 20
519.60288226634339
 30
0.0
 11
313.0449873616854
 21
519.60288226634339
 31
0.0
  0
LINE
  5
196E0
  8
AM_0
 10
313.0449873616854
 20
555.60288226634316
 30
0.0
 11
287.04498736168551
 21
555.60288226634316
 31
0.0
  0
LINE
  5
196E1
  8
AM_0
 10
325.04499132805449
 20
563.10337919721928
 30
0.0
 11
325.04499132805449
 21
572.10287845164612
 31
0.0
  0
LINE
  5
196E2
  8
AM_0
 10
314.69498125816989
 20
556.60288226634304
 30
0.0
 11
313.0449873616854
 21
556.60288226634304
 31
0.0
  0
LINE
  5
196E3
  8
AM_0
 10
336.04498736168517
 20
555.60288226634316
 30
0.0
 11
336.04498736168517
 21
520.60288226634339
 31
0.0
  0
LINE
  5
196E4
  8
AM_0
 10
336.04498736168517
 20
520.60287463694874
 30
0.0
 11
339.04498736168551
 21
518.8708238293799
 31
0.0
  0
LINE
  5
196E5
  8
AM_0
 10
334.04499132805449
 20
563.10337919721928
 30
0.0
 11
334.04499132805449
 21
576.50699865277193
 31
0.0
  0
LINE
  5
196E6
  8
AM_0
 10
336.04498736168517
 20
555.60288226634316
 30
0.0
 11
339.04498736168551
 21
557.33493307391223
 31
0.0
  0
LINE
  5
196E7
  8
AM_0
 10
567.59604814660565
 20
709.77156131566403
 30
0.0
 11
617.59704963675142
 21
709.77156131566403
 31
0.0
  0
LINE
  5
196E8
  8
AM_0
 10
542.59554769956185
 20
704.77156116515243
 30
0.0
 11
642.59755008379523
 21
704.77156116515243
 31
0.0
  0
LINE
  5
196E9
  8
AM_0
 10
720.97316182689451
 20
699.77156101464084
 30
0.0
 11
519.21990709451563
 21
699.77156101464084
 31
0.0
  0
LINE
  5
196ED
  8
AM_0
 10
722.59652228740117
 20
606.77155800440869
 30
0.0
 11
517.59654663400397
 21
606.77155800440801
 31
0.0
  0
LINE
  5
196EE
  8
ﾁｭｳｼﾝｾﾝ1
 10
993.59999999999991
 20
640.77155514563322
 30
0.0
 11
512.5965466340042
 21
640.7715601456332
 31
0.0
  0
LINE
  5
1972E
  8
AM_0
 10
745.09657621447764
 20
711.27295280644455
 30
0.0
 11
745.09657621447752
 21
640.77155735084818
 31
0.0
  0
LINE
  5
1972F
  8
AM_0
 10
720.9731618268944
 20
699.77156101464084
 30
0.0
 11
722.59652228746643
 21
606.77155800440869
 31
0.0
  0
LINE
  5
19734
  8
AM_0
 10
759.09657621867746
 20
567.27157114563329
 30
0.0
 11
759.09657621867746
 21
714.27156014563286
 31
0.0
  0
ARC
  5
19736
  8
AM_0
 10
737.81648867096874
 20
570.77013830160274
 30
0.0
 40
2.0
 50
184.99999999999969
 51
269.99993053332798
1001
GENIUS_GENODEF_13
1002
{
1000
HIER
1070
     0
1002
}
1002
{
1000
MANEDIT
1070
     0
1002
}
1002
{
1000
NOSEL
1070
     0
1002
}
1002
{
1000
BEHIND
1070
     0
1002
}
1002
{
1000
OTHER
1070
     0
1002
}
1002
{
1000
REACTOR
1002
}
1001
GENIUS_GENOBJ-N-FIL_13
1002
{
1000
OWNER
1000
GEN
1002
}
  0
LINE
  5
19737
  8
AM_0
 10
745.09657621447764
 20
570.27016189525273
 30
0.0
 11
745.09657621447752
 21
640.77155735084818
 31
0.0
  0
LINE
  5
19740
  8
AM_0
 10
759.09657013900403
 20
567.27008250116012
 30
0.0
 11
748.09657092618363
 21
567.27010189525765
 31
0.0
  0
LINE
  5
19741
  8
AM_0
 10
744.12795429737105
 20
568.77013064944094
 30
0.0
 11
737.81648624612478
 21
568.77013830160456
 31
0.0
  0
POLYLINE
  5
19742
  8
AM_0
 66
     1
 10
0.0
 20
0.0
 30
0.0
 70
     8
  0
VERTEX
  5
1AE3A
  8
AM_0
 10
744.12800000000004
 20
568.76999999999987
 30
0.0
 70
    32
  0
VERTEX
  5
1AE3B
  8
AM_0
 10
744.14499999999987
 20
568.76999999999987
 30
0.0
 70
    32
  0
VERTEX
  5
1AE3C
  8
AM_0
 10
744.16199999999992
 20
568.76999999999987
 30
0.0
 70
    32
  0
VERTEX
  5
1AE3D
  8
AM_0
 10
744.17899999999997
 20
568.76999999999987
 30
0.0
 70
    32
  0
VERTEX
  5
1AE3E
  8
AM_0
 10
744.19600000000003
 20
568.76899999999989
 30
0.0
 70
    32
  0
VERTEX
  5
1AE3F
  8
AM_0
 10
744.21299999999997
 20
568.76899999999989
 30
0.0
 70
    32
  0
VERTEX
  5
1AE40
  8
AM_0
 10
744.23000000000002
 20
568.76800000000003
 30
0.0
 70
    32
  0
VERTEX
  5
1AE41
  8
AM_0
 10
744.24600000000009
 20
568.76800000000003
 30
0.0
 70
    32
  0
VERTEX
  5
1AE42
  8
AM_0
 10
744.26300000000003
 20
568.76699999999994
 30
0.0
 70
    32
  0
VERTEX
  5
1AE43
  8
AM_0
 10
744.27999999999997
 20
568.76599999999996
 30
0.0
 70
    32
  0
VERTEX
  5
1AE44
  8
AM_0
 10
744.29700000000003
 20
568.76499999999987
 30
0.0
 70
    32
  0
VERTEX
  5
1AE45
  8
AM_0
 10
744.31399999999985
 20
568.76400000000001
 30
0.0
 70
    32
  0
VERTEX
  5
1AE46
  8
AM_0
 10
744.33100000000002
 20
568.76300000000003
 30
0.0
 70
    32
  0
VERTEX
  5
1AE47
  8
AM_0
 10
744.34799999999996
 20
568.76199999999994
 30
0.0
 70
    32
  0
VERTEX
  5
1AE48
  8
AM_0
 10
744.3649999999999
 20
568.76099999999985
 30
0.0
 70
    32
  0
VERTEX
  5
1AE49
  8
AM_0
 10
744.38199999999995
 20
568.75900000000001
 30
0.0
 70
    32
  0
VERTEX
  5
1AE4A
  8
AM_0
 10
744.39899999999989
 20
568.75800000000004
 30
0.0
 70
    32
  0
VERTEX
  5
1AE4B
  8
AM_0
 10
744.41499999999985
 20
568.75599999999986
 30
0.0
 70
    32
  0
VERTEX
  5
1AE4C
  8
AM_0
 10
744.43200000000002
 20
568.75499999999988
 30
0.0
 70
    32
  0
VERTEX
  5
1AE4D
  8
AM_0
 10
744.44899999999996
 20
568.75300000000004
 30
0.0
 70
    32
  0
VERTEX
  5
1AE4E
  8
AM_0
 10
744.46599999999989
 20
568.75099999999986
 30
0.0
 70
    32
  0
VERTEX
  5
1AE4F
  8
AM_0
 10
744.48299999999995
 20
568.74900000000002
 30
0.0
 70
    32
  0
VERTEX
  5
1AE50
  8
AM_0
 10
744.5
 20
568.74699999999984
 30
0.0
 70
    32
  0
VERTEX
  5
1AE51
  8
AM_0
 10
744.51600000000008
 20
568.745
 30
0.0
 70
    32
  0
VERTEX
  5
1AE52
  8
AM_0
 10
744.53300000000002
 20
568.74300000000005
 30
0.0
 70
    32
  0
VERTEX
  5
1AE53
  8
AM_0
 10
744.54999999999995
 20
568.74000000000001
 30
0.0
 70
    32
  0
VERTEX
  5
1AE54
  8
AM_0
 10
744.56699999999989
 20
568.73800000000006
 30
0.0
 70
    32
  0
VERTEX
  5
1AE55
  8
AM_0
 10
744.58399999999995
 20
568.73500000000001
 30
0.0
 70
    32
  0
VERTEX
  5
1AE56
  8
AM_0
 10
744.60000000000002
 20
568.73300000000006
 30
0.0
 70
    32
  0
VERTEX
  5
1AE57
  8
AM_0
 10
744.61699999999985
 20
568.73000000000002
 30
0.0
 70
    32
  0
VERTEX
  5
1AE58
  8
AM_0
 10
744.6339999999999
 20
568.72699999999986
 30
0.0
 70
    32
  0
VERTEX
  5
1AE59
  8
AM_0
 10
744.64999999999998
 20
568.72400000000005
 30
0.0
 70
    32
  0
VERTEX
  5
1AE5A
  8
AM_0
 10
744.66699999999992
 20
568.721
 30
0.0
 70
    32
  0
VERTEX
  5
1AE5B
  8
AM_0
 10
744.68399999999986
 20
568.71799999999996
 30
0.0
 70
    32
  0
VERTEX
  5
1AE5C
  8
AM_0
 10
744.70000000000005
 20
568.71500000000003
 30
0.0
 70
    32
  0
VERTEX
  5
1AE5D
  8
AM_0
 10
744.71699999999987
 20
568.71199999999999
 30
0.0
 70
    32
  0
VERTEX
  5
1AE5E
  8
AM_0
 10
744.73399999999992
 20
568.70799999999997
 30
0.0
 70
    32
  0
VERTEX
  5
1AE5F
  8
AM_0
 10
744.74999999999989
 20
568.70500000000004
 30
0.0
 70
    32
  0
VERTEX
  5
1AE60
  8
AM_0
 10
744.76699999999994
 20
568.70099999999991
 30
0.0
 70
    32
  0
VERTEX
  5
1AE61
  8
AM_0
 10
744.78300000000002
 20
568.69799999999998
 30
0.0
 70
    32
  0
VERTEX
  5
1AE62
  8
AM_0
 10
744.79999999999995
 20
568.69399999999985
 30
0.0
 70
    32
  0
VERTEX
  5
1AE63
  8
AM_0
 10
744.81600000000003
 20
568.69000000000005
 30
0.0
 70
    32
  0
VERTEX
  5
1AE64
  8
AM_0
 10
744.83300000000008
 20
568.68600000000004
 30
0.0
 70
    32
  0
VERTEX
  5
1AE65
  8
AM_0
 10
744.84899999999993
 20
568.6819999999999
 30
0.0
 70
    32
  0
VERTEX
  5
1AE66
  8
AM_0
 10
744.8660000000001
 20
568.67799999999988
 30
0.0
 70
    32
  0
VERTEX
  5
1AE67
  8
AM_0
 10
744.88199999999995
 20
568.67399999999986
 30
0.0
 70
    32
  0
VERTEX
  5
1AE68
  8
AM_0
 10
744.89800000000002
 20
568.66999999999996
 30
0.0
 70
    32
  0
VERTEX
  5
1AE69
  8
AM_0
 10
744.91499999999985
 20
568.66499999999985
 30
0.0
 70
    32
  0
VERTEX
  5
1AE6A
  8
AM_0
 10
744.93100000000004
 20
568.66099999999994
 30
0.0
 70
    32
  0
VERTEX
  5
1AE6B
  8
AM_0
 10
744.94699999999989
 20
568.65599999999995
 30
0.0
 70
    32
  0
VERTEX
  5
1AE6C
  8
AM_0
 10
744.96399999999994
 20
568.65099999999995
 30
0.0
 70
    32
  0
VERTEX
  5
1AE6D
  8
AM_0
 10
744.98000000000002
 20
568.64699999999993
 30
0.0
 70
    32
  0
VERTEX
  5
1AE6E
  8
AM_0
 10
744.99599999999998
 20
568.64199999999994
 30
0.0
 70
    32
  0
VERTEX
  5
1AE6F
  8
AM_0
 10
745.01199999999994
 20
568.63699999999994
 30
0.0
 70
    32
  0
VERTEX
  5
1AE70
  8
AM_0
 10
745.02899999999988
 20
568.63199999999995
 30
0.0
 70
    32
  0
VERTEX
  5
1AE71
  8
AM_0
 10
745.04499999999996
 20
568.62699999999995
 30
0.0
 70
    32
  0
VERTEX
  5
1AE72
  8
AM_0
 10
745.06100000000004
 20
568.62099999999987
 30
0.0
 70
    32
  0
VERTEX
  5
1AE73
  8
AM_0
 10
745.077
 20
568.61599999999999
 30
0.0
 70
    32
  0
VERTEX
  5
1AE74
  8
AM_0
 10
745.09299999999996
 20
568.61099999999999
 30
0.0
 70
    32
  0
VERTEX
  5
1AE75
  8
AM_0
 10
745.10899999999992
 20
568.60500000000002
 30
0.0
 70
    32
  0
VERTEX
  5
1AE76
  8
AM_0
 10
745.12499999999989
 20
568.59999999999991
 30
0.0
 70
    32
  0
VERTEX
  5
1AE77
  8
AM_0
 10
745.14099999999996
 20
568.59400000000005
 30
0.0
 70
    32
  0
VERTEX
  5
1AE78
  8
AM_0
 10
745.15699999999993
 20
568.58799999999997
 30
0.0
 70
    32
  0
VERTEX
  5
1AE79
  8
AM_0
 10
745.173
 20
568.58199999999988
 30
0.0
 70
    32
  0
VERTEX
  5
1AE7A
  8
AM_0
 10
745.18899999999985
 20
568.57600000000002
 30
0.0
 70
    32
  0
VERTEX
  5
1AE7B
  8
AM_0
 10
745.20399999999995
 20
568.57000000000005
 30
0.0
 70
    32
  0
VERTEX
  5
1AE7C
  8
AM_0
 10
745.22000000000003
 20
568.56399999999985
 30
0.0
 70
    32
  0
VERTEX
  5
1AE7D
  8
AM_0
 10
745.2360000000001
 20
568.55799999999988
 30
0.0
 70
    32
  0
VERTEX
  5
1AE7E
  8
AM_0
 10
745.25199999999995
 20
568.55200000000002
 30
0.0
 70
    32
  0
VERTEX
  5
1AE7F
  8
AM_0
 10
745.26699999999994
 20
568.54499999999985
 30
0.0
 70
    32
  0
VERTEX
  5
1AE80
  8
AM_0
 10
745.28300000000002
 20
568.53899999999987
 30
0.0
 70
    32
  0
VERTEX
  5
1AE81
  8
AM_0
 10
745.29899999999986
 20
568.53199999999993
 30
0.0
 70
    32
  0
VERTEX
  5
1AE82
  8
AM_0
 10
745.31399999999985
 20
568.52599999999995
 30
0.0
 70
    32
  0
VERTEX
  5
1AE83
  8
AM_0
 10
745.33000000000004
 20
568.51900000000001
 30
0.0
 70
    32
  0
VERTEX
  5
1AE84
  8
AM_0
 10
745.34500000000003
 20
568.51199999999994
 30
0.0
 70
    32
  0
VERTEX
  5
1AE85
  8
AM_0
 10
745.3610000000001
 20
568.505
 30
0.0
 70
    32
  0
VERTEX
  5
1AE86
  8
AM_0
 10
745.37599999999998
 20
568.49800000000005
 30
0.0
 70
    32
  0
VERTEX
  5
1AE87
  8
AM_0
 10
745.39199999999994
 20
568.49099999999999
 30
0.0
 70
    32
  0
VERTEX
  5
1AE88
  8
AM_0
 10
745.40699999999993
 20
568.48400000000004
 30
0.0
 70
    32
  0
VERTEX
  5
1AE89
  8
AM_0
 10
745.42200000000003
 20
568.47699999999986
 30
0.0
 70
    32
  0
VERTEX
  5
1AE8A
  8
AM_0
 10
745.4369999999999
 20
568.46900000000005
 30
0.0
 70
    32
  0
VERTEX
  5
1AE8B
  8
AM_0
 10
745.45299999999997
 20
568.46199999999988
 30
0.0
 70
    32
  0
VERTEX
  5
1AE8C
  8
AM_0
 10
745.46799999999996
 20
568.45400000000006
 30
0.0
 70
    32
  0
VERTEX
  5
1AE8D
  8
AM_0
 10
745.48300000000006
 20
568.447
 30
0.0
 70
    32
  0
VERTEX
  5
1AE8E
  8
AM_0
 10
745.49800000000005
 20
568.43899999999985
 30
0.0
 70
    32
  0
VERTEX
  5
1AE8F
  8
AM_0
 10
745.51300000000003
 20
568.43100000000004
 30
0.0
 70
    32
  0
VERTEX
  5
1AE90
  8
AM_0
 10
745.52800000000002
 20
568.423
 30
0.0
 70
    32
  0
VERTEX
  5
1AE91
  8
AM_0
 10
745.54299999999989
 20
568.41499999999985
 30
0.0
 70
    32
  0
VERTEX
  5
1AE92
  8
AM_0
 10
745.55799999999999
 20
568.40699999999993
 30
0.0
 70
    32
  0
VERTEX
  5
1AE93
  8
AM_0
 10
745.57299999999987
 20
568.399
 30
0.0
 70
    32
  0
VERTEX
  5
1AE94
  8
AM_0
 10
745.58799999999997
 20
568.39099999999996
 30
0.0
 70
    32
  0
VERTEX
  5
1AE95
  8
AM_0
 10
745.60199999999986
 20
568.38300000000004
 30
0.0
 70
    32
  0
VERTEX
  5
1AE96
  8
AM_0
 10
745.61699999999996
 20
568.37400000000002
 30
0.0
 70
    32
  0
VERTEX
  5
1AE97
  8
AM_0
 10
745.63199999999995
 20
568.36599999999987
 30
0.0
 70
    32
  0
VERTEX
  5
1AE98
  8
AM_0
 10
745.64699999999993
 20
568.35699999999986
 30
0.0
 70
    32
  0
VERTEX
  5
1AE99
  8
AM_0
 10
745.66099999999994
 20
568.34900000000005
 30
0.0
 70
    32
  0
VERTEX
  5
1AE9A
  8
AM_0
 10
745.67600000000004
 20
568.34000000000003
 30
0.0
 70
    32
  0
VERTEX
  5
1AE9B
  8
AM_0
 10
745.69000000000005
 20
568.33100000000002
 30
0.0
 70
    32
  0
VERTEX
  5
1AE9C
  8
AM_0
 10
745.70500000000004
 20
568.322
 30
0.0
 70
    32
  0
VERTEX
  5
1AE9D
  8
AM_0
 10
745.71899999999994
 20
568.31299999999999
 30
0.0
 70
    32
  0
VERTEX
  5
1AE9E
  8
AM_0
 10
745.73299999999995
 20
568.30399999999997
 30
0.0
 70
    32
  0
VERTEX
  5
1AE9F
  8
AM_0
 10
745.74800000000005
 20
568.29499999999985
 30
0.0
 70
    32
  0
VERTEX
  5
1AEA0
  8
AM_0
 10
745.76199999999994
 20
568.28599999999994
 30
0.0
 70
    32
  0
VERTEX
  5
1AEA1
  8
AM_0
 10
745.77599999999995
 20
568.27699999999993
 30
0.0
 70
    32
  0
VERTEX
  5
1AEA2
  8
AM_0
 10
745.78999999999985
 20
568.26800000000003
 30
0.0
 70
    32
  0
VERTEX
  5
1AEA3
  8
AM_0
 10
745.80399999999986
 20
568.25800000000004
 30
0.0
 70
    32
  0
VERTEX
  5
1AEA4
  8
AM_0
 10
745.81799999999987
 20
568.24900000000002
 30
0.0
 70
    32
  0
VERTEX
  5
1AEA5
  8
AM_0
 10
745.83199999999999
 20
568.23900000000003
 30
0.0
 70
    32
  0
VERTEX
  5
1AEA6
  8
AM_0
 10
745.846
 20
568.22900000000004
 30
0.0
 70
    32
  0
VERTEX
  5
1AEA7
  8
AM_0
 10
745.86000000000001
 20
568.22000000000003
 30
0.0
 70
    32
  0
VERTEX
  5
1AEA8
  8
AM_0
 10
745.8739999999998
 20
568.21000000000004
 30
0.0
 70
    32
  0
VERTEX
  5
1AEA9
  8
AM_0
 10
745.88699999999994
 20
568.20000000000005
 30
0.0
 70
    32
  0
VERTEX
  5
1AEAA
  8
AM_0
 10
745.90100000000007
 20
568.19000000000005
 30
0.0
 70
    32
  0
VERTEX
  5
1AEAB
  8
AM_0
 10
745.91499999999996
 20
568.17999999999995
 30
0.0
 70
    32
  0
VERTEX
  5
1AEAC
  8
AM_0
 10
745.92799999999988
 20
568.16999999999985
 30
0.0
 70
    32
  0
VERTEX
  5
1AEAD
  8
AM_0
 10
745.94200000000001
 20
568.15999999999985
 30
0.0
 70
    32
  0
VERTEX
  5
1AEAE
  8
AM_0
 10
745.95500000000004
 20
568.149
 30
0.0
 70
    32
  0
VERTEX
  5
1AEAF
  8
AM_0
 10
745.96899999999994
 20
568.13900000000001
 30
0.0
 70
    32
  0
VERTEX
  5
1AEB0
  8
AM_0
 10
745.98199999999986
 20
568.12900000000002
 30
0.0
 70
    32
  0
VERTEX
  5
1AEB1
  8
AM_0
 10
745.995
 20
568.11800000000005
 30
0.0
 70
    32
  0
VERTEX
  5
1AEB2
  8
AM_0
 10
746.0089999999999
 20
568.10699999999997
 30
0.0
 70
    32
  0
VERTEX
  5
1AEB3
  8
AM_0
 10
746.02199999999993
 20
568.09699999999998
 30
0.0
 70
    32
  0
VERTEX
  5
1AEB4
  8
AM_0
 10
746.03499999999997
 20
568.08600000000001
 30
0.0
 70
    32
  0
VERTEX
  5
1AEB5
  8
AM_0
 10
746.048
 20
568.07500000000005
 30
0.0
 70
    32
  0
VERTEX
  5
1AEB6
  8
AM_0
 10
746.06100000000004
 20
568.06399999999985
 30
0.0
 70
    32
  0
VERTEX
  5
1AEB7
  8
AM_0
 10
746.07399999999996
 20
568.053
 30
0.0
 70
    32
  0
VERTEX
  5
1AEB8
  8
AM_0
 10
746.08699999999988
 20
568.0419999999998
 30
0.0
 70
    32
  0
VERTEX
  5
1AEB9
  8
AM_0
 10
746.10000000000002
 20
568.03099999999995
 30
0.0
 70
    32
  0
VERTEX
  5
1AEBA
  8
AM_0
 10
746.11199999999997
 20
568.01999999999998
 30
0.0
 70
    32
  0
SEQEND
  5
1AEBB
  8
AM_0
  0
POLYLINE
  5
19743
  8
AM_0
 66
     1
 10
0.0
 20
0.0
 30
0.0
 70
     8
  0
VERTEX
  5
1AEBC
  8
AM_0
 10
748.09699999999998
 20
567.26999999999987
 30
0.0
 70
    32
  0
VERTEX
  5
1AEBD
  8
AM_0
 10
748.08000000000004
 20
567.26999999999987
 30
0.0
 70
    32
  0
VERTEX
  5
1AEBE
  8
AM_0
 10
748.06299999999987
 20
567.26999999999987
 30
0.0
 70
    32
  0
VERTEX
  5
1AEBF
  8
AM_0
 10
748.04600000000005
 20
567.27099999999984
 30
0.0
 70
    32
  0
VERTEX
  5
1AEC0
  8
AM_0
 10
748.029
 20
567.27099999999984
 30
0.0
 70
    32
  0
VERTEX
  5
1AEC1
  8
AM_0
 10
748.01199999999994
 20
567.27099999999984
 30
0.0
 70
    32
  0
VERTEX
  5
1AEC2
  8
AM_0
 10
747.995
 20
567.27199999999993
 30
0.0
 70
    32
  0
VERTEX
  5
1AEC3
  8
AM_0
 10
747.97799999999995
 20
567.27199999999993
 30
0.0
 70
    32
  0
VERTEX
  5
1AEC4
  8
AM_0
 10
747.96100000000001
 20
567.27300000000002
 30
0.0
 70
    32
  0
VERTEX
  5
1AEC5
  8
AM_0
 10
747.94399999999985
 20
567.274
 30
0.0
 70
    32
  0
VERTEX
  5
1AEC6
  8
AM_0
 10
747.92700000000002
 20
567.27499999999986
 30
0.0
 70
    32
  0
VERTEX
  5
1AEC7
  8
AM_0
 10
747.90999999999985
 20
567.27599999999995
 30
0.0
 70
    32
  0
VERTEX
  5
1AEC8
  8
AM_0
 10
747.89300000000003
 20
567.27699999999982
 30
0.0
 70
    32
  0
VERTEX
  5
1AEC9
  8
AM_0
 10
747.87699999999995
 20
567.27800000000002
 30
0.0
 70
    32
  0
VERTEX
  5
1AECA
  8
AM_0
 10
747.86000000000001
 20
567.27899999999988
 30
0.0
 70
    32
  0
VERTEX
  5
1AECB
  8
AM_0
 10
747.84300000000007
 20
567.28099999999995
 30
0.0
 70
    32
  0
VERTEX
  5
1AECC
  8
AM_0
 10
747.82600000000002
 20
567.28199999999993
 30
0.0
 70
    32
  0
VERTEX
  5
1AECD
  8
AM_0
 10
747.80899999999986
 20
567.28399999999988
 30
0.0
 70
    32
  0
VERTEX
  5
1AECE
  8
AM_0
 10
747.79199999999992
 20
567.28599999999994
 30
0.0
 70
    32
  0
VERTEX
  5
1AECF
  8
AM_0
 10
747.77499999999998
 20
567.28699999999992
 30
0.0
 70
    32
  0
VERTEX
  5
1AED0
  8
AM_0
 10
747.7589999999999
 20
567.28899999999987
 30
0.0
 70
    32
  0
VERTEX
  5
1AED1
  8
AM_0
 10
747.74199999999985
 20
567.29099999999994
 30
0.0
 70
    32
  0
VERTEX
  5
1AED2
  8
AM_0
 10
747.72500000000002
 20
567.29300000000001
 30
0.0
 70
    32
  0
VERTEX
  5
1AED3
  8
AM_0
 10
747.70799999999997
 20
567.29499999999985
 30
0.0
 70
    32
  0
VERTEX
  5
1AED4
  8
AM_0
 10
747.69100000000003
 20
567.29799999999989
 30
0.0
 70
    32
  0
VERTEX
  5
1AED5
  8
AM_0
 10
747.67499999999995
 20
567.29999999999995
 30
0.0
 70
    32
  0
VERTEX
  5
1AED6
  8
AM_0
 10
747.65800000000002
 20
567.30200000000002
 30
0.0
 70
    32
  0
VERTEX
  5
1AED7
  8
AM_0
 10
747.64100000000008
 20
567.30499999999995
 30
0.0
 70
    32
  0
VERTEX
  5
1AED8
  8
AM_0
 10
747.6239999999998
 20
567.30799999999988
 30
0.0
 70
    32
  0
VERTEX
  5
1AED9
  8
AM_0
 10
747.60799999999995
 20
567.30999999999995
 30
0.0
 70
    32
  0
VERTEX
  5
1AEDA
  8
AM_0
 10
747.59099999999989
 20
567.31299999999987
 30
0.0
 70
    32
  0
VERTEX
  5
1AEDB
  8
AM_0
 10
747.57399999999996
 20
567.31600000000003
 30
0.0
 70
    32
  0
VERTEX
  5
1AEDC
  8
AM_0
 10
747.55700000000002
 20
567.31899999999985
 30
0.0
 70
    32
  0
VERTEX
  5
1AEDD
  8
AM_0
 10
747.54100000000005
 20
567.32199999999989
 30
0.0
 70
    32
  0
VERTEX
  5
1AEDE
  8
AM_0
 10
747.52399999999989
 20
567.32500000000005
 30
0.0
 70
    32
  0
VERTEX
  5
1AEDF
  8
AM_0
 10
747.50800000000004
 20
567.32799999999997
 30
0.0
 70
    32
  0
VERTEX
  5
1AEE0
  8
AM_0
 10
747.4910000000001
 20
567.33199999999999
 30
0.0
 70
    32
  0
VERTEX
  5
1AEE1
  8
AM_0
 10
747.47399999999993
 20
567.33500000000004
 30
0.0
 70
    32
  0
VERTEX
  5
1AEE2
  8
AM_0
 10
747.45800000000008
 20
567.33900000000006
 30
0.0
 70
    32
  0
VERTEX
  5
1AEE3
  8
AM_0
 10
747.44100000000003
 20
567.34299999999996
 30
0.0
 70
    32
  0
VERTEX
  5
1AEE4
  8
AM_0
 10
747.42499999999995
 20
567.346
 30
0.0
 70
    32
  0
VERTEX
  5
1AEE5
  8
AM_0
 10
747.40800000000002
 20
567.35000000000002
 30
0.0
 70
    32
  0
VERTEX
  5
1AEE6
  8
AM_0
 10
747.39199999999994
 20
567.35400000000004
 30
0.0
 70
    32
  0
VERTEX
  5
1AEE7
  8
AM_0
 10
747.37499999999989
 20
567.35799999999995
 30
0.0
 70
    32
  0
VERTEX
  5
1AEE8
  8
AM_0
 10
747.35899999999992
 20
567.36199999999985
 30
0.0
 70
    32
  0
VERTEX
  5
1AEE9
  8
AM_0
 10
747.34199999999987
 20
567.36599999999987
 30
0.0
 70
    32
  0
VERTEX
  5
1AEEA
  8
AM_0
 10
747.32600000000002
 20
567.37099999999987
 30
0.0
 70
    32
  0
VERTEX
  5
1AEEB
  8
AM_0
 10
747.30999999999995
 20
567.375
 30
0.0
 70
    32
  0
VERTEX
  5
1AEEC
  8
AM_0
 10
747.29299999999989
 20
567.37999999999988
 30
0.0
 70
    32
  0
VERTEX
  5
1AEED
  8
AM_0
 10
747.27699999999993
 20
567.38400000000001
 30
0.0
 70
    32
  0
VERTEX
  5
1AEEE
  8
AM_0
 10
747.26100000000008
 20
567.38900000000001
 30
0.0
 70
    32
  0
VERTEX
  5
1AEEF
  8
AM_0
 10
747.245
 20
567.39399999999989
 30
0.0
 70
    32
  0
VERTEX
  5
1AEF0
  8
AM_0
 10
747.22799999999995
 20
567.39800000000002
 30
0.0
 70
    32
  0
VERTEX
  5
1AEF1
  8
AM_0
 10
747.21199999999999
 20
567.40300000000002
 30
0.0
 70
    32
  0
VERTEX
  5
1AEF2
  8
AM_0
 10
747.19600000000003
 20
567.40800000000002
 30
0.0
 70
    32
  0
VERTEX
  5
1AEF3
  8
AM_0
 10
747.17999999999995
 20
567.41399999999999
 30
0.0
 70
    32
  0
VERTEX
  5
1AEF4
  8
AM_0
 10
747.16399999999987
 20
567.41899999999998
 30
0.0
 70
    32
  0
VERTEX
  5
1AEF5
  8
AM_0
 10
747.14800000000002
 20
567.42399999999998
 30
0.0
 70
    32
  0
VERTEX
  5
1AEF6
  8
AM_0
 10
747.13199999999995
 20
567.42999999999995
 30
0.0
 70
    32
  0
VERTEX
  5
1AEF7
  8
AM_0
 10
747.1160000000001
 20
567.43499999999995
 30
0.0
 70
    32
  0
VERTEX
  5
1AEF8
  8
AM_0
 10
747.10000000000002
 20
567.44100000000003
 30
0.0
 70
    32
  0
VERTEX
  5
1AEF9
  8
AM_0
 10
747.08399999999995
 20
567.44600000000003
 30
0.0
 70
    32
  0
VERTEX
  5
1AEFA
  8
AM_0
 10
747.06799999999987
 20
567.452
 30
0.0
 70
    32
  0
VERTEX
  5
1AEFB
  8
AM_0
 10
747.05200000000002
 20
567.45799999999997
 30
0.0
 70
    32
  0
VERTEX
  5
1AEFC
  8
AM_0
 10
747.03599999999994
 20
567.46400000000006
 30
0.0
 70
    32
  0
VERTEX
  5
1AEFD
  8
AM_0
 10
747.01999999999998
 20
567.47000000000003
 30
0.0
 70
    32
  0
VERTEX
  5
1AEFE
  8
AM_0
 10
747.00399999999991
 20
567.476
 30
0.0
 70
    32
  0
VERTEX
  5
1AEFF
  8
AM_0
 10
746.98899999999992
 20
567.48199999999986
 30
0.0
 70
    32
  0
VERTEX
  5
1AF00
  8
AM_0
 10
746.97300000000007
 20
567.48900000000003
 30
0.0
 70
    32
  0
VERTEX
  5
1AF01
  8
AM_0
 10
746.95699999999999
 20
567.49499999999989
 30
0.0
 70
    32
  0
VERTEX
  5
1AF02
  8
AM_0
 10
746.94100000000003
 20
567.50099999999986
 30
0.0
 70
    32
  0
VERTEX
  5
1AF03
  8
AM_0
 10
746.92600000000004
 20
567.50800000000004
 30
0.0
 70
    32
  0
VERTEX
  5
1AF04
  8
AM_0
 10
746.90999999999997
 20
567.51499999999999
 30
0.0
 70
    32
  0
VERTEX
  5
1AF05
  8
AM_0
 10
746.89499999999987
 20
567.52099999999984
 30
0.0
 70
    32
  0
VERTEX
  5
1AF06
  8
AM_0
 10
746.87899999999991
 20
567.52799999999991
 30
0.0
 70
    32
  0
VERTEX
  5
1AF07
  8
AM_0
 10
746.86399999999992
 20
567.53499999999985
 30
0.0
 70
    32
  0
VERTEX
  5
1AF08
  8
AM_0
 10
746.84799999999996
 20
567.54199999999992
 30
0.0
 70
    32
  0
VERTEX
  5
1AF09
  8
AM_0
 10
746.83299999999997
 20
567.54899999999986
 30
0.0
 70
    32
  0
VERTEX
  5
1AF0A
  8
AM_0
 10
746.81799999999998
 20
567.55600000000004
 30
0.0
 70
    32
  0
VERTEX
  5
1AF0B
  8
AM_0
 10
746.80200000000002
 20
567.56399999999985
 30
0.0
 70
    32
  0
VERTEX
  5
1AF0C
  8
AM_0
 10
746.78699999999992
 20
567.57100000000003
 30
0.0
 70
    32
  0
VERTEX
  5
1AF0D
  8
AM_0
 10
746.77199999999993
 20
567.57799999999986
 30
0.0
 70
    32
  0
VERTEX
  5
1AF0E
  8
AM_0
 10
746.75699999999995
 20
567.58600000000001
 30
0.0
 70
    32
  0
VERTEX
  5
1AF0F
  8
AM_0
 10
746.74199999999985
 20
567.59400000000005
 30
0.0
 70
    32
  0
VERTEX
  5
1AF10
  8
AM_0
 10
746.72600000000011
 20
567.60099999999989
 30
0.0
 70
    32
  0
VERTEX
  5
1AF11
  8
AM_0
 10
746.7109999999999
 20
567.60900000000004
 30
0.0
 70
    32
  0
VERTEX
  5
1AF12
  8
AM_0
 10
746.69600000000003
 20
567.61699999999985
 30
0.0
 70
    32
  0
VERTEX
  5
1AF13
  8
AM_0
 10
746.68100000000004
 20
567.625
 30
0.0
 70
    32
  0
VERTEX
  5
1AF14
  8
AM_0
 10
746.66699999999992
 20
567.63300000000004
 30
0.0
 70
    32
  0
VERTEX
  5
1AF15
  8
AM_0
 10
746.65199999999993
 20
567.64099999999985
 30
0.0
 70
    32
  0
VERTEX
  5
1AF16
  8
AM_0
 10
746.63699999999994
 20
567.649
 30
0.0
 70
    32
  0
VERTEX
  5
1AF17
  8
AM_0
 10
746.62199999999984
 20
567.65699999999993
 30
0.0
 70
    32
  0
VERTEX
  5
1AF18
  8
AM_0
 10
746.60699999999997
 20
567.66599999999994
 30
0.0
 70
    32
  0
VERTEX
  5
1AF19
  8
AM_0
 10
746.59300000000007
 20
567.67399999999986
 30
0.0
 70
    32
  0
VERTEX
  5
1AF1A
  8
AM_0
 10
746.57799999999986
 20
567.68299999999988
 30
0.0
 70
    32
  0
VERTEX
  5
1AF1B
  8
AM_0
 10
746.56299999999987
 20
567.69100000000003
 30
0.0
 70
    32
  0
VERTEX
  5
1AF1C
  8
AM_0
 10
746.54899999999986
 20
567.70000000000005
 30
0.0
 70
    32
  0
VERTEX
  5
1AF1D
  8
AM_0
 10
746.53399999999999
 20
567.70899999999995
 30
0.0
 70
    32
  0
VERTEX
  5
1AF1E
  8
AM_0
 10
746.51999999999998
 20
567.71799999999996
 30
0.0
 70
    32
  0
VERTEX
  5
1AF1F
  8
AM_0
 10
746.50600000000009
 20
567.72699999999998
 30
0.0
 70
    32
  0
VERTEX
  5
1AF20
  8
AM_0
 10
746.4910000000001
 20
567.73599999999999
 30
0.0
 70
    32
  0
VERTEX
  5
1AF21
  8
AM_0
 10
746.47699999999986
 20
567.745
 30
0.0
 70
    32
  0
VERTEX
  5
1AF22
  8
AM_0
 10
746.46299999999997
 20
567.75400000000002
 30
0.0
 70
    32
  0
VERTEX
  5
1AF23
  8
AM_0
 10
746.44899999999996
 20
567.76300000000003
 30
0.0
 70
    32
  0
VERTEX
  5
1AF24
  8
AM_0
 10
746.43399999999986
 20
567.77300000000002
 30
0.0
 70
    32
  0
VERTEX
  5
1AF25
  8
AM_0
 10
746.41999999999985
 20
567.78199999999993
 30
0.0
 70
    32
  0
VERTEX
  5
1AF26
  8
AM_0
 10
746.40599999999995
 20
567.79199999999992
 30
0.0
 70
    32
  0
VERTEX
  5
1AF27
  8
AM_0
 10
746.39199999999994
 20
567.80099999999993
 30
0.0
 70
    32
  0
VERTEX
  5
1AF28
  8
AM_0
 10
746.37800000000004
 20
567.81100000000004
 30
0.0
 70
    32
  0
VERTEX
  5
1AF29
  8
AM_0
 10
746.36500000000001
 20
567.82099999999991
 30
0.0
 70
    32
  0
VERTEX
  5
1AF2A
  8
AM_0
 10
746.35100000000011
 20
567.83000000000004
 30
0.0
 70
    32
  0
VERTEX
  5
1AF2B
  8
AM_0
 10
746.33699999999999
 20
567.84000000000003
 30
0.0
 70
    32
  0
VERTEX
  5
1AF2C
  8
AM_0
 10
746.32299999999998
 20
567.85000000000002
 30
0.0
 70
    32
  0
VERTEX
  5
1AF2D
  8
AM_0
 10
746.30999999999995
 20
567.86000000000001
 30
0.0
 70
    32
  0
VERTEX
  5
1AF2E
  8
AM_0
 10
746.29600000000005
 20
567.87
 30
0.0
 70
    32
  0
VERTEX
  5
1AF2F
  8
AM_0
 10
746.28300000000002
 20
567.88099999999986
 30
0.0
 70
    32
  0
VERTEX
  5
1AF30
  8
AM_0
 10
746.26899999999989
 20
567.89099999999996
 30
0.0
 70
    32
  0
VERTEX
  5
1AF31
  8
AM_0
 10
746.25599999999997
 20
567.90099999999995
 30
0.0
 70
    32
  0
VERTEX
  5
1AF32
  8
AM_0
 10
746.24199999999985
 20
567.91199999999992
 30
0.0
 70
    32
  0
VERTEX
  5
1AF33
  8
AM_0
 10
746.22899999999993
 20
567.92199999999991
 30
0.0
 70
    32
  0
VERTEX
  5
1AF34
  8
AM_0
 10
746.21599999999989
 20
567.93299999999999
 30
0.0
 70
    32
  0
VERTEX
  5
1AF35
  8
AM_0
 10
746.20299999999986
 20
567.94299999999987
 30
0.0
 70
    32
  0
VERTEX
  5
1AF36
  8
AM_0
 10
746.19000000000005
 20
567.95400000000006
 30
0.0
 70
    32
  0
VERTEX
  5
1AF37
  8
AM_0
 10
746.17700000000002
 20
567.96500000000003
 30
0.0
 70
    32
  0
VERTEX
  5
1AF38
  8
AM_0
 10
746.16399999999999
 20
567.97599999999989
 30
0.0
 70
    32
  0
VERTEX
  5
1AF39
  8
AM_0
 10
746.15099999999995
 20
567.98699999999997
 30
0.0
 70
    32
  0
VERTEX
  5
1AF3A
  8
AM_0
 10
746.13800000000003
 20
567.99800000000005
 30
0.0
 70
    32
  0
VERTEX
  5
1AF3B
  8
AM_0
 10
746.12499999999989
 20
568.0089999999999
 30
0.0
 70
    32
  0
VERTEX
  5
1AF3C
  8
AM_0
 10
746.11199999999997
 20
568.01999999999998
 30
0.0
 70
    32
  0
SEQEND
  5
1AF3D
  8
AM_0
  0
LINE
  5
1974B
  8
AM_0
 10
747.09657621507552
 20
577.77029735084875
 30
0.0
 11
759.09657621867552
 21
577.77029735084841
 31
0.0
  0
LINE
  5
1974C
  8
AM_0
 10
747.09657621507642
 20
601.70982372955586
 30
0.0
 11
759.09657621867632
 21
601.70982372955564
 31
0.0
  0
LINE
  5
1974D
  8
AM_0
 10
735.82409927478534
 20
570.59582681610777
 30
0.0
 11
732.64388262214493
 21
606.945869489904
 31
0.0
  0
LINE
  5
19751
  8
AM_0
 10
730.6514932259613
 20
608.77155800440835
 30
0.0
 11
723.57921913457551
 21
608.77155800440835
 31
0.0
  0
ARC
  5
19752
  8
AM_0
 10
723.57921913457562
 20
607.77155800440846
 30
0.0
 40
1.0
 50
90.0
 51
181.0000242476043
1001
GENIUS_GENODEF_13
1002
{
1000
HIER
1070
     0
1002
}
1002
{
1000
MANEDIT
1070
     0
1002
}
1002
{
1000
NOSEL
1070
     0
1002
}
1002
{
1000
BEHIND
1070
     0
1002
}
1002
{
1000
OTHER
1070
     0
1002
}
1002
{
1000
REACTOR
1002
}
1001
GENIUS_GENOBJ-N-FIL_13
1002
{
1000
OWNER
1000
GEN
1002
}
  0
LINE
  5
1975C
  8
AM_0
 10
738.76388654364359
 20
697.77156101464084
 30
0.0
 11
722.97346649775852
 21
697.77156101464084
 31
0.0
  0
LINE
  5
19762
  8
AM_0
 10
747.09657621507768
 20
679.83329097214164
 30
0.0
 11
759.09657621867746
 21
679.8332909721413
 31
0.0
  0
ARC
  5
1976C
  8
AM_0
 10
738.76388654364359
 20
699.77156101464084
 30
0.0
 40
2.0
 50
270.0
 51
355.00000000000023
1001
GENIUS_GENOBJ-N-FIL_13
1002
{
1000
OWNER
1000
GEN
1002
}
1001
GENIUS_GENODEF_13
1002
{
1000
HIER
1070
     0
1002
}
1002
{
1000
MANEDIT
1070
     0
1002
}
1002
{
1000
NOSEL
1070
     0
1002
}
1002
{
1000
BEHIND
1070
     0
1002
}
1002
{
1000
OTHER
1070
     0
1002
}
1002
{
1000
REACTOR
1002
}
  0
LINE
  5
1976D
  8
AM_0
 10
759.09657013900403
 20
714.27303220053682
 30
0.0
 11
748.09657092618363
 21
714.27301280643985
 31
0.0
  0
LINE
  5
1976E
  8
AM_0
 10
747.09657621507768
 20
703.77281735084853
 30
0.0
 11
759.0965762186778
 21
703.77281735084853
 31
0.0
  0
LINE
  5
1976F
  8
AM_0
 10
740.75627593982699
 20
699.59724952914576
 30
0.0
 11
741.74927625510259
 21
710.94729506940473
 31
0.0
  0
ARC
  5
19770
  8
AM_0
 10
743.74166565128633
 20
710.77298358390931
 30
0.0
 40
2.0
 50
90.000069466672116
 51
175.00000000000031
1001
GENIUS_GENOBJ-N-FIL_13
1002
{
1000
OWNER
1000
GEN
1002
}
1001
GENIUS_GENODEF_13
1002
{
1000
HIER
1070
     0
1002
}
1002
{
1000
MANEDIT
1070
     0
1002
}
1002
{
1000
NOSEL
1070
     0
1002
}
1002
{
1000
BEHIND
1070
     0
1002
}
1002
{
1000
OTHER
1070
     0
1002
}
1002
{
1000
REACTOR
1002
}
  0
POLYLINE
  5
19771
  8
AM_0
 66
     1
 10
0.0
 20
0.0
 30
0.0
 70
     8
  0
VERTEX
  5
1AF3E
  8
AM_0
 10
746.11199999999997
 20
713.52299999999991
 30
0.0
 70
    32
  0
VERTEX
  5
1AF3F
  8
AM_0
 10
746.10000000000002
 20
713.51199999999994
 30
0.0
 70
    32
  0
VERTEX
  5
1AF40
  8
AM_0
 10
746.08699999999988
 20
713.50100000000009
 30
0.0
 70
    32
  0
VERTEX
  5
1AF41
  8
AM_0
 10
746.07399999999996
 20
713.49000000000001
 30
0.0
 70
    32
  0
VERTEX
  5
1AF42
  8
AM_0
 10
746.06100000000004
 20
713.47899999999993
 30
0.0
 70
    32
  0
VERTEX
  5
1AF43
  8
AM_0
 10
746.048
 20
713.46800000000007
 30
0.0
 70
    32
  0
VERTEX
  5
1AF44
  8
AM_0
 10
746.03499999999997
 20
713.45699999999999
 30
0.0
 70
    32
  0
VERTEX
  5
1AF45
  8
AM_0
 10
746.02199999999993
 20
713.44600000000003
 30
0.0
 70
    32
  0
VERTEX
  5
1AF46
  8
AM_0
 10
746.0089999999999
 20
713.43600000000004
 30
0.0
 70
    32
  0
VERTEX
  5
1AF47
  8
AM_0
 10
745.995
 20
713.42499999999995
 30
0.0
 70
    32
  0
VERTEX
  5
1AF48
  8
AM_0
 10
745.98199999999986
 20
713.41499999999985
 30
0.0
 70
    32
  0
VERTEX
  5
1AF49
  8
AM_0
 10
745.96899999999994
 20
713.40399999999988
 30
0.0
 70
    32
  0
VERTEX
  5
1AF4A
  8
AM_0
 10
745.95500000000004
 20
713.39399999999989
 30
0.0
 70
    32
  0
VERTEX
  5
1AF4B
  8
AM_0
 10
745.94200000000001
 20
713.3839999999999
 30
0.0
 70
    32
  0
VERTEX
  5
1AF4C
  8
AM_0
 10
745.92799999999988
 20
713.37300000000005
 30
0.0
 70
    32
  0
VERTEX
  5
1AF4D
  8
AM_0
 10
745.91499999999996
 20
713.36300000000006
 30
0.0
 70
    32
  0
VERTEX
  5
1AF4E
  8
AM_0
 10
745.90100000000007
 20
713.35299999999995
 30
0.0
 70
    32
  0
VERTEX
  5
1AF4F
  8
AM_0
 10
745.88699999999994
 20
713.34299999999996
 30
0.0
 70
    32
  0
VERTEX
  5
1AF50
  8
AM_0
 10
745.8739999999998
 20
713.33299999999997
 30
0.0
 70
    32
  0
VERTEX
  5
1AF51
  8
AM_0
 10
745.86000000000001
 20
713.32299999999998
 30
0.0
 70
    32
  0
VERTEX
  5
1AF52
  8
AM_0
 10
745.846
 20
713.31399999999996
 30
0.0
 70
    32
  0
VERTEX
  5
1AF53
  8
AM_0
 10
745.83199999999999
 20
713.30399999999997
 30
0.0
 70
    32
  0
VERTEX
  5
1AF54
  8
AM_0
 10
745.81799999999987
 20
713.29399999999987
 30
0.0
 70
    32
  0
VERTEX
  5
1AF55
  8
AM_0
 10
745.80399999999986
 20
713.28499999999985
 30
0.0
 70
    32
  0
VERTEX
  5
1AF56
  8
AM_0
 10
745.78999999999985
 20
713.27600000000007
 30
0.0
 70
    32
  0
VERTEX
  5
1AF57
  8
AM_0
 10
745.77599999999995
 20
713.26600000000008
 30
0.0
 70
    32
  0
VERTEX
  5
1AF58
  8
AM_0
 10
745.76199999999994
 20
713.25699999999995
 30
0.0
 70
    32
  0
VERTEX
  5
1AF59
  8
AM_0
 10
745.74800000000005
 20
713.24800000000005
 30
0.0
 70
    32
  0
VERTEX
  5
1AF5A
  8
AM_0
 10
745.73299999999995
 20
713.23899999999992
 30
0.0
 70
    32
  0
VERTEX
  5
1AF5B
  8
AM_0
 10
745.71899999999994
 20
713.23000000000002
 30
0.0
 70
    32
  0
VERTEX
  5
1AF5C
  8
AM_0
 10
745.70500000000004
 20
713.221
 30
0.0
 70
    32
  0
VERTEX
  5
1AF5D
  8
AM_0
 10
745.69000000000005
 20
713.21199999999999
 30
0.0
 70
    32
  0
VERTEX
  5
1AF5E
  8
AM_0
 10
745.67600000000004
 20
713.20299999999997
 30
0.0
 70
    32
  0
VERTEX
  5
1AF5F
  8
AM_0
 10
745.66099999999994
 20
713.19399999999996
 30
0.0
 70
    32
  0
VERTEX
  5
1AF60
  8
AM_0
 10
745.64699999999993
 20
713.18600000000004
 30
0.0
 70
    32
  0
VERTEX
  5
1AF61
  8
AM_0
 10
745.63199999999995
 20
713.17700000000002
 30
0.0
 70
    32
  0
VERTEX
  5
1AF62
  8
AM_0
 10
745.61699999999996
 20
713.16899999999987
 30
0.0
 70
    32
  0
VERTEX
  5
1AF63
  8
AM_0
 10
745.60199999999986
 20
713.15999999999985
 30
0.0
 70
    32
  0
VERTEX
  5
1AF64
  8
AM_0
 10
745.58799999999997
 20
713.15199999999993
 30
0.0
 70
    32
  0
VERTEX
  5
1AF65
  8
AM_0
 10
745.57299999999987
 20
713.14399999999978
 30
0.0
 70
    32
  0
VERTEX
  5
1AF66
  8
AM_0
 10
745.55799999999999
 20
713.13599999999997
 30
0.0
 70
    32
  0
VERTEX
  5
1AF67
  8
AM_0
 10
745.54299999999989
 20
713.12800000000004
 30
0.0
 70
    32
  0
VERTEX
  5
1AF68
  8
AM_0
 10
745.52800000000002
 20
713.11999999999989
 30
0.0
 70
    32
  0
VERTEX
  5
1AF69
  8
AM_0
 10
745.51300000000003
 20
713.11199999999997
 30
0.0
 70
    32
  0
VERTEX
  5
1AF6A
  8
AM_0
 10
745.49800000000005
 20
713.10399999999993
 30
0.0
 70
    32
  0
VERTEX
  5
1AF6B
  8
AM_0
 10
745.48300000000006
 20
713.09599999999989
 30
0.0
 70
    32
  0
VERTEX
  5
1AF6C
  8
AM_0
 10
745.46799999999996
 20
713.08899999999994
 30
0.0
 70
    32
  0
VERTEX
  5
1AF6D
  8
AM_0
 10
745.45299999999997
 20
713.08100000000002
 30
0.0
 70
    32
  0
VERTEX
  5
1AF6E
  8
AM_0
 10
745.4369999999999
 20
713.07399999999996
 30
0.0
 70
    32
  0
VERTEX
  5
1AF6F
  8
AM_0
 10
745.42200000000003
 20
713.06700000000001
 30
0.0
 70
    32
  0
VERTEX
  5
1AF70
  8
AM_0
 10
745.40699999999993
 20
713.05899999999986
 30
0.0
 70
    32
  0
VERTEX
  5
1AF71
  8
AM_0
 10
745.39199999999994
 20
713.05200000000002
 30
0.0
 70
    32
  0
VERTEX
  5
1AF72
  8
AM_0
 10
745.37599999999998
 20
713.04499999999985
 30
0.0
 70
    32
  0
VERTEX
  5
1AF73
  8
AM_0
 10
745.3610000000001
 20
713.03800000000001
 30
0.0
 70
    32
  0
VERTEX
  5
1AF74
  8
AM_0
 10
745.34500000000003
 20
713.03099999999995
 30
0.0
 70
    32
  0
VERTEX
  5
1AF75
  8
AM_0
 10
745.33000000000004
 20
713.02399999999977
 30
0.0
 70
    32
  0
VERTEX
  5
1AF76
  8
AM_0
 10
745.31399999999985
 20
713.01800000000003
 30
0.0
 70
    32
  0
VERTEX
  5
1AF77
  8
AM_0
 10
745.29899999999986
 20
713.01100000000008
 30
0.0
 70
    32
  0
VERTEX
  5
1AF78
  8
AM_0
 10
745.28300000000002
 20
713.00399999999991
 30
0.0
 70
    32
  0
VERTEX
  5
1AF79
  8
AM_0
 10
745.26699999999994
 20
712.99800000000005
 30
0.0
 70
    32
  0
VERTEX
  5
1AF7A
  8
AM_0
 10
745.25199999999995
 20
712.9910000000001
 30
0.0
 70
    32
  0
VERTEX
  5
1AF7B
  8
AM_0
 10
745.2360000000001
 20
712.98500000000001
 30
0.0
 70
    32
  0
VERTEX
  5
1AF7C
  8
AM_0
 10
745.22000000000003
 20
712.97899999999993
 30
0.0
 70
    32
  0
VERTEX
  5
1AF7D
  8
AM_0
 10
745.20399999999995
 20
712.97300000000007
 30
0.0
 70
    32
  0
VERTEX
  5
1AF7E
  8
AM_0
 10
745.18899999999985
 20
712.96699999999987
 30
0.0
 70
    32
  0
VERTEX
  5
1AF7F
  8
AM_0
 10
745.173
 20
712.96100000000001
 30
0.0
 70
    32
  0
VERTEX
  5
1AF80
  8
AM_0
 10
745.15699999999993
 20
712.95500000000004
 30
0.0
 70
    32
  0
VERTEX
  5
1AF81
  8
AM_0
 10
745.14099999999996
 20
712.94899999999996
 30
0.0
 70
    32
  0
VERTEX
  5
1AF82
  8
AM_0
 10
745.12499999999989
 20
712.94399999999985
 30
0.0
 70
    32
  0
VERTEX
  5
1AF83
  8
AM_0
 10
745.10899999999992
 20
712.93799999999999
 30
0.0
 70
    32
  0
VERTEX
  5
1AF84
  8
AM_0
 10
745.09299999999996
 20
712.9319999999999
 30
0.0
 70
    32
  0
VERTEX
  5
1AF85
  8
AM_0
 10
745.077
 20
712.92699999999991
 30
0.0
 70
    32
  0
VERTEX
  5
1AF86
  8
AM_0
 10
745.06100000000004
 20
712.92200000000003
 30
0.0
 70
    32
  0
VERTEX
  5
1AF87
  8
AM_0
 10
745.04499999999996
 20
712.91600000000005
 30
0.0
 70
    32
  0
VERTEX
  5
1AF88
  8
AM_0
 10
745.02899999999988
 20
712.91099999999994
 30
0.0
 70
    32
  0
VERTEX
  5
1AF89
  8
AM_0
 10
745.01199999999994
 20
712.90599999999995
 30
0.0
 70
    32
  0
VERTEX
  5
1AF8A
  8
AM_0
 10
744.99599999999998
 20
712.90099999999995
 30
0.0
 70
    32
  0
VERTEX
  5
1AF8B
  8
AM_0
 10
744.98000000000002
 20
712.89699999999993
 30
0.0
 70
    32
  0
VERTEX
  5
1AF8C
  8
AM_0
 10
744.96399999999994
 20
712.89199999999994
 30
0.0
 70
    32
  0
VERTEX
  5
1AF8D
  8
AM_0
 10
744.94699999999989
 20
712.88699999999994
 30
0.0
 70
    32
  0
VERTEX
  5
1AF8E
  8
AM_0
 10
744.93100000000004
 20
712.88199999999995
 30
0.0
 70
    32
  0
VERTEX
  5
1AF8F
  8
AM_0
 10
744.91499999999985
 20
712.87800000000004
 30
0.0
 70
    32
  0
VERTEX
  5
1AF90
  8
AM_0
 10
744.89800000000002
 20
712.87399999999991
 30
0.0
 70
    32
  0
VERTEX
  5
1AF91
  8
AM_0
 10
744.88199999999995
 20
712.8689999999998
 30
0.0
 70
    32
  0
VERTEX
  5
1AF92
  8
AM_0
 10
744.8660000000001
 20
712.86500000000001
 30
0.0
 70
    32
  0
VERTEX
  5
1AF93
  8
AM_0
 10
744.84899999999993
 20
712.8610000000001
 30
0.0
 70
    32
  0
VERTEX
  5
1AF94
  8
AM_0
 10
744.83300000000008
 20
712.85699999999986
 30
0.0
 70
    32
  0
VERTEX
  5
1AF95
  8
AM_0
 10
744.81600000000003
 20
712.85299999999995
 30
0.0
 70
    32
  0
VERTEX
  5
1AF96
  8
AM_0
 10
744.79999999999995
 20
712.84899999999993
 30
0.0
 70
    32
  0
VERTEX
  5
1AF97
  8
AM_0
 10
744.78300000000002
 20
712.84500000000003
 30
0.0
 70
    32
  0
VERTEX
  5
1AF98
  8
AM_0
 10
744.76699999999994
 20
712.84199999999998
 30
0.0
 70
    32
  0
VERTEX
  5
1AF99
  8
AM_0
 10
744.74999999999989
 20
712.83799999999997
 30
0.0
 70
    32
  0
VERTEX
  5
1AF9A
  8
AM_0
 10
744.73399999999992
 20
712.83500000000004
 30
0.0
 70
    32
  0
VERTEX
  5
1AF9B
  8
AM_0
 10
744.71699999999987
 20
712.8309999999999
 30
0.0
 70
    32
  0
VERTEX
  5
1AF9C
  8
AM_0
 10
744.70000000000005
 20
712.82799999999997
 30
0.0
 70
    32
  0
VERTEX
  5
1AF9D
  8
AM_0
 10
744.68399999999986
 20
712.82500000000005
 30
0.0
 70
    32
  0
VERTEX
  5
1AF9E
  8
AM_0
 10
744.66699999999992
 20
712.82199999999989
 30
0.0
 70
    32
  0
VERTEX
  5
1AF9F
  8
AM_0
 10
744.64999999999998
 20
712.81899999999996
 30
0.0
 70
    32
  0
VERTEX
  5
1AFA0
  8
AM_0
 10
744.6339999999999
 20
712.81600000000003
 30
0.0
 70
    32
  0
VERTEX
  5
1AFA1
  8
AM_0
 10
744.61699999999985
 20
712.81299999999987
 30
0.0
 70
    32
  0
VERTEX
  5
1AFA2
  8
AM_0
 10
744.60000000000002
 20
712.80999999999995
 30
0.0
 70
    32
  0
VERTEX
  5
1AFA3
  8
AM_0
 10
744.58399999999995
 20
712.80799999999988
 30
0.0
 70
    32
  0
VERTEX
  5
1AFA4
  8
AM_0
 10
744.56699999999989
 20
712.80499999999995
 30
0.0
 70
    32
  0
VERTEX
  5
1AFA5
  8
AM_0
 10
744.54999999999995
 20
712.80299999999988
 30
0.0
 70
    32
  0
VERTEX
  5
1AFA6
  8
AM_0
 10
744.53300000000002
 20
712.79999999999995
 30
0.0
 70
    32
  0
VERTEX
  5
1AFA7
  8
AM_0
 10
744.51600000000008
 20
712.79799999999989
 30
0.0
 70
    32
  0
VERTEX
  5
1AFA8
  8
AM_0
 10
744.5
 20
712.79600000000005
 30
0.0
 70
    32
  0
VERTEX
  5
1AFA9
  8
AM_0
 10
744.48299999999995
 20
712.79399999999987
 30
0.0
 70
    32
  0
VERTEX
  5
1AFAA
  8
AM_0
 10
744.46599999999989
 20
712.79199999999992
 30
0.0
 70
    32
  0
VERTEX
  5
1AFAB
  8
AM_0
 10
744.44899999999996
 20
712.78999999999985
 30
0.0
 70
    32
  0
VERTEX
  5
1AFAC
  8
AM_0
 10
744.43200000000002
 20
712.78800000000001
 30
0.0
 70
    32
  0
VERTEX
  5
1AFAD
  8
AM_0
 10
744.41499999999985
 20
712.78699999999992
 30
0.0
 70
    32
  0
VERTEX
  5
1AFAE
  8
AM_0
 10
744.39899999999989
 20
712.78499999999985
 30
0.0
 70
    32
  0
VERTEX
  5
1AFAF
  8
AM_0
 10
744.38199999999995
 20
712.78399999999988
 30
0.0
 70
    32
  0
VERTEX
  5
1AFB0
  8
AM_0
 10
744.3649999999999
 20
712.78199999999993
 30
0.0
 70
    32
  0
VERTEX
  5
1AFB1
  8
AM_0
 10
744.34799999999996
 20
712.78100000000006
 30
0.0
 70
    32
  0
VERTEX
  5
1AFB2
  8
AM_0
 10
744.33100000000002
 20
712.77999999999986
 30
0.0
 70
    32
  0
VERTEX
  5
1AFB3
  8
AM_0
 10
744.31399999999985
 20
712.779
 30
0.0
 70
    32
  0
VERTEX
  5
1AFB4
  8
AM_0
 10
744.29700000000003
 20
712.77800000000002
 30
0.0
 70
    32
  0
VERTEX
  5
1AFB5
  8
AM_0
 10
744.27999999999997
 20
712.77699999999993
 30
0.0
 70
    32
  0
VERTEX
  5
1AFB6
  8
AM_0
 10
744.26300000000003
 20
712.77600000000007
 30
0.0
 70
    32
  0
VERTEX
  5
1AFB7
  8
AM_0
 10
744.24600000000009
 20
712.77499999999986
 30
0.0
 70
    32
  0
VERTEX
  5
1AFB8
  8
AM_0
 10
744.23000000000002
 20
712.77499999999986
 30
0.0
 70
    32
  0
VERTEX
  5
1AFB9
  8
AM_0
 10
744.21299999999997
 20
712.77399999999989
 30
0.0
 70
    32
  0
VERTEX
  5
1AFBA
  8
AM_0
 10
744.19600000000003
 20
712.77399999999989
 30
0.0
 70
    32
  0
VERTEX
  5
1AFBB
  8
AM_0
 10
744.17899999999997
 20
712.77300000000002
 30
0.0
 70
    32
  0
VERTEX
  5
1AFBC
  8
AM_0
 10
744.16199999999992
 20
712.77300000000002
 30
0.0
 70
    32
  0
VERTEX
  5
1AFBD
  8
AM_0
 10
744.14499999999987
 20
712.77300000000002
 30
0.0
 70
    32
  0
VERTEX
  5
1AFBE
  8
AM_0
 10
744.12800000000004
 20
712.77300000000002
 30
0.0
 70
    32
  0
SEQEND
  5
1AFBF
  8
AM_0
  0
POLYLINE
  5
19772
  8
AM_0
 66
     1
 10
0.0
 20
0.0
 30
0.0
 70
     8
  0
VERTEX
  5
1AFC0
  8
AM_0
 10
746.11199999999997
 20
713.52299999999991
 30
0.0
 70
    32
  0
VERTEX
  5
1AFC1
  8
AM_0
 10
746.12499999999989
 20
713.53399999999999
 30
0.0
 70
    32
  0
VERTEX
  5
1AFC2
  8
AM_0
 10
746.13800000000003
 20
713.54499999999985
 30
0.0
 70
    32
  0
VERTEX
  5
1AFC3
  8
AM_0
 10
746.15099999999995
 20
713.55600000000004
 30
0.0
 70
    32
  0
VERTEX
  5
1AFC4
  8
AM_0
 10
746.16399999999999
 20
713.56700000000001
 30
0.0
 70
    32
  0
VERTEX
  5
1AFC5
  8
AM_0
 10
746.17700000000002
 20
713.57799999999986
 30
0.0
 70
    32
  0
VERTEX
  5
1AFC6
  8
AM_0
 10
746.19000000000005
 20
713.58899999999994
 30
0.0
 70
    32
  0
VERTEX
  5
1AFC7
  8
AM_0
 10
746.20299999999986
 20
713.60000000000002
 30
0.0
 70
    32
  0
VERTEX
  5
1AFC8
  8
AM_0
 10
746.21599999999989
 20
713.6099999999999
 30
0.0
 70
    32
  0
VERTEX
  5
1AFC9
  8
AM_0
 10
746.22899999999993
 20
713.62100000000009
 30
0.0
 70
    32
  0
VERTEX
  5
1AFCA
  8
AM_0
 10
746.24199999999985
 20
713.63099999999997
 30
0.0
 70
    32
  0
VERTEX
  5
1AFCB
  8
AM_0
 10
746.25599999999997
 20
713.64199999999994
 30
0.0
 70
    32
  0
VERTEX
  5
1AFCC
  8
AM_0
 10
746.26899999999989
 20
713.65199999999993
 30
0.0
 70
    32
  0
VERTEX
  5
1AFCD
  8
AM_0
 10
746.28300000000002
 20
713.66199999999992
 30
0.0
 70
    32
  0
VERTEX
  5
1AFCE
  8
AM_0
 10
746.29600000000005
 20
713.673
 30
0.0
 70
    32
  0
VERTEX
  5
1AFCF
  8
AM_0
 10
746.30999999999995
 20
713.68299999999988
 30
0.0
 70
    32
  0
VERTEX
  5
1AFD0
  8
AM_0
 10
746.32299999999998
 20
713.69299999999987
 30
0.0
 70
    32
  0
VERTEX
  5
1AFD1
  8
AM_0
 10
746.33699999999999
 20
713.70299999999997
 30
0.0
 70
    32
  0
VERTEX
  5
1AFD2
  8
AM_0
 10
746.35100000000011
 20
713.71299999999997
 30
0.0
 70
    32
  0
VERTEX
  5
1AFD3
  8
AM_0
 10
746.36500000000001
 20
713.72299999999996
 30
0.0
 70
    32
  0
VERTEX
  5
1AFD4
  8
AM_0
 10
746.37800000000004
 20
713.73199999999986
 30
0.0
 70
    32
  0
VERTEX
  5
1AFD5
  8
AM_0
 10
746.39199999999994
 20
713.74199999999985
 30
0.0
 70
    32
  0
VERTEX
  5
1AFD6
  8
AM_0
 10
746.40599999999995
 20
713.75199999999995
 30
0.0
 70
    32
  0
VERTEX
  5
1AFD7
  8
AM_0
 10
746.41999999999985
 20
713.76100000000008
 30
0.0
 70
    32
  0
VERTEX
  5
1AFD8
  8
AM_0
 10
746.43399999999986
 20
713.76999999999987
 30
0.0
 70
    32
  0
VERTEX
  5
1AFD9
  8
AM_0
 10
746.44899999999996
 20
713.77999999999986
 30
0.0
 70
    32
  0
VERTEX
  5
1AFDA
  8
AM_0
 10
746.46299999999997
 20
713.78899999999987
 30
0.0
 70
    32
  0
VERTEX
  5
1AFDB
  8
AM_0
 10
746.47699999999986
 20
713.79799999999989
 30
0.0
 70
    32
  0
VERTEX
  5
1AFDC
  8
AM_0
 10
746.4910000000001
 20
713.8069999999999
 30
0.0
 70
    32
  0
VERTEX
  5
1AFDD
  8
AM_0
 10
746.50600000000009
 20
713.81600000000003
 30
0.0
 70
    32
  0
VERTEX
  5
1AFDE
  8
AM_0
 10
746.51999999999998
 20
713.82500000000005
 30
0.0
 70
    32
  0
VERTEX
  5
1AFDF
  8
AM_0
 10
746.53399999999999
 20
713.83399999999995
 30
0.0
 70
    32
  0
VERTEX
  5
1AFE0
  8
AM_0
 10
746.54899999999986
 20
713.84299999999996
 30
0.0
 70
    32
  0
VERTEX
  5
1AFE1
  8
AM_0
 10
746.56299999999987
 20
713.85199999999986
 30
0.0
 70
    32
  0
VERTEX
  5
1AFE2
  8
AM_0
 10
746.57799999999986
 20
713.86000000000001
 30
0.0
 70
    32
  0
VERTEX
  5
1AFE3
  8
AM_0
 10
746.59300000000007
 20
713.86899999999991
 30
0.0
 70
    32
  0
VERTEX
  5
1AFE4
  8
AM_0
 10
746.60699999999997
 20
713.87699999999995
 30
0.0
 70
    32
  0
VERTEX
  5
1AFE5
  8
AM_0
 10
746.62199999999984
 20
713.88600000000008
 30
0.0
 70
    32
  0
VERTEX
  5
1AFE6
  8
AM_0
 10
746.63699999999994
 20
713.89399999999978
 30
0.0
 70
    32
  0
VERTEX
  5
1AFE7
  8
AM_0
 10
746.65199999999993
 20
713.90199999999993
 30
0.0
 70
    32
  0
VERTEX
  5
1AFE8
  8
AM_0
 10
746.66699999999992
 20
713.90999999999997
 30
0.0
 70
    32
  0
VERTEX
  5
1AFE9
  8
AM_0
 10
746.68100000000004
 20
713.91800000000001
 30
0.0
 70
    32
  0
VERTEX
  5
1AFEA
  8
AM_0
 10
746.69600000000003
 20
713.92600000000004
 30
0.0
 70
    32
  0
VERTEX
  5
1AFEB
  8
AM_0
 10
746.7109999999999
 20
713.93399999999986
 30
0.0
 70
    32
  0
VERTEX
  5
1AFEC
  8
AM_0
 10
746.72600000000011
 20
713.94200000000001
 30
0.0
 70
    32
  0
VERTEX
  5
1AFED
  8
AM_0
 10
746.74199999999985
 20
713.95000000000005
 30
0.0
 70
    32
  0
VERTEX
  5
1AFEE
  8
AM_0
 10
746.75699999999995
 20
713.95699999999988
 30
0.0
 70
    32
  0
VERTEX
  5
1AFEF
  8
AM_0
 10
746.77199999999993
 20
713.96500000000003
 30
0.0
 70
    32
  0
VERTEX
  5
1AFF0
  8
AM_0
 10
746.78699999999992
 20
713.97199999999987
 30
0.0
 70
    32
  0
VERTEX
  5
1AFF1
  8
AM_0
 10
746.80200000000002
 20
713.97899999999993
 30
0.0
 70
    32
  0
VERTEX
  5
1AFF2
  8
AM_0
 10
746.81799999999998
 20
713.98699999999997
 30
0.0
 70
    32
  0
VERTEX
  5
1AFF3
  8
AM_0
 10
746.83299999999997
 20
713.99399999999991
 30
0.0
 70
    32
  0
VERTEX
  5
1AFF4
  8
AM_0
 10
746.84799999999996
 20
714.00100000000009
 30
0.0
 70
    32
  0
VERTEX
  5
1AFF5
  8
AM_0
 10
746.86399999999992
 20
714.00800000000004
 30
0.0
 70
    32
  0
VERTEX
  5
1AFF6
  8
AM_0
 10
746.87899999999991
 20
714.01499999999999
 30
0.0
 70
    32
  0
VERTEX
  5
1AFF7
  8
AM_0
 10
746.89499999999987
 20
714.02199999999993
 30
0.0
 70
    32
  0
VERTEX
  5
1AFF8
  8
AM_0
 10
746.90999999999997
 20
714.02800000000002
 30
0.0
 70
    32
  0
VERTEX
  5
1AFF9
  8
AM_0
 10
746.92600000000004
 20
714.03499999999985
 30
0.0
 70
    32
  0
VERTEX
  5
1AFFA
  8
AM_0
 10
746.94100000000003
 20
714.0419999999998
 30
0.0
 70
    32
  0
VERTEX
  5
1AFFB
  8
AM_0
 10
746.95699999999999
 20
714.048
 30
0.0
 70
    32
  0
VERTEX
  5
1AFFC
  8
AM_0
 10
746.97300000000007
 20
714.05499999999995
 30
0.0
 70
    32
  0
VERTEX
  5
1AFFD
  8
AM_0
 10
746.98899999999992
 20
714.06100000000004
 30
0.0
 70
    32
  0
VERTEX
  5
1AFFE
  8
AM_0
 10
747.00399999999991
 20
714.06700000000001
 30
0.0
 70
    32
  0
VERTEX
  5
1AFFF
  8
AM_0
 10
747.01999999999998
 20
714.07299999999987
 30
0.0
 70
    32
  0
VERTEX
  5
1B000
  8
AM_0
 10
747.03599999999994
 20
714.07899999999995
 30
0.0
 70
    32
  0
VERTEX
  5
1B001
  8
AM_0
 10
747.05200000000002
 20
714.08500000000004
 30
0.0
 70
    32
  0
VERTEX
  5
1B002
  8
AM_0
 10
747.06799999999987
 20
714.09099999999989
 30
0.0
 70
    32
  0
VERTEX
  5
1B003
  8
AM_0
 10
747.08399999999995
 20
714.09699999999998
 30
0.0
 70
    32
  0
VERTEX
  5
1B004
  8
AM_0
 10
747.10000000000002
 20
714.10199999999998
 30
0.0
 70
    32
  0
VERTEX
  5
1B005
  8
AM_0
 10
747.1160000000001
 20
714.10799999999995
 30
0.0
 70
    32
  0
VERTEX
  5
1B006
  8
AM_0
 10
747.13199999999995
 20
714.11399999999992
 30
0.0
 70
    32
  0
VERTEX
  5
1B007
  8
AM_0
 10
747.14800000000002
 20
714.11899999999991
 30
0.0
 70
    32
  0
VERTEX
  5
1B008
  8
AM_0
 10
747.16399999999987
 20
714.1239999999998
 30
0.0
 70
    32
  0
VERTEX
  5
1B009
  8
AM_0
 10
747.17999999999995
 20
714.13
 30
0.0
 70
    32
  0
VERTEX
  5
1B00A
  8
AM_0
 10
747.19600000000003
 20
714.13499999999999
 30
0.0
 70
    32
  0
VERTEX
  5
1B00B
  8
AM_0
 10
747.21199999999999
 20
714.13999999999987
 30
0.0
 70
    32
  0
VERTEX
  5
1B00C
  8
AM_0
 10
747.22799999999995
 20
714.14499999999987
 30
0.0
 70
    32
  0
VERTEX
  5
1B00D
  8
AM_0
 10
747.245
 20
714.14899999999989
 30
0.0
 70
    32
  0
VERTEX
  5
1B00E
  8
AM_0
 10
747.26100000000008
 20
714.15399999999988
 30
0.0
 70
    32
  0
VERTEX
  5
1B00F
  8
AM_0
 10
747.27699999999993
 20
714.15899999999988
 30
0.0
 70
    32
  0
VERTEX
  5
1B010
  8
AM_0
 10
747.29299999999989
 20
714.16399999999987
 30
0.0
 70
    32
  0
VERTEX
  5
1B011
  8
AM_0
 10
747.30999999999995
 20
714.16800000000001
 30
0.0
 70
    32
  0
VERTEX
  5
1B012
  8
AM_0
 10
747.32600000000002
 20
714.17200000000003
 30
0.0
 70
    32
  0
VERTEX
  5
1B013
  8
AM_0
 10
747.34199999999987
 20
714.17700000000002
 30
0.0
 70
    32
  0
VERTEX
  5
1B014
  8
AM_0
 10
747.35899999999992
 20
714.18100000000004
 30
0.0
 70
    32
  0
VERTEX
  5
1B015
  8
AM_0
 10
747.37499999999989
 20
714.18499999999995
 30
0.0
 70
    32
  0
VERTEX
  5
1B016
  8
AM_0
 10
747.39199999999994
 20
714.18899999999996
 30
0.0
 70
    32
  0
VERTEX
  5
1B017
  8
AM_0
 10
747.40800000000002
 20
714.19299999999998
 30
0.0
 70
    32
  0
VERTEX
  5
1B018
  8
AM_0
 10
747.42499999999995
 20
714.197
 30
0.0
 70
    32
  0
VERTEX
  5
1B019
  8
AM_0
 10
747.44100000000003
 20
714.20099999999991
 30
0.0
 70
    32
  0
VERTEX
  5
1B01A
  8
AM_0
 10
747.45800000000008
 20
714.20399999999995
 30
0.0
 70
    32
  0
VERTEX
  5
1B01B
  8
AM_0
 10
747.47399999999993
 20
714.20799999999997
 30
0.0
 70
    32
  0
VERTEX
  5
1B01C
  8
AM_0
 10
747.4910000000001
 20
714.21100000000001
 30
0.0
 70
    32
  0
VERTEX
  5
1B01D
  8
AM_0
 10
747.50800000000004
 20
714.21500000000003
 30
0.0
 70
    32
  0
VERTEX
  5
1B01E
  8
AM_0
 10
747.52399999999989
 20
714.21799999999996
 30
0.0
 70
    32
  0
VERTEX
  5
1B01F
  8
AM_0
 10
747.54100000000005
 20
714.221
 30
0.0
 70
    32
  0
VERTEX
  5
1B020
  8
AM_0
 10
747.55700000000002
 20
714.22399999999993
 30
0.0
 70
    32
  0
VERTEX
  5
1B021
  8
AM_0
 10
747.57399999999996
 20
714.22699999999986
 30
0.0
 70
    32
  0
VERTEX
  5
1B022
  8
AM_0
 10
747.59099999999989
 20
714.23000000000002
 30
0.0
 70
    32
  0
VERTEX
  5
1B023
  8
AM_0
 10
747.60799999999995
 20
714.23300000000006
 30
0.0
 70
    32
  0
VERTEX
  5
1B024
  8
AM_0
 10
747.6239999999998
 20
714.23599999999999
 30
0.0
 70
    32
  0
VERTEX
  5
1B025
  8
AM_0
 10
747.64100000000008
 20
714.23800000000006
 30
0.0
 70
    32
  0
VERTEX
  5
1B026
  8
AM_0
 10
747.65800000000002
 20
714.24099999999999
 30
0.0
 70
    32
  0
VERTEX
  5
1B027
  8
AM_0
 10
747.67499999999995
 20
714.24300000000005
 30
0.0
 70
    32
  0
VERTEX
  5
1B028
  8
AM_0
 10
747.69100000000003
 20
714.24599999999998
 30
0.0
 70
    32
  0
VERTEX
  5
1B029
  8
AM_0
 10
747.70799999999997
 20
714.24800000000005
 30
0.0
 70
    32
  0
VERTEX
  5
1B02A
  8
AM_0
 10
747.72500000000002
 20
714.25
 30
0.0
 70
    32
  0
VERTEX
  5
1B02B
  8
AM_0
 10
747.74199999999985
 20
714.25199999999995
 30
0.0
 70
    32
  0
VERTEX
  5
1B02C
  8
AM_0
 10
747.7589999999999
 20
714.25399999999991
 30
0.0
 70
    32
  0
VERTEX
  5
1B02D
  8
AM_0
 10
747.77499999999998
 20
714.25600000000009
 30
0.0
 70
    32
  0
VERTEX
  5
1B02E
  8
AM_0
 10
747.79199999999992
 20
714.25800000000004
 30
0.0
 70
    32
  0
VERTEX
  5
1B02F
  8
AM_0
 10
747.80899999999986
 20
714.2589999999999
 30
0.0
 70
    32
  0
VERTEX
  5
1B030
  8
AM_0
 10
747.82600000000002
 20
714.26100000000008
 30
0.0
 70
    32
  0
VERTEX
  5
1B031
  8
AM_0
 10
747.84300000000007
 20
714.26199999999994
 30
0.0
 70
    32
  0
VERTEX
  5
1B032
  8
AM_0
 10
747.86000000000001
 20
714.2639999999999
 30
0.0
 70
    32
  0
VERTEX
  5
1B033
  8
AM_0
 10
747.87699999999995
 20
714.26499999999987
 30
0.0
 70
    32
  0
VERTEX
  5
1B034
  8
AM_0
 10
747.89300000000003
 20
714.26600000000008
 30
0.0
 70
    32
  0
VERTEX
  5
1B035
  8
AM_0
 10
747.90999999999985
 20
714.26699999999994
 30
0.0
 70
    32
  0
VERTEX
  5
1B036
  8
AM_0
 10
747.92700000000002
 20
714.26800000000003
 30
0.0
 70
    32
  0
VERTEX
  5
1B037
  8
AM_0
 10
747.94399999999985
 20
714.26899999999989
 30
0.0
 70
    32
  0
VERTEX
  5
1B038
  8
AM_0
 10
747.96100000000001
 20
714.26999999999987
 30
0.0
 70
    32
  0
VERTEX
  5
1B039
  8
AM_0
 10
747.97799999999995
 20
714.27100000000007
 30
0.0
 70
    32
  0
VERTEX
  5
1B03A
  8
AM_0
 10
747.995
 20
714.27100000000007
 30
0.0
 70
    32
  0
VERTEX
  5
1B03B
  8
AM_0
 10
748.01199999999994
 20
714.27199999999993
 30
0.0
 70
    32
  0
VERTEX
  5
1B03C
  8
AM_0
 10
748.029
 20
714.27199999999993
 30
0.0
 70
    32
  0
VERTEX
  5
1B03D
  8
AM_0
 10
748.04600000000005
 20
714.27300000000002
 30
0.0
 70
    32
  0
VERTEX
  5
1B03E
  8
AM_0
 10
748.06299999999987
 20
714.27300000000002
 30
0.0
 70
    32
  0
VERTEX
  5
1B03F
  8
AM_0
 10
748.08000000000004
 20
714.27300000000002
 30
0.0
 70
    32
  0
VERTEX
  5
1B040
  8
AM_0
 10
748.09699999999998
 20
714.27300000000002
 30
0.0
 70
    32
  0
SEQEND
  5
1B041
  8
AM_0
  0
LINE
  5
19773
  8
AM_0
 10
744.12795429737105
 20
712.77298405225599
 30
0.0
 11
743.7416632264418
 21
712.77298358390806
 31
0.0
  0
LINE
  5
19777
  8
AM_0
 10
642.59755008379523
 20
704.77156116515243
 30
0.0
 11
642.59755008379523
 21
699.77156101464084
 31
0.0
  0
LINE
  5
19778
  8
AM_0
 10
617.59704963675142
 20
704.77156116515243
 30
0.0
 11
617.59704963675142
 21
709.77156131566403
 31
0.0
  0
LINE
  5
19779
  8
ﾁｭｳｼﾝｾﾝ1
 10
592.59654889167837
 20
530.77155800440835
 30
0.0
 11
592.59654889167837
 21
714.77156131566403
 31
0.0
  0
LINE
  5
1977C
  8
AM_0
 10
519.21990709451563
 20
699.77156101464084
 30
0.0
 11
517.59654663400397
 21
606.77155800440801
 31
0.0
  0
LINE
  5
19781
  8
AM_0
 10
567.59604814660565
 20
704.77156116515243
 30
0.0
 11
567.59604814660565
 21
709.77156131566403
 31
0.0
  0
LINE
  5
19782
  8
AM_0
 10
542.59554769956173
 20
704.77156116515243
 30
0.0
 11
542.59554769956173
 21
702.27156101464084
 31
0.0
  0
LINE
  5
19783
  8
0
 10
520.59684708104794
 20
702.27156101464084
 30
0.0
 11
544.59684708104794
 21
702.27156101464084
 31
0.0
  0
LINE
  5
19784
  8
0
 10
523.59684708104805
 20
714.27156101464084
 30
0.0
 11
541.59684708104794
 21
714.27156101464084
 31
0.0
  0
LINE
  5
19785
  8
0
 10
523.59684708104805
 20
702.27156101464084
 30
0.0
 11
523.59684708104805
 21
714.27156101464084
 31
0.0
  0
LINE
  5
19786
  8
0
 10
520.59684708104794
 20
699.77156101464084
 30
0.0
 11
520.59684708104794
 21
702.27156101464084
 31
0.0
  0
LINE
  5
19787
  8
0
 10
541.59684708104794
 20
714.27156101464084
 30
0.0
 11
541.59684708104794
 21
702.27156101464084
 31
0.0
  0
LINE
  5
19788
  8
0
 10
544.59684708104794
 20
702.27156101464084
 30
0.0
 11
544.59684708104794
 21
699.77156101464084
 31
0.0
  0
LINE
  5
19789
  8
0
 10
695.5965218358665
 20
702.27156101464084
 30
0.0
 11
719.5965218358665
 21
702.27156101464084
 31
0.0
  0
LINE
  5
1978A
  8
0
 10
698.59652183586604
 20
714.27156101464084
 30
0.0
 11
716.5965218358665
 21
714.27156101464084
 31
0.0
  0
LINE
  5
1978B
  8
0
 10
698.59652183586604
 20
702.27156101464084
 30
0.0
 11
698.59652183586604
 21
714.27156101464084
 31
0.0
  0
LINE
  5
1978C
  8
0
 10
695.5965218358665
 20
699.77156101464084
 30
0.0
 11
695.5965218358665
 21
702.27156101464084
 31
0.0
  0
LINE
  5
1978D
  8
0
 10
716.5965218358665
 20
714.27156101464084
 30
0.0
 11
716.5965218358665
 21
702.27156101464084
 31
0.0
  0
LINE
  5
1978E
  8
0
 10
719.5965218358665
 20
702.27156101464084
 30
0.0
 11
719.5965218358665
 21
699.77156101464084
 31
0.0
  0
LINE
  5
1978F
  8
AM_0
 10
345.04498943411107
 20
398.89742339073172
 30
0.0
 11
370.04498943411153
 21
398.89742339073172
 31
0.0
  0
LINE
  5
19790
  8
AM_0
 10
345.04498943411107
 20
237.7105403520741
 30
0.0
 11
370.04498943411153
 21
237.7105403520741
 31
0.0
  0
ARC
  5
19847
  8
AM_0
 10
730.6514932259613
 20
606.77155800440869
 30
0.0
 40
2.0
 50
4.9999999999997371
 51
90.0
1001
GENIUS_GENOBJ-N-FIL_13
1002
{
1000
OWNER
1000
GEN
1002
}
1001
GENIUS_GENODEF_13
1002
{
1000
HIER
1070
     0
1002
}
1002
{
1000
MANEDIT
1070
     0
1002
}
1002
{
1000
NOSEL
1070
     0
1002
}
1002
{
1000
BEHIND
1070
     0
1002
}
1002
{
1000
OTHER
1070
     0
1002
}
1002
{
1000
REACTOR
1002
}
  0
ARC
  5
1984B
  8
AM_0
 10
722.97346649775852
 20
699.77156101464084
 30
0.0
 40
2.0
 50
181.0000242476423
 51
270.0000000000008
1001
GENIUS_GENOBJ-N-FIL_13
1002
{
1000
OWNER
1000
GEN
1002
}
1001
GENIUS_GENODEF_13
1002
{
1000
HIER
1070
     0
1002
}
1002
{
1000
MANEDIT
1070
     0
1002
}
1002
{
1000
NOSEL
1070
     0
1002
}
1002
{
1000
BEHIND
1070
     0
1002
}
1002
{
1000
OTHER
1070
     0
1002
}
1002
{
1000
REACTOR
1002
}
  0
LINE
  5
1985C
  8
AM_0
 10
724.5965222874014
 20
540.77155800440869
 30
0.0
 11
515.5965466340042
 21
540.77155800440835
 31
0.0
  0
LINE
  5
1985D
  8
AM_0
 10
723.84031535315262
 20
565.77155800440869
 30
0.0
 11
516.35549123664919
 21
565.77155800440812
 31
0.0
  0
LINE
  5
1985E
  8
AM_0
 10
517.6001603849877
 20
606.77155800440801
 30
0.0
 11
515.5965466340042
 21
540.77155800440835
 31
0.0
  0
LINE
  5
1985F
  8
AM_0
 10
722.60013598098453
 20
606.77155800440869
 30
0.0
 11
724.5965222874014
 21
540.77155800440869
 31
0.0
  0
LINE
  5
19860
  8
AM_0
 10
538.23816847452883
 20
540.77155800440835
 30
0.0
 11
538.23816847452883
 21
565.77155800440812
 31
0.0
  0
LINE
  5
19861
  8
ﾁｭｳｼﾝｾﾝ1
 10
547.59652002972655
 20
535.77155800440823
 30
0.0
 11
547.59652002972655
 21
570.77155800440846
 31
0.0
  0
LINE
  5
19862
  8
AM_0
 10
701.95490044687665
 20
540.77155800440835
 30
0.0
 11
701.95490044687665
 21
565.77155800440812
 31
0.0
  0
LINE
  5
19863
  8
ﾁｭｳｼﾝｾﾝ1
 10
692.59654889167894
 20
535.77155800440823
 30
0.0
 11
692.59654889167894
 21
570.77155800440846
 31
0.0
  0
ARC
  5
1A43E
  8
ｶｸﾚｾﾝ2
 10
855.41197121867776
 20
605.95512958328095
 30
0.0
 40
5.600000999999998
 50
273.83696300000258
 51
359.99994299999997
  0
ARC
  5
1A43F
  8
ｶｸﾚｾﾝ2
 10
815.59657621867768
 20
1199.621504583281
 30
0.0
 40
600.59997599999986
 50
266.03398700000201
 51
273.8369459999987
  0
ARC
  5
1A440
  8
ｶｸﾚｾﾝ2
 10
774.30247021867785
 20
604.05132858328125
 30
0.0
 40
3.6000059999999969
 50
179.99998199999999
 51
266.03400100000209
  0
LINE
  5
1A441
  8
ｶｸﾚｾﾝ2
 10
770.70248021867769
 20
604.04084758328122
 30
0.0
 11
770.70248021867769
 21
677.49939058328096
 31
0.0
  0
ARC
  5
1A442
  8
ｶｸﾚｾﾝ2
 10
774.30247021867785
 20
677.49152958328125
 30
0.0
 40
3.5999989999999982
 50
93.966255999999049
 51
179.99998199999999
  0
ARC
  5
1A443
  8
ｶｸﾚｾﾝ2
 10
815.59657621867768
 20
81.921552583281255
 30
0.0
 40
600.59997599999986
 50
86.163089999999471
 51
93.966239999996233
  0
LINE
  5
1A444
  8
ｶｸﾚｾﾝ2
 10
861.01197421867778
 20
675.58792858328115
 30
0.0
 11
861.01197421867778
 21
605.95512458328096
 31
0.0
  0
ARC
  5
1A445
  8
ｶｸﾚｾﾝ2
 10
855.41197121867776
 20
675.58792758328116
 30
0.0
 40
5.5999980000000003
 50
0.0000179999999764
 51
86.162937999992948
  0
ARC
  5
1A44E
  8
AM_0
 10
768.09652229835103
 20
256.26517387140302
 30
0.0
 40
1.0
 50
270.0
 51
0.000000000000007
  0
ARC
  5
1A44F
  8
AM_0
 10
768.09652229835103
 20
380.342789871403
 30
0.0
 40
1.0
 50
0.000000000000007
 51
90.0
  0
ARC
  5
1A450
  8
AM_0
 10
771.92019521867746
 20
715.66769358328122
 30
0.0
 40
2.0
 50
90.0
 51
165.00000299999971
  0
ARC
  5
1A451
  8
AM_0
 10
770.10495121867746
 20
707.27152858328122
 30
0.0
 40
2.0
 50
90.0
 51
165.00000000000071
  0
LINE
  5
1A452
  8
AM_0
 10
769.09657621867768
 20
713.27152858328122
 30
0.0
 11
769.09657621867768
 21
712.85721158328124
 31
0.0
  0
ARC
  5
1A453
  8
AM_0
 10
768.09907321867752
 20
713.27402558328095
 30
0.0
 40
0.9975059999999999
 50
359.85657800000013
 51
90.143422000003625
  0
LINE
  5
1A454
  8
AM_0
 10
769.09657621867768
 20
713.27652258328123
 30
0.0
 11
769.09657621867768
 21
713.27152858328122
 31
0.0
  0
LINE
  5
1A455
  8
AM_0
 10
769.18413221867752
 20
713.18397258328116
 30
0.0
 11
769.09657621867768
 21
713.27152858328122
 31
0.0
  0
LINE
  5
1A456
  8
AM_0
 10
767.09657621867746
 20
703.77152858328122
 30
0.0
 11
768.17309921867775
 21
707.78916658328126
 31
0.0
  0
LINE
  5
1A457
  8
AM_0
 10
768.09657621867746
 20
714.27152858328122
 30
0.0
 11
759.09657621867746
 21
714.27152858328122
 31
0.0
  0
LINE
  5
1A458
  8
AM_0
 10
767.09657621867746
 20
705.39310958328122
 30
0.0
 11
769.98834321867764
 21
716.18533158328125
 31
0.0
  0
ARC
  5
1A459
  8
AM_0
 10
768.09657621867746
 20
702.77152858328122
 30
0.0
 40
1.0
 50
0.000000000000007
 51
90.0
  0
ARC
  5
1A45A
  8
AM_0
 10
838.09657621867746
 20
718.63372658328115
 30
0.0
 40
2.0
 50
90.0
 51
180.0
  0
ARC
  5
1A45B
  8
AM_0
 10
838.09657621867746
 20
718.20644858328114
 30
0.0
 40
2.0
 50
90.0
 51
180.0
  0
ARC
  5
1A45C
  8
AM_0
 10
838.09657621867746
 20
717.20109758328124
 30
0.0
 40
2.0
 50
90.0
 51
166.50868900000029
  0
LINE
  5
1A45D
  8
AM_0
 10
836.09657621867757
 20
718.63372658328115
 30
0.0
 11
836.09657621867757
 21
717.66769358328122
 31
0.0
  0
ARC
  5
1A45E
  8
AM_0
 10
919.09657621867757
 20
718.63372658328115
 30
0.0
 40
2.0
 50
0.000000000000007
 51
90.0
  0
LINE
  5
1A45F
  8
AM_0
 10
921.09657621867768
 20
716.65588458328114
 30
0.0
 11
921.09657621867768
 21
717.20109758328124
 31
0.0
  0
ARC
  5
1A460
  8
AM_0
 10
919.24712621867741
 20
718.20644858328114
 30
0.0
 40
2.0
 50
15.76954700000138
 51
90.0
  0
ARC
  5
1A461
  8
AM_0
 10
923.0965762186778
 20
719.29352358328129
 30
0.0
 40
2.0
 50
195.76954700000141
 51
270.0
  0
ARC
  5
1A462
  8
AM_0
 10
919.09657621867757
 20
717.20109758328124
 30
0.0
 40
2.0
 50
0.000000000000007
 51
90.0
  0
ARC
  5
1A463
  8
AM_0
 10
923.0965762186778
 20
716.65588458328114
 30
0.0
 40
2.0
 50
180.0
 51
270.0
  0
ARC
  5
1A464
  8
AM_0
 10
919.09657621867757
 20
715.66769358328122
 30
0.0
 40
2.0
 50
0.000000000000007
 51
90.0
  0
ARC
  5
1A465
  8
AM_0
 10
923.0965762186778
 20
712.29989558328123
 30
0.0
 40
2.0
 50
180.0
 51
270.0
  0
LINE
  5
1A466
  8
AM_0
 10
921.09657621867768
 20
712.29989558328123
 30
0.0
 11
921.09657621867768
 21
715.66769358328122
 31
0.0
  0
ARC
  5
1A467
  8
AM_0
 10
923.0965762186778
 20
693.67257858328128
 30
0.0
 40
2.0
 50
180.0
 51
270.0
  0
LINE
  5
1A468
  8
AM_0
 10
921.09657621867768
 20
706.1274475832812
 30
0.0
 11
921.09657621867768
 21
693.67257858328128
 31
0.0
  0
ARC
  5
1A469
  8
AM_0
 10
919.09657621867757
 20
707.27152858328122
 30
0.0
 40
2.0
 50
0.000000000000007
 51
90.0
  0
ARC
  5
1A46A
  8
AM_0
 10
923.0965762186778
 20
706.1274475832812
 30
0.0
 40
2.0
 50
180.0
 51
270.0
  0
LINE
  5
1A46B
  8
AM_0
 10
921.09657621867768
 20
706.1274475832812
 30
0.0
 11
921.09657621867768
 21
707.27152858328122
 31
0.0
  0
LINE
  5
1A46C
  8
AM_0
 10
923.0965762186778
 20
717.29352358328117
 30
0.0
 11
928.6025872186774
 21
717.29352358328117
 31
0.0
  0
LINE
  5
1A46D
  8
AM_0
 10
923.0965762186778
 20
714.65588458328114
 30
0.0
 11
928.6025872186774
 21
714.65588458328114
 31
0.0
  0
LINE
  5
1A46E
  8
AM_0
 10
923.0965762186778
 20
710.29989558328123
 30
0.0
 11
928.6025872186774
 21
710.29989558328123
 31
0.0
  0
LINE
  5
1A46F
  8
AM_0
 10
923.0965762186778
 20
704.12744758328097
 30
0.0
 11
928.6025872186774
 21
704.12744758328097
 31
0.0
  0
LINE
  5
1A470
  8
AM_0
 10
919.09657621867757
 20
720.63372658328126
 30
0.0
 11
838.09657621867746
 21
720.63372658328126
 31
0.0
  0
LINE
  5
1A471
  8
AM_0
 10
919.24712621867741
 20
720.20644858328126
 30
0.0
 11
838.09657621867746
 21
720.20644858328126
 31
0.0
  0
LINE
  5
1A472
  8
AM_0
 10
919.09657621867757
 20
719.20109758328124
 30
0.0
 11
838.09657621867746
 21
719.20109758328124
 31
0.0
  0
LINE
  5
1A473
  8
AM_0
 10
919.09657621867757
 20
717.66769358328122
 30
0.0
 11
771.92019521867746
 21
717.66769358328122
 31
0.0
  0
LINE
  5
1A474
  8
AM_0
 10
919.09657621867757
 20
709.27152858328122
 30
0.0
 11
770.10495121867746
 21
709.27152858328122
 31
0.0
  0
LINE
  5
1A475
  8
AM_0
 10
928.6025872186774
 20
691.67257858328117
 30
0.0
 11
770.59657621867746
 21
691.67257858328117
 31
0.0
  0
ARC
  5
1A476
  8
AM_0
 10
770.10495121867746
 20
574.27152858328122
 30
0.0
 40
2.0
 50
194.9999999999992
 51
270.0
  0
ARC
  5
1A477
  8
AM_0
 10
768.09907321867752
 20
568.26903158328128
 30
0.0
 40
0.9975059999999999
 50
269.85657800000951
 51
0.1434220000000179
  0
LINE
  5
1A478
  8
AM_0
 10
769.18413221867752
 20
568.35908458328095
 30
0.0
 11
769.09657621867768
 21
568.27152858328122
 31
0.0
  0
LINE
  5
1A479
  8
AM_0
 10
769.09657621867768
 20
568.26653458328121
 30
0.0
 11
769.09657621867768
 21
568.27152858328122
 31
0.0
  0
LINE
  5
1A47A
  8
AM_0
 10
769.09657621867768
 20
568.27152858328122
 30
0.0
 11
769.09657621867768
 21
568.68584558328121
 31
0.0
  0
ARC
  5
1A47B
  8
AM_0
 10
771.92019521867746
 20
565.87536358328123
 30
0.0
 40
2.0
 50
194.99999700000021
 51
270.0
  0
LINE
  5
1A47C
  8
AM_0
 10
768.09657621867746
 20
567.27152858328122
 30
0.0
 11
759.09657621867746
 21
567.27152858328122
 31
0.0
  0
LINE
  5
1A47D
  8
AM_0
 10
767.09657621867746
 20
577.77152858328122
 30
0.0
 11
768.17309921867775
 21
573.7538905832813
 31
0.0
  0
LINE
  5
1A47E
  8
AM_0
 10
767.09657621867746
 20
576.14994758328123
 30
0.0
 11
769.98834321867764
 21
565.35772558328119
 31
0.0
  0
ARC
  5
1A47F
  8
AM_0
 10
768.09657621867746
 20
578.77152858328122
 30
0.0
 40
1.0
 50
270.0
 51
0.000000000000007
  0
LINE
  5
1A480
  8
AM_0
 10
919.09657621867757
 20
562.34195958328121
 30
0.0
 11
838.09657621867746
 21
562.34195958328121
 31
0.0
  0
LINE
  5
1A481
  8
AM_0
 10
919.24712621867741
 20
561.33660858328119
 30
0.0
 11
838.09657621867746
 21
561.33660858328119
 31
0.0
  0
LINE
  5
1A482
  8
AM_0
 10
919.09657621867757
 20
560.90933058328119
 30
0.0
 11
838.09657621867746
 21
560.90933058328119
 31
0.0
  0
LINE
  5
1A483
  8
AM_0
 10
921.09657621867768
 20
575.41560958328114
 30
0.0
 11
921.09657621867768
 21
574.27152858328122
 31
0.0
  0
ARC
  5
1A484
  8
AM_0
 10
923.0965762186778
 20
575.41560958328114
 30
0.0
 40
2.0
 50
90.0
 51
180.0
  0
ARC
  5
1A485
  8
AM_0
 10
919.09657621867757
 20
574.27152858328122
 30
0.0
 40
2.0
 50
270.0
 51
0.000000000000007
  0
LINE
  5
1A486
  8
AM_0
 10
921.09657621867768
 20
575.41560958328114
 30
0.0
 11
921.09657621867768
 21
587.87047858328117
 31
0.0
  0
ARC
  5
1A487
  8
AM_0
 10
923.0965762186778
 20
587.87047858328117
 30
0.0
 40
2.0
 50
90.0
 51
180.0
  0
ARC
  5
1A488
  8
AM_0
 10
923.0965762186778
 20
562.24953358328116
 30
0.0
 40
2.0
 50
90.0
 51
164.2304529999987
  0
ARC
  5
1A489
  8
AM_0
 10
923.0965762186778
 20
564.8871725832812
 30
0.0
 40
2.0
 50
90.0
 51
180.0
  0
ARC
  5
1A48A
  8
AM_0
 10
923.0965762186778
 20
569.24316158328122
 30
0.0
 40
2.0
 50
90.0
 51
180.0
  0
LINE
  5
1A48B
  8
AM_0
 10
921.09657621867768
 20
569.24316158328122
 30
0.0
 11
921.09657621867768
 21
565.87536358328123
 31
0.0
  0
ARC
  5
1A48C
  8
AM_0
 10
919.09657621867757
 20
565.87536358328123
 30
0.0
 40
2.0
 50
270.0
 51
0.000000000000007
  0
ARC
  5
1A48D
  8
AM_0
 10
919.09657621867757
 20
564.34195958328121
 30
0.0
 40
2.0
 50
270.0
 51
0.000000000000007
  0
ARC
  5
1A48E
  8
AM_0
 10
919.24712621867741
 20
563.33660858328096
 30
0.0
 40
2.0
 50
270.0
 51
344.2304529999987
  0
LINE
  5
1A48F
  8
AM_0
 10
921.09657621867768
 20
564.8871725832812
 30
0.0
 11
921.09657621867768
 21
564.34195958328121
 31
0.0
  0
ARC
  5
1A490
  8
AM_0
 10
919.09657621867757
 20
562.90933058328085
 30
0.0
 40
2.0
 50
270.0
 51
0.000000000000007
  0
LINE
  5
1A491
  8
AM_0
 10
836.09657621867757
 20
562.90933058328085
 30
0.0
 11
836.09657621867757
 21
563.87536358328123
 31
0.0
  0
ARC
  5
1A492
  8
AM_0
 10
838.09657621867746
 20
564.34195958328121
 30
0.0
 40
2.0
 50
193.49131099999951
 51
270.0
  0
ARC
  5
1A493
  8
AM_0
 10
838.09657621867746
 20
563.33660858328096
 30
0.0
 40
2.0
 50
180.0
 51
270.0
  0
ARC
  5
1A494
  8
AM_0
 10
838.09657621867746
 20
562.90933058328085
 30
0.0
 40
2.0
 50
180.0
 51
270.0
  0
LINE
  5
1A495
  8
AM_0
 10
923.0965762186778
 20
577.41560958328114
 30
0.0
 11
928.6025872186774
 21
577.41560958328114
 31
0.0
  0
LINE
  5
1A496
  8
AM_0
 10
919.09657621867757
 20
572.27152858328122
 30
0.0
 11
770.10495121867746
 21
572.27152858328122
 31
0.0
  0
LINE
  5
1A497
  8
AM_0
 10
928.6025872186774
 20
589.87047858328106
 30
0.0
 11
770.59657621867746
 21
589.87047858328106
 31
0.0
  0
LINE
  5
1A498
  8
AM_0
 10
919.09657621867757
 20
563.87536358328123
 30
0.0
 11
771.92019521867746
 21
563.87536358328123
 31
0.0
  0
LINE
  5
1A499
  8
AM_0
 10
923.0965762186778
 20
564.24953358328105
 30
0.0
 11
928.6025872186774
 21
564.24953358328105
 31
0.0
  0
LINE
  5
1A49A
  8
AM_0
 10
923.0965762186778
 20
566.88717258328097
 30
0.0
 11
928.6025872186774
 21
566.88717258328097
 31
0.0
  0
LINE
  5
1A49B
  8
AM_0
 10
923.0965762186778
 20
571.24316158328111
 30
0.0
 11
928.6025872186774
 21
571.24316158328111
 31
0.0
  0
LINE
  5
1A4ED
  8
AM_0
 10
769.09657621867768
 20
596.94158658328126
 30
0.0
 11
769.09657621867768
 21
604.58158658328125
 31
0.0
  0
LINE
  5
1A4EE
  8
AM_0
 10
769.09657621867768
 20
684.60152858328115
 30
0.0
 11
769.09657621867768
 21
676.96152858328128
 31
0.0
  0
ARC
  5
1A4EF
  8
AM_0
 10
768.09721521867709
 20
593.72999758328126
 30
0.0
 40
1.0026319999999971
 50
98.75624100000573
 51
179.94591500000001
  0
LINE
  5
1A4F0
  8
AM_0
 10
767.94458321867762
 20
594.72094458328115
 30
0.0
 11
769.70338221867746
 21
594.99152858328125
 31
0.0
  0
LINE
  5
1A4F1
  8
AM_0
 10
767.95458321867784
 20
596.81094458328096
 30
0.0
 11
769.55727121867756
 21
596.59152858328127
 31
0.0
  0
ARC
  5
1A4F2
  8
AM_0
 10
768.10155121867763
 20
597.80714858328122
 30
0.0
 40
1.006985999999999
 50
180.35299800000001
 51
261.60783700000462
  0
LINE
  5
1A4F3
  8
AM_0
 10
767.0945832186776
 20
597.80094458328085
 30
0.0
 11
767.0945832186776
 21
593.73094458328114
 31
0.0
  0
ARC
  5
1A4F4
  8
AM_0
 10
769.63793921867784
 20
595.77758858328104
 30
0.0
 40
0.8033630000000001
 50
90.239329999991384
 51
179.76067
  0
ARC
  5
1A4F5
  8
AM_0
 10
769.63964521867763
 20
595.78600658328128
 30
0.0
 40
0.8050779999999997
 50
180.36025099999989
 51
269.639749000005
  0
ARC
  5
1A4F6
  8
AM_0
 10
768.10155121867763
 20
683.73590858328123
 30
0.0
 40
1.006985999999999
 50
98.392162999995421
 51
179.64700199999999
  0
LINE
  5
1A4F7
  8
AM_0
 10
767.95458321867784
 20
684.73211258328115
 30
0.0
 11
769.55727121867756
 21
684.95152858328095
 31
0.0
  0
ARC
  5
1A4F8
  8
AM_0
 10
768.09721521867709
 20
687.81305958328119
 30
0.0
 40
1.0026319999999971
 50
180.05408499999999
 51
261.24375900000717
  0
LINE
  5
1A4F9
  8
AM_0
 10
767.0945832186776
 20
683.74211258328125
 30
0.0
 11
767.0945832186776
 21
687.81211258328096
 31
0.0
  0
LINE
  5
1A4FA
  8
AM_0
 10
767.94458321867762
 20
686.82211258328095
 30
0.0
 11
769.70338221867746
 21
686.55152858328097
 31
0.0
  0
ARC
  5
1A4FB
  8
AM_0
 10
769.63793921867784
 20
685.76546858328118
 30
0.0
 40
0.8033630000000001
 50
180.23933
 51
269.76067000000847
  0
ARC
  5
1A4FC
  8
AM_0
 10
769.63964521867763
 20
685.75705058328117
 30
0.0
 40
0.8050779999999997
 50
90.360250999995117
 51
179.63974899999999
  0
LINE
  5
1A50B
  8
AM_0
 10
769.09657621867768
 20
606.92158658328128
 30
0.0
 11
769.09657621867768
 21
614.67158658328117
 31
0.0
  0
ARC
  5
1A50C
  8
AM_0
 10
768.10354421867703
 20
607.79773258328123
 30
0.0
 40
1.006985999999999
 50
180.35299800000001
 51
261.60783700000462
  0
LINE
  5
1A50D
  8
AM_0
 10
767.9565762186777
 20
606.8015285832812
 30
0.0
 11
769.63657521867765
 21
606.57152858328095
 31
0.0
  0
LINE
  5
1A50E
  8
AM_0
 10
767.94657621867702
 20
604.71152858328128
 30
0.0
 11
769.63657521867765
 21
604.97152858328116
 31
0.0
  0
ARC
  5
1A50F
  8
AM_0
 10
769.64163821867783
 20
605.77659058328129
 30
0.0
 40
0.8050779999999997
 50
180.36025099999989
 51
269.63877400000609
  0
ARC
  5
1A510
  8
AM_0
 10
769.63993221867702
 20
605.76817258328128
 30
0.0
 40
0.8033630000000001
 50
89.760817000004906
 51
179.76067
  0
ARC
  5
1A511
  8
AM_0
 10
768.09920821867752
 20
603.72058258328116
 30
0.0
 40
1.0026319999999971
 50
98.75624100000573
 51
179.94591500000001
  0
LINE
  5
1A512
  8
AM_0
 10
767.09657621867746
 20
607.79152858328121
 30
0.0
 11
767.09657621867746
 21
603.72152858328127
 31
0.0
  0
LINE
  5
1A513
  8
AM_0
 10
769.09657621867768
 20
674.62152858328125
 30
0.0
 11
769.09657621867768
 21
666.87152858328125
 31
0.0
  0
LINE
  5
1A514
  8
AM_0
 10
767.9565762186777
 20
674.74152858328125
 30
0.0
 11
769.63657521867765
 21
674.97152858328116
 31
0.0
  0
ARC
  5
1A515
  8
AM_0
 10
768.10354421867703
 20
673.74532458328122
 30
0.0
 40
1.006985999999999
 50
98.392162999995421
 51
179.64700199999999
  0
ARC
  5
1A516
  8
AM_0
 10
768.09920821867752
 20
677.82247458328129
 30
0.0
 40
1.0026319999999971
 50
180.05408499999999
 51
261.24375900000717
  0
LINE
  5
1A517
  8
AM_0
 10
767.09657621867746
 20
673.75152858328124
 30
0.0
 11
767.09657621867746
 21
677.82152858328107
 31
0.0
  0
LINE
  5
1A518
  8
AM_0
 10
767.94657621867702
 20
676.83152858328106
 30
0.0
 11
769.63657521867765
 21
676.57152858328095
 31
0.0
  0
ARC
  5
1A519
  8
AM_0
 10
769.64163821867783
 20
675.76646658328127
 30
0.0
 40
0.8050779999999997
 50
90.361225999993863
 51
179.63974899999999
  0
ARC
  5
1A51A
  8
AM_0
 10
769.63993221867702
 20
675.77488458328116
 30
0.0
 40
0.8033630000000001
 50
180.23933
 51
270.2391830000081
  0
LINE
  5
1A51B
  8
AM_0
 10
769.09657621867768
 20
678.63547358328117
 30
0.0
 11
759.09657621867746
 21
678.63547358328117
 31
0.0
  0
LINE
  5
1A51C
  8
AM_0
 10
769.09657621867768
 20
602.91758358328104
 30
0.0
 11
759.09657621867746
 21
602.91758358328104
 31
0.0
  0
LINE
  5
1A575
  8
0
 10
229.77790444563411
 20
231.932970871403
 30
0.0
 11
229.40490344563409
 21
225.43597887140299
 31
0.0
  0
LINE
  5
1A576
  8
0
 10
229.8409474456341
 20
197.49847387140289
 30
0.0
 11
229.39089244563431
 21
200.370976871403
 31
0.0
  0
LINE
  5
1A577
  8
0
 10
229.7989124456341
 20
227.87695787140299
 30
0.0
 11
229.3989204456343
 21
225.4009718714029
 31
0.0
  0
LINE
  5
1A578
  8
0
 10
235.77789544563419
 20
233.37496587140299
 30
0.0
 11
304.31298744563418
 21
233.37496587140299
 31
0.0
  0
LINE
  5
1A579
  8
0
 10
310.3129854456343
 20
231.932971871403
 30
0.0
 11
310.68568444563431
 21
225.435977871403
 31
0.0
  0
LINE
  5
1A57A
  8
0
 10
237.81955644563439
 20
191.29896887140291
 30
0.0
 11
302.26978944563439
 21
191.29896887140291
 31
0.0
  0
LINE
  5
1A57B
  8
0
 10
237.81955644563439
 20
230.889980871403
 30
0.0
 11
302.26978944563439
 21
230.889980871403
 31
0.0
  0
LINE
  5
1A57C
  8
0
 10
310.25421544563437
 20
197.52819187140301
 30
0.0
 11
310.69989144563419
 21
200.37098287140299
 31
0.0
  0
LINE
  5
1A57D
  8
0
 10
310.29198544563423
 20
227.87697287140301
 30
0.0
 11
310.69188444563417
 21
225.4009718714029
 31
0.0
  0
LINE
  5
1A57E
  8
0
 10
302.27085244563409
 20
205.178973871403
 30
0.0
 11
237.81917844563421
 21
205.178973871403
 31
0.0
  0
LINE
  5
1A57F
  8
0
 10
235.77789544563419
 20
237.93297987140301
 30
0.0
 11
304.31298744563418
 21
237.93297987140301
 31
0.0
  0
LINE
  5
1A580
  8
0
 10
237.81954844563441
 20
205.17898387140301
 30
0.0
 11
237.4105554456344
 21
205.16798287140301
 31
0.0
  0
LINE
  5
1A581
  8
0
 10
237.41055244563429
 20
205.16799587140301
 30
0.0
 11
237.00355444563431
 21
205.13299187140299
 31
0.0
  0
LINE
  5
1A582
  8
0
 10
237.00355744563419
 20
205.13302087140301
 30
0.0
 11
236.60355844563421
 21
205.07702187140291
 31
0.0
  0
LINE
  5
1A583
  8
0
 10
236.60355744563429
 20
205.07700187140301
 30
0.0
 11
236.21256144563421
 21
204.99800787140299
 31
0.0
  0
LINE
  5
1A584
  8
0
 10
236.21255644563411
 20
204.99798587140299
 30
0.0
 11
235.8335454456342
 21
204.89797887140301
 31
0.0
  0
LINE
  5
1A585
  8
0
 10
235.8335634456341
 20
204.897951871403
 30
0.0
 11
235.4695654456342
 21
204.7769498714031
 31
0.0
  0
LINE
  5
1A586
  8
0
 10
235.46955544563409
 20
204.776956871403
 30
0.0
 11
235.1245564456342
 21
204.6359668714031
 31
0.0
  0
LINE
  5
1A587
  8
0
 10
235.1245614456341
 20
204.6359668714031
 30
0.0
 11
234.79856444563421
 21
204.47696987140301
 31
0.0
  0
LINE
  5
1A588
  8
0
 10
234.7985654456343
 20
204.47696687140291
 30
0.0
 11
234.4965614456344
 21
204.29996387140301
 31
0.0
  0
LINE
  5
1A589
  8
0
 10
234.4965494456342
 20
204.300002871403
 30
0.0
 11
234.2195484456341
 21
204.10699387140301
 31
0.0
  0
LINE
  5
1A58A
  8
0
 10
234.21954244563429
 20
204.10698187140301
 30
0.0
 11
233.96954044563421
 21
203.89997987140299
 31
0.0
  0
LINE
  5
1A58B
  8
0
 10
233.96956244563421
 20
203.89996987140299
 30
0.0
 11
233.7495604456341
 21
203.678975871403
 31
0.0
  0
LINE
  5
1A58C
  8
0
 10
233.7495544456342
 20
203.67898987140299
 30
0.0
 11
233.5605594456342
 21
203.446996871403
 31
0.0
  0
LINE
  5
1A58D
  8
0
 10
233.5605644456343
 20
203.446974871403
 30
0.0
 11
233.40355844563419
 21
203.204968871403
 31
0.0
  0
LINE
  5
1A58E
  8
0
 10
233.40355544563431
 20
203.204978871403
 30
0.0
 11
233.2805524456341
 21
202.95497387140301
 31
0.0
  0
LINE
  5
1A58F
  8
0
 10
233.28057844563429
 20
202.954968871403
 30
0.0
 11
233.1915794456342
 21
202.699957871403
 31
0.0
  0
LINE
  5
1A590
  8
0
 10
233.1915654456343
 20
202.69996687140301
 30
0.0
 11
233.13756344563421
 21
202.43996687140299
 31
0.0
  0
LINE
  5
1A591
  8
0
 10
233.13755844563431
 20
202.43998087140301
 30
0.0
 11
233.11956044563411
 21
202.178973871403
 31
0.0
  0
LINE
  5
1A592
  8
0
 10
306.96989144563418
 20
202.178975871403
 30
0.0
 11
306.95198944563413
 21
202.43997487140311
 31
0.0
  0
LINE
  5
1A593
  8
0
 10
306.95199144563441
 20
202.43996587140299
 30
0.0
 11
306.8983914456341
 21
202.69995487140301
 31
0.0
  0
LINE
  5
1A594
  8
0
 10
306.89838944563422
 20
202.69996187140299
 30
0.0
 11
306.80969044563432
 21
202.95496487140301
 31
0.0
  0
LINE
  5
1A595
  8
0
 10
306.80968544563422
 20
202.95496287140301
 30
0.0
 11
306.68638844563418
 21
203.20495887140299
 31
0.0
  0
LINE
  5
1A596
  8
0
 10
306.6864024456342
 20
203.20498287140299
 30
0.0
 11
306.52949744563421
 21
203.44699187140299
 31
0.0
  0
LINE
  5
1A597
  8
0
 10
306.52947944563431
 20
203.44695787140299
 30
0.0
 11
306.34017144563438
 21
203.678961871403
 31
0.0
  0
LINE
  5
1A598
  8
0
 10
306.34019544563421
 20
203.67897187140301
 30
0.0
 11
306.11979144563429
 21
203.8999708714031
 31
0.0
  0
LINE
  5
1A599
  8
0
 10
306.11979344563417
 20
203.89998187140301
 30
0.0
 11
305.87019644563418
 21
204.10698087140301
 31
0.0
  0
LINE
  5
1A59A
  8
0
 10
305.8702144456343
 20
204.106985871403
 30
0.0
 11
305.59321044563421
 21
204.29999687140301
 31
0.0
  0
LINE
  5
1A59B
  8
0
 10
305.59320844563422
 20
204.29999187140299
 30
0.0
 11
305.29090444563423
 21
204.47699587140301
 31
0.0
  0
LINE
  5
1A59C
  8
0
 10
305.29089544563431
 20
204.47697287140301
 30
0.0
 11
304.96559644563422
 21
204.63596787140301
 31
0.0
  0
LINE
  5
1A59D
  8
0
 10
304.96559644563422
 20
204.63598087140301
 30
0.0
 11
304.61979144563418
 21
204.77697487140301
 31
0.0
  0
LINE
  5
1A59E
  8
0
 10
304.61979144563418
 20
204.77697087140311
 30
0.0
 11
304.25609144563418
 21
204.897972871403
 31
0.0
  0
LINE
  5
1A59F
  8
0
 10
304.25610044563422
 20
204.89799087140301
 30
0.0
 11
303.87729444563439
 21
204.99799787140299
 31
0.0
  0
LINE
  5
1A5A0
  8
0
 10
303.87729444563439
 20
204.997993871403
 30
0.0
 11
303.48629144563421
 21
205.07698987140299
 31
0.0
  0
LINE
  5
1A5A1
  8
0
 10
303.48628844563422
 20
205.07694787140301
 30
0.0
 11
303.08598844563431
 21
205.1329478714031
 31
0.0
  0
LINE
  5
1A5A2
  8
0
 10
303.08599344563407
 20
205.13294987140301
 30
0.0
 11
302.6794924456342
 21
205.16795387140311
 31
0.0
  0
LINE
  5
1A5A3
  8
0
 10
302.6794924456342
 20
205.168000871403
 30
0.0
 11
302.26978944563439
 21
205.17900287140299
 31
0.0
  0
ARC
  5
1A5A4
  8
0
 10
235.77789544563419
 20
231.93297987140309
 30
0.0
 40
6.0
 50
90.0
 51
179.99998199999999
  0
ARC
  5
1A5A5
  8
0
 10
237.81955644563439
 20
195.2989688714031
 30
0.0
 40
4.0
 50
179.99998199999999
 51
269.99996400000163
  0
ARC
  5
1A5A6
  8
0
 10
237.81955644563439
 20
226.88998087140311
 30
0.0
 40
4.0
 50
90.0
 51
179.99998199999999
  0
ARC
  5
1A5A7
  8
0
 10
355.01599044563432
 20
211.094974871403
 30
0.0
 40
122.221001
 50
172.57449399999999
 51
187.42550400000019
  0
ARC
  5
1A5A8
  8
0
 10
300.07170044563418
 20
212.86297987140301
 30
0.0
 40
71.776710999999949
 50
169.93968699999951
 51
190.02400200000099
  0
ARC
  5
1A5A9
  8
0
 10
235.77789544563419
 20
227.37496587140299
 30
0.0
 40
6.0
 50
90.0
 51
175.2037279999997
  0
ARC
  5
1A5AA
  8
0
 10
235.77789544563419
 20
198.36597087140311
 30
0.0
 40
5.9999919999999971
 50
188.31313400000039
 51
263.06156699999713
  0
ARC
  5
1A5AB
  8
0
 10
304.31298744563418
 20
231.93297987140301
 30
0.0
 40
6.0
 50
0.0000180000000203
 51
89.999964000001583
  0
ARC
  5
1A5AC
  8
0
 10
302.26978944563439
 20
195.2989688714031
 30
0.0
 40
4.0
 50
269.99998099999289
 51
0.0000180000000203
  0
ARC
  5
1A5AD
  8
0
 10
302.26978944563439
 20
226.889980871403
 30
0.0
 40
4.0
 50
0.0000180000000203
 51
89.999944999994483
  0
ARC
  5
1A5AE
  8
0
 10
185.07398844563431
 20
211.094974871403
 30
0.0
 40
122.221001
 50
352.57496000000009
 51
7.4259640000007812
  0
ARC
  5
1A5AF
  8
0
 10
240.0182864456342
 20
212.86297987140301
 30
0.0
 40
71.776702999999983
 50
349.97597100000053
 51
10.059970999999839
  0
ARC
  5
1A5B0
  8
0
 10
304.31298744563418
 20
227.37496587140299
 30
0.0
 40
6.0
 50
4.7959859999995551
 51
89.999964000001583
  0
ARC
  5
1A5B1
  8
0
 10
304.31298744563418
 20
198.36597087140311
 30
0.0
 40
6.0000049999999989
 50
276.9213300000024
 51
351.97358199999923
  0
LINE
  5
1A5BC
  8
AM_0
 10
849.49652029835056
 20
236.30398187140301
 30
0.0
 11
779.75342029835144
 21
236.30398187140301
 31
0.0
  0
LINE
  5
1A5BD
  8
AM_0
 10
770.69840229835052
 20
234.39900287140301
 30
0.0
 11
772.34639729835101
 21
237.9329668714031
 31
0.0
  0
LINE
  5
1A5BE
  8
AM_0
 10
772.34639729835101
 20
237.9329668714031
 30
0.0
 11
861.16451629835058
 21
196.51695787140301
 31
0.0
  0
LINE
  5
1A5BF
  8
AM_0
 10
859.5163232983507
 20
192.981986871403
 30
0.0
 11
861.16451629835058
 21
196.51695787140301
 31
0.0
  0
LINE
  5
1A5C0
  8
AM_0
 10
851.96331829835083
 20
193.347990871403
 30
0.0
 11
852.28472029835063
 21
194.03698287140301
 31
0.0
  0
LINE
  5
1A5C1
  8
AM_0
 10
775.67142029835099
 20
209.21798387140299
 30
0.0
 11
775.67142029835099
 21
229.591991871403
 31
0.0
  0
LINE
  5
1A5C2
  8
AM_0
 10
858.04892829835046
 20
192.45298387140301
 30
0.0
 11
771.22342329835101
 21
232.93998687140299
 31
0.0
  0
LINE
  5
1A5C3
  8
AM_0
 10
853.0965182983507
 20
200.2789878714029
 30
0.0
 11
853.0965182983507
 21
232.70399087140311
 31
0.0
  0
LINE
  5
1A5C4
  8
ﾁｭｳｼﾝｾﾝ1
 10
858.27271929835058
 20
216.30398187140301
 30
0.0
 11
849.68241829835051
 21
216.30398187140301
 31
0.0
  0
LINE
  5
1A5C5
  8
AM_0
 10
855.0965182983507
 20
227.90398787140299
 30
0.0
 11
855.0965182983507
 21
204.70399087140299
 31
0.0
  0
LINE
  5
1A5C6
  8
AM_0
 10
855.0965182983507
 20
227.90398787140299
 30
0.0
 11
854.09651829835093
 21
227.90398787140299
 31
0.0
  0
LINE
  5
1A5C7
  8
AM_0
 10
855.0965182983507
 20
204.70399087140299
 30
0.0
 11
854.09651829835093
 21
204.70399087140299
 31
0.0
  0
ARC
  5
1A5DB
  8
AM_0
 10
849.49652029835056
 20
232.70399087140311
 30
0.0
 40
3.5999979999999989
 50
0.0000179999999764
 51
89.999938999999046
  0
ARC
  5
1A5DC
  8
AM_0
 10
771.69542229835099
 20
233.93398687140299
 30
0.0
 40
1.100006
 50
155.00048599999721
 51
245.0001739999968
  0
ARC
  5
1A5DD
  8
AM_0
 10
858.51941929835073
 20
193.446987871403
 30
0.0
 40
1.0999959999999971
 50
244.99980500000319
 51
335.00019699999962
  0
ARC
  5
1A5DE
  8
AM_0
 10
783.27141829835102
 20
209.21798387140299
 30
0.0
 40
7.5999979999999958
 50
179.99998199999999
 51
251.09998400000291
  0
ARC
  5
1A5DF
  8
AM_0
 10
848.70061729835095
 20
194.868984871403
 30
0.0
 40
3.5999979999999989
 50
270.9059790000008
 51
335.00084299999901
  0
ARC
  5
1A5E0
  8
AM_0
 10
845.59411929835073
 20
391.2449758714032
 30
0.0
 40
200.0
 50
251.09999699999781
 51
270.9059479999969
  0
ARC
  5
1A5E1
  8
AM_0
 10
853.19102029835074
 20
193.614986871403
 30
0.0
 40
0.9999979999999998
 50
65.000642000003907
 51
155.00073199999881
  0
ARC
  5
1A5E2
  8
AM_0
 10
773.67142029835099
 20
229.591991871403
 30
0.0
 40
2.0
 50
0.0000179999999764
 51
64.999850000003676
  0
ARC
  5
1A5E3
  8
AM_0
 10
779.75342029835144
 20
233.70399087140311
 30
0.0
 40
2.600006
 50
90.0
 51
139.3138699999997
  0
ARC
  5
1A5E4
  8
AM_0
 10
854.09651829835093
 20
228.9039878714031
 30
0.0
 40
1.0
 50
179.99998199999999
 51
270.00105700000478
  0
ARC
  5
1A5E5
  8
AM_0
 10
854.09651829835093
 20
203.70399087140311
 30
0.0
 40
1.0
 50
90.0
 51
179.99998199999999
  0
LINE
  5
1A5E8
  8
ﾁｭｳｼﾝｾﾝ1
 10
815.59652229835069
 20
246.38869787140311
 30
0.0
 11
815.59652229835069
 21
232.40187587140301
 31
0.0
  0
ARC
  5
1A615
  8
0
 10
270.0449894456342
 20
318.30398187140293
 30
0.0
 40
70.0
 50
156.10449573003481
 51
159.075166912892
  0
ARC
  5
1A61A
  8
0
 10
270.0449894456342
 20
318.30398187140293
 30
0.0
 40
73.5
 50
150.54571654538799
 51
209.4542834546119
  0
LINE
  5
1A61D
  8
0
 10
207.0449894456342
 20
374.30398382805419
 30
0.0
 11
207.0449894456342
 21
368.30398307849589
 31
0.0
  0
LINE
  5
1A621
  8
0
 10
196.0449894456342
 20
351.2090698714029
 30
0.0
 11
196.0449894456342
 21
343.30398187140293
 31
0.0
  0
ARC
  5
1A622
  8
0
 10
202.0449894456342
 20
364.01924587140297
 30
0.0
 40
0.5
 50
90.0
 51
180.0
  0
LINE
  5
1A623
  8
0
 10
201.5449894456342
 20
362.51924587140297
 30
0.0
 11
201.5449894456342
 21
364.01924587140297
 31
0.0
  0
ARC
  5
1A624
  8
0
 10
202.0449894456342
 20
362.51924587140297
 30
0.0
 40
0.5
 50
180.0
 51
270.0
  0
LINE
  5
1A62E
  8
0
 10
206.04498750756261
 20
361.66455529110692
 30
0.0
 11
202.00106644563419
 21
362.02117887140298
 31
0.0
  0
LINE
  5
1A62F
  8
0
 10
206.04498750756261
 20
365.41407843777762
 30
0.0
 11
201.93723244563421
 21
364.50749687140302
 31
0.0
  0
LINE
  5
1A63A
  8
0
 10
191.0847044456342
 20
322.30459087140292
 30
0.0
 11
194.64453444563421
 21
322.180278871403
 31
0.0
  0
ARC
  5
1A63B
  8
0
 10
191.11960344563431
 20
323.3039818714031
 30
0.0
 40
1.0
 50
92.000000000003624
 51
267.99999999999642
  0
LINE
  5
1A63C
  8
0
 10
191.0847044456342
 20
324.30337287140293
 30
0.0
 11
195.06420844563411
 21
324.44233987140302
 31
0.0
  0
ARC
  5
1A63D
  8
0
 10
194.57473544563399
 20
320.181497871403
 30
0.0
 40
2.0
 50
358.57137200000011
 51
88.000000000009379
  0
ARC
  5
1A63E
  8
0
 10
194.9944094456342
 20
326.44112187140303
 30
0.0
 40
2.0
 50
271.99999999999062
 51
359.27279499999992
  0
LINE
  5
1A63F
  8
0
 10
191.5880084456341
 20
332.30459087140292
 30
0.0
 11
195.56263844563421
 21
332.16579387140303
 31
0.0
  0
ARC
  5
1A640
  8
0
 10
191.62290844563421
 20
333.3039818714031
 30
0.0
 40
1.0
 50
92.000000000003624
 51
267.99999999999642
  0
LINE
  5
1A641
  8
0
 10
191.5880084456341
 20
334.30337287140293
 30
0.0
 11
196.84977544563401
 21
334.48711787140292
 31
0.0
  0
ARC
  5
1A642
  8
0
 10
196.77997644563411
 20
336.48589887140292
 30
0.0
 40
2.0
 50
271.99999999999062
 51
346.07740300000052
  0
ARC
  5
1A643
  8
0
 10
195.4928394456341
 20
330.16701187140302
 30
0.0
 40
2.0
 50
350.95410499999957
 51
88.000000000009379
  0
ARC
  5
1A644
  8
0
 10
197.7784914456341
 20
340.12248187140301
 30
0.0
 40
2.0
 50
343.2153479999983
 51
88.000000000009379
  0
LINE
  5
1A645
  8
0
 10
192.5984664456343
 20
342.30459087140292
 30
0.0
 11
197.84829044563421
 21
342.12126287140302
 31
0.0
  0
ARC
  5
1A646
  8
0
 10
192.6333654456341
 20
343.30398187140293
 30
0.0
 40
1.0
 50
92.000000000003624
 51
267.99999999999642
  0
LINE
  5
1A647
  8
0
 10
192.5984664456343
 20
344.30337287140298
 30
0.0
 11
196.0449894456342
 21
344.42372787140289
 31
0.0
  0
ARC
  5
1A648
  8
0
 10
200.0443524456343
 20
346.56460787140298
 30
0.0
 40
2.0
 50
271.99999999999062
 51
338.03549900000121
  0
ARC
  5
1A649
  8
0
 10
201.34456244563421
 20
349.59588387140309
 30
0.0
 40
2.0
 50
335.5324549999998
 51
84.482415999997841
  0
ARC
  5
1A64A
  8
0
 10
194.15882444563431
 20
353.30398187140298
 30
0.0
 40
1.0
 50
94.613729999995073
 51
264.48241599999773
  0
ARC
  5
1A64B
  8
0
 10
205.05498944563419
 20
357.19304687140288
 30
0.0
 40
2.0
 50
274.61372999999509
 51
299.66968643811282
  0
ARC
  5
1A65A
  8
0
 10
197.2045204456341
 20
343.30398187140293
 30
0.0
 40
1.1595309999999981
 50
92.000000000003624
 51
270.0
  0
LINE
  5
1A65B
  8
0
 10
197.16405344563441
 20
344.46280687140302
 30
0.0
 11
200.11415144563421
 21
344.56582587140298
 31
0.0
  0
ARC
  5
1A65C
  8
0
 10
195.0449894456342
 20
351.2090698714029
 30
0.0
 40
1.0
 50
0.0
 51
84.482415999997841
  0
LINE
  5
1A65D
  8
0
 10
205.21586544563411
 20
355.19952787140289
 30
0.0
 11
194.07838744563421
 21
354.30074187140298
 31
0.0
  0
LINE
  5
1A65E
  8
0
 10
201.53686544563419
 20
351.58661687140301
 30
0.0
 11
194.0626734456342
 21
352.30861487140311
 31
0.0
  0
LINE
  5
1A68B
  8
0
 10
201.53686544563419
 20
285.02134687140301
 30
0.0
 11
194.0626734456342
 21
284.29934887140303
 31
0.0
  0
LINE
  5
1A68C
  8
0
 10
205.21586544563411
 20
281.40843587140301
 30
0.0
 11
194.07838744563421
 21
282.30722187140287
 31
0.0
  0
ARC
  5
1A68D
  8
0
 10
195.0449894456342
 20
285.39889387140312
 30
0.0
 40
1.0
 50
275.5175840000021
 51
0.0
  0
LINE
  5
1A68E
  8
0
 10
197.16405344563441
 20
292.145156871403
 30
0.0
 11
200.11415144563421
 21
292.04213787140287
 31
0.0
  0
ARC
  5
1A68F
  8
0
 10
197.2045204456341
 20
293.30398187140293
 30
0.0
 40
1.1595309999999981
 50
90.0
 51
267.99999999999642
  0
ARC
  5
1A6AB
  8
0
 10
205.05498944563419
 20
279.41491687140302
 30
0.0
 40
2.0
 50
60.330313561889582
 51
85.386270000004927
  0
ARC
  5
1A6AC
  8
0
 10
194.15882444563431
 20
283.3039818714031
 30
0.0
 40
1.0
 50
95.517584000002131
 51
265.38627000000491
  0
ARC
  5
1A6AD
  8
0
 10
201.34456244563421
 20
287.01207987140299
 30
0.0
 40
2.0
 50
275.5175840000021
 51
24.467545000000211
  0
ARC
  5
1A6AE
  8
0
 10
200.0443524456343
 20
290.04335587140309
 30
0.0
 40
2.0
 50
21.96450099999878
 51
88.000000000009379
  0
LINE
  5
1A6AF
  8
0
 10
192.5984664456343
 20
292.30459087140298
 30
0.0
 11
196.0449894456342
 21
292.18423587140302
 31
0.0
  0
ARC
  5
1A6B0
  8
0
 10
192.6333654456341
 20
293.30398187140293
 30
0.0
 40
1.0
 50
92.000000000003624
 51
267.99999999999642
  0
LINE
  5
1A6B1
  8
0
 10
192.5984664456343
 20
294.30337287140293
 30
0.0
 11
197.84829044563421
 21
294.486700871403
 31
0.0
  0
ARC
  5
1A6B2
  8
0
 10
197.7784914456341
 20
296.48548187140312
 30
0.0
 40
2.0
 50
271.99999999999062
 51
16.784652000001621
  0
ARC
  5
1A6B3
  8
0
 10
195.4928394456341
 20
306.44095187140312
 30
0.0
 40
2.0
 50
271.99999999999062
 51
9.0458950000004101
  0
ARC
  5
1A6B4
  8
0
 10
196.77997644563411
 20
300.12206487140293
 30
0.0
 40
2.0
 50
13.92259699999935
 51
88.000000000009379
  0
LINE
  5
1A6B5
  8
0
 10
191.5880084456341
 20
302.30459087140292
 30
0.0
 11
196.84977544563401
 21
302.12084587140288
 31
0.0
  0
ARC
  5
1A6B6
  8
0
 10
191.62290844563421
 20
303.30398187140293
 30
0.0
 40
1.0
 50
92.000000000003624
 51
267.99999999999642
  0
LINE
  5
1A6B7
  8
0
 10
191.5880084456341
 20
304.30337287140293
 30
0.0
 11
195.56263844563421
 21
304.442169871403
 31
0.0
  0
ARC
  5
1A6B8
  8
0
 10
194.9944094456342
 20
310.16684187140311
 30
0.0
 40
2.0
 50
0.7272050000000569
 51
88.000000000009379
  0
ARC
  5
1A6B9
  8
0
 10
194.57473544563399
 20
316.42646587140302
 30
0.0
 40
2.0
 50
271.99999999999062
 51
1.428627999999859
  0
LINE
  5
1A6BA
  8
0
 10
191.0847044456342
 20
312.30459087140292
 30
0.0
 11
195.06420844563411
 21
312.165623871403
 31
0.0
  0
ARC
  5
1A6BB
  8
0
 10
191.11960344563431
 20
313.30398187140293
 30
0.0
 40
1.0
 50
92.000000000003624
 51
267.99999999999642
  0
LINE
  5
1A6BC
  8
0
 10
191.0847044456342
 20
314.30337287140293
 30
0.0
 11
194.64453444563421
 21
314.42768487140307
 31
0.0
  0
LINE
  5
1A6C7
  8
0
 10
206.0449875075625
 20
271.1938853050284
 30
0.0
 11
201.93723244563421
 21
272.100466871403
 31
0.0
  0
LINE
  5
1A6C8
  8
0
 10
206.0449875075625
 20
274.94340845169887
 30
0.0
 11
202.00106644563419
 21
274.58678487140298
 31
0.0
  0
ARC
  5
1A6D2
  8
0
 10
202.0449894456342
 20
274.08871787140299
 30
0.0
 40
0.5
 50
90.0
 51
180.0
  0
LINE
  5
1A6D3
  8
0
 10
201.5449894456342
 20
274.08871787140299
 30
0.0
 11
201.5449894456342
 21
272.58871787140299
 31
0.0
  0
ARC
  5
1A6D4
  8
0
 10
202.0449894456342
 20
272.58871787140299
 30
0.0
 40
0.5
 50
180.0
 51
270.0
  0
LINE
  5
1A6D5
  8
0
 10
196.0449894456342
 20
285.39889387140312
 30
0.0
 11
196.0449894456342
 21
293.30398187140293
 31
0.0
  0
LINE
  5
1A6D9
  8
0
 10
207.0449894456342
 20
262.30397991475218
 30
0.0
 11
207.0449894456342
 21
268.30398066431007
 31
0.0
  0
LINE
  5
1A6E4
  8
0
 10
236.5449894456342
 20
239.30398187140301
 30
0.0
 11
236.53518809163941
 21
239.60455843598899
 31
0.0
  0
LINE
  5
1A6E5
  8
AM_0
 10
770.59657621867746
 20
606.92158658328128
 30
0.0
 11
770.59657621867746
 21
614.67158658328117
 31
0.0
  0
LINE
  5
1A6E6
  8
AM_0
 10
770.59657621867746
 20
616.85158658328123
 30
0.0
 11
770.59657621867746
 21
624.72158658328124
 31
0.0
  0
LINE
  5
1A6E7
  8
AM_0
 10
770.59657621867746
 20
626.80158658328116
 30
0.0
 11
770.59657621867746
 21
634.75158658328121
 31
0.0
  0
LINE
  5
1A6E8
  8
AM_0
 10
770.59657621867746
 20
636.78158658328107
 30
0.0
 11
770.59657621867746
 21
644.76152858328123
 31
0.0
  0
LINE
  5
1A6E9
  8
AM_0
 10
770.59657621867746
 20
646.79152858328121
 30
0.0
 11
770.59657621867746
 21
654.74152858328125
 31
0.0
  0
LINE
  5
1A6EA
  8
AM_0
 10
770.59657621867746
 20
656.82152858328118
 30
0.0
 11
770.59657621867746
 21
664.69152858328096
 31
0.0
  0
LINE
  5
1A6EB
  8
AM_0
 10
770.59657621867746
 20
666.87152858328125
 30
0.0
 11
770.59657621867746
 21
674.62152858328125
 31
0.0
  0
LINE
  5
1A6EC
  8
AM_0
 10
770.59657621867746
 20
676.96152858328128
 30
0.0
 11
770.59657621867746
 21
684.60152858328115
 31
0.0
  0
LINE
  5
1A6ED
  8
AM_0
 10
768.10735621867764
 20
577.77158658328131
 30
0.0
 11
759.09657621867746
 21
577.77158658328131
 31
0.0
  0
LINE
  5
1A6EE
  8
AM_0
 10
768.09657621867746
 20
703.77152858328122
 30
0.0
 11
759.09657621867746
 21
703.77152858328122
 31
0.0
  0
LINE
  5
1A6EF
  8
AM_0
 10
928.6025872186774
 20
721.52152858328122
 30
0.0
 11
928.6025872186774
 21
560.02158658328119
 31
0.0
  0
LINE
  5
1A6F0
  8
AM_0
 10
770.59657621867746
 20
596.94158658328126
 30
0.0
 11
770.59657621867746
 21
604.58158658328125
 31
0.0
  0
LINE
  5
1A6F1
  8
AM_0
 10
770.59657621867746
 20
589.87053658328125
 30
0.0
 11
770.59657621867746
 21
594.60158658328123
 31
0.0
  0
LINE
  5
1A6F2
  8
AM_0
 10
767.9565762186777
 20
636.8015285832812
 30
0.0
 11
769.39657621867752
 21
636.60438558328121
 31
0.0
  0
LINE
  5
1A6F3
  8
AM_0
 10
767.94657621867702
 20
634.71152858328128
 30
0.0
 11
769.39657621867752
 21
634.93460558328104
 31
0.0
  0
LINE
  5
1A6F4
  8
AM_0
 10
767.09657621867746
 20
637.79152858328121
 30
0.0
 11
767.09657621867746
 21
633.72152858328127
 31
0.0
  0
LINE
  5
1A6F5
  8
AM_0
 10
767.9565762186777
 20
626.80152858328086
 30
0.0
 11
769.39657621867752
 21
626.60438558328121
 31
0.0
  0
LINE
  5
1A6F6
  8
AM_0
 10
767.94657621867702
 20
624.71152858328117
 30
0.0
 11
769.39657621867752
 21
624.93460558328104
 31
0.0
  0
LINE
  5
1A6F7
  8
AM_0
 10
767.09657621867746
 20
627.79152858328086
 30
0.0
 11
767.09657621867746
 21
623.72152858328116
 31
0.0
  0
LINE
  5
1A6F8
  8
AM_0
 10
767.94657621867702
 20
614.71152858328117
 30
0.0
 11
769.39657621867752
 21
614.93460558328104
 31
0.0
  0
LINE
  5
1A6F9
  8
AM_0
 10
767.9565762186777
 20
616.8015285832812
 30
0.0
 11
769.39657621867752
 21
616.6043855832811
 31
0.0
  0
LINE
  5
1A6FA
  8
AM_0
 10
767.09657621867746
 20
617.79152858328121
 30
0.0
 11
767.09657621867746
 21
613.72152858328116
 31
0.0
  0
ARC
  5
1A6FB
  8
AM_0
 10
769.64497121867782
 20
635.77152858328122
 30
0.0
 40
0.8000439999999999
 50
108.0879409999973
 51
251.9120590000027
  0
ARC
  5
1A6FC
  8
AM_0
 10
768.09920821867752
 20
633.72058258328116
 30
0.0
 40
1.0026319999999971
 50
98.75624100000573
 51
179.94591500000001
  0
ARC
  5
1A6FD
  8
AM_0
 10
768.10354421867703
 20
637.79773258328123
 30
0.0
 40
1.006985999999999
 50
180.35299800000001
 51
261.60783700000462
  0
ARC
  5
1A6FE
  8
AM_0
 10
769.64163821867783
 20
625.77659058328129
 30
0.0
 40
0.8050779999999997
 50
180.36025099999989
 51
252.27821000000401
  0
ARC
  5
1A6FF
  8
AM_0
 10
768.09920821867752
 20
623.72058258328127
 30
0.0
 40
1.0026319999999971
 50
98.75624100000573
 51
179.94591500000001
  0
ARC
  5
1A700
  8
AM_0
 10
768.10354421867703
 20
627.79773258328123
 30
0.0
 40
1.006985999999999
 50
180.35299800000001
 51
261.60783700000462
  0
ARC
  5
1A701
  8
AM_0
 10
769.63993221867702
 20
615.76817258328117
 30
0.0
 40
0.8033630000000001
 50
107.6331500000023
 51
179.76067
  0
ARC
  5
1A702
  8
AM_0
 10
769.64163821867783
 20
615.77659058328118
 30
0.0
 40
0.8050779999999997
 50
180.36025099999989
 51
252.27821000000401
  0
ARC
  5
1A703
  8
AM_0
 10
768.10354421867703
 20
617.79773258328123
 30
0.0
 40
1.006985999999999
 50
180.35299800000001
 51
261.60783700000462
  0
ARC
  5
1A704
  8
AM_0
 10
768.09920821867752
 20
613.72058258328116
 30
0.0
 40
1.0026319999999971
 50
98.75624100000573
 51
179.94591500000001
  0
ARC
  5
1A705
  8
AM_0
 10
769.63993221867702
 20
625.76817258328128
 30
0.0
 40
0.8033630000000001
 50
107.6331500000023
 51
179.76067
  0
LINE
  5
1A706
  8
AM_0
 10
769.09657621867768
 20
626.80158658328116
 30
0.0
 11
769.09657621867768
 21
634.75158658328121
 31
0.0
  0
LINE
  5
1A707
  8
AM_0
 10
769.09657621867768
 20
616.85158658328123
 30
0.0
 11
769.09657621867768
 21
624.72158658328124
 31
0.0
  0
ARC
  5
1A708
  8
AM_0
 10
951.93474621867767
 20
721.00427758328124
 30
0.0
 40
0.5
 50
204.75341000000259
 51
267.00024700000398
  0
ARC
  5
1A709
  8
AM_0
 10
977.47438421867764
 20
713.40751458328123
 30
0.0
 40
5.7500059999999991
 50
9.9999520000011781
 51
87.000117000003854
  0
ARC
  5
1A70A
  8
AM_0
 10
950.34553921867769
 20
720.27152858328122
 30
0.0
 40
1.25
 50
25.376360999999289
 51
90.000017999999173
  0
LINE
  5
1A70B
  8
AM_0
 10
950.34553921867769
 20
721.52152858328122
 30
0.0
 11
928.59657621867757
 21
721.52152858328122
 31
0.0
  0
LINE
  5
1A70C
  8
AM_0
 10
951.908580218677
 20
720.50496258328121
 30
0.0
 11
977.7752502186778
 21
719.14945958328121
 31
0.0
  0
LINE
  5
1A70D
  8
AM_0
 10
921.09657621867768
 20
676.57152858328095
 30
0.0
 11
769.63656221867757
 21
676.57152858328095
 31
0.0
  0
LINE
  5
1A70E
  8
AM_0
 10
921.09657621867768
 20
674.62152858328125
 30
0.0
 11
767.6072712186774
 21
674.62152858328125
 31
0.0
  0
LINE
  5
1A70F
  8
AM_0
 10
984.59779721867756
 20
575.02756758328121
 30
0.0
 11
984.59779721867756
 21
706.5155475832812
 31
0.0
  0
LINE
  5
1A710
  8
AM_0
 10
984.19805321867773
 20
708.38853958328127
 30
0.0
 11
983.13719121867712
 21
714.40601558328115
 31
0.0
  0
ARC
  5
1A711
  8
AM_0
 10
987.15248521867773
 20
708.90955958328095
 30
0.0
 40
2.999997
 50
189.99982600000061
 51
263.63062899999608
  0
ARC
  5
1A712
  8
AM_0
 10
986.59779721867756
 20
703.94042558328124
 30
0.0
 40
2.0
 50
0.000000000000007
 51
83.630628999996105
  0
LINE
  5
1A713
  8
AM_0
 10
921.09657621867768
 20
686.70286058328122
 30
0.0
 11
921.09657621867768
 21
670.05308558328124
 31
0.0
  0
LINE
  5
1A714
  8
AM_0
 10
928.6025872186774
 20
686.70286058328122
 30
0.0
 11
921.09657621867768
 21
686.70286058328122
 31
0.0
  0
LINE
  5
1A715
  8
AM_0
 10
928.6025872186774
 20
686.29152858328121
 30
0.0
 11
921.09657621867768
 21
686.29152858328121
 31
0.0
  0
LINE
  5
1A716
  8
AM_0
 10
928.6025872186774
 20
675.77152858328122
 30
0.0
 11
921.09657621867768
 21
675.77152858328122
 31
0.0
  0
LINE
  5
1A717
  8
AM_0
 10
928.6025872186774
 20
670.05308558328124
 30
0.0
 11
921.09657621867768
 21
670.05308558328124
 31
0.0
  0
LINE
  5
1A718
  8
AM_0
 10
770.59657621867746
 20
691.67257858328117
 30
0.0
 11
770.48042121867763
 21
692.88050458328098
 31
0.0
  0
LINE
  5
1A719
  8
AM_0
 10
769.09657621867768
 20
702.77152858328122
 30
0.0
 11
769.09657621867768
 21
686.94152858328096
 31
0.0
  0
LINE
  5
1A71A
  8
AM_0
 10
770.59657621867746
 20
691.67257858328117
 30
0.0
 11
770.59657621867746
 21
686.94152858328096
 31
0.0
  0
LINE
  5
1A71B
  8
AM_0
 10
769.09657621867768
 20
664.69152858328096
 30
0.0
 11
769.09657621867768
 21
656.82152858328118
 31
0.0
  0
LINE
  5
1A71C
  8
AM_0
 10
769.09657621867768
 20
654.74152858328125
 30
0.0
 11
769.09657621867768
 21
646.79152858328121
 31
0.0
  0
LINE
  5
1A71D
  8
AM_0
 10
921.09657621867768
 20
684.60152858328115
 30
0.0
 11
767.58703721867778
 21
684.60152858328115
 31
0.0
  0
LINE
  5
1A71E
  8
AM_0
 10
928.6025872186774
 20
686.94152858328096
 30
0.0
 11
767.60152821867746
 21
686.94152858328096
 31
0.0
  0
LINE
  5
1A71F
  8
AM_0
 10
921.09657621867768
 20
684.95152858328095
 30
0.0
 11
769.55727121867756
 21
684.95152858328095
 31
0.0
  0
LINE
  5
1A720
  8
AM_0
 10
921.09657621867768
 20
686.55152858328097
 30
0.0
 11
769.70338221867746
 21
686.55152858328097
 31
0.0
  0
LINE
  5
1A721
  8
AM_0
 10
769.39657621867752
 20
644.97152858328116
 30
0.0
 11
928.6025872186774
 21
644.97152858328116
 31
0.0
  0
LINE
  5
1A722
  8
AM_0
 10
769.39657621867752
 20
646.57152858328107
 30
0.0
 11
928.6025872186774
 21
646.57152858328107
 31
0.0
  0
LINE
  5
1A723
  8
AM_0
 10
928.6025872186774
 20
644.76152858328123
 30
0.0
 11
768.10266321867755
 21
644.76152858328123
 31
0.0
  0
LINE
  5
1A724
  8
AM_0
 10
928.6025872186774
 20
646.79152858328121
 30
0.0
 11
768.20657621867781
 21
646.79152858328121
 31
0.0
  0
LINE
  5
1A725
  8
AM_0
 10
928.6025872186774
 20
654.74152858328125
 30
0.0
 11
767.9565762186777
 21
654.74152858328125
 31
0.0
  0
LINE
  5
1A726
  8
AM_0
 10
928.6025872186774
 20
664.69152858328096
 30
0.0
 11
767.75898821867781
 21
664.69152858328096
 31
0.0
  0
LINE
  5
1A727
  8
AM_0
 10
928.6025872186774
 20
666.87152858328125
 30
0.0
 11
767.75898821867781
 21
666.87152858328125
 31
0.0
  0
ARC
  5
1A728
  8
AM_0
 10
769.63993221867702
 20
655.77488458328105
 30
0.0
 40
0.8033630000000001
 50
180.23933
 51
252.36684999999761
  0
ARC
  5
1A729
  8
AM_0
 10
768.09920821867752
 20
667.82247458328095
 30
0.0
 40
1.0026319999999971
 50
180.05408499999999
 51
261.24375900000717
  0
ARC
  5
1A72A
  8
AM_0
 10
768.10354421867703
 20
663.74532458328122
 30
0.0
 40
1.006985999999999
 50
98.392162999995421
 51
179.64700199999999
  0
ARC
  5
1A72B
  8
AM_0
 10
769.64163821867783
 20
665.76646658328104
 30
0.0
 40
0.8050779999999997
 50
107.7217899999961
 51
179.63974899999999
  0
ARC
  5
1A72C
  8
AM_0
 10
769.63993221867702
 20
665.77488458328105
 30
0.0
 40
0.8033630000000001
 50
180.23933
 51
252.36684999999761
  0
ARC
  5
1A72D
  8
AM_0
 10
768.10354421867703
 20
653.74532458328122
 30
0.0
 40
1.006985999999999
 50
98.392162999995421
 51
179.64700199999999
  0
ARC
  5
1A72E
  8
AM_0
 10
768.09920821867752
 20
657.82247458328118
 30
0.0
 40
1.0026319999999971
 50
180.05408499999999
 51
261.24375900000717
  0
ARC
  5
1A72F
  8
AM_0
 10
769.64163821867783
 20
655.76646658328104
 30
0.0
 40
0.8050779999999997
 50
107.7217899999961
 51
179.63974899999999
  0
ARC
  5
1A730
  8
AM_0
 10
768.10354421867703
 20
643.74532458328122
 30
0.0
 40
1.006985999999999
 50
98.392162999995421
 51
179.64700199999999
  0
ARC
  5
1A731
  8
AM_0
 10
768.09920821867752
 20
647.82247458328095
 30
0.0
 40
1.0026319999999971
 50
180.05408499999999
 51
261.24375900000717
  0
ARC
  5
1A732
  8
AM_0
 10
769.64497121867782
 20
645.77152858328111
 30
0.0
 40
0.8000439999999999
 50
108.0879409999973
 51
251.9120590000027
  0
LINE
  5
1A733
  8
AM_0
 10
921.09657621867768
 20
676.96152858328128
 30
0.0
 11
767.5853572186777
 21
676.96152858328128
 31
0.0
  0
LINE
  5
1A734
  8
AM_0
 10
928.6025872186774
 20
656.82152858328118
 30
0.0
 11
768.04657621867784
 21
656.82152858328118
 31
0.0
  0
LINE
  5
1A735
  8
AM_0
 10
928.6025872186774
 20
656.57152858328095
 30
0.0
 11
769.39657621867752
 21
656.57152858328095
 31
0.0
  0
LINE
  5
1A736
  8
AM_0
 10
928.6025872186774
 20
654.97152858328116
 30
0.0
 11
769.39657621867752
 21
654.97152858328116
 31
0.0
  0
LINE
  5
1A737
  8
AM_0
 10
928.6025872186774
 20
664.97152858328127
 30
0.0
 11
769.39657621867752
 21
664.97152858328127
 31
0.0
  0
LINE
  5
1A738
  8
AM_0
 10
928.6025872186774
 20
666.57152858328129
 30
0.0
 11
769.40517721867752
 21
666.57152858328129
 31
0.0
  0
LINE
  5
1A739
  8
AM_0
 10
921.09657621867768
 20
674.97152858328116
 30
0.0
 11
769.63657821867753
 21
674.97152858328116
 31
0.0
  0
LINE
  5
1A73A
  8
AM_0
 10
767.09657621867746
 20
663.75152858328124
 30
0.0
 11
767.09657621867746
 21
667.82152858328129
 31
0.0
  0
LINE
  5
1A73B
  8
AM_0
 10
767.9565762186777
 20
664.74152858328125
 30
0.0
 11
769.39657621867752
 21
664.93867158328123
 31
0.0
  0
LINE
  5
1A73C
  8
AM_0
 10
767.94657621867702
 20
666.83152858328106
 30
0.0
 11
769.39657621867752
 21
666.60845158328129
 31
0.0
  0
LINE
  5
1A73D
  8
AM_0
 10
767.09657621867746
 20
653.75152858328124
 30
0.0
 11
767.09657621867746
 21
657.82152858328095
 31
0.0
  0
LINE
  5
1A73E
  8
AM_0
 10
767.94657621867702
 20
656.83152858328106
 30
0.0
 11
769.39657621867752
 21
656.60845158328118
 31
0.0
  0
LINE
  5
1A73F
  8
AM_0
 10
767.9565762186777
 20
654.74152858328125
 30
0.0
 11
769.39657621867752
 21
654.93867158328123
 31
0.0
  0
LINE
  5
1A740
  8
AM_0
 10
767.09657621867746
 20
643.75152858328124
 30
0.0
 11
767.09657621867746
 21
647.82152858328129
 31
0.0
  0
LINE
  5
1A741
  8
AM_0
 10
767.94657621867702
 20
646.83152858328128
 30
0.0
 11
769.39657621867752
 21
646.60845158328129
 31
0.0
  0
LINE
  5
1A742
  8
AM_0
 10
767.9565762186777
 20
644.74152858328125
 30
0.0
 11
769.39657621867752
 21
644.93867158328123
 31
0.0
  0
ARC
  5
1A743
  8
AM_0
 10
951.93474621867767
 20
560.53883758328095
 30
0.0
 40
0.5
 50
92.999752999995962
 51
155.24658999999741
  0
ARC
  5
1A744
  8
AM_0
 10
977.47438421867764
 20
568.13560058328096
 30
0.0
 40
5.7500059999999991
 50
272.99988299999609
 51
350.00004799999891
  0
ARC
  5
1A745
  8
AM_0
 10
950.34553921867769
 20
561.27158658328119
 30
0.0
 40
1.25
 50
269.99998200000078
 51
334.62363900000082
  0
LINE
  5
1A746
  8
AM_0
 10
950.34553921867769
 20
560.02158658328119
 30
0.0
 11
928.59657621867757
 21
560.02158658328119
 31
0.0
  0
LINE
  5
1A747
  8
AM_0
 10
951.908580218677
 20
561.0381525832812
 30
0.0
 11
977.7752502186778
 21
562.3936555832812
 31
0.0
  0
LINE
  5
1A748
  8
AM_0
 10
951.59595921867742
 20
720.52134558328123
 30
0.0
 11
951.59595921867742
 21
561.02176958328118
 31
0.0
  0
LINE
  5
1A749
  8
AM_0
 10
981.54359821867695
 20
566.80955058328129
 30
0.0
 11
981.54359821867695
 21
714.73356458328124
 31
0.0
  0
LINE
  5
1A74A
  8
AM_0
 10
988.59779721867767
 20
703.94042558328124
 30
0.0
 11
988.59779721867767
 21
577.60268958328129
 31
0.0
  0
LINE
  5
1A74B
  8
AM_0
 10
984.19805321867773
 20
573.15457558328114
 30
0.0
 11
983.13719121867712
 21
567.13709958328127
 31
0.0
  0
ARC
  5
1A74C
  8
AM_0
 10
987.15248521867773
 20
572.63355558328124
 30
0.0
 40
2.999997
 50
96.369371000003881
 51
170.00017399999939
  0
ARC
  5
1A74D
  8
AM_0
 10
986.59779721867756
 20
577.60268958328129
 30
0.0
 40
2.0
 50
276.36937100000392
 51
0.000000000000007
  0
LINE
  5
1A74E
  8
AM_0
 10
921.09657621867768
 20
594.84025458328119
 30
0.0
 11
921.09657621867768
 21
611.49002958328117
 31
0.0
  0
LINE
  5
1A74F
  8
AM_0
 10
928.6025872186774
 20
594.84025458328119
 30
0.0
 11
921.09657621867768
 21
594.84025458328119
 31
0.0
  0
LINE
  5
1A750
  8
AM_0
 10
928.6025872186774
 20
595.25158658328121
 30
0.0
 11
921.09657621867768
 21
595.25158658328121
 31
0.0
  0
LINE
  5
1A751
  8
AM_0
 10
928.6025872186774
 20
605.77158658328096
 30
0.0
 11
921.09657621867768
 21
605.77158658328096
 31
0.0
  0
LINE
  5
1A752
  8
AM_0
 10
928.6025872186774
 20
611.49002958328117
 30
0.0
 11
921.09657621867768
 21
611.49002958328117
 31
0.0
  0
LINE
  5
1A753
  8
AM_0
 10
770.59657621867746
 20
589.87053658328125
 30
0.0
 11
770.48041621867753
 21
588.66255158328124
 31
0.0
  0
LINE
  5
1A754
  8
AM_0
 10
769.09657621867768
 20
578.77152858328122
 30
0.0
 11
769.09657621867768
 21
594.60158658328123
 31
0.0
  0
LINE
  5
1A755
  8
AM_0
 10
769.09657621867768
 20
644.76152858328123
 30
0.0
 11
769.09657621867768
 21
636.78158658328107
 31
0.0
  0
LINE
  5
1A756
  8
AM_0
 10
921.09657621867768
 20
596.94158658328126
 30
0.0
 11
767.58693921867746
 21
596.94158658328126
 31
0.0
  0
LINE
  5
1A757
  8
AM_0
 10
928.6025872186774
 20
594.60158658328123
 30
0.0
 11
767.60163121867765
 21
594.60158658328123
 31
0.0
  0
LINE
  5
1A758
  8
AM_0
 10
921.09657621867768
 20
596.59158658328124
 30
0.0
 11
769.55684721867704
 21
596.59158658328124
 31
0.0
  0
LINE
  5
1A759
  8
AM_0
 10
921.09657621867768
 20
594.99158658328122
 30
0.0
 11
769.70376021867753
 21
594.99158658328122
 31
0.0
  0
LINE
  5
1A75A
  8
AM_0
 10
769.39657621867752
 20
636.57158658328115
 30
0.0
 11
928.6025872186774
 21
636.57158658328115
 31
0.0
  0
LINE
  5
1A75B
  8
AM_0
 10
769.39657621867752
 20
634.97158658328124
 30
0.0
 11
928.6025872186774
 21
634.97158658328124
 31
0.0
  0
LINE
  5
1A75C
  8
AM_0
 10
768.1022382186776
 20
636.78158658328107
 30
0.0
 11
928.6025872186774
 21
636.78158658328107
 31
0.0
  0
LINE
  5
1A75D
  8
AM_0
 10
768.20695421867765
 20
634.75158658328121
 30
0.0
 11
928.6025872186774
 21
634.75158658328121
 31
0.0
  0
LINE
  5
1A75E
  8
AM_0
 10
767.95615221867763
 20
626.80158658328116
 30
0.0
 11
928.6025872186774
 21
626.80158658328116
 31
0.0
  0
LINE
  5
1A75F
  8
AM_0
 10
767.75882921867753
 20
616.85158658328123
 30
0.0
 11
928.6025872186774
 21
616.85158658328123
 31
0.0
  0
LINE
  5
1A760
  8
AM_0
 10
767.78162021867763
 20
614.67158658328117
 30
0.0
 11
928.6025872186774
 21
614.67158658328117
 31
0.0
  0
LINE
  5
1A761
  8
AM_0
 10
921.09657621867768
 20
604.58158658328125
 30
0.0
 11
767.58545421867746
 21
604.58158658328125
 31
0.0
  0
LINE
  5
1A762
  8
AM_0
 10
921.09657621867768
 20
606.92158658328128
 30
0.0
 11
767.60716821867754
 21
606.92158658328128
 31
0.0
  0
LINE
  5
1A763
  8
AM_0
 10
928.6025872186774
 20
624.72158658328124
 30
0.0
 11
768.01195421867783
 21
624.72158658328124
 31
0.0
  0
LINE
  5
1A764
  8
AM_0
 10
928.6025872186774
 20
624.97158658328124
 30
0.0
 11
769.39657621867752
 21
624.97158658328124
 31
0.0
  0
LINE
  5
1A765
  8
AM_0
 10
928.6025872186774
 20
626.57158658328115
 30
0.0
 11
769.39657621867752
 21
626.57158658328115
 31
0.0
  0
LINE
  5
1A766
  8
AM_0
 10
928.6025872186774
 20
616.57158658328126
 30
0.0
 11
769.39657621867752
 21
616.57158658328126
 31
0.0
  0
LINE
  5
1A767
  8
AM_0
 10
928.6025872186774
 20
614.97158658328124
 30
0.0
 11
769.39657621867752
 21
614.97158658328124
 31
0.0
  0
LINE
  5
1A768
  8
AM_0
 10
921.09657621867768
 20
606.57158658328115
 30
0.0
 11
769.63615021867747
 21
606.57158658328115
 31
0.0
  0
LINE
  5
1A769
  8
AM_0
 10
921.09657621867768
 20
604.97158658328124
 30
0.0
 11
769.63695321867783
 21
604.97158658328124
 31
0.0
  0
INSERT
  5
1A76B
  8
AM_0
  2
$6-44
 10
769.09657621867768
 20
584.16255158328158
 30
0.0
 42
-1.0
 50
90.0
  0
INSERT
  5
1A76C
  8
AM_0
  2
$6-44
 10
769.09657821867756
 20
697.38050458328098
 30
0.0
 41
-1.0
 50
270.0
  0
LINE
  5
1A76D
  8
0
 10
303.5449894456342
 20
237.93297987140301
 30
0.0
 11
303.5449894456342
 21
238.4348930282606
 31
0.0
  0
LINE
  5
1A76E
  8
0
 10
236.5449894456342
 20
237.93297987140301
 30
0.0
 11
236.5449894456342
 21
239.30398187140301
 31
0.0
  0
LINE
  5
1A76F
  8
0
 10
253.7551347118366
 20
239.30398187140301
 30
0.0
 11
236.5449894456342
 21
239.30398187140301
 31
0.0
  0
ARC
  5
1A774
  8
AM_0
 10
921.07764729835071
 20
239.8290518714031
 30
0.0
 40
2.0
 50
90.0
 51
119.6883030000036
  0
LINE
  5
1A775
  8
AM_0
 10
928.59652229835035
 20
241.8290518714031
 30
0.0
 11
921.07764729835071
 21
241.8290518714031
 31
0.0
  0
ARC
  5
1A776
  8
AM_0
 10
923.02189529835073
 20
242.53492387140301
 30
0.0
 40
2.0
 50
90.0
 51
168.9150299999994
  0
LINE
  5
1A777
  8
AM_0
 10
928.59652229835035
 20
244.53492387140301
 30
0.0
 11
923.02189529835073
 21
244.53492387140301
 31
0.0
  0
ARC
  5
1A778
  8
AM_0
 10
919.09652229835069
 20
243.30398187140301
 30
0.0
 40
2.0
 50
270.0
 51
0.000000000000007
  0
ARC
  5
1A779
  8
AM_0
 10
919.09652229835069
 20
251.803985871403
 30
0.0
 40
2.0
 50
270.0
 51
0.000000000000007
  0
LINE
  5
1A77A
  8
AM_0
 10
921.09652229835069
 20
265.50446887140299
 30
0.0
 11
921.09652229835069
 21
243.30398187140301
 31
0.0
  0
LINE
  5
1A77B
  8
AM_0
 10
928.59652229835035
 20
264.11668487140298
 30
0.0
 11
921.09652229835069
 21
264.11668487140298
 31
0.0
  0
LINE
  5
1A77C
  8
AM_0
 10
928.59652229835035
 20
252.53998987140309
 30
0.0
 11
921.09652229835069
 21
252.53998987140309
 31
0.0
  0
LINE
  5
1A77D
  8
AM_0
 10
928.59652229835035
 20
246.47982687140311
 30
0.0
 11
921.09652229835069
 21
246.47982687140311
 31
0.0
  0
ARC
  5
1A77E
  8
AM_0
 10
771.09652429835103
 20
251.80397787140299
 30
0.0
 40
2.0
 50
180.00000199999999
 51
270.00000200000278
  0
LINE
  5
1A77F
  8
AM_0
 10
919.09652229835069
 20
267.50446887140299
 30
0.0
 11
771.09652529835103
 21
267.50446887140299
 31
0.0
  0
LINE
  5
1A780
  8
AM_0
 10
919.09652229835069
 20
249.803985871403
 30
0.0
 11
771.09082129835053
 21
249.803985871403
 31
0.0
  0
LINE
  5
1A781
  8
AM_0
 10
769.09652229835103
 20
244.80398187140301
 30
0.0
 11
759.09652529835103
 21
244.80398187140301
 31
0.0
  0
LINE
  5
1A782
  8
AM_0
 10
768.09652229835103
 20
255.26517387140291
 30
0.0
 11
759.09652429835103
 21
255.26517387140291
 31
0.0
  0
INSERT
  5
1A783
  8
AM_0
  2
$6-44
 10
769.09652429835103
 20
261.69500587140311
 30
0.0
 42
-1.0
 50
90.0
  0
LINE
  5
1A784
  8
AM_0
 10
921.09652229835069
 20
393.25676987140298
 30
0.0
 11
921.09652229835069
 21
390.21796587140312
 31
0.0
  0
ARC
  5
1A785
  8
AM_0
 10
919.09652229835069
 20
384.80398587140309
 30
0.0
 40
2.0
 50
0.000000000000007
 51
90.0
  0
LINE
  5
1A786
  8
AM_0
 10
928.59652229835035
 20
372.57858287140289
 30
0.0
 11
921.09652229835069
 21
372.57858287140289
 31
0.0
  0
LINE
  5
1A787
  8
AM_0
 10
928.59652229835035
 20
384.1446018714031
 30
0.0
 11
921.09652229835069
 21
384.1446018714031
 31
0.0
  0
LINE
  5
1A788
  8
AM_0
 10
928.59652229835035
 20
390.21796587140312
 30
0.0
 11
921.09652229835069
 21
390.21796587140312
 31
0.0
  0
LINE
  5
1A789
  8
AM_0
 10
921.09652229835069
 20
394.78222787140299
 30
0.0
 11
921.09652229835069
 21
394.17895187140289
 31
0.0
  0
ARC
  5
1A78A
  8
AM_0
 10
919.09652229835069
 20
393.25676987140298
 30
0.0
 40
2.0
 50
0.000000000000007
 51
90.0
  0
LINE
  5
1A78B
  8
AM_0
 10
928.59652229835035
 20
396.1971268714031
 30
0.0
 11
922.61585129835021
 21
396.1971268714031
 31
0.0
  0
LINE
  5
1A78C
  8
AM_0
 10
928.59652229835035
 20
394.88261487140289
 30
0.0
 11
922.94521129835073
 21
394.88261487140289
 31
0.0
  0
ARC
  5
1A78D
  8
AM_0
 10
922.94521129835073
 20
396.88261487140289
 30
0.0
 40
2.0
 50
195.80962599999961
 51
270.0
  0
ARC
  5
1A78E
  8
AM_0
 10
919.09652229835069
 20
395.79284787140313
 30
0.0
 40
2.0
 50
15.80962599999966
 51
90.0
  0
ARC
  5
1A78F
  8
AM_0
 10
922.61585129835021
 20
398.1971268714031
 30
0.0
 40
2.0
 50
208.37785700000231
 51
270.0
  0
ARC
  5
1A790
  8
AM_0
 10
919.09652229835069
 20
396.29598987140309
 30
0.0
 40
2.0
 50
28.377856000002328
 51
90.0
  0
ARC
  5
1A791
  8
AM_0
 10
771.09652229835103
 20
384.80398587140309
 30
0.0
 40
2.0
 50
90.0
 51
180.0
  0
ARC
  5
1A792
  8
AM_0
 10
772.22401429835088
 20
393.25676987140298
 30
0.0
 40
2.0
 50
90.0
 51
165.00000000000071
  0
LINE
  5
1A793
  8
AM_0
 10
767.09652229835103
 20
381.84811587140302
 30
0.0
 11
770.29216229835083
 21
393.77440787140313
 31
0.0
  0
ARC
  5
1A794
  8
AM_0
 10
771.2594982983511
 20
394.78222787140299
 30
0.0
 40
2.0
 50
90.0
 51
165.00000000000071
  0
LINE
  5
1A795
  8
AM_0
 10
767.09652229835103
 20
386.97319887140299
 30
0.0
 11
769.32764629835071
 21
395.29986687140303
 31
0.0
  0
ARC
  5
1A796
  8
AM_0
 10
770.71180429835101
 20
395.79284787140313
 30
0.0
 40
2.0
 50
90.0
 51
165.00000000000071
  0
LINE
  5
1A797
  8
AM_0
 10
767.09652229835103
 20
390.027835871403
 30
0.0
 11
768.77995329835073
 21
396.31048587140299
 31
0.0
  0
ARC
  5
1A798
  8
AM_0
 10
770.43077029835104
 20
396.29598987140309
 30
0.0
 40
2.0
 50
90.0
 51
165.00000000000071
  0
LINE
  5
1A799
  8
AM_0
 10
767.09652229835103
 20
391.57981387140308
 30
0.0
 11
768.49891829835065
 21
396.8136288714029
 31
0.0
  0
ARC
  5
1A79A
  8
AM_0
 10
923.09652229835035
 20
394.17895187140289
 30
0.0
 40
2.0
 50
180.0
 51
270.0
  0
ARC
  5
1A79B
  8
AM_0
 10
919.09652229835069
 20
394.78222787140299
 30
0.0
 40
2.0
 50
0.000000000000007
 51
90.0
  0
LINE
  5
1A79C
  8
AM_0
 10
928.59652229835035
 20
392.178951871403
 30
0.0
 11
923.09652229835035
 21
392.178951871403
 31
0.0
  0
LINE
  5
1A79D
  8
AM_0
 10
921.09652229835069
 20
390.21796587140312
 30
0.0
 11
921.09652229835069
 21
371.17532187140313
 31
0.0
  0
INSERT
  5
1A79E
  8
AM_0
  2
$6-44
 10
769.09652229835103
 20
374.91295887140302
 30
0.0
 41
-1.0
 50
270.0
  0
LINE
  5
1A79F
  8
AM_0
 10
768.09652229835103
 20
381.34278987140311
 30
0.0
 11
759.09652229835103
 21
381.34278987140311
 31
0.0
  0
LINE
  5
1A7A0
  8
AM_0
 10
919.09652229835069
 20
369.17532187140313
 30
0.0
 11
771.09652229835103
 21
369.17532187140313
 31
0.0
  0
LINE
  5
1A7A1
  8
AM_0
 10
919.09652229835069
 20
398.29598987140309
 30
0.0
 11
770.43077029835104
 21
398.29598987140309
 31
0.0
  0
LINE
  5
1A7A2
  8
AM_0
 10
919.09652229835069
 20
386.80398587140297
 30
0.0
 11
771.09652229835103
 21
386.80398587140297
 31
0.0
  0
LINE
  5
1A7A3
  8
AM_0
 10
919.09652229835069
 20
395.25676987140298
 30
0.0
 11
772.22401429835088
 21
395.25676987140298
 31
0.0
  0
LINE
  5
1A7A4
  8
AM_0
 10
919.09652229835069
 20
396.78222787140311
 30
0.0
 11
771.2594982983511
 21
396.78222787140311
 31
0.0
  0
LINE
  5
1A7A5
  8
AM_0
 10
919.09652229835069
 20
397.79284787140313
 30
0.0
 11
770.71180429835101
 21
397.79284787140313
 31
0.0
  0
LINE
  5
1A7A6
  8
AM_0
 10
849.09652229835058
 20
239.30398187140301
 30
0.0
 11
849.09652229835058
 21
236.30398187140301
 31
0.0
  0
LINE
  5
1A7A7
  8
AM_0
 10
782.09652229835103
 20
239.30398187140301
 30
0.0
 11
782.09652229835103
 21
236.30398187140301
 31
0.0
  0
LINE
  5
1A7A8
  8
AM_0
 10
984.59652229835035
 20
257.51101187140301
 30
0.0
 11
984.59652229835035
 21
380.41894187140309
 31
0.0
  0
LINE
  5
1A7A9
  8
AM_0
 10
988.59615229835072
 20
255.70400187140311
 30
0.0
 11
988.59615229835072
 21
380.9039218714031
 31
0.0
  0
LINE
  5
1A7AA
  8
AM_0
 10
984.19656229835039
 20
385.57098187140298
 30
0.0
 11
983.07357229835043
 21
391.94195187140298
 31
0.0
  0
LINE
  5
1A7AB
  8
AM_0
 10
977.71145229835065
 20
396.68591187140299
 30
0.0
 11
952.06948229835064
 21
398.0299018714029
 31
0.0
  0
LINE
  5
1A7AC
  8
AM_0
 10
951.59652229835035
 20
239.24868187140319
 30
0.0
 11
951.59652229835035
 21
397.19055187140299
 31
0.0
  0
LINE
  5
1A7AD
  8
AM_0
 10
980.73458229835035
 20
390.3309318714031
 30
0.0
 11
980.73458229835035
 21
246.78396187140299
 31
0.0
  0
LINE
  5
1A7AE
  8
AM_0
 10
984.19656229835039
 20
251.0369818714031
 30
0.0
 11
983.07357229835043
 21
244.66692187140291
 31
0.0
  0
LINE
  5
1A7AF
  8
AM_0
 10
977.71151229835084
 20
239.92297187140309
 30
0.0
 11
952.06948229835064
 21
238.57897187140301
 31
0.0
  0
LINE
  5
1A7B0
  8
AM_0
 10
950.50350229835044
 20
399.053951871403
 30
0.0
 11
928.59652229835035
 21
399.053951871403
 31
0.0
  0
LINE
  5
1A7B1
  8
AM_0
 10
950.50350229835044
 20
237.5539818714031
 30
0.0
 11
928.59652229835035
 21
237.5539818714031
 31
0.0
  0
LINE
  5
1A7B2
  8
AM_0
 10
782.09652229835103
 20
241.30398187140301
 30
0.0
 11
782.09652229835103
 21
239.30398187140301
 31
0.0
  0
LINE
  5
1A7B3
  8
AM_0
 10
849.09652229835058
 20
241.30398187140301
 30
0.0
 11
849.09652229835058
 21
239.30398187140301
 31
0.0
  0
LINE
  5
1A7B4
  8
AM_0
 10
849.09652229835058
 20
239.30398187140301
 30
0.0
 11
782.09652229835103
 21
239.30398187140301
 31
0.0
  0
LINE
  5
1A7B5
  8
AM_0
 10
919.09652229835069
 20
241.30398187140301
 30
0.0
 11
772.31600229835101
 21
241.30398187140301
 31
0.0
  0
LINE
  5
1A7B6
  8
AM_0
 10
805.59652229835069
 20
344.30398187140298
 30
0.0
 11
928.59652229835035
 21
344.30398187140298
 31
0.0
  0
LINE
  5
1A7B7
  8
AM_0
 10
805.59652229835069
 20
292.30398187140293
 30
0.0
 11
928.59652229835035
 21
292.30398187140293
 31
0.0
  0
LINE
  5
1A7B8
  8
AM_0
 10
789.59652229835103
 20
345.30398187140298
 30
0.0
 11
789.59652229835103
 21
351.30398187140298
 31
0.0
  0
LINE
  5
1A7B9
  8
AM_0
 10
804.59652229835069
 20
345.30398187140298
 30
0.0
 11
804.59652229835069
 21
351.30398187140298
 31
0.0
  0
LINE
  5
1A7BA
  8
AM_0
 10
789.59652229835103
 20
291.30398187140293
 30
0.0
 11
789.59652229835103
 21
285.30398187140293
 31
0.0
  0
LINE
  5
1A7BB
  8
AM_0
 10
804.59652229835069
 20
291.30398187140293
 30
0.0
 11
804.59652229835069
 21
285.30398187140293
 31
0.0
  0
LINE
  5
1A7BC
  8
AM_0
 10
833.09652229835058
 20
338.80398187140293
 30
0.0
 11
833.09652229835058
 21
297.80398187140293
 31
0.0
  0
LINE
  5
1A7BD
  8
AM_0
 10
770.09652229835103
 20
338.80398187140293
 30
0.0
 11
770.09652229835103
 21
297.80398187140293
 31
0.0
  0
LINE
  5
1A7BE
  8
AM_0
 10
833.09652229835058
 20
338.80398187140293
 30
0.0
 11
770.09652229835103
 21
338.80398187140293
 31
0.0
  0
LINE
  5
1A7BF
  8
AM_0
 10
833.09652229835058
 20
297.80398187140293
 30
0.0
 11
770.09652229835103
 21
297.80398187140293
 31
0.0
  0
LINE
  5
1A7C0
  8
AM_0
 10
833.09652229835058
 20
331.3039818714031
 30
0.0
 11
770.09652229835103
 21
331.3039818714031
 31
0.0
  0
LINE
  5
1A7C1
  8
AM_0
 10
921.09652229835069
 20
321.30398187140293
 30
0.0
 11
921.09652229835069
 21
315.30398187140293
 31
0.0
  0
LINE
  5
1A7C2
  8
AM_0
 10
770.38442229835084
 20
242.7852718714031
 30
0.0
 11
769.39651229835044
 21
246.46395187140311
 31
0.0
  0
LINE
  5
1A7C3
  8
AM_0
 10
770.97250229835072
 20
242.7852718714031
 30
0.0
 11
769.39651229835044
 21
248.65399187140301
 31
0.0
  0
LINE
  5
1A7C4
  8
AM_0
 10
769.09652229835103
 20
281.345761871403
 30
0.0
 11
769.09652229835103
 21
244.80398187140301
 31
0.0
  0
LINE
  5
1A7C5
  8
AM_0
 10
770.09652229835103
 20
294.30398187140293
 30
0.0
 11
928.59652229835035
 21
294.30398187140293
 31
0.0
  0
LINE
  5
1A7C6
  8
AM_0
 10
770.09652229835103
 20
292.30398187140293
 30
0.0
 11
788.59652229835103
 21
292.30398187140293
 31
0.0
  0
LINE
  5
1A7C7
  8
AM_0
 10
837.09652229835069
 20
302.3039818714031
 30
0.0
 11
928.59652229835035
 21
302.3039818714031
 31
0.0
  0
LINE
  5
1A7C8
  8
AM_0
 10
837.09652229835069
 20
304.3039818714031
 30
0.0
 11
928.59652229835035
 21
304.3039818714031
 31
0.0
  0
LINE
  5
1A7C9
  8
AM_0
 10
837.09652229835069
 20
312.30398187140293
 30
0.0
 11
928.59652229835035
 21
312.30398187140293
 31
0.0
  0
LINE
  5
1A7CA
  8
AM_0
 10
837.09652229835069
 20
314.30398187140293
 30
0.0
 11
920.09652229835069
 21
314.30398187140293
 31
0.0
  0
LINE
  5
1A7CB
  8
AM_0
 10
770.09652229835103
 20
272.30398187140298
 30
0.0
 11
928.59652229835035
 21
272.30398187140298
 31
0.0
  0
LINE
  5
1A7CC
  8
AM_0
 10
770.09652229835103
 20
284.30398187140293
 30
0.0
 11
928.59652229835035
 21
284.30398187140293
 31
0.0
  0
LINE
  5
1A7CD
  8
AM_0
 10
770.09652229835103
 20
282.30398187140293
 30
0.0
 11
928.59652229835035
 21
282.30398187140293
 31
0.0
  0
LINE
  5
1A7CE
  8
AM_0
 10
770.09652229835103
 20
274.30398187140298
 30
0.0
 11
928.59652229835035
 21
274.30398187140298
 31
0.0
  0
LINE
  5
1A7CF
  8
AM_0
 10
770.09652229835103
 20
362.30398187140298
 30
0.0
 11
928.59652229835035
 21
362.30398187140298
 31
0.0
  0
LINE
  5
1A7D0
  8
AM_0
 10
770.09652229835103
 20
354.3039818714031
 30
0.0
 11
928.59652229835035
 21
354.3039818714031
 31
0.0
  0
LINE
  5
1A7D1
  8
AM_0
 10
770.09652229835103
 20
352.3039818714031
 30
0.0
 11
928.59652229835035
 21
352.3039818714031
 31
0.0
  0
LINE
  5
1A7D2
  8
AM_0
 10
770.09652229835103
 20
364.30398187140298
 30
0.0
 11
928.59652229835035
 21
364.30398187140298
 31
0.0
  0
LINE
  5
1A7D3
  8
AM_0
 10
837.09652229835069
 20
322.30398187140293
 30
0.0
 11
920.09652229835069
 21
322.30398187140293
 31
0.0
  0
LINE
  5
1A7D4
  8
AM_0
 10
837.09652229835069
 20
324.30398187140293
 30
0.0
 11
928.59652229835035
 21
324.30398187140293
 31
0.0
  0
LINE
  5
1A7D5
  8
AM_0
 10
837.09652229835069
 20
332.30398187140293
 30
0.0
 11
928.59652229835035
 21
332.30398187140293
 31
0.0
  0
LINE
  5
1A7D6
  8
AM_0
 10
837.09652229835069
 20
334.30398187140293
 30
0.0
 11
928.59652229835035
 21
334.30398187140293
 31
0.0
  0
LINE
  5
1A7D7
  8
AM_0
 10
770.09652229835103
 20
344.30398187140298
 30
0.0
 11
788.59652229835103
 21
344.30398187140298
 31
0.0
  0
LINE
  5
1A7D8
  8
AM_0
 10
770.09652229835103
 20
342.30398187140293
 30
0.0
 11
928.59652229835035
 21
342.30398187140293
 31
0.0
  0
LINE
  5
1A7D9
  8
AM_0
 10
769.09652229835103
 20
355.26220187140319
 30
0.0
 11
769.09652229835103
 21
384.80398587140309
 31
0.0
  0
LINE
  5
1A7DA
  8
AM_0
 10
928.59652229835035
 20
399.053951871403
 30
0.0
 11
928.59652229835035
 21
237.5539818714031
 31
0.0
  0
ARC
  5
1A7DB
  8
AM_0
 10
952.09652229835069
 20
398.5289218714031
 30
0.0
 40
0.5
 50
204.4560500000006
 51
267.00003000000908
  0
ARC
  5
1A7DC
  8
AM_0
 10
977.41061229835054
 20
390.94396187140308
 30
0.0
 40
5.75
 50
10.000020000000919
 51
87.000013999997904
  0
ARC
  5
1A7DD
  8
AM_0
 10
950.50350229835044
 20
397.80395187140289
 30
0.0
 40
1.25
 50
24.456019999997931
 51
90.000011000008953
  0
ARC
  5
1A7DE
  8
AM_0
 10
986.34615229835083
 20
380.9039218714031
 30
0.0
 40
2.25
 50
0.0000200000000352
 51
81.18341200000296
  0
ARC
  5
1A7DF
  8
AM_0
 10
987.15084229835065
 20
386.09203187140298
 30
0.0
 40
3.0
 50
190.00004999999891
 51
261.18303000000259
  0
ARC
  5
1A7E0
  8
AM_0
 10
986.34615229835083
 20
255.70400187140311
 30
0.0
 40
2.25
 50
278.8170600000015
 51
0.0000200000000352
  0
ARC
  5
1A7E1
  8
AM_0
 10
987.15084229835065
 20
250.51602187140301
 30
0.0
 40
3.0
 50
98.816809000005833
 51
170.0001680000004
  0
ARC
  5
1A7E2
  8
AM_0
 10
952.09652229835069
 20
238.07998187140299
 30
0.0
 40
0.5
 50
93.000015000006698
 51
155.5436010000015
  0
ARC
  5
1A7E3
  8
AM_0
 10
977.41061229835054
 20
245.6649418714031
 30
0.0
 40
5.75
 50
273.00004999999697
 51
350.00001999999978
  0
ARC
  5
1A7E4
  8
AM_0
 10
950.50350229835044
 20
238.80398187140301
 30
0.0
 40
1.25
 50
270.00004000000399
 51
335.54403000000201
  0
ARC
  5
1A7E5
  8
AM_0
 10
772.31600229835101
 20
243.30398187140301
 30
0.0
 40
2.0
 50
195.03169000000159
 51
270.000010000001
  0
ARC
  5
1A7E6
  8
AM_0
 10
772.904082298351
 20
243.30398187140301
 30
0.0
 40
2.0
 50
195.03169000000159
 51
270.000010000001
  0
ARC
  5
1A7E7
  8
AM_0
 10
788.59652229835103
 20
285.30398187140293
 30
0.0
 40
1.0
 50
270.0
 51
0.0000099999999957
  0
ARC
  5
1A7E8
  8
AM_0
 10
805.59652229835069
 20
285.30398187140293
 30
0.0
 40
1.0
 50
179.999999
 51
270.000010000001
  0
ARC
  5
1A7E9
  8
AM_0
 10
805.59652229835069
 20
351.30398187140298
 30
0.0
 40
1.0
 50
89.999997000002296
 51
180.0
  0
ARC
  5
1A7EA
  8
AM_0
 10
788.59652229835103
 20
351.30398187140298
 30
0.0
 40
1.0
 50
359.99999000000008
 51
89.999997000002296
  0
ARC
  5
1A7EB
  8
AM_0
 10
788.59652229835103
 20
291.30398187140293
 30
0.0
 40
1.0
 50
359.99999000000008
 51
89.999997000002296
  0
ARC
  5
1A7EC
  8
AM_0
 10
805.59652229835069
 20
291.30398187140293
 30
0.0
 40
1.0
 50
89.999997000002296
 51
180.0
  0
ARC
  5
1A7ED
  8
AM_0
 10
788.59652229835103
 20
345.30398187140298
 30
0.0
 40
1.0
 50
270.0
 51
0.0000099999999957
  0
ARC
  5
1A7EE
  8
AM_0
 10
805.59652229835069
 20
345.30398187140298
 30
0.0
 40
1.0
 50
179.999999
 51
270.000010000001
  0
CIRCLE
  5
1A7EF
  8
AM_0
 10
794.59652229835103
 20
346.80398187140298
 30
0.0
 40
1.0
  0
CIRCLE
  5
1A7F0
  8
AM_0
 10
799.59652229835103
 20
346.80398187140298
 30
0.0
 40
1.149999999999999
  0
CIRCLE
  5
1A7F1
  8
AM_0
 10
799.59652229835103
 20
346.80398187140298
 30
0.0
 40
1.1000000000000001
  0
CIRCLE
  5
1A7F2
  8
AM_0
 10
799.59652229835103
 20
289.80398187140293
 30
0.0
 40
1.1000000000000001
  0
CIRCLE
  5
1A7F3
  8
AM_0
 10
799.59652229835103
 20
289.80398187140293
 30
0.0
 40
1.149999999999999
  0
CIRCLE
  5
1A7F4
  8
AM_0
 10
794.59652229835103
 20
289.80398187140293
 30
0.0
 40
1.0
  0
ARC
  5
1A7F5
  8
AM_0
 10
837.09652229835069
 20
333.3039818714031
 30
0.0
 40
1.0
 50
89.999997000002296
 51
270.000010000001
  0
ARC
  5
1A7F6
  8
AM_0
 10
837.09652229835069
 20
323.3039818714031
 30
0.0
 40
1.0
 50
89.999997000002296
 51
270.000010000001
  0
ARC
  5
1A7F7
  8
AM_0
 10
837.09652229835069
 20
313.30398187140293
 30
0.0
 40
1.0
 50
89.999997000002296
 51
270.000010000001
  0
ARC
  5
1A7F8
  8
AM_0
 10
837.09652229835069
 20
303.30398187140293
 30
0.0
 40
1.0
 50
89.999997000002296
 51
270.000010000001
  0
ARC
  5
1A7F9
  8
AM_0
 10
772.04653229835071
 20
283.3039818714031
 30
0.0
 40
1.0
 50
89.999997000002296
 51
270.000010000001
  0
ARC
  5
1A7FA
  8
AM_0
 10
770.09652229835103
 20
283.3039818714031
 30
0.0
 40
1.0
 50
89.999997000002296
 51
270.000010000001
  0
ARC
  5
1A7FB
  8
AM_0
 10
772.04653229835071
 20
293.30398187140293
 30
0.0
 40
1.0
 50
89.999997000002296
 51
270.000010000001
  0
ARC
  5
1A7FC
  8
AM_0
 10
770.09652229835103
 20
293.30398187140293
 30
0.0
 40
1.0
 50
89.999997000002296
 51
270.000010000001
  0
ARC
  5
1A7FD
  8
AM_0
 10
772.04653229835071
 20
343.30398187140293
 30
0.0
 40
1.0
 50
89.999997000002296
 51
270.000010000001
  0
ARC
  5
1A7FE
  8
AM_0
 10
770.09652229835103
 20
343.30398187140293
 30
0.0
 40
1.0
 50
89.999997000002296
 51
270.000010000001
  0
ARC
  5
1A7FF
  8
AM_0
 10
772.04653229835071
 20
353.30398187140298
 30
0.0
 40
1.0
 50
89.999997000002296
 51
270.000010000001
  0
ARC
  5
1A800
  8
AM_0
 10
770.09652229835103
 20
353.30398187140298
 30
0.0
 40
1.0
 50
89.999997000002296
 51
270.000010000001
  0
ARC
  5
1A801
  8
AM_0
 10
920.09652229835069
 20
321.30398187140293
 30
0.0
 40
1.0
 50
359.99999000000008
 51
89.999997000002296
  0
ARC
  5
1A802
  8
AM_0
 10
920.09652229835069
 20
315.30398187140293
 30
0.0
 40
1.0
 50
270.0
 51
0.0000099999999957
  0
ARC
  5
1A803
  8
AM_0
 10
920.09655229835073
 20
303.30398187140293
 30
0.0
 40
1.0
 50
270.0
 51
89.999997000002296
  0
ARC
  5
1A804
  8
AM_0
 10
920.09655229835073
 20
293.30398187140293
 30
0.0
 40
1.0
 50
270.0
 51
89.999997000002296
  0
ARC
  5
1A805
  8
AM_0
 10
772.04653229835071
 20
273.3039818714031
 30
0.0
 40
1.0
 50
89.999997000002296
 51
270.000010000001
  0
ARC
  5
1A806
  8
AM_0
 10
770.09652229835103
 20
273.3039818714031
 30
0.0
 40
1.0
 50
89.999997000002296
 51
270.000010000001
  0
ARC
  5
1A807
  8
AM_0
 10
920.09655229835073
 20
273.3039818714031
 30
0.0
 40
1.0
 50
270.0
 51
89.999997000002296
  0
ARC
  5
1A808
  8
AM_0
 10
920.09655229835073
 20
283.3039818714031
 30
0.0
 40
1.0
 50
270.0
 51
89.999997000002296
  0
ARC
  5
1A809
  8
AM_0
 10
767.95046229835054
 20
246.08358187140311
 30
0.0
 40
1.4952499999999991
 50
14.737399999998461
 51
39.96234999999821
  0
ARC
  5
1A80A
  8
AM_0
 10
767.9555322983507
 20
248.25948187140301
 30
0.0
 40
1.494020999999998
 50
15.309660000000431
 51
40.207419999997889
  0
ARC
  5
1A80B
  8
AM_0
 10
767.95236229835143
 20
392.07104187140311
 30
0.0
 40
1.495147999999999
 50
344.99378699999932
 51
344.9981099999988
  0
ARC
  5
1A80C
  8
AM_0
 10
920.09655229835073
 20
353.30398187140298
 30
0.0
 40
1.0
 50
270.0
 51
89.999997000002296
  0
ARC
  5
1A80D
  8
AM_0
 10
920.09655229835073
 20
363.30398187140298
 30
0.0
 40
1.0
 50
270.0
 51
89.999997000002296
  0
ARC
  5
1A80E
  8
AM_0
 10
770.09652229835103
 20
363.30398187140298
 30
0.0
 40
1.0
 50
89.999997000002296
 51
270.000010000001
  0
ARC
  5
1A80F
  8
AM_0
 10
772.04653229835071
 20
363.30398187140298
 30
0.0
 40
1.0
 50
89.999997000002296
 51
270.000010000001
  0
ARC
  5
1A810
  8
AM_0
 10
920.09655229835073
 20
343.30398187140293
 30
0.0
 40
1.0
 50
270.0
 51
89.999997000002296
  0
ARC
  5
1A811
  8
AM_0
 10
920.09655229835073
 20
333.3039818714031
 30
0.0
 40
1.0
 50
270.0
 51
89.999997000002296
  0
LINE
  5
1A812
  8
AM_0
 10
759.09651629835071
 20
391.80398687140303
 30
0.0
 11
767.15658929835058
 21
391.80398687140303
 31
0.0
  0
LINE
  5
1A813
  8
AM_0
 10
768.09652229835103
 20
281.345761871403
 30
0.0
 11
759.09652229835103
 21
281.345761871403
 31
0.0
  0
LINE
  5
1A814
  8
AM_0
 10
768.09652229835103
 20
355.26220187140319
 30
0.0
 11
759.09652229835103
 21
355.26220187140319
 31
0.0
  0
ARC
  5
1A86B
  8
0
 10
270.0449894456342
 20
318.30398187140293
 30
0.0
 40
70.0
 50
200.92483308710729
 51
203.89550426996499
  0
ARC
  5
1A86C
  8
0
 10
270.0449894456342
 20
318.30398187140293
 30
0.0
 40
70.0
 50
170.30368909650539
 51
189.69631090349461
  0
TEXT
  5
1AAD3
  8
AM_0
 10
171.6484326220488
 20
656.43505919017957
 30
0.0
 40
10.0
  1
VC08-007EFMH~VC08-060EFMH
1001
ACAD
1000
MTEXTBEGIN
1070
    73
1070
     1
1070
    44
1040
1.0
1070
    74
1070
     0
1000
MTEXTEND
  0
ARC
  5
1B212
  8
AM_0
 10
592.59654889167837
 20
318.30398187140293
 30
0.0
 40
17.5
 50
106.60155010845349
 51
73.398449891544573
  0
VIEWPORT
  5
89
 67
     1
  8
0
 10
210.0
 20
148.5
 30
0.0
 40
420.0
 41
297.0
 68
     1
 69
     1
1001
ACAD
1000
MVIEW
1002
{
1070
    16
1010
0.0
1020
0.0
1030
0.0
1010
0.0
1020
0.0
1030
1.0
1040
0.0
1040
297.0
1040
221.70154043645701
1040
148.5
1040
50.0
1040
0.0
1040
0.0
1070
     0
1070
   100
1070
     1
1070
     1
1070
     0
1070
     0
1070
     0
1070
     0
1040
0.0
1040
0.0
1040
0.0
1040
10.0
1040
10.0
1040
10.0
1040
10.0
1070
     0
1002
{
1002
}
1002
}
1001
GENIUS_GENOREF_13
1005
1B94
1001
GENIUS_GENSCREG_15
1000
PF
1040
1.0
1000
DF
1040
1.0
1000
MIN
1011
0.0
1021
0.0
1031
0.0
1021
0.0
1031
0.0
1000
MAX
1011
420.0
1021
0.0
1031
0.0
1021
297.0
1031
0.0
1000
FLAGS
1070
     4
  0
ENDSEC
  0
EOF
