  0
SECTION
  2
HEADER
  9
$ACADVER
  1
AC1009
  9
$INSBASE
 10
0.0
 20
0.0
 30
0.0
  9
$EXTMIN
 10
99.463869952903664
 20
183.0541805944892
 30
-0.0000000000000058
  9
$EXTMAX
 10
993.82254276497076
 20
807.71593472833183
 30
0.0000000000000104
  9
$LIMMIN
 10
0.0
 20
0.0
  9
$LIMMAX
 10
1138.0
 20
740.00000000000011
  9
$ORTHOMODE
 70
     0
  9
$REGENMODE
 70
     1
  9
$FILLMODE
 70
     1
  9
$QTEXTMODE
 70
     0
  9
$MIRRTEXT
 70
     1
  9
$DRAGMODE
 70
     2
  9
$LTSCALE
 40
4.0
  9
$OSMODE
 70
   551
  9
$ATTMODE
 70
     1
  9
$TEXTSIZE
 40
2.5
  9
$TRACEWID
 40
1.0
  9
$TEXTSTYLE
  7
STANDARD
  9
$CLAYER
  8
AM_0
  9
$CELTYPE
  6
BYLAYER
  9
$CECOLOR
 62
   256
  9
$DIMSCALE
 40
4.0
  9
$DIMASZ
 40
2.5
  9
$DIMEXO
 40
1.0
  9
$DIMDLI
 40
7.0
  9
$DIMRND
 40
0.0
  9
$DIMDLE
 40
0.0
  9
$DIMEXE
 40
1.0
  9
$DIMTP
 40
0.1
  9
$DIMTM
 40
0.1000000001
  9
$DIMTXT
 40
2.5
  9
$DIMCEN
 40
0.0
  9
$DIMTSZ
 40
0.0
  9
$DIMTOL
 70
     0
  9
$DIMLIM
 70
     0
  9
$DIMTIH
 70
     0
  9
$DIMTOH
 70
     0
  9
$DIMSE1
 70
     0
  9
$DIMSE2
 70
     0
  9
$DIMTAD
 70
     3
  9
$DIMZIN
 70
     8
  9
$DIMBLK
  1

  9
$DIMASO
 70
     1
  9
$DIMSHO
 70
     1
  9
$DIMPOST
  1

  9
$DIMAPOST
  1
"
  9
$DIMALT
 70
     0
  9
$DIMALTD
 70
     2
  9
$DIMALTF
 40
0.0393701
  9
$DIMLFAC
 40
1.0
  9
$DIMTOFL
 70
     1
  9
$DIMTVP
 40
0.0
  9
$DIMTIX
 70
     0
  9
$DIMSOXD
 70
     0
  9
$DIMSAH
 70
     0
  9
$DIMBLK1
  1

  9
$DIMBLK2
  1

  9
$DIMSTYLE
  2
AM_JIS
  9
$DIMCLRD
 70
   256
  9
$DIMCLRE
 70
   256
  9
$DIMCLRT
 70
     4
  9
$DIMTFAC
 40
0.71
  9
$DIMGAP
 40
1.0
  9
$LUNITS
 70
     2
  9
$LUPREC
 70
     2
  9
$SKETCHINC
 40
1.0
  9
$FILLETRAD
 40
0.0
  9
$AUNITS
 70
     0
  9
$AUPREC
 70
     3
  9
$MENU
  1
.
  9
$ELEVATION
 40
0.0
  9
$PELEVATION
 40
0.0
  9
$THICKNESS
 40
0.0
  9
$LIMCHECK
 70
     0
  9
$BLIPMODE
 70
     0
  9
$CHAMFERA
 40
10.0
  9
$CHAMFERB
 40
10.0
  9
$SKPOLY
 70
     0
  9
$TDCREATE
 40
2452753.643349607
  9
$TDUPDATE
 40
2458544.440654085
  9
$TDINDWG
 40
0.6696058565
  9
$TDUSRTIMER
 40
0.6696025694
  9
$USRTIMER
 70
     1
  9
$ANGBASE
 50
0.0
  9
$ANGDIR
 70
     0
  9
$PDMODE
 70
     0
  9
$PDSIZE
 40
0.0
  9
$PLINEWID
 40
0.0
  9
$COORDS
 70
     1
  9
$SPLFRAME
 70
     0
  9
$SPLINETYPE
 70
     6
  9
$SPLINESEGS
 70
     8
  9
$ATTDIA
 70
     1
  9
$ATTREQ
 70
     1
  9
$HANDLING
 70
     1
  9
$HANDSEED
  5
1B1ED
  9
$SURFTAB1
 70
     6
  9
$SURFTAB2
 70
     6
  9
$SURFTYPE
 70
     6
  9
$SURFU
 70
     6
  9
$SURFV
 70
     6
  9
$UCSNAME
  2

  9
$UCSORG
 10
0.0
 20
0.0
 30
0.0
  9
$UCSXDIR
 10
1.0
 20
0.0
 30
0.0
  9
$UCSYDIR
 10
0.0
 20
1.0
 30
0.0
  9
$PUCSNAME
  2

  9
$PUCSORG
 10
0.0
 20
0.0
 30
0.0
  9
$PUCSXDIR
 10
1.0
 20
0.0
 30
0.0
  9
$PUCSYDIR
 10
0.0
 20
1.0
 30
0.0
  9
$USERI1
 70
     0
  9
$USERI2
 70
     0
  9
$USERI3
 70
     0
  9
$USERI4
 70
     0
  9
$USERI5
 70
     0
  9
$USERR1
 40
0.0
  9
$USERR2
 40
0.0
  9
$USERR3
 40
0.0
  9
$USERR4
 40
0.0
  9
$USERR5
 40
0.0
  9
$WORLDVIEW
 70
     1
  9
$SHADEDGE
 70
     3
  9
$SHADEDIF
 70
    70
  9
$TILEMODE
 70
     1
  9
$MAXACTVP
 70
    48
  9
$PLIMCHECK
 70
     0
  9
$PEXTMIN
 10
1.0000000000000000E+020
 20
1.0000000000000000E+020
 30
1.0000000000000000E+020
  9
$PEXTMAX
 10
-1.0000000000000000E+020
 20
-1.0000000000000000E+020
 30
-1.0000000000000000E+020
  9
$PLIMMIN
 10
0.0
 20
0.0
  9
$PLIMMAX
 10
420.0
 20
297.0
  9
$UNITMODE
 70
     0
  9
$VISRETAIN
 70
     1
  9
$PLINEGEN
 70
     0
  9
$PSLTSCALE
 70
     1
  0
ENDSEC
  0
SECTION
  2
TABLES
  0
TABLE
  2
VPORT
 70
     1
  0
VPORT
  2
*ACTIVE
 70
     0
 10
0.0
 20
0.0
 11
1.0
 21
1.0
 12
546.64320635893728
 22
495.38505766141049
 13
0.0
 23
0.0
 14
10.0
 24
10.0
 15
40.0
 25
40.0
 16
0.0
 26
0.0
 36
1.0
 17
0.0
 27
0.0
 37
0.0
 40
628.95004992881161
 41
1.7571592210767459
 42
50.0
 43
0.0
 44
0.0
 50
0.0
 51
0.0
 71
     0
 72
   100
 73
     1
 74
     1
 75
     0
 76
     0
 77
     0
 78
     0
  0
ENDTAB
  0
TABLE
  2
LTYPE
 70
    26
  0
LTYPE
  2
CONTINUOUS
 70
     0
  3
Solid line
 72
    65
 73
     0
 40
0.0
  0
LTYPE
  2
PHANTOM2
 70
     0
  3
Phantom (.5x) ___ _ _ ___ _ _ ___ _ _ ___ _ _
 72
    65
 73
     6
 40
31.75
 49
15.875
 49
-3.174999999999998
 49
3.174999999999998
 49
-3.174999999999998
 49
3.174999999999998
 49
-3.174999999999998
  0
LTYPE
  2
CENTER
 70
     0
  3
Center ____ _ ____ _ ____ _ ____ _ ____ _ ____
 72
    65
 73
     4
 40
50.799999999999997
 49
31.75
 49
-6.349999999999997
 49
6.349999999999997
 49
-6.349999999999997
  0
LTYPE
  2
GEN3B
 70
     0
  3
 - - - - -
 72
    65
 73
     2
 40
1.0
 49
0.5
 49
-0.5
  0
LTYPE
  2
GEN7A
 70
     0
  3
__ . __ . __
 72
    65
 73
     4
 40
7.375
 49
4.75
 49
-0.875
 49
0.875
 49
-0.875
  0
LTYPE
  2
AM_ISO02W050
 70
     0
  3
__ __ __ __ __ __ __ __ __ __ __ __ __ __ __
 72
    65
 73
     2
 40
7.5
 49
6.0
 49
-1.5
  0
LTYPE
  2
AM_ISO08W050
 70
     0
  3
____ . ____ . ____ . ____ . ____ . ____ . ____
 72
    65
 73
     4
 40
18.0
 49
12.0
 49
-1.5
 49
3.0
 49
-1.5
  0
LTYPE
  2
AM_ISO09W050
 70
     0
  3
_____ . . _____ . . _____ . . ____ .. ____
 72
    65
 73
     6
 40
22.5
 49
12.0
 49
-1.5
 49
3.0
 49
-1.5
 49
3.0
 49
-1.5
  0
LTYPE
  2
AMCONSTR
 70
     0
  3
_______________________
 72
    65
 73
     2
 40
9999.0
 49
9999.0
 49
0.0
  0
LTYPE
  2
AM_ISO02W050X2
 70
     0
  3
 _ _ _ _ _ _ _ _ _ _ _ _
 72
    65
 73
     2
 40
3.75
 49
3.0
 49
-0.75
  0
LTYPE
  2
AM_ISO08W050X2
 70
     0
  3
__ . __ . __ . __ . __ . __
 72
    65
 73
     4
 40
9.0
 49
6.0
 49
-0.75
 49
1.5
 49
-0.75
  0
LTYPE
  2
AMZIGZAG
 70
     0
  3
/\/-/\/-/\/-/\/-/\/-/\/
 72
    65
 73
     2
 40
11.0001
 49
0.0001
 49
-11.0
  0
LTYPE
  2
ACISOWELD
 70
     0
  3
_ _ _ _ _
 72
    65
 73
     2
 40
2.0
 49
2.0
 49
-1.0
  0
LTYPE
  2
ACISOTGB
 70
     0
  3
__ . . __ . .
 72
    65
 73
     6
 40
9.0
 49
4.0
 49
-1.0
 49
1.0
 49
-1.0
 49
1.0
 49
-1.0
  0
LTYPE
  2
ACISOTGL
 70
     0
  3
_ _ _ _ _
 72
    65
 73
     2
 40
3.0
 49
2.0
 49
-1.0
  0
LTYPE
  2
HIDDEN
 70
     0
  3
Hidden __ __ __ __ __ __ __ __ __ __ __ __ __ _
 72
    65
 73
     2
 40
9.5249999999999968
 49
6.349999999999997
 49
-3.174999999999998
  0
LTYPE
  2
ACANSTGBM
 70
     0
  3
__ . . __ . .
 72
    65
 73
     6
 40
9.0
 49
4.0
 49
-1.0
 49
1.0
 49
-1.0
 49
1.0
 49
-1.0
  0
LTYPE
  2
ACANSTGLM
 70
     0
  3
_ _ _ _ _
 72
    65
 73
     2
 40
3.0
 49
2.0
 49
-1.0
  0
LTYPE
  2
ACJISTGB
 70
     0
  3
__ . . __ . .
 72
    65
 73
     6
 40
9.0
 49
4.0
 49
-1.0
 49
1.0
 49
-1.0
 49
1.0
 49
-1.0
  0
LTYPE
  2
ACJISTGL
 70
     0
  3
_ _ _ _ _
 72
    65
 73
     2
 40
3.0
 49
2.0
 49
-1.0
  0
LTYPE
  2
CENTER2
 70
     0
  3
Center (.5x) ___ _ ___ _ ___ _ ___ _ ___ _ ___
 72
    65
 73
     4
 40
1.125
 49
0.75
 49
-0.125
 49
0.125
 49
-0.125
  0
LTYPE
  2
HIDDEN2
 70
     0
  3
Hidden (.5x) _ _ _ _ _ _ _ _ _ _ _ _ _ _ _ _ _
 72
    65
 73
     2
 40
0.1875
 49
0.125
 49
-0.0625
  0
LTYPE
  2
AMZIGZAG2
 70
     0
  3
/\/-/\/-/\/-/\/-/\/-/\/
 72
    65
 73
     2
 40
0.4401
 49
0.0001
 49
-0.4400000000000001
  0
LTYPE
  2
ACANSTGB
 70
     0
  3
__ . . __ . .
 72
    65
 73
     6
 40
0.35433070866
 49
0.15748031496
 49
-0.03937007874
 49
0.03937007874
 49
-0.03937007874
 49
0.03937007874
 49
-0.03937007874
  0
LTYPE
  2
ACANSTGL
 70
     0
  3
_ _ _ _ _
 72
    65
 73
     2
 40
0.11811023622
 49
0.07874015748
 49
-0.03937007874
  0
ENDTAB
  0
TABLE
  2
LAYER
 70
     8
  0
LAYER
  2
0
 70
     0
 62
     7
  6
CONTINUOUS
  0
LAYER
  2
AM_0
 70
     0
 62
     7
  6
CONTINUOUS
  0
LAYER
  2
DEFPOINTS
 70
     0
 62
     7
  6
CONTINUOUS
  0
LAYER
  2
ｶｸﾚｾﾝ2
 70
     0
 62
     3
  6
GEN3B
  0
LAYER
  2
ﾁｭｳｼﾝｾﾝ1
 70
     0
 62
     1
  6
GEN7A
  0
LAYER
  2
AM_0N
 70
     0
 62
     7
  6
CONTINUOUS
  0
LAYER
  2
AM_5
 70
     0
 62
     2
  6
CONTINUOUS
  0
LAYER
  2
AM_4
 70
     0
 62
     2
  6
CONTINUOUS
  0
ENDTAB
  0
TABLE
  2
STYLE
 70
    10
  0
STYLE
  2
STANDARD
 70
     0
 40
0.0
 41
0.8299999999999999
 50
0.0
 71
     0
 42
2.5
  3
txt.shx
  4
bigfont.shx
  0
STYLE
  2
ANNOTATIVE
 70
     0
 40
0.0
 41
1.0
 50
0.0
 71
     0
 42
0.2
  3
txt
  4

  0
STYLE
  2

 70
     1
 40
0.0
 41
1.0
 50
0.0
 71
     0
 42
2.5
  3
ltypeshp.shx
  4

  0
STYLE
  2
ACISOTS
 70
     0
 40
1.0
 41
1.0
 50
0.0
 71
     0
 42
2.5
  3
isocp.shx
  4
extfont.shx
  0
STYLE
  2
ACISOGDT
 70
     0
 40
0.0
 41
1.0
 50
0.0
 71
     0
 42
2.5
  3
amgdt.shx
  4

  0
STYLE
  2
ACANSTS
 70
     0
 40
1.0
 41
1.0
 50
0.0
 71
     0
 42
2.5
  3
romans.shx
  4
bigfont.shx
  0
STYLE
  2
ACANSGDT
 70
     0
 40
0.0
 41
1.0
 50
0.0
 71
     0
 42
2.5
  3
amgdt.shx
  4

  0
STYLE
  2
ACJISGDT
 70
     0
 40
0.0
 41
1.0
 50
0.0
 71
     0
 42
2.5
  3
amgdt.shx
  4

  0
STYLE
  2
ACJISTS
 70
     0
 40
1.0
 41
1.0
 50
0.0
 71
     0
 42
2.5
  3
isocp.shx
  4
extfont.shx
  0
STYLE
  2

 70
     1
 40
0.0
 41
1.0
 50
0.0
 71
     0
 42
2.5
  3
genltshp.shx
  4

  0
ENDTAB
  0
TABLE
  2
VIEW
 70
    12
  0
VIEW
  2
GEN1
 70
     0
 40
95.824742268041234
 10
71.5
 20
137.08762886597941
 41
143.0
 11
0.0
 21
0.0
 31
1.0
 12
0.0
 22
0.0
 32
0.0
 42
50.0
 43
0.0
 44
0.0
 50
0.0
 71
     0
  0
VIEW
  2
GEN2
 70
     0
 40
95.824742268041234
 10
214.5
 20
137.08762886597941
 41
143.0
 11
0.0
 21
0.0
 31
1.0
 12
0.0
 22
0.0
 32
0.0
 42
50.0
 43
0.0
 44
0.0
 50
0.0
 71
     0
  0
VIEW
  2
GEN3
 70
     0
 40
95.824742268041234
 10
71.5
 20
47.912371134020603
 41
143.0
 11
0.0
 21
0.0
 31
1.0
 12
0.0
 22
0.0
 32
0.0
 42
50.0
 43
0.0
 44
0.0
 50
0.0
 71
     0
  0
VIEW
  2
GEN4
 70
     0
 40
95.824742268041234
 10
214.5
 20
47.912371134020603
 41
143.0
 11
0.0
 21
0.0
 31
1.0
 12
0.0
 22
0.0
 32
0.0
 42
50.0
 43
0.0
 44
0.0
 50
0.0
 71
     0
  0
VIEW
  2
GEN5
 70
     0
 40
95.824742268041234
 10
143.0
 20
92.500000000000057
 41
143.0
 11
0.0
 21
0.0
 31
1.0
 12
0.0
 22
0.0
 32
0.0
 42
50.0
 43
0.0
 44
0.0
 50
0.0
 71
     0
  0
VIEW
  2
GEN6
 70
     0
 40
191.64756804123709
 10
143.0
 20
92.5
 41
285.99714
 11
0.0
 21
0.0
 31
1.0
 12
0.0
 22
0.0
 32
0.0
 42
50.0
 43
0.0
 44
0.0
 50
0.0
 71
     0
  0
VIEW
  2
AM_VIEW1
 70
     0
 40
370.00000000000023
 10
332.86372007366492
 20
555.00000000000011
 41
665.72744014732962
 11
0.0
 21
0.0
 31
1.0
 12
0.0
 22
0.0
 32
0.0
 42
50.0
 43
0.0
 44
0.0
 50
0.0
 71
     0
  0
VIEW
  2
AM_VIEW2
 70
     0
 40
370.00000000000023
 10
805.13627992633485
 20
555.00000000000011
 41
665.72744014732962
 11
0.0
 21
0.0
 31
1.0
 12
0.0
 22
0.0
 32
0.0
 42
50.0
 43
0.0
 44
0.0
 50
0.0
 71
     0
  0
VIEW
  2
AM_VIEW3
 70
     0
 40
370.00000000000023
 10
332.86372007366492
 20
185.0
 41
665.72744014732962
 11
0.0
 21
0.0
 31
1.0
 12
0.0
 22
0.0
 32
0.0
 42
50.0
 43
0.0
 44
0.0
 50
0.0
 71
     0
  0
VIEW
  2
AM_VIEW4
 70
     0
 40
370.00000000000023
 10
805.13627992633485
 20
185.0
 41
665.72744014732962
 11
0.0
 21
0.0
 31
1.0
 12
0.0
 22
0.0
 32
0.0
 42
50.0
 43
0.0
 44
0.0
 50
0.0
 71
     0
  0
VIEW
  2
AM_VIEW5
 70
     0
 40
370.00000000000023
 10
569.0
 20
370.00000000000023
 41
665.72744014732962
 11
0.0
 21
0.0
 31
1.0
 12
0.0
 22
0.0
 32
0.0
 42
50.0
 43
0.0
 44
0.0
 50
0.0
 71
     0
  0
VIEW
  2
AM_VIEW6
 70
     0
 40
739.99260000000015
 10
569.0
 20
370.00000000000023
 41
1331.4415657458569
 11
0.0
 21
0.0
 31
1.0
 12
0.0
 22
0.0
 32
0.0
 42
50.0
 43
0.0
 44
0.0
 50
0.0
 71
     0
  0
ENDTAB
  0
TABLE
  2
UCS
 70
     0
  0
ENDTAB
  0
TABLE
  2
APPID
 70
   101
  0
APPID
  2
ACAD
 70
     0
  0
APPID
  2
ACADANNOTATIVE
 70
     0
  0
APPID
  2
MCAD_NO_VIS
 70
     0
  0
APPID
  2
ACAD_TEMP_GRAPHIC
 70
     0
  0
APPID
  2
AD_DRAW
 70
     0
  0
APPID
  2
DESIGNERASSEMBLIES
 70
     0
  0
APPID
  2
ASURF_PCURVE_APPNAME
 70
     0
  0
APPID
  2
GENIUS_GE3SECT_13
 70
     0
  0
APPID
  2
GENIUS_GENCFG_13
 70
     0
  0
APPID
  2
GENIUS_GE3CFG0_13
 70
     0
  0
APPID
  2
GENIUS_GENCFG0_13
 70
     0
  0
APPID
  2
GENIUS_GENCFG1_13
 70
     0
  0
APPID
  2
GENIUS_GENCFG2_13
 70
     0
  0
APPID
  2
GENIUS_GENCFG3_13
 70
     0
  0
APPID
  2
GENIUS_GENCFG4_13
 70
     0
  0
APPID
  2
GENIUS_GEVCFG0_13
 70
     0
  0
APPID
  2
GENIUS_GENOENT_13
 70
     0
  0
APPID
  2
GENIUS_GENREC_14
 70
     0
  0
APPID
  2
GENIUS_GENODEF_13
 70
     0
  0
APPID
  2
GENIUS_GENOBJ-N-REC_13
 70
     0
  0
APPID
  2
GENIUS_GENHINW_13
 70
     0
  0
APPID
  2
GENIUS_FIRSTVISTXT_14
 70
     0
  0
APPID
  2
GENIUS_GENOBJ-N-LEADER_13
 70
     0
  0
APPID
  2
GENIUS_GENOREF_13
 70
     0
  0
APPID
  2
GENIUS_GENOLIS_13
 70
     0
  0
APPID
  2
GEV_VCCNULL_SWITCH_OFF
 70
     0
  0
APPID
  2
GENIUS_GENDTOL_13
 70
     0
  0
APPID
  2
GENIUS_GEFCFG0_13
 70
     0
  0
APPID
  2
GENIUS_GENOBJ-N-TIT_13
 70
     0
  0
APPID
  2
GENIUS_GENTITLE_13
 70
     0
  0
APPID
  2
GENIUS_GENZVEED_13
 70
     0
  0
APPID
  2
GENIUS_GENOBJ-N-SDF_13
 70
     0
  0
APPID
  2
GENIUS_GENSCREG_13
 70
     0
  0
APPID
  2
GENIUS_DUMCFG0_13
 70
     0
  0
APPID
  2
GEVID936201362
 70
     0
  0
APPID
  2
GEVDC
 70
     0
  0
APPID
  2
GEVCON
 70
     0
  0
APPID
  2
VCC
 70
     0
  0
APPID
  2
GEVPT
 70
     0
  0
APPID
  2
GEVIT
 70
     0
  0
APPID
  2
GENBH
 70
     0
  0
APPID
  2
GEVMK
 70
     0
  0
APPID
  2
GENIUS_GENBH_13
 70
     0
  0
APPID
  2
GENIUS_GENOBJ-NBEHI-BHF_13
 70
     0
  0
APPID
  2
GENIUS_GENOBJ-NBEHI-BHB_13
 70
     0
  0
APPID
  2
GENIUS_GENOBJ-F-DESC_13
 70
     0
  0
APPID
  2
GENIUS_GEFDESC_14
 70
     0
  0
APPID
  2
GENIUS_GENOBJ-F-PART_13
 70
     0
  0
APPID
  2
GENIUS_GEFSTDP_13
 70
     0
  0
APPID
  2
GENIUS_GEFPARTINS_13
 70
     0
  0
APPID
  2
GENIUS_GENTRA_14
 70
     0
  0
APPID
  2
GENIUS_GENINF13_13
 70
     0
  0
APPID
  2
GENIUS_GENOBJ-N-INFOPT_13
 70
     0
  0
APPID
  2
GENIUS_GENOBJ-N-RSSYM_13
 70
     0
  0
APPID
  2
GENIUS_GENSYMENT_13
 70
     0
  0
APPID
  2
GENIUS_GENSCSYM_13
 70
     0
  0
APPID
  2
GENIUS_GEFINFNAM_13
 70
     0
  0
APPID
  2
GENIUS_GENSCREG_15
 70
     0
  0
APPID
  2
GENIUS_GENOBJ-N-CEN_13
 70
     0
  0
APPID
  2
GENIUS_GENOBJ-N-CRS_13
 70
     0
  0
APPID
  2
GENIUS_GENOBJ-N-CRC_13
 70
     0
  0
APPID
  2
GENIUS_GENCRC_14
 70
     0
  0
APPID
  2
GEVID942827039
 70
     0
  0
APPID
  2
GEVID942827040
 70
     0
  0
APPID
  2
GEVID942827041
 70
     0
  0
APPID
  2
GENIUS_GENOBJ-F-SCPASSM_13
 70
     0
  0
APPID
  2
GENIUS_GENDIMSH_14
 70
     0
  0
APPID
  2
GENIUS_GENFIL_13
 70
     0
  0
APPID
  2
GENIUS_GENOBJ-N-CHA_13
 70
     0
  0
APPID
  2
GENIUS_GENOBJ-N-FIL_13
 70
     0
  0
APPID
  2
GEVID942827042
 70
     0
  0
APPID
  2
GEVID946020473
 70
     0
  0
APPID
  2
GEVID946020474
 70
     0
  0
APPID
  2
GEVID946020475
 70
     0
  0
APPID
  2
GENIUS_GENOBJ-N-HTC_13
 70
     0
  0
APPID
  2
GENIUS_GENHATCH_13
 70
     0
  0
APPID
  2
GEVID948854295
 70
     0
  0
APPID
  2
GEVID939402019
 70
     0
  0
APPID
  2
GEVID952919491
 70
     0
  0
APPID
  2
GEVID952919492
 70
     0
  0
APPID
  2
GENIUS_GEFWELD_13
 70
     0
  0
APPID
  2
GENIUS_GENOBJ-F-WELS_13
 70
     0
  0
APPID
  2
GEVID952919493
 70
     0
  0
APPID
  2
GENIUS_GENOBJ-N-RSBK_13
 70
     0
  0
APPID
  2
GENIUS_GENOBJ-N-LIB_13
 70
     0
  0
APPID
  2
GENIUS_GENSCALE_13
 70
     0
  0
APPID
  2
GEVID986376691
 70
     0
  0
APPID
  2
ACATTRIBSERVICES
 70
     0
  0
APPID
  2
DCO15
 70
     0
  0
APPID
  2
ACADM_DIM_EDIT
 70
     0
  0
APPID
  2
AMDT_DM_ADJ
 70
     0
  0
APPID
  2
ACAD_MLEADERVER
 70
     0
  0
APPID
  2
CONTENTBLOCKDESCRIPTION
 70
     0
  0
APPID
  2
GEVID1057795304
 70
     0
  0
APPID
  2
GENIUS_GEFSH_13
 70
     0
  0
APPID
  2
GENIUS_GENOBJ-F-SHS_13
 70
     0
  0
APPID
  2
ACAD_DSTYLE_DIMBREAK
 70
     0
  0
APPID
  2
ACAD_DSTYLE_DIMJAG
 70
     0
  0
APPID
  2
ACAD_NAV_VCDISPLAY
 70
     0
  0
APPID
  2
ACAD_EXEMPT_FROM_CAD_STANDARDS
 70
     0
  0
APPID
  2
ACADANNOPO
 70
     0
  0
ENDTAB
  0
TABLE
  2
DIMSTYLE
 70
    23
  0
DIMSTYLE
  2
STANDARD
 70
     0
  3

  4

  5

  6

  7

 40
1.0
 41
0.18
 42
0.0625
 43
0.38
 44
0.18
 45
0.0
 46
0.0
 47
0.0
 48
0.0
140
0.18
141
0.09
142
0.0
143
25.399999999999999
144
1.0
145
0.0
146
1.0
147
0.09
 71
     0
 72
     0
 73
     1
 74
     1
 75
     0
 76
     0
 77
     0
 78
     0
170
     0
171
     2
172
     0
173
     0
174
     0
175
     0
176
     0
177
     0
178
     0
  0
DIMSTYLE
  2
ANNOTATIVE
 70
     0
  3

  4

  5

  6

  7

 40
1.0
 41
0.18
 42
0.0625
 43
0.38
 44
0.18
 45
0.0
 46
0.0
 47
0.0
 48
0.0
140
0.18
141
0.09
142
0.0
143
25.399999999999999
144
1.0
145
0.0
146
1.0
147
0.09
 71
     0
 72
     0
 73
     1
 74
     1
 75
     0
 76
     0
 77
     0
 78
     0
170
     0
171
     2
172
     0
173
     0
174
     0
175
     0
176
     0
177
     0
178
     0
  0
DIMSTYLE
  2
AM_JIS
 70
     0
  3

  4
"
  5

  6

  7

 40
1.0
 41
2.0
 42
1.0
 43
8.0
 44
1.0
 45
0.0
 46
0.0
 47
0.1
 48
0.1
140
2.5
141
0.0
142
0.0
143
0.0393701
144
1.0
145
0.0
146
0.71
147
1.5
 71
     0
 72
     0
 73
     0
 74
     0
 75
     0
 76
     0
 77
     3
 78
     8
170
     0
171
     2
172
     1
173
     0
174
     0
175
     0
176
     2
177
     2
178
     4
  0
DIMSTYLE
  2
AM_ISO
 70
     0
  3

  4
"
  5

  6

  7

 40
1.0
 41
2.5
 42
1.0
 43
10.0
 44
1.0
 45
0.0
 46
0.0
 47
0.1
 48
0.1
140
3.5
141
0.0
142
0.0
143
0.0393701
144
1.0
145
0.0
146
0.71
147
1.5
 71
     0
 72
     0
 73
     0
 74
     0
 75
     0
 76
     0
 77
     1
 78
     8
170
     0
171
     2
172
     1
173
     0
174
     0
175
     0
176
   256
177
   256
178
     2
  0
DIMSTYLE
  2
AM_ISO$3
 70
     0
  3

  4
"
  5

  6

  7

 40
1.0
 41
2.5
 42
1.0
 43
10.0
 44
1.0
 45
0.0
 46
0.0
 47
0.1
 48
0.1
140
3.5
141
0.0
142
0.0
143
0.0393701
144
1.0
145
0.0
146
0.71
147
1.5
 71
     0
 72
     0
 73
     0
 74
     1
 75
     0
 76
     0
 77
     1
 78
     8
170
     0
171
     2
172
     0
173
     0
174
     0
175
     0
176
   256
177
   256
178
     2
  0
DIMSTYLE
  2
AM_ISO$4
 70
     0
  3

  4
"
  5

  6

  7

 40
1.0
 41
2.5
 42
1.0
 43
10.0
 44
1.0
 45
0.0
 46
0.0
 47
0.1
 48
0.1
140
3.5
141
0.0
142
0.0
143
0.0393701
144
1.0
145
0.0
146
0.71
147
1.5
 71
     0
 72
     0
 73
     0
 74
     1
 75
     0
 76
     0
 77
     1
 78
     8
170
     0
171
     2
172
     0
173
     0
174
     0
175
     0
176
   256
177
   256
178
     2
  0
DIMSTYLE
  2
AM_ISO$6
 70
     0
  3

  4
"
  5

  6

  7

 40
1.0
 41
2.5
 42
1.0
 43
10.0
 44
1.0
 45
0.0
 46
0.0
 47
0.1
 48
0.1
140
3.5
141
0.0
142
0.0
143
0.0393701
144
1.0
145
0.0
146
0.71
147
1.5
 71
     0
 72
     0
 73
     0
 74
     0
 75
     0
 76
     0
 77
     0
 78
     8
170
     0
171
     2
172
     1
173
     0
174
     0
175
     0
176
   256
177
   256
178
     2
  0
DIMSTYLE
  2
AM_ISO$7
 70
     0
  3

  4
"
  5

  6

  7

 40
1.0
 41
2.5
 42
1.0
 43
10.0
 44
1.0
 45
0.0
 46
0.0
 47
0.1
 48
0.1
140
5.0
141
0.0
142
0.0
143
0.0393701
144
1.0
145
0.0
146
0.71
147
1.5
 71
     0
 72
     0
 73
     0
 74
     0
 75
     0
 76
     0
 77
     1
 78
     8
170
     0
171
     2
172
     1
173
     0
174
     0
175
     0
176
   256
177
   256
178
     2
  0
DIMSTYLE
  2
AM_ISO$SF
 70
     0
  3

  4
"
  5

  6

  7

 40
1.0
 41
2.5
 42
1.0
 43
10.0
 44
1.0
 45
0.0
 46
0.0
 47
0.1
 48
0.1
140
3.5
141
0.0
142
0.0
143
0.0393701
144
1.0
145
0.0
146
0.71
147
1.5
 71
     0
 72
     0
 73
     0
 74
     0
 75
     1
 76
     1
 77
     1
 78
     8
170
     0
171
     2
172
     1
173
     0
174
     0
175
     0
176
   256
177
   256
178
     2
  0
DIMSTYLE
  2
AM_ISO$SH
 70
     0
  3

  4
"
  5

  6

  7

 40
1.0
 41
2.5
 42
1.0
 43
10.0
 44
1.0
 45
0.0
 46
0.0
 47
0.1
 48
0.1
140
3.5
141
0.0
142
0.0
143
0.0393701
144
2.0
145
0.0
146
0.71
147
1.5
 71
     0
 72
     0
 73
     0
 74
     0
 75
     1
 76
     1
 77
     1
 78
     8
170
     0
171
     2
172
     1
173
     1
174
     0
175
     0
176
   256
177
   256
178
     2
  0
DIMSTYLE
  2
AM_ANSI
 70
     0
  3

  4
"
  5

  6

  7

 40
1.0
 41
2.5
 42
1.0
 43
10.0
 44
1.0
 45
0.0
 46
0.0
 47
0.1
 48
0.1
140
3.5
141
0.0
142
0.0
143
0.0393701
144
1.0
145
0.0
146
0.71
147
1.5
 71
     0
 72
     0
 73
     1
 74
     1
 75
     0
 76
     0
 77
     0
 78
     8
170
     0
171
     2
172
     0
173
     0
174
     0
175
     0
176
     2
177
     2
178
     4
  0
DIMSTYLE
  2
AM_ANSI$3
 70
     0
  3

  4
"
  5

  6

  7

 40
1.0
 41
2.5
 42
1.0
 43
10.0
 44
1.0
 45
0.0
 46
0.0
 47
0.1
 48
0.1
140
3.5
141
0.0
142
0.0
143
0.0393701
144
1.0
145
0.0
146
0.71
147
1.5
 71
     0
 72
     0
 73
     1
 74
     1
 75
     0
 76
     0
 77
     0
 78
     8
170
     0
171
     2
172
     0
173
     0
174
     0
175
     0
176
     2
177
     2
178
     4
  0
DIMSTYLE
  2
AM_ANSI$4
 70
     0
  3

  4
"
  5

  6

  7

 40
1.0
 41
2.5
 42
1.0
 43
10.0
 44
1.0
 45
0.0
 46
0.0
 47
0.1
 48
0.1
140
3.5
141
0.0
142
0.0
143
0.0393701
144
1.0
145
0.0
146
0.71
147
1.5
 71
     0
 72
     0
 73
     1
 74
     1
 75
     0
 76
     0
 77
     0
 78
     8
170
     0
171
     2
172
     0
173
     0
174
     0
175
     0
176
     2
177
     2
178
     4
  0
DIMSTYLE
  2
AM_ANSI$7
 70
     0
  3

  4
"
  5

  6

  7

 40
1.0
 41
2.5
 42
1.0
 43
10.0
 44
1.0
 45
0.0
 46
0.0
 47
0.1
 48
0.1
140
5.0
141
0.0
142
0.0
143
0.0393701
144
1.0
145
0.0
146
0.71
147
1.5
 71
     0
 72
     0
 73
     1
 74
     1
 75
     0
 76
     0
 77
     0
 78
     8
170
     0
171
     2
172
     0
173
     0
174
     0
175
     0
176
     2
177
     2
178
     4
  0
DIMSTYLE
  2
AM_ANSI$SF
 70
     0
  3

  4
"
  5

  6

  7

 40
1.0
 41
2.5
 42
1.0
 43
10.0
 44
1.0
 45
0.0
 46
0.0
 47
0.1
 48
0.1
140
3.5
141
0.0
142
0.0
143
0.0393701
144
1.0
145
0.0
146
0.71
147
1.5
 71
     0
 72
     0
 73
     1
 74
     1
 75
     1
 76
     1
 77
     0
 78
     8
170
     0
171
     2
172
     0
173
     0
174
     0
175
     0
176
     2
177
     2
178
     4
  0
DIMSTYLE
  2
AM_ANSI$SH
 70
     0
  3

  4
"
  5

  6

  7

 40
1.0
 41
2.5
 42
1.0
 43
10.0
 44
1.0
 45
0.0
 46
0.0
 47
0.1
 48
0.1
140
3.5
141
0.0
142
0.0
143
0.0393701
144
1.0
145
0.0
146
0.71
147
1.5
 71
     0
 72
     0
 73
     1
 74
     1
 75
     1
 76
     1
 77
     0
 78
     8
170
     0
171
     2
172
     0
173
     1
174
     0
175
     0
176
     2
177
     2
178
     4
  0
DIMSTYLE
  2
AM_JIS$3
 70
     0
  3

  4
"
  5

  6

  7

 40
1.0
 41
2.0
 42
1.0
 43
10.0
 44
1.0
 45
0.0
 46
0.0
 47
0.1
 48
0.1
140
2.5
141
0.0
142
0.0
143
0.0393701
144
1.0
145
0.0
146
0.71
147
1.5
 71
     0
 72
     0
 73
     0
 74
     1
 75
     0
 76
     0
 77
     3
 78
     8
170
     0
171
     2
172
     0
173
     0
174
     0
175
     0
176
     2
177
     2
178
     4
  0
DIMSTYLE
  2
AM_JIS$4
 70
     0
  3

  4
"
  5

  6

  7

 40
1.0
 41
2.0
 42
1.0
 43
10.0
 44
1.0
 45
0.0
 46
0.0
 47
0.1
 48
0.1
140
2.5
141
0.0
142
0.0
143
0.0393701
144
1.0
145
0.0
146
0.71
147
1.5
 71
     0
 72
     0
 73
     0
 74
     0
 75
     0
 76
     0
 77
     3
 78
     8
170
     0
171
     2
172
     0
173
     0
174
     0
175
     0
176
     2
177
     2
178
     4
  0
DIMSTYLE
  2
AM_JIS$6
 70
     0
  3

  4
"
  5

  6

  7

 40
1.0
 41
2.0
 42
1.0
 43
10.0
 44
1.0
 45
0.0
 46
0.0
 47
0.1
 48
0.1
140
2.5
141
0.0
142
0.0
143
0.0393701
144
1.0
145
0.0
146
0.71
147
1.5
 71
     0
 72
     0
 73
     0
 74
     0
 75
     0
 76
     0
 77
     0
 78
     8
170
     0
171
     2
172
     1
173
     0
174
     0
175
     0
176
     2
177
     2
178
     4
  0
DIMSTYLE
  2
AM_JIS$7
 70
     0
  3

  4
"
  5

  6

  7

 40
1.0
 41
2.0
 42
1.0
 43
10.0
 44
1.0
 45
0.0
 46
0.0
 47
0.1
 48
0.1
140
2.5
141
0.0
142
0.0
143
0.0393701
144
1.0
145
0.0
146
0.71
147
1.5
 71
     0
 72
     0
 73
     0
 74
     0
 75
     0
 76
     0
 77
     3
 78
     8
170
     0
171
     2
172
     1
173
     0
174
     0
175
     0
176
     2
177
     2
178
     4
  0
DIMSTYLE
  2
AM_JIS$SF
 70
     0
  3

  4
"
  5

  6

  7

 40
1.0
 41
2.0
 42
1.0
 43
10.0
 44
1.0
 45
0.0
 46
0.0
 47
0.1
 48
0.1
140
2.5
141
0.0
142
0.0
143
0.0393701
144
1.0
145
0.0
146
0.71
147
1.5
 71
     0
 72
     0
 73
     0
 74
     0
 75
     1
 76
     1
 77
     3
 78
     8
170
     0
171
     2
172
     1
173
     0
174
     0
175
     0
176
     2
177
     2
178
     4
  0
DIMSTYLE
  2
AM_JIS$SH
 70
     0
  3

  4
"
  5

  6

  7

 40
1.0
 41
2.0
 42
1.0
 43
10.0
 44
1.0
 45
0.0
 46
0.0
 47
0.1
 48
0.1
140
2.5
141
0.0
142
0.0
143
0.0393701
144
2.0
145
0.0
146
0.71
147
1.5
 71
     0
 72
     0
 73
     0
 74
     0
 75
     1
 76
     1
 77
     3
 78
     8
170
     0
171
     2
172
     1
173
     1
174
     0
175
     0
176
     2
177
     2
178
     4
  0
ENDTAB
  0
ENDSEC
  0
SECTION
  2
BLOCKS
  0
BLOCK
  8
0
  2
$MODEL_SPACE
 70
     0
 10
0.0
 20
0.0
 30
0.0
  3
$MODEL_SPACE
  1

  0
ENDBLK
  5
1B02D
  8
0
  0
BLOCK
 67
     1
  8
0
  2
$PAPER_SPACE
 70
     0
 10
0.0
 20
0.0
 30
0.0
  3
$PAPER_SPACE
  1

  0
ENDBLK
  5
1B029
 67
     1
  8
0
  0
BLOCK
  8
0
  2
GENAXEH
 70
     0
 10
0.0
 20
0.0
 30
0.0
  3
GENAXEH
  1

  0
LINE
  5
1AC3D
  8
0
 10
-1.0
 20
0.0
 30
0.0
 11
1.0
 21
0.0
 31
0.0
  0
ENDBLK
  5
1AC3E
  8
0
  0
BLOCK
  8
0
  6
BYBLOCK
 62
     0
  2
$6-44
 70
     0
 10
0.0
 20
0.0
 30
0.0
  3
$6-44
  1

  0
ARC
  5
1A2ED
  8
AM_0
 10
-2.300003000000002
 20
2.3999909999999431
 30
0.0
 40
2.2000009999999981
 50
90.000002999999296
 51
179.99997799999841
  0
ARC
  5
1A2EE
  8
AM_0
 10
2.300003000000002
 20
2.3999909999999431
 30
0.0
 40
2.1999970000000002
 50
0.0
 51
89.999981999999179
  0
LINE
  5
1A2EF
  8
AM_0
 10
-0.0494449999999915
 20
0.0
 30
0.0
 11
-0.8000000000000112
 21
1.30000000000001
 31
0.0
  0
LINE
  5
1A2F0
  8
AM_0
 10
0.9505550000000083
 20
0.0
 30
0.0
 11
0.1999999999999886
 21
1.30000000000001
 31
0.0
  0
LINE
  5
1A2F1
  8
AM_0
 10
4.5999999999999934
 20
1.30000000000001
 30
0.0
 11
4.5999999999999934
 21
0.0
 31
0.0
  0
LINE
  5
1A2F2
  8
AM_0
 10
-4.5999999999999934
 20
1.30000000000001
 30
0.0
 11
-4.5999999999999934
 21
0.0
 31
0.0
  0
LINE
  5
1A2F3
  8
AM_0
 10
4.5999999999999934
 20
0.0
 30
0.0
 11
-4.5999999999999934
 21
0.0
 31
0.0
  0
LINE
  5
1A2F4
  8
AM_0
 10
2.300003000000002
 20
4.6000029999999583
 30
0.0
 11
-2.300003000000002
 21
4.6000029999999583
 31
0.0
  0
LINE
  5
1A2F5
  8
AM_0
 10
4.5999999999999934
 20
1.30000000000001
 30
0.0
 11
-4.5999999999999934
 21
1.30000000000001
 31
0.0
  0
LINE
  5
1A2F6
  8
AM_0
 10
-4.5
 20
1.30000000000001
 30
0.0
 11
-4.5
 21
2.3999909999999431
 31
0.0
  0
LINE
  5
1A2F7
  8
AM_0
 10
4.5
 20
1.30000000000001
 30
0.0
 11
4.5
 21
2.3999909999999431
 31
0.0
  0
ENDBLK
  5
1A2F8
  8
0
  6
BYBLOCK
 62
     0
  0
BLOCK
  8
0
  2
_OPEN30
 70
     0
 10
0.0
 20
0.0
 30
0.0
  3
_OPEN30
  1

  0
LINE
  5
1AC84
  8
0
  6
BYBLOCK
 62
     0
 10
-1.0
 20
0.26794919
 30
0.0
 11
0.0
 21
0.0
 31
0.0
  0
LINE
  5
1AC85
  8
0
  6
BYBLOCK
 62
     0
 10
0.0
 20
0.0
 30
0.0
 11
-1.0
 21
-0.26794919
 31
0.0
  0
LINE
  5
1AC86
  8
0
  6
BYBLOCK
 62
     0
 10
0.0
 20
0.0
 30
0.0
 11
-1.0
 21
0.0
 31
0.0
  0
ENDBLK
  5
1AC87
  8
0
  0
BLOCK
  8
0
  2
_ACMFILLEDHALF
 70
     0
 10
0.0
 20
0.0
 30
0.0
  3
_ACMFILLEDHALF
  1

  0
TRACE
  5
1B139
  8
AM_0
 62
     0
 10
-0.8
 20
0.0
 30
0.0
 11
-1.0
 21
0.166666666
 31
0.0
 12
0.0
 22
0.0
 32
0.0
 13
0.0
 23
0.0
 33
0.0
  0
LINE
  5
1B13A
  8
AM_0
 62
     0
 10
-1.0
 20
0.0
 30
0.0
 11
-0.8
 21
0.0
 31
0.0
  0
ENDBLK
  5
1B138
  8
0
  0
ENDSEC
  0
SECTION
  2
ENTITIES
  0
POINT
  5
1B94
  8
0
 10
0.0
 20
0.0
 30
0.0
1001
GENIUS_GENODEF_13
1002
{
1000
HIER
1070
     1
1002
}
1002
{
1000
MANEDIT
1070
     0
1002
}
1002
{
1000
NOSEL
1070
     0
1002
}
1002
{
1000
BEHIND
1070
     0
1002
}
1002
{
1000
REACTOR
1002
}
1001
GENIUS_GENOBJ-N-SDF_13
1002
{
1000
OWNER
1000
GEN
1002
}
1001
GENIUS_GENOENT_13
1002
{
1000
MYREF
1005
1B94
1002
}
1002
{
1000
GRP
1005
0
1002
}
1001
GENIUS_GENOLIS_13
1002
{
1000
ENT
1005
89
1002
}
  0
LINE
  5
18D34
  8
ﾁｭｳｼﾝｾﾝ1
 10
735.66358231374613
 20
331.07652922917941
 30
0.0
 11
482.25797168237023
 21
331.07652922917958
 31
0.0
  0
POLYLINE
  5
18D36
  8
AM_0
 66
     1
 10
0.0
 20
0.0
 30
0.0
 70
     8
  0
VERTEX
  5
1AE37
  8
AM_0
 10
545.75800000000004
 20
331.077
 30
0.0
 70
    32
  0
VERTEX
  5
1AE38
  8
AM_0
 10
545.79700000000003
 20
332.67099999999999
 30
0.0
 70
    32
  0
VERTEX
  5
1AE39
  8
AM_0
 10
545.91399999999987
 20
334.262
 30
0.0
 70
    32
  0
VERTEX
  5
1AE3A
  8
AM_0
 10
546.11000000000001
 20
335.84500000000003
 30
0.0
 70
    32
  0
VERTEX
  5
1AE3B
  8
AM_0
 10
546.38199999999995
 20
337.41699999999997
 30
0.0
 70
    32
  0
VERTEX
  5
1AE3C
  8
AM_0
 10
546.73199999999986
 20
338.97399999999999
 30
0.0
 70
    32
  0
VERTEX
  5
1AE3D
  8
AM_0
 10
547.15699999999981
 20
340.51100000000002
 30
0.0
 70
    32
  0
VERTEX
  5
1AE3E
  8
AM_0
 10
547.65800000000002
 20
342.02600000000001
 30
0.0
 70
    32
  0
VERTEX
  5
1AE3F
  8
AM_0
 10
548.23199999999986
 20
343.51400000000001
 30
0.0
 70
    32
  0
VERTEX
  5
1AE40
  8
AM_0
 10
548.87800000000004
 20
344.97199999999998
 30
0.0
 70
    32
  0
VERTEX
  5
1AE41
  8
AM_0
 10
549.596
 20
346.39699999999999
 30
0.0
 70
    32
  0
VERTEX
  5
1AE42
  8
AM_0
 10
550.38199999999995
 20
347.78500000000003
 30
0.0
 70
    32
  0
VERTEX
  5
1AE43
  8
AM_0
 10
551.23500000000001
 20
349.13299999999998
 30
0.0
 70
    32
  0
VERTEX
  5
1AE44
  8
AM_0
 10
552.15399999999988
 20
350.43700000000001
 30
0.0
 70
    32
  0
VERTEX
  5
1AE45
  8
AM_0
 10
553.13499999999988
 20
351.69499999999999
 30
0.0
 70
    32
  0
VERTEX
  5
1AE46
  8
AM_0
 10
554.17700000000002
 20
352.90300000000002
 30
0.0
 70
    32
  0
VERTEX
  5
1AE47
  8
AM_0
 10
555.27699999999993
 20
354.05800000000011
 30
0.0
 70
    32
  0
VERTEX
  5
1AE48
  8
AM_0
 10
556.43200000000002
 20
355.15800000000002
 30
0.0
 70
    32
  0
VERTEX
  5
1AE49
  8
AM_0
 10
557.63999999999987
 20
356.19999999999999
 30
0.0
 70
    32
  0
VERTEX
  5
1AE4A
  8
AM_0
 10
558.89800000000002
 20
357.18099999999998
 30
0.0
 70
    32
  0
VERTEX
  5
1AE4B
  8
AM_0
 10
560.202
 20
358.10000000000002
 30
0.0
 70
    32
  0
VERTEX
  5
1AE4C
  8
AM_0
 10
561.54999999999995
 20
358.95299999999997
 30
0.0
 70
    32
  0
VERTEX
  5
1AE4D
  8
AM_0
 10
562.93799999999999
 20
359.74000000000001
 30
0.0
 70
    32
  0
VERTEX
  5
1AE4E
  8
AM_0
 10
564.36199999999985
 20
360.45699999999999
 30
0.0
 70
    32
  0
VERTEX
  5
1AE4F
  8
AM_0
 10
565.82100000000003
 20
361.10300000000001
 30
0.0
 70
    32
  0
VERTEX
  5
1AE50
  8
AM_0
 10
567.30899999999997
 20
361.67700000000002
 30
0.0
 70
    32
  0
VERTEX
  5
1AE51
  8
AM_0
 10
568.82399999999996
 20
362.17800000000011
 30
0.0
 70
    32
  0
VERTEX
  5
1AE52
  8
AM_0
 10
570.36099999999999
 20
362.60300000000001
 30
0.0
 70
    32
  0
VERTEX
  5
1AE53
  8
AM_0
 10
571.91800000000001
 20
362.95299999999997
 30
0.0
 70
    32
  0
VERTEX
  5
1AE54
  8
AM_0
 10
573.48900000000003
 20
363.22500000000002
 30
0.0
 70
    32
  0
VERTEX
  5
1AE55
  8
AM_0
 10
575.072
 20
363.42099999999999
 30
0.0
 70
    32
  0
VERTEX
  5
1AE56
  8
AM_0
 10
576.66300000000001
 20
363.53800000000001
 30
0.0
 70
    32
  0
VERTEX
  5
1AE57
  8
AM_0
 10
578.25800000000004
 20
363.577
 30
0.0
 70
    32
  0
VERTEX
  5
1AE58
  8
AM_0
 10
579.85299999999995
 20
363.53800000000001
 30
0.0
 70
    32
  0
VERTEX
  5
1AE59
  8
AM_0
 10
581.44399999999985
 20
363.42099999999999
 30
0.0
 70
    32
  0
VERTEX
  5
1AE5A
  8
AM_0
 10
583.02699999999993
 20
363.22500000000002
 30
0.0
 70
    32
  0
VERTEX
  5
1AE5B
  8
AM_0
 10
584.59799999999996
 20
362.95299999999997
 30
0.0
 70
    32
  0
VERTEX
  5
1AE5C
  8
AM_0
 10
586.15499999999997
 20
362.60300000000001
 30
0.0
 70
    32
  0
VERTEX
  5
1AE5D
  8
AM_0
 10
587.69200000000001
 20
362.17800000000011
 30
0.0
 70
    32
  0
VERTEX
  5
1AE5E
  8
AM_0
 10
589.20699999999999
 20
361.67700000000002
 30
0.0
 70
    32
  0
VERTEX
  5
1AE5F
  8
AM_0
 10
590.69500000000005
 20
361.10300000000001
 30
0.0
 70
    32
  0
VERTEX
  5
1AE60
  8
AM_0
 10
592.154
 20
360.45699999999999
 30
0.0
 70
    32
  0
VERTEX
  5
1AE61
  8
AM_0
 10
593.57799999999997
 20
359.74000000000001
 30
0.0
 70
    32
  0
VERTEX
  5
1AE62
  8
AM_0
 10
594.96600000000001
 20
358.95299999999997
 30
0.0
 70
    32
  0
VERTEX
  5
1AE63
  8
AM_0
 10
596.31399999999996
 20
358.10000000000002
 30
0.0
 70
    32
  0
VERTEX
  5
1AE64
  8
AM_0
 10
597.61800000000005
 20
357.18099999999998
 30
0.0
 70
    32
  0
VERTEX
  5
1AE65
  8
AM_0
 10
598.87599999999998
 20
356.19999999999999
 30
0.0
 70
    32
  0
VERTEX
  5
1AE66
  8
AM_0
 10
600.08400000000006
 20
355.15800000000002
 30
0.0
 70
    32
  0
VERTEX
  5
1AE67
  8
AM_0
 10
601.23900000000003
 20
354.05800000000011
 30
0.0
 70
    32
  0
VERTEX
  5
1AE68
  8
AM_0
 10
602.33900000000006
 20
352.90300000000002
 30
0.0
 70
    32
  0
VERTEX
  5
1AE69
  8
AM_0
 10
603.38099999999986
 20
351.69499999999999
 30
0.0
 70
    32
  0
VERTEX
  5
1AE6A
  8
AM_0
 10
604.36199999999985
 20
350.43700000000001
 30
0.0
 70
    32
  0
VERTEX
  5
1AE6B
  8
AM_0
 10
605.28099999999995
 20
349.13299999999998
 30
0.0
 70
    32
  0
VERTEX
  5
1AE6C
  8
AM_0
 10
606.13400000000001
 20
347.78500000000003
 30
0.0
 70
    32
  0
VERTEX
  5
1AE6D
  8
AM_0
 10
606.91999999999985
 20
346.39699999999999
 30
0.0
 70
    32
  0
VERTEX
  5
1AE6E
  8
AM_0
 10
607.63800000000003
 20
344.97199999999998
 30
0.0
 70
    32
  0
VERTEX
  5
1AE6F
  8
AM_0
 10
608.28399999999999
 20
343.51400000000001
 30
0.0
 70
    32
  0
VERTEX
  5
1AE70
  8
AM_0
 10
608.85799999999995
 20
342.02600000000001
 30
0.0
 70
    32
  0
VERTEX
  5
1AE71
  8
AM_0
 10
609.35900000000004
 20
340.51100000000002
 30
0.0
 70
    32
  0
VERTEX
  5
1AE72
  8
AM_0
 10
609.78399999999988
 20
338.97399999999999
 30
0.0
 70
    32
  0
VERTEX
  5
1AE73
  8
AM_0
 10
610.13300000000004
 20
337.41699999999997
 30
0.0
 70
    32
  0
VERTEX
  5
1AE74
  8
AM_0
 10
610.40599999999995
 20
335.84500000000003
 30
0.0
 70
    32
  0
VERTEX
  5
1AE75
  8
AM_0
 10
610.601
 20
334.262
 30
0.0
 70
    32
  0
VERTEX
  5
1AE76
  8
AM_0
 10
610.71900000000005
 20
332.67099999999999
 30
0.0
 70
    32
  0
VERTEX
  5
1AE77
  8
AM_0
 10
610.75800000000004
 20
331.077
 30
0.0
 70
    32
  0
VERTEX
  5
1AE78
  8
AM_0
 10
610.71900000000005
 20
329.48200000000003
 30
0.0
 70
    32
  0
VERTEX
  5
1AE79
  8
AM_0
 10
610.601
 20
327.89100000000002
 30
0.0
 70
    32
  0
VERTEX
  5
1AE7A
  8
AM_0
 10
610.40599999999995
 20
326.30799999999999
 30
0.0
 70
    32
  0
VERTEX
  5
1AE7B
  8
AM_0
 10
610.13300000000004
 20
324.73599999999999
 30
0.0
 70
    32
  0
VERTEX
  5
1AE7C
  8
AM_0
 10
609.78399999999988
 20
323.18000000000001
 30
0.0
 70
    32
  0
VERTEX
  5
1AE7D
  8
AM_0
 10
609.35900000000004
 20
321.642
 30
0.0
 70
    32
  0
VERTEX
  5
1AE7E
  8
AM_0
 10
608.85799999999995
 20
320.12700000000001
 30
0.0
 70
    32
  0
VERTEX
  5
1AE7F
  8
AM_0
 10
608.28399999999999
 20
318.63900000000001
 30
0.0
 70
    32
  0
VERTEX
  5
1AE80
  8
AM_0
 10
607.63800000000003
 20
317.18099999999998
 30
0.0
 70
    32
  0
VERTEX
  5
1AE81
  8
AM_0
 10
606.91999999999985
 20
315.75599999999997
 30
0.0
 70
    32
  0
VERTEX
  5
1AE82
  8
AM_0
 10
606.13400000000001
 20
314.36799999999999
 30
0.0
 70
    32
  0
VERTEX
  5
1AE83
  8
AM_0
 10
605.28099999999995
 20
313.01999999999998
 30
0.0
 70
    32
  0
VERTEX
  5
1AE84
  8
AM_0
 10
604.36199999999985
 20
311.71600000000001
 30
0.0
 70
    32
  0
VERTEX
  5
1AE85
  8
AM_0
 10
603.38099999999986
 20
310.45800000000003
 30
0.0
 70
    32
  0
VERTEX
  5
1AE86
  8
AM_0
 10
602.33900000000006
 20
309.25
 30
0.0
 70
    32
  0
VERTEX
  5
1AE87
  8
AM_0
 10
601.23900000000003
 20
308.09500000000003
 30
0.0
 70
    32
  0
VERTEX
  5
1AE88
  8
AM_0
 10
600.08400000000006
 20
306.995
 30
0.0
 70
    32
  0
VERTEX
  5
1AE89
  8
AM_0
 10
598.87599999999998
 20
305.95299999999997
 30
0.0
 70
    32
  0
VERTEX
  5
1AE8A
  8
AM_0
 10
597.61800000000005
 20
304.97199999999998
 30
0.0
 70
    32
  0
VERTEX
  5
1AE8B
  8
AM_0
 10
596.31399999999996
 20
304.053
 30
0.0
 70
    32
  0
VERTEX
  5
1AE8C
  8
AM_0
 10
594.96600000000001
 20
303.19999999999999
 30
0.0
 70
    32
  0
VERTEX
  5
1AE8D
  8
AM_0
 10
593.57799999999997
 20
302.41399999999999
 30
0.0
 70
    32
  0
VERTEX
  5
1AE8E
  8
AM_0
 10
592.154
 20
301.69600000000003
 30
0.0
 70
    32
  0
VERTEX
  5
1AE8F
  8
AM_0
 10
590.69500000000005
 20
301.05000000000001
 30
0.0
 70
    32
  0
VERTEX
  5
1AE90
  8
AM_0
 10
589.20699999999999
 20
300.476
 30
0.0
 70
    32
  0
VERTEX
  5
1AE91
  8
AM_0
 10
587.69200000000001
 20
299.97500000000002
 30
0.0
 70
    32
  0
VERTEX
  5
1AE92
  8
AM_0
 10
586.15499999999997
 20
299.55000000000001
 30
0.0
 70
    32
  0
VERTEX
  5
1AE93
  8
AM_0
 10
584.59799999999996
 20
299.19999999999999
 30
0.0
 70
    32
  0
VERTEX
  5
1AE94
  8
AM_0
 10
583.02699999999993
 20
298.928
 30
0.0
 70
    32
  0
VERTEX
  5
1AE95
  8
AM_0
 10
581.44399999999985
 20
298.73200000000003
 30
0.0
 70
    32
  0
VERTEX
  5
1AE96
  8
AM_0
 10
579.85299999999995
 20
298.61500000000001
 30
0.0
 70
    32
  0
VERTEX
  5
1AE97
  8
AM_0
 10
578.25800000000004
 20
298.57599999999991
 30
0.0
 70
    32
  0
VERTEX
  5
1AE98
  8
AM_0
 10
576.66300000000001
 20
298.61500000000001
 30
0.0
 70
    32
  0
VERTEX
  5
1AE99
  8
AM_0
 10
575.072
 20
298.73200000000003
 30
0.0
 70
    32
  0
VERTEX
  5
1AE9A
  8
AM_0
 10
573.48900000000003
 20
298.928
 30
0.0
 70
    32
  0
VERTEX
  5
1AE9B
  8
AM_0
 10
571.91800000000001
 20
299.19999999999999
 30
0.0
 70
    32
  0
VERTEX
  5
1AE9C
  8
AM_0
 10
570.36099999999999
 20
299.55000000000001
 30
0.0
 70
    32
  0
VERTEX
  5
1AE9D
  8
AM_0
 10
568.82399999999996
 20
299.97500000000002
 30
0.0
 70
    32
  0
VERTEX
  5
1AE9E
  8
AM_0
 10
567.30899999999997
 20
300.476
 30
0.0
 70
    32
  0
VERTEX
  5
1AE9F
  8
AM_0
 10
565.82100000000003
 20
301.05000000000001
 30
0.0
 70
    32
  0
VERTEX
  5
1AEA0
  8
AM_0
 10
564.36199999999985
 20
301.69600000000003
 30
0.0
 70
    32
  0
VERTEX
  5
1AEA1
  8
AM_0
 10
562.93799999999999
 20
302.41399999999999
 30
0.0
 70
    32
  0
VERTEX
  5
1AEA2
  8
AM_0
 10
561.54999999999995
 20
303.19999999999999
 30
0.0
 70
    32
  0
VERTEX
  5
1AEA3
  8
AM_0
 10
560.202
 20
304.053
 30
0.0
 70
    32
  0
VERTEX
  5
1AEA4
  8
AM_0
 10
558.89800000000002
 20
304.97199999999998
 30
0.0
 70
    32
  0
VERTEX
  5
1AEA5
  8
AM_0
 10
557.63999999999987
 20
305.95299999999997
 30
0.0
 70
    32
  0
VERTEX
  5
1AEA6
  8
AM_0
 10
556.43200000000002
 20
306.995
 30
0.0
 70
    32
  0
VERTEX
  5
1AEA7
  8
AM_0
 10
555.27699999999993
 20
308.09500000000003
 30
0.0
 70
    32
  0
VERTEX
  5
1AEA8
  8
AM_0
 10
554.17700000000002
 20
309.25
 30
0.0
 70
    32
  0
VERTEX
  5
1AEA9
  8
AM_0
 10
553.13499999999988
 20
310.45800000000003
 30
0.0
 70
    32
  0
VERTEX
  5
1AEAA
  8
AM_0
 10
552.15399999999988
 20
311.71600000000001
 30
0.0
 70
    32
  0
VERTEX
  5
1AEAB
  8
AM_0
 10
551.23500000000001
 20
313.01999999999998
 30
0.0
 70
    32
  0
VERTEX
  5
1AEAC
  8
AM_0
 10
550.38199999999995
 20
314.36799999999999
 30
0.0
 70
    32
  0
VERTEX
  5
1AEAD
  8
AM_0
 10
549.596
 20
315.75599999999997
 30
0.0
 70
    32
  0
VERTEX
  5
1AEAE
  8
AM_0
 10
548.87800000000004
 20
317.18099999999998
 30
0.0
 70
    32
  0
VERTEX
  5
1AEAF
  8
AM_0
 10
548.23199999999986
 20
318.63900000000001
 30
0.0
 70
    32
  0
VERTEX
  5
1AEB0
  8
AM_0
 10
547.65800000000002
 20
320.12700000000001
 30
0.0
 70
    32
  0
VERTEX
  5
1AEB1
  8
AM_0
 10
547.15699999999981
 20
321.642
 30
0.0
 70
    32
  0
VERTEX
  5
1AEB2
  8
AM_0
 10
546.73199999999986
 20
323.18000000000001
 30
0.0
 70
    32
  0
VERTEX
  5
1AEB3
  8
AM_0
 10
546.38199999999995
 20
324.73599999999999
 30
0.0
 70
    32
  0
VERTEX
  5
1AEB4
  8
AM_0
 10
546.11000000000001
 20
326.30799999999999
 30
0.0
 70
    32
  0
VERTEX
  5
1AEB5
  8
AM_0
 10
545.91399999999987
 20
327.89100000000002
 30
0.0
 70
    32
  0
VERTEX
  5
1AEB6
  8
AM_0
 10
545.79700000000003
 20
329.48200000000003
 30
0.0
 70
    32
  0
VERTEX
  5
1AEB7
  8
AM_0
 10
545.75800000000004
 20
331.077
 30
0.0
 70
    32
  0
SEQEND
  5
1AEB8
  8
AM_0
  0
LINE
  5
18D38
  8
0
 10
696.25797420826188
 20
193.0765292291795
 30
0.0
 11
526.25794568284346
 21
193.0765292291795
 31
0.0
  0
LINE
  5
18D39
  8
0
 10
674.69411555298996
 20
200.0765292291795
 30
0.0
 11
547.82180433669419
 21
200.07652922917941
 31
0.0
  0
CIRCLE
  5
18D3A
  8
0
 10
578.25797421096524
 20
331.07652922917941
 30
0.0
 40
52.5
  0
LINE
  5
18D3B
  8
0
 10
594.3760311948314
 20
244.076536858574
 30
0.0
 11
560.75795331494135
 21
244.076536858574
 31
0.0
  0
LINE
  5
18D3C
  8
0
 10
594.37603119483151
 20
418.07652159978483
 30
0.0
 11
560.75795331494169
 21
418.07652159978483
 31
0.0
  0
LINE
  5
18D3D
  8
0
 10
674.69411555298996
 20
462.0765292291793
 30
0.0
 11
547.82180433669453
 21
462.0765292291793
 31
0.0
  0
LINE
  5
18D3E
  8
0
 10
696.257974208262
 20
469.0765292291793
 30
0.0
 11
526.25794568284357
 21
469.0765292291793
 31
0.0
  0
LINE
  5
18D5A
  8
ﾁｭｳｼﾝｾﾝ1
 10
199.44001889135129
 20
472.8806619312432
 30
0.0
 11
199.44004766276089
 21
205.81890531719139
 31
0.0
  0
LINE
  5
18D5E
  8
AM_0
 10
129.44004033908749
 20
239.04709804410609
 30
0.0
 11
129.44004033908749
 21
423.10594515515822
 31
0.0
  0
LINE
  5
18D5F
  8
AM_0
 10
242.44004755534729
 20
237.07464642770549
 30
0.0
 11
242.44004755534729
 21
425.07841203065368
 31
0.0
  0
LINE
  5
18D61
  8
AM_0
 10
124.440044003273
 20
281.07552773903348
 30
0.0
 11
124.440044003273
 21
381.0775307193253
 31
0.0
  0
LINE
  5
18D63
  8
AM_0
 10
299.44003258193038
 20
193.07652922464521
 30
0.0
 11
299.4400324520941
 21
469.0765292291793
 31
0.0
  0
LINE
  5
18D66
  8
AM_0
 10
499.25797168237023
 20
252.0749468747486
 30
0.0
 11
499.2579716823704
 21
410.07811158360971
 31
0.0
  0
LINE
  5
18D67
  8
AM_0
 10
492.25797168237023
 20
255.07651397039069
 30
0.0
 11
492.2579716823704
 21
407.076521599785
 31
0.0
  0
LINE
  5
18D6B
  8
ﾁｭｳｼﾝｾﾝ1
 10
313.27825683019751
 20
331.07652922917941
 30
0.0
 11
114.440045157432
 21
331.07652922917941
 31
0.0
  0
LINE
  5
18D6C
  8
ﾁｭｳｼﾝｾﾝ1
 10
281.24491670477693
 20
344.07652922917941
 30
0.0
 11
117.63514883088069
 21
344.07652922917941
 31
0.0
  0
LINE
  5
18D6E
  8
AM_0
 10
129.44004033908749
 20
239.04709804410609
 30
0.0
 11
242.44004755534729
 21
237.07464642770549
 31
0.0
  0
LINE
  5
18D76
  8
AM_0
 10
126.4400403390875
 20
240.07500696415781
 30
0.0
 11
126.4400403390875
 21
270.07500696415758
 31
0.0
  0
LINE
  5
18D77
  8
AM_0
 10
110.4400403390875
 20
243.07500696415781
 30
0.0
 11
110.4400403390875
 21
267.07500696415758
 31
0.0
  0
LINE
  5
18D78
  8
AM_0
 10
126.4400403390875
 20
243.07500696415781
 30
0.0
 11
110.4400403390875
 21
243.07500696415781
 31
0.0
  0
LINE
  5
18D7D
  8
AM_0
 10
126.4400403390875
 20
240.07500696415781
 30
0.0
 11
129.44004033908749
 21
240.07500696415781
 31
0.0
  0
LINE
  5
18D82
  8
AM_0
 10
119.44033922672421
 20
363.57718019777428
 30
0.0
 11
124.4403393772357
 21
363.57718019777428
 31
0.0
  0
LINE
  5
18D83
  8
AM_0
 10
119.4400438527616
 20
363.57718019777428
 30
0.0
 11
124.440044003273
 21
363.57718019777428
 31
0.0
  0
LINE
  5
18D84
  8
AM_0
 10
119.4400438527616
 20
298.57587826058437
 30
0.0
 11
124.440044003273
 21
298.57587826058437
 31
0.0
  0
LINE
  5
18D85
  8
AM_0
 10
110.4400403390875
 20
267.07500696415758
 30
0.0
 11
126.4400403390875
 21
267.07500696415758
 31
0.0
  0
LINE
  5
18D86
  8
AM_0
 10
119.4400438527616
 20
298.57587826058437
 30
0.0
 11
119.4400438527616
 21
363.57718019777428
 31
0.0
  0
LINE
  5
18D8C
  8
AM_0
 10
124.440044003273
 20
281.07552773903348
 30
0.0
 11
129.44004415378481
 21
281.07552773903348
 31
0.0
  0
LINE
  5
18D8D
  8
AM_0
 10
126.4400403390875
 20
270.07500696415758
 30
0.0
 11
129.44004033908749
 21
270.07500696415758
 31
0.0
  0
LINE
  5
18D99
  8
ﾁｭｳｼﾝｾﾝ1
 10
267.20111578431738
 20
213.0765292291795
 30
0.0
 11
306.66287371938802
 21
213.0765292291795
 31
0.0
  0
ARC
  5
18D9A
  8
0
 10
277.44003245386739
 20
196.8466147908326
 30
0.0
 40
3.0
 50
179.99999997304599
 51
267.99999999999642
1001
GENIUS_GENOBJ-N-FIL_13
1002
{
1000
OWNER
1000
GEN
1002
}
1001
GENIUS_GENODEF_13
1002
{
1000
HIER
1070
     0
1002
}
1002
{
1000
MANEDIT
1070
     0
1002
}
1002
{
1000
NOSEL
1070
     0
1002
}
1002
{
1000
BEHIND
1070
     0
1002
}
1002
{
1000
OTHER
1070
     0
1002
}
1002
{
1000
REACTOR
1002
}
  0
LINE
  5
18D9C
  8
0
 10
277.33533396375992
 20
193.84844230977521
 30
0.0
 11
299.4400324520941
 21
193.0765292291795
 31
0.0
  0
LINE
  5
18D9D
  8
0
 10
242.44004755534729
 20
237.07464642770549
 30
0.0
 11
269.61452995350709
 21
236.1256925918216
 31
0.0
  0
LINE
  5
18DA4
  8
AM_0
 10
274.44003246999478
 20
231.128738454374
 30
0.0
 11
274.44003245386739
 21
196.84661479224371
 31
0.0
  0
ARC
  5
18DA8
  8
0
 10
269.44003246999478
 20
231.1287384567259
 30
0.0
 40
5.0
 50
359.9999999730461
 51
88.000000000002842
1001
GENIUS_GENOBJ-N-FIL_13
1002
{
1000
OWNER
1000
GEN
1002
}
1001
GENIUS_GENODEF_13
1002
{
1000
HIER
1070
     0
1002
}
1002
{
1000
MANEDIT
1070
     0
1002
}
1002
{
1000
NOSEL
1070
     0
1002
}
1002
{
1000
BEHIND
1070
     0
1002
}
1002
{
1000
OTHER
1070
     0
1002
}
1002
{
1000
REACTOR
1002
}
  0
ARC
  5
18DBD
  8
0
 10
512.2579742109657
 20
255.07651397039049
 30
0.0
 40
20.0
 50
180.0
 51
198.4349200441674
  0
CIRCLE
  5
18DBF
  8
0
 10
512.25793571511156
 20
255.0765582989626
 30
0.0
 40
6.5
  0
CIRCLE
  5
18DC0
  8
0
  6
CONTINUOUS
 62
     2
 10
512.2579742109657
 20
255.07651397039049
 30
0.0
 40
8.0
  0
ARC
  5
18DC4
  8
0
 10
526.25794568284346
 20
213.07652922647591
 30
0.0
 40
19.99999999729641
 50
198.4349200441674
 51
270.0
  0
CIRCLE
  5
18DC7
  8
0
 10
526.25794568284346
 20
213.07652922647591
 30
0.0
 40
9.0
  0
LINE
  5
18DC9
  8
0
 10
552.30820584663536
 20
244.076536858574
 30
0.0
 11
509.25797168237028
 21
244.076536858574
 31
0.0
  0
ARC
  5
18DCA
  8
0
 10
526.25794568284346
 20
213.07652922647591
 30
0.0
 40
18.0
 50
339.64559360894788
 51
129.86377856364891
  0
ARC
  5
18DCB
  8
0
 10
511.51576185150321
 20
230.73065100817229
 30
0.0
 40
5.0
 50
199.5093721725961
 51
309.86377856364879
1001
GENIUS_GENODEF_13
1002
{
1000
HIER
1070
     0
1002
}
1002
{
1000
MANEDIT
1070
     0
1002
}
1002
{
1000
NOSEL
1070
     0
1002
}
1002
{
1000
BEHIND
1070
     0
1002
}
1002
{
1000
OTHER
1070
     0
1002
}
1002
{
1000
REACTOR
1002
}
1001
GENIUS_GENOBJ-N-FIL_13
1002
{
1000
OWNER
1000
GEN
1002
}
  0
LINE
  5
18DCC
  8
0
 10
507.28427654729057
 20
206.75198343832369
 30
0.0
 11
493.2843050728481
 21
248.75196818138329
 31
0.0
  0
LINE
  5
18DCD
  8
0
 10
499.83210294895161
 20
248.7353362479187
 30
0.0
 11
506.80282747183122
 21
229.0608457701546
 31
0.0
  0
ARC
  5
18DCE
  8
0
 10
509.25797168237023
 20
254.07651397039041
 30
0.0
 40
10.0
 50
180.0
 51
270.0
1001
GENIUS_GENOBJ-N-FIL_13
1002
{
1000
OWNER
1000
GEN
1002
}
1001
GENIUS_GENODEF_13
1002
{
1000
HIER
1070
     0
1002
}
1002
{
1000
MANEDIT
1070
     0
1002
}
1002
{
1000
NOSEL
1070
     0
1002
}
1002
{
1000
BEHIND
1070
     0
1002
}
1002
{
1000
OTHER
1070
     0
1002
}
1002
{
1000
REACTOR
1002
}
  0
ARC
  5
18DCF
  8
0
 10
509.25797213390518
 20
252.074946874749
 30
0.0
 40
10.0000004515349
 50
180.0
 51
199.5093721725961
  0
ARC
  5
18DD0
  8
0
 10
547.38043458263633
 20
222.17820284609761
 30
0.0
 40
5.0
 50
134.99999999999969
 51
203.3111943818586
1001
GENIUS_GENOBJ-N-FIL_13
1002
{
1000
OWNER
1000
GEN
1002
}
1001
GENIUS_GENODEF_13
1002
{
1000
HIER
1070
     0
1002
}
1002
{
1000
MANEDIT
1070
     0
1002
}
1002
{
1000
NOSEL
1070
     0
1002
}
1002
{
1000
BEHIND
1070
     0
1002
}
1002
{
1000
OTHER
1070
     0
1002
}
1002
{
1000
REACTOR
1002
}
  0
ARC
  5
18DD1
  8
0
 10
547.82180433669419
 20
205.07652922917961
 30
0.0
 40
5.0
 50
159.64559360894779
 51
270.0
1001
GENIUS_GENODEF_13
1002
{
1000
HIER
1070
     0
1002
}
1002
{
1000
MANEDIT
1070
     0
1002
}
1002
{
1000
NOSEL
1070
     0
1002
}
1002
{
1000
BEHIND
1070
     0
1002
}
1002
{
1000
OTHER
1070
     0
1002
}
1002
{
1000
REACTOR
1002
}
1001
GENIUS_GENOBJ-N-FIL_13
1002
{
1000
OWNER
1000
GEN
1002
}
  0
LINE
  5
18DD2
  8
0
 10
543.84490067670367
 20
225.71373675203051
 30
0.0
 11
559.73282704909434
 21
241.60166312442109
 31
0.0
  0
LINE
  5
18DD3
  8
0
 10
538.89515320839803
 20
230.66348422033619
 30
0.0
 11
554.78307958078835
 21
246.5514105927268
 31
0.0
  0
ARC
  5
18DD4
  8
0
 10
535.35961930246515
 20
234.1990181262689
 30
0.0
 40
5.0
 50
246.6888056181416
 51
314.99999999999989
1001
GENIUS_GENODEF_13
1002
{
1000
HIER
1070
     0
1002
}
1002
{
1000
MANEDIT
1070
     0
1002
}
1002
{
1000
NOSEL
1070
     0
1002
}
1002
{
1000
BEHIND
1070
     0
1002
}
1002
{
1000
OTHER
1070
     0
1002
}
1002
{
1000
REACTOR
1002
}
1001
GENIUS_GENOBJ-N-FIL_13
1002
{
1000
OWNER
1000
GEN
1002
}
  0
ARC
  5
18DD5
  8
0
 10
557.25795331494169
 20
244.076536858574
 30
0.0
 40
3.499999999999988
 50
314.99999999999989
 51
134.99999999999969
  0
ARC
  5
18DD7
  8
0
 10
502.25797168237023
 20
301.07652922917941
 30
0.0
 40
3.0
 50
0.0
 51
90.0
  0
ARC
  5
18DD8
  8
0
 10
502.25797168237023
 20
301.07652922917941
 30
0.0
 40
3.0
 50
270.0
 51
0.0
  0
ARC
  5
18DD9
  8
0
 10
502.25797168237023
 20
295.0765292291793
 30
0.0
 40
3.0
 50
90.0
 51
180.0
1001
GENIUS_GENODEF_13
1002
{
1000
HIER
1070
     0
1002
}
1002
{
1000
MANEDIT
1070
     0
1002
}
1002
{
1000
NOSEL
1070
     0
1002
}
1002
{
1000
BEHIND
1070
     0
1002
}
1002
{
1000
OTHER
1070
     0
1002
}
1002
{
1000
REACTOR
1002
}
1001
GENIUS_GENOBJ-N-FIL_13
1002
{
1000
OWNER
1000
GEN
1002
}
  0
ARC
  5
18DDA
  8
0
 10
502.25797168237023
 20
307.07652922917941
 30
0.0
 40
3.0
 50
180.0
 51
270.0
1001
GENIUS_GENOBJ-N-FIL_13
1002
{
1000
OWNER
1000
GEN
1002
}
1001
GENIUS_GENODEF_13
1002
{
1000
HIER
1070
     0
1002
}
1002
{
1000
MANEDIT
1070
     0
1002
}
1002
{
1000
NOSEL
1070
     0
1002
}
1002
{
1000
BEHIND
1070
     0
1002
}
1002
{
1000
OTHER
1070
     0
1002
}
1002
{
1000
REACTOR
1002
}
  0
ARC
  5
18DDB
  8
0
 10
502.25797168237023
 20
361.07652922917941
 30
0.0
 40
3.0
 50
270.0
 51
0.0
  0
ARC
  5
18DDC
  8
0
 10
502.25797168237023
 20
361.07652922917941
 30
0.0
 40
3.0
 50
0.0
 51
90.0
  0
ARC
  5
18DDD
  8
0
 10
502.25797168237023
 20
355.07652922917941
 30
0.0
 40
3.0
 50
90.0
 51
180.0
1001
GENIUS_GENODEF_13
1002
{
1000
HIER
1070
     0
1002
}
1002
{
1000
MANEDIT
1070
     0
1002
}
1002
{
1000
NOSEL
1070
     0
1002
}
1002
{
1000
BEHIND
1070
     0
1002
}
1002
{
1000
OTHER
1070
     0
1002
}
1002
{
1000
REACTOR
1002
}
1001
GENIUS_GENOBJ-N-FIL_13
1002
{
1000
OWNER
1000
GEN
1002
}
  0
ARC
  5
18DDE
  8
0
 10
502.25797168237023
 20
367.07652922917941
 30
0.0
 40
3.0
 50
180.0
 51
270.0
1001
GENIUS_GENOBJ-N-FIL_13
1002
{
1000
OWNER
1000
GEN
1002
}
1001
GENIUS_GENODEF_13
1002
{
1000
HIER
1070
     0
1002
}
1002
{
1000
MANEDIT
1070
     0
1002
}
1002
{
1000
NOSEL
1070
     0
1002
}
1002
{
1000
BEHIND
1070
     0
1002
}
1002
{
1000
OTHER
1070
     0
1002
}
1002
{
1000
REACTOR
1002
}
  0
LINE
  5
18DE0
  8
ﾁｭｳｼﾝｾﾝ1
 10
224.0070013500565
 20
446.07652966078689
 30
0.0
 11
174.70855822509631
 21
446.07652966078689
 31
0.0
  0
ARC
  5
18DE1
  8
AM_0
 10
199.4400338216808
 20
446.07652966078689
 30
0.0
 40
17.000000002124999
 50
0.0
 51
180.0
  0
LINE
  5
18DE3
  8
AM_0
 10
129.44004033908749
 20
423.10594515515822
 30
0.0
 11
242.44004755534729
 21
425.07841203065368
 31
0.0
  0
LINE
  5
18DE4
  8
AM_0
 10
254.44004627744721
 20
433.07856964642031
 30
0.0
 11
144.4400462444473
 21
433.07856964642031
 31
0.0
  0
LINE
  5
18DE9
  8
0
 10
126.4400403390875
 20
419.07805149420102
 30
0.0
 11
110.4400403390875
 21
419.07805149420102
 31
0.0
  0
LINE
  5
18DEA
  8
0
 10
110.4400403390875
 20
395.07805149420119
 30
0.0
 11
126.4400403390875
 21
395.07805149420119
 31
0.0
  0
LINE
  5
18DEB
  8
0
 10
110.4400403390875
 20
419.07805149420102
 30
0.0
 11
110.4400403390875
 21
395.07805149420119
 31
0.0
  0
POLYLINE
  5
18DEE
  8
AM_0
 66
     1
 10
0.0
 20
0.0
 30
0.0
 70
     8
  0
VERTEX
  5
1AEB9
  8
AM_0
 10
144.44
 20
433.07900000000001
 30
0.0
 70
    32
  0
VERTEX
  5
1AEBA
  8
AM_0
 10
144.34200000000001
 20
433.07799999999997
 30
0.0
 70
    32
  0
VERTEX
  5
1AEBB
  8
AM_0
 10
144.244
 20
433.07599999999991
 30
0.0
 70
    32
  0
VERTEX
  5
1AEBC
  8
AM_0
 10
144.14599999999999
 20
433.07299999999998
 30
0.0
 70
    32
  0
VERTEX
  5
1AEBD
  8
AM_0
 10
144.048
 20
433.06900000000002
 30
0.0
 70
    32
  0
VERTEX
  5
1AEBE
  8
AM_0
 10
143.94900000000001
 20
433.06400000000002
 30
0.0
 70
    32
  0
VERTEX
  5
1AEBF
  8
AM_0
 10
143.852
 20
433.0569999999999
 30
0.0
 70
    32
  0
VERTEX
  5
1AEC0
  8
AM_0
 10
143.75399999999999
 20
433.04899999999998
 30
0.0
 70
    32
  0
VERTEX
  5
1AEC1
  8
AM_0
 10
143.65600000000001
 20
433.04000000000002
 30
0.0
 70
    32
  0
VERTEX
  5
1AEC2
  8
AM_0
 10
143.55799999999999
 20
433.02999999999997
 30
0.0
 70
    32
  0
VERTEX
  5
1AEC3
  8
AM_0
 10
143.46100000000001
 20
433.01799999999997
 30
0.0
 70
    32
  0
VERTEX
  5
1AEC4
  8
AM_0
 10
143.363
 20
433.00599999999991
 30
0.0
 70
    32
  0
VERTEX
  5
1AEC5
  8
AM_0
 10
143.26599999999999
 20
432.9919999999999
 30
0.0
 70
    32
  0
VERTEX
  5
1AEC6
  8
AM_0
 10
143.16900000000001
 20
432.97699999999992
 30
0.0
 70
    32
  0
VERTEX
  5
1AEC7
  8
AM_0
 10
143.072
 20
432.96100000000001
 30
0.0
 70
    32
  0
VERTEX
  5
1AEC8
  8
AM_0
 10
142.976
 20
432.94299999999998
 30
0.0
 70
    32
  0
VERTEX
  5
1AEC9
  8
AM_0
 10
142.87899999999999
 20
432.92500000000001
 30
0.0
 70
    32
  0
VERTEX
  5
1AECA
  8
AM_0
 10
142.78299999999999
 20
432.90499999999992
 30
0.0
 70
    32
  0
VERTEX
  5
1AECB
  8
AM_0
 10
142.68700000000001
 20
432.88400000000001
 30
0.0
 70
    32
  0
VERTEX
  5
1AECC
  8
AM_0
 10
142.59200000000001
 20
432.86199999999991
 30
0.0
 70
    32
  0
VERTEX
  5
1AECD
  8
AM_0
 10
142.49600000000001
 20
432.83899999999988
 30
0.0
 70
    32
  0
VERTEX
  5
1AECE
  8
AM_0
 10
142.40100000000001
 20
432.81400000000002
 30
0.0
 70
    32
  0
VERTEX
  5
1AECF
  8
AM_0
 10
142.30600000000001
 20
432.78899999999999
 30
0.0
 70
    32
  0
VERTEX
  5
1AED0
  8
AM_0
 10
142.21199999999999
 20
432.76199999999989
 30
0.0
 70
    32
  0
VERTEX
  5
1AED1
  8
AM_0
 10
142.11799999999999
 20
432.73399999999998
 30
0.0
 70
    32
  0
VERTEX
  5
1AED2
  8
AM_0
 10
142.024
 20
432.70499999999993
 30
0.0
 70
    32
  0
VERTEX
  5
1AED3
  8
AM_0
 10
141.93100000000001
 20
432.67500000000001
 30
0.0
 70
    32
  0
VERTEX
  5
1AED4
  8
AM_0
 10
141.83799999999999
 20
432.64299999999997
 30
0.0
 70
    32
  0
VERTEX
  5
1AED5
  8
AM_0
 10
141.745
 20
432.61099999999988
 30
0.0
 70
    32
  0
VERTEX
  5
1AED6
  8
AM_0
 10
141.65299999999999
 20
432.577
 30
0.0
 70
    32
  0
VERTEX
  5
1AED7
  8
AM_0
 10
141.56100000000001
 20
432.54299999999989
 30
0.0
 70
    32
  0
VERTEX
  5
1AED8
  8
AM_0
 10
141.47
 20
432.50699999999989
 30
0.0
 70
    32
  0
VERTEX
  5
1AED9
  8
AM_0
 10
141.37899999999999
 20
432.46999999999991
 30
0.0
 70
    32
  0
VERTEX
  5
1AEDA
  8
AM_0
 10
141.28800000000001
 20
432.43099999999993
 30
0.0
 70
    32
  0
VERTEX
  5
1AEDB
  8
AM_0
 10
141.19799999999989
 20
432.392
 30
0.0
 70
    32
  0
VERTEX
  5
1AEDC
  8
AM_0
 10
141.10900000000001
 20
432.35199999999998
 30
0.0
 70
    32
  0
VERTEX
  5
1AEDD
  8
AM_0
 10
141.02000000000001
 20
432.31
 30
0.0
 70
    32
  0
VERTEX
  5
1AEDE
  8
AM_0
 10
140.93100000000001
 20
432.26799999999997
 30
0.0
 70
    32
  0
VERTEX
  5
1AEDF
  8
AM_0
 10
140.84299999999999
 20
432.22399999999988
 30
0.0
 70
    32
  0
VERTEX
  5
1AEE0
  8
AM_0
 10
140.756
 20
432.18000000000001
 30
0.0
 70
    32
  0
VERTEX
  5
1AEE1
  8
AM_0
 10
140.66900000000001
 20
432.13400000000001
 30
0.0
 70
    32
  0
VERTEX
  5
1AEE2
  8
AM_0
 10
140.583
 20
432.08699999999999
 30
0.0
 70
    32
  0
VERTEX
  5
1AEE3
  8
AM_0
 10
140.49700000000001
 20
432.03899999999987
 30
0.0
 70
    32
  0
VERTEX
  5
1AEE4
  8
AM_0
 10
140.41200000000001
 20
431.99000000000001
 30
0.0
 70
    32
  0
VERTEX
  5
1AEE5
  8
AM_0
 10
140.327
 20
431.93999999999988
 30
0.0
 70
    32
  0
VERTEX
  5
1AEE6
  8
AM_0
 10
140.24299999999999
 20
431.88900000000001
 30
0.0
 70
    32
  0
VERTEX
  5
1AEE7
  8
AM_0
 10
140.16
 20
431.83699999999988
 30
0.0
 70
    32
  0
VERTEX
  5
1AEE8
  8
AM_0
 10
140.077
 20
431.78399999999999
 30
0.0
 70
    32
  0
VERTEX
  5
1AEE9
  8
AM_0
 10
139.995
 20
431.73000000000002
 30
0.0
 70
    32
  0
VERTEX
  5
1AEEA
  8
AM_0
 10
139.91399999999999
 20
431.6749999999999
 30
0.0
 70
    32
  0
VERTEX
  5
1AEEB
  8
AM_0
 10
139.834
 20
431.61900000000003
 30
0.0
 70
    32
  0
VERTEX
  5
1AEEC
  8
AM_0
 10
139.75399999999999
 20
431.56200000000001
 30
0.0
 70
    32
  0
VERTEX
  5
1AEED
  8
AM_0
 10
139.67400000000001
 20
431.50400000000002
 30
0.0
 70
    32
  0
VERTEX
  5
1AEEE
  8
AM_0
 10
139.596
 20
431.44499999999988
 30
0.0
 70
    32
  0
VERTEX
  5
1AEEF
  8
AM_0
 10
139.518
 20
431.38499999999999
 30
0.0
 70
    32
  0
VERTEX
  5
1AEF0
  8
AM_0
 10
139.441
 20
431.32400000000001
 30
0.0
 70
    32
  0
VERTEX
  5
1AEF1
  8
AM_0
 10
139.36500000000001
 20
431.26299999999998
 30
0.0
 70
    32
  0
VERTEX
  5
1AEF2
  8
AM_0
 10
139.28899999999999
 20
431.19999999999999
 30
0.0
 70
    32
  0
VERTEX
  5
1AEF3
  8
AM_0
 10
139.215
 20
431.13599999999991
 30
0.0
 70
    32
  0
VERTEX
  5
1AEF4
  8
AM_0
 10
139.14099999999999
 20
431.07199999999989
 30
0.0
 70
    32
  0
VERTEX
  5
1AEF5
  8
AM_0
 10
139.06800000000001
 20
431.00599999999997
 30
0.0
 70
    32
  0
VERTEX
  5
1AEF6
  8
AM_0
 10
138.995
 20
430.94
 30
0.0
 70
    32
  0
VERTEX
  5
1AEF7
  8
AM_0
 10
138.92400000000001
 20
430.87299999999999
 30
0.0
 70
    32
  0
VERTEX
  5
1AEF8
  8
AM_0
 10
138.85300000000001
 20
430.80399999999997
 30
0.0
 70
    32
  0
VERTEX
  5
1AEF9
  8
AM_0
 10
138.78299999999999
 20
430.73500000000001
 30
0.0
 70
    32
  0
VERTEX
  5
1AEFA
  8
AM_0
 10
138.714
 20
430.66599999999988
 30
0.0
 70
    32
  0
VERTEX
  5
1AEFB
  8
AM_0
 10
138.64599999999999
 20
430.59500000000003
 30
0.0
 70
    32
  0
VERTEX
  5
1AEFC
  8
AM_0
 10
138.57900000000001
 20
430.52300000000002
 30
0.0
 70
    32
  0
VERTEX
  5
1AEFD
  8
AM_0
 10
138.512
 20
430.45099999999991
 30
0.0
 70
    32
  0
VERTEX
  5
1AEFE
  8
AM_0
 10
138.447
 20
430.37799999999999
 30
0.0
 70
    32
  0
VERTEX
  5
1AEFF
  8
AM_0
 10
138.38200000000001
 20
430.30399999999997
 30
0.0
 70
    32
  0
VERTEX
  5
1AF00
  8
AM_0
 10
138.31899999999999
 20
430.22899999999998
 30
0.0
 70
    32
  0
VERTEX
  5
1AF01
  8
AM_0
 10
138.256
 20
430.154
 30
0.0
 70
    32
  0
VERTEX
  5
1AF02
  8
AM_0
 10
138.19399999999999
 20
430.07699999999988
 30
0.0
 70
    32
  0
VERTEX
  5
1AF03
  8
AM_0
 10
138.13300000000001
 20
430.0
 30
0.0
 70
    32
  0
VERTEX
  5
1AF04
  8
AM_0
 10
138.07300000000001
 20
429.923
 30
0.0
 70
    32
  0
VERTEX
  5
1AF05
  8
AM_0
 10
138.01400000000001
 20
429.84399999999999
 30
0.0
 70
    32
  0
VERTEX
  5
1AF06
  8
AM_0
 10
137.95599999999999
 20
429.76499999999987
 30
0.0
 70
    32
  0
VERTEX
  5
1AF07
  8
AM_0
 10
137.899
 20
429.685
 30
0.0
 70
    32
  0
VERTEX
  5
1AF08
  8
AM_0
 10
137.84299999999999
 20
429.60399999999998
 30
0.0
 70
    32
  0
VERTEX
  5
1AF09
  8
AM_0
 10
137.7879999999999
 20
429.52300000000002
 30
0.0
 70
    32
  0
VERTEX
  5
1AF0A
  8
AM_0
 10
137.73400000000001
 20
429.44099999999997
 30
0.0
 70
    32
  0
VERTEX
  5
1AF0B
  8
AM_0
 10
137.68100000000001
 20
429.358
 30
0.0
 70
    32
  0
VERTEX
  5
1AF0C
  8
AM_0
 10
137.62899999999999
 20
429.27499999999992
 30
0.0
 70
    32
  0
VERTEX
  5
1AF0D
  8
AM_0
 10
137.578
 20
429.19099999999992
 30
0.0
 70
    32
  0
VERTEX
  5
1AF0E
  8
AM_0
 10
137.52799999999999
 20
429.10699999999991
 30
0.0
 70
    32
  0
VERTEX
  5
1AF0F
  8
AM_0
 10
137.47900000000001
 20
429.02199999999988
 30
0.0
 70
    32
  0
VERTEX
  5
1AF10
  8
AM_0
 10
137.43100000000001
 20
428.93599999999998
 30
0.0
 70
    32
  0
VERTEX
  5
1AF11
  8
AM_0
 10
137.38499999999999
 20
428.84999999999991
 30
0.0
 70
    32
  0
VERTEX
  5
1AF12
  8
AM_0
 10
137.339
 20
428.76299999999998
 30
0.0
 70
    32
  0
VERTEX
  5
1AF13
  8
AM_0
 10
137.29400000000001
 20
428.67500000000001
 30
0.0
 70
    32
  0
VERTEX
  5
1AF14
  8
AM_0
 10
137.251
 20
428.58699999999999
 30
0.0
 70
    32
  0
VERTEX
  5
1AF15
  8
AM_0
 10
137.208
 20
428.49900000000002
 30
0.0
 70
    32
  0
VERTEX
  5
1AF16
  8
AM_0
 10
137.167
 20
428.41000000000003
 30
0.0
 70
    32
  0
VERTEX
  5
1AF17
  8
AM_0
 10
137.126
 20
428.31999999999988
 30
0.0
 70
    32
  0
VERTEX
  5
1AF18
  8
AM_0
 10
137.08699999999999
 20
428.23000000000002
 30
0.0
 70
    32
  0
VERTEX
  5
1AF19
  8
AM_0
 10
137.04900000000001
 20
428.13999999999987
 30
0.0
 70
    32
  0
VERTEX
  5
1AF1A
  8
AM_0
 10
137.012
 20
428.04899999999998
 30
0.0
 70
    32
  0
VERTEX
  5
1AF1B
  8
AM_0
 10
136.976
 20
427.95800000000003
 30
0.0
 70
    32
  0
VERTEX
  5
1AF1C
  8
AM_0
 10
136.941
 20
427.86599999999999
 30
0.0
 70
    32
  0
VERTEX
  5
1AF1D
  8
AM_0
 10
136.90799999999999
 20
427.774
 30
0.0
 70
    32
  0
VERTEX
  5
1AF1E
  8
AM_0
 10
136.875
 20
427.68099999999998
 30
0.0
 70
    32
  0
VERTEX
  5
1AF1F
  8
AM_0
 10
136.84399999999999
 20
427.58799999999991
 30
0.0
 70
    32
  0
VERTEX
  5
1AF20
  8
AM_0
 10
136.81399999999999
 20
427.495
 30
0.0
 70
    32
  0
VERTEX
  5
1AF21
  8
AM_0
 10
136.785
 20
427.40100000000001
 30
0.0
 70
    32
  0
VERTEX
  5
1AF22
  8
AM_0
 10
136.75700000000001
 20
427.3069999999999
 30
0.0
 70
    32
  0
VERTEX
  5
1AF23
  8
AM_0
 10
136.72999999999999
 20
427.21199999999999
 30
0.0
 70
    32
  0
VERTEX
  5
1AF24
  8
AM_0
 10
136.70400000000001
 20
427.1169999999999
 30
0.0
 70
    32
  0
VERTEX
  5
1AF25
  8
AM_0
 10
136.68000000000001
 20
427.02199999999999
 30
0.0
 70
    32
  0
VERTEX
  5
1AF26
  8
AM_0
 10
136.65700000000001
 20
426.92699999999991
 30
0.0
 70
    32
  0
VERTEX
  5
1AF27
  8
AM_0
 10
136.63399999999999
 20
426.8309999999999
 30
0.0
 70
    32
  0
VERTEX
  5
1AF28
  8
AM_0
 10
136.614
 20
426.73500000000001
 30
0.0
 70
    32
  0
VERTEX
  5
1AF29
  8
AM_0
 10
136.59399999999999
 20
426.63900000000001
 30
0.0
 70
    32
  0
VERTEX
  5
1AF2A
  8
AM_0
 10
136.57499999999999
 20
426.54300000000001
 30
0.0
 70
    32
  0
VERTEX
  5
1AF2B
  8
AM_0
 10
136.55799999999999
 20
426.44599999999991
 30
0.0
 70
    32
  0
VERTEX
  5
1AF2C
  8
AM_0
 10
136.542
 20
426.34899999999999
 30
0.0
 70
    32
  0
VERTEX
  5
1AF2D
  8
AM_0
 10
136.52699999999999
 20
426.2519999999999
 30
0.0
 70
    32
  0
VERTEX
  5
1AF2E
  8
AM_0
 10
136.51300000000001
 20
426.15499999999992
 30
0.0
 70
    32
  0
VERTEX
  5
1AF2F
  8
AM_0
 10
136.5
 20
426.05799999999999
 30
0.0
 70
    32
  0
VERTEX
  5
1AF30
  8
AM_0
 10
136.489
 20
425.95999999999992
 30
0.0
 70
    32
  0
VERTEX
  5
1AF31
  8
AM_0
 10
136.47900000000001
 20
425.86300000000011
 30
0.0
 70
    32
  0
VERTEX
  5
1AF32
  8
AM_0
 10
136.47
 20
425.76499999999987
 30
0.0
 70
    32
  0
VERTEX
  5
1AF33
  8
AM_0
 10
136.46199999999999
 20
425.66699999999992
 30
0.0
 70
    32
  0
VERTEX
  5
1AF34
  8
AM_0
 10
136.45500000000001
 20
425.56900000000002
 30
0.0
 70
    32
  0
VERTEX
  5
1AF35
  8
AM_0
 10
136.44999999999999
 20
425.471
 30
0.0
 70
    32
  0
VERTEX
  5
1AF36
  8
AM_0
 10
136.44499999999999
 20
425.37299999999999
 30
0.0
 70
    32
  0
VERTEX
  5
1AF37
  8
AM_0
 10
136.44200000000001
 20
425.27499999999992
 30
0.0
 70
    32
  0
VERTEX
  5
1AF38
  8
AM_0
 10
136.441
 20
425.17699999999991
 30
0.0
 70
    32
  0
VERTEX
  5
1AF39
  8
AM_0
 10
136.44
 20
425.07799999999997
 30
0.0
 70
    32
  0
SEQEND
  5
1AF3A
  8
AM_0
  0
LINE
  5
18DEF
  8
0
 10
126.4400403390875
 20
422.07805149420119
 30
0.0
 11
126.4400403390875
 21
392.07805149420119
 31
0.0
  0
LINE
  5
18DF1
  8
AM_0
 10
124.440044003273
 20
381.0775307193253
 30
0.0
 11
129.44004415378481
 21
381.0775307193253
 31
0.0
  0
LINE
  5
18DF2
  8
0
 10
126.4400403390875
 20
392.07805149420119
 30
0.0
 11
129.44004033908749
 21
392.07805149420119
 31
0.0
  0
LINE
  5
18DF3
  8
0
 10
126.4400403390875
 20
422.07805149420119
 30
0.0
 11
129.44004033908749
 21
422.07805149420119
 31
0.0
  0
LINE
  5
18DF4
  8
AM_0
 10
136.4400462420474
 20
425.07840964642043
 30
0.0
 11
136.4400462420474
 21
423.22813346392007
 31
0.0
  0
CIRCLE
  5
18DF6
  8
AM_0
 10
199.4400338216808
 20
446.07652966078689
 30
0.0
 40
10.000000001249999
  0
LINE
  5
18DF7
  8
AM_0
 10
182.44003381955611
 20
446.07652966078689
 30
0.0
 11
182.44003381955571
 21
436.64795823103702
 31
0.0
  0
ARC
  5
18DF8
  8
AM_0
 10
177.44003381893091
 20
436.64795823103702
 30
0.0
 40
5.0000000006249961
 50
314.4153085971879
 51
0.0
1001
GENIUS_GENOBJ-N-FIL_13
1002
{
1000
OWNER
1000
GEN
1002
}
1001
GENIUS_GENODEF_13
1002
{
1000
HIER
1070
     0
1002
}
1002
{
1000
MANEDIT
1070
     0
1002
}
1002
{
1000
NOSEL
1070
     0
1002
}
1002
{
1000
BEHIND
1070
     0
1002
}
1002
{
1000
OTHER
1070
     0
1002
}
1002
{
1000
REACTOR
1002
}
  0
LINE
  5
18DFD
  8
ﾁｭｳｼﾝｾﾝ1
 10
267.20111578431738
 20
449.0765292291793
 30
0.0
 11
306.66287371938802
 21
449.0765292291793
 31
0.0
  0
POLYLINE
  5
18DFE
  8
AM_0
 66
     1
 10
0.0
 20
0.0
 30
0.0
 70
     8
  0
VERTEX
  5
1AF3B
  8
AM_0
 10
262.41000000000003
 20
425.77600000000001
 30
0.0
 70
    32
  0
VERTEX
  5
1AF3C
  8
AM_0
 10
262.40100000000001
 20
425.86799999999999
 30
0.0
 70
    32
  0
VERTEX
  5
1AF3D
  8
AM_0
 10
262.39099999999991
 20
425.95999999999992
 30
0.0
 70
    32
  0
VERTEX
  5
1AF3E
  8
AM_0
 10
262.38099999999997
 20
426.05199999999991
 30
0.0
 70
    32
  0
VERTEX
  5
1AF3F
  8
AM_0
 10
262.36900000000003
 20
426.14400000000001
 30
0.0
 70
    32
  0
VERTEX
  5
1AF40
  8
AM_0
 10
262.35599999999999
 20
426.23599999999999
 30
0.0
 70
    32
  0
VERTEX
  5
1AF41
  8
AM_0
 10
262.34199999999998
 20
426.32799999999992
 30
0.0
 70
    32
  0
VERTEX
  5
1AF42
  8
AM_0
 10
262.327
 20
426.41899999999998
 30
0.0
 70
    32
  0
VERTEX
  5
1AF43
  8
AM_0
 10
262.31099999999998
 20
426.51099999999991
 30
0.0
 70
    32
  0
VERTEX
  5
1AF44
  8
AM_0
 10
262.29399999999998
 20
426.60199999999998
 30
0.0
 70
    32
  0
VERTEX
  5
1AF45
  8
AM_0
 10
262.27499999999998
 20
426.69299999999998
 30
0.0
 70
    32
  0
VERTEX
  5
1AF46
  8
AM_0
 10
262.25599999999997
 20
426.78300000000002
 30
0.0
 70
    32
  0
VERTEX
  5
1AF47
  8
AM_0
 10
262.23599999999999
 20
426.87400000000002
 30
0.0
 70
    32
  0
VERTEX
  5
1AF48
  8
AM_0
 10
262.21499999999997
 20
426.96399999999988
 30
0.0
 70
    32
  0
VERTEX
  5
1AF49
  8
AM_0
 10
262.19200000000001
 20
427.05399999999997
 30
0.0
 70
    32
  0
VERTEX
  5
1AF4A
  8
AM_0
 10
262.16899999999998
 20
427.14400000000001
 30
0.0
 70
    32
  0
VERTEX
  5
1AF4B
  8
AM_0
 10
262.14400000000001
 20
427.233
 30
0.0
 70
    32
  0
VERTEX
  5
1AF4C
  8
AM_0
 10
262.11900000000003
 20
427.32199999999989
 30
0.0
 70
    32
  0
VERTEX
  5
1AF4D
  8
AM_0
 10
262.09199999999998
 20
427.411
 30
0.0
 70
    32
  0
VERTEX
  5
1AF4E
  8
AM_0
 10
262.065
 20
427.5
 30
0.0
 70
    32
  0
VERTEX
  5
1AF4F
  8
AM_0
 10
262.036
 20
427.58799999999991
 30
0.0
 70
    32
  0
VERTEX
  5
1AF50
  8
AM_0
 10
262.00700000000001
 20
427.67599999999999
 30
0.0
 70
    32
  0
VERTEX
  5
1AF51
  8
AM_0
 10
261.976
 20
427.76299999999998
 30
0.0
 70
    32
  0
VERTEX
  5
1AF52
  8
AM_0
 10
261.94400000000002
 20
427.85099999999989
 30
0.0
 70
    32
  0
VERTEX
  5
1AF53
  8
AM_0
 10
261.91200000000009
 20
427.9369999999999
 30
0.0
 70
    32
  0
VERTEX
  5
1AF54
  8
AM_0
 10
261.87799999999999
 20
428.024
 30
0.0
 70
    32
  0
VERTEX
  5
1AF55
  8
AM_0
 10
261.84399999999999
 20
428.11000000000001
 30
0.0
 70
    32
  0
VERTEX
  5
1AF56
  8
AM_0
 10
261.80799999999999
 20
428.19499999999999
 30
0.0
 70
    32
  0
VERTEX
  5
1AF57
  8
AM_0
 10
261.77100000000002
 20
428.28100000000001
 30
0.0
 70
    32
  0
VERTEX
  5
1AF58
  8
AM_0
 10
261.73399999999998
 20
428.36500000000001
 30
0.0
 70
    32
  0
VERTEX
  5
1AF59
  8
AM_0
 10
261.69499999999999
 20
428.44999999999999
 30
0.0
 70
    32
  0
VERTEX
  5
1AF5A
  8
AM_0
 10
261.65600000000001
 20
428.53300000000002
 30
0.0
 70
    32
  0
VERTEX
  5
1AF5B
  8
AM_0
 10
261.61500000000001
 20
428.6169999999999
 30
0.0
 70
    32
  0
VERTEX
  5
1AF5C
  8
AM_0
 10
261.57400000000001
 20
428.69999999999987
 30
0.0
 70
    32
  0
VERTEX
  5
1AF5D
  8
AM_0
 10
261.53100000000001
 20
428.78199999999993
 30
0.0
 70
    32
  0
VERTEX
  5
1AF5E
  8
AM_0
 10
261.488
 20
428.86399999999998
 30
0.0
 70
    32
  0
VERTEX
  5
1AF5F
  8
AM_0
 10
261.44299999999998
 20
428.94600000000003
 30
0.0
 70
    32
  0
VERTEX
  5
1AF60
  8
AM_0
 10
261.39800000000002
 20
429.0259999999999
 30
0.0
 70
    32
  0
VERTEX
  5
1AF61
  8
AM_0
 10
261.35199999999998
 20
429.10699999999991
 30
0.0
 70
    32
  0
VERTEX
  5
1AF62
  8
AM_0
 10
261.30500000000001
 20
429.1869999999999
 30
0.0
 70
    32
  0
VERTEX
  5
1AF63
  8
AM_0
 10
261.25700000000001
 20
429.26599999999991
 30
0.0
 70
    32
  0
VERTEX
  5
1AF64
  8
AM_0
 10
261.20800000000003
 20
429.34499999999991
 30
0.0
 70
    32
  0
VERTEX
  5
1AF65
  8
AM_0
 10
261.15800000000002
 20
429.42299999999989
 30
0.0
 70
    32
  0
VERTEX
  5
1AF66
  8
AM_0
 10
261.10700000000003
 20
429.49999999999989
 30
0.0
 70
    32
  0
VERTEX
  5
1AF67
  8
AM_0
 10
261.05500000000001
 20
429.577
 30
0.0
 70
    32
  0
VERTEX
  5
1AF68
  8
AM_0
 10
261.00299999999999
 20
429.654
 30
0.0
 70
    32
  0
VERTEX
  5
1AF69
  8
AM_0
 10
260.94900000000001
 20
429.7299999999999
 30
0.0
 70
    32
  0
VERTEX
  5
1AF6A
  8
AM_0
 10
260.89499999999998
 20
429.80499999999989
 30
0.0
 70
    32
  0
VERTEX
  5
1AF6B
  8
AM_0
 10
260.83999999999997
 20
429.87900000000002
 30
0.0
 70
    32
  0
VERTEX
  5
1AF6C
  8
AM_0
 10
260.78399999999999
 20
429.95299999999997
 30
0.0
 70
    32
  0
VERTEX
  5
1AF6D
  8
AM_0
 10
260.72699999999998
 20
430.02600000000001
 30
0.0
 70
    32
  0
VERTEX
  5
1AF6E
  8
AM_0
 10
260.66899999999998
 20
430.09899999999988
 30
0.0
 70
    32
  0
VERTEX
  5
1AF6F
  8
AM_0
 10
260.61000000000001
 20
430.17099999999988
 30
0.0
 70
    32
  0
VERTEX
  5
1AF70
  8
AM_0
 10
260.55099999999999
 20
430.2419999999999
 30
0.0
 70
    32
  0
VERTEX
  5
1AF71
  8
AM_0
 10
260.49099999999999
 20
430.3119999999999
 30
0.0
 70
    32
  0
VERTEX
  5
1AF72
  8
AM_0
 10
260.42899999999997
 20
430.38199999999989
 30
0.0
 70
    32
  0
VERTEX
  5
1AF73
  8
AM_0
 10
260.36799999999999
 20
430.45099999999991
 30
0.0
 70
    32
  0
VERTEX
  5
1AF74
  8
AM_0
 10
260.30500000000001
 20
430.51900000000001
 30
0.0
 70
    32
  0
VERTEX
  5
1AF75
  8
AM_0
 10
260.24200000000002
 20
430.58699999999988
 30
0.0
 70
    32
  0
VERTEX
  5
1AF76
  8
AM_0
 10
260.17700000000002
 20
430.654
 30
0.0
 70
    32
  0
VERTEX
  5
1AF77
  8
AM_0
 10
260.11200000000002
 20
430.72000000000003
 30
0.0
 70
    32
  0
VERTEX
  5
1AF78
  8
AM_0
 10
260.04700000000003
 20
430.78500000000003
 30
0.0
 70
    32
  0
VERTEX
  5
1AF79
  8
AM_0
 10
259.98000000000002
 20
430.85000000000002
 30
0.0
 70
    32
  0
VERTEX
  5
1AF7A
  8
AM_0
 10
259.91300000000001
 20
430.91399999999999
 30
0.0
 70
    32
  0
VERTEX
  5
1AF7B
  8
AM_0
 10
259.84500000000003
 20
430.97699999999992
 30
0.0
 70
    32
  0
VERTEX
  5
1AF7C
  8
AM_0
 10
259.77600000000001
 20
431.03899999999987
 30
0.0
 70
    32
  0
VERTEX
  5
1AF7D
  8
AM_0
 10
259.70699999999999
 20
431.09999999999991
 30
0.0
 70
    32
  0
VERTEX
  5
1AF7E
  8
AM_0
 10
259.63600000000002
 20
431.16099999999989
 30
0.0
 70
    32
  0
VERTEX
  5
1AF7F
  8
AM_0
 10
259.56599999999997
 20
431.221
 30
0.0
 70
    32
  0
VERTEX
  5
1AF80
  8
AM_0
 10
259.49400000000003
 20
431.27999999999997
 30
0.0
 70
    32
  0
VERTEX
  5
1AF81
  8
AM_0
 10
259.42200000000003
 20
431.33800000000002
 30
0.0
 70
    32
  0
VERTEX
  5
1AF82
  8
AM_0
 10
259.34899999999999
 20
431.39499999999998
 30
0.0
 70
    32
  0
VERTEX
  5
1AF83
  8
AM_0
 10
259.27499999999998
 20
431.45199999999988
 30
0.0
 70
    32
  0
VERTEX
  5
1AF84
  8
AM_0
 10
259.20100000000002
 20
431.50699999999989
 30
0.0
 70
    32
  0
VERTEX
  5
1AF85
  8
AM_0
 10
259.12599999999998
 20
431.56200000000001
 30
0.0
 70
    32
  0
VERTEX
  5
1AF86
  8
AM_0
 10
259.05099999999999
 20
431.61599999999987
 30
0.0
 70
    32
  0
VERTEX
  5
1AF87
  8
AM_0
 10
258.97500000000002
 20
431.66899999999998
 30
0.0
 70
    32
  0
VERTEX
  5
1AF88
  8
AM_0
 10
258.89800000000002
 20
431.721
 30
0.0
 70
    32
  0
VERTEX
  5
1AF89
  8
AM_0
 10
258.82100000000003
 20
431.77199999999999
 30
0.0
 70
    32
  0
VERTEX
  5
1AF8A
  8
AM_0
 10
258.74299999999999
 20
431.82299999999998
 30
0.0
 70
    32
  0
VERTEX
  5
1AF8B
  8
AM_0
 10
258.66500000000002
 20
431.8719999999999
 30
0.0
 70
    32
  0
VERTEX
  5
1AF8C
  8
AM_0
 10
258.58600000000001
 20
431.92099999999988
 30
0.0
 70
    32
  0
VERTEX
  5
1AF8D
  8
AM_0
 10
258.50599999999997
 20
431.9679999999999
 30
0.0
 70
    32
  0
VERTEX
  5
1AF8E
  8
AM_0
 10
258.42599999999999
 20
432.01499999999987
 30
0.0
 70
    32
  0
VERTEX
  5
1AF8F
  8
AM_0
 10
258.34500000000003
 20
432.06099999999998
 30
0.0
 70
    32
  0
VERTEX
  5
1AF90
  8
AM_0
 10
258.26400000000001
 20
432.10500000000002
 30
0.0
 70
    32
  0
VERTEX
  5
1AF91
  8
AM_0
 10
258.18200000000002
 20
432.14899999999989
 30
0.0
 70
    32
  0
VERTEX
  5
1AF92
  8
AM_0
 10
258.10000000000002
 20
432.19199999999989
 30
0.0
 70
    32
  0
VERTEX
  5
1AF93
  8
AM_0
 10
258.017
 20
432.23399999999998
 30
0.0
 70
    32
  0
VERTEX
  5
1AF94
  8
AM_0
 10
257.93400000000003
 20
432.27499999999998
 30
0.0
 70
    32
  0
VERTEX
  5
1AF95
  8
AM_0
 10
257.851
 20
432.315
 30
0.0
 70
    32
  0
VERTEX
  5
1AF96
  8
AM_0
 10
257.76600000000002
 20
432.35399999999998
 30
0.0
 70
    32
  0
VERTEX
  5
1AF97
  8
AM_0
 10
257.68200000000002
 20
432.392
 30
0.0
 70
    32
  0
VERTEX
  5
1AF98
  8
AM_0
 10
257.59699999999998
 20
432.42899999999997
 30
0.0
 70
    32
  0
VERTEX
  5
1AF99
  8
AM_0
 10
257.512
 20
432.46499999999997
 30
0.0
 70
    32
  0
VERTEX
  5
1AF9A
  8
AM_0
 10
257.42599999999999
 20
432.50099999999992
 30
0.0
 70
    32
  0
VERTEX
  5
1AF9B
  8
AM_0
 10
257.33999999999997
 20
432.53500000000003
 30
0.0
 70
    32
  0
VERTEX
  5
1AF9C
  8
AM_0
 10
257.25299999999999
 20
432.56799999999998
 30
0.0
 70
    32
  0
VERTEX
  5
1AF9D
  8
AM_0
 10
257.166
 20
432.60000000000002
 30
0.0
 70
    32
  0
VERTEX
  5
1AF9E
  8
AM_0
 10
257.07900000000001
 20
432.63099999999991
 30
0.0
 70
    32
  0
VERTEX
  5
1AF9F
  8
AM_0
 10
256.99099999999999
 20
432.661
 30
0.0
 70
    32
  0
VERTEX
  5
1AFA0
  8
AM_0
 10
256.90300000000002
 20
432.69
 30
0.0
 70
    32
  0
VERTEX
  5
1AFA1
  8
AM_0
 10
256.81400000000002
 20
432.71800000000002
 30
0.0
 70
    32
  0
VERTEX
  5
1AFA2
  8
AM_0
 10
256.726
 20
432.74499999999989
 30
0.0
 70
    32
  0
VERTEX
  5
1AFA3
  8
AM_0
 10
256.637
 20
432.7709999999999
 30
0.0
 70
    32
  0
VERTEX
  5
1AFA4
  8
AM_0
 10
256.54700000000003
 20
432.79599999999999
 30
0.0
 70
    32
  0
VERTEX
  5
1AFA5
  8
AM_0
 10
256.45800000000003
 20
432.81999999999988
 30
0.0
 70
    32
  0
VERTEX
  5
1AFA6
  8
AM_0
 10
256.36799999999999
 20
432.8429999999999
 30
0.0
 70
    32
  0
VERTEX
  5
1AFA7
  8
AM_0
 10
256.27800000000002
 20
432.86500000000001
 30
0.0
 70
    32
  0
VERTEX
  5
1AFA8
  8
AM_0
 10
256.18799999999999
 20
432.88499999999999
 30
0.0
 70
    32
  0
VERTEX
  5
1AFA9
  8
AM_0
 10
256.09699999999998
 20
432.90499999999992
 30
0.0
 70
    32
  0
VERTEX
  5
1AFAA
  8
AM_0
 10
256.00599999999997
 20
432.92399999999998
 30
0.0
 70
    32
  0
VERTEX
  5
1AFAB
  8
AM_0
 10
255.91499999999999
 20
432.94099999999997
 30
0.0
 70
    32
  0
VERTEX
  5
1AFAC
  8
AM_0
 10
255.82400000000001
 20
432.95799999999991
 30
0.0
 70
    32
  0
VERTEX
  5
1AFAD
  8
AM_0
 10
255.732
 20
432.97300000000001
 30
0.0
 70
    32
  0
VERTEX
  5
1AFAE
  8
AM_0
 10
255.64099999999999
 20
432.98800000000011
 30
0.0
 70
    32
  0
VERTEX
  5
1AFAF
  8
AM_0
 10
255.54900000000001
 20
433.00099999999992
 30
0.0
 70
    32
  0
VERTEX
  5
1AFB0
  8
AM_0
 10
255.45699999999999
 20
433.01400000000001
 30
0.0
 70
    32
  0
VERTEX
  5
1AFB1
  8
AM_0
 10
255.36500000000001
 20
433.02499999999992
 30
0.0
 70
    32
  0
VERTEX
  5
1AFB2
  8
AM_0
 10
255.273
 20
433.03500000000003
 30
0.0
 70
    32
  0
VERTEX
  5
1AFB3
  8
AM_0
 10
255.18100000000001
 20
433.04399999999998
 30
0.0
 70
    32
  0
VERTEX
  5
1AFB4
  8
AM_0
 10
255.08799999999999
 20
433.05199999999991
 30
0.0
 70
    32
  0
VERTEX
  5
1AFB5
  8
AM_0
 10
254.99600000000001
 20
433.05899999999991
 30
0.0
 70
    32
  0
VERTEX
  5
1AFB6
  8
AM_0
 10
254.90299999999999
 20
433.065
 30
0.0
 70
    32
  0
VERTEX
  5
1AFB7
  8
AM_0
 10
254.81100000000001
 20
433.06999999999999
 30
0.0
 70
    32
  0
VERTEX
  5
1AFB8
  8
AM_0
 10
254.71799999999999
 20
433.07400000000001
 30
0.0
 70
    32
  0
VERTEX
  5
1AFB9
  8
AM_0
 10
254.625
 20
433.07599999999991
 30
0.0
 70
    32
  0
VERTEX
  5
1AFBA
  8
AM_0
 10
254.53299999999999
 20
433.07799999999997
 30
0.0
 70
    32
  0
VERTEX
  5
1AFBB
  8
AM_0
 10
254.44
 20
433.07900000000001
 30
0.0
 70
    32
  0
SEQEND
  5
1AFBC
  8
AM_0
  0
ARC
  5
18E01
  8
0
 10
269.44003246999449
 20
431.02432000163282
 30
0.0
 40
5.0
 50
271.9999999999971
 51
0.000000026954005
1001
GENIUS_GENOBJ-N-FIL_13
1002
{
1000
OWNER
1000
GEN
1002
}
1001
GENIUS_GENODEF_13
1002
{
1000
HIER
1070
     0
1002
}
1002
{
1000
MANEDIT
1070
     0
1002
}
1002
{
1000
NOSEL
1070
     0
1002
}
1002
{
1000
BEHIND
1070
     0
1002
}
1002
{
1000
OTHER
1070
     0
1002
}
1002
{
1000
REACTOR
1002
}
  0
LINE
  5
18E02
  8
0
 10
242.44004755534729
 20
425.07841203065368
 30
0.0
 11
269.61452995350697
 21
426.0273658665372
 31
0.0
  0
LINE
  5
18E12
  8
AM_0
 10
216.44003382380581
 20
446.07652966078689
 30
0.0
 11
216.44003382380581
 21
436.64795823103702
 31
0.0
  0
ARC
  5
18E13
  8
AM_0
 10
221.44003382443111
 20
436.64795823103702
 30
0.0
 40
5.0000000006249961
 50
180.0
 51
225.58469140281031
1001
GENIUS_GENOBJ-N-FIL_13
1002
{
1000
OWNER
1000
GEN
1002
}
1001
GENIUS_GENODEF_13
1002
{
1000
HIER
1070
     0
1002
}
1002
{
1000
MANEDIT
1070
     0
1002
}
1002
{
1000
NOSEL
1070
     0
1002
}
1002
{
1000
BEHIND
1070
     0
1002
}
1002
{
1000
OTHER
1070
     0
1002
}
1002
{
1000
REACTOR
1002
}
  0
LINE
  5
18E17
  8
AM_0
 10
274.44003246999449
 20
431.02432000398483
 30
0.0
 11
274.44003245386739
 21
465.30644366611517
 31
0.0
  0
LINE
  5
18E19
  8
0
 10
277.33533396375992
 20
468.30461614858359
 30
0.0
 11
299.4400324520941
 21
469.0765292291793
 31
0.0
  0
ARC
  5
18E1A
  8
0
 10
277.44003245386739
 20
465.30644366752682
 30
0.0
 40
3.0
 50
92.000000000003624
 51
180.00000002695401
1001
GENIUS_GENOBJ-N-FIL_13
1002
{
1000
OWNER
1000
GEN
1002
}
1001
GENIUS_GENODEF_13
1002
{
1000
HIER
1070
     0
1002
}
1002
{
1000
MANEDIT
1070
     0
1002
}
1002
{
1000
NOSEL
1070
     0
1002
}
1002
{
1000
BEHIND
1070
     0
1002
}
1002
{
1000
OTHER
1070
     0
1002
}
1002
{
1000
REACTOR
1002
}
  0
LINE
  5
18E1E
  8
ﾁｭｳｼﾝｾﾝ1
 10
526.25794568243793
 20
431.07652923188249
 30
0.0
 11
526.2579456832492
 21
467.07652923188277
 31
0.0
1001
GENIUS_GENODEF_13
1002
{
1000
HIER
1070
     0
1002
}
1002
{
1000
MANEDIT
1070
     0
1002
}
1002
{
1000
NOSEL
1070
     0
1002
}
1002
{
1000
BEHIND
1070
     0
1002
}
1002
{
1000
OTHER
1070
     0
1002
}
1002
{
1000
REACTOR
1002
}
1001
GENIUS_GENOBJ-N-CEN_13
1002
{
1000
OWNER
1000
GEN
1002
}
  0
LINE
  5
18E1F
  8
0
 10
499.83210294895167
 20
413.41772221044022
 30
0.0
 11
506.80282747183128
 21
433.09221268820431
 31
0.0
  0
LINE
  5
18E20
  8
0
 10
543.84490067670367
 20
436.43932170632792
 30
0.0
 11
559.73282704909457
 21
420.55139533393771
 31
0.0
  0
LINE
  5
18E21
  8
0
 10
538.89515320839803
 20
431.48957423802278
 30
0.0
 11
554.78307958078881
 21
415.601647865632
 31
0.0
  0
ARC
  5
18E22
  8
0
 10
526.25794568284357
 20
449.07652923188311
 30
0.0
 40
18.0
 50
230.13622143635109
 51
20.354406391052141
  0
LINE
  5
18E23
  8
0
 10
507.28427654729057
 20
455.40107502003502
 30
0.0
 11
493.2843050728481
 21
413.40109027697542
 31
0.0
  0
LINE
  5
18E24
  8
0
 10
552.30820584663536
 20
418.07652159978483
 30
0.0
 11
509.25797168237051
 21
418.07652159978483
 31
0.0
  0
ARC
  5
18E25
  8
0
 10
509.25797168237051
 20
408.076521599785
 30
0.0
 40
10.0
 50
90.0
 51
180.0
1001
GENIUS_GENOBJ-N-FIL_13
1002
{
1000
OWNER
1000
GEN
1002
}
1001
GENIUS_GENODEF_13
1002
{
1000
HIER
1070
     0
1002
}
1002
{
1000
MANEDIT
1070
     0
1002
}
1002
{
1000
NOSEL
1070
     0
1002
}
1002
{
1000
BEHIND
1070
     0
1002
}
1002
{
1000
OTHER
1070
     0
1002
}
1002
{
1000
REACTOR
1002
}
  0
ARC
  5
18E26
  8
0
 10
509.25797213390541
 20
410.07811158361
 30
0.0
 40
10.0000004515349
 50
160.49062782740381
 51
180.0
  0
ARC
  5
18E27
  8
0
 10
512.2579742109657
 20
407.07654448796819
 30
0.0
 40
20.0
 50
161.56507995583269
 51
180.0
  0
CIRCLE
  5
18E28
  8
0
 10
512.25793571511156
 20
407.0765659283569
 30
0.0
 40
6.5
  0
CIRCLE
  5
18E29
  8
0
  6
CONTINUOUS
 62
     2
 10
512.2579742109657
 20
407.0765215997846
 30
0.0
 40
8.0
  0
ARC
  5
18E2A
  8
0
 10
557.25795331494169
 20
418.07652159978483
 30
0.0
 40
3.499999999999988
 50
225.00000000000031
 51
45.00000000000027
  0
CIRCLE
  5
18E2B
  8
0
 10
526.25794568284357
 20
449.07652923188311
 30
0.0
 40
9.0
  0
ARC
  5
18E2C
  8
0
 10
526.25794568284346
 20
449.07652923188272
 30
0.0
 40
19.99999999729641
 50
90.0
 51
161.56507995583269
  0
LINE
  5
18E2D
  8
ﾁｭｳｼﾝｾﾝ1
 10
508.25794568284317
 20
449.07652940668061
 30
0.0
 11
544.25794568284346
 21
449.07652940586962
 31
0.0
1001
GENIUS_GENOBJ-N-CEN_13
1002
{
1000
OWNER
1000
GEN
1002
}
1001
GENIUS_GENODEF_13
1002
{
1000
HIER
1070
     0
1002
}
1002
{
1000
MANEDIT
1070
     0
1002
}
1002
{
1000
NOSEL
1070
     0
1002
}
1002
{
1000
BEHIND
1070
     0
1002
}
1002
{
1000
OTHER
1070
     0
1002
}
1002
{
1000
REACTOR
1002
}
  0
ARC
  5
18E2E
  8
0
 10
511.51576185150321
 20
431.42240745018682
 30
0.0
 40
5.0
 50
50.136221436351072
 51
160.49062782741061
1001
GENIUS_GENODEF_13
1002
{
1000
HIER
1070
     0
1002
}
1002
{
1000
MANEDIT
1070
     0
1002
}
1002
{
1000
NOSEL
1070
     0
1002
}
1002
{
1000
BEHIND
1070
     0
1002
}
1002
{
1000
OTHER
1070
     0
1002
}
1002
{
1000
REACTOR
1002
}
1001
GENIUS_GENOBJ-N-FIL_13
1002
{
1000
OWNER
1000
GEN
1002
}
  0
ARC
  5
18E2F
  8
0
 10
547.82180433669419
 20
457.07652922917941
 30
0.0
 40
5.0
 50
89.999999999996732
 51
200.35440639105209
1001
GENIUS_GENODEF_13
1002
{
1000
HIER
1070
     0
1002
}
1002
{
1000
MANEDIT
1070
     0
1002
}
1002
{
1000
NOSEL
1070
     0
1002
}
1002
{
1000
BEHIND
1070
     0
1002
}
1002
{
1000
OTHER
1070
     0
1002
}
1002
{
1000
REACTOR
1002
}
1001
GENIUS_GENOBJ-N-FIL_13
1002
{
1000
OWNER
1000
GEN
1002
}
  0
ARC
  5
18E30
  8
0
 10
535.35961930246515
 20
427.95404033209002
 30
0.0
 40
5.0
 50
45.00000000000027
 51
113.3111943818583
1001
GENIUS_GENODEF_13
1002
{
1000
HIER
1070
     0
1002
}
1002
{
1000
MANEDIT
1070
     0
1002
}
1002
{
1000
NOSEL
1070
     0
1002
}
1002
{
1000
BEHIND
1070
     0
1002
}
1002
{
1000
OTHER
1070
     0
1002
}
1002
{
1000
REACTOR
1002
}
1001
GENIUS_GENOBJ-N-FIL_13
1002
{
1000
OWNER
1000
GEN
1002
}
  0
ARC
  5
18E31
  8
0
 10
547.38043458263655
 20
439.97485561226091
 30
0.0
 40
5.0
 50
156.6888056181414
 51
225.00000000000031
1001
GENIUS_GENOBJ-N-FIL_13
1002
{
1000
OWNER
1000
GEN
1002
}
1001
GENIUS_GENODEF_13
1002
{
1000
HIER
1070
     0
1002
}
1002
{
1000
MANEDIT
1070
     0
1002
}
1002
{
1000
NOSEL
1070
     0
1002
}
1002
{
1000
BEHIND
1070
     0
1002
}
1002
{
1000
OTHER
1070
     0
1002
}
1002
{
1000
REACTOR
1002
}
  0
LINE
  5
18E3E
  8
AM_0
 10
754.25794213686174
 20
462.07914961661749
 30
0.0
 11
754.25794213686152
 21
344.0767724377983
 31
0.0
  0
LINE
  5
18E3F
  8
AM_0
 10
740.25794213266124
 20
344.07678961661719
 30
0.0
 11
740.25794213266124
 21
432.07854961661718
 31
0.0
  0
LINE
  5
18E40
  8
AM_0
 10
723.25794820873489
 20
252.0749468747486
 30
0.0
 11
723.25794820873523
 21
410.07811158360971
 31
0.0
  0
LINE
  5
18E41
  8
AM_0
 10
730.25794820873489
 20
255.07651397039061
 30
0.0
 11
730.25794820873523
 21
407.07652159978511
 31
0.0
  0
LINE
  5
18E42
  8
ﾁｭｳｼﾝｾﾝ1
 10
578.2579742109657
 20
479.07652922917907
 30
0.0
 11
578.2579742109657
 21
183.0765292291795
 31
0.0
  0
LINE
  5
18E45
  8
ﾁｭｳｼﾝｾﾝ1
 10
993.75999999999988
 20
344.0767749707004
 30
0.0
 11
710.66873246837736
 21
344.07679078875321
 31
0.0
  0
LINE
  5
18E4F
  8
AM_0
 10
740.25794213266124
 20
305.01503881650569
 30
0.0
 11
754.25794213686152
 21
305.01503881650569
 31
0.0
  0
LINE
  5
18E50
  8
AM_0
 10
754.25794213686152
 20
256.07502961661748
 30
0.0
 11
740.25794213266124
 21
256.07502961661748
 31
0.0
  0
ARC
  5
18E51
  8
0
 10
710.25797421096547
 20
255.07651397039049
 30
0.0
 40
20.0
 50
341.56507995583269
 51
0.0
  0
CIRCLE
  5
18E52
  8
AM_0
 10
611.2579742109657
 20
247.076536858574
 30
0.0
 40
8.0
  0
ARC
  5
18E53
  8
0
 10
611.25797421096524
 20
247.07653685857409
 30
0.0
 40
12.0
 50
6.7563270305881966
 51
173.24367296941179
  0
CIRCLE
  5
18E54
  8
0
 10
710.25793571511167
 20
255.0765582989624
 30
0.0
 40
6.5
  0
CIRCLE
  5
18E55
  8
0
  6
CONTINUOUS
 62
     2
 10
710.25797421096547
 20
255.07651397039029
 30
0.0
 40
8.0
  0
CIRCLE
  5
18E56
  8
AM_0
 10
611.2579742109657
 20
247.076536858574
 30
0.0
 40
8.5
  0
LINE
  5
18E58
  8
0
 10
661.75799510698948
 20
244.076536858574
 30
0.0
 11
628.13991722709955
 21
244.076536858574
 31
0.0
  0
POLYLINE
  5
18E5C
  8
AM_0
 66
     1
 10
0.0
 20
0.0
 30
0.0
 70
     1
  0
VERTEX
  5
18E5D
  8
AM_0
 10
615.2579742109657
 20
244.76713578181551
 30
0.0
  0
VERTEX
  5
18E5E
  8
AM_0
 10
611.2579742109657
 20
242.45773470505699
 30
0.0
  0
VERTEX
  5
18E5F
  8
AM_0
 10
607.2579742109657
 20
244.76713578181551
 30
0.0
  0
VERTEX
  5
18E60
  8
AM_0
 10
607.2579742109657
 20
249.38593793533249
 30
0.0
  0
VERTEX
  5
18E61
  8
AM_0
 10
611.2579742109657
 20
251.69533901209101
 30
0.0
  0
VERTEX
  5
18E62
  8
AM_0
 10
615.2579742109657
 20
249.38593793533249
 30
0.0
  0
SEQEND
  5
18E63
  8
AM_0
  0
ARC
  5
18E64
  8
0
 10
594.37603119483151
 20
249.07653685857409
 30
0.0
 40
5.0
 50
270.0
 51
353.24367296941188
1001
GENIUS_GENOBJ-N-FIL_13
1002
{
1000
OWNER
1000
GEN
1002
}
1001
GENIUS_GENODEF_13
1002
{
1000
HIER
1070
     0
1002
}
1002
{
1000
MANEDIT
1070
     0
1002
}
1002
{
1000
NOSEL
1070
     0
1002
}
1002
{
1000
BEHIND
1070
     0
1002
}
1002
{
1000
OTHER
1070
     0
1002
}
1002
{
1000
REACTOR
1002
}
  0
ARC
  5
18E65
  8
0
 10
628.13991722709955
 20
249.07653685857409
 30
0.0
 40
5.0
 50
186.75632703058821
 51
270.0
1001
GENIUS_GENODEF_13
1002
{
1000
HIER
1070
     0
1002
}
1002
{
1000
MANEDIT
1070
     0
1002
}
1002
{
1000
NOSEL
1070
     0
1002
}
1002
{
1000
BEHIND
1070
     0
1002
}
1002
{
1000
OTHER
1070
     0
1002
}
1002
{
1000
REACTOR
1002
}
1001
GENIUS_GENOBJ-N-FIL_13
1002
{
1000
OWNER
1000
GEN
1002
}
  0
ARC
  5
18E67
  8
0
 10
696.25800273908771
 20
213.07652922647591
 30
0.0
 40
19.99999999729641
 50
270.0
 51
341.56507995583269
  0
CIRCLE
  5
18E68
  8
0
 10
696.25797420826188
 20
213.07652922647571
 30
0.0
 40
9.0
  0
LINE
  5
18E6A
  8
0
 10
670.2077425752957
 20
244.076536858574
 30
0.0
 11
713.25797673956072
 21
244.0765368585738
 31
0.0
  0
ARC
  5
18E6B
  8
0
 10
696.25797420826188
 20
213.07652922264521
 30
0.0
 40
18.0
 50
50.136221439750997
 51
200.35440638087391
  0
ARC
  5
18E6C
  8
0
 10
675.1355138392945
 20
222.17820284609761
 30
0.0
 40
5.0
 50
336.68880561814137
 51
45.00000000000027
1001
GENIUS_GENOBJ-N-FIL_13
1002
{
1000
OWNER
1000
GEN
1002
}
1001
GENIUS_GENODEF_13
1002
{
1000
HIER
1070
     0
1002
}
1002
{
1000
MANEDIT
1070
     0
1002
}
1002
{
1000
NOSEL
1070
     0
1002
}
1002
{
1000
BEHIND
1070
     0
1002
}
1002
{
1000
OTHER
1070
     0
1002
}
1002
{
1000
REACTOR
1002
}
  0
ARC
  5
18E6D
  8
0
 10
674.69411555298996
 20
205.07652922917961
 30
0.0
 40
5.0
 50
270.0
 51
20.354406380873922
1001
GENIUS_GENODEF_13
1002
{
1000
HIER
1070
     0
1002
}
1002
{
1000
MANEDIT
1070
     0
1002
}
1002
{
1000
NOSEL
1070
     0
1002
}
1002
{
1000
BEHIND
1070
     0
1002
}
1002
{
1000
OTHER
1070
     0
1002
}
1002
{
1000
REACTOR
1002
}
1001
GENIUS_GENOBJ-N-FIL_13
1002
{
1000
OWNER
1000
GEN
1002
}
  0
LINE
  5
18E6E
  8
0
 10
683.62079521353326
 20
230.66348422033619
 30
0.0
 11
667.73286884114236
 21
246.5514105927268
 31
0.0
  0
LINE
  5
18E6F
  8
0
 10
678.6710477452275
 20
225.71373675203051
 30
0.0
 11
662.78312137283672
 21
241.60166312442109
 31
0.0
  0
ARC
  5
18E70
  8
0
 10
665.25799510698948
 20
244.076536858574
 30
0.0
 40
3.499999999999988
 50
45.00000000000027
 51
225.00000000000031
  0
ARC
  5
18E71
  8
0
 10
687.15632911946614
 20
234.1990181262689
 30
0.0
 40
5.0
 50
225.00000000000031
 51
293.3111943818584
1001
GENIUS_GENODEF_13
1002
{
1000
HIER
1070
     0
1002
}
1002
{
1000
MANEDIT
1070
     0
1002
}
1002
{
1000
NOSEL
1070
     0
1002
}
1002
{
1000
BEHIND
1070
     0
1002
}
1002
{
1000
OTHER
1070
     0
1002
}
1002
{
1000
REACTOR
1002
}
1001
GENIUS_GENOBJ-N-FIL_13
1002
{
1000
OWNER
1000
GEN
1002
}
  0
ARC
  5
18E72
  8
0
 10
711.00015803855513
 20
230.7306510052162
 30
0.0
 40
5.0
 50
230.13622143975101
 51
340.49062782740373
1001
GENIUS_GENOBJ-N-FIL_13
1002
{
1000
OWNER
1000
GEN
1002
}
1001
GENIUS_GENODEF_13
1002
{
1000
HIER
1070
     0
1002
}
1002
{
1000
MANEDIT
1070
     0
1002
}
1002
{
1000
NOSEL
1070
     0
1002
}
1002
{
1000
BEHIND
1070
     0
1002
}
1002
{
1000
OTHER
1070
     0
1002
}
1002
{
1000
REACTOR
1002
}
  0
LINE
  5
18E73
  8
0
 10
715.23167187464014
 20
206.75198343832369
 30
0.0
 11
729.2316433490829
 21
248.75196818138329
 31
0.0
  0
ARC
  5
18E74
  8
0
 10
713.25794820873489
 20
254.07651397039029
 30
0.0
 40
10.0
 50
270.0
 51
0.0
1001
GENIUS_GENODEF_13
1002
{
1000
HIER
1070
     0
1002
}
1002
{
1000
MANEDIT
1070
     0
1002
}
1002
{
1000
NOSEL
1070
     0
1002
}
1002
{
1000
BEHIND
1070
     0
1002
}
1002
{
1000
OTHER
1070
     0
1002
}
1002
{
1000
REACTOR
1002
}
1001
GENIUS_GENOBJ-N-FIL_13
1002
{
1000
OWNER
1000
GEN
1002
}
  0
LINE
  5
18E75
  8
0
 10
722.68381694215373
 20
248.7353362479185
 30
0.0
 11
715.71309241822632
 21
229.06084576719849
 31
0.0
  0
ARC
  5
18E76
  8
0
 10
713.25794775720033
 20
252.074946874749
 30
0.0
 40
10.0000004515349
 50
340.49062782740373
 51
0.0
  0
LINE
  5
18E77
  8
AM_0
 10
571.25797400024953
 20
357.37707449830168
 30
0.0
 11
571.25797400024953
 21
352.45993394054329
 31
0.0
  0
LINE
  5
18E78
  8
AM_0
 10
585.25797442168198
 20
357.37707449830168
 30
0.0
 11
585.25797442168198
 21
352.45993394054318
 31
0.0
  0
LINE
  5
18E79
  8
AM_0
 10
585.25797442168198
 20
357.37707449830168
 30
0.0
 11
571.25797400024953
 21
357.37707449830168
 31
0.0
  0
LINE
  5
18E7B
  8
AM_0
 10
740.25794213266124
 20
344.07678961661719
 30
0.0
 11
740.25794213266124
 21
256.07502961661748
 31
0.0
  0
LINE
  5
18E7D
  8
AM_0
 10
730.25794820873443
 20
256.075029791009
 30
0.0
 11
740.25794213266124
 21
256.075029791009
 31
0.0
  0
LINE
  5
18E7E
  8
AM_0
 10
740.25794213266113
 20
272.0753497910091
 30
0.0
 11
730.25794820873489
 21
272.0753497910091
 31
0.0
  0
LINE
  5
18E7F
  8
AM_0
 10
738.8293707036612
 20
280.16135355704591
 30
0.0
 11
730.25794820873443
 21
280.16127993347692
 31
0.0
  0
ARC
  5
18E80
  8
0
 10
720.25797673956117
 20
301.07652922917941
 30
0.0
 40
3.0
 50
180.0
 51
270.0
  0
ARC
  5
18E81
  8
0
 10
720.25797673956117
 20
295.0765292291793
 30
0.0
 40
3.0
 50
0.0
 51
90.0
1001
GENIUS_GENODEF_13
1002
{
1000
HIER
1070
     0
1002
}
1002
{
1000
MANEDIT
1070
     0
1002
}
1002
{
1000
NOSEL
1070
     0
1002
}
1002
{
1000
BEHIND
1070
     0
1002
}
1002
{
1000
OTHER
1070
     0
1002
}
1002
{
1000
REACTOR
1002
}
1001
GENIUS_GENOBJ-N-FIL_13
1002
{
1000
OWNER
1000
GEN
1002
}
  0
ARC
  5
18E82
  8
0
 10
720.25797673956117
 20
301.07652922917941
 30
0.0
 40
3.0
 50
90.0
 51
180.0
  0
ARC
  5
18E83
  8
0
 10
720.25797673956117
 20
307.07652922917941
 30
0.0
 40
3.0
 50
270.0
 51
0.0
1001
GENIUS_GENOBJ-N-FIL_13
1002
{
1000
OWNER
1000
GEN
1002
}
1001
GENIUS_GENODEF_13
1002
{
1000
HIER
1070
     0
1002
}
1002
{
1000
MANEDIT
1070
     0
1002
}
1002
{
1000
NOSEL
1070
     0
1002
}
1002
{
1000
BEHIND
1070
     0
1002
}
1002
{
1000
OTHER
1070
     0
1002
}
1002
{
1000
REACTOR
1002
}
  0
ARC
  5
18E84
  8
0
 10
720.25797673956117
 20
355.07652922917941
 30
0.0
 40
3.0
 50
0.0
 51
90.0
1001
GENIUS_GENODEF_13
1002
{
1000
HIER
1070
     0
1002
}
1002
{
1000
MANEDIT
1070
     0
1002
}
1002
{
1000
NOSEL
1070
     0
1002
}
1002
{
1000
BEHIND
1070
     0
1002
}
1002
{
1000
OTHER
1070
     0
1002
}
1002
{
1000
REACTOR
1002
}
1001
GENIUS_GENOBJ-N-FIL_13
1002
{
1000
OWNER
1000
GEN
1002
}
  0
ARC
  5
18E85
  8
0
 10
720.25797673956117
 20
361.07652922917941
 30
0.0
 40
3.0
 50
180.0
 51
270.0
  0
ARC
  5
18E86
  8
0
 10
720.25797673956117
 20
361.07652922917941
 30
0.0
 40
3.0
 50
90.0
 51
180.0
  0
ARC
  5
18E87
  8
0
 10
720.25797673956117
 20
367.07652922917941
 30
0.0
 40
3.0
 50
270.0
 51
0.0
1001
GENIUS_GENOBJ-N-FIL_13
1002
{
1000
OWNER
1000
GEN
1002
}
1001
GENIUS_GENODEF_13
1002
{
1000
HIER
1070
     0
1002
}
1002
{
1000
MANEDIT
1070
     0
1002
}
1002
{
1000
NOSEL
1070
     0
1002
}
1002
{
1000
BEHIND
1070
     0
1002
}
1002
{
1000
OTHER
1070
     0
1002
}
1002
{
1000
REACTOR
1002
}
  0
LINE
  5
18EB5
  8
AM_0
 10
754.25794213686152
 20
256.07502961661748
 30
0.0
 11
754.25794213686152
 21
344.0767724377983
 31
0.0
  0
LINE
  5
18F09
  8
AM_0
 10
754.25794213686152
 20
432.07854961661718
 30
0.0
 11
740.25794213266124
 21
432.07854961661718
 31
0.0
  0
LINE
  5
18F0A
  8
AM_0
 10
754.25794213686152
 20
383.13850605909101
 30
0.0
 11
740.25794213266124
 21
383.13850605909101
 31
0.0
  0
LINE
  5
18F0B
  8
AM_0
 10
740.25794213266124
 20
383.13850605909101
 30
0.0
 11
754.25794213686152
 21
383.13850605909101
 31
0.0
  0
LINE
  5
18F0D
  8
0
 10
661.75799510698948
 20
418.07652159978483
 30
0.0
 11
628.13991722709955
 21
418.07652159978483
 31
0.0
  0
ARC
  5
18F0E
  8
0
 10
611.2579742109657
 20
415.0765215997846
 30
0.0
 40
12.0
 50
186.75632703058821
 51
353.24367296941188
  0
CIRCLE
  5
18F0F
  8
AM_0
 10
611.2579742109657
 20
415.0765215997846
 30
0.0
 40
8.5
  0
CIRCLE
  5
18F10
  8
AM_0
 10
611.2579742109657
 20
415.0765215997846
 30
0.0
 40
8.0
  0
POLYLINE
  5
18F11
  8
AM_0
 66
     1
 10
0.0
 20
0.0
 30
0.0
 70
     1
  0
VERTEX
  5
18F12
  8
AM_0
 10
615.2579742109657
 20
417.38592267654337
 30
0.0
  0
VERTEX
  5
18F13
  8
AM_0
 10
611.2579742109657
 20
419.69532375330158
 30
0.0
  0
VERTEX
  5
18F14
  8
AM_0
 10
607.2579742109657
 20
417.38592267654337
 30
0.0
  0
VERTEX
  5
18F15
  8
AM_0
 10
607.2579742109657
 20
412.76712052302622
 30
0.0
  0
VERTEX
  5
18F16
  8
AM_0
 10
611.2579742109657
 20
410.45771944626762
 30
0.0
  0
VERTEX
  5
18F17
  8
AM_0
 10
615.2579742109657
 20
412.76712052302622
 30
0.0
  0
SEQEND
  5
18F18
  8
AM_0
  0
ARC
  5
18F19
  8
0
 10
594.37603119483151
 20
413.076521599785
 30
0.0
 40
5.0
 50
6.7563270305881966
 51
90.0
1001
GENIUS_GENOBJ-N-FIL_13
1002
{
1000
OWNER
1000
GEN
1002
}
1001
GENIUS_GENODEF_13
1002
{
1000
HIER
1070
     0
1002
}
1002
{
1000
MANEDIT
1070
     0
1002
}
1002
{
1000
NOSEL
1070
     0
1002
}
1002
{
1000
BEHIND
1070
     0
1002
}
1002
{
1000
OTHER
1070
     0
1002
}
1002
{
1000
REACTOR
1002
}
  0
ARC
  5
18F1A
  8
0
 10
628.13991722709955
 20
413.076521599785
 30
0.0
 40
5.0
 50
90.0
 51
173.24367296941179
1001
GENIUS_GENODEF_13
1002
{
1000
HIER
1070
     0
1002
}
1002
{
1000
MANEDIT
1070
     0
1002
}
1002
{
1000
NOSEL
1070
     0
1002
}
1002
{
1000
BEHIND
1070
     0
1002
}
1002
{
1000
OTHER
1070
     0
1002
}
1002
{
1000
REACTOR
1002
}
1001
GENIUS_GENOBJ-N-FIL_13
1002
{
1000
OWNER
1000
GEN
1002
}
  0
LINE
  5
18F1C
  8
0
 10
722.68381694215395
 20
413.41772221044022
 30
0.0
 11
715.71309241822632
 21
433.09221269116028
 31
0.0
  0
LINE
  5
18F1D
  8
0
 10
715.23167187464014
 20
455.40107502003502
 30
0.0
 11
729.2316433490829
 21
413.40109027697542
 31
0.0
  0
ARC
  5
18F1E
  8
0
 10
696.257974208262
 20
449.07652923571351
 30
0.0
 40
18.0
 50
159.64559361912609
 51
309.86377856024887
  0
LINE
  5
18F1F
  8
0
 10
683.62079521353326
 20
431.48957423802278
 30
0.0
 11
667.7328688411427
 21
415.601647865632
 31
0.0
  0
LINE
  5
18F20
  8
0
 10
678.6710477452275
 20
436.43932170632792
 30
0.0
 11
662.78312137283672
 21
420.55139533393771
 31
0.0
  0
CIRCLE
  5
18F21
  8
0
  6
CONTINUOUS
 62
     2
 10
710.25797421096547
 20
407.0765215997846
 30
0.0
 40
8.0
  0
LINE
  5
18F22
  8
0
 10
670.2077425752957
 20
418.07652159978483
 30
0.0
 11
713.25797673956072
 21
418.07652159978483
 31
0.0
  0
ARC
  5
18F23
  8
0
 10
665.25799510698948
 20
418.07652159978483
 30
0.0
 40
3.499999999999988
 50
134.99999999999969
 51
314.99999999999989
  0
ARC
  5
18F24
  8
0
 10
713.25794820873523
 20
408.07652159978471
 30
0.0
 40
10.0
 50
0.0
 51
90.0
1001
GENIUS_GENOBJ-N-FIL_13
1002
{
1000
OWNER
1000
GEN
1002
}
1001
GENIUS_GENODEF_13
1002
{
1000
HIER
1070
     0
1002
}
1002
{
1000
MANEDIT
1070
     0
1002
}
1002
{
1000
NOSEL
1070
     0
1002
}
1002
{
1000
BEHIND
1070
     0
1002
}
1002
{
1000
OTHER
1070
     0
1002
}
1002
{
1000
REACTOR
1002
}
  0
ARC
  5
18F25
  8
0
 10
713.25794775720033
 20
410.07811158360971
 30
0.0
 40
10.0000004515349
 50
0.0
 51
19.509372172589359
  0
CIRCLE
  5
18F26
  8
0
 10
710.25793571511167
 20
407.0765659283569
 30
0.0
 40
6.5
  0
ARC
  5
18F27
  8
0
 10
710.25797421096547
 20
407.07654448796819
 30
0.0
 40
20.0
 50
0.0
 51
18.434920044167288
  0
LINE
  5
18F28
  8
AM_0
 10
738.8293707036612
 20
407.99222602497213
 30
0.0
 11
730.23699801485304
 21
407.99229982849181
 31
0.0
  0
LINE
  5
18F29
  8
AM_0
 10
740.25794213266113
 20
416.07822979100911
 30
0.0
 11
728.11769598105536
 21
416.07822979100911
 31
0.0
  0
LINE
  5
18F2A
  8
AM_0
 10
726.00588810721888
 20
423.07837220504598
 30
0.0
 11
740.25794213266124
 21
423.07837220504598
 31
0.0
  0
CIRCLE
  5
18F2B
  8
0
 10
696.257974208262
 20
449.07652923188272
 30
0.0
 40
9.0
  0
ARC
  5
18F2C
  8
0
 10
696.25800273908771
 20
449.07652923188272
 30
0.0
 40
19.99999999729641
 50
18.434920044167288
 51
90.0
  0
ARC
  5
18F2E
  8
0
 10
674.69411555298996
 20
457.07652922917941
 30
0.0
 40
5.0
 50
339.64559361912598
 51
90.0
1001
GENIUS_GENODEF_13
1002
{
1000
HIER
1070
     0
1002
}
1002
{
1000
MANEDIT
1070
     0
1002
}
1002
{
1000
NOSEL
1070
     0
1002
}
1002
{
1000
BEHIND
1070
     0
1002
}
1002
{
1000
OTHER
1070
     0
1002
}
1002
{
1000
REACTOR
1002
}
1001
GENIUS_GENOBJ-N-FIL_13
1002
{
1000
OWNER
1000
GEN
1002
}
  0
ARC
  5
18F2F
  8
0
 10
675.13551383929473
 20
439.97485561226091
 30
0.0
 40
5.0
 50
314.99999999999989
 51
23.311194381858591
1001
GENIUS_GENOBJ-N-FIL_13
1002
{
1000
OWNER
1000
GEN
1002
}
1001
GENIUS_GENODEF_13
1002
{
1000
HIER
1070
     0
1002
}
1002
{
1000
MANEDIT
1070
     0
1002
}
1002
{
1000
NOSEL
1070
     0
1002
}
1002
{
1000
BEHIND
1070
     0
1002
}
1002
{
1000
OTHER
1070
     0
1002
}
1002
{
1000
REACTOR
1002
}
  0
ARC
  5
18F30
  8
0
 10
687.15632911946614
 20
427.95404033208979
 30
0.0
 40
5.0
 50
66.688805618141615
 51
134.99999999999969
1001
GENIUS_GENODEF_13
1002
{
1000
HIER
1070
     0
1002
}
1002
{
1000
MANEDIT
1070
     0
1002
}
1002
{
1000
NOSEL
1070
     0
1002
}
1002
{
1000
BEHIND
1070
     0
1002
}
1002
{
1000
OTHER
1070
     0
1002
}
1002
{
1000
REACTOR
1002
}
1001
GENIUS_GENOBJ-N-FIL_13
1002
{
1000
OWNER
1000
GEN
1002
}
  0
ARC
  5
18F31
  8
0
 10
711.00015803855513
 20
431.42240745314251
 30
0.0
 40
5.0
 50
19.509372172589359
 51
129.86377856024899
1001
GENIUS_GENOBJ-N-FIL_13
1002
{
1000
OWNER
1000
GEN
1002
}
1001
GENIUS_GENODEF_13
1002
{
1000
HIER
1070
     0
1002
}
1002
{
1000
MANEDIT
1070
     0
1002
}
1002
{
1000
NOSEL
1070
     0
1002
}
1002
{
1000
BEHIND
1070
     0
1002
}
1002
{
1000
OTHER
1070
     0
1002
}
1002
{
1000
REACTOR
1002
}
  0
LINE
  5
18F3F
  8
AM_0
 10
756.55794213755155
 20
462.07914961661749
 30
0.0
 11
756.55794213755155
 21
409.57809961661718
 31
0.0
  0
LINE
  5
18F51
  8
AM_0
 10
756.55794213755155
 20
409.57809961661718
 30
0.0
 11
754.25794213686152
 21
409.57809961661718
 31
0.0
  0
LINE
  5
18F67
  8
AM_0
 10
756.55794213755155
 20
432.57855961661733
 30
0.0
 11
754.25794213686152
 21
432.57855961661681
 31
0.0
  0
LINE
  5
18F68
  8
AM_0
 10
756.55794213755155
 20
462.07914961661749
 30
0.0
 11
754.25794213686152
 21
462.07914961661749
 31
0.0
  0
LINE
  5
192D1
  8
ﾁｭｳｼﾝｾﾝ1
 10
696.25797420785636
 20
431.07652906132091
 30
0.0
 11
696.25797420866775
 21
467.07652906132103
 31
0.0
1001
GENIUS_GENODEF_13
1002
{
1000
HIER
1070
     0
1002
}
1002
{
1000
MANEDIT
1070
     0
1002
}
1002
{
1000
NOSEL
1070
     0
1002
}
1002
{
1000
BEHIND
1070
     0
1002
}
1002
{
1000
OTHER
1070
     0
1002
}
1002
{
1000
REACTOR
1002
}
1001
GENIUS_GENOBJ-N-CEN_13
1002
{
1000
OWNER
1000
GEN
1002
}
  0
LINE
  5
192D2
  8
ﾁｭｳｼﾝｾﾝ1
 10
678.257974208262
 20
449.07652923611892
 30
0.0
 11
714.25797420826177
 21
449.07652923530799
 31
0.0
1001
GENIUS_GENOBJ-N-CEN_13
1002
{
1000
OWNER
1000
GEN
1002
}
1001
GENIUS_GENODEF_13
1002
{
1000
HIER
1070
     0
1002
}
1002
{
1000
MANEDIT
1070
     0
1002
}
1002
{
1000
NOSEL
1070
     0
1002
}
1002
{
1000
BEHIND
1070
     0
1002
}
1002
{
1000
OTHER
1070
     0
1002
}
1002
{
1000
REACTOR
1002
}
  0
LINE
  5
192D3
  8
ﾁｭｳｼﾝｾﾝ1
 10
696.25797420785636
 20
195.0765290520834
 30
0.0
 11
696.25797420866763
 21
231.07652905208349
 31
0.0
1001
GENIUS_GENODEF_13
1002
{
1000
HIER
1070
     0
1002
}
1002
{
1000
MANEDIT
1070
     0
1002
}
1002
{
1000
NOSEL
1070
     0
1002
}
1002
{
1000
BEHIND
1070
     0
1002
}
1002
{
1000
OTHER
1070
     0
1002
}
1002
{
1000
REACTOR
1002
}
1001
GENIUS_GENOBJ-N-CEN_13
1002
{
1000
OWNER
1000
GEN
1002
}
  0
LINE
  5
192D4
  8
ﾁｭｳｼﾝｾﾝ1
 10
678.25797420826154
 20
213.07652922688129
 30
0.0
 11
714.25797420826177
 21
213.07652922607019
 31
0.0
1001
GENIUS_GENOBJ-N-CEN_13
1002
{
1000
OWNER
1000
GEN
1002
}
1001
GENIUS_GENODEF_13
1002
{
1000
HIER
1070
     0
1002
}
1002
{
1000
MANEDIT
1070
     0
1002
}
1002
{
1000
NOSEL
1070
     0
1002
}
1002
{
1000
BEHIND
1070
     0
1002
}
1002
{
1000
OTHER
1070
     0
1002
}
1002
{
1000
REACTOR
1002
}
  0
LINE
  5
192D5
  8
ﾁｭｳｼﾝｾﾝ1
 10
526.25794568243793
 20
195.0765290520836
 30
0.0
 11
526.2579456832492
 21
231.0765290520836
 31
0.0
1001
GENIUS_GENODEF_13
1002
{
1000
HIER
1070
     0
1002
}
1002
{
1000
MANEDIT
1070
     0
1002
}
1002
{
1000
NOSEL
1070
     0
1002
}
1002
{
1000
BEHIND
1070
     0
1002
}
1002
{
1000
OTHER
1070
     0
1002
}
1002
{
1000
REACTOR
1002
}
1001
GENIUS_GENOBJ-N-CEN_13
1002
{
1000
OWNER
1000
GEN
1002
}
  0
LINE
  5
192D6
  8
ﾁｭｳｼﾝｾﾝ1
 10
508.25794568284317
 20
213.07652922688141
 30
0.0
 11
544.25794568284346
 21
213.07652922607039
 31
0.0
1001
GENIUS_GENOBJ-N-CEN_13
1002
{
1000
OWNER
1000
GEN
1002
}
1001
GENIUS_GENODEF_13
1002
{
1000
HIER
1070
     0
1002
}
1002
{
1000
MANEDIT
1070
     0
1002
}
1002
{
1000
NOSEL
1070
     0
1002
}
1002
{
1000
BEHIND
1070
     0
1002
}
1002
{
1000
OTHER
1070
     0
1002
}
1002
{
1000
REACTOR
1002
}
  0
LINE
  5
192D7
  8
AM_0
 10
274.44003247226601
 20
426.1958761276764
 30
0.0
 11
299.44003247226613
 21
426.1958761276764
 31
0.0
  0
LINE
  5
192D8
  8
AM_0
 10
274.44003247226601
 20
235.95718233068209
 30
0.0
 11
299.44003247226613
 21
235.95718233068209
 31
0.0
  0
LINE
  5
19500
  8
AM_0
 10
276.44003848389463
 20
575.13200650524118
 30
0.0
 11
276.44003848389463
 21
620.13200650524061
 31
0.0
  0
LINE
  5
19501
  8
AM_0
 10
251.34003848389449
 20
573.88200650524084
 30
0.0
 11
251.34003848389449
 21
621.38200650524084
 31
0.0
  0
LINE
  5
19502
  8
AM_0
 10
249.4400384838944
 20
573.88200650524084
 30
0.0
 11
249.4400384838944
 21
621.38200650524084
 31
0.0
  0
LINE
  5
19503
  8
AM_0
 10
212.4400384838944
 20
574.88200650524084
 30
0.0
 11
212.44003848389451
 21
620.38200650524095
 31
0.0
  0
LINE
  5
19504
  8
AM_0
 10
149.4397442088395
 20
573.88200650524084
 30
0.0
 11
149.4397442088397
 21
621.38200650524084
 31
0.0
  0
LINE
  5
19505
  8
AM_0
 10
147.53974420883961
 20
573.88200650524084
 30
0.0
 11
147.53974420883961
 21
621.38200650524084
 31
0.0
  0
LINE
  5
19506
  8
AM_0
 10
186.43974420883961
 20
574.88200650524084
 30
0.0
 11
186.4397442088395
 21
620.38200650524095
 31
0.0
  0
LINE
  5
19507
  8
AM_0
 10
122.4397442088395
 20
575.13200650524118
 30
0.0
 11
122.4397442088395
 21
620.13200650524061
 31
0.0
  0
LINE
  5
19508
  8
AM_0
 10
119.4400298528256
 20
565.13135553664574
 30
0.0
 11
119.4400298528256
 21
630.13265747383559
 31
0.0
  0
LINE
  5
19509
  8
ﾁｭｳｼﾝｾﾝ1
 10
199.43988910858059
 20
637.63200650524084
 30
0.0
 11
199.43980047177911
 21
557.63200650524084
 31
0.0
  0
LINE
  5
1950A
  8
AM_0
 10
279.44003848389463
 20
565.13135553664574
 30
0.0
 11
279.44003848389463
 21
630.13265747383559
 31
0.0
  0
LINE
  5
1950B
  8
AM_0
 10
122.4397442088395
 20
575.13200650524118
 30
0.0
 11
147.53974420883961
 21
575.13200650524095
 31
0.0
  0
LINE
  5
1950C
  8
AM_0
 10
124.4400300033372
 20
553.63200650524084
 30
0.0
 11
136.4400300033372
 21
565.13135553664631
 31
0.0
  0
LINE
  5
1950D
  8
AM_0
 10
136.4400300033372
 20
553.63200650524084
 30
0.0
 11
124.4400300033372
 21
565.13135553664631
 31
0.0
  0
POLYLINE
  5
1950E
  8
AM_4
 66
     1
 10
0.0
 20
0.0
 30
0.0
  0
VERTEX
  5
1950F
  8
AM_4
 10
274.44003833338297
 20
548.81810393023943
 30
0.0
  0
VERTEX
  5
19510
  8
AM_4
 10
273.58574242547422
 20
549.0404369304249
 30
0.0
  0
VERTEX
  5
19511
  8
AM_4
 10
271.9008120665801
 20
549.5658576501944
 30
0.0
  0
VERTEX
  5
19512
  8
AM_4
 10
270.67792933453097
 20
550.02438199883204
 30
0.0
  0
VERTEX
  5
19513
  8
AM_4
 10
269.8032336574754
 20
550.41208271007451
 30
0.0
  0
VERTEX
  5
19514
  8
AM_4
 10
269.1628644635623
 20
550.7250325176592
 30
0.0
  0
VERTEX
  5
19515
  8
AM_4
 10
268.64296118094052
 20
550.959304155322
 30
0.0
  0
VERTEX
  5
19516
  8
AM_4
 10
268.14648456943792
 20
551.11639078957614
 30
0.0
  0
VERTEX
  5
19517
  8
AM_4
 10
267.64368071560142
 20
551.21946731803973
 30
0.0
  0
VERTEX
  5
19518
  8
AM_4
 10
267.12161703765668
 20
551.29712907110525
 30
0.0
  0
VERTEX
  5
19519
  8
AM_4
 10
266.56736095383019
 20
551.37797137916675
 30
0.0
  0
VERTEX
  5
1951A
  8
AM_4
 10
265.96797988234732
 20
551.49058957261775
 30
0.0
  0
VERTEX
  5
1951B
  8
AM_4
 10
265.31054124143441
 20
551.66357898185186
 30
0.0
  0
VERTEX
  5
1951C
  8
AM_4
 10
264.58211244931738
 20
551.92553493726234
 30
0.0
  0
VERTEX
  5
1951D
  8
AM_4
 10
263.76976092422228
 20
552.30505276924305
 30
0.0
  0
VERTEX
  5
1951E
  8
AM_4
 10
262.8662310724161
 20
552.82291697758922
 30
0.0
  0
VERTEX
  5
1951F
  8
AM_4
 10
261.8869752523313
 20
553.46866873970498
 30
0.0
  0
VERTEX
  5
19520
  8
AM_4
 10
260.85312281044082
 20
554.22403840239645
 30
0.0
  0
VERTEX
  5
19521
  8
AM_4
 10
259.78580309321791
 20
555.07075631246914
 30
0.0
  0
VERTEX
  5
19522
  8
AM_4
 10
258.7061454471359
 20
555.99055281672963
 30
0.0
  0
VERTEX
  5
19523
  8
AM_4
 10
257.63527921866779
 20
556.96515826198367
 30
0.0
  0
VERTEX
  5
19524
  8
AM_4
 10
256.59433375428688
 20
557.97630299503714
 30
0.0
  0
VERTEX
  5
19525
  8
AM_4
 10
255.6044384004669
 20
559.00571736269637
 30
0.0
  0
VERTEX
  5
19526
  8
AM_4
 10
254.67924373974191
 20
560.03604151363834
 30
0.0
  0
VERTEX
  5
19527
  8
AM_4
 10
253.80248529889039
 20
561.05355480402523
 30
0.0
  0
VERTEX
  5
19528
  8
AM_4
 10
252.95041984075249
 20
562.04544639189203
 30
0.0
  0
VERTEX
  5
19529
  8
AM_4
 10
252.099304128168
 20
562.99890543527124
 30
0.0
  0
VERTEX
  5
1952A
  8
AM_4
 10
251.22539492397681
 20
563.90112109219763
 30
0.0
  0
VERTEX
  5
1952B
  8
AM_4
 10
250.3049489910189
 20
564.73928252070425
 30
0.0
  0
VERTEX
  5
1952C
  8
AM_4
 10
249.314223092134
 20
565.50057887882565
 30
0.0
  0
VERTEX
  5
1952D
  8
AM_4
 10
248.22947399016209
 20
566.17219932459523
 30
0.0
  0
VERTEX
  5
1952E
  8
AM_4
 10
247.03423970639031
 20
566.74380151359355
 30
0.0
  0
VERTEX
  5
1952F
  8
AM_4
 10
245.7411832958953
 20
567.21491709158522
 30
0.0
  0
VERTEX
  5
19530
  8
AM_4
 10
244.3702490722014
 20
567.58754620188324
 30
0.0
  0
VERTEX
  5
19531
  8
AM_4
 10
242.94138134883241
 20
567.86368898779881
 30
0.0
  0
VERTEX
  5
19532
  8
AM_4
 10
241.474524439313
 20
568.04534559264368
 30
0.0
  0
VERTEX
  5
19533
  8
AM_4
 10
239.98962265716659
 20
568.1345161597302
 30
0.0
  0
VERTEX
  5
19534
  8
AM_4
 10
238.5066203159177
 20
568.13320083236999
 30
0.0
  0
VERTEX
  5
19535
  8
AM_4
 10
237.04546172909031
 20
568.04339975387472
 30
0.0
  0
VERTEX
  5
19536
  8
AM_4
 10
235.62324202375771
 20
567.87107795045324
 30
0.0
  0
VERTEX
  5
19537
  8
AM_4
 10
234.2456595811897
 20
567.63805997990289
 30
0.0
  0
VERTEX
  5
19538
  8
AM_4
 10
232.91556359620549
 20
567.370135282918
 30
0.0
  0
VERTEX
  5
19539
  8
AM_4
 10
231.63580326362421
 20
567.09309330019175
 30
0.0
  0
VERTEX
  5
1953A
  8
AM_4
 10
230.40922777826461
 20
566.83272347241893
 30
0.0
  0
VERTEX
  5
1953B
  8
AM_4
 10
229.23868633494629
 20
566.61481524029318
 30
0.0
  0
VERTEX
  5
1953C
  8
AM_4
 10
228.12702812848789
 20
566.46515804450894
 30
0.0
  0
VERTEX
  5
1953D
  8
AM_4
 10
227.0771023537088
 20
566.40954132575962
 30
0.0
  0
VERTEX
  5
1953E
  8
AM_4
 10
226.08234005365571
 20
566.46357645859325
 30
0.0
  0
VERTEX
  5
1953F
  8
AM_4
 10
225.09849966428621
 20
566.60216255296837
 30
0.0
  0
VERTEX
  5
19540
  8
AM_4
 10
224.07192146978591
 20
566.79002065269833
 30
0.0
  0
VERTEX
  5
19541
  8
AM_4
 10
222.94894575434051
 20
566.99187180159424
 30
0.0
  0
VERTEX
  5
19542
  8
AM_4
 10
221.67591280213509
 20
567.17243704346981
 30
0.0
  0
VERTEX
  5
19543
  8
AM_4
 10
220.19916289735531
 20
567.29643742213705
 30
0.0
  0
VERTEX
  5
19544
  8
AM_4
 10
218.4650363241868
 20
567.32859398140806
 30
0.0
  0
VERTEX
  5
19545
  8
AM_4
 10
216.41987336681481
 20
567.23362776509555
 30
0.0
  0
VERTEX
  5
19546
  8
AM_4
 10
214.02972119562631
 20
566.99003053243086
 30
0.0
  0
VERTEX
  5
19547
  8
AM_4
 10
211.33945452581321
 20
566.63137690432018
 30
0.0
  0
VERTEX
  5
19548
  8
AM_4
 10
208.4136549587694
 20
566.2050122170881
 30
0.0
  0
VERTEX
  5
19549
  8
AM_4
 10
205.31690409588811
 20
565.75828180705992
 30
0.0
  0
VERTEX
  5
1954A
  8
AM_4
 10
202.11378353856321
 20
565.33853101056025
 30
0.0
  0
VERTEX
  5
1954B
  8
AM_4
 10
198.8688748881878
 20
564.99310516391415
 30
0.0
  0
VERTEX
  5
1954C
  8
AM_4
 10
195.6467597461554
 20
564.7693496034467
 30
0.0
  0
VERTEX
  5
1954D
  8
AM_4
 10
192.51201971386001
 20
564.71460966548239
 30
0.0
  0
VERTEX
  5
1954E
  8
AM_4
 10
189.51871022466659
 20
564.8599744320295
 30
0.0
  0
VERTEX
  5
1954F
  8
AM_4
 10
186.6787820398288
 20
565.17150796782607
 30
0.0
  0
VERTEX
  5
19550
  8
AM_4
 10
183.9936597525722
 20
565.59901808329357
 30
0.0
  0
VERTEX
  5
19551
  8
AM_4
 10
181.46476795612199
 20
566.09231258885234
 30
0.0
  0
VERTEX
  5
19552
  8
AM_4
 10
179.09353124370369
 20
566.60119929492475
 30
0.0
  0
VERTEX
  5
19553
  8
AM_4
 10
176.8813742085425
 20
567.07548601193105
 30
0.0
  0
VERTEX
  5
19554
  8
AM_4
 10
174.82972144386451
 20
567.46498055029269
 30
0.0
  0
VERTEX
  5
19555
  8
AM_4
 10
172.9399975428941
 20
567.71949072043071
 30
0.0
  0
VERTEX
  5
19556
  8
AM_4
 10
171.20816579805779
 20
567.80306923153523
 30
0.0
  0
VERTEX
  5
19557
  8
AM_4
 10
169.6083442985809
 20
567.7367483878736
 30
0.0
  0
VERTEX
  5
19558
  8
AM_4
 10
168.1091898328898
 20
567.5558053924816
 30
0.0
  0
VERTEX
  5
19559
  8
AM_4
 10
166.67935918941029
 20
567.29551744839557
 30
0.0
  0
VERTEX
  5
1955A
  8
AM_4
 10
165.28750915656869
 20
566.99116175865129
 30
0.0
  0
VERTEX
  5
1955B
  8
AM_4
 10
163.90229652279081
 20
566.67801552628453
 30
0.0
  0
VERTEX
  5
1955C
  8
AM_4
 10
162.492378076503
 20
566.39135595433163
 30
0.0
  0
VERTEX
  5
1955D
  8
AM_4
 10
161.02641060613121
 20
566.16646024582838
 30
0.0
  0
VERTEX
  5
1955E
  8
AM_4
 10
159.4830244861156
 20
566.02700527825561
 30
0.0
  0
VERTEX
  5
1955F
  8
AM_4
 10
157.88074443495341
 20
565.95026662687349
 30
0.0
  0
VERTEX
  5
19560
  8
AM_4
 10
156.24806875715581
 20
565.90191954138595
 30
0.0
  0
VERTEX
  5
19561
  8
AM_4
 10
154.6134957572346
 20
565.84763927149868
 30
0.0
  0
VERTEX
  5
19562
  8
AM_4
 10
153.00552373970081
 20
565.75310106691495
 30
0.0
  0
VERTEX
  5
19563
  8
AM_4
 10
151.45265100906579
 20
565.58398017733987
 30
0.0
  0
VERTEX
  5
19564
  8
AM_4
 10
149.98337586984101
 20
565.30595185247762
 30
0.0
  0
VERTEX
  5
19565
  8
AM_4
 10
148.62619662653759
 20
564.88469134203365
 30
0.0
  0
VERTEX
  5
19566
  8
AM_4
 10
147.40197271595321
 20
564.2965974641163
 30
0.0
  0
VERTEX
  5
19567
  8
AM_4
 10
146.30100810402871
 20
563.56096331045273
 30
0.0
  0
VERTEX
  5
19568
  8
AM_4
 10
145.30596788899109
 20
562.70780554117459
 30
0.0
  0
VERTEX
  5
19569
  8
AM_4
 10
144.39951716906759
 20
561.7671408164133
 30
0.0
  0
VERTEX
  5
1956A
  8
AM_4
 10
143.56432104248509
 20
560.76898579630063
 30
0.0
  0
VERTEX
  5
1956B
  8
AM_4
 10
142.78304460747091
 20
559.7433571409681
 30
0.0
  0
VERTEX
  5
1956C
  8
AM_4
 10
142.03835296225191
 20
558.72027151054726
 30
0.0
  0
VERTEX
  5
1956D
  8
AM_4
 10
141.3129112050552
 20
557.72974556516988
 30
0.0
  0
VERTEX
  5
1956E
  8
AM_4
 10
140.59294462451459
 20
556.79734872058941
 30
0.0
  0
VERTEX
  5
1956F
  8
AM_4
 10
139.87891927089231
 20
555.93086141504909
 30
0.0
  0
VERTEX
  5
19570
  8
AM_4
 10
139.17486138485691
 20
555.13361684241431
 30
0.0
  0
VERTEX
  5
19571
  8
AM_4
 10
138.48479720707761
 20
554.40894819655023
 30
0.0
  0
VERTEX
  5
19572
  8
AM_4
 10
137.8127529782229
 20
553.76018867132245
 30
0.0
  0
VERTEX
  5
19573
  8
AM_4
 10
137.1627549389618
 20
553.19067146059581
 30
0.0
  0
VERTEX
  5
19574
  8
AM_4
 10
136.53882932996331
 20
552.70372975823614
 30
0.0
  0
VERTEX
  5
19575
  8
AM_4
 10
135.94500239189591
 20
552.30269675810871
 30
0.0
  0
VERTEX
  5
19576
  8
AM_4
 10
135.38385096206869
 20
551.98727521749845
 30
0.0
  0
VERTEX
  5
19577
  8
AM_4
 10
134.85215426434971
 20
551.74264614736876
 30
0.0
  0
VERTEX
  5
19578
  8
AM_4
 10
134.34524211924651
 20
551.55036012210405
 30
0.0
  0
VERTEX
  5
19579
  8
AM_4
 10
133.85844434726741
 20
551.39196771608772
 30
0.0
  0
VERTEX
  5
1957A
  8
AM_4
 10
133.3870907689201
 20
551.2490195037027
 30
0.0
  0
VERTEX
  5
1957B
  8
AM_4
 10
132.92651120471251
 20
551.10306605933351
 30
0.0
  0
VERTEX
  5
1957C
  8
AM_4
 10
132.4720354751523
 20
550.93565795736322
 30
0.0
  0
VERTEX
  5
1957D
  8
AM_4
 10
132.01899340074769
 20
550.7283457721752
 30
0.0
  0
VERTEX
  5
1957E
  8
AM_4
 10
131.5480612772908
 20
550.46644107515306
 30
0.0
  0
VERTEX
  5
1957F
  8
AM_4
 10
130.9813013017102
 20
550.15029942567764
 30
0.0
  0
VERTEX
  5
19580
  8
AM_4
 10
130.22612214621941
 20
549.78403738013003
 30
0.0
  0
VERTEX
  5
19581
  8
AM_4
 10
129.1899324830311
 20
549.37177149489025
 30
0.0
  0
VERTEX
  5
19582
  8
AM_4
 10
127.7801409843587
 20
548.91761832633915
 30
0.0
  0
VERTEX
  5
19583
  8
AM_4
 10
125.9041563224151
 20
548.42569443085756
 30
0.0
  0
VERTEX
  5
19584
  8
AM_4
 10
124.4400300033372
 20
548.10964283382725
 30
0.0
  0
SEQEND
  5
19585
  8
AM_4
  0
LINE
  5
19586
  8
AM_0
 10
136.4400300033372
 20
553.63200650524084
 30
0.0
 11
124.4400300033372
 21
553.63200650524084
 31
0.0
  0
LINE
  5
19587
  8
AM_0
 10
119.4400298528256
 20
565.13135553664631
 30
0.0
 11
149.4208771548432
 21
565.13135553664631
 31
0.0
  0
LINE
  5
19588
  8
AM_0
 10
124.4400300033372
 20
565.13135553664631
 30
0.0
 11
124.4400300033372
 21
548.10964283382725
 31
0.0
  0
LINE
  5
19589
  8
AM_0
 10
122.4397442088395
 20
575.13200650524118
 30
0.0
 11
119.4397442088395
 21
573.39995569767211
 31
0.0
  0
LINE
  5
1958A
  8
AM_0
 10
276.44003848389463
 20
575.13200650524118
 30
0.0
 11
251.34003848389449
 21
575.13200650524095
 31
0.0
  0
LINE
  5
1958B
  8
AM_0
 10
249.79471813676139
 20
565.13135553664631
 30
0.0
 11
279.44003848389463
 21
565.13135553664631
 31
0.0
  0
LINE
  5
1958C
  8
AM_0
 10
212.4400384838946
 20
574.88200650524084
 30
0.0
 11
186.4397442088395
 21
574.88200650524084
 31
0.0
  0
LINE
  5
1958D
  8
AM_0
 10
149.4397442088397
 20
575.13200650524095
 30
0.0
 11
186.4397442088395
 21
575.13200650524095
 31
0.0
  0
LINE
  5
1958E
  8
AM_0
 10
136.4400300033372
 20
565.13135553664631
 30
0.0
 11
136.44003000333711
 21
553.63200650524084
 31
0.0
  0
LINE
  5
1958F
  8
AM_0
 10
147.53974420883961
 20
573.88200650524084
 30
0.0
 11
149.4397442088397
 21
573.88200650524084
 31
0.0
  0
LINE
  5
19590
  8
AM_0
 10
249.4400384838944
 20
575.13200650524095
 30
0.0
 11
212.44003848389451
 21
575.13200650524095
 31
0.0
  0
LINE
  5
19591
  8
AM_0
 10
251.34003848389449
 20
573.88200650524084
 30
0.0
 11
249.4400384838944
 21
573.88200650524084
 31
0.0
  0
LINE
  5
19592
  8
AM_0
 10
262.44003833338297
 20
565.13135553664631
 30
0.0
 11
262.44003833338297
 21
553.63200650524084
 31
0.0
  0
LINE
  5
19593
  8
AM_0
 10
262.44003833338297
 20
553.63200650524084
 30
0.0
 11
274.44003833338297
 21
565.13135553664631
 31
0.0
  0
LINE
  5
19594
  8
AM_0
 10
274.44003833338292
 20
553.63200650524095
 30
0.0
 11
262.44003833338297
 21
565.13135553664631
 31
0.0
  0
LINE
  5
19595
  8
AM_0
 10
274.44003833338297
 20
565.13135553664631
 30
0.0
 11
274.44003833338297
 21
548.81810393023943
 31
0.0
  0
LINE
  5
19596
  8
AM_0
 10
274.44003833338292
 20
553.63200650524095
 30
0.0
 11
262.44003833338309
 21
553.63200650524084
 31
0.0
  0
LINE
  5
19597
  8
AM_0
 10
276.44003848389463
 20
575.13200650524118
 30
0.0
 11
279.44003848389463
 21
573.39995569767211
 31
0.0
  0
LINE
  5
19598
  8
AM_0
 10
119.4400298528256
 20
630.13265747383559
 30
0.0
 11
149.4208771548432
 21
630.13265747383559
 31
0.0
  0
POLYLINE
  5
19599
  8
AM_4
 66
     1
 10
0.0
 20
0.0
 30
0.0
  0
VERTEX
  5
1959A
  8
AM_4
 10
274.44003833338297
 20
646.44590908024225
 30
0.0
  0
VERTEX
  5
1959B
  8
AM_4
 10
273.58574242547422
 20
646.22357608005677
 30
0.0
  0
VERTEX
  5
1959C
  8
AM_4
 10
271.9008120665801
 20
645.6981553602875
 30
0.0
  0
VERTEX
  5
1959D
  8
AM_4
 10
270.67792933453097
 20
645.23963101164975
 30
0.0
  0
VERTEX
  5
1959E
  8
AM_4
 10
269.8032336574754
 20
644.85193030040716
 30
0.0
  0
VERTEX
  5
1959F
  8
AM_4
 10
269.1628644635623
 20
644.53898049282236
 30
0.0
  0
VERTEX
  5
195A0
  8
AM_4
 10
268.64296118094052
 20
644.30470885515979
 30
0.0
  0
VERTEX
  5
195A1
  8
AM_4
 10
268.14648456943792
 20
644.14762222090553
 30
0.0
  0
VERTEX
  5
195A2
  8
AM_4
 10
267.64368071560142
 20
644.0445456924424
 30
0.0
  0
VERTEX
  5
195A3
  8
AM_4
 10
267.12161703765668
 20
643.96688393937654
 30
0.0
  0
VERTEX
  5
195A4
  8
AM_4
 10
266.56736095383019
 20
643.88604163131504
 30
0.0
  0
VERTEX
  5
195A5
  8
AM_4
 10
265.96797988234732
 20
643.77342343786404
 30
0.0
  0
VERTEX
  5
195A6
  8
AM_4
 10
265.31054124143441
 20
643.60043402862948
 30
0.0
  0
VERTEX
  5
195A7
  8
AM_4
 10
264.58211244931738
 20
643.33847807321911
 30
0.0
  0
VERTEX
  5
195A8
  8
AM_4
 10
263.76976092422228
 20
642.95896024123874
 30
0.0
  0
VERTEX
  5
195A9
  8
AM_4
 10
262.8662310724161
 20
642.4410960328928
 30
0.0
  0
VERTEX
  5
195AA
  8
AM_4
 10
261.8869752523313
 20
641.79534427077692
 30
0.0
  0
VERTEX
  5
195AB
  8
AM_4
 10
260.85312281044082
 20
641.03997460808523
 30
0.0
  0
VERTEX
  5
195AC
  8
AM_4
 10
259.78580309321791
 20
640.19325669801276
 30
0.0
  0
VERTEX
  5
195AD
  8
AM_4
 10
258.7061454471359
 20
639.27346019375193
 30
0.0
  0
VERTEX
  5
195AE
  8
AM_4
 10
257.63527921866779
 20
638.29885474849812
 30
0.0
  0
VERTEX
  5
195AF
  8
AM_4
 10
256.59433375428688
 20
637.28771001544465
 30
0.0
  0
VERTEX
  5
195B0
  8
AM_4
 10
255.6044384004669
 20
636.25829564778553
 30
0.0
  0
VERTEX
  5
195B1
  8
AM_4
 10
254.67924373974191
 20
635.22797149684322
 30
0.0
  0
VERTEX
  5
195B2
  8
AM_4
 10
253.80248529889039
 20
634.210458206456
 30
0.0
  0
VERTEX
  5
195B3
  8
AM_4
 10
252.95041984075249
 20
633.21856661858988
 30
0.0
  0
VERTEX
  5
195B4
  8
AM_4
 10
252.099304128168
 20
632.26510757521055
 30
0.0
  0
VERTEX
  5
195B5
  8
AM_4
 10
251.22539492397681
 20
631.36289191828428
 30
0.0
  0
VERTEX
  5
195B6
  8
AM_4
 10
250.3049489910189
 20
630.52473048977754
 30
0.0
  0
VERTEX
  5
195B7
  8
AM_4
 10
249.314223092134
 20
629.76343413165614
 30
0.0
  0
VERTEX
  5
195B8
  8
AM_4
 10
248.22947399016209
 20
629.09181368588622
 30
0.0
  0
VERTEX
  5
195B9
  8
AM_4
 10
247.03423970639031
 20
628.52021149688812
 30
0.0
  0
VERTEX
  5
195BA
  8
AM_4
 10
245.7411832958953
 20
628.04909591889611
 30
0.0
  0
VERTEX
  5
195BB
  8
AM_4
 10
244.3702490722014
 20
627.67646680859843
 30
0.0
  0
VERTEX
  5
195BC
  8
AM_4
 10
242.94138134883241
 20
627.40032402268287
 30
0.0
  0
VERTEX
  5
195BD
  8
AM_4
 10
241.474524439313
 20
627.21866741783799
 30
0.0
  0
VERTEX
  5
195BE
  8
AM_4
 10
239.98962265716659
 20
627.12949685075159
 30
0.0
  0
VERTEX
  5
195BF
  8
AM_4
 10
238.5066203159177
 20
627.13081217811168
 30
0.0
  0
VERTEX
  5
195C0
  8
AM_4
 10
237.04546172909031
 20
627.22061325660707
 30
0.0
  0
VERTEX
  5
195C1
  8
AM_4
 10
235.62324202375771
 20
627.39293506002855
 30
0.0
  0
VERTEX
  5
195C2
  8
AM_4
 10
234.2456595811897
 20
627.62595303057878
 30
0.0
  0
VERTEX
  5
195C3
  8
AM_4
 10
232.91556359620549
 20
627.8938777275639
 30
0.0
  0
VERTEX
  5
195C4
  8
AM_4
 10
231.63580326362421
 20
628.17091971029015
 30
0.0
  0
VERTEX
  5
195C5
  8
AM_4
 10
230.40922777826461
 20
628.43128953806286
 30
0.0
  0
VERTEX
  5
195C6
  8
AM_4
 10
229.23868633494629
 20
628.64919777018861
 30
0.0
  0
VERTEX
  5
195C7
  8
AM_4
 10
228.12702812848789
 20
628.79885496597274
 30
0.0
  0
VERTEX
  5
195C8
  8
AM_4
 10
227.0771023537088
 20
628.85447168472194
 30
0.0
  0
VERTEX
  5
195C9
  8
AM_4
 10
226.08234005365571
 20
628.80043655188854
 30
0.0
  0
VERTEX
  5
195CA
  8
AM_4
 10
225.09849966428621
 20
628.66185045751331
 30
0.0
  0
VERTEX
  5
195CB
  8
AM_4
 10
224.07192146978591
 20
628.47399235778369
 30
0.0
  0
VERTEX
  5
195CC
  8
AM_4
 10
222.94894575434051
 20
628.27214120888743
 30
0.0
  0
VERTEX
  5
195CD
  8
AM_4
 10
221.67591280213509
 20
628.09157596701186
 30
0.0
  0
VERTEX
  5
195CE
  8
AM_4
 10
220.19916289735531
 20
627.96757558834474
 30
0.0
  0
VERTEX
  5
195CF
  8
AM_4
 10
218.4650363241868
 20
627.93541902907361
 30
0.0
  0
VERTEX
  5
195D0
  8
AM_4
 10
216.41987336681481
 20
628.03038524538601
 30
0.0
  0
VERTEX
  5
195D1
  8
AM_4
 10
214.02972119562631
 20
628.27398247805081
 30
0.0
  0
VERTEX
  5
195D2
  8
AM_4
 10
211.33945452581321
 20
628.63263610616161
 30
0.0
  0
VERTEX
  5
195D3
  8
AM_4
 10
208.4136549587694
 20
629.05900079339358
 30
0.0
  0
VERTEX
  5
195D4
  8
AM_4
 10
205.31690409588811
 20
629.50573120342165
 30
0.0
  0
VERTEX
  5
195D5
  8
AM_4
 10
202.11378353856321
 20
629.92548199992154
 30
0.0
  0
VERTEX
  5
195D6
  8
AM_4
 10
198.8688748881878
 20
630.27090784656764
 30
0.0
  0
VERTEX
  5
195D7
  8
AM_4
 10
195.6467597461554
 20
630.49466340703509
 30
0.0
  0
VERTEX
  5
195D8
  8
AM_4
 10
192.51201971386001
 20
630.54940334499929
 30
0.0
  0
VERTEX
  5
195D9
  8
AM_4
 10
189.51871022466659
 20
630.40403857845217
 30
0.0
  0
VERTEX
  5
195DA
  8
AM_4
 10
186.6787820398288
 20
630.0925050426556
 30
0.0
  0
VERTEX
  5
195DB
  8
AM_4
 10
183.9936597525722
 20
629.6649949271881
 30
0.0
  0
VERTEX
  5
195DC
  8
AM_4
 10
181.46476795612199
 20
629.17170042162923
 30
0.0
  0
VERTEX
  5
195DD
  8
AM_4
 10
179.09353124370369
 20
628.66281371555715
 30
0.0
  0
VERTEX
  5
195DE
  8
AM_4
 10
176.8813742085425
 20
628.18852699855074
 30
0.0
  0
VERTEX
  5
195DF
  8
AM_4
 10
174.82972144386451
 20
627.7990324601891
 30
0.0
  0
VERTEX
  5
195E0
  8
AM_4
 10
172.9399975428941
 20
627.54452229005085
 30
0.0
  0
VERTEX
  5
195E1
  8
AM_4
 10
171.20816579805779
 20
627.46094377894622
 30
0.0
  0
VERTEX
  5
195E2
  8
AM_4
 10
169.6083442985809
 20
627.52726462260762
 30
0.0
  0
VERTEX
  5
195E3
  8
AM_4
 10
168.1091898328898
 20
627.70820761799962
 30
0.0
  0
VERTEX
  5
195E4
  8
AM_4
 10
166.67935918941029
 20
627.9684955620861
 30
0.0
  0
VERTEX
  5
195E5
  8
AM_4
 10
165.28750915656869
 20
628.27285125183039
 30
0.0
  0
VERTEX
  5
195E6
  8
AM_4
 10
163.90229652279081
 20
628.58599748419715
 30
0.0
  0
VERTEX
  5
195E7
  8
AM_4
 10
162.492378076503
 20
628.87265705615005
 30
0.0
  0
VERTEX
  5
195E8
  8
AM_4
 10
161.02641060613121
 20
629.09755276465353
 30
0.0
  0
VERTEX
  5
195E9
  8
AM_4
 10
159.4830244861156
 20
629.23700773222595
 30
0.0
  0
VERTEX
  5
195EA
  8
AM_4
 10
157.88074443495341
 20
629.31374638360808
 30
0.0
  0
VERTEX
  5
195EB
  8
AM_4
 10
156.24806875715581
 20
629.3620934690955
 30
0.0
  0
VERTEX
  5
195EC
  8
AM_4
 10
154.6134957572346
 20
629.41637373898322
 30
0.0
  0
VERTEX
  5
195ED
  8
AM_4
 10
153.00552373970081
 20
629.51091194356673
 30
0.0
  0
VERTEX
  5
195EE
  8
AM_4
 10
151.45265100906579
 20
629.68003283314181
 30
0.0
  0
VERTEX
  5
195EF
  8
AM_4
 10
149.98337586984101
 20
629.9580611580036
 30
0.0
  0
VERTEX
  5
195F0
  8
AM_4
 10
148.62619662653759
 20
630.37932166844814
 30
0.0
  0
VERTEX
  5
195F1
  8
AM_4
 10
147.40197271595321
 20
630.96741554636571
 30
0.0
  0
VERTEX
  5
195F2
  8
AM_4
 10
146.30100810402871
 20
631.70304970002894
 30
0.0
  0
VERTEX
  5
195F3
  8
AM_4
 10
145.30596788899109
 20
632.55620746930697
 30
0.0
  0
VERTEX
  5
195F4
  8
AM_4
 10
144.39951716906759
 20
633.49687219406837
 30
0.0
  0
VERTEX
  5
195F5
  8
AM_4
 10
143.56432104248509
 20
634.49502721418116
 30
0.0
  0
VERTEX
  5
195F6
  8
AM_4
 10
142.78304460747091
 20
635.5206558695138
 30
0.0
  0
VERTEX
  5
195F7
  8
AM_4
 10
142.03835296225191
 20
636.54374149993441
 30
0.0
  0
VERTEX
  5
195F8
  8
AM_4
 10
141.3129112050552
 20
637.53426744531168
 30
0.0
  0
VERTEX
  5
195F9
  8
AM_4
 10
140.59294462451459
 20
638.46666428989249
 30
0.0
  0
VERTEX
  5
195FA
  8
AM_4
 10
139.87891927089231
 20
639.3331515954327
 30
0.0
  0
VERTEX
  5
195FB
  8
AM_4
 10
139.17486138485691
 20
640.13039616806748
 30
0.0
  0
VERTEX
  5
195FC
  8
AM_4
 10
138.48479720707761
 20
640.85506481393168
 30
0.0
  0
VERTEX
  5
195FD
  8
AM_4
 10
137.8127529782229
 20
641.50382433915922
 30
0.0
  0
VERTEX
  5
195FE
  8
AM_4
 10
137.1627549389618
 20
642.07334154988575
 30
0.0
  0
VERTEX
  5
195FF
  8
AM_4
 10
136.53882932996331
 20
642.56028325224565
 30
0.0
  0
VERTEX
  5
19600
  8
AM_4
 10
135.94500239189591
 20
642.96131625237285
 30
0.0
  0
VERTEX
  5
19601
  8
AM_4
 10
135.38385096206869
 20
643.27673779298345
 30
0.0
  0
VERTEX
  5
19602
  8
AM_4
 10
134.85215426434971
 20
643.52136686311292
 30
0.0
  0
VERTEX
  5
19603
  8
AM_4
 10
134.34524211924651
 20
643.71365288837774
 30
0.0
  0
VERTEX
  5
19604
  8
AM_4
 10
133.85844434726741
 20
643.87204529439407
 30
0.0
  0
VERTEX
  5
19605
  8
AM_4
 10
133.3870907689201
 20
644.01499350677898
 30
0.0
  0
VERTEX
  5
19606
  8
AM_4
 10
132.92651120471251
 20
644.16094695114805
 30
0.0
  0
VERTEX
  5
19607
  8
AM_4
 10
132.4720354751523
 20
644.32835505311857
 30
0.0
  0
VERTEX
  5
19608
  8
AM_4
 10
132.01899340074769
 20
644.53566723830647
 30
0.0
  0
VERTEX
  5
19609
  8
AM_4
 10
131.5480612772908
 20
644.79757193532873
 30
0.0
  0
VERTEX
  5
1960A
  8
AM_4
 10
130.9813013017102
 20
645.11371358480403
 30
0.0
  0
VERTEX
  5
1960B
  8
AM_4
 10
130.22612214621941
 20
645.47997563035165
 30
0.0
  0
VERTEX
  5
1960C
  8
AM_4
 10
129.1899324830311
 20
645.89224151559165
 30
0.0
  0
VERTEX
  5
1960D
  8
AM_4
 10
127.7801409843587
 20
646.34639468414252
 30
0.0
  0
VERTEX
  5
1960E
  8
AM_4
 10
125.9041563224151
 20
646.83831857962412
 30
0.0
  0
VERTEX
  5
1960F
  8
AM_4
 10
124.4400300033372
 20
647.15437017665465
 30
0.0
  0
SEQEND
  5
19610
  8
AM_4
  0
LINE
  5
19611
  8
AM_0
 10
136.4400300033372
 20
641.63200650524095
 30
0.0
 11
124.4400300033372
 21
630.13265747383559
 31
0.0
  0
LINE
  5
19612
  8
AM_0
 10
124.4400300033372
 20
641.63200650524084
 30
0.0
 11
136.4400300033372
 21
630.13265747383559
 31
0.0
  0
LINE
  5
19613
  8
AM_0
 10
136.4400300033372
 20
641.63200650524095
 30
0.0
 11
124.4400300033372
 21
641.63200650524084
 31
0.0
  0
LINE
  5
19614
  8
AM_0
 10
279.44003848389451
 20
623.832006505241
 30
0.0
 11
119.4400298528256
 21
623.83200650524111
 31
0.0
  0
LINE
  5
19615
  8
AM_0
 10
122.4397442088395
 20
620.13200650524061
 30
0.0
 11
147.53974420883961
 21
620.13200650524084
 31
0.0
  0
LINE
  5
19616
  8
ﾁｭｳｼﾝｾﾝ1
 10
284.44003848389463
 20
597.63200650524084
 30
0.0
 11
114.4400298528255
 21
597.63200650524084
 31
0.0
  0
LINE
  5
19617
  8
AM_0
 10
124.4400300033372
 20
630.13265747383559
 30
0.0
 11
124.4400300033372
 21
647.15437017665465
 31
0.0
  0
LINE
  5
19618
  8
AM_0
 10
122.4397442088395
 20
620.13200650524061
 30
0.0
 11
119.4397442088395
 21
621.86405731280945
 31
0.0
  0
LINE
  5
19619
  8
AM_0
 10
249.79471813676139
 20
630.13265747383559
 30
0.0
 11
279.44003848389463
 21
630.13265747383559
 31
0.0
  0
LINE
  5
1961A
  8
AM_0
 10
276.44003848389463
 20
620.13200650524061
 30
0.0
 11
251.34003848389449
 21
620.13200650524084
 31
0.0
  0
LINE
  5
1961B
  8
AM_0
 10
212.4400384838946
 20
620.38200650524095
 30
0.0
 11
186.43974420883939
 21
620.38200650524084
 31
0.0
  0
LINE
  5
1961C
  8
AM_0
 10
149.4397442088397
 20
620.13200650524084
 30
0.0
 11
186.4397442088395
 21
620.13200650524084
 31
0.0
  0
LINE
  5
1961D
  8
AM_0
 10
136.4400300033372
 20
630.13265747383559
 30
0.0
 11
136.44003000333711
 21
641.63200650524084
 31
0.0
  0
LINE
  5
1961E
  8
AM_0
 10
147.53974420883961
 20
621.38200650524084
 30
0.0
 11
149.4397442088397
 21
621.38200650524084
 31
0.0
  0
LINE
  5
1961F
  8
AM_0
 10
249.4400384838944
 20
620.13200650524084
 30
0.0
 11
212.44003848389451
 21
620.13200650524084
 31
0.0
  0
LINE
  5
19620
  8
AM_0
 10
251.34003848389449
 20
621.38200650524084
 30
0.0
 11
249.4400384838944
 21
621.38200650524084
 31
0.0
  0
LINE
  5
19621
  8
AM_0
 10
274.44003833338297
 20
630.13265747383559
 30
0.0
 11
274.44003833338297
 21
646.44590908024225
 31
0.0
  0
LINE
  5
19622
  8
AM_0
 10
274.44003833338292
 20
641.63200650524084
 30
0.0
 11
262.44003833338297
 21
630.13265747383559
 31
0.0
  0
LINE
  5
19623
  8
AM_0
 10
262.44003833338297
 20
641.63200650524084
 30
0.0
 11
274.44003833338297
 21
630.13265747383559
 31
0.0
  0
LINE
  5
19624
  8
AM_0
 10
262.44003833338297
 20
630.13265747383559
 30
0.0
 11
262.44003833338297
 21
641.63200650524084
 31
0.0
  0
LINE
  5
19625
  8
AM_0
 10
276.44003848389463
 20
620.13200650524061
 30
0.0
 11
279.44003848389463
 21
621.86405731280945
 31
0.0
  0
LINE
  5
19626
  8
AM_0
 10
274.44003833338292
 20
641.63200650524084
 30
0.0
 11
262.44003833338309
 21
641.63200650524084
 31
0.0
  0
LINE
  5
19627
  8
AM_0
 10
628.25897570111147
 20
793.68851875104053
 30
0.0
 11
528.25697272081982
 21
793.68851875104053
 31
0.0
  0
LINE
  5
19628
  8
AM_0
 10
610.75862517956045
 20
798.68851890155213
 30
0.0
 11
545.75732324237083
 21
798.68851890155202
 31
0.0
  0
LINE
  5
19629
  8
AM_0
 10
726.28549659233408
 20
788.68852241522632
 30
0.0
 11
496.23043855786602
 21
788.68852241522632
 31
0.0
  0
LINE
  5
19631
  8
AM_0
 10
728.25794820873443
 20
675.68851519896646
 30
0.0
 11
494.25797168237051
 21
675.68851519896623
 31
0.0
  0
LINE
  5
19632
  8
ﾁｭｳｼﾝｾﾝ1
 10
988.75999999999999
 20
718.68884863802873
 30
0.0
 11
489.25797168237028
 21
718.68885363802872
 31
0.0
  0
LINE
  5
19633
  8
AM_0
 10
740.25800213686114
 20
655.68885090679839
 30
0.0
 11
740.25800213686114
 21
785.87400731171442
 31
0.0
  0
LINE
  5
19634
  8
AM_0
 10
726.28549659233408
 20
788.68852241522632
 30
0.0
 11
728.25794820873443
 21
675.68851519896646
 31
0.0
  0
LINE
  5
19638
  8
AM_0
 10
754.25800213686114
 20
645.18886463802869
 30
0.0
 11
754.25800213686114
 21
792.1888536380286
 31
0.0
  0
LINE
  5
19639
  8
AM_0
 10
738.25800215862409
 20
716.18885092856146
 30
0.0
 11
729.58621710109242
 21
716.18885102292279
 31
0.0
  0
LINE
  5
1963A
  8
AM_0
 10
738.25800211509875
 20
721.18885092856146
 30
0.0
 11
729.42911915121852
 21
721.18885102463184
 31
0.0
  0
LINE
  5
1963B
  8
AM_0
 10
737.48853784262133
 20
679.68851519896646
 30
0.0
 11
730.2233422279794
 21
679.68851519896646
 31
0.0
  0
LINE
  5
1963C
  8
AM_0
 10
740.55726563259554
 20
647.11906564462356
 30
0.0
 11
739.48731949665944
 21
677.75831419237159
 31
0.0
  0
LINE
  5
1963D
  8
AM_0
 10
754.2579421368614
 20
645.18886463802869
 30
0.0
 11
742.55604728663377
 21
645.18886463802869
 31
0.0
  0
ARC
  5
1963E
  8
AM_0
 10
742.55604728663377
 20
647.18886463802846
 30
0.0
 40
2.0
 50
181.9999999999971
 51
270.0
1001
GENIUS_GENODEF_13
1002
{
1000
HIER
1070
     0
1002
}
1002
{
1000
MANEDIT
1070
     0
1002
}
1002
{
1000
NOSEL
1070
     0
1002
}
1002
{
1000
BEHIND
1070
     0
1002
}
1002
{
1000
OTHER
1070
     0
1002
}
1002
{
1000
REACTOR
1002
}
1001
GENIUS_GENOBJ-N-FIL_13
1002
{
1000
OWNER
1000
GEN
1002
}
  0
ARC
  5
1963F
  8
AM_0
 10
737.48853784262133
 20
677.68851519896623
 30
0.0
 40
2.0
 50
1.999999999997115
 51
90.0
1001
GENIUS_GENODEF_13
1002
{
1000
HIER
1070
     0
1002
}
1002
{
1000
MANEDIT
1070
     0
1002
}
1002
{
1000
NOSEL
1070
     0
1002
}
1002
{
1000
BEHIND
1070
     0
1002
}
1002
{
1000
OTHER
1070
     0
1002
}
1002
{
1000
REACTOR
1002
}
1001
GENIUS_GENOBJ-N-FIL_13
1002
{
1000
OWNER
1000
GEN
1002
}
  0
ARC
  5
19640
  8
AM_0
 10
738.25800213686171
 20
714.18885092856124
 30
0.0
 40
2.0
 50
0.0
 51
89.999999376540444
1001
GENIUS_GENOBJ-N-FIL_13
1002
{
1000
OWNER
1000
GEN
1002
}
1001
GENIUS_GENODEF_13
1002
{
1000
HIER
1070
     0
1002
}
1002
{
1000
MANEDIT
1070
     0
1002
}
1002
{
1000
NOSEL
1070
     0
1002
}
1002
{
1000
BEHIND
1070
     0
1002
}
1002
{
1000
OTHER
1070
     0
1002
}
1002
{
1000
REACTOR
1002
}
  0
ARC
  5
19641
  8
AM_0
 10
738.25800213686159
 20
723.18885092856146
 30
0.0
 40
2.0
 50
269.99999937654042
 51
0.0
1001
GENIUS_GENOBJ-N-FIL_13
1002
{
1000
OWNER
1000
GEN
1002
}
1001
GENIUS_GENODEF_13
1002
{
1000
HIER
1070
     0
1002
}
1002
{
1000
MANEDIT
1070
     0
1002
}
1002
{
1000
NOSEL
1070
     0
1002
}
1002
{
1000
BEHIND
1070
     0
1002
}
1002
{
1000
OTHER
1070
     0
1002
}
1002
{
1000
REACTOR
1002
}
  0
ARC
  5
19646
  8
AM_0
 10
730.22334222797963
 20
677.68851519896623
 30
0.0
 40
2.0
 50
90.0
 51
181.00001477758079
1001
GENIUS_GENOBJ-N-FIL_13
1002
{
1000
OWNER
1000
GEN
1002
}
1001
GENIUS_GENODEF_13
1002
{
1000
HIER
1070
     0
1002
}
1002
{
1000
MANEDIT
1070
     0
1002
}
1002
{
1000
NOSEL
1070
     0
1002
}
1002
{
1000
BEHIND
1070
     0
1002
}
1002
{
1000
OTHER
1070
     0
1002
}
1002
{
1000
REACTOR
1002
}
  0
ARC
  5
19647
  8
AM_0
 10
729.58621707932923
 20
714.18885102292245
 30
0.0
 40
2.0
 50
89.999999376540444
 51
181.00001477758079
1001
GENIUS_GENOBJ-N-FIL_13
1002
{
1000
OWNER
1000
GEN
1002
}
1001
GENIUS_GENODEF_13
1002
{
1000
HIER
1070
     0
1002
}
1002
{
1000
MANEDIT
1070
     0
1002
}
1002
{
1000
NOSEL
1070
     0
1002
}
1002
{
1000
BEHIND
1070
     0
1002
}
1002
{
1000
OTHER
1070
     0
1002
}
1002
{
1000
REACTOR
1002
}
  0
ARC
  5
19648
  8
AM_0
 10
729.42911917298159
 20
723.18885102463184
 30
0.0
 40
2.0
 50
181.00001477758079
 51
269.99999937654042
1001
GENIUS_GENODEF_13
1002
{
1000
HIER
1070
     0
1002
}
1002
{
1000
MANEDIT
1070
     0
1002
}
1002
{
1000
NOSEL
1070
     0
1002
}
1002
{
1000
BEHIND
1070
     0
1002
}
1002
{
1000
OTHER
1070
     0
1002
}
1002
{
1000
REACTOR
1002
}
1001
GENIUS_GENOBJ-N-FIL_13
1002
{
1000
OWNER
1000
GEN
1002
}
  0
LINE
  5
1964D
  8
AM_0
 10
738.43137542454394
 20
784.68852241522632
 30
0.0
 11
728.32071190327542
 21
784.68852241522632
 31
0.0
  0
LINE
  5
1964E
  8
AM_0
 10
740.43015707858228
 20
786.61872342182119
 30
0.0
 11
740.55726620747714
 21
790.25865263143373
 31
0.0
  0
ARC
  5
1964F
  8
AM_0
 10
738.43137542454394
 20
786.68852241522609
 30
0.0
 40
2.0
 50
270.0
 51
358.0000000000029
1001
GENIUS_GENODEF_13
1002
{
1000
HIER
1070
     0
1002
}
1002
{
1000
MANEDIT
1070
     0
1002
}
1002
{
1000
NOSEL
1070
     0
1002
}
1002
{
1000
BEHIND
1070
     0
1002
}
1002
{
1000
OTHER
1070
     0
1002
}
1002
{
1000
REACTOR
1002
}
1001
GENIUS_GENOBJ-N-FIL_13
1002
{
1000
OWNER
1000
GEN
1002
}
  0
LINE
  5
19650
  8
AM_0
 10
754.2579421368614
 20
792.1888536380286
 30
0.0
 11
742.55604786151582
 21
792.1888536380286
 31
0.0
  0
ARC
  5
19651
  8
AM_0
 10
742.55604786151582
 20
790.1888536380286
 30
0.0
 40
2.0
 50
90.0
 51
178.00000000000259
1001
GENIUS_GENODEF_13
1002
{
1000
HIER
1070
     0
1002
}
1002
{
1000
MANEDIT
1070
     0
1002
}
1002
{
1000
NOSEL
1070
     0
1002
}
1002
{
1000
BEHIND
1070
     0
1002
}
1002
{
1000
OTHER
1070
     0
1002
}
1002
{
1000
REACTOR
1002
}
1001
GENIUS_GENOBJ-N-FIL_13
1002
{
1000
OWNER
1000
GEN
1002
}
  0
ARC
  5
19652
  8
AM_0
 10
728.32071190327542
 20
786.68852241522609
 30
0.0
 40
2.0
 50
181.00001477758079
 51
270.0
1001
GENIUS_GENOBJ-N-FIL_13
1002
{
1000
OWNER
1000
GEN
1002
}
1001
GENIUS_GENODEF_13
1002
{
1000
HIER
1070
     0
1002
}
1002
{
1000
MANEDIT
1070
     0
1002
}
1002
{
1000
NOSEL
1070
     0
1002
}
1002
{
1000
BEHIND
1070
     0
1002
}
1002
{
1000
OTHER
1070
     0
1002
}
1002
{
1000
REACTOR
1002
}
  0
LINE
  5
19653
  8
AM_0
 10
628.25897570111147
 20
793.68851875104053
 30
0.0
 11
628.25897570111147
 21
788.6885186005286
 31
0.0
  0
LINE
  5
19654
  8
AM_0
 10
610.75862517956045
 20
798.68851890155213
 30
0.0
 11
610.75862517956045
 21
793.68851875104053
 31
0.0
  0
LINE
  5
19655
  8
ﾁｭｳｼﾝｾﾝ1
 10
578.2579742109657
 20
608.68851519896623
 30
0.0
 11
578.25797421096524
 21
803.68851890155236
 31
0.0
  0
LINE
  5
19659
  8
AM_0
 10
496.23043855786602
 20
788.68852241522632
 30
0.0
 11
494.25797168237051
 21
675.68851519896623
 31
0.0
  0
LINE
  5
19661
  8
AM_0
 10
545.75732324237083
 20
798.68851890155202
 30
0.0
 11
545.75732324237083
 21
793.68851875104053
 31
0.0
  0
LINE
  5
19662
  8
AM_0
 10
528.25697272081982
 20
793.68851875104053
 30
0.0
 11
528.25697272081982
 21
788.6885186005286
 31
0.0
  0
LINE
  5
196C3
  8
AM_0
 10
756.55800213686155
 20
651.68885072943181
 30
0.0
 11
756.55800213686155
 21
785.68885072943192
 31
0.0
  0
LINE
  5
196C4
  8
AM_0
 10
756.55800213686155
 20
651.68885072943181
 30
0.0
 11
754.25800213686114
 21
651.68885075445905
 31
0.0
  0
LINE
  5
196C5
  8
AM_0
 10
756.55800213686155
 20
701.68885072943192
 30
0.0
 11
754.25800213686114
 21
701.68885075445905
 31
0.0
  0
LINE
  5
196C6
  8
AM_0
 10
756.55800359497164
 20
785.68885072943192
 30
0.0
 11
754.25800359497146
 21
785.68885075445905
 31
0.0
  0
LINE
  5
196C7
  8
AM_0
 10
756.55800250682955
 20
735.68885072943192
 30
0.0
 11
754.2580025068296
 21
735.68885075445905
 31
0.0
  0
LINE
  5
196C8
  8
0
 10
524.25833221882306
 20
791.68852241522586
 30
0.0
 11
524.25833221882306
 21
807.68852241522575
 31
0.0
  0
LINE
  5
196C9
  8
0
 10
500.258332218823
 20
807.68852241522575
 30
0.0
 11
500.258332218823
 21
791.68852241522586
 31
0.0
  0
LINE
  5
196CA
  8
0
 10
524.25833221882306
 20
807.68852241522575
 30
0.0
 11
500.258332218823
 21
807.68852241522575
 31
0.0
  0
LINE
  5
196CB
  8
0
 10
527.25833221882306
 20
791.68852241522586
 30
0.0
 11
497.258332218823
 21
791.68852241522586
 31
0.0
  0
LINE
  5
196CC
  8
0
 10
497.258332218823
 20
791.68852241522586
 30
0.0
 11
497.258332218823
 21
788.68852241522632
 31
0.0
  0
LINE
  5
196CD
  8
0
 10
527.25833221882306
 20
791.68852241522586
 30
0.0
 11
527.25833221882306
 21
788.68852241522632
 31
0.0
  0
LINE
  5
196CE
  8
0
 10
722.25794766689273
 20
791.68852241522632
 30
0.0
 11
722.25794766689273
 21
807.68852241522632
 31
0.0
  0
LINE
  5
196CF
  8
0
 10
698.2579476668933
 20
807.68852241522632
 30
0.0
 11
698.2579476668933
 21
791.68852241522632
 31
0.0
  0
LINE
  5
196D0
  8
0
 10
722.25794766689273
 20
807.68852241522632
 30
0.0
 11
698.2579476668933
 21
807.68852241522632
 31
0.0
  0
LINE
  5
196D1
  8
0
 10
725.25794766689273
 20
791.68852241522632
 30
0.0
 11
695.25794766689296
 21
791.68852241522632
 31
0.0
  0
LINE
  5
196D2
  8
0
 10
695.25794766689296
 20
791.68852241522632
 30
0.0
 11
695.25794766689296
 21
788.68852241522632
 31
0.0
  0
LINE
  5
196D3
  8
0
 10
725.25794766689273
 20
791.68852241522632
 30
0.0
 11
725.25794766689273
 21
788.68852241522632
 31
0.0
  0
LINE
  5
198AA
  8
AM_0
 10
492.2579716823704
 20
618.68851519896646
 30
0.0
 11
730.24843206976448
 21
618.68851519896623
 31
0.0
  0
LINE
  5
198AB
  8
AM_0
 10
728.25794820873443
 20
675.68851519896646
 30
0.0
 11
730.24843206976448
 21
618.68851519896623
 31
0.0
  0
LINE
  5
198AC
  8
AM_0
 10
494.25797168237051
 20
675.68851519896623
 30
0.0
 11
492.2579716823704
 21
618.68851519896646
 31
0.0
  0
LINE
  5
19A86
  8
AM_0
 10
729.37541283253267
 20
643.68851519719317
 30
0.0
 11
493.13516466476449
 21
643.68851519719317
 31
0.0
  0
LINE
  5
19A89
  8
AM_0
 10
514.56373591640943
 20
618.68851519896646
 30
0.0
 11
514.56373591640943
 21
643.68851519719317
 31
0.0
  0
LINE
  5
19A8B
  8
ﾁｭｳｼﾝｾﾝ1
 10
526.2579456832492
 20
608.68851519896623
 30
0.0
 11
526.2579456832492
 21
653.68851519719294
 31
0.0
  0
LINE
  5
19A8E
  8
AM_0
 10
707.9426678357255
 20
618.68851519896646
 30
0.0
 11
707.9426678357255
 21
643.68851519719317
 31
0.0
  0
LINE
  5
19A8F
  8
ﾁｭｳｼﾝｾﾝ1
 10
696.24845806888584
 20
608.68851519896623
 30
0.0
 11
696.24845806888584
 21
653.68851519719294
 31
0.0
  0
ARC
  5
1A72F
  8
ｶｸﾚｾﾝ2
 10
850.5733971368611
 20
683.87245198538653
 30
0.0
 40
5.600000999999998
 50
273.83696300000258
 51
359.99994299999992
  0
ARC
  5
1A730
  8
ｶｸﾚｾﾝ2
 10
810.75800213686125
 20
1277.5388269853861
 30
0.0
 40
600.59997599999986
 50
266.03398700000201
 51
273.83694599999848
  0
ARC
  5
1A731
  8
ｶｸﾚｾﾝ2
 10
769.46389613686131
 20
681.9686509853866
 30
0.0
 40
3.6000059999999969
 50
179.99998199999999
 51
266.03400100000198
  0
LINE
  5
1A732
  8
ｶｸﾚｾﾝ2
 10
765.86390613686115
 20
681.95816998538635
 30
0.0
 11
765.86390613686115
 21
755.41671298538654
 31
0.0
  0
ARC
  5
1A733
  8
ｶｸﾚｾﾝ2
 10
769.46389613686131
 20
755.40885198538615
 30
0.0
 40
3.5999989999999982
 50
93.966255999999049
 51
179.99998199999999
  0
ARC
  5
1A734
  8
ｶｸﾚｾﾝ2
 10
810.75800213686125
 20
159.83887498538661
 30
0.0
 40
600.59997599999986
 50
86.163089999999471
 51
93.966239999996191
  0
LINE
  5
1A735
  8
ｶｸﾚｾﾝ2
 10
856.17340013686135
 20
753.50525098538651
 30
0.0
 11
856.17340013686135
 21
683.87244698538655
 31
0.0
  0
ARC
  5
1A736
  8
ｶｸﾚｾﾝ2
 10
850.5733971368611
 20
753.50524998538651
 30
0.0
 40
5.5999980000000003
 50
0.0000180000000273
 51
86.16293799999292
  0
ARC
  5
1A73F
  8
AM_0
 10
763.25794213686152
 20
282.03796443779822
 30
0.0
 40
1.0
 50
270.0
 51
0.000000000000007
  0
ARC
  5
1A740
  8
AM_0
 10
763.25794213686152
 20
406.11558043779831
 30
0.0
 40
1.0
 50
0.000000000000007
 51
90.0
  0
ARC
  5
1A741
  8
AM_0
 10
767.08162113686114
 20
793.58501598538624
 30
0.0
 40
2.0
 50
90.0
 51
165.00000299999979
  0
ARC
  5
1A742
  8
AM_0
 10
765.26637713686114
 20
785.18885098538624
 30
0.0
 40
2.0
 50
90.0
 51
165.0000000000008
  0
LINE
  5
1A743
  8
AM_0
 10
764.25800213686125
 20
791.18885098538647
 30
0.0
 11
764.25800213686125
 21
790.77453398538682
 31
0.0
  0
ARC
  5
1A744
  8
AM_0
 10
763.26049913686131
 20
791.19134798538653
 30
0.0
 40
0.9975059999999999
 50
359.85657799999967
 51
90.143422000003625
  0
LINE
  5
1A745
  8
AM_0
 10
764.25800213686125
 20
791.19384498538682
 30
0.0
 11
764.25800213686125
 21
791.18885098538647
 31
0.0
  0
LINE
  5
1A746
  8
AM_0
 10
764.34555813686131
 20
791.10129498538652
 30
0.0
 11
764.25800213686125
 21
791.18885098538647
 31
0.0
  0
LINE
  5
1A747
  8
AM_0
 10
762.25800213686114
 20
781.68885098538681
 30
0.0
 11
763.33452513686132
 21
785.7064889853865
 31
0.0
  0
LINE
  5
1A748
  8
AM_0
 10
763.25800213686114
 20
792.18885098538624
 30
0.0
 11
754.25800213686114
 21
792.18885098538624
 31
0.0
  0
LINE
  5
1A749
  8
AM_0
 10
762.25800213686114
 20
783.31043198538623
 30
0.0
 11
765.14976913686155
 21
794.1026539853865
 31
0.0
  0
ARC
  5
1A74A
  8
AM_0
 10
763.25800213686114
 20
780.68885098538624
 30
0.0
 40
1.0
 50
0.000000000000007
 51
90.0
  0
ARC
  5
1A74B
  8
AM_0
 10
833.25800213686114
 20
796.5510489853865
 30
0.0
 40
2.0
 50
90.0
 51
180.0
  0
ARC
  5
1A74C
  8
AM_0
 10
833.25800213686114
 20
796.1237709853865
 30
0.0
 40
2.0
 50
90.0
 51
180.0
  0
ARC
  5
1A74D
  8
AM_0
 10
833.25800213686114
 20
795.11841998538682
 30
0.0
 40
2.0
 50
90.0
 51
166.50868900000069
  0
LINE
  5
1A74E
  8
AM_0
 10
831.25800213686125
 20
796.5510489853865
 30
0.0
 11
831.25800213686125
 21
795.58501598538646
 31
0.0
  0
ARC
  5
1A74F
  8
AM_0
 10
914.25800213686125
 20
796.5510489853865
 30
0.0
 40
2.0
 50
0.000000000000007
 51
90.0
  0
LINE
  5
1A750
  8
AM_0
 10
916.25800213686114
 20
794.57320698538649
 30
0.0
 11
916.25800213686114
 21
795.11841998538682
 31
0.0
  0
ARC
  5
1A751
  8
AM_0
 10
914.40855213686154
 20
796.1237709853865
 30
0.0
 40
2.0
 50
15.76954700000169
 51
90.0
  0
ARC
  5
1A752
  8
AM_0
 10
918.25800213686114
 20
797.21084598538653
 30
0.0
 40
2.0
 50
195.76954700000161
 51
270.0
  0
ARC
  5
1A753
  8
AM_0
 10
914.25800213686125
 20
795.11841998538682
 30
0.0
 40
2.0
 50
0.000000000000007
 51
90.0
  0
ARC
  5
1A754
  8
AM_0
 10
918.25800213686114
 20
794.57320698538649
 30
0.0
 40
2.0
 50
180.0
 51
270.0
  0
ARC
  5
1A755
  8
AM_0
 10
914.25800213686125
 20
793.58501598538624
 30
0.0
 40
2.0
 50
0.000000000000007
 51
90.0
  0
ARC
  5
1A756
  8
AM_0
 10
918.25800213686114
 20
790.2172179853867
 30
0.0
 40
2.0
 50
180.0
 51
270.0
  0
LINE
  5
1A757
  8
AM_0
 10
916.25800213686114
 20
790.2172179853867
 30
0.0
 11
916.25800213686114
 21
793.58501598538624
 31
0.0
  0
ARC
  5
1A758
  8
AM_0
 10
918.25800213686114
 20
771.58990098538652
 30
0.0
 40
2.0
 50
180.0
 51
270.0
  0
LINE
  5
1A759
  8
AM_0
 10
916.25800213686114
 20
784.04476998538655
 30
0.0
 11
916.25800213686114
 21
771.58990098538652
 31
0.0
  0
ARC
  5
1A75A
  8
AM_0
 10
914.25800213686125
 20
785.18885098538624
 30
0.0
 40
2.0
 50
0.000000000000007
 51
90.0
  0
ARC
  5
1A75B
  8
AM_0
 10
918.25800213686114
 20
784.04476998538655
 30
0.0
 40
2.0
 50
180.0
 51
270.0
  0
LINE
  5
1A75C
  8
AM_0
 10
916.25800213686114
 20
784.04476998538655
 30
0.0
 11
916.25800213686114
 21
785.18885098538624
 31
0.0
  0
LINE
  5
1A75D
  8
AM_0
 10
918.25800213686114
 20
795.21084598538653
 30
0.0
 11
923.76401313686165
 21
795.21084598538653
 31
0.0
  0
LINE
  5
1A75E
  8
AM_0
 10
918.25800213686114
 20
792.57320698538615
 30
0.0
 11
923.76401313686165
 21
792.57320698538615
 31
0.0
  0
LINE
  5
1A75F
  8
AM_0
 10
918.25800213686114
 20
788.21721798538624
 30
0.0
 11
923.76401313686165
 21
788.21721798538624
 31
0.0
  0
LINE
  5
1A760
  8
AM_0
 10
918.25800213686114
 20
782.04476998538655
 30
0.0
 11
923.76401313686165
 21
782.04476998538655
 31
0.0
  0
LINE
  5
1A761
  8
AM_0
 10
914.25800213686125
 20
798.5510489853865
 30
0.0
 11
833.25800213686114
 21
798.5510489853865
 31
0.0
  0
LINE
  5
1A762
  8
AM_0
 10
914.40855213686154
 20
798.1237709853865
 30
0.0
 11
833.25800213686114
 21
798.1237709853865
 31
0.0
  0
LINE
  5
1A763
  8
AM_0
 10
914.25800213686125
 20
797.11841998538648
 30
0.0
 11
833.25800213686114
 21
797.11841998538648
 31
0.0
  0
LINE
  5
1A764
  8
AM_0
 10
914.25800213686125
 20
795.58501598538646
 30
0.0
 11
767.08162113686114
 21
795.58501598538646
 31
0.0
  0
LINE
  5
1A765
  8
AM_0
 10
914.25800213686125
 20
787.18885098538647
 30
0.0
 11
765.26637713686114
 21
787.18885098538647
 31
0.0
  0
LINE
  5
1A766
  8
AM_0
 10
923.76401313686165
 20
769.58990098538652
 30
0.0
 11
765.75800213686114
 21
769.58990098538652
 31
0.0
  0
ARC
  5
1A767
  8
AM_0
 10
765.26637713686114
 20
652.18885098538669
 30
0.0
 40
2.0
 50
194.9999999999992
 51
270.0
  0
ARC
  5
1A768
  8
AM_0
 10
763.26049913686131
 20
646.18635398538652
 30
0.0
 40
0.9975059999999999
 50
269.85657800000951
 51
0.1434220000003741
  0
LINE
  5
1A769
  8
AM_0
 10
764.34555813686131
 20
646.27640698538653
 30
0.0
 11
764.25800213686125
 21
646.18885098538635
 31
0.0
  0
LINE
  5
1A76A
  8
AM_0
 10
764.25800213686125
 20
646.18385698538634
 30
0.0
 11
764.25800213686125
 21
646.18885098538635
 31
0.0
  0
LINE
  5
1A76B
  8
AM_0
 10
764.25800213686125
 20
646.18885098538635
 30
0.0
 11
764.25800213686125
 21
646.60316798538634
 31
0.0
  0
ARC
  5
1A76C
  8
AM_0
 10
767.08162113686114
 20
643.7926859853867
 30
0.0
 40
2.0
 50
194.99999700000021
 51
270.0
  0
LINE
  5
1A76D
  8
AM_0
 10
763.25800213686114
 20
645.18885098538647
 30
0.0
 11
754.25800213686114
 21
645.18885098538647
 31
0.0
  0
LINE
  5
1A76E
  8
AM_0
 10
762.25800213686114
 20
655.68885098538635
 30
0.0
 11
763.33452513686132
 21
651.67121298538655
 31
0.0
  0
LINE
  5
1A76F
  8
AM_0
 10
762.25800213686114
 20
654.0672699853867
 30
0.0
 11
765.14976913686155
 21
643.27504798538655
 31
0.0
  0
ARC
  5
1A770
  8
AM_0
 10
763.25800213686114
 20
656.68885098538669
 30
0.0
 40
1.0
 50
270.0
 51
0.000000000000007
  0
LINE
  5
1A771
  8
AM_0
 10
914.25800213686125
 20
640.25928198538645
 30
0.0
 11
833.25800213686114
 21
640.25928198538645
 31
0.0
  0
LINE
  5
1A772
  8
AM_0
 10
914.40855213686154
 20
639.25393098538655
 30
0.0
 11
833.25800213686114
 21
639.25393098538655
 31
0.0
  0
LINE
  5
1A773
  8
AM_0
 10
914.25800213686125
 20
638.82665298538654
 30
0.0
 11
833.25800213686114
 21
638.82665298538654
 31
0.0
  0
LINE
  5
1A774
  8
AM_0
 10
916.25800213686114
 20
653.33293198538649
 30
0.0
 11
916.25800213686114
 21
652.18885098538669
 31
0.0
  0
ARC
  5
1A775
  8
AM_0
 10
918.25800213686114
 20
653.33293198538649
 30
0.0
 40
2.0
 50
90.0
 51
180.0
  0
ARC
  5
1A776
  8
AM_0
 10
914.25800213686125
 20
652.18885098538669
 30
0.0
 40
2.0
 50
270.0
 51
0.000000000000007
  0
LINE
  5
1A777
  8
AM_0
 10
916.25800213686114
 20
653.33293198538649
 30
0.0
 11
916.25800213686114
 21
665.78780098538653
 31
0.0
  0
ARC
  5
1A778
  8
AM_0
 10
918.25800213686114
 20
665.78780098538653
 30
0.0
 40
2.0
 50
90.0
 51
180.0
  0
ARC
  5
1A779
  8
AM_0
 10
918.25800213686114
 20
640.16685598538652
 30
0.0
 40
2.0
 50
90.0
 51
164.23045299999831
  0
ARC
  5
1A77A
  8
AM_0
 10
918.25800213686114
 20
642.80449498538655
 30
0.0
 40
2.0
 50
90.0
 51
180.0
  0
ARC
  5
1A77B
  8
AM_0
 10
918.25800213686114
 20
647.16048398538635
 30
0.0
 40
2.0
 50
90.0
 51
180.0
  0
LINE
  5
1A77C
  8
AM_0
 10
916.25800213686114
 20
647.16048398538635
 30
0.0
 11
916.25800213686114
 21
643.7926859853867
 31
0.0
  0
ARC
  5
1A77D
  8
AM_0
 10
914.25800213686125
 20
643.7926859853867
 30
0.0
 40
2.0
 50
270.0
 51
0.000000000000007
  0
ARC
  5
1A77E
  8
AM_0
 10
914.25800213686125
 20
642.25928198538634
 30
0.0
 40
2.0
 50
270.0
 51
0.000000000000007
  0
ARC
  5
1A77F
  8
AM_0
 10
914.40855213686154
 20
641.25393098538655
 30
0.0
 40
2.0
 50
270.0
 51
344.23045299999831
  0
LINE
  5
1A780
  8
AM_0
 10
916.25800213686114
 20
642.80449498538655
 30
0.0
 11
916.25800213686114
 21
642.25928198538634
 31
0.0
  0
ARC
  5
1A781
  8
AM_0
 10
914.25800213686125
 20
640.82665298538654
 30
0.0
 40
2.0
 50
270.0
 51
0.000000000000007
  0
LINE
  5
1A782
  8
AM_0
 10
831.25800213686125
 20
640.82665298538654
 30
0.0
 11
831.25800213686125
 21
641.79268598538647
 31
0.0
  0
ARC
  5
1A783
  8
AM_0
 10
833.25800213686114
 20
642.25928198538634
 30
0.0
 40
2.0
 50
193.491311
 51
270.0
  0
ARC
  5
1A784
  8
AM_0
 10
833.25800213686114
 20
641.25393098538655
 30
0.0
 40
2.0
 50
180.0
 51
270.0
  0
ARC
  5
1A785
  8
AM_0
 10
833.25800213686114
 20
640.82665298538654
 30
0.0
 40
2.0
 50
180.0
 51
270.0
  0
LINE
  5
1A786
  8
AM_0
 10
918.25800213686114
 20
655.33293198538638
 30
0.0
 11
923.76401313686165
 21
655.33293198538638
 31
0.0
  0
LINE
  5
1A787
  8
AM_0
 10
914.25800213686125
 20
650.18885098538647
 30
0.0
 11
765.26637713686114
 21
650.18885098538647
 31
0.0
  0
LINE
  5
1A788
  8
AM_0
 10
923.76401313686165
 20
667.78780098538653
 30
0.0
 11
765.75800213686114
 21
667.78780098538653
 31
0.0
  0
LINE
  5
1A789
  8
AM_0
 10
914.25800213686125
 20
641.79268598538647
 30
0.0
 11
767.08162113686114
 21
641.79268598538647
 31
0.0
  0
LINE
  5
1A78A
  8
AM_0
 10
918.25800213686114
 20
642.16685598538641
 30
0.0
 11
923.76401313686165
 21
642.16685598538641
 31
0.0
  0
LINE
  5
1A78B
  8
AM_0
 10
918.25800213686114
 20
644.80449498538667
 30
0.0
 11
923.76401313686165
 21
644.80449498538667
 31
0.0
  0
LINE
  5
1A78C
  8
AM_0
 10
918.25800213686114
 20
649.16048398538669
 30
0.0
 11
923.76401313686165
 21
649.16048398538669
 31
0.0
  0
LINE
  5
1A7DE
  8
AM_0
 10
764.25800213686125
 20
674.85890898538651
 30
0.0
 11
764.25800213686125
 21
682.49890898538649
 31
0.0
  0
LINE
  5
1A7DF
  8
AM_0
 10
764.25800213686125
 20
762.51885098538651
 30
0.0
 11
764.25800213686125
 21
754.87885098538641
 31
0.0
  0
ARC
  5
1A7E0
  8
AM_0
 10
763.25864113686146
 20
671.6473199853865
 30
0.0
 40
1.0026319999999971
 50
98.756241000005687
 51
179.9459149999999
  0
LINE
  5
1A7E1
  8
AM_0
 10
763.10600913686153
 20
672.63826698538639
 30
0.0
 11
764.86480813686114
 21
672.90885098538638
 31
0.0
  0
LINE
  5
1A7E2
  8
AM_0
 10
763.11600913686152
 20
674.72826698538654
 30
0.0
 11
764.71869713686112
 21
674.5088509853864
 31
0.0
  0
ARC
  5
1A7E3
  8
AM_0
 10
763.26297713686131
 20
675.72447098538635
 30
0.0
 40
1.006985999999999
 50
180.35299800000041
 51
261.60783700000462
  0
LINE
  5
1A7E4
  8
AM_0
 10
762.25600913686117
 20
675.71826698538655
 30
0.0
 11
762.25600913686117
 21
671.64826698538639
 31
0.0
  0
ARC
  5
1A7E5
  8
AM_0
 10
764.79936513686152
 20
673.69491098538651
 30
0.0
 40
0.8033630000000001
 50
90.239329999991384
 51
179.76066999999941
  0
ARC
  5
1A7E6
  8
AM_0
 10
764.80107113686131
 20
673.70332898538652
 30
0.0
 40
0.8050779999999997
 50
180.36025099999989
 51
269.639749000005
  0
ARC
  5
1A7E7
  8
AM_0
 10
763.26297713686131
 20
761.65323098538681
 30
0.0
 40
1.006985999999999
 50
98.392162999995449
 51
179.64700200000041
  0
LINE
  5
1A7E8
  8
AM_0
 10
763.11600913686152
 20
762.64943498538651
 30
0.0
 11
764.71869713686112
 21
762.86885098538653
 31
0.0
  0
ARC
  5
1A7E9
  8
AM_0
 10
763.25864113686146
 20
765.73038198538654
 30
0.0
 40
1.0026319999999971
 50
180.0540850000001
 51
261.24375900000717
  0
LINE
  5
1A7EA
  8
AM_0
 10
762.25600913686117
 20
761.6594349853865
 30
0.0
 11
762.25600913686117
 21
765.72943498538655
 31
0.0
  0
LINE
  5
1A7EB
  8
AM_0
 10
763.10600913686153
 20
764.73943498538654
 30
0.0
 11
764.86480813686114
 21
764.46885098538655
 31
0.0
  0
ARC
  5
1A7EC
  8
AM_0
 10
764.79936513686152
 20
763.68279098538653
 30
0.0
 40
0.8033630000000001
 50
180.23933000000019
 51
269.76067000000847
  0
ARC
  5
1A7ED
  8
AM_0
 10
764.80107113686131
 20
763.67437298538653
 30
0.0
 40
0.8050779999999997
 50
90.360250999995117
 51
179.63974899999999
  0
LINE
  5
1A7FC
  8
AM_0
 10
764.25800213686125
 20
684.83890898538652
 30
0.0
 11
764.25800213686125
 21
692.58890898538652
 31
0.0
  0
ARC
  5
1A7FD
  8
AM_0
 10
763.26497013686105
 20
685.7150549853867
 30
0.0
 40
1.006985999999999
 50
180.35299800000041
 51
261.60783700000462
  0
LINE
  5
1A7FE
  8
AM_0
 10
763.11800213686115
 20
684.71885098538655
 30
0.0
 11
764.79800113686144
 21
684.48885098538653
 31
0.0
  0
LINE
  5
1A7FF
  8
AM_0
 10
763.10800213686161
 20
682.62885098538652
 30
0.0
 11
764.79800113686144
 21
682.8888509853864
 31
0.0
  0
ARC
  5
1A800
  8
AM_0
 10
764.80306413686105
 20
683.69391298538665
 30
0.0
 40
0.8050779999999997
 50
180.36025099999989
 51
269.63877400000609
  0
ARC
  5
1A801
  8
AM_0
 10
764.80135813686115
 20
683.68549498538653
 30
0.0
 40
0.8033630000000001
 50
89.760817000004906
 51
179.76066999999941
  0
ARC
  5
1A802
  8
AM_0
 10
763.26063413686131
 20
681.63790498538651
 30
0.0
 40
1.0026319999999971
 50
98.756241000005687
 51
179.9459149999999
  0
LINE
  5
1A803
  8
AM_0
 10
762.25800213686114
 20
685.70885098538645
 30
0.0
 11
762.25800213686114
 21
681.63885098538651
 31
0.0
  0
LINE
  5
1A804
  8
AM_0
 10
764.25800213686125
 20
752.5388509853866
 30
0.0
 11
764.25800213686125
 21
744.7888509853866
 31
0.0
  0
LINE
  5
1A805
  8
AM_0
 10
763.11800213686115
 20
752.65885098538649
 30
0.0
 11
764.79800113686144
 21
752.88885098538651
 31
0.0
  0
ARC
  5
1A806
  8
AM_0
 10
763.26497013686105
 20
751.66264698538623
 30
0.0
 40
1.006985999999999
 50
98.392162999995449
 51
179.64700200000041
  0
ARC
  5
1A807
  8
AM_0
 10
763.26063413686131
 20
755.73979698538653
 30
0.0
 40
1.0026319999999971
 50
180.0540850000001
 51
261.24375900000717
  0
LINE
  5
1A808
  8
AM_0
 10
762.25800213686114
 20
751.6688509853866
 30
0.0
 11
762.25800213686114
 21
755.73885098538653
 31
0.0
  0
LINE
  5
1A809
  8
AM_0
 10
763.10800213686161
 20
754.74885098538653
 30
0.0
 11
764.79800113686144
 21
754.48885098538653
 31
0.0
  0
ARC
  5
1A80A
  8
AM_0
 10
764.80306413686105
 20
753.68378898538651
 30
0.0
 40
0.8050779999999997
 50
90.361225999993863
 51
179.63974899999999
  0
ARC
  5
1A80B
  8
AM_0
 10
764.80135813686115
 20
753.69220698538652
 30
0.0
 40
0.8033630000000001
 50
180.23933000000019
 51
270.2391830000081
  0
LINE
  5
1A80C
  8
AM_0
 10
764.25800213686125
 20
756.55279598538652
 30
0.0
 11
756.55800213686155
 21
756.55279598538652
 31
0.0
  0
LINE
  5
1A80D
  8
AM_0
 10
764.25800213686125
 20
680.83490598538651
 30
0.0
 11
756.55800213686155
 21
680.83490598538617
 31
0.0
  0
LINE
  5
1A867
  8
AM_0
 10
159.23599076782901
 20
223.2710212291793
 30
0.0
 11
158.7859357678287
 21
226.14352422917921
 31
0.0
  0
LINE
  5
1A86B
  8
AM_0
 10
167.2145997678287
 20
217.07151622917931
 30
0.0
 11
231.66483276782881
 21
217.07151622917931
 31
0.0
  0
LINE
  5
1A86D
  8
AM_0
 10
239.6492587678288
 20
223.3007392291793
 30
0.0
 11
240.09493476782879
 21
226.14353022917931
 31
0.0
  0
LINE
  5
1A86F
  8
AM_0
 10
231.6658957678288
 20
230.95152122917929
 30
0.0
 11
167.2142217678288
 21
230.95152122917929
 31
0.0
  0
LINE
  5
1A871
  8
AM_0
 10
167.21459176782881
 20
230.9515312291793
 30
0.0
 11
166.8055987678286
 21
230.9405302291793
 31
0.0
  0
LINE
  5
1A872
  8
AM_0
 10
166.80559576782889
 20
230.9405432291793
 30
0.0
 11
166.3985977678287
 21
230.90553922917931
 31
0.0
  0
LINE
  5
1A873
  8
AM_0
 10
166.39860076782881
 20
230.90556822917929
 30
0.0
 11
165.9986017678288
 21
230.84956922917931
 31
0.0
  0
LINE
  5
1A874
  8
AM_0
 10
165.99860076782869
 20
230.8495492291793
 30
0.0
 11
165.60760476782889
 21
230.77055522917931
 31
0.0
  0
LINE
  5
1A875
  8
AM_0
 10
165.60759976782879
 20
230.77053322917931
 30
0.0
 11
165.2285887678288
 21
230.6705262291793
 31
0.0
  0
LINE
  5
1A876
  8
AM_0
 10
165.22860676782889
 20
230.67049922917931
 30
0.0
 11
164.86460876782871
 21
230.54949722917931
 31
0.0
  0
LINE
  5
1A877
  8
AM_0
 10
164.86459876782891
 20
230.54950422917929
 30
0.0
 11
164.51959976782879
 21
230.4085142291793
 31
0.0
  0
LINE
  5
1A878
  8
AM_0
 10
164.51960476782889
 20
230.4085142291793
 30
0.0
 11
164.19360776782901
 21
230.2495172291793
 31
0.0
  0
LINE
  5
1A879
  8
AM_0
 10
164.19360876782889
 20
230.2495142291792
 30
0.0
 11
163.8916047678288
 21
230.0725112291793
 31
0.0
  0
LINE
  5
1A87A
  8
AM_0
 10
163.8915927678288
 20
230.0725502291792
 30
0.0
 11
163.61459176782881
 21
229.8795412291793
 31
0.0
  0
LINE
  5
1A87B
  8
AM_0
 10
163.61458576782891
 20
229.8795292291793
 30
0.0
 11
163.36458376782889
 21
229.67252722917931
 31
0.0
  0
LINE
  5
1A87C
  8
AM_0
 10
163.36460576782881
 20
229.67251722917931
 30
0.0
 11
163.14460376782881
 21
229.4515232291792
 31
0.0
  0
LINE
  5
1A87D
  8
AM_0
 10
163.1445977678288
 20
229.45153722917931
 30
0.0
 11
162.95560276782879
 21
229.21954422917921
 31
0.0
  0
LINE
  5
1A87E
  8
AM_0
 10
162.9556077678287
 20
229.2195222291792
 30
0.0
 11
162.79860176782881
 21
228.97751622917929
 31
0.0
  0
LINE
  5
1A87F
  8
AM_0
 10
162.79859876782871
 20
228.97752622917929
 30
0.0
 11
162.67559576782881
 21
228.7275212291793
 31
0.0
  0
LINE
  5
1A880
  8
AM_0
 10
162.67562176782869
 20
228.72751622917929
 30
0.0
 11
162.58662276782891
 21
228.47250522917929
 31
0.0
  0
LINE
  5
1A881
  8
AM_0
 10
162.58660876782889
 20
228.4725142291793
 30
0.0
 11
162.53260676782881
 21
228.21251422917931
 31
0.0
  0
LINE
  5
1A882
  8
AM_0
 10
162.53260176782871
 20
228.2125282291793
 30
0.0
 11
162.5146037678289
 21
227.95152122917921
 31
0.0
  0
LINE
  5
1A883
  8
AM_0
 10
236.3649347678288
 20
227.9515232291792
 30
0.0
 11
236.34703276782901
 21
228.2125222291794
 31
0.0
  0
LINE
  5
1A884
  8
AM_0
 10
236.34703476782869
 20
228.21251322917931
 30
0.0
 11
236.29343476782901
 21
228.4725022291793
 31
0.0
  0
LINE
  5
1A885
  8
AM_0
 10
236.29343276782879
 20
228.47250922917931
 30
0.0
 11
236.2047337678288
 21
228.7275122291793
 31
0.0
  0
LINE
  5
1A886
  8
AM_0
 10
236.20472876782901
 20
228.7275102291793
 30
0.0
 11
236.0814317678288
 21
228.97750622917931
 31
0.0
  0
LINE
  5
1A887
  8
AM_0
 10
236.08144576782891
 20
228.97753022917931
 30
0.0
 11
235.9245407678288
 21
229.2195392291793
 31
0.0
  0
LINE
  5
1A888
  8
AM_0
 10
235.9245227678289
 20
229.2195052291793
 30
0.0
 11
235.73521476782889
 21
229.45150922917921
 31
0.0
  0
LINE
  5
1A889
  8
AM_0
 10
235.7352387678288
 20
229.4515192291793
 30
0.0
 11
235.51483476782889
 21
229.67251822917939
 31
0.0
  0
LINE
  5
1A88A
  8
AM_0
 10
235.5148367678288
 20
229.6725292291793
 30
0.0
 11
235.2652397678288
 21
229.8795282291793
 31
0.0
  0
LINE
  5
1A88B
  8
AM_0
 10
235.2652577678289
 20
229.8795332291792
 30
0.0
 11
234.98825376782889
 21
230.0725442291793
 31
0.0
  0
LINE
  5
1A88C
  8
AM_0
 10
234.98825176782881
 20
230.07253922917931
 30
0.0
 11
234.68594776782879
 21
230.2495432291793
 31
0.0
  0
LINE
  5
1A88D
  8
AM_0
 10
234.6859387678289
 20
230.2495202291793
 30
0.0
 11
234.36063976782879
 21
230.4085152291793
 31
0.0
  0
LINE
  5
1A88E
  8
AM_0
 10
234.36063976782879
 20
230.4085282291793
 30
0.0
 11
234.0148347678288
 21
230.5495222291793
 31
0.0
  0
LINE
  5
1A88F
  8
AM_0
 10
234.0148347678288
 20
230.5495182291792
 30
0.0
 11
233.65113476782889
 21
230.67052022917929
 31
0.0
  0
LINE
  5
1A890
  8
AM_0
 10
233.6511437678289
 20
230.6705382291793
 30
0.0
 11
233.2723377678287
 21
230.77054522917931
 31
0.0
  0
LINE
  5
1A891
  8
AM_0
 10
233.2723377678287
 20
230.77054122917929
 30
0.0
 11
232.881334767829
 21
230.8495372291793
 31
0.0
  0
LINE
  5
1A892
  8
AM_0
 10
232.8813317678289
 20
230.8494952291793
 30
0.0
 11
232.4810317678288
 21
230.90549522917939
 31
0.0
  0
LINE
  5
1A893
  8
AM_0
 10
232.48103676782901
 20
230.9054972291793
 30
0.0
 11
232.07453576782879
 21
230.9405012291794
 31
0.0
  0
LINE
  5
1A894
  8
AM_0
 10
232.07453576782879
 20
230.94054822917931
 30
0.0
 11
231.66483276782881
 21
230.9515502291793
 31
0.0
  0
ARC
  5
1A896
  8
AM_0
 10
167.2145997678287
 20
221.07151622917931
 30
0.0
 40
4.0
 50
179.99998199999999
 51
269.99996400000163
  0
ARC
  5
1A898
  8
AM_0
 10
284.41103376782883
 20
236.86752222917929
 30
0.0
 40
122.221001
 50
179.24629341089781
 51
187.4255040000005
  0
ARC
  5
1A899
  8
AM_0
 10
229.4667437678288
 20
238.6355272291793
 30
0.0
 40
71.776710999999949
 50
180.06509152411641
 51
190.02400200000071
  0
ARC
  5
1A89B
  8
AM_0
 10
165.17293876782901
 20
224.1385182291792
 30
0.0
 40
5.9999919999999971
 50
188.31313399999999
 51
263.06156699999713
  0
ARC
  5
1A89D
  8
AM_0
 10
231.66483276782881
 20
221.07151622917931
 30
0.0
 40
4.0
 50
269.99998099999289
 51
0.0000180000000203
  0
ARC
  5
1A89F
  8
AM_0
 10
114.4690317678288
 20
236.86752222917929
 30
0.0
 40
122.221001
 50
352.57496000000049
 51
0.1441522441298969
  0
ARC
  5
1A8A0
  8
AM_0
 10
169.4133297678288
 20
238.6355272291793
 30
0.0
 40
71.776702999999983
 50
349.97597100000041
 51
358.7715794254147
  0
ARC
  5
1A8A2
  8
AM_0
 10
233.7080307678288
 20
224.1385182291792
 30
0.0
 40
6.0000049999999989
 50
276.9213300000024
 51
351.97358199999923
  0
LINE
  5
1A8AD
  8
AM_0
 10
844.65794013686161
 20
262.0767724377983
 30
0.0
 11
774.91484013686124
 21
262.0767724377983
 31
0.0
  0
LINE
  5
1A8AE
  8
AM_0
 10
765.85982213686145
 20
260.17179343779839
 30
0.0
 11
767.5078171368616
 21
263.7057574377983
 31
0.0
  0
LINE
  5
1A8AF
  8
AM_0
 10
767.5078171368616
 20
263.7057574377983
 30
0.0
 11
856.32593613686174
 21
222.28974843779829
 31
0.0
  0
LINE
  5
1A8B0
  8
AM_0
 10
854.67774313686164
 20
218.75477743779831
 30
0.0
 11
856.32593613686174
 21
222.28974843779829
 31
0.0
  0
LINE
  5
1A8B1
  8
AM_0
 10
847.12473813686142
 20
219.12078143779831
 30
0.0
 11
847.44614013686157
 21
219.8097734377983
 31
0.0
  0
LINE
  5
1A8B2
  8
AM_0
 10
770.83284013686159
 20
234.99077443779831
 30
0.0
 11
770.83284013686159
 21
255.36478243779831
 31
0.0
  0
LINE
  5
1A8B3
  8
AM_0
 10
853.21034813686174
 20
218.22577443779829
 30
0.0
 11
766.38484313686115
 21
258.7127774377982
 31
0.0
  0
LINE
  5
1A8B4
  8
AM_0
 10
848.25793813686164
 20
226.0517784377983
 30
0.0
 11
848.25793813686164
 21
258.47678143779831
 31
0.0
  0
LINE
  5
1A8B5
  8
ﾁｭｳｼﾝｾﾝ1
 10
853.43413913686152
 20
242.0767724377983
 30
0.0
 11
844.84383813686156
 21
242.0767724377983
 31
0.0
  0
LINE
  5
1A8B6
  8
AM_0
 10
850.25793813686153
 20
253.6767784377983
 30
0.0
 11
850.25793813686153
 21
230.47678143779831
 31
0.0
  0
LINE
  5
1A8B7
  8
AM_0
 10
850.25793813686153
 20
253.6767784377983
 30
0.0
 11
849.25793813686153
 21
253.6767784377983
 31
0.0
  0
LINE
  5
1A8B8
  8
AM_0
 10
850.25793813686153
 20
230.47678143779831
 30
0.0
 11
849.25793813686153
 21
230.47678143779831
 31
0.0
  0
ARC
  5
1A8CC
  8
AM_0
 10
844.65794013686161
 20
258.47678143779831
 30
0.0
 40
3.5999979999999989
 50
0.0000180000000273
 51
89.999938999999046
  0
ARC
  5
1A8CD
  8
AM_0
 10
766.85684213686159
 20
259.70677743779828
 30
0.0
 40
1.100006
 50
155.00048599999701
 51
245.00017399999689
  0
ARC
  5
1A8CE
  8
AM_0
 10
853.68083913686155
 20
219.21977843779831
 30
0.0
 40
1.0999959999999971
 50
244.99980500000291
 51
335.00019699999939
  0
ARC
  5
1A8CF
  8
AM_0
 10
778.43283813686162
 20
234.99077443779831
 30
0.0
 40
7.5999979999999958
 50
179.99998199999999
 51
251.09998400000291
  0
ARC
  5
1A8D0
  8
AM_0
 10
843.86203713686155
 20
220.64177543779829
 30
0.0
 40
3.5999979999999989
 50
270.9059790000008
 51
335.00084299999872
  0
ARC
  5
1A8D1
  8
AM_0
 10
840.75553913686156
 20
417.017766437798
 30
0.0
 40
200.0
 50
251.09999699999781
 51
270.9059479999969
  0
ARC
  5
1A8D2
  8
AM_0
 10
848.35244013686145
 20
219.38777743779829
 30
0.0
 40
0.9999979999999998
 50
65.000642000003779
 51
155.00073199999881
  0
ARC
  5
1A8D3
  8
AM_0
 10
768.83284013686148
 20
255.36478243779831
 30
0.0
 40
2.0
 50
0.0000180000000273
 51
64.999850000003775
  0
ARC
  5
1A8D4
  8
AM_0
 10
774.91484013686124
 20
259.47678143779831
 30
0.0
 40
2.600006
 50
90.0
 51
139.31387000000001
  0
ARC
  5
1A8D5
  8
AM_0
 10
849.25793813686153
 20
254.6767784377983
 30
0.0
 40
1.0
 50
179.99998199999999
 51
270.00105700000478
  0
ARC
  5
1A8D6
  8
AM_0
 10
849.25793813686153
 20
229.47678143779831
 30
0.0
 40
1.0
 50
90.0
 51
179.99998199999999
  0
LINE
  5
1A8D9
  8
ﾁｭｳｼﾝｾﾝ1
 10
810.75794213686152
 20
272.16148843779831
 30
0.0
 11
810.75794213686152
 21
258.17466643779829
 31
0.0
  0
LINE
  5
1A936
  8
AM_0
 10
121.9935097678287
 20
368.0771382291793
 30
0.0
 11
124.440044003273
 21
367.99170332158712
 31
0.0
  0
ARC
  5
1A937
  8
AM_0
 10
122.02840876782901
 20
369.07652922917941
 30
0.0
 40
1.0
 50
92.000000000003624
 51
267.99999999999642
  0
LINE
  5
1A938
  8
AM_0
 10
121.9935097678287
 20
370.0759202291793
 30
0.0
 11
124.440044003273
 21
370.16135492028877
 31
0.0
  0
ARC
  5
1A93B
  8
AM_0
 10
123.5538677678289
 20
379.07652922917941
 30
0.0
 40
1.0
 50
94.613729999995073
 51
264.48241599999773
  0
LINE
  5
1A94E
  8
AM_0
 10
124.4400440032729
 20
380.1512941817756
 30
0.0
 11
123.4734307678288
 21
380.07328922917941
 31
0.0
  0
LINE
  5
1A94F
  8
AM_0
 10
124.440044003273
 20
377.98627059415878
 30
0.0
 11
123.4577167678287
 21
378.08116222917931
 31
0.0
  0
LINE
  5
1A9D6
  8
AM_0
 10
765.75800213686114
 20
684.83890898538652
 30
0.0
 11
765.75800213686114
 21
692.58890898538652
 31
0.0
  0
LINE
  5
1A9D7
  8
AM_0
 10
765.75800213686114
 20
694.7689089853867
 30
0.0
 11
765.75800213686114
 21
702.63890898538625
 31
0.0
  0
LINE
  5
1A9D8
  8
AM_0
 10
765.75800213686114
 20
704.71890898538652
 30
0.0
 11
765.75800213686114
 21
712.66890898538634
 31
0.0
  0
LINE
  5
1A9D9
  8
AM_0
 10
765.75800213686114
 20
714.69890898538654
 30
0.0
 11
765.75800213686114
 21
722.67885098538625
 31
0.0
  0
LINE
  5
1A9DA
  8
AM_0
 10
765.75800213686114
 20
724.70885098538633
 30
0.0
 11
765.75800213686114
 21
732.65885098538649
 31
0.0
  0
LINE
  5
1A9DB
  8
AM_0
 10
765.75800213686114
 20
734.73885098538653
 30
0.0
 11
765.75800213686114
 21
742.60885098538654
 31
0.0
  0
LINE
  5
1A9DC
  8
AM_0
 10
765.75800213686114
 20
744.7888509853866
 30
0.0
 11
765.75800213686114
 21
752.5388509853866
 31
0.0
  0
LINE
  5
1A9DD
  8
AM_0
 10
765.75800213686114
 20
754.87885098538641
 30
0.0
 11
765.75800213686114
 21
762.51885098538651
 31
0.0
  0
LINE
  5
1A9DE
  8
AM_0
 10
763.2687821368612
 20
655.68890898538655
 30
0.0
 11
756.55800213686155
 21
655.68890898538655
 31
0.0
  0
LINE
  5
1A9DF
  8
AM_0
 10
763.25800213686114
 20
781.68885098538681
 30
0.0
 11
756.55800213686155
 21
781.68885098538681
 31
0.0
  0
LINE
  5
1A9E0
  8
AM_0
 10
923.76401313686165
 20
799.43885098538624
 30
0.0
 11
923.76401313686165
 21
637.93890898538655
 31
0.0
  0
LINE
  5
1A9E1
  8
AM_0
 10
765.75800213686114
 20
674.85890898538651
 30
0.0
 11
765.75800213686114
 21
682.49890898538649
 31
0.0
  0
LINE
  5
1A9E2
  8
AM_0
 10
765.75800213686114
 20
667.78785898538649
 30
0.0
 11
765.75800213686114
 21
672.51890898538647
 31
0.0
  0
LINE
  5
1A9E3
  8
AM_0
 10
763.11800213686115
 20
714.71885098538655
 30
0.0
 11
764.55800213686132
 21
714.52170798538634
 31
0.0
  0
LINE
  5
1A9E4
  8
AM_0
 10
763.10800213686161
 20
712.62885098538652
 30
0.0
 11
764.55800213686132
 21
712.85192798538651
 31
0.0
  0
LINE
  5
1A9E5
  8
AM_0
 10
762.25800213686114
 20
715.70885098538645
 30
0.0
 11
762.25800213686114
 21
711.63885098538651
 31
0.0
  0
LINE
  5
1A9E6
  8
AM_0
 10
763.11800213686115
 20
704.71885098538655
 30
0.0
 11
764.55800213686132
 21
704.52170798538634
 31
0.0
  0
LINE
  5
1A9E7
  8
AM_0
 10
763.10800213686161
 20
702.62885098538641
 30
0.0
 11
764.55800213686132
 21
702.85192798538651
 31
0.0
  0
LINE
  5
1A9E8
  8
AM_0
 10
762.25800213686114
 20
705.70885098538656
 30
0.0
 11
762.25800213686114
 21
701.6388509853864
 31
0.0
  0
LINE
  5
1A9E9
  8
AM_0
 10
763.10800213686161
 20
692.62885098538652
 30
0.0
 11
764.55800213686132
 21
692.85192798538651
 31
0.0
  0
LINE
  5
1A9EA
  8
AM_0
 10
763.11800213686115
 20
694.71885098538655
 30
0.0
 11
764.55800213686132
 21
694.52170798538668
 31
0.0
  0
LINE
  5
1A9EB
  8
AM_0
 10
762.25800213686114
 20
695.70885098538645
 30
0.0
 11
762.25800213686114
 21
691.63885098538651
 31
0.0
  0
ARC
  5
1A9EC
  8
AM_0
 10
764.80639713686162
 20
713.68885098538635
 30
0.0
 40
0.8000439999999999
 50
108.0879409999973
 51
251.9120590000027
  0
ARC
  5
1A9ED
  8
AM_0
 10
763.26063413686131
 20
711.63790498538651
 30
0.0
 40
1.0026319999999971
 50
98.756241000005687
 51
179.9459149999999
  0
ARC
  5
1A9EE
  8
AM_0
 10
763.26497013686105
 20
715.7150549853867
 30
0.0
 40
1.006985999999999
 50
180.35299800000041
 51
261.60783700000462
  0
ARC
  5
1A9EF
  8
AM_0
 10
764.80306413686105
 20
703.69391298538665
 30
0.0
 40
0.8050779999999997
 50
180.36025099999989
 51
252.27821000000401
  0
ARC
  5
1A9F0
  8
AM_0
 10
763.26063413686131
 20
701.63790498538651
 30
0.0
 40
1.0026319999999971
 50
98.756241000005687
 51
179.9459149999999
  0
ARC
  5
1A9F1
  8
AM_0
 10
763.26497013686105
 20
705.71505498538625
 30
0.0
 40
1.006985999999999
 50
180.35299800000041
 51
261.60783700000462
  0
ARC
  5
1A9F2
  8
AM_0
 10
764.80135813686115
 20
693.68549498538653
 30
0.0
 40
0.8033630000000001
 50
107.6331500000024
 51
179.76066999999941
  0
ARC
  5
1A9F3
  8
AM_0
 10
764.80306413686105
 20
693.69391298538665
 30
0.0
 40
0.8050779999999997
 50
180.36025099999989
 51
252.27821000000401
  0
ARC
  5
1A9F4
  8
AM_0
 10
763.26497013686105
 20
695.71505498538647
 30
0.0
 40
1.006985999999999
 50
180.35299800000041
 51
261.60783700000462
  0
ARC
  5
1A9F5
  8
AM_0
 10
763.26063413686131
 20
691.63790498538651
 30
0.0
 40
1.0026319999999971
 50
98.756241000005687
 51
179.9459149999999
  0
ARC
  5
1A9F6
  8
AM_0
 10
764.80135813686115
 20
703.68549498538653
 30
0.0
 40
0.8033630000000001
 50
107.6331500000024
 51
179.76066999999941
  0
LINE
  5
1A9F7
  8
AM_0
 10
764.25800213686125
 20
704.71890898538652
 30
0.0
 11
764.25800213686125
 21
712.66890898538634
 31
0.0
  0
LINE
  5
1A9F8
  8
AM_0
 10
764.25800213686125
 20
694.7689089853867
 30
0.0
 11
764.25800213686125
 21
702.63890898538625
 31
0.0
  0
ARC
  5
1A9F9
  8
AM_0
 10
947.09617213686113
 20
798.92159998538682
 30
0.0
 40
0.5
 50
204.75341000000239
 51
267.00024700000398
  0
ARC
  5
1A9FA
  8
AM_0
 10
972.63581013686155
 20
791.32483698538647
 30
0.0
 40
5.7500059999999991
 50
9.9999520000009277
 51
87.000117000003911
  0
ARC
  5
1A9FB
  8
AM_0
 10
945.50696513686125
 20
798.18885098538681
 30
0.0
 40
1.25
 50
25.376360999999608
 51
90.000017999999173
  0
LINE
  5
1A9FC
  8
AM_0
 10
945.50696513686125
 20
799.43885098538624
 30
0.0
 11
923.75800213686114
 21
799.43885098538624
 31
0.0
  0
LINE
  5
1A9FD
  8
AM_0
 10
947.07000613686148
 20
798.42228498538623
 30
0.0
 11
972.93667613686114
 21
797.0667819853868
 31
0.0
  0
LINE
  5
1A9FE
  8
AM_0
 10
916.25800213686114
 20
754.48885098538653
 30
0.0
 11
764.79798813686114
 21
754.48885098538653
 31
0.0
  0
LINE
  5
1A9FF
  8
AM_0
 10
916.25800213686114
 20
752.5388509853866
 30
0.0
 11
762.76869713686119
 21
752.5388509853866
 31
0.0
  0
LINE
  5
1AA00
  8
AM_0
 10
979.75922313686112
 20
652.94488998538634
 30
0.0
 11
979.75922313686112
 21
784.43286998538679
 31
0.0
  0
LINE
  5
1AA01
  8
AM_0
 10
979.3594791368613
 20
786.30586198538651
 30
0.0
 11
978.29861713686114
 21
792.3233379853865
 31
0.0
  0
ARC
  5
1AA02
  8
AM_0
 10
982.31391113686129
 20
786.82688198538654
 30
0.0
 40
2.999997
 50
189.99982600000061
 51
263.63062899999608
  0
ARC
  5
1AA03
  8
AM_0
 10
981.75922313686101
 20
781.85774798538682
 30
0.0
 40
2.0
 50
0.000000000000007
 51
83.630628999996134
  0
LINE
  5
1AA04
  8
AM_0
 10
916.25800213686114
 20
764.62018298538646
 30
0.0
 11
916.25800213686114
 21
747.97040798538683
 31
0.0
  0
LINE
  5
1AA05
  8
AM_0
 10
923.76401313686165
 20
764.62018298538646
 30
0.0
 11
916.25800213686114
 21
764.62018298538646
 31
0.0
  0
LINE
  5
1AA06
  8
AM_0
 10
923.76401313686165
 20
764.20885098538656
 30
0.0
 11
916.25800213686114
 21
764.20885098538656
 31
0.0
  0
LINE
  5
1AA07
  8
AM_0
 10
923.76401313686165
 20
753.68885098538647
 30
0.0
 11
916.25800213686114
 21
753.68885098538647
 31
0.0
  0
LINE
  5
1AA08
  8
AM_0
 10
923.76401313686165
 20
747.97040798538683
 30
0.0
 11
916.25800213686114
 21
747.97040798538683
 31
0.0
  0
LINE
  5
1AA09
  8
AM_0
 10
765.75800213686114
 20
769.58990098538652
 30
0.0
 11
765.64184713686154
 21
770.79782698538645
 31
0.0
  0
LINE
  5
1AA0A
  8
AM_0
 10
764.25800213686125
 20
780.68885098538624
 30
0.0
 11
764.25800213686125
 21
764.85885098538654
 31
0.0
  0
LINE
  5
1AA0B
  8
AM_0
 10
765.75800213686114
 20
769.58990098538652
 30
0.0
 11
765.75800213686114
 21
764.85885098538654
 31
0.0
  0
LINE
  5
1AA0C
  8
AM_0
 10
764.25800213686125
 20
742.60885098538654
 30
0.0
 11
764.25800213686125
 21
734.73885098538653
 31
0.0
  0
LINE
  5
1AA0D
  8
AM_0
 10
764.25800213686125
 20
732.65885098538649
 30
0.0
 11
764.25800213686125
 21
724.70885098538633
 31
0.0
  0
LINE
  5
1AA0E
  8
AM_0
 10
916.25800213686114
 20
762.51885098538651
 30
0.0
 11
762.74846313686146
 21
762.51885098538651
 31
0.0
  0
LINE
  5
1AA0F
  8
AM_0
 10
923.76401313686165
 20
764.85885098538654
 30
0.0
 11
762.76295413686114
 21
764.85885098538654
 31
0.0
  0
LINE
  5
1AA10
  8
AM_0
 10
916.25800213686114
 20
762.86885098538653
 30
0.0
 11
764.71869713686112
 21
762.86885098538653
 31
0.0
  0
LINE
  5
1AA11
  8
AM_0
 10
916.25800213686114
 20
764.46885098538655
 30
0.0
 11
764.86480813686114
 21
764.46885098538655
 31
0.0
  0
LINE
  5
1AA12
  8
AM_0
 10
764.55800213686132
 20
722.88885098538651
 30
0.0
 11
923.76401313686165
 21
722.88885098538651
 31
0.0
  0
LINE
  5
1AA13
  8
AM_0
 10
764.55800213686132
 20
724.48885098538653
 30
0.0
 11
923.76401313686165
 21
724.48885098538653
 31
0.0
  0
LINE
  5
1AA14
  8
AM_0
 10
923.76401313686165
 20
722.67885098538625
 30
0.0
 11
763.26408913686112
 21
722.67885098538625
 31
0.0
  0
LINE
  5
1AA15
  8
AM_0
 10
923.76401313686165
 20
724.70885098538633
 30
0.0
 11
763.36800213686115
 21
724.70885098538633
 31
0.0
  0
LINE
  5
1AA16
  8
AM_0
 10
923.76401313686165
 20
732.65885098538649
 30
0.0
 11
763.11800213686115
 21
732.65885098538649
 31
0.0
  0
LINE
  5
1AA17
  8
AM_0
 10
923.76401313686165
 20
742.60885098538654
 30
0.0
 11
762.92041413686115
 21
742.60885098538654
 31
0.0
  0
LINE
  5
1AA18
  8
AM_0
 10
923.76401313686165
 20
744.7888509853866
 30
0.0
 11
762.92041413686115
 21
744.7888509853866
 31
0.0
  0
ARC
  5
1AA19
  8
AM_0
 10
764.80135813686115
 20
733.69220698538652
 30
0.0
 40
0.8033630000000001
 50
180.23933000000019
 51
252.36684999999761
  0
ARC
  5
1AA1A
  8
AM_0
 10
763.26063413686131
 20
745.73979698538653
 30
0.0
 40
1.0026319999999971
 50
180.0540850000001
 51
261.24375900000717
  0
ARC
  5
1AA1B
  8
AM_0
 10
763.26497013686105
 20
741.66264698538635
 30
0.0
 40
1.006985999999999
 50
98.392162999995449
 51
179.64700200000041
  0
ARC
  5
1AA1C
  8
AM_0
 10
764.80306413686105
 20
743.6837889853864
 30
0.0
 40
0.8050779999999997
 50
107.72178999999601
 51
179.63974899999999
  0
ARC
  5
1AA1D
  8
AM_0
 10
764.80135813686115
 20
743.69220698538641
 30
0.0
 40
0.8033630000000001
 50
180.23933000000019
 51
252.36684999999761
  0
ARC
  5
1AA1E
  8
AM_0
 10
763.26497013686105
 20
731.66264698538623
 30
0.0
 40
1.006985999999999
 50
98.392162999995449
 51
179.64700200000041
  0
ARC
  5
1AA1F
  8
AM_0
 10
763.26063413686131
 20
735.73979698538653
 30
0.0
 40
1.0026319999999971
 50
180.0540850000001
 51
261.24375900000717
  0
ARC
  5
1AA20
  8
AM_0
 10
764.80306413686105
 20
733.68378898538651
 30
0.0
 40
0.8050779999999997
 50
107.72178999999601
 51
179.63974899999999
  0
ARC
  5
1AA21
  8
AM_0
 10
763.26497013686105
 20
721.66264698538623
 30
0.0
 40
1.006985999999999
 50
98.392162999995449
 51
179.64700200000041
  0
ARC
  5
1AA22
  8
AM_0
 10
763.26063413686131
 20
725.73979698538653
 30
0.0
 40
1.0026319999999971
 50
180.0540850000001
 51
261.24375900000717
  0
ARC
  5
1AA23
  8
AM_0
 10
764.80639713686162
 20
723.68885098538681
 30
0.0
 40
0.8000439999999999
 50
108.0879409999973
 51
251.9120590000027
  0
LINE
  5
1AA24
  8
AM_0
 10
916.25800213686114
 20
754.87885098538641
 30
0.0
 11
762.7467831368615
 21
754.87885098538641
 31
0.0
  0
LINE
  5
1AA25
  8
AM_0
 10
923.76401313686165
 20
734.73885098538653
 30
0.0
 11
763.20800213686152
 21
734.73885098538653
 31
0.0
  0
LINE
  5
1AA26
  8
AM_0
 10
923.76401313686165
 20
734.48885098538653
 30
0.0
 11
764.55800213686132
 21
734.48885098538653
 31
0.0
  0
LINE
  5
1AA27
  8
AM_0
 10
923.76401313686165
 20
732.8888509853864
 30
0.0
 11
764.55800213686132
 21
732.8888509853864
 31
0.0
  0
LINE
  5
1AA28
  8
AM_0
 10
923.76401313686165
 20
742.88885098538651
 30
0.0
 11
764.55800213686132
 21
742.88885098538651
 31
0.0
  0
LINE
  5
1AA29
  8
AM_0
 10
923.76401313686165
 20
744.48885098538653
 30
0.0
 11
764.5666031368612
 21
744.48885098538653
 31
0.0
  0
LINE
  5
1AA2A
  8
AM_0
 10
916.25800213686114
 20
752.88885098538651
 30
0.0
 11
764.7980041368611
 21
752.88885098538651
 31
0.0
  0
LINE
  5
1AA2B
  8
AM_0
 10
762.25800213686114
 20
741.66885098538683
 30
0.0
 11
762.25800213686114
 21
745.73885098538653
 31
0.0
  0
LINE
  5
1AA2C
  8
AM_0
 10
763.11800213686115
 20
742.65885098538638
 30
0.0
 11
764.55800213686132
 21
742.85599398538625
 31
0.0
  0
LINE
  5
1AA2D
  8
AM_0
 10
763.10800213686161
 20
744.74885098538653
 30
0.0
 11
764.55800213686132
 21
744.52577398538654
 31
0.0
  0
LINE
  5
1AA2E
  8
AM_0
 10
762.25800213686114
 20
731.66885098538614
 30
0.0
 11
762.25800213686114
 21
735.73885098538653
 31
0.0
  0
LINE
  5
1AA2F
  8
AM_0
 10
763.10800213686161
 20
734.74885098538653
 30
0.0
 11
764.55800213686132
 21
734.52577398538654
 31
0.0
  0
LINE
  5
1AA30
  8
AM_0
 10
763.11800213686115
 20
732.65885098538649
 30
0.0
 11
764.55800213686132
 21
732.8559939853867
 31
0.0
  0
LINE
  5
1AA31
  8
AM_0
 10
762.25800213686114
 20
721.66885098538683
 30
0.0
 11
762.25800213686114
 21
725.73885098538653
 31
0.0
  0
LINE
  5
1AA32
  8
AM_0
 10
763.10800213686161
 20
724.74885098538653
 30
0.0
 11
764.55800213686132
 21
724.52577398538654
 31
0.0
  0
LINE
  5
1AA33
  8
AM_0
 10
763.11800213686115
 20
722.65885098538649
 30
0.0
 11
764.55800213686132
 21
722.85599398538682
 31
0.0
  0
ARC
  5
1AA34
  8
AM_0
 10
947.09617213686113
 20
638.45615998538653
 30
0.0
 40
0.5
 50
92.999752999995962
 51
155.2465899999977
  0
ARC
  5
1AA35
  8
AM_0
 10
972.63581013686155
 20
646.05292298538654
 30
0.0
 40
5.7500059999999991
 50
272.99988299999609
 51
350.00004799999908
  0
ARC
  5
1AA36
  8
AM_0
 10
945.50696513686125
 20
639.18890898538655
 30
0.0
 40
1.25
 50
269.99998200000078
 51
334.62363900000111
  0
LINE
  5
1AA37
  8
AM_0
 10
945.50696513686125
 20
637.93890898538655
 30
0.0
 11
923.75800213686114
 21
637.93890898538655
 31
0.0
  0
LINE
  5
1AA38
  8
AM_0
 10
947.07000613686148
 20
638.95547498538645
 30
0.0
 11
972.93667613686114
 21
640.31097798538633
 31
0.0
  0
LINE
  5
1AA39
  8
AM_0
 10
946.75738513686156
 20
798.43866798538681
 30
0.0
 11
946.75738513686156
 21
638.93909198538654
 31
0.0
  0
LINE
  5
1AA3A
  8
AM_0
 10
976.70502413686154
 20
644.72687298538654
 30
0.0
 11
976.70502413686154
 21
792.65088698538682
 31
0.0
  0
LINE
  5
1AA3B
  8
AM_0
 10
983.75922313686124
 20
781.85774798538682
 30
0.0
 11
983.75922313686124
 21
655.52001198538665
 31
0.0
  0
LINE
  5
1AA3C
  8
AM_0
 10
979.3594791368613
 20
651.0718979853865
 30
0.0
 11
978.29861713686114
 21
645.05442198538651
 31
0.0
  0
ARC
  5
1AA3D
  8
AM_0
 10
982.31391113686129
 20
650.55087798538625
 30
0.0
 40
2.999997
 50
96.369371000003881
 51
170.00017399999939
  0
ARC
  5
1AA3E
  8
AM_0
 10
981.75922313686101
 20
655.52001198538665
 30
0.0
 40
2.0
 50
276.36937100000392
 51
0.000000000000007
  0
LINE
  5
1AA3F
  8
AM_0
 10
916.25800213686114
 20
672.75757698538655
 30
0.0
 11
916.25800213686114
 21
689.40735198538653
 31
0.0
  0
LINE
  5
1AA40
  8
AM_0
 10
923.76401313686165
 20
672.75757698538655
 30
0.0
 11
916.25800213686114
 21
672.75757698538655
 31
0.0
  0
LINE
  5
1AA41
  8
AM_0
 10
923.76401313686165
 20
673.16890898538645
 30
0.0
 11
916.25800213686114
 21
673.16890898538645
 31
0.0
  0
LINE
  5
1AA42
  8
AM_0
 10
923.76401313686165
 20
683.68890898538655
 30
0.0
 11
916.25800213686114
 21
683.68890898538655
 31
0.0
  0
LINE
  5
1AA43
  8
AM_0
 10
923.76401313686165
 20
689.40735198538653
 30
0.0
 11
916.25800213686114
 21
689.40735198538653
 31
0.0
  0
LINE
  5
1AA44
  8
AM_0
 10
765.75800213686114
 20
667.78785898538649
 30
0.0
 11
765.6418421368611
 21
666.57987398538637
 31
0.0
  0
LINE
  5
1AA45
  8
AM_0
 10
764.25800213686125
 20
656.68885098538669
 30
0.0
 11
764.25800213686125
 21
672.51890898538647
 31
0.0
  0
LINE
  5
1AA46
  8
AM_0
 10
764.25800213686125
 20
722.67885098538625
 30
0.0
 11
764.25800213686125
 21
714.69890898538654
 31
0.0
  0
LINE
  5
1AA47
  8
AM_0
 10
916.25800213686114
 20
674.85890898538651
 30
0.0
 11
762.74836513686114
 21
674.85890898538651
 31
0.0
  0
LINE
  5
1AA48
  8
AM_0
 10
923.76401313686165
 20
672.51890898538647
 30
0.0
 11
762.76305713686111
 21
672.51890898538647
 31
0.0
  0
LINE
  5
1AA49
  8
AM_0
 10
916.25800213686114
 20
674.50890898538637
 30
0.0
 11
764.71827313686106
 21
674.50890898538637
 31
0.0
  0
LINE
  5
1AA4A
  8
AM_0
 10
916.25800213686114
 20
672.90890898538635
 30
0.0
 11
764.8651861368611
 21
672.90890898538635
 31
0.0
  0
LINE
  5
1AA4B
  8
AM_0
 10
764.55800213686132
 20
714.48890898538639
 30
0.0
 11
923.76401313686165
 21
714.48890898538639
 31
0.0
  0
LINE
  5
1AA4C
  8
AM_0
 10
764.55800213686132
 20
712.88890898538625
 30
0.0
 11
923.76401313686165
 21
712.88890898538625
 31
0.0
  0
LINE
  5
1AA4D
  8
AM_0
 10
763.26366413686117
 20
714.69890898538654
 30
0.0
 11
923.76401313686165
 21
714.69890898538654
 31
0.0
  0
LINE
  5
1AA4E
  8
AM_0
 10
763.36838013686145
 20
712.66890898538634
 30
0.0
 11
923.76401313686165
 21
712.66890898538634
 31
0.0
  0
LINE
  5
1AA4F
  8
AM_0
 10
763.11757813686154
 20
704.71890898538652
 30
0.0
 11
923.76401313686165
 21
704.71890898538652
 31
0.0
  0
LINE
  5
1AA50
  8
AM_0
 10
762.9202551368611
 20
694.7689089853867
 30
0.0
 11
923.76401313686165
 21
694.7689089853867
 31
0.0
  0
LINE
  5
1AA51
  8
AM_0
 10
762.94304613686154
 20
692.58890898538652
 30
0.0
 11
923.76401313686165
 21
692.58890898538652
 31
0.0
  0
LINE
  5
1AA52
  8
AM_0
 10
916.25800213686114
 20
682.49890898538649
 30
0.0
 11
762.74688013686114
 21
682.49890898538649
 31
0.0
  0
LINE
  5
1AA53
  8
AM_0
 10
916.25800213686114
 20
684.83890898538652
 30
0.0
 11
762.76859413686111
 21
684.83890898538652
 31
0.0
  0
LINE
  5
1AA54
  8
AM_0
 10
923.76401313686165
 20
702.63890898538625
 30
0.0
 11
763.17338013686117
 21
702.63890898538625
 31
0.0
  0
LINE
  5
1AA55
  8
AM_0
 10
923.76401313686165
 20
702.88890898538648
 30
0.0
 11
764.55800213686132
 21
702.88890898538648
 31
0.0
  0
LINE
  5
1AA56
  8
AM_0
 10
923.76401313686165
 20
704.4889089853865
 30
0.0
 11
764.55800213686132
 21
704.4889089853865
 31
0.0
  0
LINE
  5
1AA57
  8
AM_0
 10
923.76401313686165
 20
694.4889089853865
 30
0.0
 11
764.55800213686132
 21
694.4889089853865
 31
0.0
  0
LINE
  5
1AA58
  8
AM_0
 10
923.76401313686165
 20
692.88890898538682
 30
0.0
 11
764.55800213686132
 21
692.88890898538682
 31
0.0
  0
LINE
  5
1AA59
  8
AM_0
 10
916.25800213686114
 20
684.4889089853865
 30
0.0
 11
764.79757613686149
 21
684.4889089853865
 31
0.0
  0
LINE
  5
1AA5A
  8
AM_0
 10
916.25800213686114
 20
682.88890898538648
 30
0.0
 11
764.7983791368614
 21
682.88890898538648
 31
0.0
  0
INSERT
  5
1AA5C
  8
AM_0
  2
$6-44
 10
764.25800213686125
 20
662.07987398538694
 30
0.0
 42
-1.0
 50
90.0
  0
INSERT
  5
1AA5D
  8
AM_0
  2
$6-44
 10
764.25800413686125
 20
775.29782698538645
 30
0.0
 41
-1.0
 50
270.0
  0
ARC
  5
1AA65
  8
AM_0
 10
916.23906713686165
 20
265.60184243779838
 30
0.0
 40
2.0
 50
90.0
 51
119.6883030000036
  0
LINE
  5
1AA66
  8
AM_0
 10
923.7579421368614
 20
267.60184243779838
 30
0.0
 11
916.23906713686165
 21
267.60184243779838
 31
0.0
  0
ARC
  5
1AA67
  8
AM_0
 10
918.18331513686155
 20
268.30771443779832
 30
0.0
 40
2.0
 50
90.0
 51
168.9150299999998
  0
LINE
  5
1AA68
  8
AM_0
 10
923.7579421368614
 20
270.30771443779832
 30
0.0
 11
918.18331513686155
 21
270.30771443779832
 31
0.0
  0
ARC
  5
1AA69
  8
AM_0
 10
914.25794213686163
 20
269.0767724377983
 30
0.0
 40
2.0
 50
270.0
 51
0.000000000000007
  0
ARC
  5
1AA6A
  8
AM_0
 10
914.25794213686163
 20
277.57677643779829
 30
0.0
 40
2.0
 50
270.0
 51
0.000000000000007
  0
LINE
  5
1AA6B
  8
AM_0
 10
916.25794213686152
 20
291.27725943779831
 30
0.0
 11
916.25794213686152
 21
269.0767724377983
 31
0.0
  0
LINE
  5
1AA6C
  8
AM_0
 10
923.7579421368614
 20
289.88947543779841
 30
0.0
 11
916.25794213686152
 21
289.88947543779841
 31
0.0
  0
LINE
  5
1AA6D
  8
AM_0
 10
923.7579421368614
 20
278.31278043779832
 30
0.0
 11
916.25794213686152
 21
278.31278043779832
 31
0.0
  0
LINE
  5
1AA6E
  8
AM_0
 10
923.7579421368614
 20
272.25261743779828
 30
0.0
 11
916.25794213686152
 21
272.25261743779828
 31
0.0
  0
ARC
  5
1AA6F
  8
AM_0
 10
766.25794413686162
 20
277.57676843779831
 30
0.0
 40
2.0
 50
180.00000200000039
 51
270.00000200000278
  0
LINE
  5
1AA70
  8
AM_0
 10
914.25794213686163
 20
293.27725943779842
 30
0.0
 11
766.25794513686162
 21
293.27725943779842
 31
0.0
  0
LINE
  5
1AA71
  8
AM_0
 10
914.25794213686163
 20
275.57677643779829
 30
0.0
 11
766.25224113686124
 21
275.57677643779829
 31
0.0
  0
LINE
  5
1AA72
  8
AM_0
 10
764.25794213686152
 20
270.5767724377983
 30
0.0
 11
754.25794513686162
 21
270.5767724377983
 31
0.0
  0
LINE
  5
1AA73
  8
AM_0
 10
763.25794213686152
 20
281.03796443779839
 30
0.0
 11
754.25794413686162
 21
281.03796443779839
 31
0.0
  0
INSERT
  5
1AA74
  8
AM_0
  2
$6-44
 10
764.25794413686162
 20
287.46779643779831
 30
0.0
 42
-1.0
 50
90.0
  0
LINE
  5
1AA75
  8
AM_0
 10
916.25794213686152
 20
419.02956043779818
 30
0.0
 11
916.25794213686152
 21
415.99075643779832
 31
0.0
  0
ARC
  5
1AA76
  8
AM_0
 10
914.25794213686163
 20
410.57677643779829
 30
0.0
 40
2.0
 50
0.000000000000007
 51
90.0
  0
LINE
  5
1AA77
  8
AM_0
 10
923.7579421368614
 20
398.35137343779832
 30
0.0
 11
916.25794213686152
 21
398.35137343779832
 31
0.0
  0
LINE
  5
1AA78
  8
AM_0
 10
923.7579421368614
 20
409.9173924377983
 30
0.0
 11
916.25794213686152
 21
409.9173924377983
 31
0.0
  0
LINE
  5
1AA79
  8
AM_0
 10
923.7579421368614
 20
415.99075643779832
 30
0.0
 11
916.25794213686152
 21
415.99075643779832
 31
0.0
  0
LINE
  5
1AA7A
  8
AM_0
 10
916.25794213686152
 20
420.55501843779808
 30
0.0
 11
916.25794213686152
 21
419.95174243779798
 31
0.0
  0
ARC
  5
1AA7B
  8
AM_0
 10
914.25794213686163
 20
419.02956043779818
 30
0.0
 40
2.0
 50
0.000000000000007
 51
90.0
  0
LINE
  5
1AA7C
  8
AM_0
 10
923.7579421368614
 20
421.9699174377983
 30
0.0
 11
917.77727113686115
 21
421.9699174377983
 31
0.0
  0
LINE
  5
1AA7D
  8
AM_0
 10
923.7579421368614
 20
420.65540543779798
 30
0.0
 11
918.10663113686098
 21
420.65540543779798
 31
0.0
  0
ARC
  5
1AA7E
  8
AM_0
 10
918.10663113686098
 20
422.65540543779832
 30
0.0
 40
2.0
 50
195.8096259999997
 51
270.0
  0
ARC
  5
1AA7F
  8
AM_0
 10
914.25794213686163
 20
421.56563843779833
 30
0.0
 40
2.0
 50
15.80962599999971
 51
90.0
  0
ARC
  5
1AA80
  8
AM_0
 10
917.77727113686115
 20
423.9699174377983
 30
0.0
 40
2.0
 50
208.37785700000259
 51
270.0
  0
ARC
  5
1AA81
  8
AM_0
 10
914.25794213686163
 20
422.06878043779801
 30
0.0
 40
2.0
 50
28.377856000002179
 51
90.0
  0
ARC
  5
1AA82
  8
AM_0
 10
766.25794213686152
 20
410.57677643779829
 30
0.0
 40
2.0
 50
90.0
 51
180.0
  0
ARC
  5
1AA83
  8
AM_0
 10
767.38543413686114
 20
419.02956043779818
 30
0.0
 40
2.0
 50
90.0
 51
165.0000000000008
  0
LINE
  5
1AA84
  8
AM_0
 10
762.25794213686152
 20
407.620906437798
 30
0.0
 11
765.45358213686154
 21
419.54719843779827
 31
0.0
  0
ARC
  5
1AA85
  8
AM_0
 10
766.42091813686113
 20
420.55501843779808
 30
0.0
 40
2.0
 50
90.0
 51
165.0000000000008
  0
LINE
  5
1AA86
  8
AM_0
 10
762.25794213686152
 20
412.7459894377983
 30
0.0
 11
764.48906613686154
 21
421.072657437798
 31
0.0
  0
ARC
  5
1AA87
  8
AM_0
 10
765.87322413686161
 20
421.56563843779833
 30
0.0
 40
2.0
 50
90.0
 51
165.0000000000008
  0
LINE
  5
1AA88
  8
AM_0
 10
762.25794213686152
 20
415.80062643779809
 30
0.0
 11
763.94137313686144
 21
422.08327643779808
 31
0.0
  0
ARC
  5
1AA89
  8
AM_0
 10
765.59219013686152
 20
422.06878043779801
 30
0.0
 40
2.0
 50
90.0
 51
165.0000000000008
  0
LINE
  5
1AA8A
  8
AM_0
 10
762.25794213686152
 20
417.35260443779828
 30
0.0
 11
763.66033813686124
 21
422.5864194377981
 31
0.0
  0
ARC
  5
1AA8B
  8
AM_0
 10
918.25794213686152
 20
419.95174243779798
 30
0.0
 40
2.0
 50
180.0
 51
270.0
  0
ARC
  5
1AA8C
  8
AM_0
 10
914.25794213686163
 20
420.55501843779808
 30
0.0
 40
2.0
 50
0.000000000000007
 51
90.0
  0
LINE
  5
1AA8D
  8
AM_0
 10
923.7579421368614
 20
417.95174243779809
 30
0.0
 11
918.25794213686152
 21
417.95174243779809
 31
0.0
  0
LINE
  5
1AA8E
  8
AM_0
 10
916.25794213686152
 20
415.99075643779832
 30
0.0
 11
916.25794213686152
 21
396.94811243779827
 31
0.0
  0
INSERT
  5
1AA8F
  8
AM_0
  2
$6-44
 10
764.25794213686152
 20
400.68574943779828
 30
0.0
 41
-1.0
 50
270.0
  0
LINE
  5
1AA90
  8
AM_0
 10
763.25794213686152
 20
407.11558043779809
 30
0.0
 11
754.25794213686152
 21
407.11558043779809
 31
0.0
  0
LINE
  5
1AA91
  8
AM_0
 10
914.25794213686163
 20
394.94811243779827
 30
0.0
 11
766.25794213686152
 21
394.94811243779827
 31
0.0
  0
LINE
  5
1AA92
  8
AM_0
 10
914.25794213686163
 20
424.0687804377983
 30
0.0
 11
765.59219013686152
 21
424.0687804377983
 31
0.0
  0
LINE
  5
1AA93
  8
AM_0
 10
914.25794213686163
 20
412.57677643779812
 30
0.0
 11
766.25794213686152
 21
412.57677643779812
 31
0.0
  0
LINE
  5
1AA94
  8
AM_0
 10
914.25794213686163
 20
421.02956043779801
 30
0.0
 11
767.38543413686114
 21
421.02956043779801
 31
0.0
  0
LINE
  5
1AA95
  8
AM_0
 10
914.25794213686163
 20
422.55501843779831
 30
0.0
 11
766.42091813686113
 21
422.55501843779831
 31
0.0
  0
LINE
  5
1AA96
  8
AM_0
 10
914.25794213686163
 20
423.56563843779833
 30
0.0
 11
765.87322413686161
 21
423.56563843779833
 31
0.0
  0
LINE
  5
1AA97
  8
AM_0
 10
844.2579421368614
 20
265.0767724377983
 30
0.0
 11
844.2579421368614
 21
262.0767724377983
 31
0.0
  0
LINE
  5
1AA98
  8
AM_0
 10
777.25794213686152
 20
265.0767724377983
 30
0.0
 11
777.25794213686152
 21
262.0767724377983
 31
0.0
  0
LINE
  5
1AA99
  8
AM_0
 10
979.75794213686152
 20
283.28380243779822
 30
0.0
 11
979.75794213686152
 21
406.19173243779829
 31
0.0
  0
LINE
  5
1AA9A
  8
AM_0
 10
983.75757213686154
 20
281.47679243779822
 30
0.0
 11
983.75757213686154
 21
406.6767124377983
 31
0.0
  0
LINE
  5
1AA9B
  8
AM_0
 10
979.35798213686155
 20
411.34377243779801
 30
0.0
 11
978.23499213686159
 21
417.71474243779829
 31
0.0
  0
LINE
  5
1AA9C
  8
AM_0
 10
972.87287213686113
 20
422.45870243779808
 30
0.0
 11
947.230902136861
 21
423.8026924377981
 31
0.0
  0
LINE
  5
1AA9D
  8
AM_0
 10
946.75794213686152
 20
265.02147243779831
 30
0.0
 11
946.75794213686152
 21
422.9633424377983
 31
0.0
  0
LINE
  5
1AA9E
  8
AM_0
 10
975.89600213686174
 20
416.1037224377983
 30
0.0
 11
975.89600213686174
 21
272.55675243779831
 31
0.0
  0
LINE
  5
1AA9F
  8
AM_0
 10
979.35798213686155
 20
276.8097724377983
 30
0.0
 11
978.23499213686159
 21
270.43971243779828
 31
0.0
  0
LINE
  5
1AAA0
  8
AM_0
 10
972.87293213686155
 20
265.69576243779829
 30
0.0
 11
947.230902136861
 21
264.3517624377983
 31
0.0
  0
LINE
  5
1AAA1
  8
AM_0
 10
945.66492213686115
 20
424.82674243779798
 30
0.0
 11
923.7579421368614
 21
424.82674243779798
 31
0.0
  0
LINE
  5
1AAA2
  8
AM_0
 10
945.66492213686115
 20
263.3267724377983
 30
0.0
 11
923.7579421368614
 21
263.3267724377983
 31
0.0
  0
LINE
  5
1AAA3
  8
AM_0
 10
777.25794213686152
 20
267.0767724377983
 30
0.0
 11
777.25794213686152
 21
265.0767724377983
 31
0.0
  0
LINE
  5
1AAA4
  8
AM_0
 10
844.2579421368614
 20
267.0767724377983
 30
0.0
 11
844.2579421368614
 21
265.0767724377983
 31
0.0
  0
LINE
  5
1AAA5
  8
AM_0
 10
844.2579421368614
 20
265.0767724377983
 30
0.0
 11
777.25794213686152
 21
265.0767724377983
 31
0.0
  0
LINE
  5
1AAA6
  8
AM_0
 10
914.25794213686163
 20
267.0767724377983
 30
0.0
 11
767.47742213686161
 21
267.0767724377983
 31
0.0
  0
LINE
  5
1AAA7
  8
AM_0
 10
800.7579421368614
 20
370.0767724377983
 30
0.0
 11
923.7579421368614
 21
370.0767724377983
 31
0.0
  0
LINE
  5
1AAA8
  8
AM_0
 10
800.7579421368614
 20
318.0767724377983
 30
0.0
 11
923.7579421368614
 21
318.0767724377983
 31
0.0
  0
LINE
  5
1AAA9
  8
AM_0
 10
784.75794213686152
 20
371.0767724377983
 30
0.0
 11
784.75794213686152
 21
377.0767724377983
 31
0.0
  0
LINE
  5
1AAAA
  8
AM_0
 10
799.75794213686152
 20
371.0767724377983
 30
0.0
 11
799.75794213686152
 21
377.0767724377983
 31
0.0
  0
LINE
  5
1AAAB
  8
AM_0
 10
784.75794213686152
 20
317.0767724377983
 30
0.0
 11
784.75794213686152
 21
311.0767724377983
 31
0.0
  0
LINE
  5
1AAAC
  8
AM_0
 10
799.75794213686152
 20
317.0767724377983
 30
0.0
 11
799.75794213686152
 21
311.0767724377983
 31
0.0
  0
LINE
  5
1AAAD
  8
AM_0
 10
828.2579421368614
 20
364.5767724377983
 30
0.0
 11
828.2579421368614
 21
323.5767724377983
 31
0.0
  0
LINE
  5
1AAAE
  8
AM_0
 10
765.2579421368614
 20
364.5767724377983
 30
0.0
 11
765.2579421368614
 21
323.5767724377983
 31
0.0
  0
LINE
  5
1AAAF
  8
AM_0
 10
828.2579421368614
 20
364.5767724377983
 30
0.0
 11
765.2579421368614
 21
364.5767724377983
 31
0.0
  0
LINE
  5
1AAB0
  8
AM_0
 10
828.2579421368614
 20
323.5767724377983
 30
0.0
 11
765.2579421368614
 21
323.5767724377983
 31
0.0
  0
LINE
  5
1AAB1
  8
AM_0
 10
828.2579421368614
 20
357.0767724377983
 30
0.0
 11
765.2579421368614
 21
357.0767724377983
 31
0.0
  0
LINE
  5
1AAB2
  8
AM_0
 10
916.25794213686152
 20
347.0767724377983
 30
0.0
 11
916.25794213686152
 21
341.0767724377983
 31
0.0
  0
LINE
  5
1AAB3
  8
AM_0
 10
765.54584213686155
 20
268.5580624377983
 30
0.0
 11
764.5579321368615
 21
272.2367424377984
 31
0.0
  0
LINE
  5
1AAB4
  8
AM_0
 10
766.13392213686154
 20
268.5580624377983
 30
0.0
 11
764.5579321368615
 21
274.42678243779829
 31
0.0
  0
LINE
  5
1AAB5
  8
AM_0
 10
764.25794213686152
 20
307.11855243779831
 30
0.0
 11
764.25794213686152
 21
270.5767724377983
 31
0.0
  0
LINE
  5
1AAB6
  8
AM_0
 10
765.2579421368614
 20
320.0767724377983
 30
0.0
 11
923.7579421368614
 21
320.0767724377983
 31
0.0
  0
LINE
  5
1AAB7
  8
AM_0
 10
765.2579421368614
 20
318.0767724377983
 30
0.0
 11
783.75794213686152
 21
318.0767724377983
 31
0.0
  0
LINE
  5
1AAB8
  8
AM_0
 10
832.25794213686152
 20
328.0767724377983
 30
0.0
 11
923.7579421368614
 21
328.0767724377983
 31
0.0
  0
LINE
  5
1AAB9
  8
AM_0
 10
832.25794213686152
 20
330.0767724377983
 30
0.0
 11
923.7579421368614
 21
330.0767724377983
 31
0.0
  0
LINE
  5
1AABA
  8
AM_0
 10
832.25794213686152
 20
338.0767724377983
 30
0.0
 11
923.7579421368614
 21
338.0767724377983
 31
0.0
  0
LINE
  5
1AABB
  8
AM_0
 10
832.25794213686152
 20
340.0767724377983
 30
0.0
 11
915.25794213686152
 21
340.0767724377983
 31
0.0
  0
LINE
  5
1AABC
  8
AM_0
 10
765.2579421368614
 20
298.0767724377983
 30
0.0
 11
923.7579421368614
 21
298.0767724377983
 31
0.0
  0
LINE
  5
1AABD
  8
AM_0
 10
765.2579421368614
 20
310.0767724377983
 30
0.0
 11
923.7579421368614
 21
310.0767724377983
 31
0.0
  0
LINE
  5
1AABE
  8
AM_0
 10
765.2579421368614
 20
308.0767724377983
 30
0.0
 11
923.7579421368614
 21
308.0767724377983
 31
0.0
  0
LINE
  5
1AABF
  8
AM_0
 10
765.2579421368614
 20
300.0767724377983
 30
0.0
 11
923.7579421368614
 21
300.0767724377983
 31
0.0
  0
LINE
  5
1AAC0
  8
AM_0
 10
765.2579421368614
 20
388.0767724377983
 30
0.0
 11
923.7579421368614
 21
388.0767724377983
 31
0.0
  0
LINE
  5
1AAC1
  8
AM_0
 10
765.2579421368614
 20
380.0767724377983
 30
0.0
 11
923.7579421368614
 21
380.0767724377983
 31
0.0
  0
LINE
  5
1AAC2
  8
AM_0
 10
765.2579421368614
 20
378.0767724377983
 30
0.0
 11
923.7579421368614
 21
378.0767724377983
 31
0.0
  0
LINE
  5
1AAC3
  8
AM_0
 10
765.2579421368614
 20
390.0767724377983
 30
0.0
 11
923.7579421368614
 21
390.0767724377983
 31
0.0
  0
LINE
  5
1AAC4
  8
AM_0
 10
832.25794213686152
 20
348.0767724377983
 30
0.0
 11
915.25794213686152
 21
348.0767724377983
 31
0.0
  0
LINE
  5
1AAC5
  8
AM_0
 10
832.25794213686152
 20
350.0767724377983
 30
0.0
 11
923.7579421368614
 21
350.0767724377983
 31
0.0
  0
LINE
  5
1AAC6
  8
AM_0
 10
832.25794213686152
 20
358.0767724377983
 30
0.0
 11
923.7579421368614
 21
358.0767724377983
 31
0.0
  0
LINE
  5
1AAC7
  8
AM_0
 10
832.25794213686152
 20
360.0767724377983
 30
0.0
 11
923.7579421368614
 21
360.0767724377983
 31
0.0
  0
LINE
  5
1AAC8
  8
AM_0
 10
765.2579421368614
 20
370.0767724377983
 30
0.0
 11
783.75794213686152
 21
370.0767724377983
 31
0.0
  0
LINE
  5
1AAC9
  8
AM_0
 10
765.2579421368614
 20
368.0767724377983
 30
0.0
 11
923.7579421368614
 21
368.0767724377983
 31
0.0
  0
LINE
  5
1AACA
  8
AM_0
 10
764.25794213686152
 20
381.03499243779839
 30
0.0
 11
764.25794213686152
 21
410.57677643779829
 31
0.0
  0
LINE
  5
1AACB
  8
AM_0
 10
923.7579421368614
 20
424.82674243779798
 30
0.0
 11
923.7579421368614
 21
263.3267724377983
 31
0.0
  0
ARC
  5
1AACC
  8
AM_0
 10
947.25794213686163
 20
424.3017124377983
 30
0.0
 40
0.5
 50
204.45605000000089
 51
267.00003000000902
  0
ARC
  5
1AACD
  8
AM_0
 10
972.57203213686171
 20
416.71675243779828
 30
0.0
 40
5.75
 50
10.000020000000911
 51
87.000013999997904
  0
ARC
  5
1AACE
  8
AM_0
 10
945.66492213686115
 20
423.57674243779798
 30
0.0
 40
1.25
 50
24.4560199999977
 51
90.000011000008953
  0
ARC
  5
1AACF
  8
AM_0
 10
981.50757213686143
 20
406.6767124377983
 30
0.0
 40
2.25
 50
0.0000200000003914
 51
81.183412000002988
  0
ARC
  5
1AAD0
  8
AM_0
 10
982.31226213686114
 20
411.8648224377983
 30
0.0
 40
3.0
 50
190.00004999999891
 51
261.18303000000259
  0
ARC
  5
1AAD1
  8
AM_0
 10
981.50757213686143
 20
281.47679243779822
 30
0.0
 40
2.25
 50
278.81706000000162
 51
0.0000200000003914
  0
ARC
  5
1AAD2
  8
AM_0
 10
982.31226213686114
 20
276.2888124377983
 30
0.0
 40
3.0
 50
98.816809000005875
 51
170.0001680000004
  0
ARC
  5
1AAD3
  8
AM_0
 10
947.25794213686163
 20
263.85277243779831
 30
0.0
 40
0.5
 50
93.000015000006698
 51
155.5436010000015
  0
ARC
  5
1AAD4
  8
AM_0
 10
972.57203213686171
 20
271.43773243779827
 30
0.0
 40
5.75
 50
273.00004999999697
 51
350.00001999999978
  0
ARC
  5
1AAD5
  8
AM_0
 10
945.66492213686115
 20
264.5767724377983
 30
0.0
 40
1.25
 50
270.00004000000399
 51
335.54403000000212
  0
ARC
  5
1AAD6
  8
AM_0
 10
767.47742213686161
 20
269.0767724377983
 30
0.0
 40
2.0
 50
195.03169000000159
 51
270.000010000001
  0
ARC
  5
1AAD7
  8
AM_0
 10
768.06550213686148
 20
269.0767724377983
 30
0.0
 40
2.0
 50
195.03169000000159
 51
270.000010000001
  0
ARC
  5
1AAD8
  8
AM_0
 10
783.75794213686152
 20
311.0767724377983
 30
0.0
 40
1.0
 50
270.0
 51
0.0000100000001992
  0
ARC
  5
1AAD9
  8
AM_0
 10
800.7579421368614
 20
311.0767724377983
 30
0.0
 40
1.0
 50
179.9999990000002
 51
270.000010000001
  0
ARC
  5
1AADA
  8
AM_0
 10
800.7579421368614
 20
377.0767724377983
 30
0.0
 40
1.0
 50
89.999997000002296
 51
180.0
  0
ARC
  5
1AADB
  8
AM_0
 10
783.75794213686152
 20
377.0767724377983
 30
0.0
 40
1.0
 50
359.9999899999998
 51
89.999997000002296
  0
ARC
  5
1AADC
  8
AM_0
 10
783.75794213686152
 20
317.0767724377983
 30
0.0
 40
1.0
 50
359.9999899999998
 51
89.999997000002296
  0
ARC
  5
1AADD
  8
AM_0
 10
800.7579421368614
 20
317.0767724377983
 30
0.0
 40
1.0
 50
89.999997000002296
 51
180.0
  0
ARC
  5
1AADE
  8
AM_0
 10
783.75794213686152
 20
371.0767724377983
 30
0.0
 40
1.0
 50
270.0
 51
0.0000100000001992
  0
ARC
  5
1AADF
  8
AM_0
 10
800.7579421368614
 20
371.0767724377983
 30
0.0
 40
1.0
 50
179.9999990000002
 51
270.000010000001
  0
CIRCLE
  5
1AAE0
  8
AM_0
 10
789.75794213686152
 20
372.5767724377983
 30
0.0
 40
1.0
  0
CIRCLE
  5
1AAE1
  8
AM_0
 10
794.75794213686152
 20
372.5767724377983
 30
0.0
 40
1.149999999999999
  0
CIRCLE
  5
1AAE2
  8
AM_0
 10
794.75794213686152
 20
372.5767724377983
 30
0.0
 40
1.1000000000000001
  0
CIRCLE
  5
1AAE3
  8
AM_0
 10
794.75794213686152
 20
315.5767724377983
 30
0.0
 40
1.1000000000000001
  0
CIRCLE
  5
1AAE4
  8
AM_0
 10
794.75794213686152
 20
315.5767724377983
 30
0.0
 40
1.149999999999999
  0
CIRCLE
  5
1AAE5
  8
AM_0
 10
789.75794213686152
 20
315.5767724377983
 30
0.0
 40
1.0
  0
ARC
  5
1AAE6
  8
AM_0
 10
832.25794213686152
 20
359.0767724377983
 30
0.0
 40
1.0
 50
89.999997000002296
 51
270.000010000001
  0
ARC
  5
1AAE7
  8
AM_0
 10
832.25794213686152
 20
349.0767724377983
 30
0.0
 40
1.0
 50
89.999997000002296
 51
270.000010000001
  0
ARC
  5
1AAE8
  8
AM_0
 10
832.25794213686152
 20
339.0767724377983
 30
0.0
 40
1.0
 50
89.999997000002296
 51
270.000010000001
  0
ARC
  5
1AAE9
  8
AM_0
 10
832.25794213686152
 20
329.0767724377983
 30
0.0
 40
1.0
 50
89.999997000002296
 51
270.000010000001
  0
ARC
  5
1AAEA
  8
AM_0
 10
767.20795213686131
 20
309.0767724377983
 30
0.0
 40
1.0
 50
89.999997000002296
 51
270.000010000001
  0
ARC
  5
1AAEB
  8
AM_0
 10
765.2579421368614
 20
309.0767724377983
 30
0.0
 40
1.0
 50
89.999997000002296
 51
270.000010000001
  0
ARC
  5
1AAEC
  8
AM_0
 10
767.20795213686131
 20
319.0767724377983
 30
0.0
 40
1.0
 50
89.999997000002296
 51
270.000010000001
  0
ARC
  5
1AAED
  8
AM_0
 10
765.2579421368614
 20
319.0767724377983
 30
0.0
 40
1.0
 50
89.999997000002296
 51
270.000010000001
  0
ARC
  5
1AAEE
  8
AM_0
 10
767.20795213686131
 20
369.0767724377983
 30
0.0
 40
1.0
 50
89.999997000002296
 51
270.000010000001
  0
ARC
  5
1AAEF
  8
AM_0
 10
765.2579421368614
 20
369.0767724377983
 30
0.0
 40
1.0
 50
89.999997000002296
 51
270.000010000001
  0
ARC
  5
1AAF0
  8
AM_0
 10
767.20795213686131
 20
379.0767724377983
 30
0.0
 40
1.0
 50
89.999997000002296
 51
270.000010000001
  0
ARC
  5
1AAF1
  8
AM_0
 10
765.2579421368614
 20
379.0767724377983
 30
0.0
 40
1.0
 50
89.999997000002296
 51
270.000010000001
  0
ARC
  5
1AAF2
  8
AM_0
 10
915.25794213686152
 20
347.0767724377983
 30
0.0
 40
1.0
 50
359.9999899999998
 51
89.999997000002296
  0
ARC
  5
1AAF3
  8
AM_0
 10
915.25794213686152
 20
341.0767724377983
 30
0.0
 40
1.0
 50
270.0
 51
0.0000100000001992
  0
ARC
  5
1AAF4
  8
AM_0
 10
915.25797213686099
 20
329.0767724377983
 30
0.0
 40
1.0
 50
270.0
 51
89.999997000002296
  0
ARC
  5
1AAF5
  8
AM_0
 10
915.25797213686099
 20
319.0767724377983
 30
0.0
 40
1.0
 50
270.0
 51
89.999997000002296
  0
ARC
  5
1AAF6
  8
AM_0
 10
767.20795213686131
 20
299.0767724377983
 30
0.0
 40
1.0
 50
89.999997000002296
 51
270.000010000001
  0
ARC
  5
1AAF7
  8
AM_0
 10
765.2579421368614
 20
299.0767724377983
 30
0.0
 40
1.0
 50
89.999997000002296
 51
270.000010000001
  0
ARC
  5
1AAF8
  8
AM_0
 10
915.25797213686099
 20
299.0767724377983
 30
0.0
 40
1.0
 50
270.0
 51
89.999997000002296
  0
ARC
  5
1AAF9
  8
AM_0
 10
915.25797213686099
 20
309.0767724377983
 30
0.0
 40
1.0
 50
270.0
 51
89.999997000002296
  0
ARC
  5
1AAFA
  8
AM_0
 10
763.11188213686114
 20
271.85637243779831
 30
0.0
 40
1.4952499999999991
 50
14.73739999999866
 51
39.962349999998239
  0
ARC
  5
1AAFB
  8
AM_0
 10
763.1169521368613
 20
274.03227243779838
 30
0.0
 40
1.494020999999998
 50
15.309660000000539
 51
40.207419999998088
  0
ARC
  5
1AAFD
  8
AM_0
 10
915.25797213686099
 20
379.0767724377983
 30
0.0
 40
1.0
 50
270.0
 51
89.999997000002296
  0
ARC
  5
1AAFE
  8
AM_0
 10
915.25797213686099
 20
389.0767724377983
 30
0.0
 40
1.0
 50
270.0
 51
89.999997000002296
  0
ARC
  5
1AAFF
  8
AM_0
 10
765.2579421368614
 20
389.0767724377983
 30
0.0
 40
1.0
 50
89.999997000002296
 51
270.000010000001
  0
ARC
  5
1AB00
  8
AM_0
 10
767.20795213686131
 20
389.0767724377983
 30
0.0
 40
1.0
 50
89.999997000002296
 51
270.000010000001
  0
ARC
  5
1AB01
  8
AM_0
 10
915.25797213686099
 20
369.0767724377983
 30
0.0
 40
1.0
 50
270.0
 51
89.999997000002296
  0
ARC
  5
1AB02
  8
AM_0
 10
915.25797213686099
 20
359.0767724377983
 30
0.0
 40
1.0
 50
270.0
 51
89.999997000002296
  0
LINE
  5
1AB03
  8
AM_0
 10
756.55794213755155
 20
417.576777437798
 30
0.0
 11
762.31800913686152
 21
417.576777437798
 31
0.0
  0
LINE
  5
1AB04
  8
AM_0
 10
763.25794213686152
 20
307.11855243779831
 30
0.0
 11
754.25794213686152
 21
307.11855243779831
 31
0.0
  0
LINE
  5
1AB05
  8
AM_0
 10
763.25794213686152
 20
381.03499243779839
 30
0.0
 11
754.25794213686152
 21
381.03499243779839
 31
0.0
  0
TEXT
  5
1AD59
  8
AM_0
 10
99.465704722420483
 20
744.52357418526242
 30
0.0
 40
10.0
  1
VC08-080EFMH~VC08-160EFMH
1001
ACAD
1000
MTEXTBEGIN
1070
    73
1070
     1
1070
    44
1040
1.0
1070
    74
1070
     0
1000
MTEXTEND
  0
ARC
  5
1B18B
  8
AM_0
 10
578.2579742109657
 20
331.07652922917953
 30
0.0
 40
22.5
 50
108.1262045251603
 51
71.873795474839369
  0
VIEWPORT
  5
89
 67
     1
  8
0
 10
210.0
 20
148.5
 30
0.0
 40
420.0
 41
297.0
 68
     1
 69
     1
1001
ACAD
1000
MVIEW
1002
{
1070
    16
1010
0.0
1020
0.0
1030
0.0
1010
0.0
1020
0.0
1030
1.0
1040
0.0
1040
297.0
1040
221.70154043645701
1040
148.5
1040
50.0
1040
0.0
1040
0.0
1070
     0
1070
   100
1070
     1
1070
     1
1070
     0
1070
     0
1070
     0
1070
     0
1040
0.0
1040
0.0
1040
0.0
1040
10.0
1040
10.0
1040
10.0
1040
10.0
1070
     0
1002
{
1002
}
1002
}
1001
GENIUS_GENOREF_13
1005
1B94
1001
GENIUS_GENSCREG_15
1000
PF
1040
1.0
1000
DF
1040
1.0
1000
MIN
1011
0.0
1021
0.0
1031
0.0
1021
0.0
1031
0.0
1000
MAX
1011
420.0
1021
0.0
1031
0.0
1021
297.0
1031
0.0
1000
FLAGS
1070
     4
  0
ENDSEC
  0
EOF
