  0
SECTION
  2
HEADER
  9
$ACADVER
  1
AC1009
  9
$INSBASE
 10
0.0
 20
0.0
 30
0.0
  9
$EXTMIN
 10
123.5006811470964
 20
149.34793140551531
 30
-0.0015258207003583
  9
$EXTMAX
 10
834.77238660896228
 20
628.11811871948885
 30
0.0000000349246037
  9
$LIMMIN
 10
0.0
 20
0.0
  9
$LIMMAX
 10
853.5
 20
555.00000000000011
  9
$ORTHOMODE
 70
     0
  9
$REGENMODE
 70
     1
  9
$FILLMODE
 70
     1
  9
$QTEXTMODE
 70
     0
  9
$MIRRTEXT
 70
     1
  9
$DRAGMODE
 70
     2
  9
$LTSCALE
 40
3.0
  9
$OSMODE
 70
   551
  9
$ATTMODE
 70
     1
  9
$TEXTSIZE
 40
2.5
  9
$TRACEWID
 40
1.0
  9
$TEXTSTYLE
  7
STANDARD
  9
$CLAYER
  8
AM_0
  9
$CELTYPE
  6
BYLAYER
  9
$CECOLOR
 62
   256
  9
$DIMSCALE
 40
3.0
  9
$DIMASZ
 40
2.5
  9
$DIMEXO
 40
1.0
  9
$DIMDLI
 40
7.0
  9
$DIMRND
 40
0.0
  9
$DIMDLE
 40
0.0
  9
$DIMEXE
 40
1.0
  9
$DIMTP
 40
0.1
  9
$DIMTM
 40
0.1000000001
  9
$DIMTXT
 40
2.5
  9
$DIMCEN
 40
0.0
  9
$DIMTSZ
 40
0.0
  9
$DIMTOL
 70
     0
  9
$DIMLIM
 70
     0
  9
$DIMTIH
 70
     0
  9
$DIMTOH
 70
     0
  9
$DIMSE1
 70
     0
  9
$DIMSE2
 70
     0
  9
$DIMTAD
 70
     3
  9
$DIMZIN
 70
     8
  9
$DIMBLK
  1

  9
$DIMASO
 70
     1
  9
$DIMSHO
 70
     1
  9
$DIMPOST
  1

  9
$DIMAPOST
  1
"
  9
$DIMALT
 70
     0
  9
$DIMALTD
 70
     2
  9
$DIMALTF
 40
0.0393701
  9
$DIMLFAC
 40
1.0
  9
$DIMTOFL
 70
     1
  9
$DIMTVP
 40
0.0
  9
$DIMTIX
 70
     0
  9
$DIMSOXD
 70
     0
  9
$DIMSAH
 70
     0
  9
$DIMBLK1
  1

  9
$DIMBLK2
  1

  9
$DIMSTYLE
  2
AM_JIS
  9
$DIMCLRD
 70
   256
  9
$DIMCLRE
 70
   256
  9
$DIMCLRT
 70
     4
  9
$DIMTFAC
 40
0.71
  9
$DIMGAP
 40
1.0
  9
$LUNITS
 70
     2
  9
$LUPREC
 70
     2
  9
$SKETCHINC
 40
1.0
  9
$FILLETRAD
 40
5.0
  9
$AUNITS
 70
     0
  9
$AUPREC
 70
     3
  9
$MENU
  1
.
  9
$ELEVATION
 40
0.0
  9
$PELEVATION
 40
0.0
  9
$THICKNESS
 40
0.0
  9
$LIMCHECK
 70
     0
  9
$BLIPMODE
 70
     0
  9
$CHAMFERA
 40
7.5
  9
$CHAMFERB
 40
7.5
  9
$SKPOLY
 70
     0
  9
$TDCREATE
 40
2452753.643349607
  9
$TDUPDATE
 40
2458543.4372450351
  9
$TDINDWG
 40
0.4244808333
  9
$TDUSRTIMER
 40
0.4244806366
  9
$USRTIMER
 70
     1
  9
$ANGBASE
 50
0.0
  9
$ANGDIR
 70
     0
  9
$PDMODE
 70
     0
  9
$PDSIZE
 40
0.0
  9
$PLINEWID
 40
0.0
  9
$COORDS
 70
     1
  9
$SPLFRAME
 70
     0
  9
$SPLINETYPE
 70
     6
  9
$SPLINESEGS
 70
     8
  9
$ATTDIA
 70
     1
  9
$ATTREQ
 70
     1
  9
$HANDLING
 70
     1
  9
$HANDSEED
  5
183E6
  9
$SURFTAB1
 70
     6
  9
$SURFTAB2
 70
     6
  9
$SURFTYPE
 70
     6
  9
$SURFU
 70
     6
  9
$SURFV
 70
     6
  9
$UCSNAME
  2

  9
$UCSORG
 10
0.0
 20
0.0
 30
0.0
  9
$UCSXDIR
 10
1.0
 20
0.0
 30
0.0
  9
$UCSYDIR
 10
0.0
 20
1.0
 30
0.0
  9
$PUCSNAME
  2

  9
$PUCSORG
 10
0.0
 20
0.0
 30
0.0
  9
$PUCSXDIR
 10
1.0
 20
0.0
 30
0.0
  9
$PUCSYDIR
 10
0.0
 20
1.0
 30
0.0
  9
$USERI1
 70
     0
  9
$USERI2
 70
     0
  9
$USERI3
 70
     0
  9
$USERI4
 70
     0
  9
$USERI5
 70
     0
  9
$USERR1
 40
0.0
  9
$USERR2
 40
0.0
  9
$USERR3
 40
0.0
  9
$USERR4
 40
0.0
  9
$USERR5
 40
0.0
  9
$WORLDVIEW
 70
     1
  9
$SHADEDGE
 70
     3
  9
$SHADEDIF
 70
    70
  9
$TILEMODE
 70
     1
  9
$MAXACTVP
 70
    48
  9
$PLIMCHECK
 70
     0
  9
$PEXTMIN
 10
1.0000000000000000E+020
 20
1.0000000000000000E+020
 30
1.0000000000000000E+020
  9
$PEXTMAX
 10
-1.0000000000000000E+020
 20
-1.0000000000000000E+020
 30
-1.0000000000000000E+020
  9
$PLIMMIN
 10
0.0
 20
0.0
  9
$PLIMMAX
 10
420.0
 20
297.0
  9
$UNITMODE
 70
     0
  9
$VISRETAIN
 70
     1
  9
$PLINEGEN
 70
     0
  9
$PSLTSCALE
 70
     1
  0
ENDSEC
  0
SECTION
  2
TABLES
  0
TABLE
  2
VPORT
 70
     1
  0
VPORT
  2
*ACTIVE
 70
     0
 10
0.0
 20
0.0
 11
1.0
 21
1.0
 12
479.1365338780293
 22
388.73302506250212
 13
0.0
 23
0.0
 14
7.5
 24
7.5
 15
30.0
 25
30.0
 16
0.0
 26
0.0
 36
1.0
 17
0.0
 27
0.0
 37
0.0
 40
482.05693917196419
 41
1.7571592210767459
 42
50.0
 43
0.0
 44
0.0
 50
0.0
 51
0.0
 71
    16
 72
   100
 73
     1
 74
     1
 75
     0
 76
     0
 77
     0
 78
     0
  0
ENDTAB
  0
TABLE
  2
LTYPE
 70
    22
  0
LTYPE
  2
CONTINUOUS
 70
     0
  3
Solid line
 72
    65
 73
     0
 40
0.0
  0
LTYPE
  2
PHANTOM2
 70
     0
  3
Phantom (.5x) ___ _ _ ___ _ _ ___ _ _ ___ _ _
 72
    65
 73
     6
 40
31.75
 49
15.875
 49
-3.174999999999998
 49
3.174999999999998
 49
-3.174999999999998
 49
3.174999999999998
 49
-3.174999999999998
  0
LTYPE
  2
CENTER
 70
     0
  3
Center ____ _ ____ _ ____ _ ____ _ ____ _ ____
 72
    65
 73
     4
 40
50.799999999999997
 49
31.75
 49
-6.3499999999999979
 49
6.3499999999999979
 49
-6.3499999999999979
  0
LTYPE
  2
ACANSTGBM
 70
     0
  3
__ . . __ . .
 72
    65
 73
     6
 40
9.0
 49
4.0
 49
-1.0
 49
1.0
 49
-1.0
 49
1.0
 49
-1.0
  0
LTYPE
  2
ACANSTGLM
 70
     0
  3
_ _ _ _ _
 72
    65
 73
     2
 40
3.0
 49
2.0
 49
-1.0
  0
LTYPE
  2
GEN3B
 70
     0
  3
 - - - - -
 72
    65
 73
     2
 40
1.0
 49
0.5
 49
-0.5
  0
LTYPE
  2
GEN7A
 70
     0
  3
__ . __ . __
 72
    65
 73
     4
 40
7.375
 49
4.75
 49
-0.875
 49
0.875
 49
-0.875
  0
LTYPE
  2
AM_ISO02W050
 70
     0
  3
__ __ __ __ __ __ __ __ __ __ __ __ __ __ __
 72
    65
 73
     2
 40
7.5
 49
6.0
 49
-1.5
  0
LTYPE
  2
AM_ISO08W050
 70
     0
  3
____ . ____ . ____ . ____ . ____ . ____ . ____
 72
    65
 73
     4
 40
18.0
 49
12.0
 49
-1.5
 49
3.0
 49
-1.5
  0
LTYPE
  2
AM_ISO09W050
 70
     0
  3
_____ . . _____ . . _____ . . ____ .. ____
 72
    65
 73
     6
 40
22.5
 49
12.0
 49
-1.5
 49
3.0
 49
-1.5
 49
3.0
 49
-1.5
  0
LTYPE
  2
AMCONSTR
 70
     0
  3
_______________________
 72
    65
 73
     2
 40
9999.0
 49
9999.0
 49
0.0
  0
LTYPE
  2
AM_ISO02W050X2
 70
     0
  3
 _ _ _ _ _ _ _ _ _ _ _ _
 72
    65
 73
     2
 40
3.75
 49
3.0
 49
-0.75
  0
LTYPE
  2
AM_ISO08W050X2
 70
     0
  3
__ . __ . __ . __ . __ . __
 72
    65
 73
     4
 40
9.0
 49
6.0
 49
-0.75
 49
1.5
 49
-0.75
  0
LTYPE
  2
AMZIGZAG
 70
     0
  3
/\/-/\/-/\/-/\/-/\/-/\/
 72
    65
 73
     2
 40
11.0001
 49
0.0001
 49
-11.0
  0
LTYPE
  2
ACJISTGB
 70
     0
  3
__ . . __ . .
 72
    65
 73
     6
 40
9.0
 49
4.0
 49
-1.0
 49
1.0
 49
-1.0
 49
1.0
 49
-1.0
  0
LTYPE
  2
ACJISTGL
 70
     0
  3
_ _ _ _ _
 72
    65
 73
     2
 40
3.0
 49
2.0
 49
-1.0
  0
LTYPE
  2
ACISOWELD
 70
     0
  3
_ _ _ _ _
 72
    65
 73
     2
 40
2.0
 49
2.0
 49
-1.0
  0
LTYPE
  2
ACISOTGB
 70
     0
  3
__ . . __ . .
 72
    65
 73
     6
 40
9.0
 49
4.0
 49
-1.0
 49
1.0
 49
-1.0
 49
1.0
 49
-1.0
  0
LTYPE
  2
ACISOTGL
 70
     0
  3
_ _ _ _ _
 72
    65
 73
     2
 40
3.0
 49
2.0
 49
-1.0
  0
LTYPE
  2
GEN7
 70
     0
  3
____ . ____ . ____ . ____ . ____ . ____ . ____
 72
    65
 73
     4
 40
14.25
 49
9.75
 49
-1.5
 49
1.5
 49
-1.5
  0
LTYPE
  2
HIDDEN
 70
     0
  3
Hidden __ __ __ __ __ __ __ __ __ __ __ __ __ _
 72
    65
 73
     2
 40
9.5249999999999968
 49
6.3499999999999979
 49
-3.174999999999998
  0
ENDTAB
  0
TABLE
  2
LAYER
 70
    10
  0
LAYER
  2
0
 70
     0
 62
     7
  6
CONTINUOUS
  0
LAYER
  2
ｽﾝﾎﾟｳｾﾝ
 70
     0
 62
     2
  6
CONTINUOUS
  0
LAYER
  2
DEFPOINTS
 70
     0
 62
     7
  6
CONTINUOUS
  0
LAYER
  2
ｶｸﾚｾﾝ2
 70
     0
 62
     3
  6
GEN3B
  0
LAYER
  2
ﾁｭｳｼﾝｾﾝ1
 70
     0
 62
     1
  6
GEN7A
  0
LAYER
  2
AM_0
 70
     0
 62
     7
  6
CONTINUOUS
  0
LAYER
  2
AM_0N
 70
     0
 62
     7
  6
CONTINUOUS
  0
LAYER
  2
AM_5
 70
     0
 62
     2
  6
CONTINUOUS
  0
LAYER
  2
ﾁｭｳｼﾝｾﾝ
 70
     0
 62
     1
  6
GEN7
  0
LAYER
  2
AM_7
 70
     0
 62
     1
  6
AM_ISO08W050
  0
ENDTAB
  0
TABLE
  2
STYLE
 70
     8
  0
STYLE
  2
STANDARD
 70
     0
 40
0.0
 41
0.8299999999999999
 50
0.0
 71
     0
 42
2.5
  3
txt.shx
  4
bigfont.shx
  0
STYLE
  2
ACANSTS
 70
     0
 40
1.0
 41
1.0
 50
0.0
 71
     0
 42
2.5
  3
romans.shx
  4
bigfont.shx
  0
STYLE
  2
ACANSGDT
 70
     0
 40
0.0
 41
1.0
 50
0.0
 71
     0
 42
2.5
  3
amgdtans.shx
  4

  0
STYLE
  2

 70
     1
 40
0.0
 41
1.0
 50
0.0
 71
     0
 42
2.5
  3
ltypeshp.shx
  4

  0
STYLE
  2
ACJISTS
 70
     0
 40
1.0
 41
1.0
 50
0.0
 71
     0
 42
2.5
  3
isocp.shx
  4
bigfont.shx
  0
STYLE
  2
ACJISGDT
 70
     0
 40
0.0
 41
1.0
 50
0.0
 71
     0
 42
2.5
  3
amgdt.shx
  4

  0
STYLE
  2
ACISOTS
 70
     0
 40
3.0
 41
1.0
 50
0.0
 71
     0
 42
2.5
  3
isocp.shx
  4
extfont.shx
  0
STYLE
  2
ACISOGDT
 70
     0
 40
0.0
 41
1.0
 50
0.0
 71
     0
 42
2.5
  3
amgdt.shx
  4

  0
ENDTAB
  0
TABLE
  2
VIEW
 70
    12
  0
VIEW
  2
GEN1
 70
     0
 40
95.824742268041234
 10
71.5
 20
137.08762886597941
 41
143.0
 11
0.0
 21
0.0
 31
1.0
 12
0.0
 22
0.0
 32
0.0
 42
50.0
 43
0.0
 44
0.0
 50
0.0
 71
     0
  0
VIEW
  2
GEN2
 70
     0
 40
95.824742268041234
 10
214.5
 20
137.08762886597941
 41
143.0
 11
0.0
 21
0.0
 31
1.0
 12
0.0
 22
0.0
 32
0.0
 42
50.0
 43
0.0
 44
0.0
 50
0.0
 71
     0
  0
VIEW
  2
GEN3
 70
     0
 40
95.824742268041234
 10
71.5
 20
47.912371134020603
 41
143.0
 11
0.0
 21
0.0
 31
1.0
 12
0.0
 22
0.0
 32
0.0
 42
50.0
 43
0.0
 44
0.0
 50
0.0
 71
     0
  0
VIEW
  2
GEN4
 70
     0
 40
95.824742268041234
 10
214.5
 20
47.912371134020603
 41
143.0
 11
0.0
 21
0.0
 31
1.0
 12
0.0
 22
0.0
 32
0.0
 42
50.0
 43
0.0
 44
0.0
 50
0.0
 71
     0
  0
VIEW
  2
GEN5
 70
     0
 40
95.824742268041234
 10
143.0
 20
92.500000000000057
 41
143.0
 11
0.0
 21
0.0
 31
1.0
 12
0.0
 22
0.0
 32
0.0
 42
50.0
 43
0.0
 44
0.0
 50
0.0
 71
     0
  0
VIEW
  2
GEN6
 70
     0
 40
191.64756804123709
 10
143.0
 20
92.5
 41
285.99714
 11
0.0
 21
0.0
 31
1.0
 12
0.0
 22
0.0
 32
0.0
 42
50.0
 43
0.0
 44
0.0
 50
0.0
 71
     0
  0
VIEW
  2
AM_VIEW1
 70
     0
 40
277.50000000000011
 10
249.64779005524869
 20
416.25000000000011
 41
499.29558011049721
 11
0.0
 21
0.0
 31
1.0
 12
0.0
 22
0.0
 32
0.0
 42
50.0
 43
0.0
 44
0.0
 50
0.0
 71
    16
  0
VIEW
  2
AM_VIEW2
 70
     0
 40
277.50000000000011
 10
603.85220994475117
 20
416.25000000000011
 41
499.29558011049721
 11
0.0
 21
0.0
 31
1.0
 12
0.0
 22
0.0
 32
0.0
 42
50.0
 43
0.0
 44
0.0
 50
0.0
 71
    16
  0
VIEW
  2
AM_VIEW3
 70
     0
 40
277.50000000000011
 10
249.64779005524869
 20
138.75
 41
499.29558011049721
 11
0.0
 21
0.0
 31
1.0
 12
0.0
 22
0.0
 32
0.0
 42
50.0
 43
0.0
 44
0.0
 50
0.0
 71
    16
  0
VIEW
  2
AM_VIEW4
 70
     0
 40
277.50000000000011
 10
603.85220994475117
 20
138.75
 41
499.29558011049721
 11
0.0
 21
0.0
 31
1.0
 12
0.0
 22
0.0
 32
0.0
 42
50.0
 43
0.0
 44
0.0
 50
0.0
 71
    16
  0
VIEW
  2
AM_VIEW5
 70
     0
 40
277.50000000000011
 10
426.75
 20
277.50000000000011
 41
499.2955801104971
 11
0.0
 21
0.0
 31
1.0
 12
0.0
 22
0.0
 32
0.0
 42
50.0
 43
0.0
 44
0.0
 50
0.0
 71
    16
  0
VIEW
  2
AM_VIEW6
 70
     0
 40
554.99445000000014
 10
426.75
 20
277.5
 41
998.5811743093924
 11
0.0
 21
0.0
 31
1.0
 12
0.0
 22
0.0
 32
0.0
 42
50.0
 43
0.0
 44
0.0
 50
0.0
 71
    16
  0
ENDTAB
  0
TABLE
  2
UCS
 70
     0
  0
ENDTAB
  0
TABLE
  2
APPID
 70
    97
  0
APPID
  2
ACAD
 70
     0
  0
APPID
  2
MCAD_NO_VIS
 70
     0
  0
APPID
  2
ACAD_TEMP_GRAPHIC
 70
     0
  0
APPID
  2
AD_DRAW
 70
     0
  0
APPID
  2
DESIGNERASSEMBLIES
 70
     0
  0
APPID
  2
ASURF_PCURVE_APPNAME
 70
     0
  0
APPID
  2
GENIUS_GE3SECT_13
 70
     0
  0
APPID
  2
GENIUS_GENCFG_13
 70
     0
  0
APPID
  2
GENIUS_GE3CFG0_13
 70
     0
  0
APPID
  2
GENIUS_GENCFG0_13
 70
     0
  0
APPID
  2
GENIUS_GENCFG1_13
 70
     0
  0
APPID
  2
GENIUS_GENCFG2_13
 70
     0
  0
APPID
  2
GENIUS_GENCFG3_13
 70
     0
  0
APPID
  2
GENIUS_GENCFG4_13
 70
     0
  0
APPID
  2
GENIUS_GEVCFG0_13
 70
     0
  0
APPID
  2
GENIUS_GENOENT_13
 70
     0
  0
APPID
  2
GENIUS_GENREC_14
 70
     0
  0
APPID
  2
GENIUS_GENODEF_13
 70
     0
  0
APPID
  2
GENIUS_GENOBJ-N-REC_13
 70
     0
  0
APPID
  2
GENIUS_GENHINW_13
 70
     0
  0
APPID
  2
GENIUS_FIRSTVISTXT_14
 70
     0
  0
APPID
  2
GENIUS_GENOBJ-N-LEADER_13
 70
     0
  0
APPID
  2
GENIUS_GENOREF_13
 70
     0
  0
APPID
  2
GENIUS_GENOLIS_13
 70
     0
  0
APPID
  2
GEV_VCCNULL_SWITCH_OFF
 70
     0
  0
APPID
  2
GENIUS_GENDTOL_13
 70
     0
  0
APPID
  2
GENIUS_GEFCFG0_13
 70
     0
  0
APPID
  2
GENIUS_GENOBJ-N-TIT_13
 70
     0
  0
APPID
  2
GENIUS_GENTITLE_13
 70
     0
  0
APPID
  2
GENIUS_GENZVEED_13
 70
     0
  0
APPID
  2
GENIUS_GENOBJ-N-SDF_13
 70
     0
  0
APPID
  2
GENIUS_GENSCREG_13
 70
     0
  0
APPID
  2
GENIUS_DUMCFG0_13
 70
     0
  0
APPID
  2
GEVID936201362
 70
     0
  0
APPID
  2
GEVDC
 70
     0
  0
APPID
  2
GEVCON
 70
     0
  0
APPID
  2
VCC
 70
     0
  0
APPID
  2
GEVPT
 70
     0
  0
APPID
  2
GEVIT
 70
     0
  0
APPID
  2
GENBH
 70
     0
  0
APPID
  2
GEVMK
 70
     0
  0
APPID
  2
GENIUS_GENBH_13
 70
     0
  0
APPID
  2
GENIUS_GENOBJ-NBEHI-BHF_13
 70
     0
  0
APPID
  2
GENIUS_GENOBJ-NBEHI-BHB_13
 70
     0
  0
APPID
  2
GENIUS_GENOBJ-F-DESC_13
 70
     0
  0
APPID
  2
GENIUS_GEFDESC_14
 70
     0
  0
APPID
  2
GENIUS_GENOBJ-F-PART_13
 70
     0
  0
APPID
  2
GENIUS_GEFSTDP_13
 70
     0
  0
APPID
  2
GENIUS_GEFPARTINS_13
 70
     0
  0
APPID
  2
GENIUS_GENTRA_14
 70
     0
  0
APPID
  2
GENIUS_GENINF13_13
 70
     0
  0
APPID
  2
GENIUS_GENOBJ-N-INFOPT_13
 70
     0
  0
APPID
  2
GENIUS_GENOBJ-N-RSSYM_13
 70
     0
  0
APPID
  2
GENIUS_GENSYMENT_13
 70
     0
  0
APPID
  2
GENIUS_GENSCSYM_13
 70
     0
  0
APPID
  2
GENIUS_GEFINFNAM_13
 70
     0
  0
APPID
  2
GENIUS_GENSCREG_15
 70
     0
  0
APPID
  2
GENIUS_GENOBJ-N-CEN_13
 70
     0
  0
APPID
  2
GENIUS_GENOBJ-N-CRS_13
 70
     0
  0
APPID
  2
GENIUS_GENOBJ-N-CRC_13
 70
     0
  0
APPID
  2
GENIUS_GENCRC_14
 70
     0
  0
APPID
  2
GEVID942827039
 70
     0
  0
APPID
  2
GEVID942827040
 70
     0
  0
APPID
  2
GEVID942827041
 70
     0
  0
APPID
  2
GENIUS_GENOBJ-F-SCPASSM_13
 70
     0
  0
APPID
  2
GENIUS_GENDIMSH_14
 70
     0
  0
APPID
  2
GENIUS_GENFIL_13
 70
     0
  0
APPID
  2
GENIUS_GENOBJ-N-CHA_13
 70
     0
  0
APPID
  2
GENIUS_GENOBJ-N-FIL_13
 70
     0
  0
APPID
  2
GEVID942827042
 70
     0
  0
APPID
  2
GEVID946020473
 70
     0
  0
APPID
  2
GEVID946020474
 70
     0
  0
APPID
  2
GEVID946020475
 70
     0
  0
APPID
  2
GENIUS_GENOBJ-N-HTC_13
 70
     0
  0
APPID
  2
GENIUS_GENHATCH_13
 70
     0
  0
APPID
  2
GEVID948854295
 70
     0
  0
APPID
  2
GEVID939402019
 70
     0
  0
APPID
  2
GEVID952919491
 70
     0
  0
APPID
  2
GEVID952919492
 70
     0
  0
APPID
  2
GENIUS_GEFWELD_13
 70
     0
  0
APPID
  2
GENIUS_GENOBJ-F-WELS_13
 70
     0
  0
APPID
  2
GEVID952919493
 70
     0
  0
APPID
  2
GENIUS_GENOBJ-N-RSBK_13
 70
     0
  0
APPID
  2
GENIUS_GENOBJ-N-LIB_13
 70
     0
  0
APPID
  2
GENIUS_GENSCALE_13
 70
     0
  0
APPID
  2
GEVID986376691
 70
     0
  0
APPID
  2
ACATTRIBSERVICES
 70
     0
  0
APPID
  2
DCO15
 70
     0
  0
APPID
  2
GEVID1088155249
 70
     0
  0
APPID
  2
ACADM_DIM_EDIT
 70
     0
  0
APPID
  2
AMDT_DM_ADJ
 70
     0
  0
APPID
  2
ACAD_MLEADERVER
 70
     0
  0
APPID
  2
ACAD_DSTYLE_DIMBREAK
 70
     0
  0
APPID
  2
ACAD_DSTYLE_DIMJAG
 70
     0
  0
APPID
  2
ACAD_NAV_VCDISPLAY
 70
     0
  0
APPID
  2
ACADANNOPO
 70
     0
  0
APPID
  2
ACAD_EXEMPT_FROM_CAD_STANDARDS
 70
     0
  0
ENDTAB
  0
TABLE
  2
DIMSTYLE
 70
    16
  0
DIMSTYLE
  2
STANDARD
 70
     0
  3

  4

  5

  6

  7

 40
1.0
 41
0.18
 42
0.0625
 43
0.38
 44
0.18
 45
0.0
 46
0.0
 47
0.0
 48
0.0
140
0.18
141
0.09
142
0.0
143
25.399999999999999
144
1.0
145
0.0
146
1.0
147
0.09
 71
     0
 72
     0
 73
     1
 74
     1
 75
     0
 76
     0
 77
     0
 78
     0
170
     0
171
     2
172
     0
173
     0
174
     0
175
     0
176
     0
177
     0
178
     0
  0
DIMSTYLE
  2
AM_JIS
 70
     0
  3

  4
"
  5

  6

  7

 40
1.0
 41
2.5
 42
1.0
 43
7.0
 44
1.0
 45
0.0
 46
0.0
 47
0.1
 48
0.1000000001
140
2.5
141
0.0
142
0.0
143
0.0393701
144
1.0
145
0.0
146
0.71
147
1.0
 71
     0
 72
     0
 73
     0
 74
     0
 75
     0
 76
     0
 77
     3
 78
     8
170
     0
171
     2
172
     1
173
     0
174
     0
175
     0
176
   256
177
   256
178
     4
  0
DIMSTYLE
  2
AM_JIS$3
 70
     0
  3

  4
"
  5

  6

  7

 40
1.0
 41
2.5
 42
1.0
 43
7.0
 44
1.0
 45
0.0
 46
0.0
 47
0.1
 48
0.1000000001
140
2.5
141
0.0
142
0.0
143
0.0393701
144
1.0
145
0.0
146
0.71
147
1.0
 71
     0
 72
     0
 73
     0
 74
     1
 75
     0
 76
     0
 77
     3
 78
     8
170
     0
171
     2
172
     0
173
     0
174
     0
175
     0
176
   256
177
   256
178
     4
  0
DIMSTYLE
  2
AM_JIS$4
 70
     0
  3

  4
"
  5

  6

  7

 40
1.0
 41
2.5
 42
1.0
 43
7.0
 44
1.0
 45
0.0
 46
0.0
 47
0.1
 48
0.1000000001
140
2.5
141
0.0
142
0.0
143
0.0393701
144
1.0
145
0.0
146
0.71
147
1.0
 71
     0
 72
     0
 73
     0
 74
     0
 75
     0
 76
     0
 77
     3
 78
     8
170
     0
171
     2
172
     0
173
     0
174
     0
175
     0
176
   256
177
   256
178
     4
  0
DIMSTYLE
  2
AM_JIS$6
 70
     0
  3

  4
"
  5

  6

  7

 40
1.0
 41
2.5
 42
1.0
 43
7.0
 44
1.0
 45
0.0
 46
0.0
 47
0.1
 48
0.1000000001
140
2.5
141
0.0
142
0.0
143
0.0393701
144
1.0
145
0.0
146
0.71
147
1.0
 71
     0
 72
     0
 73
     0
 74
     0
 75
     0
 76
     0
 77
     0
 78
     8
170
     0
171
     2
172
     1
173
     0
174
     0
175
     0
176
   256
177
   256
178
     4
  0
DIMSTYLE
  2
AM_JIS$7
 70
     0
  3

  4
"
  5

  6

  7

 40
1.0
 41
2.5
 42
1.0
 43
7.0
 44
1.0
 45
0.0
 46
0.0
 47
0.1
 48
0.1000000001
140
2.5
141
0.0
142
0.0
143
0.0393701
144
1.0
145
0.0
146
0.71
147
1.0
 71
     0
 72
     0
 73
     0
 74
     0
 75
     0
 76
     0
 77
     3
 78
     8
170
     0
171
     2
172
     1
173
     0
174
     0
175
     0
176
   256
177
   256
178
     4
  0
DIMSTYLE
  2
AM_JIS$SF
 70
     0
  3

  4
"
  5
OPEN30
  6
OPEN30
  7
OPEN30
 40
1.0
 41
2.5
 42
1.0
 43
10.0
 44
1.0
 45
0.0
 46
0.0
 47
0.1
 48
0.1
140
3.5
141
0.0
142
0.0
143
0.0393701
144
1.0
145
0.0
146
0.71
147
1.5
 71
     0
 72
     0
 73
     0
 74
     0
 75
     1
 76
     1
 77
     3
 78
     8
170
     0
171
     2
172
     1
173
     0
174
     0
175
     0
176
   256
177
   256
178
     4
  0
DIMSTYLE
  2
AM_JIS$SH
 70
     0
  3

  4
"
  5

  6
NONE
  7

 40
1.0
 41
2.5
 42
1.0
 43
10.0
 44
1.0
 45
0.0
 46
0.0
 47
0.1
 48
0.1
140
3.5
141
0.0
142
0.0
143
0.0393701
144
1.0
145
0.0
146
0.71
147
1.5
 71
     0
 72
     0
 73
     0
 74
     0
 75
     1
 76
     0
 77
     3
 78
     8
170
     0
171
     2
172
     1
173
     1
174
     0
175
     0
176
   256
177
   256
178
     4
  0
DIMSTYLE
  2
AM_ISO
 70
     0
  3

  4
"
  5

  6

  7

 40
1.0
 41
2.5
 42
1.0
 43
10.0
 44
1.0
 45
0.0
 46
0.0
 47
0.0
 48
0.000000001
140
3.0
141
0.0
142
0.0
143
0.0393701
144
1.0
145
0.0
146
0.71
147
1.299999999999998
 71
     1
 72
     0
 73
     0
 74
     0
 75
     0
 76
     0
 77
     1
 78
     8
170
     0
171
     2
172
     1
173
     0
174
     0
175
     0
176
   256
177
   256
178
     4
  0
DIMSTYLE
  2
AM_ISO$3
 70
     0
  3

  4
"
  5

  6

  7

 40
1.0
 41
2.5
 42
1.0
 43
10.0
 44
1.0
 45
0.0
 46
0.0
 47
0.0
 48
0.000000001
140
2.5
141
0.0
142
0.0
143
0.0393701
144
1.0
145
0.0
146
0.71
147
1.299999999999998
 71
     1
 72
     0
 73
     0
 74
     1
 75
     0
 76
     0
 77
     1
 78
     8
170
     0
171
     2
172
     0
173
     0
174
     0
175
     0
176
   256
177
   256
178
     4
  0
DIMSTYLE
  2
AM_ISO$4
 70
     0
  3

  4
"
  5

  6

  7

 40
1.0
 41
2.5
 42
1.0
 43
10.0
 44
1.0
 45
0.0
 46
0.0
 47
0.0
 48
0.000000001
140
2.5
141
0.0
142
0.0
143
0.0393701
144
1.0
145
0.0
146
0.71
147
1.299999999999998
 71
     1
 72
     0
 73
     0
 74
     1
 75
     0
 76
     0
 77
     1
 78
     8
170
     0
171
     2
172
     0
173
     0
174
     0
175
     0
176
   256
177
   256
178
     4
  0
DIMSTYLE
  2
AM_ISO$6
 70
     0
  3

  4
"
  5

  6

  7

 40
1.0
 41
2.5
 42
1.0
 43
10.0
 44
1.0
 45
0.0
 46
0.0
 47
0.0
 48
0.000000001
140
2.5
141
0.0
142
0.0
143
0.0393701
144
1.0
145
0.0
146
0.71
147
1.299999999999998
 71
     1
 72
     0
 73
     0
 74
     0
 75
     0
 76
     0
 77
     0
 78
     8
170
     0
171
     2
172
     1
173
     0
174
     0
175
     0
176
   256
177
   256
178
     4
  0
DIMSTYLE
  2
AM_ISO$7
 70
     0
  3

  4
"
  5

  6

  7

 40
1.0
 41
2.5
 42
1.0
 43
10.0
 44
1.0
 45
0.0
 46
0.0
 47
0.0
 48
0.000000001
140
2.5
141
0.0
142
0.0
143
0.0393701
144
1.0
145
0.0
146
0.71
147
1.299999999999998
 71
     1
 72
     0
 73
     0
 74
     0
 75
     0
 76
     0
 77
     1
 78
     8
170
     0
171
     2
172
     1
173
     0
174
     0
175
     0
176
   256
177
   256
178
     4
  0
DIMSTYLE
  2
AM_ISO$SF
 70
     0
  3

  4
"
  5

  6

  7

 40
1.0
 41
2.5
 42
1.0
 43
10.0
 44
1.0
 45
0.0
 46
0.0
 47
0.1
 48
0.1
140
3.5
141
0.0
142
0.0
143
0.0393701
144
1.0
145
0.0
146
0.71
147
1.5
 71
     0
 72
     0
 73
     0
 74
     0
 75
     1
 76
     1
 77
     1
 78
     8
170
     0
171
     2
172
     1
173
     0
174
     0
175
     0
176
   256
177
   256
178
     4
  0
DIMSTYLE
  2
AM_ISO$SH
 70
     0
  3

  4
"
  5

  6
GENAXEH
  7

 40
1.0
 41
2.5
 42
1.0
 43
10.0
 44
1.0
 45
0.0
 46
0.0
 47
0.1
 48
0.1
140
3.5
141
0.0
142
0.0
143
0.0393701
144
2.0
145
0.0
146
0.71
147
1.5
 71
     0
 72
     0
 73
     0
 74
     0
 75
     1
 76
     1
 77
     1
 78
     8
170
     0
171
     2
172
     1
173
     1
174
     0
175
     0
176
   256
177
   256
178
     4
  0
DIMSTYLE
  2
AM_JIS$0
 70
     0
  3

  4
"
  5

  6

  7

 40
1.0
 41
2.5
 42
1.0
 43
7.0
 44
1.0
 45
0.0
 46
0.0
 47
0.1
 48
0.1000000001
140
2.5
141
0.0
142
0.0
143
0.0393701
144
1.0
145
0.0
146
0.71
147
1.0
 71
     0
 72
     0
 73
     0
 74
     0
 75
     0
 76
     0
 77
     3
 78
     8
170
     0
171
     2
172
     1
173
     0
174
     0
175
     0
176
   256
177
   256
178
     4
  0
ENDTAB
  0
ENDSEC
  0
SECTION
  2
BLOCKS
  0
BLOCK
  8
0
  2
$MODEL_SPACE
 70
     0
 10
0.0
 20
0.0
 30
0.0
  3
$MODEL_SPACE
  1

  0
ENDBLK
  5
1A
  8
0
  0
BLOCK
 67
     1
  8
0
  2
$PAPER_SPACE
 70
     0
 10
0.0
 20
0.0
 30
0.0
  3
$PAPER_SPACE
  1

  0
ENDBLK
  5
17
 67
     1
  8
0
  0
BLOCK
  8
0
  2
_OPEN30
 70
     0
 10
0.0
 20
0.0
 30
0.0
  3
_OPEN30
  1

  0
LINE
  5
21C5
  8
0
 62
     0
 10
-1.0
 20
0.26794919
 30
0.0
 11
0.0
 21
0.0
 31
0.0
  0
LINE
  5
21C6
  8
0
 62
     0
 10
0.0
 20
0.0
 30
0.0
 11
-1.0
 21
-0.26794919
 31
0.0
  0
LINE
  5
21C7
  8
0
 62
     0
 10
0.0
 20
0.0
 30
0.0
 11
-1.0
 21
0.0
 31
0.0
  0
ENDBLK
  5
21C9
  8
0
  0
BLOCK
  8
0
  2
GENAXEH
 70
     0
 10
0.0
 20
0.0
 30
0.0
  3
GENAXEH
  1

  0
LINE
  5
21D0
  8
0
 10
-1.0
 20
0.0
 30
0.0
 11
1.0
 21
0.0
 31
0.0
  0
ENDBLK
  5
21D2
  8
0
  0
BLOCK
  8
0
  2
_NONE
 70
     0
 10
0.0
 20
0.0
 30
0.0
  3
_NONE
  1

  0
ENDBLK
  5
8193
  8
0
  0
ENDSEC
  0
SECTION
  2
ENTITIES
  0
POINT
  5
1B94
  8
0
 10
0.0
 20
0.0
 30
0.0
1001
GENIUS_GENODEF_13
1002
{
1000
HIER
1070
     1
1002
}
1002
{
1000
MANEDIT
1070
     0
1002
}
1002
{
1000
NOSEL
1070
     0
1002
}
1002
{
1000
BEHIND
1070
     0
1002
}
1002
{
1000
REACTOR
1002
}
1001
GENIUS_GENOBJ-N-SDF_13
1002
{
1000
OWNER
1000
GEN
1002
}
1001
GENIUS_GENOENT_13
1002
{
1000
MYREF
1005
1B94
1002
}
1002
{
1000
GRP
1005
0
1002
}
1001
GENIUS_GENOLIS_13
1002
{
1000
ENT
1005
89
1002
}
  0
LINE
  5
16BBF
  8
AM_0
 10
358.77700559056581
 20
159.09443604451391
 30
0.0
 11
474.77697370207869
 21
159.09443604451391
 31
0.0
  0
LINE
  5
16BC0
  8
AM_0
 10
358.77700559056581
 20
349.09444151647119
 30
0.0
 11
474.77697370207869
 21
349.09444151647119
 31
0.0
  0
CIRCLE
  5
16BC1
  8
AM_0
 10
439.77700915338539
 20
254.09444151647131
 30
0.0
 40
37.500001117587061
  0
LINE
  5
16BC2
  8
AM_0
 10
342.77697574498092
 20
190.09443960912299
 30
0.0
 11
490.77701067330349
 21
190.09443960912299
 31
0.0
  0
LINE
  5
16BC3
  8
AM_0
 10
342.77697574498092
 20
318.09444342381988
 30
0.0
 11
490.77701067330349
 21
318.09444342381988
 31
0.0
  0
LINE
  5
16BC4
  8
AM_0
 10
359.74753848292221
 20
196.09443978793689
 30
0.0
 11
439.77700915338539
 21
196.09443978793689
 31
0.0
  0
LINE
  5
16BC5
  8
AM_0
 10
359.74753848292221
 20
312.094443245006
 30
0.0
 11
439.77700915338539
 21
312.094443245006
 31
0.0
  0
LINE
  5
16BC6
  8
ﾁｭｳｼﾝｾﾝ1
 10
124.5429135147794
 20
254.09443336272329
 30
0.0
 11
515.07391878249166
 21
254.0944411199535
 31
0.0
  0
LINE
  5
16BCB
  8
ｶｸﾚｾﾝ2
 10
328.77697538735271
 20
306.09444306619241
 30
0.0
 11
328.77697538735271
 21
202.09443449479309
 31
0.0
  0
LINE
  5
16BDC
  8
AM_0
 10
336.77697556616693
 20
289.12388032825078
 30
0.0
 11
336.77697556616693
 21
219.06500270469209
 31
0.0
  0
LINE
  5
16BDD
  8
AM_0
 10
330.77697538735322
 20
306.09444306619213
 30
0.0
 11
330.77697538735322
 21
202.09443996675051
 31
0.0
  0
LINE
  5
16BDE
  8
AM_0
 10
293.27697538735327
 20
190.09444151647111
 30
0.0
 11
293.27697538735327
 21
318.09443151647122
 31
0.0
  0
LINE
  5
16BDF
  8
AM_0
 10
304.27697538735322
 20
315.59443151647167
 30
0.0
 11
304.27697538735322
 21
192.59445151647111
 31
0.0
  0
LINE
  5
16BE0
  8
AM_0
 10
322.68749856160309
 20
299.82316015456541
 30
0.0
 11
322.68749856160451
 21
208.3657228783776
 31
0.0
  0
ARC
  5
16BE1
  8
AM_0
 10
716.93550191335589
 20
254.09444151646591
 30
0.0
 40
397.24800335175217
 50
173.3392856796832
 51
186.6607143203168
  0
LINE
  5
16CD8
  8
0
 10
346.51892727593088
 20
166.33134396968541
 30
0.0
 11
332.02890497835227
 21
192.59445151647159
 31
0.0
  0
ARC
  5
16CDA
  8
AM_0
 10
342.77697574498092
 20
202.09443996675051
 30
0.0
 40
12.000000357627901
 50
180.00000500895689
 51
270.000000683243
  0
CIRCLE
  5
16CDB
  8
AM_0
 10
342.77697574498092
 20
202.09443996675051
 30
0.0
 40
10.499999999999989
  0
ARC
  5
16CDC
  8
AM_0
 10
307.27697538735299
 20
189.59445151647111
 30
0.0
 40
2.999999999999996
 50
90.0
 51
144.31466528734541
1001
GENIUS_GENOBJ-N-FIL_13
1002
{
1000
OWNER
1000
GEN
1002
}
1001
GENIUS_GENODEF_13
1002
{
1000
HIER
1070
     0
1002
}
1002
{
1000
MANEDIT
1070
     0
1002
}
1002
{
1000
NOSEL
1070
     0
1002
}
1002
{
1000
BEHIND
1070
     0
1002
}
1002
{
1000
OTHER
1070
     0
1002
}
1002
{
1000
REACTOR
1002
}
  0
LINE
  5
16CDD
  8
AM_0
 10
293.27697538735327
 20
190.09441151647121
 30
0.0
 11
293.27697538735327
 21
194.09441151647141
 31
0.0
  0
LINE
  5
16CDE
  8
0
  6
CONTINUOUS
 62
     7
 10
284.27691379275473
 20
190.0944060333706
 30
0.0
 11
293.27697538735327
 21
190.0944060333706
 31
0.0
  0
LINE
  5
16CE0
  8
AM_0
 10
293.27697538735327
 20
190.09445151647151
 30
0.0
 11
302.40357821494871
 21
190.09445151647151
 31
0.0
  0
ARC
  5
16CE1
  8
AM_0
 10
302.40357821494871
 20
193.09445151647111
 30
0.0
 40
2.999999999999996
 50
270.0
 51
324.31466528734541
1001
GENIUS_GENOBJ-N-FIL_13
1002
{
1000
OWNER
1000
GEN
1002
}
1001
GENIUS_GENODEF_13
1002
{
1000
HIER
1070
     0
1002
}
1002
{
1000
MANEDIT
1070
     0
1002
}
1002
{
1000
NOSEL
1070
     0
1002
}
1002
{
1000
BEHIND
1070
     0
1002
}
1002
{
1000
OTHER
1070
     0
1002
}
1002
{
1000
REACTOR
1002
}
  0
CIRCLE
  5
16CE3
  8
0
 10
358.77700915338568
 20
173.09444151647131
 30
0.0
 40
5.4999999999999947
  0
LINE
  5
16CE4
  8
ﾁｭｳｼﾝｾﾝ
 10
358.7770091533859
 20
186.59444151647131
 30
0.0
 11
358.7770091533859
 21
159.95762800652051
 31
0.0
1001
GENIUS_GENODEF_13
1002
{
1000
HIER
1070
     0
1002
}
1002
{
1000
MANEDIT
1070
     0
1002
}
1002
{
1000
NOSEL
1070
     0
1002
}
1002
{
1000
BEHIND
1070
     0
1002
}
1002
{
1000
OTHER
1070
     0
1002
}
1002
{
1000
REACTOR
1002
}
1001
GENIUS_GENOBJ-N-CEN_13
1002
{
1000
OWNER
1000
GEN
1002
}
  0
ARC
  5
16CE5
  8
0
 10
358.77701219115829
 20
173.0944402038549
 30
0.0
 40
14.00000415934084
 50
208.8866351646578
 51
270.0
  0
LINE
  5
16CE6
  8
ﾁｭｳｼﾝｾﾝ
 10
372.20419564343439
 20
173.09444151647131
 30
0.0
 11
345.64019564343459
 21
173.09444151647131
 31
0.0
1001
GENIUS_GENODEF_13
1002
{
1000
HIER
1070
     0
1002
}
1002
{
1000
MANEDIT
1070
     0
1002
}
1002
{
1000
NOSEL
1070
     0
1002
}
1002
{
1000
BEHIND
1070
     0
1002
}
1002
{
1000
OTHER
1070
     0
1002
}
1002
{
1000
REACTOR
1002
}
1001
GENIUS_GENOBJ-N-CEN_13
1002
{
1000
OWNER
1000
GEN
1002
}
  0
LINE
  5
16CE7
  8
AM_7
  6
AM_ISO08W050X2
 10
358.77700915338568
 20
173.09444151647131
 30
0.0
 11
358.77700915338568
 21
173.09444151647131
 31
0.0
1001
GENIUS_GENODEF_13
1002
{
1000
HIER
1070
     0
1002
}
1002
{
1000
MANEDIT
1070
     0
1002
}
1002
{
1000
NOSEL
1070
     0
1002
}
1002
{
1000
BEHIND
1070
     0
1002
}
1002
{
1000
OTHER
1070
     0
1002
}
1002
{
1000
REACTOR
1002
}
1001
GENIUS_GENOBJ-N-CEN_13
1002
{
1000
OWNER
1000
GEN
1002
}
  0
POLYLINE
  5
16CE9
  8
AM_0
 66
     1
 10
0.0
 20
0.0
 30
0.0
 70
     1
  0
VERTEX
  5
1838F
  8
AM_0
 10
342.77697574498097
 20
207.59443996675051
 30
0.0
  0
VERTEX
  5
18390
  8
AM_0
 10
338.01383602416649
 20
204.84443996675051
 30
0.0
  0
VERTEX
  5
18391
  8
AM_0
 10
338.01383602416649
 20
199.3444399667504
 30
0.0
  0
VERTEX
  5
18392
  8
AM_0
 10
342.77697574498097
 20
196.59443996675051
 30
0.0
  0
VERTEX
  5
18393
  8
AM_0
 10
347.54011546579522
 20
199.3444399667504
 30
0.0
  0
VERTEX
  5
18394
  8
AM_0
 10
347.54011546579522
 20
204.84443996675051
 30
0.0
  0
SEQEND
  5
18395
  8
AM_0
  0
CIRCLE
  5
16CEA
  8
AM_0
 10
342.77697574498092
 20
202.09443996675051
 30
0.0
 40
7.9999999999999929
  0
ARC
  5
16CEB
  8
AM_0
 10
342.77697574498092
 20
202.09443996675051
 30
0.0
 40
11.999999999999989
 50
356.62771271285618
 51
93.37228728714382
  0
LINE
  5
16CEC
  8
AM_0
 10
307.27697538735299
 20
192.59445151647111
 30
0.0
 11
334.48539833591661
 21
192.59445151647159
 31
0.0
  0
LINE
  5
16CED
  8
0
  6
CONTINUOUS
 62
     7
 10
285.27697538735327
 20
202.05447569584001
 30
0.0
 11
293.27697538735327
 21
202.05447569584001
 31
0.0
  0
LINE
  5
16CFF
  8
AM_0
 10
293.27691756513588
 20
202.054441516503
 30
0.0
 11
303.27691756512968
 21
202.05443040539191
 31
0.0
  0
LINE
  5
16D00
  8
AM_0
 10
293.27697538735327
 20
202.05445151647149
 30
0.0
 11
303.27697538735327
 21
202.05445151647149
 31
0.0
  0
LINE
  5
16D01
  8
0
  6
CONTINUOUS
 62
     7
 10
285.27697538735327
 20
216.95448569584039
 30
0.0
 11
293.27697538735327
 21
216.95448569584039
 31
0.0
  0
LINE
  5
16D0A
  8
AM_0
 10
293.27693412070278
 20
216.9544515164938
 30
0.0
 11
303.27693412069658
 21
216.9544404053828
 31
0.0
  0
LINE
  5
16D0B
  8
AM_0
 10
293.27697538735327
 20
216.95446151647161
 30
0.0
 11
303.27697538735327
 21
216.95446151647161
 31
0.0
  0
ARC
  5
16D0C
  8
AM_0
 10
341.77697556616698
 20
219.06500270469209
 30
0.0
 40
4.9999999999999947
 50
180.0
 51
273.37228728714382
1001
GENIUS_GENODEF_13
1002
{
1000
HIER
1070
     0
1002
}
1002
{
1000
MANEDIT
1070
     0
1002
}
1002
{
1000
NOSEL
1070
     0
1002
}
1002
{
1000
BEHIND
1070
     0
1002
}
1002
{
1000
OTHER
1070
     0
1002
}
1002
{
1000
REACTOR
1002
}
1001
GENIUS_GENOBJ-N-FIL_13
1002
{
1000
OWNER
1000
GEN
1002
}
  0
LINE
  5
16D0D
  8
AM_0
 10
325.34850974103961
 20
205.3657228783776
 30
0.0
 11
329.77697538735322
 21
205.3657228783776
 31
0.0
  0
ARC
  5
16D0E
  8
AM_0
 10
325.34850974103961
 20
208.3657228783776
 30
0.0
 40
2.999999999999996
 50
186.6607143203168
 51
270.0
1001
GENIUS_GENOBJ-N-FIL_13
1002
{
1000
OWNER
1000
GEN
1002
}
1001
GENIUS_GENODEF_13
1002
{
1000
HIER
1070
     0
1002
}
1002
{
1000
MANEDIT
1070
     0
1002
}
1002
{
1000
NOSEL
1070
     0
1002
}
1002
{
1000
BEHIND
1070
     0
1002
}
1002
{
1000
OTHER
1070
     0
1002
}
1002
{
1000
REACTOR
1002
}
  0
ARC
  5
16D0F
  8
ｶｸﾚｾﾝ2
 10
342.77697574498069
 20
202.09443449479309
 30
0.0
 40
14.00000035762786
 50
180.0
 51
208.8866351646578
  0
ARC
  5
16D10
  8
AM_0
 10
334.48539833591673
 20
189.59445151647191
 30
0.0
 40
2.999999999999996
 50
56.442621136825217
 51
90.0
1001
GENIUS_GENOBJ-N-FIL_13
1002
{
1000
OWNER
1000
GEN
1002
}
1001
GENIUS_GENODEF_13
1002
{
1000
HIER
1070
     0
1002
}
1002
{
1000
MANEDIT
1070
     0
1002
}
1002
{
1000
NOSEL
1070
     0
1002
}
1002
{
1000
BEHIND
1070
     0
1002
}
1002
{
1000
OTHER
1070
     0
1002
}
1002
{
1000
REACTOR
1002
}
  0
ARC
  5
16D11
  8
AM_0
 10
359.74753848292221
 20
201.09443978793681
 30
0.0
 40
4.9999999999999947
 50
176.62771271285609
 51
270.0
1001
GENIUS_GENOBJ-N-FIL_13
1002
{
1000
OWNER
1000
GEN
1002
}
1001
GENIUS_GENODEF_13
1002
{
1000
HIER
1070
     0
1002
}
1002
{
1000
MANEDIT
1070
     0
1002
}
1002
{
1000
NOSEL
1070
     0
1002
}
1002
{
1000
BEHIND
1070
     0
1002
}
1002
{
1000
OTHER
1070
     0
1002
}
1002
{
1000
REACTOR
1002
}
  0
LINE
  5
16D80
  8
0
 10
346.51892727593088
 20
341.85753359129978
 30
0.0
 11
332.02890799736991
 21
315.5944315164711
 31
0.0
  0
POLYLINE
  5
16D81
  8
AM_0
 66
     1
 10
0.0
 20
0.0
 30
0.0
 70
     1
  0
VERTEX
  5
18396
  8
AM_0
 10
342.77697574498097
 20
311.59444306619213
 30
0.0
  0
VERTEX
  5
18397
  8
AM_0
 10
338.01383602416649
 20
308.84444306619213
 30
0.0
  0
VERTEX
  5
18398
  8
AM_0
 10
338.01383602416649
 20
303.34444306619213
 30
0.0
  0
VERTEX
  5
18399
  8
AM_0
 10
342.77697574498097
 20
300.59444306619213
 30
0.0
  0
VERTEX
  5
1839A
  8
AM_0
 10
347.54011546579522
 20
303.34444306619213
 30
0.0
  0
VERTEX
  5
1839B
  8
AM_0
 10
347.54011546579522
 20
308.84444306619213
 30
0.0
  0
SEQEND
  5
1839C
  8
AM_0
  0
CIRCLE
  5
16D83
  8
AM_0
 10
342.77697574498092
 20
306.09444306619213
 30
0.0
 40
7.9999999999999929
  0
ARC
  5
16D84
  8
AM_0
 10
342.77697574498092
 20
306.09444306619213
 30
0.0
 40
11.999999999999989
 50
266.62771271285618
 51
3.3722872871437932
  0
ARC
  5
16D85
  8
AM_0
 10
342.77697574498092
 20
306.09444306619213
 30
0.0
 40
12.00000035762787
 50
90.000002504475205
 51
180.00000500895689
  0
CIRCLE
  5
16D86
  8
AM_0
 10
342.77697574498092
 20
306.09444306619213
 30
0.0
 40
10.499999999999989
  0
LINE
  5
16D87
  8
AM_0
 10
307.27697538735299
 20
315.59443151647127
 30
0.0
 11
334.48539833591673
 21
315.59443151647099
 31
0.0
  0
LINE
  5
16D8C
  8
0
  6
CONTINUOUS
 62
     7
 10
285.27697538735327
 20
291.23438603337041
 30
0.0
 11
293.27697538735327
 21
291.23438603337041
 31
0.0
  0
LINE
  5
16D96
  8
AM_0
 10
293.27697538735327
 20
291.2344215164714
 30
0.0
 11
303.27697538735327
 21
291.2344215164714
 31
0.0
  0
LINE
  5
16D97
  8
0
  6
CONTINUOUS
 62
     7
 10
285.27697538735327
 20
318.09439603337057
 30
0.0
 11
293.27697538735327
 21
318.09439603337057
 31
0.0
  0
LINE
  5
16D98
  8
0
  6
CONTINUOUS
 62
     7
 10
285.27697538735327
 20
306.13439603337088
 30
0.0
 11
293.27697538735327
 21
306.13439603337088
 31
0.0
  0
LINE
  5
16DB0
  8
AM_0
 10
293.27697538735327
 20
306.1344315164713
 30
0.0
 11
303.27697538735327
 21
306.1344315164713
 31
0.0
  0
LINE
  5
16DB1
  8
AM_0
 10
293.27697538735327
 20
318.09443151647139
 30
0.0
 11
302.40357821494871
 21
318.09443151647139
 31
0.0
  0
ARC
  5
16DB2
  8
AM_0
 10
307.27697538735299
 20
318.59443151647127
 30
0.0
 40
2.999999999999996
 50
215.68533471265459
 51
270.0
1001
GENIUS_GENOBJ-N-FIL_13
1002
{
1000
OWNER
1000
GEN
1002
}
1001
GENIUS_GENODEF_13
1002
{
1000
HIER
1070
     0
1002
}
1002
{
1000
MANEDIT
1070
     0
1002
}
1002
{
1000
NOSEL
1070
     0
1002
}
1002
{
1000
BEHIND
1070
     0
1002
}
1002
{
1000
OTHER
1070
     0
1002
}
1002
{
1000
REACTOR
1002
}
  0
ARC
  5
16DB3
  8
AM_0
 10
302.40357821494871
 20
315.0944315164715
 30
0.0
 40
2.999999999999996
 50
35.68533471265463
 51
90.0
1001
GENIUS_GENOBJ-N-FIL_13
1002
{
1000
OWNER
1000
GEN
1002
}
1001
GENIUS_GENODEF_13
1002
{
1000
HIER
1070
     0
1002
}
1002
{
1000
MANEDIT
1070
     0
1002
}
1002
{
1000
NOSEL
1070
     0
1002
}
1002
{
1000
BEHIND
1070
     0
1002
}
1002
{
1000
OTHER
1070
     0
1002
}
1002
{
1000
REACTOR
1002
}
  0
ARC
  5
16DB4
  8
AM_0
 10
325.34850974104103
 20
299.82316015456541
 30
0.0
 40
2.999999999999996
 50
90.0
 51
173.3392856796832
1001
GENIUS_GENODEF_13
1002
{
1000
HIER
1070
     0
1002
}
1002
{
1000
MANEDIT
1070
     0
1002
}
1002
{
1000
NOSEL
1070
     0
1002
}
1002
{
1000
BEHIND
1070
     0
1002
}
1002
{
1000
OTHER
1070
     0
1002
}
1002
{
1000
REACTOR
1002
}
1001
GENIUS_GENOBJ-N-FIL_13
1002
{
1000
OWNER
1000
GEN
1002
}
  0
ARC
  5
16DB5
  8
AM_0
 10
341.77697556616721
 20
289.12388032825078
 30
0.0
 40
4.9999999999999947
 50
86.627712712856194
 51
180.0
1001
GENIUS_GENOBJ-N-FIL_13
1002
{
1000
OWNER
1000
GEN
1002
}
1001
GENIUS_GENODEF_13
1002
{
1000
HIER
1070
     0
1002
}
1002
{
1000
MANEDIT
1070
     0
1002
}
1002
{
1000
NOSEL
1070
     0
1002
}
1002
{
1000
BEHIND
1070
     0
1002
}
1002
{
1000
OTHER
1070
     0
1002
}
1002
{
1000
REACTOR
1002
}
  0
LINE
  5
16DB6
  8
AM_0
 10
325.34850974104103
 20
302.82316015456541
 30
0.0
 11
329.77697538735322
 21
302.82316015456541
 31
0.0
  0
ARC
  5
16DB7
  8
ｶｸﾚｾﾝ2
 10
342.77697574498069
 20
306.09444306619241
 30
0.0
 40
14.00000035762786
 50
151.11336483534211
 51
180.0
  0
ARC
  5
16DB8
  8
AM_0
 10
334.48539833591673
 20
318.59443151647099
 30
0.0
 40
2.999999999999996
 50
270.0
 51
303.5573788631749
1001
GENIUS_GENOBJ-N-FIL_13
1002
{
1000
OWNER
1000
GEN
1002
}
1001
GENIUS_GENODEF_13
1002
{
1000
HIER
1070
     0
1002
}
1002
{
1000
MANEDIT
1070
     0
1002
}
1002
{
1000
NOSEL
1070
     0
1002
}
1002
{
1000
BEHIND
1070
     0
1002
}
1002
{
1000
OTHER
1070
     0
1002
}
1002
{
1000
REACTOR
1002
}
  0
LINE
  5
16DB9
  8
ﾁｭｳｼﾝｾﾝ
 10
358.77700662190892
 20
321.5944330067411
 30
0.0
 11
358.77700562293847
 21
348.23124651669218
 31
0.0
1001
GENIUS_GENODEF_13
1002
{
1000
HIER
1070
     0
1002
}
1002
{
1000
MANEDIT
1070
     0
1002
}
1002
{
1000
NOSEL
1070
     0
1002
}
1002
{
1000
BEHIND
1070
     0
1002
}
1002
{
1000
OTHER
1070
     0
1002
}
1002
{
1000
REACTOR
1002
}
1001
GENIUS_GENOBJ-N-CEN_13
1002
{
1000
OWNER
1000
GEN
1002
}
  0
ARC
  5
16DBB
  8
AM_0
 10
359.74753848292221
 20
307.09444324500578
 30
0.0
 40
4.9999999999999947
 50
90.0
 51
183.37228728714379
1001
GENIUS_GENOBJ-N-FIL_13
1002
{
1000
OWNER
1000
GEN
1002
}
1001
GENIUS_GENODEF_13
1002
{
1000
HIER
1070
     0
1002
}
1002
{
1000
MANEDIT
1070
     0
1002
}
1002
{
1000
NOSEL
1070
     0
1002
}
1002
{
1000
BEHIND
1070
     0
1002
}
1002
{
1000
OTHER
1070
     0
1002
}
1002
{
1000
REACTOR
1002
}
  0
ARC
  5
16DBC
  8
0
 10
358.77701219115829
 20
335.09443735713018
 30
0.0
 40
14.00000415934084
 50
90.0
 51
151.11336483534211
  0
CIRCLE
  5
16DBD
  8
0
 10
358.77700611561312
 20
335.09443300674099
 30
0.0
 40
5.4999999999999947
  0
LINE
  5
16DBE
  8
ﾁｭｳｼﾝｾﾝ
 10
372.20419260566177
 20
335.09443351030569
 30
0.0
 11
345.64019260566192
 21
335.09443251406623
 31
0.0
1001
GENIUS_GENODEF_13
1002
{
1000
HIER
1070
     0
1002
}
1002
{
1000
MANEDIT
1070
     0
1002
}
1002
{
1000
NOSEL
1070
     0
1002
}
1002
{
1000
BEHIND
1070
     0
1002
}
1002
{
1000
OTHER
1070
     0
1002
}
1002
{
1000
REACTOR
1002
}
1001
GENIUS_GENOBJ-N-CEN_13
1002
{
1000
OWNER
1000
GEN
1002
}
  0
LINE
  5
16DC3
  8
AM_0
 10
504.7770110309317
 20
306.09444306619241
 30
0.0
 11
504.7770110309317
 21
202.09443449479309
 31
0.0
  0
LINE
  5
16DC4
  8
AM_0
 10
496.77701085211743
 20
289.12388032825078
 30
0.0
 11
496.77701085211743
 21
219.06500270469181
 31
0.0
  0
LINE
  5
16DC5
  8
ﾁｭｳｼﾝｾﾝ1
 10
439.77700915338539
 20
356.18305327949372
 30
0.0
 11
439.77700915338528
 21
152.00582596912491
 31
0.0
  0
LINE
  5
16DC6
  8
AM_0
 10
502.77701103093131
 20
306.09444306619213
 30
0.0
 11
502.77701103093131
 21
202.09443996675051
 31
0.0
  0
LINE
  5
16DCD
  8
0
 10
487.03505914235308
 20
166.33134396968541
 30
0.0
 11
503.03509225983731
 21
195.3313400971478
 31
0.0
  0
ARC
  5
16DCE
  8
AM_0
 10
490.77701067330349
 20
202.09443996675051
 30
0.0
 40
12.00000035762787
 50
269.99999749551819
 51
0.0
  0
CIRCLE
  5
16DCF
  8
AM_0
 10
490.77701067330349
 20
202.09443996675051
 30
0.0
 40
10.499999999999989
  0
ARC
  5
16DD1
  8
0
 10
474.77697422712572
 20
173.0944402038549
 30
0.0
 40
14.00000415934084
 50
270.0
 51
331.11336483534222
  0
CIRCLE
  5
16DD2
  8
0
 10
474.77697726489862
 20
173.09444151647131
 30
0.0
 40
5.4999999999999947
  0
LINE
  5
16DD3
  8
ﾁｭｳｼﾝｾﾝ
 10
461.34979077484979
 20
173.09444151647131
 30
0.0
 11
487.91379077484959
 21
173.09444151647131
 31
0.0
1001
GENIUS_GENODEF_13
1002
{
1000
HIER
1070
     0
1002
}
1002
{
1000
MANEDIT
1070
     0
1002
}
1002
{
1000
NOSEL
1070
     0
1002
}
1002
{
1000
BEHIND
1070
     0
1002
}
1002
{
1000
OTHER
1070
     0
1002
}
1002
{
1000
REACTOR
1002
}
1001
GENIUS_GENOBJ-N-CEN_13
1002
{
1000
OWNER
1000
GEN
1002
}
  0
LINE
  5
16DD5
  8
ﾁｭｳｼﾝｾﾝ
 10
474.77697726489862
 20
186.59444151647131
 30
0.0
 11
474.77697726489862
 21
159.95762800652051
 31
0.0
1001
GENIUS_GENODEF_13
1002
{
1000
HIER
1070
     0
1002
}
1002
{
1000
MANEDIT
1070
     0
1002
}
1002
{
1000
NOSEL
1070
     0
1002
}
1002
{
1000
BEHIND
1070
     0
1002
}
1002
{
1000
OTHER
1070
     0
1002
}
1002
{
1000
REACTOR
1002
}
1001
GENIUS_GENOBJ-N-CEN_13
1002
{
1000
OWNER
1000
GEN
1002
}
  0
ARC
  5
16DD7
  8
AM_0
 10
473.80644793536197
 20
201.09443978793681
 30
0.0
 40
4.9999999999999947
 50
270.0
 51
3.3722872871437932
1001
GENIUS_GENODEF_13
1002
{
1000
HIER
1070
     0
1002
}
1002
{
1000
MANEDIT
1070
     0
1002
}
1002
{
1000
NOSEL
1070
     0
1002
}
1002
{
1000
BEHIND
1070
     0
1002
}
1002
{
1000
OTHER
1070
     0
1002
}
1002
{
1000
REACTOR
1002
}
1001
GENIUS_GENOBJ-N-FIL_13
1002
{
1000
OWNER
1000
GEN
1002
}
  0
ARC
  5
16DD8
  8
AM_0
 10
490.77701067330349
 20
202.09443996675051
 30
0.0
 40
11.999999999999989
 50
86.627712712856194
 51
183.37228728714379
  0
CIRCLE
  5
16DD9
  8
AM_0
 10
439.77700915338539
 20
254.09444151647131
 30
0.0
 40
22.50000067055224
  0
LINE
  5
16DDA
  8
AM_0
 10
439.77700915338539
 20
196.09443978793689
 30
0.0
 11
473.80644793536197
 21
196.09443978793689
 31
0.0
  0
CIRCLE
  5
16DDB
  8
ｽﾝﾎﾟｳｾﾝ
 10
439.77700915338539
 20
254.09443915827589
 30
0.0
 40
4.0
  0
LINE
  5
16DDC
  8
0
 10
435.77700915338528
 20
264.09443915827569
 30
0.0
 11
443.77700915338528
 21
264.09443915827569
 31
0.0
  0
ARC
  5
16DDD
  8
0
 10
439.77700915338539
 20
254.09443915827589
 30
0.0
 40
14.00000000000014
 50
106.6015495990207
 51
73.3984504009793
  0
LINE
  5
16DDE
  8
0
 10
435.77700915338528
 20
271.09443915827552
 30
0.0
 11
443.77700915338522
 21
271.09443915827552
 31
0.0
  0
LINE
  5
16DDF
  8
0
 10
435.77700915338528
 20
271.09443915827552
 30
0.0
 11
435.77700915338528
 21
264.09443915827569
 31
0.0
  0
LINE
  5
16DE0
  8
0
 10
443.77700915338528
 20
271.09443915827552
 30
0.0
 11
443.77700915338528
 21
264.09443915827569
 31
0.0
  0
ARC
  5
16DE1
  8
AM_0
 10
491.7770108521176
 20
219.06500270469181
 30
0.0
 40
4.9999999999999947
 50
266.62771271285618
 51
0.0
1001
GENIUS_GENODEF_13
1002
{
1000
HIER
1070
     0
1002
}
1002
{
1000
MANEDIT
1070
     0
1002
}
1002
{
1000
NOSEL
1070
     0
1002
}
1002
{
1000
BEHIND
1070
     0
1002
}
1002
{
1000
OTHER
1070
     0
1002
}
1002
{
1000
REACTOR
1002
}
1001
GENIUS_GENOBJ-N-FIL_13
1002
{
1000
OWNER
1000
GEN
1002
}
  0
POLYLINE
  5
16DE3
  8
AM_0
 66
     1
 10
0.0
 20
0.0
 30
0.0
 70
     1
  0
VERTEX
  5
1839D
  8
AM_0
 10
490.77701067330349
 20
207.59443996675051
 30
0.0
  0
VERTEX
  5
1839E
  8
AM_0
 10
486.01387095248919
 20
204.84443996675051
 30
0.0
  0
VERTEX
  5
1839F
  8
AM_0
 10
486.01387095248919
 20
199.3444399667504
 30
0.0
  0
VERTEX
  5
183A0
  8
AM_0
 10
490.77701067330349
 20
196.59443996675051
 30
0.0
  0
VERTEX
  5
183A1
  8
AM_0
 10
495.54015039411757
 20
199.3444399667504
 30
0.0
  0
VERTEX
  5
183A2
  8
AM_0
 10
495.54015039411757
 20
204.84443996675051
 30
0.0
  0
SEQEND
  5
183A3
  8
AM_0
  0
CIRCLE
  5
16DE4
  8
AM_0
 10
490.77701067330349
 20
202.09443996675051
 30
0.0
 40
7.9999999999999929
  0
ARC
  5
16DE6
  8
AM_0
 10
490.77701067330349
 20
202.09443449479309
 30
0.0
 40
14.00000035762786
 50
331.11336483534222
 51
0.0
  0
ARC
  5
16DE8
  8
0
 10
474.77697422712572
 20
335.09443735713018
 30
0.0
 40
14.00000415934084
 50
28.886635164657829
 51
90.0
  0
CIRCLE
  5
16DE9
  8
0
 10
474.77697422712617
 20
335.09443735713018
 30
0.0
 40
5.4999999999999947
  0
LINE
  5
16DEA
  8
ﾁｭｳｼﾝｾﾝ
 10
461.34978773707729
 20
335.09443685356558
 30
0.0
 11
487.91378773707731
 21
335.0944378498051
 31
0.0
1001
GENIUS_GENODEF_13
1002
{
1000
HIER
1070
     0
1002
}
1002
{
1000
MANEDIT
1070
     0
1002
}
1002
{
1000
NOSEL
1070
     0
1002
}
1002
{
1000
BEHIND
1070
     0
1002
}
1002
{
1000
OTHER
1070
     0
1002
}
1002
{
1000
REACTOR
1002
}
1001
GENIUS_GENOBJ-N-CEN_13
1002
{
1000
OWNER
1000
GEN
1002
}
  0
ARC
  5
16DEB
  8
AM_0
 10
473.80644793536197
 20
307.09444324500612
 30
0.0
 40
4.9999999999999947
 50
356.62771271285618
 51
90.0
1001
GENIUS_GENOBJ-N-FIL_13
1002
{
1000
OWNER
1000
GEN
1002
}
1001
GENIUS_GENODEF_13
1002
{
1000
HIER
1070
     0
1002
}
1002
{
1000
MANEDIT
1070
     0
1002
}
1002
{
1000
NOSEL
1070
     0
1002
}
1002
{
1000
BEHIND
1070
     0
1002
}
1002
{
1000
OTHER
1070
     0
1002
}
1002
{
1000
REACTOR
1002
}
  0
ARC
  5
16DEC
  8
AM_0
 10
490.77701067330349
 20
306.09444306619213
 30
0.0
 40
11.999999999999989
 50
176.62771271285609
 51
273.37228728714382
  0
LINE
  5
16DED
  8
ﾁｭｳｼﾝｾﾝ
 10
474.7769747334213
 20
321.59443735713057
 30
0.0
 11
474.77697373445091
 21
348.23125086708143
 31
0.0
1001
GENIUS_GENODEF_13
1002
{
1000
HIER
1070
     0
1002
}
1002
{
1000
MANEDIT
1070
     0
1002
}
1002
{
1000
NOSEL
1070
     0
1002
}
1002
{
1000
BEHIND
1070
     0
1002
}
1002
{
1000
OTHER
1070
     0
1002
}
1002
{
1000
REACTOR
1002
}
1001
GENIUS_GENOBJ-N-CEN_13
1002
{
1000
OWNER
1000
GEN
1002
}
  0
LINE
  5
16DEE
  8
AM_0
 10
439.77700915338539
 20
312.094443245006
 30
0.0
 11
473.80644793536197
 21
312.094443245006
 31
0.0
  0
LINE
  5
16DEF
  8
AM_7
  6
AM_ISO08W050X2
 10
474.77697422712617
 20
335.09443735713018
 30
0.0
 11
474.77697422712617
 21
335.09443735713018
 31
0.0
1001
GENIUS_GENODEF_13
1002
{
1000
HIER
1070
     0
1002
}
1002
{
1000
MANEDIT
1070
     0
1002
}
1002
{
1000
NOSEL
1070
     0
1002
}
1002
{
1000
BEHIND
1070
     0
1002
}
1002
{
1000
OTHER
1070
     0
1002
}
1002
{
1000
REACTOR
1002
}
1001
GENIUS_GENOBJ-N-CEN_13
1002
{
1000
OWNER
1000
GEN
1002
}
  0
LINE
  5
16DF0
  8
0
 10
487.03505914235308
 20
341.85753359129978
 30
0.0
 11
503.03509225983731
 21
312.85753746383728
 31
0.0
  0
CIRCLE
  5
16DF2
  8
AM_0
 10
490.77701067330349
 20
306.09444306619213
 30
0.0
 40
7.9999999999999929
  0
CIRCLE
  5
16DF3
  8
AM_0
 10
490.77701067330349
 20
306.09444306619213
 30
0.0
 40
10.499999999999989
  0
ARC
  5
16DF4
  8
AM_0
 10
491.7770108521176
 20
289.12388032825078
 30
0.0
 40
4.9999999999999947
 50
0.0
 51
93.37228728714382
1001
GENIUS_GENODEF_13
1002
{
1000
HIER
1070
     0
1002
}
1002
{
1000
MANEDIT
1070
     0
1002
}
1002
{
1000
NOSEL
1070
     0
1002
}
1002
{
1000
BEHIND
1070
     0
1002
}
1002
{
1000
OTHER
1070
     0
1002
}
1002
{
1000
REACTOR
1002
}
1001
GENIUS_GENOBJ-N-FIL_13
1002
{
1000
OWNER
1000
GEN
1002
}
  0
POLYLINE
  5
16DF6
  8
AM_0
 66
     1
 10
0.0
 20
0.0
 30
0.0
 70
     1
  0
VERTEX
  5
183A4
  8
AM_0
 10
490.77701067330349
 20
311.59444306619213
 30
0.0
  0
VERTEX
  5
183A5
  8
AM_0
 10
486.01387095248919
 20
308.84444306619213
 30
0.0
  0
VERTEX
  5
183A6
  8
AM_0
 10
486.01387095248919
 20
303.34444306619213
 30
0.0
  0
VERTEX
  5
183A7
  8
AM_0
 10
490.77701067330349
 20
300.59444306619213
 30
0.0
  0
VERTEX
  5
183A8
  8
AM_0
 10
495.54015039411757
 20
303.34444306619213
 30
0.0
  0
VERTEX
  5
183A9
  8
AM_0
 10
495.54015039411757
 20
308.84444306619213
 30
0.0
  0
SEQEND
  5
183AA
  8
AM_0
  0
ARC
  5
16DF7
  8
AM_0
 10
490.77701067330349
 20
306.09444306619213
 30
0.0
 40
12.00000035762786
 50
0.0
 51
90.000002504475205
  0
ARC
  5
16DF8
  8
AM_0
 10
490.77701067330349
 20
306.09444306619241
 30
0.0
 40
14.00000035762786
 50
0.0
 51
28.886635164657829
  0
LINE
  5
16DFF
  8
AM_0
 10
799.92976693568312
 20
159.0944415164717
 30
0.0
 11
799.92976693568312
 21
349.09444151647119
 31
0.0
  0
ARC
  5
16E00
  8
AM_0
 10
667.06578302468802
 20
279.09386151647118
 30
0.0
 40
1.0006207999999981
 50
90.515970000001047
 51
267.19250000000471
  0
ARC
  5
16E01
  8
AM_0
 10
669.540303024688
 20
279.08487151647142
 30
0.0
 40
1.090437399999999
 50
92.287669999999238
 51
269.81468999999669
  0
LINE
  5
16E03
  8
AM_0
 10
680.93676393497924
 20
191.4559508801679
 30
0.0
 11
680.93676393497924
 21
316.73296267035403
 31
0.0
  0
LINE
  5
16E04
  8
AM_0
 10
758.93677388895503
 20
190.09443960912299
 30
0.0
 11
758.93677388895503
 21
318.09444342381988
 31
0.0
  0
LINE
  5
16E05
  8
AM_0
 10
676.93677144516505
 20
216.59444039888459
 30
0.0
 11
676.93677144516505
 21
291.5944426340584
 31
0.0
  0
ARC
  5
16E06
  8
AM_0
 10
729.95368302468785
 20
254.08444151647171
 30
0.0
 40
64.014987999999931
 50
145.91379204811599
 51
160.91677546541911
  0
LINE
  5
16E07
  8
ﾁｭｳｼﾝｾﾝ1
 10
729.92976693569301
 20
149.3836542193549
 30
0.0
 11
729.92976693569301
 21
325.0370180036723
 31
0.0
  0
ARC
  5
16E08
  8
AM_0
 10
729.95368302468785
 20
254.08444151647171
 30
0.0
 40
64.014987999999931
 50
199.06075530302539
 51
214.08620795188389
  0
LINE
  5
16E09
  8
AM_0
 10
672.93677132595553
 20
276.59444218702362
 30
0.0
 11
676.93677144516505
 21
276.59444218702362
 31
0.0
  0
LINE
  5
16E0B
  8
AM_0
 10
672.93677132595553
 20
231.59444084591939
 30
0.0
 11
676.93677144516505
 21
231.59444084591939
 31
0.0
  0
LINE
  5
16E0C
  8
AM_0
 10
676.93677302468825
 20
217.80797763264459
 30
0.0
 11
669.07678302468798
 21
218.09444651647161
 31
0.0
  0
LINE
  5
16E0D
  8
AM_0
 10
678.93676393497924
 20
210.0944399667504
 30
0.0
 11
668.93676393497924
 21
210.0944399667504
 31
0.0
  0
LINE
  5
16E0E
  8
AM_0
 10
668.93676393497924
 20
194.0944399667506
 30
0.0
 11
678.93676393497924
 21
194.0944399667506
 31
0.0
  0
LINE
  5
16E0F
  8
ﾁｭｳｼﾝｾﾝ1
 10
614.31283540840889
 20
254.09444151647159
 30
0.0
 11
808.84505837955135
 21
254.09444151647131
 31
0.0
  0
LINE
  5
16E10
  8
0
 10
661.92976693570324
 20
236.59444151647151
 30
0.0
 11
672.93677132595553
 21
231.59444084591939
 31
0.0
  0
LINE
  5
16E11
  8
AM_0
 10
672.93677132595553
 20
276.59444218702362
 30
0.0
 11
672.93677132595553
 21
231.59444084591939
 31
0.0
  0
LINE
  5
16E12
  8
AM_0
 10
668.93676393497924
 20
210.0944399667504
 30
0.0
 11
668.93676393497924
 21
194.0944399667506
 31
0.0
  0
LINE
  5
16E13
  8
AM_0
 10
668.43677302468802
 20
224.31443951647151
 30
0.0
 11
666.41678302468802
 21
224.45443951647169
 31
0.0
  0
ARC
  5
16E14
  8
AM_0
 10
666.45101302468777
 20
224.96769151647149
 30
0.0
 40
0.5143923799999997
 50
181.47632999999809
 51
266.1853900000005
  0
LINE
  5
16E15
  8
AM_0
 10
668.436783024688
 20
229.09443851647151
 30
0.0
 11
668.436783024688
 21
219.83444451647179
 31
0.0
  0
ARC
  5
16E16
  8
AM_0
 10
669.12267302468808
 20
219.09495751647151
 30
0.0
 40
1.000534899999999
 50
92.628309999997001
 51
269.66321999999968
  0
LINE
  5
16E17
  8
AM_0
 10
675.53825927302478
 20
220.31347739483959
 30
0.0
 11
669.07678302468798
 21
220.09443851647151
 31
0.0
  0
LINE
  5
16E18
  8
AM_0
 10
668.436783024688
 20
228.03444051647151
 30
0.0
 11
667.01679302468801
 21
228.0944385164718
 31
0.0
  0
LINE
  5
16E19
  8
AM_0
 10
670.52293427047675
 20
230.21474652188579
 30
0.0
 11
667.01677302468795
 21
230.0944385164716
 31
0.0
  0
LINE
  5
16E1A
  8
AM_0
 10
668.436783024688
 20
226.8544405164715
 30
0.0
 11
666.41678302468802
 21
226.7144415164716
 31
0.0
  0
ARC
  5
16E1B
  8
AM_0
 10
667.06595302468804
 20
229.09502651647179
 30
0.0
 40
1.000625599999998
 50
92.817069999998438
 51
269.4744600000011
  0
ARC
  5
16E1C
  8
AM_0
 10
666.43714302468788
 20
226.21450251647161
 30
0.0
 40
0.5003520299999995
 50
92.331169999999688
 51
180.00710999999771
  0
LINE
  5
16E1D
  8
AM_0
 10
665.93678302468777
 20
225.59443851647131
 30
0.0
 11
665.93678302468777
 21
226.2144415164714
 31
0.0
  0
LINE
  5
16E1E
  8
AM_0
 10
665.93678302468777
 20
225.59443851647131
 30
0.0
 11
665.93678302468777
 21
224.9544395164715
 31
0.0
  0
LINE
  5
16E1F
  8
AM_0
 10
671.49138099957656
 20
227.9330718708226
 30
0.0
 11
669.49678302468783
 21
227.99444051647151
 31
0.0
  0
ARC
  5
16E20
  8
AM_0
 10
669.540303024688
 20
229.08487151647179
 30
0.0
 40
1.090437399999999
 50
92.287669999999238
 51
269.814680000002
  0
LINE
  5
16E21
  8
0
 10
619.92976693570324
 20
271.09444151647148
 30
0.0
 11
651.92976693570324
 21
271.09444151647148
 31
0.0
  0
LINE
  5
16E22
  8
0
 10
619.92976693570324
 20
268.09444151647148
 30
0.0
 11
661.92976693570324
 21
268.09444151647148
 31
0.0
  0
LINE
  5
16E23
  8
0
 10
619.92976693570324
 20
240.09444151647139
 30
0.0
 11
661.92976693570324
 21
240.09444151647139
 31
0.0
  0
LINE
  5
16E24
  8
AM_0
 10
619.92976693570324
 20
240.09444151647139
 30
0.0
 11
619.92976693570324
 21
271.09444151647148
 31
0.0
  0
LINE
  5
16E26
  8
0
 10
661.92976693570324
 20
271.59444151647142
 30
0.0
 11
661.92976693570324
 21
236.59444151647151
 31
0.0
  0
LINE
  5
16E2D
  8
0
 10
651.92976693570324
 20
271.09444151647148
 30
0.0
 11
651.92976693570324
 21
268.09444151647148
 31
0.0
  0
LINE
  5
16E31
  8
0
 10
661.92976693570324
 20
271.59444151647142
 30
0.0
 11
672.93677132595553
 21
276.59444218702362
 31
0.0
  0
LINE
  5
16E32
  8
AM_0
 10
670.54034858742796
 20
277.97353460546151
 30
0.0
 11
667.01679302468801
 21
278.09444151647131
 31
0.0
  0
LINE
  5
16E3A
  8
AM_0
 10
678.93676393497924
 20
191.59443996675051
 30
0.0
 11
678.93676393497924
 21
212.59443996675051
 31
0.0
  0
LINE
  5
16E42
  8
AM_0
 10
758.93677388895503
 20
190.09443960912299
 30
0.0
 11
680.93676393497924
 21
191.4559508801679
 31
0.0
  0
LINE
  5
17132
  8
AM_0
 10
678.93676393497924
 20
191.59443996675051
 30
0.0
 11
680.93676393497924
 21
191.59443996675051
 31
0.0
  0
LINE
  5
173EC
  8
0
 10
758.93677388895503
 20
190.09443960912259
 30
0.0
 11
781.03446542579059
 21
189.32277121666499
 31
0.0
  0
LINE
  5
173FD
  8
AM_0
 10
783.92976693568312
 20
186.32459873560759
 30
0.0
 11
783.92976693568312
 21
161.5845513779536
 31
0.0
  0
LINE
  5
17400
  8
0
 10
785.8599679422781
 20
159.58576972391529
 30
0.0
 11
799.92976693568312
 21
159.0944415164717
 31
0.0
  0
ARC
  5
17401
  8
0
 10
785.92976693568312
 20
161.5845513779536
 30
0.0
 40
1.9999999999999989
 50
180.0
 51
267.99999999999949
1001
GENIUS_GENOBJ-N-FIL_13
1002
{
1000
OWNER
1000
GEN
1002
}
1001
GENIUS_GENODEF_13
1002
{
1000
HIER
1070
     0
1002
}
1002
{
1000
MANEDIT
1070
     0
1002
}
1002
{
1000
NOSEL
1070
     0
1002
}
1002
{
1000
BEHIND
1070
     0
1002
}
1002
{
1000
OTHER
1070
     0
1002
}
1002
{
1000
REACTOR
1002
}
  0
ARC
  5
17405
  8
0
 10
780.92976693568312
 20
186.32459873560759
 30
0.0
 40
3.0
 50
0.0
 51
87.999999999999517
1001
GENIUS_GENOBJ-N-FIL_13
1002
{
1000
OWNER
1000
GEN
1002
}
1001
GENIUS_GENODEF_13
1002
{
1000
HIER
1070
     0
1002
}
1002
{
1000
MANEDIT
1070
     0
1002
}
1002
{
1000
NOSEL
1070
     0
1002
}
1002
{
1000
BEHIND
1070
     0
1002
}
1002
{
1000
OTHER
1070
     0
1002
}
1002
{
1000
REACTOR
1002
}
  0
LINE
  5
17408
  8
AM_0
 10
678.43678302468777
 20
210.0944399667504
 30
0.0
 11
678.43678302468777
 21
215.111165659416
 31
0.0
  0
LINE
  5
17409
  8
AM_0
 10
678.93676393497924
 20
212.59443996675051
 30
0.0
 11
680.93676393497924
 21
212.59443996675051
 31
0.0
  0
ARC
  5
1740A
  8
AM_0
 10
675.43678302468766
 20
215.111165659416
 30
0.0
 40
2.999999999999996
 50
0.0
 51
29.631860164016359
1001
GENIUS_GENOBJ-N-FIL_13
1002
{
1000
OWNER
1000
GEN
1002
}
1001
GENIUS_GENODEF_13
1002
{
1000
HIER
1070
     0
1002
}
1002
{
1000
MANEDIT
1070
     0
1002
}
1002
{
1000
NOSEL
1070
     0
1002
}
1002
{
1000
BEHIND
1070
     0
1002
}
1002
{
1000
OTHER
1070
     0
1002
}
1002
{
1000
REACTOR
1002
}
  0
LINE
  5
1740B
  8
AM_0
 10
676.93677144516505
 20
216.59444039888459
 30
0.0
 11
680.93677156437423
 21
216.59444039888459
 31
0.0
  0
LINE
  5
1741D
  8
AM_0
 10
678.93676393497924
 20
314.0944430661923
 30
0.0
 11
668.93676393497924
 21
314.0944430661923
 31
0.0
  0
LINE
  5
1741E
  8
AM_0
 10
668.93676393497924
 20
298.09444306619253
 30
0.0
 11
678.93676393497924
 21
298.09444306619253
 31
0.0
  0
LINE
  5
1741F
  8
AM_0
 10
676.93677302468768
 20
290.36300551910023
 30
0.0
 11
669.0767730246879
 21
290.09444151647131
 31
0.0
  0
LINE
  5
17420
  8
AM_0
 10
668.93676393497924
 20
314.0944430661923
 30
0.0
 11
668.93676393497924
 21
298.09444306619253
 31
0.0
  0
ARC
  5
17421
  8
AM_0
 10
669.12250302468794
 20
289.09392151647148
 30
0.0
 40
1.000530599999998
 50
90.327200000001042
 51
267.38127000000139
  0
LINE
  5
17422
  8
AM_0
 10
668.43677302468802
 20
283.87444151647151
 30
0.0
 11
666.41678302468802
 21
283.71443151647128
 31
0.0
  0
LINE
  5
17423
  8
AM_0
 10
668.436783024688
 20
280.13445151647147
 30
0.0
 11
667.01679302468801
 21
280.09444151647148
 31
0.0
  0
LINE
  5
17424
  8
AM_0
 10
668.43677302468802
 20
281.31444151647139
 30
0.0
 11
666.41678302468802
 21
281.4544415164716
 31
0.0
  0
ARC
  5
17425
  8
AM_0
 10
666.43714302468788
 20
283.2145115164713
 30
0.0
 40
0.5003520299999995
 50
92.331169999999688
 51
180.00710999999771
  0
LINE
  5
17426
  8
AM_0
 10
665.93678302468777
 20
282.59444151647131
 30
0.0
 11
665.93678302468777
 21
283.21443151647151
 31
0.0
  0
ARC
  5
17427
  8
AM_0
 10
666.45101302468777
 20
281.96770151647149
 30
0.0
 40
0.5143923799999997
 50
181.47632999999809
 51
266.1853900000005
  0
LINE
  5
17428
  8
AM_0
 10
665.93678302468777
 20
282.59444151647131
 30
0.0
 11
665.93678302468777
 21
281.95444151647149
 31
0.0
  0
LINE
  5
17429
  8
AM_0
 10
671.50926759954473
 20
280.25184506705671
 30
0.0
 11
669.49678302468783
 21
280.17444151647152
 31
0.0
  0
LINE
  5
1742A
  8
AM_0
 10
668.436783024688
 20
288.3544515164715
 30
0.0
 11
668.436783024688
 21
279.09444151647142
 31
0.0
  0
LINE
  5
1742B
  8
AM_0
 10
675.55383941512912
 20
287.85658317747499
 30
0.0
 11
669.07678302468798
 21
288.09444151647142
 31
0.0
  0
LINE
  5
17430
  8
AM_0
 10
758.93677388895503
 20
318.09444342381988
 30
0.0
 11
680.93676393497924
 21
316.73296267035403
 31
0.0
  0
LINE
  5
17431
  8
AM_0
 10
678.93676393497924
 20
295.59444306619213
 30
0.0
 11
678.93676393497924
 21
316.59444306619213
 31
0.0
  0
LINE
  5
17432
  8
AM_0
 10
678.43678302468777
 20
293.057717373527
 30
0.0
 11
678.43678302468777
 21
298.09444306619253
 31
0.0
  0
LINE
  5
17433
  8
AM_0
 10
678.93676393497924
 20
295.59444306619213
 30
0.0
 11
680.93676393497924
 21
295.59444306619213
 31
0.0
  0
LINE
  5
17434
  8
AM_0
 10
676.93677144516505
 20
291.5944426340584
 30
0.0
 11
680.93677156437423
 21
291.5944426340584
 31
0.0
  0
ARC
  5
17435
  8
AM_0
 10
675.43678302468766
 20
293.057717373527
 30
0.0
 40
2.999999999999996
 50
330.80663173194762
 51
0.0
1001
GENIUS_GENOBJ-N-FIL_13
1002
{
1000
OWNER
1000
GEN
1002
}
1001
GENIUS_GENODEF_13
1002
{
1000
HIER
1070
     0
1002
}
1002
{
1000
MANEDIT
1070
     0
1002
}
1002
{
1000
NOSEL
1070
     0
1002
}
1002
{
1000
BEHIND
1070
     0
1002
}
1002
{
1000
OTHER
1070
     0
1002
}
1002
{
1000
REACTOR
1002
}
  0
LINE
  5
17436
  8
AM_0
 10
678.93676393497924
 20
316.59444306619213
 30
0.0
 11
680.93676393497924
 21
316.59444306619213
 31
0.0
  0
ARC
  5
17437
  8
AM_0
 10
704.93701302468821
 20
316.9782295164714
 30
0.0
 40
1.000393499999997
 50
10.993529635258341
 51
179.0714379999965
  0
ARC
  5
17439
  8
AM_0
 10
729.92673302468791
 20
254.08809151647131
 30
0.0
 40
64.00635100000008
 50
89.991012616410785
 51
98.280567367618005
  0
LINE
  5
1743A
  8
AM_0
 10
715.97226767464508
 20
317.34448438127117
 30
0.0
 11
715.9367430246881
 21
318.3744435164715
 31
0.0
  0
LINE
  5
1743B
  8
AM_0
 10
713.89922893306755
 20
317.30829892578578
 30
0.0
 11
713.93677302468814
 21
318.37444751647149
 31
0.0
  0
ARC
  5
1743C
  8
AM_0
 10
714.93717302468815
 20
318.33375151647118
 30
0.0
 40
1.000413999999999
 50
2.331049999997953
 51
179.96048300000029
  0
ARC
  5
1743D
  8
AM_0
 10
724.93732302468811
 20
319.00669851647137
 30
0.0
 40
1.0005847999999991
 50
2.7350400000044188
 51
179.5564910000007
  0
LINE
  5
1743E
  8
AM_0
 10
723.89427878816196
 20
317.82210594897202
 30
0.0
 11
723.93677302468791
 21
319.05443951647158
 31
0.0
  0
LINE
  5
1743F
  8
AM_0
 10
725.96381789579334
 20
317.98563535148639
 30
0.0
 11
725.9367730246878
 21
319.05444351647162
 31
0.0
  0
ARC
  5
17440
  8
AM_0
 10
734.93619302468801
 20
319.00601951647138
 30
0.0
 40
1.000603799999999
 50
0.4821899999981744
 51
177.2262829999969
  0
ARC
  5
17441
  8
AM_0
 10
729.92673302468791
 20
254.08809151647131
 30
0.0
 40
64.00635100000008
 50
83.719456375074856
 51
89.991012616410785
  0
LINE
  5
17443
  8
AM_0
 10
733.89637067563569
 20
317.99051233817499
 30
0.0
 11
733.93677302468814
 21
319.05443951647158
 31
0.0
  0
LINE
  5
17447
  8
AM_0
 10
735.97905346536174
 20
317.82830814627818
 30
0.0
 11
735.93677302468768
 21
319.05443951647158
 31
0.0
  0
LINE
  5
1744A
  8
AM_0
 10
783.92976693568312
 20
321.86428429733502
 30
0.0
 11
783.92976693568312
 21
346.60433165498898
 31
0.0
  0
LINE
  5
1744B
  8
0
 10
758.93677388895503
 20
318.09444342382028
 30
0.0
 11
781.03446542579059
 21
318.86611181627779
 31
0.0
  0
LINE
  5
1744D
  8
AM_0
 10
745.95461315831233
 20
317.86783438244811
 30
0.0
 11
745.93677302468791
 21
318.3744435164715
 31
0.0
  0
LINE
  5
1744E
  8
AM_0
 10
743.91808031210667
 20
317.83228614730302
 30
0.0
 11
743.93677302468814
 21
318.3744435164715
 31
0.0
  0
ARC
  5
1744F
  8
AM_0
 10
744.93634302468786
 20
318.33307651647118
 30
0.0
 40
1.0004281999999971
 50
0.078219999997982
 51
177.63024800000301
  0
ARC
  5
1745D
  8
0
 10
780.92976693568312
 20
321.86428429733502
 30
0.0
 40
3.0
 50
272.00000000000051
 51
0.0
1001
GENIUS_GENODEF_13
1002
{
1000
HIER
1070
     0
1002
}
1002
{
1000
MANEDIT
1070
     0
1002
}
1002
{
1000
NOSEL
1070
     0
1002
}
1002
{
1000
BEHIND
1070
     0
1002
}
1002
{
1000
OTHER
1070
     0
1002
}
1002
{
1000
REACTOR
1002
}
1001
GENIUS_GENOBJ-N-FIL_13
1002
{
1000
OWNER
1000
GEN
1002
}
  0
LINE
  5
17467
  8
0
 10
785.8599679422781
 20
348.60311330902732
 30
0.0
 11
799.92976693568312
 21
349.09444151647119
 31
0.0
  0
ARC
  5
17468
  8
0
 10
785.92976693568312
 20
346.60433165498898
 30
0.0
 40
1.9999999999999989
 50
92.000000000000483
 51
180.0
1001
GENIUS_GENOBJ-N-FIL_13
1002
{
1000
OWNER
1000
GEN
1002
}
1001
GENIUS_GENODEF_13
1002
{
1000
HIER
1070
     0
1002
}
1002
{
1000
MANEDIT
1070
     0
1002
}
1002
{
1000
NOSEL
1070
     0
1002
}
1002
{
1000
BEHIND
1070
     0
1002
}
1002
{
1000
OTHER
1070
     0
1002
}
1002
{
1000
REACTOR
1002
}
  0
LINE
  5
17632
  8
AM_0
 10
247.7769753873533
 20
281.0944067143364
 30
0.0
 11
247.7769753873533
 21
286.46440671433652
 31
0.0
  0
LINE
  5
17633
  8
AM_0
 10
262.77697538735327
 20
281.09440671433651
 30
0.0
 11
262.77697538735327
 21
286.46440671433652
 31
0.0
  0
LINE
  5
17635
  8
AM_0
 10
284.27697538735327
 20
193.5944067143364
 30
0.0
 11
284.2769751311057
 21
317.0944070146441
 31
0.0
  0
LINE
  5
17636
  8
AM_0
 10
138.27697538735339
 20
311.51438671433652
 30
0.0
 11
138.27697538735339
 21
196.6643867143365
 31
0.0
  0
LINE
  5
17637
  8
AM_0
 10
132.27697538735339
 20
302.11399671433651
 30
0.0
 11
132.27697538735339
 21
259.09440671433663
 31
0.0
  0
ARC
  5
17638
  8
AM_0
 10
199.7769753873531
 20
168.5944367143365
 30
0.0
 40
7.4999999999999956
 50
270.0
 51
0.0000000000000325
  0
ARC
  5
17639
  8
AM_0
 10
198.7769753873531
 20
169.59443671433641
 30
0.0
 40
7.5000000000000018
 50
180.0
 51
0.0000000000000325
  0
LINE
  5
1763A
  8
AM_0
 10
263.2769753873531
 20
157.09443671433641
 30
0.0
 11
188.2769753873531
 21
157.09443671433641
 31
0.0
  0
LINE
  5
1763B
  8
AM_0
 10
185.7769753873531
 20
177.0944367143363
 30
0.0
 11
265.7769753873531
 21
177.0944367143363
 31
0.0
  0
LINE
  5
1763C
  8
AM_0
 10
265.77697538735322
 20
180.59443671433641
 30
0.0
 11
185.7769753873531
 21
180.5944367143363
 31
0.0
  0
LINE
  5
1763D
  8
AM_0
 10
246.7769753873533
 20
280.0944067143364
 30
0.0
 11
145.82699538735329
 21
280.0944067143364
 31
0.0
  0
LINE
  5
1763E
  8
AM_0
 10
281.20176147387861
 20
278.09440671433651
 30
0.0
 11
145.82699538735329
 21
278.0944067143364
 31
0.0
  0
LINE
  5
1763F
  8
AM_0
 10
144.73699538735329
 20
277.66438671433639
 30
0.0
 11
282.12173153590919
 21
277.6643867143365
 31
0.0
  0
LINE
  5
17640
  8
AM_0
 10
144.73699538735329
 20
280.58439671433672
 30
0.0
 11
247.63714385916569
 21
280.58439671433672
 31
0.0
  0
LINE
  5
17641
  8
AM_0
 10
144.60698538735329
 20
267.7844067143364
 30
0.0
 11
217.007002057069
 21
267.7844067143364
 31
0.0
  0
LINE
  5
17642
  8
AM_0
 10
215.71700758179989
 20
268.0944067143364
 30
0.0
 11
145.82699538735329
 21
268.0944067143364
 31
0.0
  0
LINE
  5
17643
  8
AM_0
 10
215.71700758179989
 20
270.0944067143364
 30
0.0
 11
145.82699538735329
 21
270.0944067143364
 31
0.0
  0
LINE
  5
17644
  8
AM_0
 10
144.60698538735329
 20
270.44438671433659
 30
0.0
 11
217.007002057069
 21
270.44438671433659
 31
0.0
  0
LINE
  5
17646
  8
AM_0
 10
184.27697538735339
 20
207.7544667143363
 30
0.0
 11
278.09698538735353
 21
207.7544667143365
 31
0.0
  0
LINE
  5
17647
  8
AM_0
 10
246.7879296741807
 20
228.09440671433649
 30
0.0
 11
154.82699538735309
 21
228.0944067143364
 31
0.0
  0
LINE
  5
17648
  8
AM_0
 10
281.20176147387861
 20
230.09440671433649
 30
0.0
 11
154.82699538735309
 21
230.0944067143364
 31
0.0
  0
LINE
  5
17649
  8
AM_0
 10
153.7369953873534
 20
227.60438671433641
 30
0.0
 11
247.63719721548841
 21
227.60438671433641
 31
0.0
  0
LINE
  5
1764A
  8
AM_0
 10
153.7369953873534
 20
230.5344067143364
 30
0.0
 11
282.29176142151857
 21
230.5344067143364
 31
0.0
  0
LINE
  5
1764B
  8
AM_0
 10
153.9569953873532
 20
217.3744067143366
 30
0.0
 11
218.2769753873533
 21
217.3744067143366
 31
0.0
  0
LINE
  5
1764C
  8
AM_0
 10
163.27697538735339
 20
188.1743967143363
 30
0.0
 11
204.2769753873531
 21
188.1743967143363
 31
0.0
  0
LINE
  5
1764D
  8
AM_0
 10
163.27697538735339
 20
188.8543867143363
 30
0.0
 11
204.2769753873531
 21
188.8543867143363
 31
0.0
  0
LINE
  5
1764E
  8
AM_0
 10
163.27697538735339
 20
190.2043967143363
 30
0.0
 11
204.2769753873531
 21
190.2043967143363
 31
0.0
  0
LINE
  5
1764F
  8
AM_0
 10
163.27697538735339
 20
192.23438671433649
 30
0.0
 11
218.2769753873533
 21
192.23438671433649
 31
0.0
  0
LINE
  5
17650
  8
AM_0
 10
218.2769753873533
 20
218.09440671433649
 30
0.0
 11
154.82699538735309
 21
218.0944067143364
 31
0.0
  0
LINE
  5
17651
  8
AM_0
 10
144.53698538735341
 20
257.83439671433638
 30
0.0
 11
217.007002057069
 21
257.83439671433638
 31
0.0
  0
LINE
  5
17652
  8
AM_0
 10
215.71700758179989
 20
258.0944067143364
 30
0.0
 11
145.82699538735329
 21
258.0944067143364
 31
0.0
  0
LINE
  5
17653
  8
AM_0
 10
215.71700758179989
 20
260.0944067143364
 30
0.0
 11
145.82699538735329
 21
260.0944067143364
 31
0.0
  0
LINE
  5
17654
  8
AM_0
 10
144.53698538735341
 20
260.3744067143366
 30
0.0
 11
217.007002057069
 21
260.3744067143366
 31
0.0
  0
LINE
  5
17655
  8
AM_0
 10
215.7187353309663
 20
238.0944067143364
 30
0.0
 11
145.8370053873534
 21
238.0944067143364
 31
0.0
  0
LINE
  5
17656
  8
AM_0
 10
215.7196588307329
 20
240.0944067143364
 30
0.0
 11
145.8370053873534
 21
240.0944067143364
 31
0.0
  0
LINE
  5
17657
  8
AM_0
 10
215.71700417636339
 20
248.0944067143364
 30
0.0
 11
145.8370053873534
 21
248.0944067143364
 31
0.0
  0
LINE
  5
17658
  8
AM_0
 10
215.7170041763618
 20
250.0944067143364
 30
0.0
 11
145.8370053873534
 21
250.0944067143364
 31
0.0
  0
LINE
  5
17659
  8
AM_0
 10
153.9569953873532
 20
220.72441671433651
 30
0.0
 11
218.2769753873533
 21
220.72441671433651
 31
0.0
  0
LINE
  5
1765A
  8
AM_0
 10
144.60698538735329
 20
237.75440671433651
 30
0.0
 11
216.81218865489021
 21
237.75440671433651
 31
0.0
  0
LINE
  5
1765B
  8
AM_0
 10
144.60698538735329
 20
240.4143867143365
 30
0.0
 11
216.81218865489021
 21
240.4143867143365
 31
0.0
  0
LINE
  5
1765C
  8
AM_0
 10
144.54699538735341
 20
247.8243867143365
 30
0.0
 11
216.81218865489021
 21
247.8243867143365
 31
0.0
  0
LINE
  5
1765D
  8
AM_0
 10
144.54699538735341
 20
250.35438671433641
 30
0.0
 11
216.81218865489021
 21
250.35438671433641
 31
0.0
  0
LINE
  5
1765E
  8
AM_0
 10
218.2769753873533
 20
220.09440671433649
 30
0.0
 11
154.82699538735309
 21
220.0944067143364
 31
0.0
  0
LINE
  5
17668
  8
AM_0
 10
144.4670053873534
 20
193.96440671433649
 30
0.0
 11
143.54699538735341
 21
197.84440671433649
 31
0.0
  0
LINE
  5
17669
  8
AM_0
 10
144.44701538735339
 20
192.30439671433641
 30
0.0
 11
143.56701538735331
 21
195.83439671433641
 31
0.0
  0
LINE
  5
1766A
  8
AM_0
 10
161.2769753873533
 20
192.2043967143365
 30
0.0
 11
161.2769753873533
 21
199.61439671433641
 31
0.0
  0
ARC
  5
1766B
  8
AM_0
 10
159.7752053873534
 20
194.3225867143365
 30
0.0
 40
1.5017978999999979
 50
0.0685499999989766
 51
89.931450000001121
  0
LINE
  5
1766D
  8
AM_0
 10
146.41698538735341
 20
192.4243967143365
 30
0.0
 11
159.7769753873533
 21
192.4243967143365
 31
0.0
  0
LINE
  5
1766E
  8
AM_0
 10
146.38698538735341
 20
190.7943867143365
 30
0.0
 11
159.88698538735349
 21
190.7943867143365
 31
0.0
  0
ARC
  5
1766F
  8
AM_0
 10
146.38430538735341
 20
192.7921967143364
 30
0.0
 40
1.9977811999999979
 50
194.13223000000309
 51
270.07691900000231
  0
ARC
  5
17670
  8
AM_0
 10
146.40978538735339
 20
194.41987671433651
 30
0.0
 40
1.995482299999999
 50
193.19407999999891
 51
270.20654200000092
  0
ARC
  5
17671
  8
AM_0
 10
163.2741953873533
 20
192.2016167143365
 30
0.0
 40
1.9972083999999981
 50
179.91986000000111
 51
270.08014299999962
  0
ARC
  5
17672
  8
AM_0
 10
163.2794753873535
 20
190.16923671433651
 30
0.0
 40
1.994845199999999
 50
194.36280000000011
 51
269.92834199999561
  0
ARC
  5
17673
  8
AM_0
 10
163.27154538735331
 20
190.84895671433651
 30
0.0
 40
1.9945768999999991
 50
179.84400999999721
 51
270.15599200000003
  0
ARC
  5
17674
  8
AM_0
 10
163.27337538735341
 20
194.23078671433649
 30
0.0
 40
1.9963852999999989
 50
179.89615999999739
 51
270.103837
  0
ARC
  5
17675
  8
AM_0
 10
159.8906253873534
 20
189.28752671433651
 30
0.0
 40
1.5068882999999991
 50
14.87692999999925
 51
90.137770000000515
  0
ARC
  5
17676
  8
AM_0
 10
159.77315538735331
 20
190.9205467143365
 30
0.0
 40
1.5038474999999989
 50
0.1463999999965262
 51
89.853600000003524
  0
ARC
  5
17677
  8
AM_0
 10
189.2769753873531
 20
172.5944367143365
 30
0.0
 40
1.0
 50
0.0000000000000325
 51
90.000000000000057
  0
LINE
  5
17678
  8
AM_0
 10
187.2769753873531
 20
173.5944367143365
 30
0.0
 11
187.27697538735319
 21
158.0944367143365
 31
0.0
  0
LINE
  5
17679
  8
AM_0
 10
191.2769753873531
 20
177.0944367143363
 30
0.0
 11
191.2769753873531
 21
169.59443671433641
 31
0.0
  0
LINE
  5
1767A
  8
AM_0
 10
185.7769753873531
 20
180.5944367143363
 30
0.0
 11
185.7769753873531
 21
161.0944367143365
 31
0.0
  0
ARC
  5
1767B
  8
AM_0
 10
198.7769753873531
 20
169.59443671433641
 30
0.0
 40
3.9999999999999978
 50
180.0
 51
0.0000000000000325
  0
LINE
  5
1767C
  8
AM_0
 10
194.7769753873531
 20
177.0944367143363
 30
0.0
 11
194.7769753873531
 21
169.59443671433641
 31
0.0
  0
LINE
  5
1767D
  8
AM_0
 10
202.7769753873531
 20
177.0944367143363
 30
0.0
 11
202.7769753873531
 21
169.59443671433641
 31
0.0
  0
LINE
  5
1767E
  8
AM_0
 10
185.7769753873531
 20
161.0944367143365
 30
0.0
 11
187.27697538735319
 21
161.0944367143365
 31
0.0
  0
ARC
  5
1767F
  8
AM_0
 10
197.7769753873531
 20
168.5944367143365
 30
0.0
 40
7.499999999999992
 50
180.0
 51
270.0
  0
ARC
  5
17680
  8
AM_0
 10
188.2769753873531
 20
158.0944367143365
 30
0.0
 40
1.0
 50
180.0
 51
270.0
  0
LINE
  5
17681
  8
AM_0
 10
199.77697538735319
 20
161.0944367143365
 30
0.0
 11
197.7769753873531
 21
161.0944367143365
 31
0.0
  0
LINE
  5
17682
  8
AM_0
 10
190.2769753873531
 20
172.5944367143365
 30
0.0
 11
190.2769753873531
 21
168.5944367143365
 31
0.0
  0
LINE
  5
17683
  8
AM_0
 10
185.7769753873531
 20
173.5944367143365
 30
0.0
 11
189.2769753873531
 21
173.5944367143365
 31
0.0
  0
LINE
  5
17684
  8
AM_0
 10
137.27697538735339
 20
278.0944067143364
 30
0.0
 11
133.27697538735339
 21
278.0944067143364
 31
0.0
  0
LINE
  5
17685
  8
AM_0
 10
137.27697538735339
 20
280.0944067143364
 30
0.0
 11
133.27697538735339
 21
280.0944067143364
 31
0.0
  0
LINE
  5
17686
  8
AM_0
 10
137.27697538735339
 20
268.0944067143364
 30
0.0
 11
133.27697538735339
 21
268.0944067143364
 31
0.0
  0
LINE
  5
17687
  8
AM_0
 10
137.27697538735339
 20
270.0944067143364
 30
0.0
 11
133.27697538735339
 21
270.0944067143364
 31
0.0
  0
LINE
  5
17688
  8
AM_0
 10
137.27697538735339
 20
260.0944067143364
 30
0.0
 11
133.27697538735339
 21
260.0944067143364
 31
0.0
  0
LINE
  5
17689
  8
AM_0
 10
137.27697538735339
 20
250.0944067143364
 30
0.0
 11
133.27697538735339
 21
250.0944067143364
 31
0.0
  0
LINE
  5
1768A
  8
AM_0
 10
137.27697538735339
 20
258.0944067143364
 30
0.0
 11
133.27697538735339
 21
258.0944067143364
 31
0.0
  0
LINE
  5
1768B
  8
AM_0
 10
137.27697538735339
 20
248.0944067143364
 30
0.0
 11
133.27697538735339
 21
248.0944067143364
 31
0.0
  0
LINE
  5
1768C
  8
AM_0
 10
137.27697538735339
 20
240.0944067143364
 30
0.0
 11
133.27697538735339
 21
240.0944067143364
 31
0.0
  0
LINE
  5
1768D
  8
AM_0
 10
134.4969753873533
 20
218.41438671433639
 30
0.0
 11
137.57699538735321
 21
218.41438671433639
 31
0.0
  0
LINE
  5
1768E
  8
AM_0
 10
137.27697538735339
 20
230.0944067143364
 30
0.0
 11
133.27697538735339
 21
230.0944067143364
 31
0.0
  0
LINE
  5
1768F
  8
AM_0
 10
137.27697538735339
 20
238.0944067143364
 30
0.0
 11
133.27697538735339
 21
238.0944067143364
 31
0.0
  0
LINE
  5
17690
  8
AM_0
 10
137.27697538735339
 20
228.0944067143364
 30
0.0
 11
133.27697538735339
 21
228.0944067143364
 31
0.0
  0
LINE
  5
17691
  8
AM_0
 10
134.4369753873533
 20
220.35438671433641
 30
0.0
 11
137.27697538735339
 21
220.35438671433641
 31
0.0
  0
LINE
  5
17692
  8
AM_0
 10
134.57699538735329
 20
210.9744167143364
 30
0.0
 11
138.27697538735339
 21
210.9744167143364
 31
0.0
  0
LINE
  5
17693
  8
AM_0
 10
134.55697538735339
 20
206.45439671433641
 30
0.0
 11
138.27697538735339
 21
206.45439671433641
 31
0.0
  0
LINE
  5
17694
  8
AM_0
 10
134.55697538735339
 20
212.11439671433641
 30
0.0
 11
137.27697538735339
 21
212.11439671433641
 31
0.0
  0
LINE
  5
17695
  8
AM_0
 10
134.53698538735341
 20
207.5944067143364
 30
0.0
 11
137.27697538735339
 21
207.5944067143364
 31
0.0
  0
LINE
  5
17696
  8
AM_0
 10
134.51699538735329
 20
205.49439671433649
 30
0.0
 11
137.77697538735319
 21
205.49439671433649
 31
0.0
  0
LINE
  5
17697
  8
AM_0
 10
134.55697538735339
 20
204.3543867143363
 30
0.0
 11
137.77697538735319
 21
204.3543867143363
 31
0.0
  0
LINE
  5
17698
  8
AM_0
 10
129.78307538735339
 20
238.87257671433659
 30
0.0
 11
130.28307538735351
 21
236.1025867143363
 31
0.0
  0
ARC
  5
17699
  8
AM_0
 10
133.2860653873534
 20
239.10349671433639
 30
0.0
 40
1.009131199999999
 50
180.51612999999961
 51
269.48387399999899
  0
LINE
  5
1769A
  8
AM_0
 10
132.27697538735339
 20
206.07478671433651
 30
0.0
 11
132.27697538735339
 21
249.0944067143366
 31
0.0
  0
LINE
  5
1769B
  8
AM_0
 10
130.77697538735339
 20
274.09440671433663
 30
0.0
 11
130.77697538735339
 21
234.09440671433649
 31
0.0
  0
ARC
  5
1769D
  8
AM_0
 10
133.28414538735331
 20
206.08457671433641
 30
0.0
 40
1.007194199999998
 50
179.44232000000011
 51
239.76658000000199
  0
LINE
  5
1769E
  8
AM_0
 10
134.07699538735309
 20
205.61439671433641
 30
0.0
 11
132.83697538735339
 21
206.23438671433641
 31
0.0
  0
LINE
  5
1769F
  8
AM_0
 10
134.27697538735339
 20
204.61439671433641
 30
0.0
 11
134.27697538735339
 21
205.1343867143365
 31
0.0
  0
LINE
  5
176A0
  8
AM_0
 10
134.05700538735331
 20
204.4943967143364
 30
0.0
 11
132.77700538735331
 21
205.21440671433641
 31
0.0
  0
ARC
  5
176A1
  8
AM_0
 10
134.56786538735329
 20
205.35615671433649
 30
0.0
 40
1.001807999999998
 50
239.33833000000519
 51
269.37718000000268
  0
ARC
  5
176A2
  8
AM_0
 10
134.55456538735331
 20
206.4988267143365
 30
0.0
 40
1.005138299999998
 50
241.63205999999801
 51
267.85770900000261
  0
ARC
  5
176A3
  8
AM_0
 10
133.2787153873534
 20
212.8370267143365
 30
0.0
 40
1.0017338999999981
 50
180.14953999999739
 51
237.26236999999591
  0
ARC
  5
176A4
  8
AM_0
 10
133.2825253873533
 20
213.8636667143364
 30
0.0
 40
1.005592899999999
 50
180.52837999999889
 51
239.81866999999991
  0
ARC
  5
176A5
  8
AM_0
 10
133.2819753873533
 20
209.2654267143364
 30
0.0
 40
1.0050607999999981
 50
180.62839999999889
 51
242.44118999999611
  0
ARC
  5
176A6
  8
AM_0
 10
133.27596538735341
 20
208.2398567143365
 30
0.0
 40
0.9989832599999996
 50
180.312389999999
 51
240.03463999999681
  0
LINE
  5
176A7
  8
AM_0
 10
134.27697538735339
 20
211.2743967143366
 30
0.0
 11
134.27697538735339
 21
211.7544067143364
 31
0.0
  0
LINE
  5
176A8
  8
AM_0
 10
134.27697538735339
 20
206.71440671433649
 30
0.0
 11
134.27697538735339
 21
207.25440671433651
 31
0.0
  0
LINE
  5
176A9
  8
AM_0
 10
134.05700538735331
 20
212.2544067143364
 30
0.0
 11
132.77700538735331
 21
212.99443671433639
 31
0.0
  0
LINE
  5
176AA
  8
AM_0
 10
134.05697538735319
 20
206.59437671433651
 30
0.0
 11
132.77697538735339
 21
207.37437671433651
 31
0.0
  0
LINE
  5
176AB
  8
AM_0
 10
134.0369853873533
 20
211.1343867143365
 30
0.0
 11
132.73696538735339
 21
211.99436671433639
 31
0.0
  0
LINE
  5
176AC
  8
AM_0
 10
134.05697538735319
 20
207.71440671433641
 30
0.0
 11
132.81698538735341
 21
208.37437671433639
 31
0.0
  0
ARC
  5
176AD
  8
AM_0
 10
133.2800253873535
 20
207.13429671433639
 30
0.0
 40
1.003051899999998
 50
179.99423000000229
 51
243.7873499999983
  0
ARC
  5
176AE
  8
AM_0
 10
134.58263538735341
 20
211.98469671433639
 30
0.0
 40
1.0103179999999981
 50
237.3114199999988
 51
269.67986000000519
  0
ARC
  5
176AF
  8
AM_0
 10
134.5692353873533
 20
213.12104671433659
 30
0.0
 40
1.0067359999999981
 50
239.41356999999849
 51
269.30193900000148
  0
ARC
  5
176B0
  8
AM_0
 10
134.53527538735341
 20
208.60758671433661
 30
0.0
 40
1.0131911999999981
 50
241.8312399999993
 51
270.09627600000118
  0
ARC
  5
176B1
  8
AM_0
 10
134.57049538735339
 20
207.4654967143365
 30
0.0
 40
1.0112084999999991
 50
239.48119000000241
 51
269.23431300000101
  0
ARC
  5
176B2
  8
AM_0
 10
134.4196453873534
 20
221.3693967143364
 30
0.0
 40
1.015145099999998
 50
253.8323300000007
 51
270.97838100000092
  0
ARC
  5
176B3
  8
AM_0
 10
133.2765153873535
 20
219.93907671433641
 30
0.0
 40
0.9995326999999996
 50
180.26813000000021
 51
247.6849499999995
  0
LINE
  5
176B4
  8
AM_0
 10
134.27697538735339
 20
218.71440671433641
 30
0.0
 11
134.27697538735339
 21
219.77439671433649
 31
0.0
  0
LINE
  5
176B5
  8
AM_0
 10
134.13698538735329
 20
220.39439671433649
 30
0.0
 11
132.99697538735339
 21
220.7543767143365
 31
0.0
  0
ARC
  5
176B6
  8
AM_0
 10
133.28142538735329
 20
221.71772671433629
 30
0.0
 40
1.004450099999999
 50
180.19014999999979
 51
253.54964999999669
  0
LINE
  5
176B7
  8
AM_0
 10
134.0969853873533
 20
218.4943967143364
 30
0.0
 11
132.89699538735329
 21
219.01438671433641
 31
0.0
  0
ARC
  5
176B8
  8
AM_0
 10
134.49022538735329
 20
219.42060671433649
 30
0.0
 40
1.0062370999999981
 50
246.99538000000109
 51
270.38475599999759
  0
LINE
  5
176B9
  8
AM_0
 10
130.77697538735339
 20
234.09437671433651
 30
0.0
 11
132.27697538735339
 21
233.9743767143365
 31
0.0
  0
LINE
  5
176BA
  8
AM_0
 10
130.28307538735351
 20
236.1025867143363
 30
0.0
 11
130.7831053873534
 21
236.14259671433649
 31
0.0
  0
LINE
  5
176BB
  8
AM_0
 10
134.27697538735339
 20
228.4744167143364
 30
0.0
 11
134.27697538735339
 21
229.83439671433649
 31
0.0
  0
ARC
  5
176BC
  8
AM_0
 10
133.26919538735339
 20
229.10221671433629
 30
0.0
 40
0.9922232599999995
 50
89.549149999999173
 51
180.4508400000029
  0
ARC
  5
176BD
  8
AM_0
 10
133.2860653873534
 20
229.10349671433639
 30
0.0
 40
1.009131199999999
 50
180.51612999999961
 51
269.48387399999899
  0
ARC
  5
176BE
  8
AM_0
 10
133.2860653873534
 20
259.08531671433639
 30
0.0
 40
1.009131199999999
 50
90.51612999999962
 51
179.48387000000039
  0
LINE
  5
176BF
  8
AM_0
 10
129.78307538735339
 20
238.87254671433641
 30
0.0
 11
129.78307538735339
 21
269.31617671433651
 31
0.0
  0
LINE
  5
176C0
  8
AM_0
 10
134.27697538735339
 20
248.4943967143364
 30
0.0
 11
134.27697538735339
 21
249.6544067143366
 31
0.0
  0
ARC
  5
176C1
  8
AM_0
 10
133.26919538735339
 20
249.10221671433641
 30
0.0
 40
0.9922232599999995
 50
89.549149999999173
 51
180.4508400000029
  0
ARC
  5
176C2
  8
AM_0
 10
133.26919538735339
 20
239.10221671433661
 30
0.0
 40
0.9922232599999995
 50
89.549149999999173
 51
180.4508400000029
  0
ARC
  5
176C3
  8
AM_0
 10
133.2860653873534
 20
249.10349671433639
 30
0.0
 40
1.009131199999999
 50
180.51612999999961
 51
269.48387399999899
  0
LINE
  5
176C4
  8
AM_0
 10
134.27697538735339
 20
238.49439671433649
 30
0.0
 11
134.27697538735339
 21
239.71440671433649
 31
0.0
  0
POINT
  5
176C5
  8
AM_0
 10
129.78307538735351
 20
254.0944067143366
 30
0.0
  0
LINE
  5
176C6
  8
AM_0
 10
134.27697538735339
 20
259.69438671433659
 30
0.0
 11
134.27697538735339
 21
258.53440671433663
 31
0.0
  0
ARC
  5
176C7
  8
AM_0
 10
133.26919538735339
 20
259.08659671433662
 30
0.0
 40
0.9922232599999995
 50
179.54914999999909
 51
270.45084500000189
  0
LINE
  5
176C8
  8
AM_0
 10
129.78307538735339
 20
269.31617671433651
 30
0.0
 11
130.28307538735351
 21
272.08619671433638
 31
0.0
  0
LINE
  5
176C9
  8
AM_0
 10
134.27697538735339
 20
269.69438671433647
 30
0.0
 11
134.27697538735339
 21
268.47441671433648
 31
0.0
  0
ARC
  5
176CA
  8
AM_0
 10
133.26919538735339
 20
269.08659671433662
 30
0.0
 40
0.9922232599999995
 50
179.54914999999909
 51
270.45084500000189
  0
ARC
  5
176CB
  8
AM_0
 10
133.2860653873534
 20
269.08531671433639
 30
0.0
 40
1.009131199999999
 50
90.51612999999962
 51
179.48387000000039
  0
LINE
  5
176CC
  8
AM_0
 10
130.28307538735351
 20
272.08619671433638
 30
0.0
 11
130.78307538735351
 21
272.0461867143365
 31
0.0
  0
LINE
  5
176CD
  8
AM_0
 10
130.77697538735339
 20
274.09440671433663
 30
0.0
 11
132.27697538735339
 21
274.21440671433652
 31
0.0
  0
LINE
  5
176CE
  8
AM_0
 10
134.27697538735339
 20
279.71440671433652
 30
0.0
 11
134.27697538735339
 21
278.35438671433639
 31
0.0
  0
ARC
  5
176CF
  8
AM_0
 10
133.2860653873534
 20
279.08531671433639
 30
0.0
 40
1.009131199999999
 50
90.51612999999962
 51
179.48387000000039
  0
ARC
  5
176D0
  8
AM_0
 10
133.26919538735339
 20
279.08659671433651
 30
0.0
 40
0.9922232599999995
 50
179.54914999999909
 51
270.45084500000189
  0
ARC
  5
176D1
  8
AM_0
 10
137.2860053873535
 20
237.1034367143364
 30
0.0
 40
0.9910124499999998
 50
359.47799761999983
 51
90.521999999995714
  0
ARC
  5
176D2
  8
AM_0
 10
145.8282753873535
 20
239.0944067143364
 30
0.0
 40
1.000037999999998
 50
89.500710000005
 51
270.49928399999988
  0
ARC
  5
176D3
  8
AM_0
 10
144.60698538735329
 20
239.08439671433641
 30
0.0
 40
1.330000999999998
 50
90.000000000000057
 51
269.99999700000228
  0
ARC
  5
176D4
  8
AM_0
 10
162.27697538735319
 20
239.0944067143364
 30
0.0
 40
1.0000031999999981
 50
90.000000000000057
 51
269.99999700000228
  0
LINE
  5
176D5
  8
AM_0
 10
185.2769753873533
 20
207.74439671433649
 30
0.0
 11
148.27697538735339
 21
209.8903985537668
 31
0.0
  0
LINE
  5
176D6
  8
AM_0
 10
148.27697538735339
 20
205.74439671433649
 30
0.0
 11
148.27697538735339
 21
219.7844067143364
 31
0.0
  0
ARC
  5
176D7
  8
AM_0
 10
147.4419413867065
 20
212.4966267143366
 30
0.0
 40
5.0078935999999974
 50
5.4746799999995188
 51
80.401279999998934
  0
LINE
  5
176D8
  8
AM_0
 10
146.44698538735349
 20
195.82438671433661
 30
0.0
 11
159.7769753873533
 21
195.82438671433661
 31
0.0
  0
LINE
  5
176D9
  8
AM_0
 10
146.50698538735321
 20
201.11439671433661
 30
0.0
 11
159.7769753873533
 21
201.11439671433661
 31
0.0
  0
ARC
  5
176DA
  8
AM_0
 10
146.4988353873533
 20
203.1078067143367
 30
0.0
 40
1.9934333999999989
 50
190.21196999999989
 51
270.23411600000071
  0
ARC
  5
176DB
  8
AM_0
 10
146.4486653873534
 20
197.81977671433651
 30
0.0
 40
1.995389499999999
 50
192.01538000000019
 51
269.9519330000021
  0
LINE
  5
176DC
  8
AM_0
 10
138.27697538735339
 20
205.7443967143364
 30
0.0
 11
148.27697538735339
 21
205.74439671433649
 31
0.0
  0
LINE
  5
176DD
  8
AM_0
 10
143.9970053873534
 20
205.74436671433639
 30
0.0
 11
144.53701538735331
 21
202.75437671433639
 31
0.0
  0
LINE
  5
176DE
  8
AM_0
 10
144.4970053873534
 20
197.4044067143366
 30
0.0
 11
143.5369853873533
 21
201.8744067143366
 31
0.0
  0
LINE
  5
176DF
  8
AM_0
 10
142.06698538735321
 20
203.0543967143366
 30
0.0
 11
144.4869953873534
 21
203.0543967143366
 31
0.0
  0
ARC
  5
176E0
  8
AM_0
 10
142.10528538735349
 20
195.4672967143365
 30
0.0
 40
1.507096899999999
 50
14.0978200000042
 51
89.935180000004834
  0
LINE
  5
176E1
  8
AM_0
 10
142.1069853873534
 20
196.97441671433651
 30
0.0
 11
143.75698538735341
 21
196.97441671433651
 31
0.0
  0
ARC
  5
176E2
  8
AM_0
 10
142.08617538735331
 20
197.49159671433651
 30
0.0
 40
1.5028080999999991
 50
13.577820000002831
 51
89.969210000005035
  0
LINE
  5
176E3
  8
AM_0
 10
142.0870053873534
 20
198.99439671433649
 30
0.0
 11
144.14699538735329
 21
198.99439671433649
 31
0.0
  0
ARC
  5
176E4
  8
AM_0
 10
142.06820538735349
 20
201.55024671433651
 30
0.0
 40
1.504139799999999
 50
12.44474999999704
 51
90.045750000001505
  0
LINE
  5
176E5
  8
AM_0
 10
138.27697538735339
 20
196.71401901648031
 30
0.0
 11
143.0969853873533
 21
196.59440671433649
 31
0.0
  0
LINE
  5
176E6
  8
AM_0
 10
138.27697538735339
 20
211.4044067143364
 30
0.0
 11
148.27697538735339
 21
211.4044067143366
 31
0.0
  0
ARC
  5
176E7
  8
AM_0
 10
137.27157538735341
 20
213.11979671433639
 30
0.0
 40
1.005422699999998
 50
270.30818900000048
 51
359.69180761999792
  0
ARC
  5
176E8
  8
AM_0
 10
137.26992538735351
 20
208.60145671433651
 30
0.0
 40
1.0070831999999981
 50
270.40157799999861
 51
359.59842201999908
  0
ARC
  5
176E9
  8
AM_0
 10
151.42689138670639
 20
212.88423671433659
 30
0.0
 40
1.0041366999999981
 50
314.2025639999959
 51
5.1511600000045519
  0
ARC
  5
176EA
  8
AM_0
 10
147.89817138670639
 20
216.4263467143364
 30
0.0
 40
6.0039071999999978
 50
273.6172860000043
 51
314.77630699999611
  0
ARC
  5
176EB
  8
AM_0
 10
159.7713253873535
 20
199.6087167143364
 30
0.0
 40
1.5056744999999989
 50
0.2155299999990105
 51
89.784480000001196
  0
ARC
  5
176EC
  8
AM_0
 10
153.7369953873534
 20
229.0693867143365
 30
0.0
 40
1.465000399999999
 50
90.000000000000057
 51
269.99999700000228
  0
ARC
  5
176ED
  8
AM_0
 10
153.9569953873532
 20
219.04939671433661
 30
0.0
 40
1.6750062999999991
 50
90.000000000000057
 51
269.99999700000228
  0
ARC
  5
176EE
  8
AM_0
 10
137.2860053873535
 20
227.1034367143364
 30
0.0
 40
0.9910124499999998
 50
359.47799761999983
 51
90.521999999995714
  0
LINE
  5
176EF
  8
AM_0
 10
138.27697538735339
 20
219.7844067143364
 30
0.0
 11
148.27697538735339
 21
219.7844067143364
 31
0.0
  0
ARC
  5
176F0
  8
AM_0
 10
137.27068538735321
 20
221.36070671433649
 30
0.0
 40
1.0063294999999981
 50
270.35925199999912
 51
359.64074624000273
  0
ARC
  5
176F1
  8
AM_0
 10
137.26909538735339
 20
231.1022767143364
 30
0.0
 40
1.0079203999999991
 50
270.44848800000472
 51
359.55151003999867
  0
ARC
  5
176F2
  8
AM_0
 10
162.27697538735319
 20
219.0944067143366
 30
0.0
 40
1.0000031999999981
 50
90.000000000000057
 51
269.99999700000228
  0
ARC
  5
176F3
  8
AM_0
 10
154.82699538735309
 20
219.0944067143366
 30
0.0
 40
1.0000031999999981
 50
90.000000000000057
 51
269.99999700000228
  0
ARC
  5
176F4
  8
AM_0
 10
162.27697538735319
 20
229.0944067143366
 30
0.0
 40
1.0000031999999981
 50
90.000000000000057
 51
269.99999700000228
  0
ARC
  5
176F5
  8
AM_0
 10
154.82699538735309
 20
229.0944067143366
 30
0.0
 40
1.0000031999999981
 50
90.000000000000057
 51
269.99999700000228
  0
ARC
  5
176F6
  8
AM_0
 10
144.54711538735339
 20
259.08439671433638
 30
0.0
 40
1.270038399999998
 50
89.554810000000884
 51
270.44518900000008
  0
ARC
  5
176F7
  8
AM_0
 10
145.8370053873534
 20
259.09440671433663
 30
0.0
 40
1.000012399999999
 50
90.000000000000057
 51
269.99999700000228
  0
ARC
  5
176F8
  8
AM_0
 10
137.2860053873535
 20
261.08537671433641
 30
0.0
 40
0.9910124499999998
 50
269.47800000000427
 51
0.5219999999957203
  0
ARC
  5
176F9
  8
AM_0
 10
162.27697538735319
 20
259.09440671433663
 30
0.0
 40
1.000000699999998
 50
90.000000000000057
 51
269.99999700000228
  0
ARC
  5
176FA
  8
AM_0
 10
145.8282753873535
 20
249.0944067143366
 30
0.0
 40
1.000037999999998
 50
89.500710000005
 51
270.49928399999988
  0
ARC
  5
176FB
  8
AM_0
 10
144.54699538735341
 20
249.08940671433649
 30
0.0
 40
1.265004999999999
 50
90.000000000000057
 51
269.99999700000228
  0
ARC
  5
176FC
  8
AM_0
 10
137.26909538735339
 20
241.10227671433651
 30
0.0
 40
1.0079203999999991
 50
270.44848800000472
 51
359.55151003999867
  0
ARC
  5
176FD
  8
AM_0
 10
137.2860053873535
 20
247.1034367143364
 30
0.0
 40
0.9910124499999998
 50
359.47799761999983
 51
90.521999999995714
  0
ARC
  5
176FE
  8
AM_0
 10
137.26909538735339
 20
257.08650671433651
 30
0.0
 40
1.0079203999999991
 50
0.448489999997189
 51
89.551510000002907
  0
ARC
  5
176FF
  8
AM_0
 10
137.26909538735339
 20
251.10227671433651
 30
0.0
 40
1.0079203999999991
 50
270.44848800000472
 51
359.55151003999867
  0
ARC
  5
17700
  8
AM_0
 10
162.27697538735319
 20
249.0944067143366
 30
0.0
 40
1.0000031999999981
 50
90.000000000000057
 51
269.99999700000228
  0
ARC
  5
17701
  8
AM_0
 10
137.2860053873535
 20
271.08537671433652
 30
0.0
 40
0.9910124499999998
 50
269.47800000000427
 51
0.5219999999957203
  0
ARC
  5
17702
  8
AM_0
 10
144.6091253873534
 20
269.10438671433639
 30
0.0
 40
1.3300231999999981
 50
89.661519999996074
 51
270.33846799999918
  0
ARC
  5
17703
  8
AM_0
 10
145.8370053873534
 20
269.0944067143364
 30
0.0
 40
1.000012399999999
 50
90.000000000000057
 51
269.99999700000228
  0
ARC
  5
17704
  8
AM_0
 10
137.26909538735339
 20
267.08650671433662
 30
0.0
 40
1.0079203999999991
 50
0.448489999997189
 51
89.551510000002907
  0
ARC
  5
17705
  8
AM_0
 10
145.8281853873533
 20
279.09440671433663
 30
0.0
 40
1.0000386999999991
 50
89.495660000003184
 51
270.5043320000014
  0
ARC
  5
17706
  8
AM_0
 10
144.73968538735329
 20
279.11439671433652
 30
0.0
 40
1.460102599999999
 50
89.321000000002215
 51
270.67899299999812
  0
ARC
  5
17707
  8
AM_0
 10
137.2860053873535
 20
281.08537671433652
 30
0.0
 40
0.9910124499999998
 50
269.47800000000427
 51
0.5219999999957203
  0
ARC
  5
17708
  8
AM_0
 10
137.26909538735339
 20
277.08650671433662
 30
0.0
 40
1.0079203999999991
 50
0.448489999997189
 51
89.551510000002907
  0
ARC
  5
17709
  8
AM_0
 10
162.27697538735319
 20
269.0944067143364
 30
0.0
 40
1.000000699999998
 50
90.000000000000057
 51
269.99999700000228
  0
ARC
  5
1770A
  8
AM_0
 10
162.27697538735319
 20
279.09440671433663
 30
0.0
 40
1.000000699999998
 50
90.000000000000057
 51
269.99999700000228
  0
LINE
  5
1770B
  8
AM_0
 10
280.0369853873533
 20
193.73446671433661
 30
0.0
 11
282.77279538735331
 21
203.93446671433651
 31
0.0
  0
LINE
  5
1770C
  8
AM_0
 10
264.27697538735327
 20
185.09443671433641
 30
0.0
 11
276.57769668360152
 21
185.09443671433641
 31
0.0
  0
LINE
  5
1770D
  8
AM_0
 10
218.2769753873533
 20
192.2344767143363
 30
0.0
 11
278.09698538735353
 21
192.2344767143363
 31
0.0
  0
LINE
  5
1770E
  8
AM_0
 10
252.08097538735319
 20
154.0944367143365
 30
0.0
 11
216.4729753873531
 21
154.09443671433641
 31
0.0
  0
LINE
  5
1770F
  8
AM_0
 10
265.7769753873531
 20
173.5944367143365
 30
0.0
 11
208.2769753873531
 21
173.5944367143365
 31
0.0
  0
ARC
  5
17710
  8
AM_0
 10
208.2769753873531
 20
172.5944367143365
 30
0.0
 40
1.0
 50
90.000000000000057
 51
180.0
  0
LINE
  5
17711
  8
AM_0
 10
206.2769753873531
 20
169.59443671433641
 30
0.0
 11
206.2769753873531
 21
177.0944367143363
 31
0.0
  0
LINE
  5
17712
  8
AM_0
 10
216.4729753873531
 20
154.09443671433641
 30
0.0
 11
211.28419987715009
 21
157.09443671433641
 31
0.0
  0
LINE
  5
17713
  8
AM_0
 10
207.2769753873531
 20
168.5944367143365
 30
0.0
 11
207.2769753873531
 21
172.5944367143365
 31
0.0
  0
LINE
  5
17714
  8
AM_0
 10
204.2769753873533
 20
180.59443671433621
 30
0.0
 11
204.2769753873531
 21
192.2344767143361
 31
0.0
  0
LINE
  5
17715
  8
AM_0
 10
264.2769753873531
 20
173.5944367143365
 30
0.0
 11
264.2769753873531
 21
158.0944367143365
 31
0.0
  0
LINE
  5
17716
  8
AM_0
 10
257.27697538735322
 20
157.09443671433641
 30
0.0
 11
252.08097538735319
 21
154.0944367143365
 31
0.0
  0
ARC
  5
17717
  8
AM_0
 10
263.2769753873531
 20
158.09443671433641
 30
0.0
 40
1.0
 50
270.0
 51
0.0000000000000325
  0
LINE
  5
17718
  8
AM_0
 10
264.27697538735327
 20
180.59443671433641
 30
0.0
 11
264.2769753873531
 21
185.09443671433641
 31
0.0
  0
LINE
  5
17719
  8
AM_0
 10
265.7769753873531
 20
180.59443671433641
 30
0.0
 11
265.7769753873531
 21
173.5944367143365
 31
0.0
  0
ARC
  5
1771A
  8
AM_0
 10
278.08733538735328
 20
194.25146671433649
 30
0.0
 40
2.0170177999999992
 50
270.27370000000269
 51
345.14839999999509
  0
LINE
  5
1771B
  8
AM_0
 10
284.27697538735327
 20
190.09440676669669
 30
0.0
 11
276.57769668360152
 21
185.09443671433641
 31
0.0
  0
LINE
  5
1771C
  8
AM_0
 10
284.27697538735327
 20
191.0944067143366
 30
0.0
 11
284.27697538735327
 21
193.5944067143364
 31
0.0
  0
LINE
  5
1771D
  8
AM_0
 10
279.99697538735342
 20
193.59447671433651
 30
0.0
 11
284.27697538735322
 21
193.59447671433651
 31
0.0
  0
ARC
  5
1771E
  8
AM_0
 10
285.27697538735327
 20
191.0944067143366
 30
0.0
 40
0.9999999999999998
 50
179.999989999999
 51
269.99999700000228
  0
LINE
  5
1771F
  8
AM_0
 10
262.9168069155408
 20
280.58439671433672
 30
0.0
 11
282.27548678174219
 21
280.58439671433672
 31
0.0
  0
LINE
  5
17720
  8
AM_0
 10
281.20176147387861
 20
280.09440671433651
 30
0.0
 11
263.77697538735327
 21
280.09440671433651
 31
0.0
  0
LINE
  5
17721
  8
AM_0
 10
262.91675355921819
 20
227.60438671433641
 30
0.0
 11
282.29067883199582
 21
227.60438671433641
 31
0.0
  0
LINE
  5
17722
  8
AM_0
 10
281.20176147387861
 20
228.09440671433649
 30
0.0
 11
263.76602110052858
 21
228.09440671433649
 31
0.0
  0
LINE
  5
17723
  8
AM_0
 10
278.09698538735353
 20
220.72446671433659
 30
0.0
 11
263.77697538735327
 21
220.72446671433659
 31
0.0
  0
LINE
  5
17724
  8
AM_0
 10
278.09698538735353
 20
220.09446671433651
 30
0.0
 11
218.2769753873533
 21
220.09446671433651
 31
0.0
  0
LINE
  5
17725
  8
AM_0
 10
278.09698538735353
 20
218.09446671433651
 30
0.0
 11
218.2769753873533
 21
218.09446671433651
 31
0.0
  0
LINE
  5
17726
  8
AM_0
 10
218.2769753873533
 20
217.36448671433649
 30
0.0
 11
278.09698538735353
 21
217.36448671433649
 31
0.0
  0
ARC
  5
17727
  8
AM_0
 10
216.9470120570692
 20
239.08439671433641
 30
0.0
 40
1.330000999999998
 50
270.00000299999761
 51
90.000000000000057
  0
ARC
  5
17728
  8
AM_0
 10
215.72572205706899
 20
239.0944067143364
 30
0.0
 40
1.000037999999998
 50
269.50071600000012
 51
90.499289999995085
  0
LINE
  5
17729
  8
AM_0
 10
246.7769753873533
 20
220.72446671433659
 30
0.0
 11
218.2769753873533
 21
220.72446671433659
 31
0.0
  0
ARC
  5
1772A
  8
AM_0
 10
215.72572205706911
 20
229.0944067143366
 30
0.0
 40
1.000037999999998
 50
269.50071600000012
 51
90.499289999995085
  0
LINE
  5
1772B
  8
AM_0
 10
262.77697538735327
 20
220.72446671433659
 30
0.0
 11
247.7769753873533
 21
220.72446671433659
 31
0.0
  0
LINE
  5
1772C
  8
AM_0
 10
262.77697538735327
 20
220.7244667143363
 30
0.0
 11
247.7769753873533
 21
220.7244667143363
 31
0.0
  0
ARC
  5
1772D
  8
AM_0
 10
246.7769753873533
 20
227.09446671433659
 30
0.0
 40
0.9999999999999998
 50
0.0000000000000325
 51
90.000000000000057
1001
GENIUS_GENOBJ-N-FIL_13
1002
{
1000
OWNER
1000
GEN
1002
}
1001
GENIUS_GENODEF_13
1002
{
1000
HIER
1070
     0
1002
}
1002
{
1000
MANEDIT
1070
     0
1002
}
1002
{
1000
NOSEL
1070
     0
1002
}
1002
{
1000
BEHIND
1070
     0
1002
}
1002
{
1000
OTHER
1070
     0
1002
}
1002
{
1000
REACTOR
1002
}
  0
ARC
  5
1772E
  8
AM_0
 10
246.7769753873533
 20
221.7244667143365
 30
0.0
 40
0.9999999999999998
 50
270.0
 51
0.0000000000000325
1001
GENIUS_GENOBJ-N-FIL_13
1002
{
1000
OWNER
1000
GEN
1002
}
1001
GENIUS_GENODEF_13
1002
{
1000
HIER
1070
     0
1002
}
1002
{
1000
MANEDIT
1070
     0
1002
}
1002
{
1000
NOSEL
1070
     0
1002
}
1002
{
1000
BEHIND
1070
     0
1002
}
1002
{
1000
OTHER
1070
     0
1002
}
1002
{
1000
REACTOR
1002
}
  0
LINE
  5
1772F
  8
AM_0
 10
247.7769753873533
 20
227.09446671433639
 30
0.0
 11
247.7769753873533
 21
221.7244667143365
 31
0.0
  0
CIRCLE
  5
17730
  8
AM_0
 10
252.7769753873533
 20
225.5944367143365
 30
0.0
 40
0.75
  0
ARC
  5
17731
  8
AM_0
 10
263.77697538735327
 20
227.09446671433639
 30
0.0
 40
0.9999999999999998
 50
90.000000000000057
 51
180.0
1001
GENIUS_GENOBJ-N-FIL_13
1002
{
1000
OWNER
1000
GEN
1002
}
1001
GENIUS_GENODEF_13
1002
{
1000
HIER
1070
     0
1002
}
1002
{
1000
MANEDIT
1070
     0
1002
}
1002
{
1000
NOSEL
1070
     0
1002
}
1002
{
1000
BEHIND
1070
     0
1002
}
1002
{
1000
OTHER
1070
     0
1002
}
1002
{
1000
REACTOR
1002
}
  0
CIRCLE
  5
17732
  8
AM_0
 10
257.77697538735327
 20
225.5944367143365
 30
0.0
 40
0.75
  0
ARC
  5
17733
  8
AM_0
 10
263.77697538735327
 20
221.7244667143365
 30
0.0
 40
0.9999999999999998
 50
180.0
 51
270.0
1001
GENIUS_GENOBJ-N-FIL_13
1002
{
1000
OWNER
1000
GEN
1002
}
1001
GENIUS_GENODEF_13
1002
{
1000
HIER
1070
     0
1002
}
1002
{
1000
MANEDIT
1070
     0
1002
}
1002
{
1000
NOSEL
1070
     0
1002
}
1002
{
1000
BEHIND
1070
     0
1002
}
1002
{
1000
OTHER
1070
     0
1002
}
1002
{
1000
REACTOR
1002
}
  0
LINE
  5
17734
  8
AM_0
 10
262.77697538735327
 20
227.09446671433639
 30
0.0
 11
262.77697538735327
 21
221.7244667143365
 31
0.0
  0
ARC
  5
17735
  8
AM_0
 10
215.72572205706899
 20
259.09446671433648
 30
0.0
 40
1.000037999999998
 50
269.50071000000491
 51
90.499283999999861
  0
ARC
  5
17736
  8
AM_0
 10
217.007002057069
 20
259.0994667143363
 30
0.0
 40
1.265004999999999
 50
270.0
 51
89.999997000002381
  0
ARC
  5
17737
  8
AM_0
 10
215.72572205706899
 20
249.0944067143366
 30
0.0
 40
1.000037999999998
 50
269.50071600000012
 51
90.499289999995085
  0
ARC
  5
17738
  8
AM_0
 10
217.007002057069
 20
249.08940671433649
 30
0.0
 40
1.265004999999999
 50
270.00000299999761
 51
90.000000000000057
  0
ARC
  5
17739
  8
AM_0
 10
215.72572205706899
 20
269.09446671433648
 30
0.0
 40
1.000037999999998
 50
269.50071000000491
 51
90.499283999999861
  0
ARC
  5
1773A
  8
AM_0
 10
216.9470120570692
 20
269.1044767143365
 30
0.0
 40
1.330000999999998
 50
270.0
 51
89.999997000002381
  0
ARC
  5
1773B
  8
AM_0
 10
215.72572205706899
 20
279.09440668374151
 30
0.0
 40
1.000037999999998
 50
269.50071000000491
 51
90.499283999999861
  0
ARC
  5
1773C
  8
AM_0
 10
246.7769753873533
 20
281.0944067143364
 30
0.0
 40
0.9999999999999998
 50
270.0
 51
0.0000000000000325
1001
GENIUS_GENOBJ-N-FIL_13
1002
{
1000
OWNER
1000
GEN
1002
}
1001
GENIUS_GENODEF_13
1002
{
1000
HIER
1070
     0
1002
}
1002
{
1000
MANEDIT
1070
     0
1002
}
1002
{
1000
NOSEL
1070
     0
1002
}
1002
{
1000
BEHIND
1070
     0
1002
}
1002
{
1000
OTHER
1070
     0
1002
}
1002
{
1000
REACTOR
1002
}
  0
ARC
  5
1773D
  8
AM_0
 10
263.77697538735327
 20
281.09440671433651
 30
0.0
 40
0.9999999999999998
 50
180.0
 51
270.0
1001
GENIUS_GENOBJ-N-FIL_13
1002
{
1000
OWNER
1000
GEN
1002
}
1001
GENIUS_GENODEF_13
1002
{
1000
HIER
1070
     0
1002
}
1002
{
1000
MANEDIT
1070
     0
1002
}
1002
{
1000
NOSEL
1070
     0
1002
}
1002
{
1000
BEHIND
1070
     0
1002
}
1002
{
1000
OTHER
1070
     0
1002
}
1002
{
1000
REACTOR
1002
}
  0
LINE
  5
1773E
  8
AM_0
 10
284.27697538735327
 20
211.23447671433649
 30
0.0
 11
284.27697538735327
 21
203.6344767143365
 31
0.0
  0
LINE
  5
1773F
  8
AM_0
 10
283.27697538735327
 20
211.23447671433649
 30
0.0
 11
283.27697538735327
 21
203.6344767143365
 31
0.0
  0
LINE
  5
17740
  8
AM_0
 10
280.67699538735337
 20
209.23447671433649
 30
0.0
 11
280.67699538735337
 21
205.6344767143365
 31
0.0
  0
ARC
  5
17741
  8
AM_0
 10
282.37697538735341
 20
205.6344767143365
 30
0.0
 40
1.7000007999999991
 50
180.000010000001
 51
269.999979999998
  0
LINE
  5
17742
  8
AM_0
 10
283.27697538735327
 20
203.6344767143365
 30
0.0
 11
284.27697538735327
 21
203.6344767143365
 31
0.0
  0
LINE
  5
17743
  8
AM_0
 10
283.27697538735327
 20
203.93447671433651
 30
0.0
 11
282.37697538735341
 21
203.93447671433651
 31
0.0
  0
ARC
  5
17744
  8
AM_0
 10
285.28539538735339
 20
203.06287671433651
 30
0.0
 40
1.008444499999998
 50
189.54607000000399
 51
269.52220000000051
  0
LINE
  5
17745
  8
AM_0
 10
278.09698538735353
 20
207.7544667143365
 30
0.0
 11
280.67699538735337
 21
207.7544667143365
 31
0.0
  0
ARC
  5
17746
  8
AM_0
 10
282.37697538735341
 20
209.23447671433649
 30
0.0
 40
1.699996899999999
 50
90.000003000004199
 51
179.99998000000451
  0
LINE
  5
17747
  8
AM_0
 10
283.27697538735327
 20
211.23447671433649
 30
0.0
 11
284.27697538735327
 21
211.23447671433649
 31
0.0
  0
LINE
  5
17748
  8
AM_0
 10
284.27697538735327
 20
208.21183671433641
 30
0.0
 11
283.27697538735327
 21
207.6345067143366
 31
0.0
  0
LINE
  5
17749
  8
AM_0
 10
284.27697538735327
 20
207.2118367143365
 30
0.0
 11
283.27697538735327
 21
206.63447671433639
 31
0.0
  0
ARC
  5
1774A
  8
AM_0
 10
284.93783538735329
 20
206.26768671433649
 30
0.0
 40
1.4868058999999989
 50
116.38977999999901
 51
165.71726000000089
  0
LINE
  5
1774B
  8
AM_0
 10
283.27697538735327
 20
210.93446671433639
 30
0.0
 11
282.37697538735341
 21
210.93446671433639
 31
0.0
  0
ARC
  5
1774C
  8
AM_0
 10
278.61699538735343
 20
219.09446671433651
 30
0.0
 40
1.0000073999999981
 50
270.0
 51
90.000003000004199
  0
LINE
  5
1774D
  8
AM_0
 10
282.09698538735353
 20
220.72446671433659
 30
0.0
 11
278.09698538735353
 21
220.72446671433659
 31
0.0
  0
LINE
  5
1774E
  8
AM_0
 10
278.61699538735343
 20
218.09446671433651
 30
0.0
 11
278.09698538735353
 21
218.09446671433651
 31
0.0
  0
LINE
  5
1774F
  8
AM_0
 10
278.61699538735343
 20
220.09446671433651
 30
0.0
 11
278.09698538735353
 21
220.09446671433651
 31
0.0
  0
LINE
  5
17750
  8
AM_0
 10
278.09698538735353
 20
217.36448671433649
 30
0.0
 11
284.2769753380332
 21
217.36448671433649
 31
0.0
  0
ARC
  5
17751
  8
AM_0
 10
282.09087538735332
 20
219.0444767143365
 30
0.0
 40
1.680010999999999
 50
270.20802999999808
 51
89.791969000000449
  0
ARC
  5
17752
  8
AM_0
 10
281.20176142151871
 20
229.0944067143366
 30
0.0
 40
1.0000031999999981
 50
270.00000299999761
 51
90.000000000000057
  0
ARC
  5
17753
  8
AM_0
 10
282.29176142151857
 20
229.0693867143365
 30
0.0
 40
1.465000399999999
 50
270.00000299999761
 51
90.000000000000057
  0
ARC
  5
17754
  8
AM_0
 10
281.20176142151871
 20
279.09446671433648
 30
0.0
 40
1.0000031999999981
 50
270.0
 51
89.999997000002381
  0
ARC
  5
17755
  8
AM_0
 10
282.29176142151857
 20
279.11948671433652
 30
0.0
 40
1.465000399999999
 50
270.0
 51
89.999997000002381
  0
LINE
  5
17756
  8
AM_0
 10
184.27697538735339
 20
300.4344067143366
 30
0.0
 11
278.0969853873533
 21
300.4344067143366
 31
0.0
  0
LINE
  5
17757
  8
AM_0
 10
163.2769753873533
 20
317.97439671433659
 30
0.0
 11
278.07674551405688
 21
317.97439671433659
 31
0.0
  0
LINE
  5
17758
  8
AM_0
 10
163.2769753873533
 20
319.33439671433638
 30
0.0
 11
278.07674551405688
 21
319.33439671433638
 31
0.0
  0
LINE
  5
17759
  8
AM_0
 10
163.2769753873533
 20
319.99439671433652
 30
0.0
 11
278.07674551405688
 21
319.99439671433652
 31
0.0
  0
LINE
  5
1775A
  8
AM_0
 10
145.8369878682538
 20
288.0944067554226
 30
0.0
 11
218.2769753873533
 21
288.0944067554226
 31
0.0
  0
LINE
  5
1775B
  8
AM_0
 10
144.94698538735341
 20
287.46440671433652
 30
0.0
 11
218.2769753873533
 21
287.46440671433652
 31
0.0
  0
LINE
  5
1775C
  8
AM_0
 10
144.94698538735341
 20
290.82438671433653
 30
0.0
 11
218.2769753873533
 21
290.82438671433653
 31
0.0
  0
LINE
  5
1775D
  8
AM_0
 10
218.2769753873533
 20
290.09440671433629
 30
0.0
 11
145.82699538735329
 21
290.09440671433629
 31
0.0
  0
LINE
  5
1775E
  8
AM_0
 10
163.2769753873533
 20
315.95439671433661
 30
0.0
 11
218.2769753873533
 21
315.95439671433661
 31
0.0
  0
LINE
  5
1775F
  8
AM_0
 10
134.51699538735329
 20
302.69439671433651
 30
0.0
 11
137.77697538735319
 21
302.69439671433651
 31
0.0
  0
LINE
  5
17760
  8
AM_0
 10
134.55697538735339
 20
301.73438671433649
 30
0.0
 11
138.27697538735339
 21
301.73438671433649
 31
0.0
  0
LINE
  5
17761
  8
AM_0
 10
134.57699538735329
 20
297.21440671433652
 30
0.0
 11
138.27697538735339
 21
297.21440671433652
 31
0.0
  0
LINE
  5
17762
  8
AM_0
 10
134.55697538735339
 20
296.07438671433653
 30
0.0
 11
137.27697538735339
 21
296.07438671433653
 31
0.0
  0
LINE
  5
17763
  8
AM_0
 10
134.53698538735341
 20
300.5944067143364
 30
0.0
 11
137.27697538735339
 21
300.5944067143364
 31
0.0
  0
LINE
  5
17764
  8
AM_0
 10
134.4969753873533
 20
289.77439671433649
 30
0.0
 11
137.57699538735321
 21
289.77439671433649
 31
0.0
  0
LINE
  5
17765
  8
AM_0
 10
134.4369753873533
 20
287.83439671433649
 30
0.0
 11
137.27697538735339
 21
287.83439671433649
 31
0.0
  0
LINE
  5
17766
  8
AM_0
 10
134.55697538735339
 20
303.83439671433638
 30
0.0
 11
137.77697538735319
 21
303.83439671433638
 31
0.0
  0
LINE
  5
17768
  8
AM_0
 10
134.27697538735339
 20
303.57440671433631
 30
0.0
 11
134.27697538735339
 21
303.05439671433652
 31
0.0
  0
LINE
  5
17769
  8
AM_0
 10
134.05697538735319
 20
303.69439671433662
 30
0.0
 11
132.77700538735331
 21
302.97441671433648
 31
0.0
  0
ARC
  5
1776A
  8
AM_0
 10
134.4196453873534
 20
286.81941671433651
 30
0.0
 40
1.015145099999998
 50
89.021620000003097
 51
106.1676699999993
  0
ARC
  5
1776B
  8
AM_0
 10
133.2765153873535
 20
288.24970671433653
 30
0.0
 40
0.9995326999999996
 50
112.3150500000005
 51
179.7318699999999
  0
LINE
  5
1776C
  8
AM_0
 10
134.27697538735339
 20
289.47441671433648
 30
0.0
 11
134.27697538735339
 21
288.41438671433627
 31
0.0
  0
LINE
  5
1776D
  8
AM_0
 10
134.13695538735331
 20
287.7943867143365
 30
0.0
 11
132.99697538735339
 21
287.43437671433651
 31
0.0
  0
ARC
  5
1776E
  8
AM_0
 10
133.28142538735329
 20
286.47105671433661
 30
0.0
 40
1.004450099999999
 50
106.4503500000033
 51
179.8098500000003
  0
LINE
  5
1776F
  8
AM_0
 10
134.0969853873533
 20
289.69438671433647
 30
0.0
 11
132.89699538735329
 21
289.17439671433658
 31
0.0
  0
ARC
  5
17770
  8
AM_0
 10
134.49022538735329
 20
288.76817671433651
 30
0.0
 40
1.0062370999999981
 50
89.615240000004391
 51
113.00461999999889
  0
ARC
  5
17771
  8
AM_0
 10
133.28414538735331
 20
302.1042067143365
 30
0.0
 40
1.007194199999998
 50
120.23341999999801
 51
180.55767999999989
  0
ARC
  5
17772
  8
AM_0
 10
133.2819753873533
 20
298.92338671433629
 30
0.0
 40
1.0050607999999981
 50
117.5588100000039
 51
179.37160000000111
  0
ARC
  5
17773
  8
AM_0
 10
133.2787153873534
 20
295.3517967143365
 30
0.0
 40
1.0017338999999981
 50
122.7376299999969
 51
179.85046000000261
  0
ARC
  5
17774
  8
AM_0
 10
133.2825253873533
 20
294.32511671433627
 30
0.0
 40
1.005592899999999
 50
120.1813300000001
 51
179.47162000000111
  0
ARC
  5
17775
  8
AM_0
 10
133.27596538735341
 20
299.94895671433642
 30
0.0
 40
0.9989832599999996
 50
119.9653600000032
 51
179.687610000001
  0
ARC
  5
17776
  8
AM_0
 10
133.2800253873535
 20
301.05448671433641
 30
0.0
 40
1.003051899999998
 50
116.2126500000016
 51
180.00576999999771
  0
LINE
  5
17777
  8
AM_0
 10
134.27697538735339
 20
296.91438671433627
 30
0.0
 11
134.27697538735339
 21
296.4344067143366
 31
0.0
  0
LINE
  5
17778
  8
AM_0
 10
134.27697538735339
 20
301.47441671433648
 30
0.0
 11
134.27697538735339
 21
300.93440671433649
 31
0.0
  0
LINE
  5
17779
  8
AM_0
 10
134.05700538735331
 20
300.47441671433648
 30
0.0
 11
132.81698538735341
 21
299.8143767143365
 31
0.0
  0
LINE
  5
1777A
  8
AM_0
 10
134.05697538735319
 20
295.9344067143366
 30
0.0
 11
132.77697538735339
 21
295.19438671433642
 31
0.0
  0
LINE
  5
1777B
  8
AM_0
 10
134.0369853873533
 20
297.05436671433642
 30
0.0
 11
132.73696538735339
 21
296.1943867143367
 31
0.0
  0
LINE
  5
1777C
  8
AM_0
 10
134.07699538735309
 20
302.57440671433642
 30
0.0
 11
132.83700538735329
 21
301.95442671433648
 31
0.0
  0
LINE
  5
1777D
  8
AM_0
 10
134.05697538735319
 20
301.59437671433648
 30
0.0
 11
132.77700538735331
 21
300.81440671433643
 31
0.0
  0
ARC
  5
1777E
  8
AM_0
 10
134.57049538735339
 20
300.7232867143365
 30
0.0
 40
1.0112084999999991
 50
90.765689999997619
 51
120.5188099999976
  0
ARC
  5
1777F
  8
AM_0
 10
134.55456538735331
 20
301.68995671433629
 30
0.0
 40
1.005138299999998
 50
92.142290000000656
 51
118.36794000000209
  0
ARC
  5
17780
  8
AM_0
 10
134.5692353873533
 20
295.06773671433638
 30
0.0
 40
1.0067359999999981
 50
90.698060000001092
 51
120.5864300000015
  0
ARC
  5
17781
  8
AM_0
 10
134.58263538735341
 20
296.20408671433643
 30
0.0
 40
1.0103179999999981
 50
90.320140000001274
 51
122.6885800000012
  0
ARC
  5
17782
  8
AM_0
 10
134.53527538735341
 20
299.58119671433661
 30
0.0
 40
1.0131911999999981
 50
89.903720000000618
 51
118.1687600000007
  0
ARC
  5
17783
  8
AM_0
 10
134.56786538735329
 20
302.83264671433659
 30
0.0
 40
1.001807999999998
 50
90.622820000003856
 51
120.6616699999947
  0
LINE
  5
17784
  8
AM_0
 10
184.27697538735339
 20
300.4344067143366
 30
0.0
 11
148.27697538735339
 21
298.78166643250688
 31
0.0
  0
LINE
  5
17785
  8
AM_0
 10
144.01699538735329
 20
302.43440671433638
 30
0.0
 11
144.53698538735341
 21
305.41439671433648
 31
0.0
  0
LINE
  5
17786
  8
AM_0
 10
148.27697538735339
 20
293.59440671433669
 30
0.0
 11
148.27697538735339
 21
290.81440671433643
 31
0.0
  0
LINE
  5
17787
  8
AM_0
 10
148.27697538735339
 20
302.43440671433638
 30
0.0
 11
148.27697538735339
 21
290.82438671433653
 31
0.0
  0
ARC
  5
17788
  8
AM_0
 10
147.46055138670641
 20
295.68598671433642
 30
0.0
 40
4.9987220999999984
 50
279.40005900000159
 51
354.5864364999963
  0
ARC
  5
17789
  8
AM_0
 10
145.8281853873533
 20
289.09440671433663
 30
0.0
 40
1.0000386999999991
 50
89.495660000003184
 51
270.5043320000014
  0
ARC
  5
1778A
  8
AM_0
 10
137.27068538735321
 20
286.82807671433648
 30
0.0
 40
1.0063294999999981
 50
0.3592499999960268
 51
89.640750000004033
  0
ARC
  5
1778B
  8
AM_0
 10
137.5814153873533
 20
290.46995671433638
 30
0.0
 40
0.69557893
 50
269.63466400000277
 51
0.3653399999994713
  0
ARC
  5
1778C
  8
AM_0
 10
144.9569953873534
 20
289.13438671433642
 30
0.0
 40
1.6800001999999989
 50
90.000000000000057
 51
269.99999700000228
  0
LINE
  5
1778D
  8
AM_0
 10
138.27697538735339
 20
288.39439671433649
 30
0.0
 11
143.44874624616349
 21
288.39439671433649
 31
0.0
  0
LINE
  5
1778E
  8
AM_0
 10
138.27697538735339
 20
296.77439671433649
 30
0.0
 11
148.27697538735339
 21
296.77439671433649
 31
0.0
  0
LINE
  5
1778F
  8
AM_0
 10
138.27697538735339
 20
302.43440671433638
 30
0.0
 11
148.27697538735339
 21
302.43440671433638
 31
0.0
  0
ARC
  5
17790
  8
AM_0
 10
137.26992538735351
 20
299.5873267143366
 30
0.0
 40
1.0070831999999981
 50
0.401579999998469
 51
89.598420000001582
  0
ARC
  5
17791
  8
AM_0
 10
137.27157538735341
 20
295.06898671433652
 30
0.0
 40
1.005422699999998
 50
0.3081899999968003
 51
89.691810000003315
  0
ARC
  5
17792
  8
AM_0
 10
137.77062538735331
 20
302.18803671433648
 30
0.0
 40
0.50640076
 50
0.7197000000047809
 51
89.280300000001816
  0
ARC
  5
17793
  8
AM_0
 10
151.4272013867064
 20
295.29197671433627
 30
0.0
 40
1.0127640999999981
 50
355.6067472000023
 51
45.505339999999109
  0
ARC
  5
17794
  8
AM_0
 10
147.9163613867066
 20
291.73384671433661
 30
0.0
 40
6.0113901999999966
 50
45.40403999999856
 51
86.560849999999121
  0
ARC
  5
17795
  8
AM_0
 10
162.27697538735319
 20
289.09440671433663
 30
0.0
 40
1.000000699999998
 50
90.000000000000057
 51
269.99999700000228
  0
LINE
  5
17796
  8
AM_0
 10
146.4569953873532
 20
312.35440671433639
 30
0.0
 11
159.7769753873533
 21
312.35440671433639
 31
0.0
  0
LINE
  5
17797
  8
AM_0
 10
146.51699538735329
 20
307.07440671433642
 30
0.0
 11
159.7769753873533
 21
307.07440671433642
 31
0.0
  0
LINE
  5
17798
  8
AM_0
 10
146.39699538735351
 20
317.39439671433638
 30
0.0
 11
159.8969953873534
 21
317.39439671433638
 31
0.0
  0
LINE
  5
17799
  8
AM_0
 10
146.41698538735341
 20
315.75439671433639
 30
0.0
 11
159.7769753873533
 21
315.75439671433639
 31
0.0
  0
LINE
  5
1779A
  8
AM_0
 10
144.47698538735341
 20
314.21440671433629
 30
0.0
 11
143.55700538735331
 21
310.33439671433638
 31
0.0
  0
LINE
  5
1779B
  8
AM_0
 10
144.4569953873532
 20
315.87437671433651
 30
0.0
 11
143.57699538735309
 21
312.33438671433652
 31
0.0
  0
ARC
  5
1779C
  8
AM_0
 10
146.51339538735331
 20
305.06784671433638
 30
0.0
 40
2.0065659999999981
 50
89.897530000004267
 51
170.054319999999
  0
ARC
  5
1779D
  8
AM_0
 10
146.45608538735351
 20
310.3498267143363
 30
0.0
 40
2.0045697999999992
 50
89.974040000003541
 51
167.77209000000309
  0
LINE
  5
1779E
  8
AM_0
 10
144.4970053873534
 20
310.77438671433652
 30
0.0
 11
143.5369853873533
 21
306.31439671433651
 31
0.0
  0
ARC
  5
1779F
  8
AM_0
 10
142.12682538735351
 20
312.7131667143363
 30
0.0
 40
1.4987989999999991
 50
269.62344200000302
 51
345.36186499999963
  0
LINE
  5
177A0
  8
AM_0
 10
142.11699538735331
 20
311.21440671433652
 30
0.0
 11
143.75698538735341
 21
311.21440671433652
 31
0.0
  0
LINE
  5
177A1
  8
AM_0
 10
142.0969853873533
 20
309.17439671433641
 30
0.0
 11
144.15697538735341
 21
309.17439671433641
 31
0.0
  0
ARC
  5
177A2
  8
AM_0
 10
142.06814538735341
 20
306.6133467143365
 30
0.0
 40
1.498966199999999
 50
270.33846799999918
 51
348.49632400000007
  0
LINE
  5
177A3
  8
AM_0
 10
142.07699538735329
 20
305.11439671433641
 30
0.0
 11
144.49697538735339
 21
305.11439671433641
 31
0.0
  0
ARC
  5
177A4
  8
AM_0
 10
142.0933153873533
 20
310.67779671433652
 30
0.0
 40
1.5034073999999991
 50
270.13958599999978
 51
346.79614399999542
  0
LINE
  5
177A5
  8
AM_0
 10
138.27697538735339
 20
311.47213304442897
 30
0.0
 11
143.11696538735339
 21
311.57438671433653
 31
0.0
  0
ARC
  5
177A6
  8
AM_0
 10
137.78133538735329
 20
304.3300467143365
 30
0.0
 40
0.4956644499999998
 50
269.49661899999961
 51
0.5033799999995241
  0
ARC
  5
177A7
  8
AM_0
 10
146.40426538735329
 20
315.38706671433653
 30
0.0
 40
2.007332599999998
 50
90.207820000001149
 51
165.9499399999998
  0
ARC
  5
177A8
  8
AM_0
 10
146.42327538735341
 20
313.75451671433638
 30
0.0
 40
1.9998908999999989
 50
90.180420000001433
 51
166.70569999999859
  0
ARC
  5
177A9
  8
AM_0
 10
163.2863153873534
 20
313.94506671433652
 30
0.0
 40
2.0093488999999991
 50
90.265960000000362
 51
179.73403999999971
  0
LINE
  5
177AA
  8
AM_0
 10
161.2769753873533
 20
315.97439671433659
 30
0.0
 11
161.2769753873533
 21
308.57440671433642
 31
0.0
  0
ARC
  5
177AB
  8
AM_0
 10
159.7842953873533
 20
308.56709671433651
 30
0.0
 40
1.4927157999999989
 50
269.71972099999988
 51
0.2802800000005115
  0
ARC
  5
177AC
  8
AM_0
 10
159.78313538735321
 20
313.84823671433651
 30
0.0
 40
1.4938501999999989
 50
269.76363900000212
 51
0.2363600000010443
  0
ARC
  5
177AD
  8
AM_0
 10
163.28490538735329
 20
317.99871671433652
 30
0.0
 40
1.9956942999999989
 50
90.227350000001564
 51
165.02512000000161
  0
ARC
  5
177AE
  8
AM_0
 10
163.28448538735341
 20
317.32690671433647
 30
0.0
 40
2.007501099999998
 50
90.213689999998877
 51
179.78630000000209
  0
ARC
  5
177AF
  8
AM_0
 10
163.28213538735321
 20
315.96923671433638
 30
0.0
 40
2.0051612999999988
 50
90.147289999999714
 51
179.85271000000029
  0
ARC
  5
177B0
  8
AM_0
 10
159.78112538735331
 20
317.25027671433639
 30
0.0
 40
1.4958794999999989
 50
269.84195400000209
 51
0.1580399999992444
  0
ARC
  5
177B1
  8
AM_0
 10
159.90890538735309
 20
318.89045671433661
 30
0.0
 40
1.4961156999999989
 50
269.54349500000399
 51
345.44181399999928
  0
LINE
  5
177B2
  8
AM_0
 10
278.0969853873533
 20
287.46440671433652
 30
0.0
 11
263.77697538735327
 21
287.46440671433652
 31
0.0
  0
LINE
  5
177B3
  8
AM_0
 10
278.0969853873533
 20
290.09440671433651
 30
0.0
 11
218.2769753873533
 21
290.09440671433629
 31
0.0
  0
LINE
  5
177B4
  8
AM_0
 10
278.0969853873533
 20
288.09440671433651
 30
0.0
 11
218.2769753873533
 21
288.0944067143364
 31
0.0
  0
LINE
  5
177B5
  8
AM_0
 10
218.2769753873533
 20
315.95439671433661
 30
0.0
 11
278.0969853873533
 21
315.95439671433661
 31
0.0
  0
LINE
  5
177B6
  8
AM_0
 10
218.2769753873533
 20
290.82438671433653
 30
0.0
 11
278.0969853873533
 21
290.82438671433653
 31
0.0
  0
LINE
  5
177B7
  8
AM_0
 10
246.7769753873533
 20
287.46440671433652
 30
0.0
 11
218.2769753873533
 21
287.46440671433652
 31
0.0
  0
LINE
  5
177B8
  8
AM_0
 10
262.77697538735327
 20
287.46440671433652
 30
0.0
 11
247.7769753873533
 21
287.46440671433652
 31
0.0
  0
ARC
  5
177B9
  8
AM_0
 10
246.7769753873533
 20
286.46440671433652
 30
0.0
 40
0.9999999999999998
 50
0.0000000000000325
 51
90.000000000000057
1001
GENIUS_GENOBJ-N-FIL_13
1002
{
1000
OWNER
1000
GEN
1002
}
1001
GENIUS_GENODEF_13
1002
{
1000
HIER
1070
     0
1002
}
1002
{
1000
MANEDIT
1070
     0
1002
}
1002
{
1000
NOSEL
1070
     0
1002
}
1002
{
1000
BEHIND
1070
     0
1002
}
1002
{
1000
OTHER
1070
     0
1002
}
1002
{
1000
REACTOR
1002
}
  0
CIRCLE
  5
177BA
  8
AM_0
 10
252.7769753873533
 20
282.59443671433638
 30
0.0
 40
0.75
  0
CIRCLE
  5
177BB
  8
AM_0
 10
257.77697538735327
 20
282.59443671433638
 30
0.0
 40
0.75
  0
ARC
  5
177BC
  8
AM_0
 10
263.77697538735327
 20
286.46440671433652
 30
0.0
 40
0.9999999999999998
 50
90.000000000000057
 51
180.0
1001
GENIUS_GENOBJ-N-FIL_13
1002
{
1000
OWNER
1000
GEN
1002
}
1001
GENIUS_GENODEF_13
1002
{
1000
HIER
1070
     0
1002
}
1002
{
1000
MANEDIT
1070
     0
1002
}
1002
{
1000
NOSEL
1070
     0
1002
}
1002
{
1000
BEHIND
1070
     0
1002
}
1002
{
1000
OTHER
1070
     0
1002
}
1002
{
1000
REACTOR
1002
}
  0
LINE
  5
177BD
  8
AM_0
 10
283.27697538735327
 20
296.95439671433661
 30
0.0
 11
283.27697538735327
 21
304.55439671433669
 31
0.0
  0
LINE
  5
177BE
  8
AM_0
 10
284.27697538735327
 20
296.95439671433661
 30
0.0
 11
284.27697538735327
 21
304.55439671433669
 31
0.0
  0
ARC
  5
177BF
  8
AM_0
 10
282.37697538735341
 20
302.55439671433652
 30
0.0
 40
1.7000007999999991
 50
90.000020000002039
 51
179.999989999999
  0
ARC
  5
177C0
  8
AM_0
 10
278.61699538735331
 20
289.09440671433663
 30
0.0
 40
1.0000073999999981
 50
269.99999700000228
 51
90.000000000000057
  0
LINE
  5
177C1
  8
AM_0
 10
282.0969853873533
 20
287.46440671433652
 30
0.0
 11
278.0969853873533
 21
287.46440671433652
 31
0.0
  0
LINE
  5
177C2
  8
AM_0
 10
278.61699538735331
 20
290.09440671433651
 30
0.0
 11
278.0969853873533
 21
290.09440671433651
 31
0.0
  0
LINE
  5
177C3
  8
AM_0
 10
278.61699538735331
 20
288.09440671433651
 30
0.0
 11
278.0969853873533
 21
288.09440671433651
 31
0.0
  0
LINE
  5
177C4
  8
AM_0
 10
278.0969853873533
 20
290.82438671433653
 30
0.0
 11
284.27697518561291
 21
290.82438671433653
 31
0.0
  0
ARC
  5
177C5
  8
AM_0
 10
282.09087538735332
 20
289.14439671433661
 30
0.0
 40
1.680010999999999
 50
270.20803099999961
 51
89.791970000001939
  0
LINE
  5
177C6
  8
AM_0
 10
278.0969853873533
 20
300.4344067143366
 30
0.0
 11
280.67699538735337
 21
300.4344067143366
 31
0.0
  0
ARC
  5
177C7
  8
AM_0
 10
282.37697538735341
 20
298.95439671433661
 30
0.0
 40
1.699996899999999
 50
180.00001999999549
 51
269.99999700000228
  0
LINE
  5
177C8
  8
AM_0
 10
280.67699538735337
 20
298.95439671433661
 30
0.0
 11
280.67699538735337
 21
302.55439671433652
 31
0.0
  0
LINE
  5
177C9
  8
AM_0
 10
283.27697538735327
 20
296.95439671433661
 30
0.0
 11
284.27697538735327
 21
296.95439671433661
 31
0.0
  0
LINE
  5
177CA
  8
AM_0
 10
284.27697538735327
 20
299.97703671433658
 30
0.0
 11
283.27697538735327
 21
300.55436671433642
 31
0.0
  0
ARC
  5
177CB
  8
AM_0
 10
284.93783538735329
 20
301.9211867143365
 30
0.0
 40
1.4868058999999989
 50
194.282739999999
 51
243.61022000000091
  0
LINE
  5
177CC
  8
AM_0
 10
284.27697538735327
 20
300.97703671433652
 30
0.0
 11
283.27697538735327
 21
301.55439671433658
 31
0.0
  0
LINE
  5
177CD
  8
AM_0
 10
283.27697538735327
 20
297.2544067143366
 30
0.0
 11
282.37697538735341
 21
297.2544067143366
 31
0.0
  0
LINE
  5
177CE
  8
AM_0
 10
280.0369853873533
 20
314.45440671433653
 30
0.0
 11
282.77279538735331
 21
304.25440671433648
 31
0.0
  0
LINE
  5
177CF
  8
AM_0
 10
280.0369853873533
 20
318.49440671433649
 30
0.0
 11
281.59213784656191
 21
312.69628656566789
 31
0.0
  0
LINE
  5
177D0
  8
AM_0
 10
280.0369853873533
 20
317.83440671433641
 30
0.0
 11
281.96227952872869
 21
310.65627656566789
 31
0.0
  0
LINE
  5
177D1
  8
AM_0
 10
280.0369853873533
 20
316.47440671433651
 30
0.0
 11
282.68646452872872
 21
306.59627656566801
 31
0.0
  0
LINE
  5
177D2
  8
AM_0
 10
283.27697538735327
 20
304.55439671433669
 30
0.0
 11
284.27697538735327
 21
304.55439671433669
 31
0.0
  0
ARC
  5
177D3
  8
AM_0
 10
283.52386026749718
 20
313.21440671433652
 30
0.0
 40
2.0
 50
195.01429759842301
 51
270.0
1001
GENIUS_GENOBJ-N-FIL_13
1002
{
1000
OWNER
1000
GEN
1002
}
1001
GENIUS_GENODEF_13
1002
{
1000
HIER
1070
     0
1002
}
1002
{
1000
MANEDIT
1070
     0
1002
}
1002
{
1000
NOSEL
1070
     0
1002
}
1002
{
1000
BEHIND
1070
     0
1002
}
1002
{
1000
OTHER
1070
     0
1002
}
1002
{
1000
REACTOR
1002
}
  0
LINE
  5
177D4
  8
AM_0
 10
281.9949697361867
 20
309.17439671433652
 30
0.0
 11
283.8940019496639
 21
309.17439671433652
 31
0.0
  0
LINE
  5
177D5
  8
AM_0
 10
281.8125797206867
 20
311.21440671433652
 30
0.0
 11
283.52386026749718
 21
311.21440671433652
 31
0.0
  0
ARC
  5
177D6
  8
AM_0
 10
284.61818694966388
 20
307.11439671433652
 30
0.0
 40
2.0
 50
195.01429759842301
 51
260.17695096027808
1001
GENIUS_GENOBJ-N-FIL_13
1002
{
1000
OWNER
1000
GEN
1002
}
1001
GENIUS_GENODEF_13
1002
{
1000
HIER
1070
     0
1002
}
1002
{
1000
MANEDIT
1070
     0
1002
}
1002
{
1000
NOSEL
1070
     0
1002
}
1002
{
1000
BEHIND
1070
     0
1002
}
1002
{
1000
OTHER
1070
     0
1002
}
1002
{
1000
REACTOR
1002
}
  0
LINE
  5
177D7
  8
AM_0
 10
282.5421317361866
 20
305.11439671433652
 30
0.0
 11
284.27697515596287
 21
305.11439671433658
 31
0.0
  0
LINE
  5
177D8
  8
AM_0
 10
283.27697538735327
 20
304.25439671433651
 30
0.0
 11
282.37697538735341
 21
304.25439671433651
 31
0.0
  0
ARC
  5
177D9
  8
AM_0
 10
283.89400194966379
 20
311.17439671433652
 30
0.0
 40
2.0
 50
195.01429759842301
 51
270.0
1001
GENIUS_GENODEF_13
1002
{
1000
HIER
1070
     0
1002
}
1002
{
1000
MANEDIT
1070
     0
1002
}
1002
{
1000
NOSEL
1070
     0
1002
}
1002
{
1000
BEHIND
1070
     0
1002
}
1002
{
1000
OTHER
1070
     0
1002
}
1002
{
1000
REACTOR
1002
}
1001
GENIUS_GENOBJ-N-FIL_13
1002
{
1000
OWNER
1000
GEN
1002
}
  0
ARC
  5
177DA
  8
AM_0
 10
285.28539538735339
 20
305.1259967143364
 30
0.0
 40
1.008444499999998
 50
90.477799999999576
 51
170.45392999999609
  0
ARC
  5
177DB
  8
AM_0
 10
278.08733538735328
 20
317.97740671433638
 30
0.0
 40
2.0170177999999992
 50
14.85160000000495
 51
89.726299999997295
  0
ARC
  5
177DC
  8
AM_0
 10
278.08733538735328
 20
317.31740671433653
 30
0.0
 40
2.0170177999999992
 50
14.85160000000495
 51
89.726299999997295
  0
ARC
  5
177DD
  8
AM_0
 10
278.08733538735328
 20
315.95740671433651
 30
0.0
 40
2.0170177999999992
 50
14.85160000000495
 51
89.726299999997295
  0
ARC
  5
177DE
  8
AM_0
 10
278.08733538735328
 20
313.93740671433648
 30
0.0
 40
2.0170177999999992
 50
14.85160000000495
 51
89.726299999997295
  0
LINE
  5
177DF
  8
AM_0
 10
281.08303306952013
 20
314.59439671433631
 30
0.0
 11
284.276975136293
 21
314.59439671433631
 31
0.0
  0
ARC
  5
177E0
  8
AM_0
 10
285.2860653873534
 20
317.0853167143365
 30
0.0
 40
1.009131199999999
 50
90.51612999999962
 51
179.48387000000039
  0
LINE
  5
17863
  8
AM_0
 10
747.72975693569322
 20
154.09444151647139
 30
0.0
 11
712.11976693569306
 21
154.09444151647139
 31
0.0
  0
LINE
  5
17864
  8
AM_0
 10
758.92976693569324
 20
157.09444151647159
 30
0.0
 11
700.9297669356929
 21
157.09444151647159
 31
0.0
  0
LINE
  5
17865
  8
AM_0
 10
763.4297669356929
 20
179.09444151647139
 30
0.0
 11
696.42976693569324
 21
179.09444151647139
 31
0.0
  0
LINE
  5
17866
  8
AM_0
 10
699.92976693569324
 20
184.09444151647131
 30
0.0
 11
759.96974693569302
 21
184.09444151647131
 31
0.0
  0
LINE
  5
17867
  8
AM_0
 10
761.42976693569324
 20
182.09444151647139
 30
0.0
 11
698.42976693569301
 21
182.09444151647139
 31
0.0
  0
LINE
  5
17868
  8
AM_0
 10
760.42976693569324
 20
175.59444151647151
 30
0.0
 11
699.42976693569301
 21
175.59444151647151
 31
0.0
  0
LINE
  5
17869
  8
AM_0
 10
758.92976693569324
 20
190.09444151647151
 30
0.0
 11
736.84416641604207
 21
190.47994736441549
 31
0.0
  0
LINE
  5
1786A
  8
AM_0
 10
696.42976693569324
 20
179.09444151647139
 30
0.0
 11
696.42976693569324
 21
164.09444151647139
 31
0.0
  0
LINE
  5
1786B
  8
AM_0
 10
699.92976693569324
 20
158.09444151647151
 30
0.0
 11
699.92976693569324
 21
175.59444151647151
 31
0.0
  0
LINE
  5
1786C
  8
AM_0
 10
698.42976693569301
 20
164.09444151647139
 30
0.0
 11
698.42976693569301
 21
182.09444151647139
 31
0.0
  0
ARC
  5
1786D
  8
AM_0
 10
700.9297669356929
 20
158.09444151647151
 30
0.0
 40
0.9999999999999998
 50
180.00000299999761
 51
270.000010000001
  0
LINE
  5
1786E
  8
AM_0
 10
698.42976693569301
 20
164.09444151647139
 30
0.0
 11
696.42976693569324
 21
164.09444151647139
 31
0.0
  0
ARC
  5
1786F
  8
AM_0
 10
699.42976693569301
 20
164.09444151647139
 30
0.0
 40
0.9999999999999998
 50
180.00000299999761
 51
270.000010000001
  0
LINE
  5
17870
  8
AM_0
 10
699.92976693569324
 20
163.09444151647151
 30
0.0
 11
699.42976693569301
 21
163.09444151647151
 31
0.0
  0
LINE
  5
17871
  8
AM_0
 10
699.68808611687473
 20
191.12850959070681
 30
0.0
 11
699.92976844732107
 21
182.09444151647159
 31
0.0
  0
ARC
  5
17872
  8
AM_0
 10
699.42976693569301
 20
176.59444151647139
 30
0.0
 40
0.9999999999999998
 50
180.00000299999761
 51
270.000010000001
  0
ARC
  5
17873
  8
AM_0
 10
697.76097693569318
 20
188.17209151647151
 30
0.0
 40
2.0097484999999988
 50
1.7779099999986701
 51
157.0903460000016
  0
LINE
  5
17874
  8
AM_0
 10
695.98916108795584
 20
191.19307461027631
 30
0.0
 11
695.90977693569323
 21
188.95444151647149
 31
0.0
  0
LINE
  5
17875
  8
AM_0
 10
693.8565672825157
 20
191.23029919842159
 30
0.0
 11
693.92976693569324
 21
189.17443151647149
 31
0.0
  0
ARC
  5
17876
  8
AM_0
 10
694.92988693569305
 20
189.20167151647161
 30
0.0
 40
1.000226099999999
 50
179.26866700000079
 51
358.43981999999937
  0
LINE
  5
17877
  8
AM_0
 10
706.92976693569301
 20
157.09444151647159
 30
0.0
 11
712.11976693569306
 21
154.09444151647139
 31
0.0
  0
LINE
  5
17878
  8
AM_0
 10
720.74634732877973
 20
190.76093602903271
 30
0.0
 11
736.84416641604264
 21
190.47994736441549
 31
0.0
  0
ARC
  5
17879
  8
AM_0
 10
729.90315693569323
 20
254.0919515164716
 30
0.0
 40
63.989566999999987
 50
261.77281830828667
 51
270.02382639558658
  0
ARC
  5
1787A
  8
AM_0
 10
729.90315693569323
 20
254.0919515164716
 30
0.0
 40
63.989566999999987
 50
270.02382639558658
 51
276.22718035921872
  0
LINE
  5
1787B
  8
AM_0
 10
759.92976693569324
 20
158.09444151647151
 30
0.0
 11
759.92976693569324
 21
175.59444151647151
 31
0.0
  0
LINE
  5
1787C
  8
AM_0
 10
763.4297669356929
 20
179.09444151647139
 30
0.0
 11
763.4297669356929
 21
164.09444151647139
 31
0.0
  0
LINE
  5
1787D
  8
AM_0
 10
761.42976693569324
 20
164.09444151647139
 30
0.0
 11
761.42976693569324
 21
182.09444151647139
 31
0.0
  0
LINE
  5
1787E
  8
AM_0
 10
752.92976693569324
 20
157.0944615164716
 30
0.0
 11
747.72975693569322
 21
154.09444151647139
 31
0.0
  0
ARC
  5
1787F
  8
AM_0
 10
758.92976693569324
 20
158.09444151647151
 30
0.0
 40
0.9999999999999998
 50
269.999989999999
 51
0.0
  0
ARC
  5
17880
  8
AM_0
 10
760.42976693569324
 20
164.09444151647139
 30
0.0
 40
0.9999999999999998
 50
269.999989999999
 51
0.0
  0
LINE
  5
17881
  8
AM_0
 10
760.42976693569324
 20
163.09444151647151
 30
0.0
 11
759.92976693569324
 21
163.09444151647151
 31
0.0
  0
LINE
  5
17882
  8
AM_0
 10
761.42976693569324
 20
164.09444151647139
 30
0.0
 11
763.4297669356929
 21
164.09444151647139
 31
0.0
  0
LINE
  5
17883
  8
AM_0
 10
760.13410830147825
 20
190.1154636624141
 30
0.0
 11
759.92974490081633
 21
182.09444151647159
 31
0.0
  0
ARC
  5
17884
  8
AM_0
 10
760.42976693569324
 20
176.59444151647139
 30
0.0
 40
0.9999999999999998
 50
269.999989999999
 51
0.0
  0
ARC
  5
17885
  8
AM_0
 10
764.92961693569305
 20
189.20235151647159
 30
0.0
 40
1.000231299999998
 50
181.598942999999
 51
0.6925799999989853
  0
LINE
  5
17886
  8
AM_0
 10
763.895452785374
 20
189.9212787263973
 30
0.0
 11
763.92973693569309
 21
188.95444151647149
 31
0.0
  0
ARC
  5
17887
  8
AM_0
 10
762.08812693569303
 20
188.17646151647159
 30
0.0
 40
1.9992131999999989
 50
22.901329999994228
 51
62.658139821750957
  0
ARC
  5
17888
  8
AM_0
 10
762.08812693569303
 20
188.17646151647159
 30
0.0
 40
1.9992131999999989
 50
113.34186017824941
 51
178.3379780000044
  0
LINE
  5
17889
  8
AM_0
 10
765.95272440541714
 20
189.84943721837189
 30
0.0
 11
765.92973693569309
 21
189.1744415164716
 31
0.0
  0
LINE
  5
179B1
  8
ｶｸﾚｾﾝ2
 10
332.02890799736991
 20
315.5944315164711
 30
0.0
 11
330.5188941584467
 21
312.85753746383728
 31
0.0
  0
LINE
  5
179B3
  8
ｶｸﾚｾﾝ2
 10
332.02890497835227
 20
192.59445151647159
 30
0.0
 11
330.5188941584467
 21
195.331340097148
 31
0.0
  0
CIRCLE
  5
179B5
  8
AM_0
 10
439.77700915338539
 20
254.09444151647131
 30
0.0
 40
3.399999999999999
  0
LINE
  5
17B4E
  8
AM_0
 10
783.92976693568312
 20
318.967217972914
 30
0.0
 11
799.92976693568312
 21
318.967217972914
 31
0.0
  0
LINE
  5
17B4F
  8
AM_0
 10
783.92976693568312
 20
189.22166506002881
 30
0.0
 11
799.92976693568312
 21
189.22166506002881
 31
0.0
  0
LINE
  5
17B51
  8
AM_0
 10
402.2770080357983
 20
500.09894675451721
 30
0.0
 11
477.2770102709726
 21
500.09894675451721
 31
0.0
  0
LINE
  5
17B52
  8
AM_0
 10
332.13848665839828
 20
504.09893924433129
 30
0.0
 11
501.41553027746562
 21
504.0989392443314
 31
0.0
  0
LINE
  5
17B53
  8
AM_0
 10
330.77697538735339
 20
582.09894919830754
 30
0.0
 11
502.7770110309317
 21
582.09894919830754
 31
0.0
  0
LINE
  5
17B54
  8
ﾁｭｳｼﾝｾﾝ1
 10
123.53307538735341
 20
553.0989483340403
 30
0.0
 11
509.0270110309317
 21
553.0989483340403
 31
0.0
1001
GENIUS_GENODEF_13
1002
{
1000
HIER
1070
     0
1002
}
1002
{
1000
MANEDIT
1070
     0
1002
}
1002
{
1000
NOSEL
1070
     0
1002
}
1002
{
1000
BEHIND
1070
     0
1002
}
1002
{
1000
REACTOR
1002
}
1001
GENIUS_GENOBJ-N-CEN_13
1002
{
1000
OWNER
1000
GEN
1002
}
  0
LINE
  5
17B55
  8
AM_0
 10
304.27697538735339
 20
491.59895333403961
 30
0.0
 11
304.27697538735339
 21
614.59893333404011
 31
0.0
  0
LINE
  5
17B56
  8
AM_0
 10
330.77697538742927
 20
582.09894919830754
 30
0.0
 11
332.13848665839828
 21
504.0989392443314
 31
0.0
  0
LINE
  5
17B57
  8
AM_0
 10
293.27697538735339
 20
489.09891833403992
 30
0.0
 11
293.27697538735339
 21
617.09893333404011
 31
0.0
  0
LINE
  5
17B58
  8
AM_0
 10
293.27697538735339
 20
590.23892333403978
 30
0.0
 11
303.27697538735339
 21
590.23892333403978
 31
0.0
  0
LINE
  5
17B59
  8
AM_0
 10
293.276934120703
 20
590.23893333401759
 30
0.0
 11
303.27693412069681
 21
590.23894444512848
 31
0.0
  0
LINE
  5
17B5A
  8
AM_0
 10
293.27697538735339
 20
605.13893333403996
 30
0.0
 11
303.27697538735339
 21
605.13893333403996
 31
0.0
  0
LINE
  5
17B5B
  8
AM_0
 10
293.27691756513627
 20
605.13894333400845
 30
0.0
 11
303.27691756513002
 21
605.13895444511979
 31
0.0
  0
LINE
  5
17B5C
  8
AM_0
 10
293.27697538735339
 20
617.09893333404011
 30
0.0
 11
302.40357821494899
 21
617.09893333404011
 31
0.0
  0
LINE
  5
17B5D
  8
AM_0
 10
323.13560584290559
 20
581.92463771281223
 30
0.0
 11
320.43670243550218
 21
612.77324481953508
 31
0.0
  0
LINE
  5
17B5E
  8
AM_0
 10
307.27697538735339
 20
614.59893333404011
 30
0.0
 11
318.44431303931862
 21
614.59893333403977
 31
0.0
  0
ARC
  5
17B5F
  8
AM_0
 10
307.27697538735322
 20
617.59893333404011
 30
0.0
 40
2.9999999999999978
 50
215.68533471265459
 51
270.0
1001
GENIUS_GENOBJ-N-FIL_13
1002
{
1000
OWNER
1000
GEN
1002
}
1001
GENIUS_GENODEF_13
1002
{
1000
HIER
1070
     0
1002
}
1002
{
1000
MANEDIT
1070
     0
1002
}
1002
{
1000
NOSEL
1070
     0
1002
}
1002
{
1000
BEHIND
1070
     0
1002
}
1002
{
1000
OTHER
1070
     0
1002
}
1002
{
1000
REACTOR
1002
}
  0
ARC
  5
17B60
  8
AM_0
 10
302.40357821494888
 20
614.09893333404
 30
0.0
 40
2.9999999999999978
 50
35.685334712654601
 51
90.0
1001
GENIUS_GENOBJ-N-FIL_13
1002
{
1000
OWNER
1000
GEN
1002
}
1001
GENIUS_GENODEF_13
1002
{
1000
HIER
1070
     0
1002
}
1002
{
1000
MANEDIT
1070
     0
1002
}
1002
{
1000
NOSEL
1070
     0
1002
}
1002
{
1000
BEHIND
1070
     0
1002
}
1002
{
1000
OTHER
1070
     0
1002
}
1002
{
1000
REACTOR
1002
}
  0
ARC
  5
17B61
  8
AM_0
 10
318.4443130393185
 20
612.59893333403988
 30
0.0
 40
2.0
 50
4.9999999999999813
 51
90.0
1001
GENIUS_GENOBJ-N-FIL_13
1002
{
1000
OWNER
1000
GEN
1002
}
1001
GENIUS_GENODEF_13
1002
{
1000
HIER
1070
     0
1002
}
1002
{
1000
MANEDIT
1070
     0
1002
}
1002
{
1000
NOSEL
1070
     0
1002
}
1002
{
1000
BEHIND
1070
     0
1002
}
1002
{
1000
OTHER
1070
     0
1002
}
1002
{
1000
REACTOR
1002
}
  0
ARC
  5
17B62
  8
AM_0
 10
325.12799523908899
 20
582.09894919830754
 30
0.0
 40
2.0
 50
185.0
 51
270.0
1001
GENIUS_GENOBJ-N-FIL_13
1002
{
1000
OWNER
1000
GEN
1002
}
1001
GENIUS_GENODEF_13
1002
{
1000
HIER
1070
     0
1002
}
1002
{
1000
MANEDIT
1070
     0
1002
}
1002
{
1000
NOSEL
1070
     0
1002
}
1002
{
1000
BEHIND
1070
     0
1002
}
1002
{
1000
OTHER
1070
     0
1002
}
1002
{
1000
REACTOR
1002
}
  0
ARC
  5
17B63
  8
AM_0
 10
329.79427832627528
 20
581.09894919830754
 30
0.0
 40
1.0
 50
270.0
 51
1.0000117734974521
1001
GENIUS_GENOBJ-N-FIL_13
1002
{
1000
OWNER
1000
GEN
1002
}
1001
GENIUS_GENODEF_13
1002
{
1000
HIER
1070
     0
1002
}
1002
{
1000
MANEDIT
1070
     0
1002
}
1002
{
1000
NOSEL
1070
     0
1002
}
1002
{
1000
BEHIND
1070
     0
1002
}
1002
{
1000
OTHER
1070
     0
1002
}
1002
{
1000
REACTOR
1002
}
  0
LINE
  5
17B64
  8
AM_0
 10
325.12799523908899
 20
580.09894919830754
 30
0.0
 11
329.7942783262755
 21
580.09894919830754
 31
0.0
  0
LINE
  5
17B65
  8
AM_0
 10
293.27697538735339
 20
489.09895333403978
 30
0.0
 11
302.40357821494899
 21
489.09895333403978
 31
0.0
  0
LINE
  5
17B66
  8
AM_0
 10
293.27697538735339
 20
501.05895333403981
 30
0.0
 11
303.27697538735339
 21
501.05895333403981
 31
0.0
  0
LINE
  5
17B67
  8
AM_0
 10
293.27697538735339
 20
515.95896333404005
 30
0.0
 11
303.27697538735339
 21
515.95896333404005
 31
0.0
  0
LINE
  5
17B68
  8
AM_0
 10
317.10967150142051
 20
506.09893924433118
 30
0.0
 11
330.13818199513599
 21
506.09893924433118
 31
0.0
  0
LINE
  5
17B69
  8
AM_0
 10
314.1681518130984
 20
493.42464184854458
 30
0.0
 11
315.11728210523722
 21
504.27325072982683
 31
0.0
  0
ARC
  5
17B6A
  8
AM_0
 10
317.10967150142028
 20
504.0989392443314
 30
0.0
 40
2.0
 50
90.0
 51
174.99999999999989
1001
GENIUS_GENOBJ-N-FIL_13
1002
{
1000
OWNER
1000
GEN
1002
}
1001
GENIUS_GENODEF_13
1002
{
1000
HIER
1070
     0
1002
}
1002
{
1000
MANEDIT
1070
     0
1002
}
1002
{
1000
NOSEL
1070
     0
1002
}
1002
{
1000
BEHIND
1070
     0
1002
}
1002
{
1000
OTHER
1070
     0
1002
}
1002
{
1000
REACTOR
1002
}
  0
LINE
  5
17B6B
  8
AM_0
 10
307.27697538735339
 20
491.59895333404
 30
0.0
 11
312.17576241691478
 21
491.59895333404
 31
0.0
  0
ARC
  5
17B6C
  8
AM_0
 10
302.40357821494888
 20
492.09895333403978
 30
0.0
 40
2.9999999999999978
 50
270.0
 51
324.31466528734541
1001
GENIUS_GENOBJ-N-FIL_13
1002
{
1000
OWNER
1000
GEN
1002
}
1001
GENIUS_GENODEF_13
1002
{
1000
HIER
1070
     0
1002
}
1002
{
1000
MANEDIT
1070
     0
1002
}
1002
{
1000
NOSEL
1070
     0
1002
}
1002
{
1000
BEHIND
1070
     0
1002
}
1002
{
1000
OTHER
1070
     0
1002
}
1002
{
1000
REACTOR
1002
}
  0
ARC
  5
17B6D
  8
AM_0
 10
307.27697538735322
 20
488.59895333403978
 30
0.0
 40
2.9999999999999978
 50
90.0
 51
144.31466528734541
1001
GENIUS_GENOBJ-N-FIL_13
1002
{
1000
OWNER
1000
GEN
1002
}
1001
GENIUS_GENODEF_13
1002
{
1000
HIER
1070
     0
1002
}
1002
{
1000
MANEDIT
1070
     0
1002
}
1002
{
1000
NOSEL
1070
     0
1002
}
1002
{
1000
BEHIND
1070
     0
1002
}
1002
{
1000
OTHER
1070
     0
1002
}
1002
{
1000
REACTOR
1002
}
  0
ARC
  5
17B6E
  8
AM_0
 10
312.17576241691461
 20
493.59895333404
 30
0.0
 40
2.0
 50
270.0
 51
355.0
1001
GENIUS_GENOBJ-N-FIL_13
1002
{
1000
OWNER
1000
GEN
1002
}
1001
GENIUS_GENODEF_13
1002
{
1000
HIER
1070
     0
1002
}
1002
{
1000
MANEDIT
1070
     0
1002
}
1002
{
1000
NOSEL
1070
     0
1002
}
1002
{
1000
BEHIND
1070
     0
1002
}
1002
{
1000
OTHER
1070
     0
1002
}
1002
{
1000
REACTOR
1002
}
  0
ARC
  5
17B6F
  8
AM_0
 10
330.13818199513582
 20
504.0989392443314
 30
0.0
 40
2.0
 50
1.000011773556045
 51
90.0
1001
GENIUS_GENOBJ-N-FIL_13
1002
{
1000
OWNER
1000
GEN
1002
}
1001
GENIUS_GENODEF_13
1002
{
1000
HIER
1070
     0
1002
}
1002
{
1000
MANEDIT
1070
     0
1002
}
1002
{
1000
NOSEL
1070
     0
1002
}
1002
{
1000
BEHIND
1070
     0
1002
}
1002
{
1000
OTHER
1070
     0
1002
}
1002
{
1000
REACTOR
1002
}
  0
LINE
  5
17B70
  8
AM_0
 10
402.2770080357983
 20
500.09894675451721
 30
0.0
 11
402.2770080357983
 21
504.09894687372628
 31
0.0
  0
LINE
  5
17B71
  8
ﾁｭｳｼﾝｾﾝ1
 10
439.77700915338539
 20
436.75316866438578
 30
0.0
 11
439.77700915338579
 21
628.0989491983072
 31
0.0
  0
LINE
  5
17B72
  8
AM_0
 10
502.7770110309317
 20
582.09894919830754
 30
0.0
 11
501.41553027746562
 21
504.0989392443314
 31
0.0
  0
LINE
  5
17B75
  8
AM_0
 10
477.2770102709726
 20
500.09894675451721
 30
0.0
 11
477.2770102709726
 21
504.09894687372628
 31
0.0
  0
LINE
  5
17B77
  8
ｶｸﾚｾﾝ2
 10
261.77691538735348
 20
584.59894833404007
 30
0.0
 11
187.77691538735351
 21
584.59894833404007
 31
0.0
  0
LINE
  5
17B78
  8
ｶｸﾚｾﾝ2
 10
264.77691538735348
 20
581.59894833404007
 30
0.0
 11
264.77691538735348
 21
524.5989483340403
 31
0.0
  0
ARC
  5
17B79
  8
ｶｸﾚｾﾝ2
 10
261.77691538735343
 20
581.59894833404007
 30
0.0
 40
3.0
 50
0.0
 51
90.0
  0
LINE
  5
17B7A
  8
ｶｸﾚｾﾝ2
 10
261.77691538735348
 20
521.59894833404007
 30
0.0
 11
187.77691538735351
 21
521.59894833404007
 31
0.0
  0
ARC
  5
17B7B
  8
ｶｸﾚｾﾝ2
 10
261.77691538735343
 20
524.59894833404019
 30
0.0
 40
3.0
 50
270.0
 51
0.0
  0
LINE
  5
17B7C
  8
ｶｸﾚｾﾝ2
 10
184.77691538735351
 20
524.5989483340403
 30
0.0
 11
184.77691538735351
 21
581.59894833404007
 31
0.0
  0
ARC
  5
17B7D
  8
ｶｸﾚｾﾝ2
 10
187.7769153873534
 20
524.5989483340403
 30
0.0
 40
3.0
 50
180.0
 51
270.0
  0
ARC
  5
17B7E
  8
ｶｸﾚｾﾝ2
 10
187.7769153873534
 20
581.59894833404041
 30
0.0
 40
3.0
 50
90.0
 51
180.0
  0
LINE
  5
17B7F
  8
AM_0
 10
160.27694538735309
 20
489.20896833404009
 30
0.0
 11
213.27694538735349
 21
489.20896833404009
 31
0.0
  0
LINE
  5
17B80
  8
AM_0
 10
160.27694538735309
 20
487.85895833404021
 30
0.0
 11
213.27694538735349
 21
487.85895833404021
 31
0.0
  0
LINE
  5
17B81
  8
AM_0
 10
160.27694538735309
 20
487.17896833404012
 30
0.0
 11
213.27694538735349
 21
487.17896833404012
 31
0.0
  0
LINE
  5
17B82
  8
AM_0
 10
160.27694538735341
 20
616.98895933404015
 30
0.0
 11
213.27694538735349
 21
616.98895933404015
 31
0.0
  0
LINE
  5
17B83
  8
AM_0
 10
160.27694538735341
 20
618.33897333404025
 30
0.0
 11
213.27694538735349
 21
618.33897333404025
 31
0.0
  0
LINE
  5
17B84
  8
AM_0
 10
160.27694538735341
 20
619.00895533404037
 30
0.0
 11
213.27694538735349
 21
619.00895533404037
 31
0.0
  0
LINE
  5
17B85
  8
AM_0
 10
182.27694538735341
 20
599.44896833404016
 30
0.0
 11
284.27694538735352
 21
599.44896833404016
 31
0.0
  0
LINE
  5
17B86
  8
AM_0
 10
182.27694538735309
 20
506.74895833404008
 30
0.0
 11
284.27694538735352
 21
506.74895833404008
 31
0.0
  0
LINE
  5
17B87
  8
AM_0
 10
277.62697538735353
 20
589.09894833404041
 30
0.0
 11
142.82699538735349
 21
589.09894833404041
 31
0.0
  0
LINE
  5
17B88
  8
AM_0
 10
160.27694538735309
 20
491.23896833404012
 30
0.0
 11
277.08693538735338
 21
491.23896833404012
 31
0.0
  0
LINE
  5
17B89
  8
AM_0
 10
160.27694538735341
 20
614.95896033404017
 30
0.0
 11
277.08693538735338
 21
614.95896033404017
 31
0.0
  0
LINE
  5
17B8A
  8
AM_0
 10
150.9569353873533
 20
516.37896833404022
 30
0.0
 11
281.0969453873534
 21
516.37896833404022
 31
0.0
  0
LINE
  5
17B8B
  8
AM_0
 10
277.62697538735353
 20
517.09894833404007
 30
0.0
 11
151.82699538735349
 21
517.09894833404007
 31
0.0
  0
LINE
  5
17B8C
  8
AM_0
 10
277.62697538735353
 20
587.09895833404039
 30
0.0
 11
142.82699538735349
 21
587.09895833404039
 31
0.0
  0
LINE
  5
17B8D
  8
AM_0
 10
281.0969453873534
 20
586.46895833404017
 30
0.0
 11
141.9569353873533
 21
586.46895833404017
 31
0.0
  0
LINE
  5
17B8E
  8
AM_0
 10
141.9569353873533
 20
589.81896833404039
 30
0.0
 11
281.0969453873534
 21
589.81896833404039
 31
0.0
  0
LINE
  5
17B8F
  8
AM_0
 10
281.0969453873534
 20
519.72896833404013
 30
0.0
 11
150.9569353873533
 21
519.72896833404013
 31
0.0
  0
LINE
  5
17B90
  8
AM_0
 10
280.22191538735348
 20
579.09896243404035
 30
0.0
 11
142.82699538735349
 21
579.09896833404025
 31
0.0
  0
LINE
  5
17B91
  8
AM_0
 10
280.22191543971348
 20
577.09895423404021
 30
0.0
 11
142.82699538735349
 21
577.09894833404041
 31
0.0
  0
LINE
  5
17B92
  8
AM_0
 10
141.73696538735339
 20
579.57895833404041
 30
0.0
 11
281.3119453873536
 21
579.57896833404027
 31
0.0
  0
LINE
  5
17B93
  8
AM_0
 10
141.73696538735339
 20
576.65894833404025
 30
0.0
 11
281.31194546379879
 21
576.65896833404008
 31
0.0
  0
LINE
  5
17B94
  8
AM_0
 10
141.60695538735331
 20
569.43896833404017
 30
0.0
 11
281.4419553873534
 21
569.43894833404022
 31
0.0
  0
LINE
  5
17B95
  8
AM_0
 10
280.21192092951242
 20
569.09894636379863
 30
0.0
 11
142.83693538735341
 21
569.09894833404041
 31
0.0
  0
LINE
  5
17B96
  8
AM_0
 10
280.21192103423192
 20
567.09895030336952
 30
0.0
 11
142.83693538735341
 21
567.09896833404025
 31
0.0
  0
LINE
  5
17B97
  8
AM_0
 10
141.60695538735331
 20
566.77895833404034
 30
0.0
 11
281.4419554569921
 21
566.77894833404036
 31
0.0
  0
LINE
  5
17B98
  8
AM_0
 10
141.5469653873534
 20
559.36895833404026
 30
0.0
 11
281.50194538735371
 21
559.36897233404022
 31
0.0
  0
LINE
  5
17B99
  8
AM_0
 10
280.21192092951242
 20
559.09896636379835
 30
0.0
 11
142.83693538735341
 21
559.09894833404007
 31
0.0
  0
LINE
  5
17B9A
  8
AM_0
 10
280.21192103423192
 20
557.09897030336924
 30
0.0
 11
142.83693538735341
 21
557.0989483340403
 31
0.0
  0
LINE
  5
17B9B
  8
AM_0
 10
141.5469653873534
 20
556.82895833404007
 30
0.0
 11
281.50194545385062
 21
556.82896433404028
 31
0.0
  0
LINE
  5
17B9C
  8
AM_0
 10
141.5469653873534
 20
549.35895833404015
 30
0.0
 11
281.50194538735371
 21
549.35898233404021
 31
0.0
  0
LINE
  5
17B9D
  8
AM_0
 10
280.21192092951242
 20
549.09896636379835
 30
0.0
 11
142.83693538735341
 21
549.09896833404025
 31
0.0
  0
LINE
  5
17B9E
  8
AM_0
 10
280.21192103423192
 20
547.09897030336924
 30
0.0
 11
142.83693538735341
 21
547.09894833404007
 31
0.0
  0
LINE
  5
17B9F
  8
AM_0
 10
141.5469653873534
 20
546.82895833404029
 30
0.0
 11
281.50194545358892
 21
546.82897433404025
 31
0.0
  0
LINE
  5
17BA0
  8
AM_0
 10
141.60695538735331
 20
539.41895833404021
 30
0.0
 11
281.4419553873534
 21
539.41895833404021
 31
0.0
  0
LINE
  5
17BA1
  8
AM_0
 10
280.21192092951242
 20
539.09894636379852
 30
0.0
 11
142.83693538735341
 21
539.09896833404025
 31
0.0
  0
LINE
  5
17BA2
  8
AM_0
 10
280.21192103423192
 20
537.09895030336941
 30
0.0
 11
142.83693538735341
 21
537.09896833404025
 31
0.0
  0
LINE
  5
17BA3
  8
AM_0
 10
141.60695538735331
 20
536.75896833404033
 30
0.0
 11
281.4419554569921
 21
536.75895833404024
 31
0.0
  0
LINE
  5
17BA4
  8
AM_0
 10
150.73696538735319
 20
529.53895833404033
 30
0.0
 11
281.30695538735358
 21
529.53895833404033
 31
0.0
  0
LINE
  5
17BA5
  8
AM_0
 10
280.21692538735329
 20
529.09897243404032
 30
0.0
 11
151.82699538735349
 21
529.09894833404019
 31
0.0
  0
LINE
  5
17BA6
  8
AM_0
 10
280.21692543971341
 20
527.09896423404018
 30
0.0
 11
151.82699538735349
 21
527.09896833404025
 31
0.0
  0
LINE
  5
17BA7
  8
AM_0
 10
150.73696538735319
 20
526.60897833404022
 30
0.0
 11
281.30695546406059
 21
526.60895833404015
 31
0.0
  0
LINE
  5
17BA8
  8
AM_0
 10
277.62695638723142
 20
519.09896668830822
 30
0.0
 11
151.82699538735349
 21
519.09896833404025
 31
0.0
  0
LINE
  5
17BA9
  8
AM_0
 10
132.27697538735339
 20
601.68895833404008
 30
0.0
 11
132.27697538735339
 21
558.09893833404033
 31
0.0
  0
LINE
  5
17BAA
  8
AM_0
 10
137.27691538735351
 20
610.52894733404037
 30
0.0
 11
137.27691538735351
 21
553.0989483340403
 31
0.0
  0
LINE
  5
17BAB
  8
AM_0
 10
130.77697538735339
 20
533.09895833404028
 30
0.0
 11
130.77697538735339
 21
573.09893833404021
 31
0.0
  0
LINE
  5
17BAC
  8
AM_0
 10
129.78307538735339
 20
568.32083833404056
 30
0.0
 11
129.78307538735339
 21
537.87720833404035
 31
0.0
  0
LINE
  5
17BAD
  8
AM_0
 10
140.99697538735339
 20
504.74895833404008
 30
0.0
 11
141.53701538735351
 21
501.75895833404007
 31
0.0
  0
LINE
  5
17BAE
  8
AM_0
 10
134.27691538735351
 20
503.5989483340403
 30
0.0
 11
134.27691538735351
 21
504.12894833404027
 31
0.0
  0
LINE
  5
17BAF
  8
AM_0
 10
134.0469353873535
 20
503.47894833404018
 30
0.0
 11
132.77691538735351
 21
504.21895833404011
 31
0.0
  0
LINE
  5
17BB0
  8
AM_0
 10
137.27691538735351
 20
495.66895833404021
 30
0.0
 11
137.27691538735351
 21
553.0989483340403
 31
0.0
  0
ARC
  5
17BB1
  8
AM_0
 10
160.27150538735319
 20
489.85352833404062
 30
0.0
 40
1.9945760999999991
 50
179.8440099999971
 51
270.15599200000003
  0
ARC
  5
17BB2
  8
AM_0
 10
160.27944538735341
 20
489.17380833404047
 30
0.0
 40
1.994844099999999
 50
194.36279999999999
 51
269.92834200000209
  0
LINE
  5
17BB3
  8
AM_0
 10
143.38692538735339
 20
489.79896833404018
 30
0.0
 11
156.88692538735339
 21
489.79896833404018
 31
0.0
  0
LINE
  5
17BB4
  8
AM_0
 10
143.41695538735331
 20
491.42896833404018
 30
0.0
 11
156.77694538735321
 21
491.42896833404018
 31
0.0
  0
LINE
  5
17BB5
  8
AM_0
 10
143.44698538735321
 20
494.82895833404029
 30
0.0
 11
156.77694538735321
 21
494.82895833404029
 31
0.0
  0
LINE
  5
17BB6
  8
AM_0
 10
143.50692538735331
 20
500.11896833404018
 30
0.0
 11
156.77694538735321
 21
500.11896833404018
 31
0.0
  0
ARC
  5
17BB7
  8
AM_0
 10
143.44863538735319
 20
496.8243583340406
 30
0.0
 40
1.9953879999999991
 50
192.01538000000019
 51
269.9519330000021
  0
LINE
  5
17BB8
  8
AM_0
 10
141.46694538735329
 20
492.96895833404011
 30
0.0
 11
140.54690538735329
 21
496.8489483340403
 31
0.0
  0
ARC
  5
17BB9
  8
AM_0
 10
139.10524538735319
 20
494.47185833404029
 30
0.0
 40
1.5070961
 50
14.097820000004161
 51
89.935179999998326
  0
LINE
  5
17BBA
  8
AM_0
 10
139.10695538735331
 20
495.9789583340401
 30
0.0
 11
140.75698538735341
 21
495.9789583340401
 31
0.0
  0
LINE
  5
17BBB
  8
AM_0
 10
137.27688538735339
 20
495.66895833404021
 30
0.0
 11
140.0969453873534
 21
495.59896833404008
 31
0.0
  0
ARC
  5
17BBC
  8
AM_0
 10
143.38424538735319
 20
491.79673833404053
 30
0.0
 40
1.9977800999999991
 50
194.13223000000309
 51
270.07691900000231
  0
LINE
  5
17BBD
  8
AM_0
 10
141.4469253873533
 20
491.30894833404022
 30
0.0
 11
140.5669153873535
 21
494.83893833404022
 31
0.0
  0
ARC
  5
17BBE
  8
AM_0
 10
143.40975538735341
 20
493.42441833404052
 30
0.0
 40
1.9954841000000001
 50
193.19407999999891
 51
270.20654200000092
  0
LINE
  5
17BBF
  8
AM_0
 10
139.0669153873535
 20
502.05897833404021
 30
0.0
 11
141.48696538735319
 21
502.05897833404021
 31
0.0
  0
ARC
  5
17BC0
  8
AM_0
 10
139.06814538735321
 20
500.55482833404062
 30
0.0
 40
1.50414
 50
12.444750000003371
 51
90.045750000001419
  0
LINE
  5
17BC1
  8
AM_0
 10
139.08693538735341
 20
497.9989783340402
 30
0.0
 11
141.14693538735341
 21
497.9989783340402
 31
0.0
  0
ARC
  5
17BC2
  8
AM_0
 10
139.08614538735321
 20
496.4961583340405
 30
0.0
 40
1.5028081
 50
13.577820000002831
 51
89.969209999998469
  0
ARC
  5
17BC3
  8
AM_0
 10
134.53894538735329
 20
504.34482833404053
 30
0.0
 40
0.9959119600000002
 50
240.3930099999962
 51
270.45855599999612
  0
ARC
  5
17BC4
  8
AM_0
 10
136.77233538735339
 20
502.84432833404031
 30
0.0
 40
0.5046359900000002
 50
0.5237599999994825
 51
89.476240000000516
  0
LINE
  5
17BC5
  8
AM_0
 10
134.54693538735339
 20
503.34894833404019
 30
0.0
 11
136.77697538735339
 21
503.34894833404019
 31
0.0
  0
ARC
  5
17BC6
  8
AM_0
 10
143.4988053873532
 20
502.11239833404039
 30
0.0
 40
1.993431999999999
 50
190.21196999999981
 51
270.23411600000071
  0
LINE
  5
17BC7
  8
AM_0
 10
141.49697538735339
 20
496.4089683340402
 30
0.0
 11
140.5369553873532
 21
500.87896833404022
 31
0.0
  0
LINE
  5
17BC8
  8
AM_0
 10
158.27694538735309
 20
491.20896833404009
 30
0.0
 11
158.27694538735309
 21
498.61896833404018
 31
0.0
  0
ARC
  5
17BC9
  8
AM_0
 10
160.27419538735339
 20
491.20617833404032
 30
0.0
 40
1.9972080000000001
 50
179.91986000000111
 51
270.08014299999962
  0
ARC
  5
17BCA
  8
AM_0
 10
160.27334538735329
 20
493.23534833404051
 30
0.0
 40
1.996383999999999
 50
179.89615999999731
 51
270.103837
  0
ARC
  5
17BCB
  8
AM_0
 10
156.89058538735341
 20
488.29206833404049
 30
0.0
 40
1.506888
 50
14.876930000005499
 51
90.137770000000501
  0
ARC
  5
17BCC
  8
AM_0
 10
156.77309538735349
 20
489.92512833404049
 30
0.0
 40
1.503848099999999
 50
0.1464000000030374
 51
89.853599999996987
  0
ARC
  5
17BCD
  8
AM_0
 10
156.7751753873533
 20
493.32717833404058
 30
0.0
 40
1.5017959999999979
 50
0.0685499999989503
 51
89.931450000001036
  0
ARC
  5
17BCE
  8
AM_0
 10
156.7712653873534
 20
498.61329833404051
 30
0.0
 40
1.505676
 50
0.2155299999989779
 51
89.784480000001125
  0
LINE
  5
17BCF
  8
AM_0
 10
130.77697538735339
 20
537.94893833404024
 30
0.0
 11
135.05694538735341
 21
537.94893833404024
 31
0.0
  0
LINE
  5
17BD0
  8
AM_0
 10
136.27691538735351
 20
537.0989483340403
 30
0.0
 11
133.27691538735351
 21
537.0989483340403
 31
0.0
  0
LINE
  5
17BD1
  8
AM_0
 10
136.27691538735351
 20
539.09895833404016
 30
0.0
 11
133.27691538735351
 21
539.09895833404016
 31
0.0
  0
LINE
  5
17BD2
  8
AM_0
 10
136.27691538735351
 20
527.09895833404016
 30
0.0
 11
133.27691538735351
 21
527.09895833404016
 31
0.0
  0
LINE
  5
17BD3
  8
AM_0
 10
136.27691538735351
 20
529.09894833404019
 30
0.0
 11
133.27691538735351
 21
529.09894833404019
 31
0.0
  0
LINE
  5
17BD4
  8
AM_0
 10
134.08691538735351
 20
517.48892833404022
 30
0.0
 11
132.88690538735341
 21
517.99892833404022
 31
0.0
  0
LINE
  5
17BD5
  8
AM_0
 10
134.13696538735351
 20
519.39894833404026
 30
0.0
 11
132.9869353873535
 21
519.74895833404025
 31
0.0
  0
LINE
  5
17BD6
  8
AM_0
 10
134.03692538735351
 20
505.5989483340403
 30
0.0
 11
132.75689538735361
 21
506.36893833404031
 31
0.0
  0
LINE
  5
17BD7
  8
AM_0
 10
134.02691538735351
 20
510.13898833404011
 30
0.0
 11
132.7269253873535
 21
510.98897833404033
 31
0.0
  0
LINE
  5
17BD8
  8
AM_0
 10
134.0469353873535
 20
511.24896833404023
 30
0.0
 11
132.7669053873536
 21
511.99896833404028
 31
0.0
  0
LINE
  5
17BD9
  8
AM_0
 10
134.0669553873534
 20
504.59891833404021
 30
0.0
 11
132.82696538735331
 21
505.2289183340402
 31
0.0
  0
LINE
  5
17BDA
  8
AM_0
 10
134.05694538735341
 20
506.70892833404008
 30
0.0
 11
132.80688538735359
 21
507.37892833404032
 31
0.0
  0
LINE
  5
17BDB
  8
AM_0
 10
136.27691538735351
 20
559.09894833404007
 30
0.0
 11
133.27691538735351
 21
559.09894833404007
 31
0.0
  0
LINE
  5
17BDC
  8
AM_0
 10
136.27691538735351
 20
557.09895833404016
 30
0.0
 11
133.27691538735351
 21
557.09895833404016
 31
0.0
  0
LINE
  5
17BDD
  8
AM_0
 10
136.27691538735351
 20
547.09894833404007
 30
0.0
 11
133.27691538735351
 21
547.09894833404007
 31
0.0
  0
LINE
  5
17BDE
  8
AM_0
 10
136.27691538735351
 20
549.0989483340403
 30
0.0
 11
133.27691538735351
 21
549.0989483340403
 31
0.0
  0
LINE
  5
17BDF
  8
AM_0
 10
132.27697538735339
 20
505.07893833404017
 30
0.0
 11
132.27697538735339
 21
548.09895833404016
 31
0.0
  0
ARC
  5
17BE0
  8
AM_0
 10
133.27172538735331
 20
511.82134833404041
 30
0.0
 40
0.9948279899999999
 50
179.56186999999991
 51
236.79531000000051
  0
ARC
  5
17BE1
  8
AM_0
 10
133.27014538735321
 20
505.08102833404018
 30
0.0
 40
0.99319202
 50
180.1204399999996
 51
240.22660000000249
  0
ARC
  5
17BE2
  8
AM_0
 10
133.27252538735331
 20
506.11925833404052
 30
0.0
 40
0.99558806
 50
180.0177499999989
 51
243.41250999999551
  0
ARC
  5
17BE3
  8
AM_0
 10
133.27136538735331
 20
507.21997833404032
 30
0.0
 40
0.9944360299999999
 50
180.0595100000007
 51
238.8478300000003
  0
ARC
  5
17BE4
  8
AM_0
 10
133.27014538735321
 20
508.2575183340403
 30
0.0
 40
0.9932120399999999
 50
179.91816999999921
 51
242.2006599999963
  0
ARC
  5
17BE5
  8
AM_0
 10
133.27099538735331
 20
512.85574833404053
 30
0.0
 40
0.99407601
 50
179.8153599999992
 51
239.5307999999971
  0
ARC
  5
17BE6
  8
AM_0
 10
133.27331538735339
 20
518.91736833404036
 30
0.0
 40
0.99640006
 50
179.90960000000121
 51
247.18261000000129
  0
ARC
  5
17BE7
  8
AM_0
 10
133.27319538735321
 20
520.70319833404051
 30
0.0
 40
0.9962600499999998
 50
179.6695099999998
 51
253.30251000000001
  0
ARC
  5
17BE8
  8
AM_0
 10
133.27197538735339
 20
528.09401833404058
 30
0.0
 40
0.9950800499999999
 50
179.7159300000007
 51
270.28407899999871
  0
ARC
  5
17BE9
  8
AM_0
 10
133.2770953873532
 20
528.09872833404052
 30
0.0
 40
1.0002040000000001
 50
90.011679999999274
 51
179.98832999999539
  0
LINE
  5
17BEA
  8
AM_0
 10
130.7769153873534
 20
533.09892833404035
 30
0.0
 11
132.27691538735351
 21
532.96892833404024
 31
0.0
  0
ARC
  5
17BEB
  8
AM_0
 10
133.27197538735339
 20
538.09403833404053
 30
0.0
 40
0.99508399
 50
179.71612999999539
 51
270.28386700000249
  0
LINE
  5
17BEC
  8
AM_0
 10
130.77697538735339
 20
535.81894833404033
 30
0.0
 11
132.27697538735339
 21
535.81894833404033
 31
0.0
  0
LINE
  5
17BED
  8
AM_0
 10
130.28307538735339
 20
535.10718833404042
 30
0.0
 11
130.78307538735339
 21
535.14719833404047
 31
0.0
  0
LINE
  5
17BEE
  8
AM_0
 10
129.78307538735339
 20
537.87720833404035
 30
0.0
 11
130.28307538735339
 21
535.10718833404042
 31
0.0
  0
ARC
  5
17BEF
  8
AM_0
 10
133.2770953873532
 20
538.09874833404035
 30
0.0
 40
1.000199999999998
 50
90.011469999999875
 51
179.9885300000002
  0
ARC
  5
17BF0
  8
AM_0
 10
133.27197538735339
 20
548.09401833404058
 30
0.0
 40
0.9950879799999999
 50
179.71634999999941
 51
270.28365499999722
  0
ARC
  5
17BF1
  8
AM_0
 10
133.2770953873532
 20
548.09874833404035
 30
0.0
 40
1.0001959999999981
 50
90.011260000000647
 51
179.98875000000061
  0
ARC
  5
17BF2
  8
AM_0
 10
133.27197538735339
 20
558.09401833404047
 30
0.0
 40
0.9950800499999999
 50
179.71590000000009
 51
270.28410599999722
  0
POINT
  5
17BF3
  8
AM_0
 10
129.78307538735339
 20
553.09897833404034
 30
0.0
  0
ARC
  5
17BF4
  8
AM_0
 10
133.2770953873532
 20
558.09872833404029
 30
0.0
 40
1.0002040000000001
 50
90.011700000001696
 51
179.9882999999983
  0
LINE
  5
17BF5
  8
AM_0
 10
182.27694538735309
 20
506.74897833404032
 30
0.0
 11
147.27694538735321
 21
508.77897833404029
 31
0.0
  0
ARC
  5
17BF6
  8
AM_0
 10
159.27694538735329
 20
518.09896833404036
 30
0.0
 40
1.0000040999999991
 50
90.0
 51
269.99999700000228
  0
ARC
  5
17BF7
  8
AM_0
 10
151.82699538735341
 20
518.09896833404036
 30
0.0
 40
1.0000040999999991
 50
90.0
 51
269.99999700000228
  0
ARC
  5
17BF8
  8
AM_0
 10
150.95693538735321
 20
518.05396833404052
 30
0.0
 40
1.6750081000000001
 50
90.0
 51
269.99999700000228
  0
LINE
  5
17BF9
  8
AM_0
 10
137.27694538735341
 20
518.78896833404031
 30
0.0
 11
147.27694538735321
 21
518.78896833404031
 31
0.0
  0
LINE
  5
17BFA
  8
AM_0
 10
137.27694538735341
 20
504.74897833404009
 30
0.0
 11
147.27694538735321
 21
504.74897833404009
 31
0.0
  0
LINE
  5
17BFB
  8
AM_0
 10
137.27694538735341
 20
510.4089683340402
 30
0.0
 11
147.27694538735321
 21
510.4089683340402
 31
0.0
  0
ARC
  5
17BFC
  8
AM_0
 10
136.2745353873533
 20
512.11131833404045
 30
0.0
 40
1.002375999999999
 50
270.1355900000006
 51
359.86440800999611
  0
ARC
  5
17BFD
  8
AM_0
 10
134.50170538735341
 20
505.49297833404052
 30
0.0
 40
0.9941280500000002
 50
244.06519000000131
 51
270.87719199999799
  0
ARC
  5
17BFE
  8
AM_0
 10
134.5457753873533
 20
506.45314833404018
 30
0.0
 40
0.9942600099999999
 50
239.21890999999769
 51
270.64411799999749
  0
ARC
  5
17BFF
  8
AM_0
 10
134.51202538735319
 20
507.59430833404048
 30
0.0
 40
0.99546796
 50
242.79633999999999
 51
270.85855199999838
  0
ARC
  5
17C00
  8
AM_0
 10
136.2779553873533
 20
507.5979583340403
 30
0.0
 40
0.9990080599999998
 50
269.94315700000391
 51
0.0568500000028305
  0
ARC
  5
17C01
  8
AM_0
 10
136.7785653873533
 20
504.9973083340405
 30
0.0
 40
0.4983640000000002
 50
269.81140199999908
 51
0.1885900000049645
  0
LINE
  5
17C02
  8
AM_0
 10
134.55694538735341
 20
505.45895833404001
 30
0.0
 11
137.27691538735351
 21
505.45895833404001
 31
0.0
  0
LINE
  5
17C03
  8
AM_0
 10
134.52697538735339
 20
506.5989483340403
 30
0.0
 11
136.27691538735351
 21
506.5989483340403
 31
0.0
  0
LINE
  5
17C04
  8
AM_0
 10
134.51690538735349
 20
504.4989583340402
 30
0.0
 11
136.77697538735339
 21
504.4989583340402
 31
0.0
  0
LINE
  5
17C05
  8
AM_0
 10
134.27691538735351
 20
505.69893833404018
 30
0.0
 11
134.27691538735351
 21
506.24893833404019
 31
0.0
  0
ARC
  5
17C06
  8
AM_0
 10
134.58355538735341
 20
510.9651383340406
 30
0.0
 40
0.9962120099999999
 50
236.03009999999921
 51
269.61809399999811
  0
ARC
  5
17C07
  8
AM_0
 10
134.55633538735319
 20
512.10542833404043
 30
0.0
 40
0.9965200400000001
 50
239.25671999999781
 51
269.45878700000048
  0
LINE
  5
17C08
  8
AM_0
 10
134.57696538735331
 20
509.96893833404022
 30
0.0
 11
137.27691538735351
 21
509.96893833404022
 31
0.0
  0
LINE
  5
17C09
  8
AM_0
 10
134.54693538735339
 20
511.10895833404021
 30
0.0
 11
136.27691538735351
 21
511.10895833404021
 31
0.0
  0
LINE
  5
17C0A
  8
AM_0
 10
134.27691538735351
 20
510.26895833404029
 30
0.0
 11
134.27691538735351
 21
510.73894833404012
 31
0.0
  0
ARC
  5
17C0B
  8
AM_0
 10
134.47790538735339
 20
518.4044283340404
 30
0.0
 40
0.99548006
 50
246.87296999999779
 51
269.94267900000119
  0
ARC
  5
17C0C
  8
AM_0
 10
136.57238538735339
 20
516.70439833404032
 30
0.0
 40
0.7045519900000002
 50
0.3691099999995284
 51
89.630890000000477
  0
LINE
  5
17C0D
  8
AM_0
 10
134.4769253873535
 20
517.40894833404025
 30
0.0
 11
136.57690538735349
 21
517.40894833404025
 31
0.0
  0
LINE
  5
17C0E
  8
AM_0
 10
134.27691538735351
 20
517.70894833404009
 30
0.0
 11
134.27691538735351
 21
518.76894833404015
 31
0.0
  0
ARC
  5
17C0F
  8
AM_0
 10
150.42684538735341
 20
511.88880833404039
 30
0.0
 40
1.004135999999999
 50
314.20256399999698
 51
5.1511600000045359
  0
LINE
  5
17C10
  8
AM_0
 10
147.27694538735321
 20
504.74897833404009
 30
0.0
 11
147.27694538735321
 21
518.78896833404031
 31
0.0
  0
ARC
  5
17C11
  8
AM_0
 10
146.8981553873534
 20
515.43090833404062
 30
0.0
 40
6.0039081999999979
 50
273.61728599999782
 51
314.77630699999719
  0
ARC
  5
17C12
  8
AM_0
 10
146.44185538735331
 20
511.50118833404048
 30
0.0
 40
5.0078917000000001
 50
5.474679999999478
 51
80.401279999998891
  0
ARC
  5
17C13
  8
AM_0
 10
136.27203538735321
 20
526.09403833404053
 30
0.0
 40
1.0049318999999981
 50
0.280419999996937
 51
89.719580000003077
  0
ARC
  5
17C14
  8
AM_0
 10
134.4160753873534
 20
520.35165833404062
 30
0.0
 40
0.99277198
 50
253.66818000000049
 51
270.62519200000003
  0
ARC
  5
17C15
  8
AM_0
 10
136.2786253873532
 20
520.35724833404061
 30
0.0
 40
0.99829602
 50
269.90203900000103
 51
0.0979600000026082
  0
LINE
  5
17C16
  8
AM_0
 10
134.4269453873533
 20
519.35895833404015
 30
0.0
 11
136.27691538735351
 21
519.35895833404015
 31
0.0
  0
ARC
  5
17C17
  8
AM_0
 10
136.2770953873532
 20
530.09879833404045
 30
0.0
 40
0.99985206
 50
269.99145299999788
 51
0.0085499999998362
  0
LINE
  5
17C18
  8
AM_0
 10
134.27691538735351
 20
527.46893833404022
 30
0.0
 11
134.27691538735351
 21
528.83893833404034
 31
0.0
  0
ARC
  5
17C19
  8
AM_0
 10
150.73696538735331
 20
528.07395833404041
 30
0.0
 40
1.4650000000000001
 50
90.0
 51
269.99999700000228
  0
ARC
  5
17C1A
  8
AM_0
 10
151.82699538735341
 20
528.09896833404059
 30
0.0
 40
1.0000040999999991
 50
90.0
 51
269.99999700000228
  0
ARC
  5
17C1B
  8
AM_0
 10
159.27694538735329
 20
528.09896833404059
 30
0.0
 40
1.0000040999999991
 50
90.0
 51
269.99999700000228
  0
ARC
  5
17C1C
  8
AM_0
 10
136.2770953873532
 20
550.09879833404045
 30
0.0
 40
0.99984801
 50
269.99122100000187
 51
0.0087799999995219
  0
ARC
  5
17C1D
  8
AM_0
 10
141.6069553873532
 20
538.08895833404063
 30
0.0
 40
1.3300000000000001
 50
90.0
 51
269.99999700000228
  0
ARC
  5
17C1E
  8
AM_0
 10
136.27203538735321
 20
536.09403833404053
 30
0.0
 40
1.004928
 50
0.2802199999997334
 51
89.719780000000256
  0
ARC
  5
17C1F
  8
AM_0
 10
136.2770953873532
 20
540.09880833404054
 30
0.0
 40
0.9998440099999999
 50
269.9910090000015
 51
0.0089899999971532
  0
LINE
  5
17C20
  8
AM_0
 10
134.27691538735351
 20
537.48895833404015
 30
0.0
 11
134.27691538735351
 21
538.69893833404024
 31
0.0
  0
ARC
  5
17C21
  8
AM_0
 10
142.8282753873533
 20
538.09894833404064
 30
0.0
 40
1.000035999999999
 50
89.500709999998392
 51
270.49928399999988
  0
ARC
  5
17C22
  8
AM_0
 10
141.54696538735351
 20
548.09397833404034
 30
0.0
 40
1.265004
 50
90.0
 51
269.99999700000228
  0
LINE
  5
17C23
  8
AM_0
 10
134.27691538735351
 20
547.48894833404006
 30
0.0
 11
134.27691538735351
 21
548.64896833403998
 31
0.0
  0
ARC
  5
17C24
  8
AM_0
 10
136.27203538735321
 20
546.09404833404039
 30
0.0
 40
1.0049238999999981
 50
0.2800099999963468
 51
89.719989999997168
  0
ARC
  5
17C25
  8
AM_0
 10
142.8282753873533
 20
548.09896833404036
 30
0.0
 40
1.000035999999999
 50
89.500709999998392
 51
270.49928399999988
  0
ARC
  5
17C26
  8
AM_0
 10
159.27694538735329
 20
538.09894833404064
 30
0.0
 40
1.0000040999999991
 50
90.0
 51
269.99999700000228
  0
ARC
  5
17C27
  8
AM_0
 10
159.27694538735329
 20
548.09896833404036
 30
0.0
 40
1.0000040999999991
 50
90.0
 51
269.99999700000228
  0
ARC
  5
17C28
  8
AM_0
 10
142.8282753873533
 20
558.09896833404059
 30
0.0
 40
1.000035999999999
 50
89.500709999998392
 51
270.49928399999988
  0
ARC
  5
17C29
  8
AM_0
 10
141.54696538735351
 20
558.09896833404059
 30
0.0
 40
1.270003999999999
 50
90.0
 51
269.99999700000228
  0
ARC
  5
17C2A
  8
AM_0
 10
136.27197538735339
 20
556.09402833404044
 30
0.0
 40
1.0049318999999981
 50
0.2804500000010179
 51
89.719549999998989
  0
ARC
  5
17C2B
  8
AM_0
 10
136.2770953873532
 20
560.09879833404045
 30
0.0
 40
0.99985206
 50
269.9914259999988
 51
0.0085700000020505
  0
LINE
  5
17C2C
  8
AM_0
 10
134.27691538735351
 20
558.70895833404006
 30
0.0
 11
134.27691538735351
 21
557.54893833404037
 31
0.0
  0
ARC
  5
17C2D
  8
AM_0
 10
159.27694538735329
 20
558.09896833404059
 30
0.0
 40
1.0000040999999991
 50
90.0
 51
269.99999700000228
  0
LINE
  5
17C2E
  8
AM_0
 10
134.0469353873535
 20
602.70891733404005
 30
0.0
 11
132.77691538735351
 21
601.97892133404025
 31
0.0
  0
LINE
  5
17C2F
  8
AM_0
 10
134.0668953873535
 20
601.58892233404015
 30
0.0
 11
132.82690538735349
 21
600.95892433404026
 31
0.0
  0
LINE
  5
17C30
  8
AM_0
 10
134.02691538735351
 20
596.05893833404025
 30
0.0
 11
132.7269253873535
 21
595.20893233404024
 31
0.0
  0
LINE
  5
17C31
  8
AM_0
 10
134.03692538735351
 20
600.59891633404027
 30
0.0
 11
132.75689538735361
 21
599.8289043340402
 31
0.0
  0
LINE
  5
17C32
  8
AM_0
 10
134.0469353873535
 20
594.94893033404037
 30
0.0
 11
132.76696538735339
 21
594.19894533404022
 31
0.0
  0
LINE
  5
17C33
  8
AM_0
 10
134.05694538735341
 20
599.47895133404018
 30
0.0
 11
132.80694538735341
 21
598.81896333404006
 31
0.0
  0
LINE
  5
17C34
  8
AM_0
 10
134.08691538735351
 20
588.70892433404038
 30
0.0
 11
132.88696538735351
 21
588.18895833404008
 31
0.0
  0
LINE
  5
17C35
  8
AM_0
 10
134.13696538735351
 20
586.79892833404006
 30
0.0
 11
132.9869353873535
 21
586.43892833404016
 31
0.0
  0
LINE
  5
17C36
  8
AM_0
 10
130.77697538735339
 20
568.24895833404025
 30
0.0
 11
135.35693538735339
 21
568.24895833404025
 31
0.0
  0
LINE
  5
17C37
  8
AM_0
 10
136.27691538735351
 20
579.0989383340401
 30
0.0
 11
133.27691538735351
 21
579.0989383340401
 31
0.0
  0
LINE
  5
17C38
  8
AM_0
 10
136.27691538735351
 20
577.09894833404007
 30
0.0
 11
133.27691538735351
 21
577.09894833404007
 31
0.0
  0
LINE
  5
17C39
  8
AM_0
 10
136.27691538735351
 20
569.09895833404016
 30
0.0
 11
133.27691538735351
 21
569.09895833404016
 31
0.0
  0
LINE
  5
17C3A
  8
AM_0
 10
136.27691538735351
 20
567.09893833404021
 30
0.0
 11
133.27691538735351
 21
567.09893833404021
 31
0.0
  0
ARC
  5
17C3B
  8
AM_0
 10
133.27197538735339
 20
568.09402833404044
 30
0.0
 40
0.99508399
 50
179.71611000000209
 51
270.2838940000006
  0
LINE
  5
17C3C
  8
AM_0
 10
130.77697538735339
 20
570.37894833404016
 30
0.0
 11
132.27697538735339
 21
570.37894833404016
 31
0.0
  0
LINE
  5
17C3D
  8
AM_0
 10
130.28307538735339
 20
571.09079833404064
 30
0.0
 11
130.7831053873536
 21
571.05078833404048
 31
0.0
  0
ARC
  5
17C3E
  8
AM_0
 10
133.2770953873532
 20
568.09873833404026
 30
0.0
 40
1.000199999999998
 50
90.011490000002226
 51
179.98849999999649
  0
LINE
  5
17C3F
  8
AM_0
 10
129.78307538735339
 20
568.32080833404052
 30
0.0
 11
130.28307538735339
 21
571.09079833404064
 31
0.0
  0
LINE
  5
17C40
  8
AM_0
 10
130.77697538735339
 20
573.09894833404007
 30
0.0
 11
132.27691538735351
 21
573.22894833404018
 31
0.0
  0
ARC
  5
17C41
  8
AM_0
 10
133.2770953873532
 20
578.09874833404035
 30
0.0
 40
1.0001959999999981
 50
90.011280000003083
 51
179.9887199999969
  0
ARC
  5
17C42
  8
AM_0
 10
133.27197538735339
 20
578.09400833404038
 30
0.0
 40
0.99508399
 50
179.71632000000011
 51
270.2836759999974
  0
ARC
  5
17C43
  8
AM_0
 10
133.27343538735329
 20
587.27047833404026
 30
0.0
 40
0.9964760499999998
 50
112.8203400000006
 51
180.08741999999921
  0
ARC
  5
17C44
  8
AM_0
 10
133.27331538735339
 20
585.48460533404034
 30
0.0
 40
0.9963800299999999
 50
106.7029299999986
 51
179.75050999999979
  0
ARC
  5
17C45
  8
AM_0
 10
133.27600538735339
 20
594.37426133404051
 30
0.0
 40
0.9991000299999999
 50
123.3382300000039
 51
180.30457999999891
  0
ARC
  5
17C46
  8
AM_0
 10
133.2753953873534
 20
593.33964633404048
 30
0.0
 40
0.9984599899999999
 50
120.6134499999974
 51
180.04038000000051
  0
ARC
  5
17C47
  8
AM_0
 10
133.27465538735339
 20
597.93765433404042
 30
0.0
 40
0.99770796
 50
117.9552399999982
 51
179.92595000000051
  0
ARC
  5
17C48
  8
AM_0
 10
133.27258538735339
 20
600.06858933404055
 30
0.0
 40
0.99566799
 50
116.5901699999992
 51
179.97956999999909
  0
ARC
  5
17C49
  8
AM_0
 10
133.2745353873533
 20
601.11428233404058
 30
0.0
 40
0.9976240400000001
 50
119.920460000001
 51
179.73248999999601
  0
ARC
  5
17C4A
  8
AM_0
 10
133.2756953873533
 20
598.97545033404049
 30
0.0
 40
0.9987800700000001
 50
121.2914500000002
 51
180.3733299999999
  0
ARC
  5
17C4B
  8
AM_0
 10
146.90719538735331
 20
590.75245833404028
 30
0.0
 40
6.007896399999999
 50
45.382730000004543
 51
86.471550000001685
  0
LINE
  5
17C4C
  8
AM_0
 10
147.27694538735341
 20
601.44895833404007
 30
0.0
 11
147.27694538735369
 21
589.75895794617156
 31
0.0
  0
ARC
  5
17C4D
  8
AM_0
 10
136.2770953873532
 20
580.09878833404059
 30
0.0
 40
0.99984801
 50
269.99119300000132
 51
0.0088100000029634
  0
ARC
  5
17C4E
  8
AM_0
 10
141.6069553873532
 20
568.10894833404063
 30
0.0
 40
1.3300000000000001
 50
90.0
 51
269.99999700000228
  0
ARC
  5
17C4F
  8
AM_0
 10
136.27203538735321
 20
566.09403833404053
 30
0.0
 40
1.004928
 50
0.2802399999999494
 51
89.719760000000036
  0
LINE
  5
17C50
  8
AM_0
 10
134.27691538735351
 20
568.70893833404023
 30
0.0
 11
134.27691538735351
 21
567.48895833404015
 31
0.0
  0
ARC
  5
17C51
  8
AM_0
 10
136.2770953873532
 20
570.09879833404057
 30
0.0
 40
0.9998440099999999
 50
269.99098200000219
 51
0.0090200000005147
  0
ARC
  5
17C52
  8
AM_0
 10
142.8282753873533
 20
568.09894833404064
 30
0.0
 40
1.000035999999999
 50
89.500709999998392
 51
270.49928399999988
  0
ARC
  5
17C53
  8
AM_0
 10
141.73696538735331
 20
578.11896833404046
 30
0.0
 40
1.4599999999999991
 50
90.0
 51
269.99999700000228
  0
LINE
  5
17C54
  8
AM_0
 10
134.27691538735351
 20
578.72894833404007
 30
0.0
 11
134.27691538735351
 21
577.35895833404015
 31
0.0
  0
ARC
  5
17C55
  8
AM_0
 10
136.27203538735321
 20
576.09403833404053
 30
0.0
 40
1.0049238999999981
 50
0.2800299999961631
 51
89.719960000000682
  0
ARC
  5
17C56
  8
AM_0
 10
142.82699538735341
 20
578.09895833404062
 30
0.0
 40
1.0000040999999991
 50
90.0
 51
269.99999700000228
  0
ARC
  5
17C57
  8
AM_0
 10
159.27694538735329
 20
568.09894833404064
 30
0.0
 40
1.0000040999999991
 50
90.0
 51
269.99999700000228
  0
ARC
  5
17C58
  8
AM_0
 10
159.27694538735329
 20
578.09895833404062
 30
0.0
 40
1.0000040999999991
 50
90.0
 51
269.99999700000228
  0
ARC
  5
17C59
  8
AM_0
 10
142.82699801727509
 20
588.09896538404064
 30
0.0
 40
1.000007050003423
 50
90.000150682346131
 51
269.99984931765391
  0
ARC
  5
17C5A
  8
AM_0
 10
141.95693538735321
 20
588.14396833404055
 30
0.0
 40
1.6750081000000001
 50
90.0
 51
269.99999700000228
  0
LINE
  5
17C5B
  8
AM_0
 10
134.27691538735351
 20
588.48895433404027
 30
0.0
 11
134.27691538735351
 21
587.42895633404009
 31
0.0
  0
LINE
  5
17C5C
  8
AM_0
 10
137.27694538735341
 20
587.39895833404023
 30
0.0
 11
140.44698538735341
 21
587.39895833404023
 31
0.0
  0
ARC
  5
17C5D
  8
AM_0
 10
136.27362538735329
 20
585.83559533404059
 30
0.0
 40
1.003363999999999
 50
0.1917200000035901
 51
89.808290000001335
  0
ARC
  5
17C5E
  8
AM_0
 10
134.41748538735339
 20
585.83625933404028
 30
0.0
 40
1.0027280000000001
 50
89.459600000000606
 51
106.24702999999781
  0
LINE
  5
17C5F
  8
AM_0
 10
134.4269453873533
 20
586.83894433404021
 30
0.0
 11
136.27691538735351
 21
586.83894433404021
 31
0.0
  0
ARC
  5
17C60
  8
AM_0
 10
136.5775153873532
 20
589.48838933404033
 30
0.0
 40
0.69944
 50
269.95415999999977
 51
0.0458400000001724
  0
ARC
  5
17C61
  8
AM_0
 10
134.4799153873534
 20
587.78372333404059
 30
0.0
 40
1.005223999999999
 50
90.170639999996354
 51
113.01371000000169
  0
LINE
  5
17C62
  8
AM_0
 10
134.4769253873535
 20
588.78894933404024
 30
0.0
 11
136.57690538735349
 21
588.78894933404024
 31
0.0
  0
ARC
  5
17C63
  8
AM_0
 10
134.54028538735329
 20
594.07795033404034
 30
0.0
 40
1.001012
 50
89.619800000002854
 51
119.52863999999821
  0
ARC
  5
17C64
  8
AM_0
 10
136.27447538735319
 20
594.07648633404051
 30
0.0
 40
1.0024599999999999
 50
0.1403800000055
 51
89.859620000001044
  0
LINE
  5
17C65
  8
AM_0
 10
134.54693538735339
 20
595.07894233404022
 30
0.0
 11
136.27691538735351
 21
595.07894233404022
 31
0.0
  0
ARC
  5
17C66
  8
AM_0
 10
159.27694538735329
 20
588.09896833404059
 30
0.0
 40
1.0000040999999991
 50
90.0
 51
269.99999700000228
  0
ARC
  5
17C67
  8
AM_0
 10
150.42348538735331
 20
594.30786833404079
 30
0.0
 40
1.007376
 50
354.93659510000271
 51
45.709679999998713
  0
ARC
  5
17C68
  8
AM_0
 10
146.44716538735329
 20
594.69183833404054
 30
0.0
 40
5.0021839000000003
 50
279.54857499999861
 51
354.57547400000232
  0
LINE
  5
17C69
  8
AM_0
 10
182.27700538735351
 20
599.44895833404019
 30
0.0
 11
147.27700538735351
 21
597.41895833404021
 31
0.0
  0
ARC
  5
17C6A
  8
AM_0
 10
143.4488753873533
 20
609.36325733404055
 30
0.0
 40
1.995695899999999
 50
90.05521999999722
 51
167.97747000000001
  0
LINE
  5
17C6B
  8
AM_0
 10
137.27694538735341
 20
610.5289673340402
 30
0.0
 11
140.0969453873534
 21
610.59896733404025
 31
0.0
  0
ARC
  5
17C6C
  8
AM_0
 10
139.1119053873532
 20
611.72074033404056
 30
0.0
 40
1.501779999999999
 50
269.81061700000078
 51
345.66716400000092
  0
LINE
  5
17C6D
  8
AM_0
 10
158.27694538735341
 20
614.98896633404024
 30
0.0
 11
158.27694538735341
 21
607.57896333404005
 31
0.0
  0
LINE
  5
17C6E
  8
AM_0
 10
141.46694538735349
 20
613.22897233404024
 30
0.0
 11
140.54690538735329
 21
609.34897533404046
 31
0.0
  0
LINE
  5
17C6F
  8
AM_0
 10
137.27694538735341
 20
601.44895833404007
 30
0.0
 11
147.27694538735341
 21
601.44895833404007
 31
0.0
  0
LINE
  5
17C70
  8
AM_0
 10
143.50692538735331
 20
606.07896333404017
 30
0.0
 11
156.77694538735341
 21
606.07896333404017
 31
0.0
  0
LINE
  5
17C71
  8
AM_0
 10
137.27694538735341
 20
595.78895833404033
 30
0.0
 11
147.27694538735341
 21
595.78895833404033
 31
0.0
  0
LINE
  5
17C72
  8
AM_0
 10
140.99697538735359
 20
601.44895833404007
 30
0.0
 11
141.53701538735351
 21
604.43897933404025
 31
0.0
  0
ARC
  5
17C73
  8
AM_0
 10
136.77734538735319
 20
603.34851233404061
 30
0.0
 40
0.49955601
 50
269.94910599999588
 51
0.0508899999969081
  0
ARC
  5
17C74
  8
AM_0
 10
134.56970538735339
 20
595.21844633404032
 30
0.0
 40
1.0005360000000001
 50
89.586779999997887
 51
122.8535999999999
  0
LINE
  5
17C75
  8
AM_0
 10
134.57696538735331
 20
596.21895733404017
 30
0.0
 11
137.27691538735351
 21
596.21895733404017
 31
0.0
  0
LINE
  5
17C76
  8
AM_0
 10
134.27691538735351
 20
595.92894133404025
 30
0.0
 11
134.27691538735351
 21
595.45895533404018
 31
0.0
  0
ARC
  5
17C77
  8
AM_0
 10
134.5576153873532
 20
601.84787133404052
 30
0.0
 40
1.001135899999998
 50
90.61249000000069
 51
120.6719999999972
  0
ARC
  5
17C78
  8
AM_0
 10
134.52276538735319
 20
600.69968533404062
 30
0.0
 40
0.99928796
 50
90.333809999998678
 51
117.1387300000023
  0
ARC
  5
17C79
  8
AM_0
 10
136.77349538735339
 20
601.19555833404036
 30
0.0
 40
0.50340396
 50
0.3861300000047318
 51
89.613870000001825
  0
LINE
  5
17C7A
  8
AM_0
 10
134.54693538735339
 20
602.84895433404006
 30
0.0
 11
136.77697538735339
 21
602.84895433404006
 31
0.0
  0
LINE
  5
17C7B
  8
AM_0
 10
134.51690538735349
 20
601.69893733404024
 30
0.0
 11
136.77697538735339
 21
601.69893733404024
 31
0.0
  0
LINE
  5
17C7C
  8
AM_0
 10
134.27691538735351
 20
602.59894733404019
 30
0.0
 11
134.27691538735351
 21
602.06894833404021
 31
0.0
  0
ARC
  5
17C7D
  8
AM_0
 10
134.54827538735341
 20
599.73529133404054
 30
0.0
 40
1.003687999999999
 50
89.5072500000025
 51
120.62973
  0
LINE
  5
17C7E
  8
AM_0
 10
134.55694538735341
 20
600.73893833404009
 30
0.0
 11
137.27691538735351
 21
600.73893833404009
 31
0.0
  0
LINE
  5
17C7F
  8
AM_0
 10
134.52697538735339
 20
599.59894733404019
 30
0.0
 11
136.27691538735351
 21
599.59894733404019
 31
0.0
  0
LINE
  5
17C80
  8
AM_0
 10
134.27691538735351
 20
600.49895633404014
 30
0.0
 11
134.27691538735351
 21
599.94895333404008
 31
0.0
  0
ARC
  5
17C81
  8
AM_0
 10
134.53210538735331
 20
598.59832133404041
 30
0.0
 40
1.0006280000000001
 50
90.295290000000691
 51
118.3501399999985
  0
ARC
  5
17C82
  8
AM_0
 10
136.2728853873534
 20
598.59486533404061
 30
0.0
 40
1.004083999999998
 50
0.2326300000036064
 51
89.767370000002884
  0
LINE
  5
17C83
  8
AM_0
 10
139.10695538735331
 20
610.21895533404017
 30
0.0
 11
140.7569853873535
 21
610.21895533404017
 31
0.0
  0
LINE
  5
17C84
  8
AM_0
 10
139.08693538735341
 20
608.19895833404007
 30
0.0
 11
141.14693538735341
 21
608.19895833404007
 31
0.0
  0
ARC
  5
17C85
  8
AM_0
 10
139.09127538735331
 20
609.69529633404045
 30
0.0
 40
1.4963319999999991
 50
269.83540999999917
 51
346.617561999999
  0
LINE
  5
17C86
  8
AM_0
 10
139.0669153873535
 20
604.12895833404025
 30
0.0
 11
141.48696538735339
 21
604.12895833404025
 31
0.0
  0
ARC
  5
17C87
  8
AM_0
 10
139.06710538735331
 20
605.63175133404025
 30
0.0
 40
1.5027881000000001
 50
269.9953320000032
 51
347.98665799999719
  0
ARC
  5
17C88
  8
AM_0
 10
143.5039353873531
 20
604.07933733404025
 30
0.0
 40
1.9996280999999989
 50
89.914670000000115
 51
169.63923999999719
  0
LINE
  5
17C89
  8
AM_0
 10
141.49697538735359
 20
609.77896733404009
 30
0.0
 11
140.5369553873534
 21
605.31895333404009
 31
0.0
  0
ARC
  5
17C8A
  8
AM_0
 10
156.7765753873534
 20
607.57932933404049
 30
0.0
 40
1.5003600999999991
 50
270.01381500000002
 51
359.98618399999862
  0
LINE
  5
17C8B
  8
AM_0
 10
143.41695538735331
 20
614.7689653340401
 30
0.0
 11
156.77694538735341
 21
614.7689653340401
 31
0.0
  0
LINE
  5
17C8C
  8
AM_0
 10
143.38692538735339
 20
616.39897033404009
 30
0.0
 11
156.88692538735339
 21
616.39897033404009
 31
0.0
  0
LINE
  5
17C8D
  8
AM_0
 10
143.44698538735341
 20
611.35896933404024
 30
0.0
 11
156.77694538735341
 21
611.35896933404024
 31
0.0
  0
ARC
  5
17C8E
  8
AM_0
 10
143.41488538735319
 20
612.76702733404045
 30
0.0
 40
2.001947899999998
 50
89.940519999998983
 51
166.65886000000151
  0
ARC
  5
17C8F
  8
AM_0
 10
143.38936538735351
 20
614.39465233404053
 30
0.0
 40
2.0043239999999991
 50
90.068910000001068
 51
165.7219500000009
  0
LINE
  5
17C90
  8
AM_0
 10
141.44698538735341
 20
614.88895333404025
 30
0.0
 11
140.5669853873535
 21
611.3489523340404
 31
0.0
  0
ARC
  5
17C91
  8
AM_0
 10
160.2780453873535
 20
617.01253433404054
 30
0.0
 40
1.996427999999999
 50
90.032390000001939
 51
165.3053699999991
  0
ARC
  5
17C92
  8
AM_0
 10
160.27675538735329
 20
616.33914033404062
 30
0.0
 40
1.999824
 50
89.994939999998735
 51
180.00506000000121
  0
ARC
  5
17C93
  8
AM_0
 10
160.2785853873533
 20
612.95732033404045
 30
0.0
 40
2.001640099999999
 50
90.046959999998137
 51
179.95303999999521
  0
ARC
  5
17C94
  8
AM_0
 10
156.7783453873532
 20
616.26752333404045
 30
0.0
 40
1.498559999999999
 50
269.94488499999687
 51
0.0551199999994179
  0
ARC
  5
17C95
  8
AM_0
 10
156.77541538735329
 20
612.86048033404063
 30
0.0
 40
1.5015080999999979
 50
270.05754899999692
 51
359.94245300200021
  0
ARC
  5
17C96
  8
AM_0
 10
160.27944538735341
 20
614.98644933404046
 30
0.0
 40
2.0025157999999981
 50
90.071899999999786
 51
179.9281000000002
  0
ARC
  5
17C97
  8
AM_0
 10
156.89565538735329
 20
617.89924533404064
 30
0.0
 40
1.5003120000000001
 50
269.66833699999898
 51
345.31696600000072
  0
LINE
  5
17C98
  8
AM_0
 10
284.27694538735352
 20
490.09895333403978
 30
0.0
 11
284.27694540354628
 21
616.09892230987487
 31
0.0
  0
LINE
  5
17C99
  8
ﾁｭｳｼﾝｾﾝ1
 10
233.2769153873536
 20
518.5989483340403
 30
0.0
 11
233.2769153873536
 21
587.59894833404019
 31
0.0
1001
GENIUS_GENODEF_13
1002
{
1000
HIER
1070
     0
1002
}
1002
{
1000
MANEDIT
1070
     0
1002
}
1002
{
1000
NOSEL
1070
     0
1002
}
1002
{
1000
BEHIND
1070
     0
1002
}
1002
{
1000
REACTOR
1002
}
1001
GENIUS_GENOBJ-N-CEN_13
1002
{
1000
OWNER
1000
GEN
1002
}
  0
LINE
  5
17C9A
  8
AM_0
 10
279.01696538735342
 20
492.71895833404022
 30
0.0
 11
282.47695538735348
 21
505.63897833404008
 31
0.0
  0
ARC
  5
17C9B
  8
AM_0
 10
213.2763353873535
 20
489.17957833404029
 30
0.0
 40
2.000623899999999
 50
270.01782400000212
 51
359.98217599900119
  0
ARC
  5
17C9C
  8
AM_0
 10
213.2798753873532
 20
489.85604833404028
 30
0.0
 40
1.9970881
 50
269.91637499999922
 51
0.0836200000014831
  0
ARC
  5
17C9D
  8
AM_0
 10
213.2771853873534
 20
491.20869833404021
 30
0.0
 40
1.9997199999999991
 50
269.99193799999972
 51
0.0080600000039777
  0
LINE
  5
17C9E
  8
AM_0
 10
215.27694538735349
 20
489.17896833404018
 30
0.0
 11
215.27694538735349
 21
491.23896833404012
 31
0.0
  0
LINE
  5
17C9F
  8
AM_0
 10
283.98696538735351
 20
502.05897833404021
 30
0.0
 11
281.57696538735343
 21
502.05897833404021
 31
0.0
  0
LINE
  5
17CA0
  8
AM_0
 10
278.98693538735353
 20
492.59896833404019
 30
0.0
 11
284.27694538735352
 21
492.59896833404019
 31
0.0
  0
ARC
  5
17CA1
  8
AM_0
 10
283.98278538735337
 20
500.55848833404019
 30
0.0
 40
1.500475999999999
 50
89.841720000000265
 51
167.66777000000121
  0
LINE
  5
17CA2
  8
AM_0
 10
281.08693538735338
 20
494.17892833404022
 30
0.0
 11
282.52694538735352
 21
500.87891833404012
 31
0.0
  0
ARC
  5
17CA3
  8
AM_0
 10
279.13140538735331
 20
494.59913833404028
 30
0.0
 40
2.0001799999999981
 50
269.87248500000197
 51
347.8736480000029
  0
ARC
  5
17CA4
  8
AM_0
 10
277.08739538735352
 20
493.23676833404028
 30
0.0
 40
1.997795899999999
 50
269.9864190000028
 51
344.9784029999978
  0
LINE
  5
17CA5
  8
AM_0
 10
285.27694538735341
 20
489.09895333403978
 30
0.0
 11
293.27697538735339
 21
489.09895333403978
 31
0.0
  0
ARC
  5
17CA6
  8
AM_0
 10
285.27199538735329
 20
490.09399333404002
 30
0.0
 40
0.9950640200000001
 50
179.714940000002
 51
270.28506199999953
  0
LINE
  5
17CA7
  8
AM_0
 10
285.27694538735341
 20
501.05895833404031
 30
0.0
 11
293.27697538735339
 21
501.05895833404031
 31
0.0
  0
ARC
  5
17CA8
  8
AM_0
 10
285.27135538735331
 20
502.05334833404009
 30
0.0
 40
0.9944000200000001
 50
179.6764900000021
 51
270.323509
  0
ARC
  5
17CA9
  8
AM_0
 10
277.61876538735311
 20
518.09896833404036
 30
0.0
 40
1.000031899999998
 50
270.46929999999787
 51
89.530700000002156
  0
ARC
  5
17CAA
  8
AM_0
 10
281.09694538735317
 20
518.05396833404029
 30
0.0
 40
1.675
 50
269.99999700000228
 51
90.0
  0
ARC
  5
17CAB
  8
AM_0
 10
283.92721538735339
 20
505.24656833404032
 30
0.0
 40
1.502391899999999
 50
90.009360000000015
 51
164.85998999999859
  0
LINE
  5
17CAC
  8
AM_0
 10
284.27694538735352
 20
515.94895833404007
 30
0.0
 11
293.27697538735339
 21
515.94895833404007
 31
0.0
  0
ARC
  5
17CAD
  8
AM_0
 10
281.30695538735353
 20
528.0739583340403
 30
0.0
 40
1.4650000000000001
 50
270.00000299999761
 51
90.0
  0
ARC
  5
17CAE
  8
AM_0
 10
280.21692538735323
 20
528.09896833404025
 30
0.0
 40
1.0000040999999991
 50
270.00000299999761
 51
90.0
  0
ARC
  5
17CAF
  8
AM_0
 10
281.44195538735318
 20
538.0889583340404
 30
0.0
 40
1.3300000000000001
 50
270.00000299999761
 51
90.0
  0
ARC
  5
17CB0
  8
AM_0
 10
280.22063538735341
 20
538.09894833404041
 30
0.0
 40
1.000035999999999
 50
269.50071600000012
 51
90.499290000001594
  0
ARC
  5
17CB1
  8
AM_0
 10
280.22063538735341
 20
548.09896833404025
 30
0.0
 40
1.000035999999999
 50
269.50071600000012
 51
90.499290000001594
  0
ARC
  5
17CB2
  8
AM_0
 10
281.50194538735337
 20
548.09397833404023
 30
0.0
 40
1.265004
 50
270.00000299999761
 51
90.0
  0
ARC
  5
17CB3
  8
AM_0
 10
281.50194538735337
 20
558.09896833404025
 30
0.0
 40
1.270003999999999
 50
270.00000299999761
 51
90.0
  0
ARC
  5
17CB4
  8
AM_0
 10
280.22063538735341
 20
558.09896833404025
 30
0.0
 40
1.000035999999999
 50
269.50071600000012
 51
90.499290000001594
  0
ARC
  5
17CB5
  8
AM_0
 10
213.2760853873535
 20
617.00809333404015
 30
0.0
 40
2.0008759
 50
0.0251100000023907
 51
89.9748899999976
  0
ARC
  5
17CB6
  8
AM_0
 10
213.2746253873535
 20
616.33662333404015
 30
0.0
 40
2.002332
 50
0.0667400000013085
 51
89.933259999998697
  0
ARC
  5
17CB7
  8
AM_0
 10
213.27193538735321
 20
614.98395433404016
 30
0.0
 40
2.0050240000000001
 50
0.1434100000012872
 51
89.856589999998718
  0
LINE
  5
17CB8
  8
AM_0
 10
215.27694538735349
 20
617.00896333404023
 30
0.0
 11
215.27694538735349
 21
614.95896033404017
 31
0.0
  0
ARC
  5
17CB9
  8
AM_0
 10
281.44195538735318
 20
568.10894833404041
 30
0.0
 40
1.3300000000000001
 50
270.00000299999761
 51
90.0
  0
ARC
  5
17CBA
  8
AM_0
 10
280.22063538735341
 20
568.09894833404041
 30
0.0
 40
1.000035999999999
 50
269.50071600000012
 51
90.499290000001594
  0
ARC
  5
17CBB
  8
AM_0
 10
280.22191538735331
 20
578.09895833404039
 30
0.0
 40
1.0000040999999991
 50
270.00000299999761
 51
90.0
  0
ARC
  5
17CBC
  8
AM_0
 10
281.31194538735338
 20
578.11896833404023
 30
0.0
 40
1.4599999999999991
 50
270.00000299999761
 51
90.0
  0
ARC
  5
17CBD
  8
AM_0
 10
277.61876538735311
 20
588.09896833404025
 30
0.0
 40
1.000031899999998
 50
270.46929999999787
 51
89.530700000002156
  0
ARC
  5
17CBE
  8
AM_0
 10
281.09694538735317
 20
588.14396833404032
 30
0.0
 40
1.675
 50
269.99999700000228
 51
90.0
  0
LINE
  5
17CBF
  8
AM_0
 10
284.27694538735352
 20
590.24896833404034
 30
0.0
 11
293.27697538735339
 21
590.24896833404034
 31
0.0
  0
LINE
  5
17CC0
  8
AM_0
 10
281.08696538735359
 20
612.0189733340402
 30
0.0
 11
282.52697538735339
 21
605.31897633404026
 31
0.0
  0
LINE
  5
17CC1
  8
AM_0
 10
279.01696538735342
 20
613.47897233404024
 30
0.0
 11
282.47695538735348
 21
600.55896633404041
 31
0.0
  0
LINE
  5
17CC2
  8
AM_0
 10
283.98696538735351
 20
604.12895833404025
 30
0.0
 11
281.57696538735343
 21
604.12895833404025
 31
0.0
  0
ARC
  5
17CC3
  8
AM_0
 10
283.92226538735338
 20
600.94496033404039
 30
0.0
 40
1.495995999999999
 50
194.95233999999431
 51
270.17829300000022
  0
ARC
  5
17CC4
  8
AM_0
 10
283.98403538735329
 20
605.62829433404033
 30
0.0
 40
1.499328
 50
191.90615999999861
 51
270.11184899999989
  0
LINE
  5
17CC5
  8
AM_0
 10
285.27694538735341
 20
605.13896833404021
 30
0.0
 11
293.27697538735339
 21
605.13896833404021
 31
0.0
  0
ARC
  5
17CC6
  8
AM_0
 10
285.27642538735353
 20
604.13948733404027
 30
0.0
 40
0.9994760199999999
 50
89.970079999999612
 51
180.0299099999979
  0
LINE
  5
17CC7
  8
AM_0
 10
278.98693538735353
 20
613.59896733404025
 30
0.0
 11
284.27694538735352
 21
613.59896733404025
 31
0.0
  0
ARC
  5
17CC8
  8
AM_0
 10
277.08236538735309
 20
612.95455033404016
 30
0.0
 40
2.0044159999999991
 50
15.16665999999889
 51
89.868520000001254
  0
ARC
  5
17CC9
  8
AM_0
 10
279.1262753873533
 20
611.59242933404039
 30
0.0
 40
2.0065319999999991
 50
12.27313000000459
 51
89.980730000003263
  0
LINE
  5
17CCA
  8
AM_0
 10
285.27694538735369
 20
617.09893333404011
 30
0.0
 11
293.27697538735339
 21
617.09893333404011
 31
0.0
  0
ARC
  5
17CCB
  8
AM_0
 10
285.27712538735352
 20
616.09874233404025
 30
0.0
 40
1.000179999999999
 50
90.010320000000064
 51
179.98968999999451
  0
LINE
  5
17CCC
  8
AM_0
 10
501.27701062230381
 20
502.09893932233177
 30
0.0
 11
480.27701062230392
 21
502.09893932233177
 31
0.0
  0
LINE
  5
17CCD
  8
AM_0
 10
482.77701062230381
 20
492.09893932233138
 30
0.0
 11
498.77701062230358
 21
492.09893932233138
 31
0.0
  0
LINE
  5
17CCE
  8
AM_0
 10
501.27701062230381
 20
502.09893932233177
 30
0.0
 11
501.27701062230381
 21
504.09893932233138
 31
0.0
  0
LINE
  5
17CCF
  8
AM_0
 10
498.77701062230358
 20
492.09893932233138
 30
0.0
 11
498.77701062230358
 21
502.09893932233177
 31
0.0
  0
LINE
  5
17CD0
  8
AM_0
 10
480.27701062230392
 20
502.09893932233177
 30
0.0
 11
480.27701062230392
 21
504.09893932233138
 31
0.0
  0
LINE
  5
17CD1
  8
AM_0
 10
482.77701062230381
 20
502.09893932233177
 30
0.0
 11
482.77701062230381
 21
492.09893932233138
 31
0.0
  0
LINE
  5
17CD2
  8
AM_0
 10
353.27697584198108
 20
502.09893932233177
 30
0.0
 11
332.27697584198108
 21
502.09893932233177
 31
0.0
  0
LINE
  5
17CD3
  8
AM_0
 10
334.77697584198108
 20
492.09893932233138
 30
0.0
 11
350.77697584198108
 21
492.09893932233138
 31
0.0
  0
LINE
  5
17CD4
  8
AM_0
 10
353.27697584198108
 20
502.09893932233177
 30
0.0
 11
353.27697584198108
 21
504.09893932233138
 31
0.0
  0
LINE
  5
17CD5
  8
AM_0
 10
350.77697584198108
 20
492.09893932233138
 30
0.0
 11
350.77697584198108
 21
502.09893932233177
 31
0.0
  0
LINE
  5
17CD6
  8
AM_0
 10
332.27697584198108
 20
502.09893932233177
 30
0.0
 11
332.27697584198108
 21
504.09893932233138
 31
0.0
  0
LINE
  5
17CD7
  8
AM_0
 10
334.77697584198108
 20
502.09893932233177
 30
0.0
 11
334.77697584198108
 21
492.09893932233138
 31
0.0
  0
LINE
  5
17CD8
  8
AM_0
 10
330.77697549635337
 20
582.09894919830754
 30
0.0
 11
328.77702521323351
 21
623.09894919830754
 31
0.0
  0
LINE
  5
17CD9
  8
AM_0
 10
504.77709342761261
 20
623.09894919830731
 30
0.0
 11
328.77702521323351
 21
623.09894919830754
 31
0.0
  0
LINE
  5
17CDA
  8
AM_0
 10
502.5306868749866
 20
582.09894919830754
 30
0.0
 11
504.77709342761261
 21
623.09894919830731
 31
0.0
  0
LINE
  5
17CDB
  8
AM_0
 10
329.55749361640238
 20
607.0989491983072
 30
0.0
 11
503.9004469680512
 21
607.0989491983072
 31
0.0
  0
LINE
  5
17CDC
  8
AM_0
 10
481.89449344363891
 20
623.09894919830731
 30
0.0
 11
481.89449344363879
 21
607.0989491983072
 31
0.0
  0
LINE
  5
17CDD
  8
ﾁｭｳｼﾝｾﾝ1
 10
474.7769737344513
 20
628.0989491983072
 30
0.0
 11
474.77697373445108
 21
602.09894919830731
 31
0.0
  0
LINE
  5
17CDE
  8
ﾁｭｳｼﾝｾﾝ1
 10
358.77700562293859
 20
628.0989491983072
 30
0.0
 11
358.77700562293859
 21
602.09894919830731
 31
0.0
  0
LINE
  5
17CDF
  8
AM_0
 10
351.6595926264074
 20
623.09894919830754
 30
0.0
 11
351.6595926264074
 21
607.0989491983072
 31
0.0
  0
LINE
  5
17CE1
  8
AM_0
 10
417.27700848283342
 20
496.09894663530758
 30
0.0
 11
417.27700848283342
 21
500.09894675451721
 31
0.0
  0
LINE
  5
17CE2
  8
AM_0
 10
462.27700982393748
 20
496.09894663530758
 30
0.0
 11
462.27700982393748
 21
500.09894675451721
 31
0.0
  0
LINE
  5
17CE3
  8
0
 10
457.27700915338539
 20
485.09194224505529
 30
0.0
 11
462.27700982393748
 21
496.09894663530758
 31
0.0
  0
LINE
  5
17CE4
  8
AM_0
 10
417.27700848283342
 20
496.09894663530758
 30
0.0
 11
462.27700982393748
 21
496.09894663530758
 31
0.0
  0
LINE
  5
17CE6
  8
0
 10
425.77700915338539
 20
443.09194224505541
 30
0.0
 11
425.77700915338539
 21
485.09194224505541
 31
0.0
  0
LINE
  5
17CE7
  8
0
 10
453.77700915338562
 20
443.09194224505529
 30
0.0
 11
453.77700915338562
 21
485.09194224505529
 31
0.0
  0
LINE
  5
17CE8
  8
AM_0
 10
453.77700915338562
 20
443.09194224505529
 30
0.0
 11
425.77700915338539
 21
443.09194224505529
 31
0.0
  0
LINE
  5
17CE9
  8
0
 10
422.27700915338562
 20
485.09194224505541
 30
0.0
 11
457.27700915338539
 21
485.09194224505529
 31
0.0
  0
LINE
  5
17CEB
  8
0
 10
422.27700915338562
 20
485.09194224505541
 30
0.0
 11
417.27700848283342
 21
496.09894663530758
 31
0.0
  0
LINE
  5
17D60
  8
AM_0
 10
443.77700915338539
 20
443.09194224505529
 30
0.0
 11
443.77700915338539
 21
475.09194224505552
 31
0.0
  0
LINE
  5
17D66
  8
AM_0
 10
435.77700915338539
 20
443.09194224505529
 30
0.0
 11
435.77700915338539
 21
475.09194224505552
 31
0.0
  0
LINE
  5
17D67
  8
AM_0
 10
435.77700915338539
 20
475.09194224505552
 30
0.0
 11
443.77700915338539
 21
475.09194224505552
 31
0.0
  0
ARC
  5
17D68
  8
AM_0
 10
439.77700915338539
 20
475.09194224505552
 30
0.0
 40
4.0
 50
0.0
 51
180.0
  0
LINE
  5
180B0
  8
ﾁｭｳｼﾝｾﾝ
 10
805.68126560683413
 20
173.09444151647139
 30
0.0
 11
779.11726560683439
 21
173.09444151647139
 31
0.0
1001
GENIUS_GENODEF_13
1002
{
1000
HIER
1070
     0
1002
}
1002
{
1000
MANEDIT
1070
     0
1002
}
1002
{
1000
NOSEL
1070
     0
1002
}
1002
{
1000
BEHIND
1070
     0
1002
}
1002
{
1000
OTHER
1070
     0
1002
}
1002
{
1000
REACTOR
1002
}
1001
GENIUS_GENOBJ-N-CEN_13
1002
{
1000
OWNER
1000
GEN
1002
}
  0
LINE
  5
180B1
  8
ﾁｭｳｼﾝｾﾝ
 10
805.6812686446068
 20
335.09443685356553
 30
0.0
 11
779.11726864460707
 21
335.09443784980499
 31
0.0
1001
GENIUS_GENODEF_13
1002
{
1000
HIER
1070
     0
1002
}
1002
{
1000
MANEDIT
1070
     0
1002
}
1002
{
1000
NOSEL
1070
     0
1002
}
1002
{
1000
BEHIND
1070
     0
1002
}
1002
{
1000
OTHER
1070
     0
1002
}
1002
{
1000
REACTOR
1002
}
1001
GENIUS_GENOBJ-N-CEN_13
1002
{
1000
OWNER
1000
GEN
1002
}
  0
TEXT
  5
1836D
  8
AM_0
 10
611.37612319621746
 20
563.18055298899549
 30
0.0
 40
10.0
  1
VC04-007FML~VC04-060FML
1001
ACAD
1000
MTEXTBEGIN
1070
    73
1070
     1
1070
    44
1040
1.0
1070
    74
1070
     0
1000
MTEXTEND
  0
VIEWPORT
  5
89
 67
     1
  8
0
 10
210.0
 20
148.5
 30
0.0
 40
420.0
 41
297.0
 68
     1
 69
     1
1001
ACAD
1000
MVIEW
1002
{
1070
    16
1010
0.0
1020
0.0
1030
0.0
1010
0.0
1020
0.0
1030
1.0
1040
0.0
1040
297.0
1040
221.70154043645701
1040
148.5
1040
50.0
1040
0.0
1040
0.0
1070
     0
1070
   100
1070
     1
1070
     1
1070
     0
1070
     0
1070
     0
1070
     0
1040
0.0
1040
0.0
1040
0.0
1040
10.0
1040
10.0
1040
10.0
1040
10.0
1070
     0
1002
{
1002
}
1002
}
1001
GENIUS_GENOREF_13
1005
1B94
1001
GENIUS_GENSCREG_15
1000
PF
1040
1.0
1000
DF
1040
1.0
1000
MIN
1011
0.0
1021
0.0
1031
-0.0
1021
0.0
1031
0.0
1000
MAX
1011
420.0
1021
0.0
1031
-0.0
1021
297.0
1031
0.0
1000
FLAGS
1070
     4
  0
ENDSEC
  0
EOF
