  0
SECTION
  2
HEADER
  9
$ACADVER
  1
AC1009
  9
$INSBASE
 10
0.0
 20
0.0
 30
0.0
  9
$EXTMIN
 10
124.64239781424649
 20
199.39758015599841
 30
-0.000000000000013
  9
$EXTMAX
 10
1070.226351447667
 20
810.52648389258366
 30
0.0000000000000023
  9
$LIMMIN
 10
0.0
 20
0.0
  9
$LIMMAX
 10
1138.0
 20
740.00000000000011
  9
$ORTHOMODE
 70
     0
  9
$REGENMODE
 70
     1
  9
$FILLMODE
 70
     1
  9
$QTEXTMODE
 70
     0
  9
$MIRRTEXT
 70
     1
  9
$DRAGMODE
 70
     2
  9
$LTSCALE
 40
4.0
  9
$OSMODE
 70
   551
  9
$ATTMODE
 70
     1
  9
$TEXTSIZE
 40
2.5
  9
$TRACEWID
 40
1.0
  9
$TEXTSTYLE
  7
STANDARD
  9
$CLAYER
  8
AM_0
  9
$CELTYPE
  6
BYLAYER
  9
$CECOLOR
 62
   256
  9
$DIMSCALE
 40
4.0
  9
$DIMASZ
 40
2.5
  9
$DIMEXO
 40
1.0
  9
$DIMDLI
 40
7.0
  9
$DIMRND
 40
0.0
  9
$DIMDLE
 40
0.0
  9
$DIMEXE
 40
1.0
  9
$DIMTP
 40
0.1
  9
$DIMTM
 40
0.1000000001
  9
$DIMTXT
 40
2.5
  9
$DIMCEN
 40
0.0
  9
$DIMTSZ
 40
0.0
  9
$DIMTOL
 70
     0
  9
$DIMLIM
 70
     0
  9
$DIMTIH
 70
     0
  9
$DIMTOH
 70
     0
  9
$DIMSE1
 70
     0
  9
$DIMSE2
 70
     0
  9
$DIMTAD
 70
     3
  9
$DIMZIN
 70
     8
  9
$DIMBLK
  1

  9
$DIMASO
 70
     1
  9
$DIMSHO
 70
     1
  9
$DIMPOST
  1

  9
$DIMAPOST
  1
"
  9
$DIMALT
 70
     0
  9
$DIMALTD
 70
     2
  9
$DIMALTF
 40
0.0393701
  9
$DIMLFAC
 40
1.0
  9
$DIMTOFL
 70
     1
  9
$DIMTVP
 40
0.0
  9
$DIMTIX
 70
     0
  9
$DIMSOXD
 70
     0
  9
$DIMSAH
 70
     0
  9
$DIMBLK1
  1

  9
$DIMBLK2
  1

  9
$DIMSTYLE
  2
AM_JIS
  9
$DIMCLRD
 70
   256
  9
$DIMCLRE
 70
   256
  9
$DIMCLRT
 70
     4
  9
$DIMTFAC
 40
0.71
  9
$DIMGAP
 40
1.0
  9
$LUNITS
 70
     2
  9
$LUPREC
 70
     2
  9
$SKETCHINC
 40
1.0
  9
$FILLETRAD
 40
0.0
  9
$AUNITS
 70
     0
  9
$AUPREC
 70
     3
  9
$MENU
  1
.
  9
$ELEVATION
 40
0.0
  9
$PELEVATION
 40
0.0
  9
$THICKNESS
 40
0.0
  9
$LIMCHECK
 70
     0
  9
$BLIPMODE
 70
     0
  9
$CHAMFERA
 40
10.0
  9
$CHAMFERB
 40
10.0
  9
$SKPOLY
 70
     0
  9
$TDCREATE
 40
2452753.643349607
  9
$TDUPDATE
 40
2458543.4385165619
  9
$TDINDWG
 40
0.6543569676
  9
$TDUSRTIMER
 40
0.6543564236
  9
$USRTIMER
 70
     1
  9
$ANGBASE
 50
0.0
  9
$ANGDIR
 70
     0
  9
$PDMODE
 70
     0
  9
$PDSIZE
 40
0.0
  9
$PLINEWID
 40
0.0
  9
$COORDS
 70
     1
  9
$SPLFRAME
 70
     0
  9
$SPLINETYPE
 70
     6
  9
$SPLINESEGS
 70
     8
  9
$ATTDIA
 70
     1
  9
$ATTREQ
 70
     1
  9
$HANDLING
 70
     1
  9
$HANDSEED
  5
1C90E
  9
$SURFTAB1
 70
     6
  9
$SURFTAB2
 70
     6
  9
$SURFTYPE
 70
     6
  9
$SURFU
 70
     6
  9
$SURFV
 70
     6
  9
$UCSNAME
  2

  9
$UCSORG
 10
0.0
 20
0.0
 30
0.0
  9
$UCSXDIR
 10
1.0
 20
0.0
 30
0.0
  9
$UCSYDIR
 10
0.0
 20
1.0
 30
0.0
  9
$PUCSNAME
  2

  9
$PUCSORG
 10
0.0
 20
0.0
 30
0.0
  9
$PUCSXDIR
 10
1.0
 20
0.0
 30
0.0
  9
$PUCSYDIR
 10
0.0
 20
1.0
 30
0.0
  9
$USERI1
 70
     0
  9
$USERI2
 70
     0
  9
$USERI3
 70
     0
  9
$USERI4
 70
     0
  9
$USERI5
 70
     0
  9
$USERR1
 40
0.0
  9
$USERR2
 40
0.0
  9
$USERR3
 40
0.0
  9
$USERR4
 40
0.0
  9
$USERR5
 40
0.0
  9
$WORLDVIEW
 70
     1
  9
$SHADEDGE
 70
     3
  9
$SHADEDIF
 70
    70
  9
$TILEMODE
 70
     1
  9
$MAXACTVP
 70
    48
  9
$PLIMCHECK
 70
     0
  9
$PEXTMIN
 10
1.0000000000000000E+020
 20
1.0000000000000000E+020
 30
1.0000000000000000E+020
  9
$PEXTMAX
 10
-1.0000000000000000E+020
 20
-1.0000000000000000E+020
 30
-1.0000000000000000E+020
  9
$PLIMMIN
 10
0.0
 20
0.0
  9
$PLIMMAX
 10
420.0
 20
297.0
  9
$UNITMODE
 70
     0
  9
$VISRETAIN
 70
     1
  9
$PLINEGEN
 70
     0
  9
$PSLTSCALE
 70
     1
  0
ENDSEC
  0
SECTION
  2
TABLES
  0
TABLE
  2
VPORT
 70
     1
  0
VPORT
  2
*ACTIVE
 70
     0
 10
0.0
 20
0.0
 11
1.0
 21
1.0
 12
597.43437463095665
 22
504.96203202429098
 13
0.0
 23
0.0
 14
10.0
 24
10.0
 15
40.0
 25
40.0
 16
0.0
 26
0.0
 36
1.0
 17
0.0
 27
0.0
 37
0.0
 40
615.32429666841529
 41
1.7571592210767459
 42
50.0
 43
0.0
 44
0.0
 50
0.0
 51
0.0
 71
     0
 72
   100
 73
     1
 74
     1
 75
     0
 76
     0
 77
     0
 78
     0
  0
ENDTAB
  0
TABLE
  2
LTYPE
 70
    21
  0
LTYPE
  2
CONTINUOUS
 70
     0
  3
Solid line
 72
    65
 73
     0
 40
0.0
  0
LTYPE
  2
PHANTOM2
 70
     0
  3
Phantom (.5x) ___ _ _ ___ _ _ ___ _ _ ___ _ _
 72
    65
 73
     6
 40
31.75
 49
15.875
 49
-3.174999999999998
 49
3.174999999999998
 49
-3.174999999999998
 49
3.174999999999998
 49
-3.174999999999998
  0
LTYPE
  2
CENTER
 70
     0
  3
Center ____ _ ____ _ ____ _ ____ _ ____ _ ____
 72
    65
 73
     4
 40
50.799999999999997
 49
31.75
 49
-6.3499999999999979
 49
6.3499999999999979
 49
-6.3499999999999979
  0
LTYPE
  2
GEN3B
 70
     0
  3
 - - - - -
 72
    65
 73
     2
 40
1.0
 49
0.5
 49
-0.5
  0
LTYPE
  2
GEN7A
 70
     0
  3
__ . __ . __
 72
    65
 73
     4
 40
7.375
 49
4.75
 49
-0.875
 49
0.875
 49
-0.875
  0
LTYPE
  2
AM_ISO02W050
 70
     0
  3
__ __ __ __ __ __ __ __ __ __ __ __ __ __ __
 72
    65
 73
     2
 40
7.5
 49
6.0
 49
-1.5
  0
LTYPE
  2
AM_ISO08W050
 70
     0
  3
____ . ____ . ____ . ____ . ____ . ____ . ____
 72
    65
 73
     4
 40
18.0
 49
12.0
 49
-1.5
 49
3.0
 49
-1.5
  0
LTYPE
  2
AM_ISO09W050
 70
     0
  3
_____ . . _____ . . _____ . . ____ .. ____
 72
    65
 73
     6
 40
22.5
 49
12.0
 49
-1.5
 49
3.0
 49
-1.5
 49
3.0
 49
-1.5
  0
LTYPE
  2
AMCONSTR
 70
     0
  3
_______________________
 72
    65
 73
     2
 40
9999.0
 49
9999.0
 49
0.0
  0
LTYPE
  2
AM_ISO02W050X2
 70
     0
  3
 _ _ _ _ _ _ _ _ _ _ _ _
 72
    65
 73
     2
 40
3.75
 49
3.0
 49
-0.75
  0
LTYPE
  2
AM_ISO08W050X2
 70
     0
  3
__ . __ . __ . __ . __ . __
 72
    65
 73
     4
 40
9.0
 49
6.0
 49
-0.75
 49
1.5
 49
-0.75
  0
LTYPE
  2
AMZIGZAG
 70
     0
  3
/\/-/\/-/\/-/\/-/\/-/\/
 72
    65
 73
     2
 40
11.0001
 49
0.0001
 49
-11.0
  0
LTYPE
  2
ACISOWELD
 70
     0
  3
_ _ _ _ _
 72
    65
 73
     2
 40
2.0
 49
2.0
 49
-1.0
  0
LTYPE
  2
ACISOTGB
 70
     0
  3
__ . . __ . .
 72
    65
 73
     6
 40
9.0
 49
4.0
 49
-1.0
 49
1.0
 49
-1.0
 49
1.0
 49
-1.0
  0
LTYPE
  2
ACISOTGL
 70
     0
  3
_ _ _ _ _
 72
    65
 73
     2
 40
3.0
 49
2.0
 49
-1.0
  0
LTYPE
  2
HIDDEN
 70
     0
  3
Hidden __ __ __ __ __ __ __ __ __ __ __ __ __ _
 72
    65
 73
     2
 40
9.5249999999999968
 49
6.349999999999997
 49
-3.174999999999998
  0
LTYPE
  2
ACANSTGBM
 70
     0
  3
__ . . __ . .
 72
    65
 73
     6
 40
9.0
 49
4.0
 49
-1.0
 49
1.0
 49
-1.0
 49
1.0
 49
-1.0
  0
LTYPE
  2
ACANSTGLM
 70
     0
  3
_ _ _ _ _
 72
    65
 73
     2
 40
3.0
 49
2.0
 49
-1.0
  0
LTYPE
  2
ACJISTGB
 70
     0
  3
__ . . __ . .
 72
    65
 73
     6
 40
9.0
 49
4.0
 49
-1.0
 49
1.0
 49
-1.0
 49
1.0
 49
-1.0
  0
LTYPE
  2
ACJISTGL
 70
     0
  3
_ _ _ _ _
 72
    65
 73
     2
 40
3.0
 49
2.0
 49
-1.0
  0
ENDTAB
  0
TABLE
  2
LAYER
 70
     8
  0
LAYER
  2
0
 70
     0
 62
     7
  6
CONTINUOUS
  0
LAYER
  2
ｽﾝﾎﾟｳｾﾝ
 70
     0
 62
     2
  6
CONTINUOUS
  0
LAYER
  2
DEFPOINTS
 70
     0
 62
     7
  6
CONTINUOUS
  0
LAYER
  2
ｶｸﾚｾﾝ2
 70
     0
 62
     3
  6
GEN3B
  0
LAYER
  2
ﾁｭｳｼﾝｾﾝ1
 70
     0
 62
     1
  6
GEN7A
  0
LAYER
  2
AM_0
 70
     0
 62
     7
  6
CONTINUOUS
  0
LAYER
  2
AM_0N
 70
     0
 62
     7
  6
CONTINUOUS
  0
LAYER
  2
AM_5
 70
     0
 62
     2
  6
CONTINUOUS
  0
ENDTAB
  0
TABLE
  2
STYLE
 70
     8
  0
STYLE
  2
STANDARD
 70
     0
 40
0.0
 41
0.8299999999999999
 50
0.0
 71
     0
 42
2.5
  3
txt.shx
  4
bigfont.shx
  0
STYLE
  2

 70
     1
 40
0.0
 41
1.0
 50
0.0
 71
     0
 42
2.5
  3
ltypeshp.shx
  4

  0
STYLE
  2
ACISOTS
 70
     0
 40
1.0
 41
1.0
 50
0.0
 71
     0
 42
2.5
  3
isocp.shx
  4
extfont.shx
  0
STYLE
  2
ACISOGDT
 70
     0
 40
0.0
 41
1.0
 50
0.0
 71
     0
 42
2.5
  3
amgdt.shx
  4

  0
STYLE
  2
ACANSTS
 70
     0
 40
1.0
 41
1.0
 50
0.0
 71
     0
 42
2.5
  3
romans.shx
  4
bigfont.shx
  0
STYLE
  2
ACANSGDT
 70
     0
 40
0.0
 41
1.0
 50
0.0
 71
     0
 42
2.5
  3
amgdtans.shx
  4

  0
STYLE
  2
ACJISGDT
 70
     0
 40
0.0
 41
1.0
 50
0.0
 71
     0
 42
2.5
  3
amgdt.shx
  4

  0
STYLE
  2
ACJISTS
 70
     0
 40
1.0
 41
1.0
 50
0.0
 71
     0
 42
2.5
  3
isocp.shx
  4
extfont.shx
  0
ENDTAB
  0
TABLE
  2
VIEW
 70
    12
  0
VIEW
  2
GEN1
 70
     0
 40
95.824742268041234
 10
71.5
 20
137.08762886597941
 41
143.0
 11
0.0
 21
0.0
 31
1.0
 12
0.0
 22
0.0
 32
0.0
 42
50.0
 43
0.0
 44
0.0
 50
0.0
 71
     0
  0
VIEW
  2
GEN2
 70
     0
 40
95.824742268041234
 10
214.5
 20
137.08762886597941
 41
143.0
 11
0.0
 21
0.0
 31
1.0
 12
0.0
 22
0.0
 32
0.0
 42
50.0
 43
0.0
 44
0.0
 50
0.0
 71
     0
  0
VIEW
  2
GEN3
 70
     0
 40
95.824742268041234
 10
71.5
 20
47.912371134020603
 41
143.0
 11
0.0
 21
0.0
 31
1.0
 12
0.0
 22
0.0
 32
0.0
 42
50.0
 43
0.0
 44
0.0
 50
0.0
 71
     0
  0
VIEW
  2
GEN4
 70
     0
 40
95.824742268041234
 10
214.5
 20
47.912371134020603
 41
143.0
 11
0.0
 21
0.0
 31
1.0
 12
0.0
 22
0.0
 32
0.0
 42
50.0
 43
0.0
 44
0.0
 50
0.0
 71
     0
  0
VIEW
  2
GEN5
 70
     0
 40
95.824742268041234
 10
143.0
 20
92.500000000000057
 41
143.0
 11
0.0
 21
0.0
 31
1.0
 12
0.0
 22
0.0
 32
0.0
 42
50.0
 43
0.0
 44
0.0
 50
0.0
 71
     0
  0
VIEW
  2
GEN6
 70
     0
 40
191.64756804123709
 10
143.0
 20
92.5
 41
285.99714
 11
0.0
 21
0.0
 31
1.0
 12
0.0
 22
0.0
 32
0.0
 42
50.0
 43
0.0
 44
0.0
 50
0.0
 71
     0
  0
VIEW
  2
AM_VIEW1
 70
     0
 40
370.00000000000023
 10
332.86372007366492
 20
555.00000000000011
 41
665.72744014732973
 11
0.0
 21
0.0
 31
1.0
 12
0.0
 22
0.0
 32
0.0
 42
50.0
 43
0.0
 44
0.0
 50
0.0
 71
     0
  0
VIEW
  2
AM_VIEW2
 70
     0
 40
370.00000000000023
 10
805.13627992633508
 20
555.00000000000011
 41
665.72744014732973
 11
0.0
 21
0.0
 31
1.0
 12
0.0
 22
0.0
 32
0.0
 42
50.0
 43
0.0
 44
0.0
 50
0.0
 71
     0
  0
VIEW
  2
AM_VIEW3
 70
     0
 40
370.00000000000023
 10
332.86372007366492
 20
185.0
 41
665.72744014732973
 11
0.0
 21
0.0
 31
1.0
 12
0.0
 22
0.0
 32
0.0
 42
50.0
 43
0.0
 44
0.0
 50
0.0
 71
     0
  0
VIEW
  2
AM_VIEW4
 70
     0
 40
370.00000000000023
 10
805.13627992633508
 20
185.0
 41
665.72744014732973
 11
0.0
 21
0.0
 31
1.0
 12
0.0
 22
0.0
 32
0.0
 42
50.0
 43
0.0
 44
0.0
 50
0.0
 71
     0
  0
VIEW
  2
AM_VIEW5
 70
     0
 40
370.00000000000023
 10
569.0
 20
370.00000000000023
 41
665.72744014732962
 11
0.0
 21
0.0
 31
1.0
 12
0.0
 22
0.0
 32
0.0
 42
50.0
 43
0.0
 44
0.0
 50
0.0
 71
     0
  0
VIEW
  2
AM_VIEW6
 70
     0
 40
739.99260000000015
 10
569.0
 20
370.00000000000023
 41
1331.4415657458569
 11
0.0
 21
0.0
 31
1.0
 12
0.0
 22
0.0
 32
0.0
 42
50.0
 43
0.0
 44
0.0
 50
0.0
 71
     0
  0
ENDTAB
  0
TABLE
  2
UCS
 70
     0
  0
ENDTAB
  0
TABLE
  2
APPID
 70
   101
  0
APPID
  2
ACAD
 70
     0
  0
APPID
  2
MCAD_NO_VIS
 70
     0
  0
APPID
  2
ACAD_TEMP_GRAPHIC
 70
     0
  0
APPID
  2
AD_DRAW
 70
     0
  0
APPID
  2
DESIGNERASSEMBLIES
 70
     0
  0
APPID
  2
ASURF_PCURVE_APPNAME
 70
     0
  0
APPID
  2
GENIUS_GE3SECT_13
 70
     0
  0
APPID
  2
GENIUS_GENCFG_13
 70
     0
  0
APPID
  2
GENIUS_GE3CFG0_13
 70
     0
  0
APPID
  2
GENIUS_GENCFG0_13
 70
     0
  0
APPID
  2
GENIUS_GENCFG1_13
 70
     0
  0
APPID
  2
GENIUS_GENCFG2_13
 70
     0
  0
APPID
  2
GENIUS_GENCFG3_13
 70
     0
  0
APPID
  2
GENIUS_GENCFG4_13
 70
     0
  0
APPID
  2
GENIUS_GEVCFG0_13
 70
     0
  0
APPID
  2
GENIUS_GENOENT_13
 70
     0
  0
APPID
  2
GENIUS_GENREC_14
 70
     0
  0
APPID
  2
GENIUS_GENODEF_13
 70
     0
  0
APPID
  2
GENIUS_GENOBJ-N-REC_13
 70
     0
  0
APPID
  2
GENIUS_GENHINW_13
 70
     0
  0
APPID
  2
GENIUS_FIRSTVISTXT_14
 70
     0
  0
APPID
  2
GENIUS_GENOBJ-N-LEADER_13
 70
     0
  0
APPID
  2
GENIUS_GENOREF_13
 70
     0
  0
APPID
  2
GENIUS_GENOLIS_13
 70
     0
  0
APPID
  2
GEV_VCCNULL_SWITCH_OFF
 70
     0
  0
APPID
  2
GENIUS_GENDTOL_13
 70
     0
  0
APPID
  2
GENIUS_GEFCFG0_13
 70
     0
  0
APPID
  2
GENIUS_GENOBJ-N-TIT_13
 70
     0
  0
APPID
  2
GENIUS_GENTITLE_13
 70
     0
  0
APPID
  2
GENIUS_GENZVEED_13
 70
     0
  0
APPID
  2
GENIUS_GENOBJ-N-SDF_13
 70
     0
  0
APPID
  2
GENIUS_GENSCREG_13
 70
     0
  0
APPID
  2
GENIUS_DUMCFG0_13
 70
     0
  0
APPID
  2
GEVID936201362
 70
     0
  0
APPID
  2
GEVDC
 70
     0
  0
APPID
  2
GEVCON
 70
     0
  0
APPID
  2
VCC
 70
     0
  0
APPID
  2
GEVPT
 70
     0
  0
APPID
  2
GEVIT
 70
     0
  0
APPID
  2
GENBH
 70
     0
  0
APPID
  2
GEVMK
 70
     0
  0
APPID
  2
GENIUS_GENBH_13
 70
     0
  0
APPID
  2
GENIUS_GENOBJ-NBEHI-BHF_13
 70
     0
  0
APPID
  2
GENIUS_GENOBJ-NBEHI-BHB_13
 70
     0
  0
APPID
  2
GENIUS_GENOBJ-F-DESC_13
 70
     0
  0
APPID
  2
GENIUS_GEFDESC_14
 70
     0
  0
APPID
  2
GENIUS_GENOBJ-F-PART_13
 70
     0
  0
APPID
  2
GENIUS_GEFSTDP_13
 70
     0
  0
APPID
  2
GENIUS_GEFPARTINS_13
 70
     0
  0
APPID
  2
GENIUS_GENTRA_14
 70
     0
  0
APPID
  2
GENIUS_GENINF13_13
 70
     0
  0
APPID
  2
GENIUS_GENOBJ-N-INFOPT_13
 70
     0
  0
APPID
  2
GENIUS_GENOBJ-N-RSSYM_13
 70
     0
  0
APPID
  2
GENIUS_GENSYMENT_13
 70
     0
  0
APPID
  2
GENIUS_GENSCSYM_13
 70
     0
  0
APPID
  2
GENIUS_GEFINFNAM_13
 70
     0
  0
APPID
  2
GENIUS_GENSCREG_15
 70
     0
  0
APPID
  2
GENIUS_GENOBJ-N-CEN_13
 70
     0
  0
APPID
  2
GENIUS_GENOBJ-N-CRS_13
 70
     0
  0
APPID
  2
GENIUS_GENOBJ-N-CRC_13
 70
     0
  0
APPID
  2
GENIUS_GENCRC_14
 70
     0
  0
APPID
  2
GEVID942827039
 70
     0
  0
APPID
  2
GEVID942827040
 70
     0
  0
APPID
  2
GEVID942827041
 70
     0
  0
APPID
  2
GENIUS_GENOBJ-F-SCPASSM_13
 70
     0
  0
APPID
  2
GENIUS_GENDIMSH_14
 70
     0
  0
APPID
  2
GENIUS_GENFIL_13
 70
     0
  0
APPID
  2
GENIUS_GENOBJ-N-CHA_13
 70
     0
  0
APPID
  2
GENIUS_GENOBJ-N-FIL_13
 70
     0
  0
APPID
  2
GEVID942827042
 70
     0
  0
APPID
  2
GEVID946020473
 70
     0
  0
APPID
  2
GEVID946020474
 70
     0
  0
APPID
  2
GEVID946020475
 70
     0
  0
APPID
  2
GENIUS_GENOBJ-N-HTC_13
 70
     0
  0
APPID
  2
GENIUS_GENHATCH_13
 70
     0
  0
APPID
  2
GEVID948854295
 70
     0
  0
APPID
  2
GEVID939402019
 70
     0
  0
APPID
  2
GEVID952919491
 70
     0
  0
APPID
  2
GEVID952919492
 70
     0
  0
APPID
  2
GENIUS_GEFWELD_13
 70
     0
  0
APPID
  2
GENIUS_GENOBJ-F-WELS_13
 70
     0
  0
APPID
  2
GEVID952919493
 70
     0
  0
APPID
  2
GENIUS_GENOBJ-N-RSBK_13
 70
     0
  0
APPID
  2
GENIUS_GENOBJ-N-LIB_13
 70
     0
  0
APPID
  2
GENIUS_GENSCALE_13
 70
     0
  0
APPID
  2
GEVID986376691
 70
     0
  0
APPID
  2
ACATTRIBSERVICES
 70
     0
  0
APPID
  2
DCO15
 70
     0
  0
APPID
  2
ACADM_DIM_EDIT
 70
     0
  0
APPID
  2
AMDT_DM_ADJ
 70
     0
  0
APPID
  2
ACAD_MLEADERVER
 70
     0
  0
APPID
  2
CONTENTBLOCKDESCRIPTION
 70
     0
  0
APPID
  2
ACADANNOTATIVE
 70
     0
  0
APPID
  2
GEVID1057795304
 70
     0
  0
APPID
  2
GENIUS_GEFSH_13
 70
     0
  0
APPID
  2
GENIUS_GENOBJ-F-SHS_13
 70
     0
  0
APPID
  2
ACAD_DSTYLE_DIMBREAK
 70
     0
  0
APPID
  2
ACAD_DSTYLE_DIMJAG
 70
     0
  0
APPID
  2
ACAD_NAV_VCDISPLAY
 70
     0
  0
APPID
  2
ACADANNOPO
 70
     0
  0
APPID
  2
ACAD_EXEMPT_FROM_CAD_STANDARDS
 70
     0
  0
ENDTAB
  0
TABLE
  2
DIMSTYLE
 70
    21
  0
DIMSTYLE
  2
STANDARD
 70
     0
  3

  4

  5

  6

  7

 40
1.0
 41
0.18
 42
0.0625
 43
0.38
 44
0.18
 45
0.0
 46
0.0
 47
0.0
 48
0.0
140
0.18
141
0.09
142
0.0
143
25.399999999999999
144
1.0
145
0.0
146
1.0
147
0.09
 71
     0
 72
     0
 73
     1
 74
     1
 75
     0
 76
     0
 77
     0
 78
     0
170
     0
171
     2
172
     0
173
     0
174
     0
175
     0
176
     0
177
     0
178
     0
  0
DIMSTYLE
  2
AM_JIS
 70
     0
  3

  4
"
  5

  6

  7

 40
1.0
 41
2.0
 42
1.0
 43
8.0
 44
1.0
 45
0.0
 46
0.0
 47
0.1
 48
0.1
140
2.5
141
0.0
142
0.0
143
0.0393701
144
1.0
145
0.0
146
0.71
147
1.5
 71
     0
 72
     0
 73
     0
 74
     0
 75
     0
 76
     0
 77
     3
 78
     8
170
     0
171
     2
172
     1
173
     0
174
     0
175
     0
176
     2
177
     2
178
     4
  0
DIMSTYLE
  2
AM_ISO
 70
     0
  3

  4
"
  5

  6

  7

 40
1.0
 41
2.5
 42
1.0
 43
10.0
 44
1.0
 45
0.0
 46
0.0
 47
0.1
 48
0.1
140
3.5
141
0.0
142
0.0
143
0.0393701
144
1.0
145
0.0
146
0.71
147
1.5
 71
     0
 72
     0
 73
     0
 74
     0
 75
     0
 76
     0
 77
     1
 78
     8
170
     0
171
     2
172
     1
173
     0
174
     0
175
     0
176
   256
177
   256
178
     2
  0
DIMSTYLE
  2
AM_ISO$3
 70
     0
  3

  4
"
  5

  6

  7

 40
1.0
 41
2.5
 42
1.0
 43
10.0
 44
1.0
 45
0.0
 46
0.0
 47
0.1
 48
0.1
140
3.5
141
0.0
142
0.0
143
0.0393701
144
1.0
145
0.0
146
0.71
147
1.5
 71
     0
 72
     0
 73
     0
 74
     1
 75
     0
 76
     0
 77
     1
 78
     8
170
     0
171
     2
172
     0
173
     0
174
     0
175
     0
176
   256
177
   256
178
     2
  0
DIMSTYLE
  2
AM_ISO$4
 70
     0
  3

  4
"
  5

  6

  7

 40
1.0
 41
2.5
 42
1.0
 43
10.0
 44
1.0
 45
0.0
 46
0.0
 47
0.1
 48
0.1
140
3.5
141
0.0
142
0.0
143
0.0393701
144
1.0
145
0.0
146
0.71
147
1.5
 71
     0
 72
     0
 73
     0
 74
     1
 75
     0
 76
     0
 77
     1
 78
     8
170
     0
171
     2
172
     0
173
     0
174
     0
175
     0
176
   256
177
   256
178
     2
  0
DIMSTYLE
  2
AM_ISO$6
 70
     0
  3

  4
"
  5

  6

  7

 40
1.0
 41
2.5
 42
1.0
 43
10.0
 44
1.0
 45
0.0
 46
0.0
 47
0.1
 48
0.1
140
3.5
141
0.0
142
0.0
143
0.0393701
144
1.0
145
0.0
146
0.71
147
1.5
 71
     0
 72
     0
 73
     0
 74
     0
 75
     0
 76
     0
 77
     0
 78
     8
170
     0
171
     2
172
     1
173
     0
174
     0
175
     0
176
   256
177
   256
178
     2
  0
DIMSTYLE
  2
AM_ISO$7
 70
     0
  3

  4
"
  5

  6

  7

 40
1.0
 41
2.5
 42
1.0
 43
10.0
 44
1.0
 45
0.0
 46
0.0
 47
0.1
 48
0.1
140
5.0
141
0.0
142
0.0
143
0.0393701
144
1.0
145
0.0
146
0.71
147
1.5
 71
     0
 72
     0
 73
     0
 74
     0
 75
     0
 76
     0
 77
     1
 78
     8
170
     0
171
     2
172
     1
173
     0
174
     0
175
     0
176
   256
177
   256
178
     2
  0
DIMSTYLE
  2
AM_ISO$SF
 70
     0
  3

  4
"
  5

  6

  7

 40
1.0
 41
2.5
 42
1.0
 43
10.0
 44
1.0
 45
0.0
 46
0.0
 47
0.1
 48
0.1
140
3.5
141
0.0
142
0.0
143
0.0393701
144
1.0
145
0.0
146
0.71
147
1.5
 71
     0
 72
     0
 73
     0
 74
     0
 75
     1
 76
     1
 77
     1
 78
     8
170
     0
171
     2
172
     1
173
     0
174
     0
175
     0
176
   256
177
   256
178
     2
  0
DIMSTYLE
  2
AM_ISO$SH
 70
     0
  3

  4
"
  5

  6
GENAXEH
  7

 40
1.0
 41
2.5
 42
1.0
 43
10.0
 44
1.0
 45
0.0
 46
0.0
 47
0.1
 48
0.1
140
3.5
141
0.0
142
0.0
143
0.0393701
144
2.0
145
0.0
146
0.71
147
1.5
 71
     0
 72
     0
 73
     0
 74
     0
 75
     1
 76
     1
 77
     1
 78
     8
170
     0
171
     2
172
     1
173
     1
174
     0
175
     0
176
   256
177
   256
178
     2
  0
DIMSTYLE
  2
AM_ANSI
 70
     0
  3

  4
"
  5

  6

  7

 40
1.0
 41
2.5
 42
1.0
 43
10.0
 44
1.0
 45
0.0
 46
0.0
 47
0.1
 48
0.1
140
3.5
141
0.0
142
0.0
143
0.0393701
144
1.0
145
0.0
146
0.71
147
1.5
 71
     0
 72
     0
 73
     1
 74
     1
 75
     0
 76
     0
 77
     0
 78
     8
170
     0
171
     2
172
     0
173
     0
174
     0
175
     0
176
     2
177
     2
178
     4
  0
DIMSTYLE
  2
AM_ANSI$3
 70
     0
  3

  4
"
  5

  6

  7

 40
1.0
 41
2.5
 42
1.0
 43
10.0
 44
1.0
 45
0.0
 46
0.0
 47
0.1
 48
0.1
140
3.5
141
0.0
142
0.0
143
0.0393701
144
1.0
145
0.0
146
0.71
147
1.5
 71
     0
 72
     0
 73
     1
 74
     1
 75
     0
 76
     0
 77
     0
 78
     8
170
     0
171
     2
172
     0
173
     0
174
     0
175
     0
176
     2
177
     2
178
     4
  0
DIMSTYLE
  2
AM_ANSI$4
 70
     0
  3

  4
"
  5

  6

  7

 40
1.0
 41
2.5
 42
1.0
 43
10.0
 44
1.0
 45
0.0
 46
0.0
 47
0.1
 48
0.1
140
3.5
141
0.0
142
0.0
143
0.0393701
144
1.0
145
0.0
146
0.71
147
1.5
 71
     0
 72
     0
 73
     1
 74
     1
 75
     0
 76
     0
 77
     0
 78
     8
170
     0
171
     2
172
     0
173
     0
174
     0
175
     0
176
     2
177
     2
178
     4
  0
DIMSTYLE
  2
AM_ANSI$7
 70
     0
  3

  4
"
  5

  6

  7

 40
1.0
 41
2.5
 42
1.0
 43
10.0
 44
1.0
 45
0.0
 46
0.0
 47
0.1
 48
0.1
140
5.0
141
0.0
142
0.0
143
0.0393701
144
1.0
145
0.0
146
0.71
147
1.5
 71
     0
 72
     0
 73
     1
 74
     1
 75
     0
 76
     0
 77
     0
 78
     8
170
     0
171
     2
172
     0
173
     0
174
     0
175
     0
176
     2
177
     2
178
     4
  0
DIMSTYLE
  2
AM_ANSI$SF
 70
     0
  3

  4
"
  5

  6

  7

 40
1.0
 41
2.5
 42
1.0
 43
10.0
 44
1.0
 45
0.0
 46
0.0
 47
0.1
 48
0.1
140
3.5
141
0.0
142
0.0
143
0.0393701
144
1.0
145
0.0
146
0.71
147
1.5
 71
     0
 72
     0
 73
     1
 74
     1
 75
     1
 76
     1
 77
     0
 78
     8
170
     0
171
     2
172
     0
173
     0
174
     0
175
     0
176
     2
177
     2
178
     4
  0
DIMSTYLE
  2
AM_ANSI$SH
 70
     0
  3

  4
"
  5

  6
GENAXEH
  7

 40
1.0
 41
2.5
 42
1.0
 43
10.0
 44
1.0
 45
0.0
 46
0.0
 47
0.1
 48
0.1
140
3.5
141
0.0
142
0.0
143
0.0393701
144
1.0
145
0.0
146
0.71
147
1.5
 71
     0
 72
     0
 73
     1
 74
     1
 75
     1
 76
     1
 77
     0
 78
     8
170
     0
171
     2
172
     0
173
     1
174
     0
175
     0
176
     2
177
     2
178
     4
  0
DIMSTYLE
  2
AM_JIS$3
 70
     0
  3

  4
"
  5

  6

  7

 40
1.0
 41
2.0
 42
1.0
 43
10.0
 44
1.0
 45
0.0
 46
0.0
 47
0.1
 48
0.1
140
2.5
141
0.0
142
0.0
143
0.0393701
144
1.0
145
0.0
146
0.71
147
1.5
 71
     0
 72
     0
 73
     0
 74
     1
 75
     0
 76
     0
 77
     3
 78
     8
170
     0
171
     2
172
     0
173
     0
174
     0
175
     0
176
     2
177
     2
178
     4
  0
DIMSTYLE
  2
AM_JIS$4
 70
     0
  3

  4
"
  5

  6

  7

 40
1.0
 41
2.0
 42
1.0
 43
10.0
 44
1.0
 45
0.0
 46
0.0
 47
0.1
 48
0.1
140
2.5
141
0.0
142
0.0
143
0.0393701
144
1.0
145
0.0
146
0.71
147
1.5
 71
     0
 72
     0
 73
     0
 74
     0
 75
     0
 76
     0
 77
     3
 78
     8
170
     0
171
     2
172
     0
173
     0
174
     0
175
     0
176
     2
177
     2
178
     4
  0
DIMSTYLE
  2
AM_JIS$6
 70
     0
  3

  4
"
  5

  6

  7

 40
1.0
 41
2.0
 42
1.0
 43
10.0
 44
1.0
 45
0.0
 46
0.0
 47
0.1
 48
0.1
140
2.5
141
0.0
142
0.0
143
0.0393701
144
1.0
145
0.0
146
0.71
147
1.5
 71
     0
 72
     0
 73
     0
 74
     0
 75
     0
 76
     0
 77
     0
 78
     8
170
     0
171
     2
172
     1
173
     0
174
     0
175
     0
176
     2
177
     2
178
     4
  0
DIMSTYLE
  2
AM_JIS$7
 70
     0
  3

  4
"
  5

  6
OPEN30
  7
OPEN30
 40
1.0
 41
2.0
 42
1.0
 43
10.0
 44
1.0
 45
0.0
 46
0.0
 47
0.1
 48
0.1
140
2.5
141
0.0
142
0.0
143
0.0393701
144
1.0
145
0.0
146
0.71
147
1.5
 71
     0
 72
     0
 73
     0
 74
     0
 75
     0
 76
     0
 77
     3
 78
     8
170
     0
171
     2
172
     1
173
     0
174
     0
175
     0
176
     2
177
     2
178
     4
  0
DIMSTYLE
  2
AM_JIS$SF
 70
     0
  3

  4
"
  5

  6

  7

 40
1.0
 41
2.0
 42
1.0
 43
10.0
 44
1.0
 45
0.0
 46
0.0
 47
0.1
 48
0.1
140
2.5
141
0.0
142
0.0
143
0.0393701
144
1.0
145
0.0
146
0.71
147
1.5
 71
     0
 72
     0
 73
     0
 74
     0
 75
     1
 76
     1
 77
     3
 78
     8
170
     0
171
     2
172
     1
173
     0
174
     0
175
     0
176
     2
177
     2
178
     4
  0
DIMSTYLE
  2
AM_JIS$SH
 70
     0
  3

  4
"
  5

  6
GENAXEH
  7

 40
1.0
 41
2.0
 42
1.0
 43
10.0
 44
1.0
 45
0.0
 46
0.0
 47
0.1
 48
0.1
140
2.5
141
0.0
142
0.0
143
0.0393701
144
2.0
145
0.0
146
0.71
147
1.5
 71
     0
 72
     0
 73
     0
 74
     0
 75
     1
 76
     1
 77
     3
 78
     8
170
     0
171
     2
172
     1
173
     1
174
     0
175
     0
176
     2
177
     2
178
     4
  0
ENDTAB
  0
ENDSEC
  0
SECTION
  2
BLOCKS
  0
BLOCK
  8
0
  2
$MODEL_SPACE
 70
     0
 10
0.0
 20
0.0
 30
0.0
  3
$MODEL_SPACE
  1

  0
ENDBLK
  5
1A
  8
0
  0
BLOCK
 67
     1
  8
0
  2
$PAPER_SPACE
 70
     0
 10
0.0
 20
0.0
 30
0.0
  3
$PAPER_SPACE
  1

  0
ENDBLK
  5
17
 67
     1
  8
0
  0
BLOCK
  8
0
  2
GENAXEH
 70
     0
 10
0.0
 20
0.0
 30
0.0
  3
GENAXEH
  1

  0
LINE
  5
1C1C8
  8
0
 10
-1.0
 20
0.0
 30
0.0
 11
1.0
 21
0.0
 31
0.0
  0
ENDBLK
  5
1C1C9
  8
0
  0
BLOCK
  8
0
  6
BYBLOCK
 62
     0
  2
$6-44
 70
     0
 10
0.0
 20
0.0
 30
0.0
  3
$6-44
  1

  0
ARC
  5
1B7DA
  8
0
  6
CONTINUOUS
 62
     0
 10
-2.300003000000002
 20
2.3999909999999431
 30
0.0
 40
2.2000009999999981
 50
90.000003000000945
 51
179.99997799999841
  0
ARC
  5
1B7DB
  8
0
  6
CONTINUOUS
 62
     0
 10
2.300003000000002
 20
2.3999910000000551
 30
0.0
 40
2.1999970000000002
 50
0.0
 51
89.999982000000827
  0
LINE
  5
1B7DC
  8
0
  6
CONTINUOUS
 62
     0
 10
-0.0494449999999915
 20
0.0
 30
0.0
 11
-0.8000000000000112
 21
1.30000000000001
 31
0.0
  0
LINE
  5
1B7DD
  8
0
  6
CONTINUOUS
 62
     0
 10
0.9505550000000083
 20
0.0
 30
0.0
 11
0.1999999999999886
 21
1.30000000000001
 31
0.0
  0
LINE
  5
1B7DE
  8
0
  6
CONTINUOUS
 62
     0
 10
4.600000000000021
 20
1.30000000000001
 30
0.0
 11
4.600000000000021
 21
0.0
 31
0.0
  0
LINE
  5
1B7DF
  8
0
  6
CONTINUOUS
 62
     0
 10
-4.600000000000021
 20
1.30000000000001
 30
0.0
 11
-4.600000000000021
 21
0.0
 31
0.0
  0
LINE
  5
1B7E0
  8
0
  6
CONTINUOUS
 62
     0
 10
4.600000000000021
 20
0.0
 30
0.0
 11
-4.600000000000021
 21
0.0
 31
0.0
  0
LINE
  5
1B7E1
  8
0
  6
CONTINUOUS
 62
     0
 10
2.300003000000002
 20
4.6000029999999583
 30
0.0
 11
-2.300003000000002
 21
4.6000029999999583
 31
0.0
  0
LINE
  5
1B7E2
  8
0
  6
CONTINUOUS
 62
     0
 10
4.600000000000021
 20
1.30000000000001
 30
0.0
 11
-4.600000000000021
 21
1.30000000000001
 31
0.0
  0
LINE
  5
1B7E3
  8
0
  6
CONTINUOUS
 62
     0
 10
-4.5
 20
1.30000000000001
 30
0.0
 11
-4.5
 21
2.3999909999999431
 31
0.0
  0
LINE
  5
1B7E4
  8
0
  6
CONTINUOUS
 62
     0
 10
4.5
 20
1.30000000000001
 30
0.0
 11
4.5
 21
2.3999910000000551
 31
0.0
  0
ENDBLK
  5
1B7E5
  8
0
  6
BYBLOCK
 62
     0
  0
BLOCK
  8
0
  2
_OPEN30
 70
     0
 10
0.0
 20
0.0
 30
0.0
  3
_OPEN30
  1

  0
LINE
  5
1C20F
  8
0
  6
BYBLOCK
 62
     0
 10
-1.0
 20
0.26794919
 30
0.0
 11
0.0
 21
0.0
 31
0.0
  0
LINE
  5
1C210
  8
0
  6
BYBLOCK
 62
     0
 10
0.0
 20
0.0
 30
0.0
 11
-1.0
 21
-0.26794919
 31
0.0
  0
LINE
  5
1C211
  8
0
  6
BYBLOCK
 62
     0
 10
0.0
 20
0.0
 30
0.0
 11
-1.0
 21
0.0
 31
0.0
  0
ENDBLK
  5
1C212
  8
0
  0
BLOCK
  8
0
  2
_NONE
 70
     0
 10
0.0
 20
0.0
 30
0.0
  3
_NONE
  1

  0
ENDBLK
  5
1C2F1
  8
0
  0
ENDSEC
  0
SECTION
  2
ENTITIES
  0
POINT
  5
1B94
  8
0
 10
0.0
 20
0.0
 30
0.0
1001
GENIUS_GENODEF_13
1002
{
1000
HIER
1070
     1
1002
}
1002
{
1000
MANEDIT
1070
     0
1002
}
1002
{
1000
NOSEL
1070
     0
1002
}
1002
{
1000
BEHIND
1070
     0
1002
}
1002
{
1000
REACTOR
1002
}
1001
GENIUS_GENOBJ-N-SDF_13
1002
{
1000
OWNER
1000
GEN
1002
}
1001
GENIUS_GENOENT_13
1002
{
1000
MYREF
1005
1B94
1002
}
1002
{
1000
GRP
1005
0
1002
}
1001
GENIUS_GENOLIS_13
1002
{
1000
ENT
1005
89
1002
}
  0
CIRCLE
  5
1A1AA
  8
AM_0
 10
529.55229911344975
 20
332.70089935700469
 30
0.0
 40
50.0
  0
LINE
  5
1A1AB
  8
0
 10
574.55232797540168
 20
449.70089935700372
 30
0.0
 11
429.55229911344981
 21
449.70089935700372
 31
0.0
  0
LINE
  5
1A1AC
  8
0
 10
574.55232797540168
 20
215.70089935700469
 30
0.0
 11
429.55229911344981
 21
215.70089935700469
 31
0.0
  0
LINE
  5
1A1AD
  8
AM_0
 10
529.55229911344975
 20
404.70090152437132
 30
0.0
 11
566.69560448721677
 21
404.70090152437132
 31
0.0
  0
LINE
  5
1A1AE
  8
AM_0
 10
529.55229911344975
 20
260.70089718963698
 30
0.0
 11
566.69560448721677
 21
260.70089718963737
 31
0.0
  0
LINE
  5
1A1AF
  8
AM_0
 10
414.55232616926219
 20
252.70089694881869
 30
0.0
 11
589.55230091958924
 21
252.70089694881869
 31
0.0
  0
LINE
  5
1A1B0
  8
AM_0
 10
414.55232616926219
 20
412.70090176519011
 30
0.0
 11
589.55230091958924
 21
412.70090176519011
 31
0.0
  0
LINE
  5
1A1B1
  8
ﾁｭｳｼﾝｾﾝ1
 10
124.7
 20
332.70089935700457
 30
0.0
 11
617.70279513034257
 21
332.70089935700457
 31
0.0
  0
LINE
  5
1A1B4
  8
ｶｸﾚｾﾝ2
 10
397.5523257177274
 20
397.70090131365549
 30
0.0
 11
397.5523257177274
 21
267.70089740035331
 31
0.0
  0
LINE
  5
1A1B5
  8
AM_0
 10
407.55232595854562
 20
290.55759383272601
 30
0.0
 11
407.55232595854562
 21
374.84420488128308
 31
0.0
  0
LINE
  5
1A1B6
  8
AM_0
 10
399.55232571772729
 20
397.70090131365549
 30
0.0
 11
399.55232571772729
 21
267.70089740035331
 31
0.0
  0
LINE
  5
1A1B7
  8
ﾁｭｳｼﾝｾﾝ1
 10
529.55229911344975
 20
458.29800083675599
 30
0.0
 11
529.55229911344975
 21
207.10379787725341
 31
0.0
  0
LINE
  5
1A1B8
  8
AM_0
 10
390.79224911967498
 20
394.11613546587142
 30
0.0
 11
390.79224911967532
 21
271.28566324813789
 31
0.0
  0
POLYLINE
  5
1A1B9
  8
AM_0
 10
390.07951224810131
 20
393.84028450978076
 30
0.0
 66
     1
 70
     8
  0
VERTEX
  8
AM_0
  5
1C378
 10
390.080
 20
393.840
 30
0.000000
  70
    32
  0
VERTEX
  8
AM_0
  5
1C379
 10
390.009
 20
392.887
 30
0.000000
  70
    32
  0
VERTEX
  8
AM_0
  5
1C37A
 10
389.939
 20
391.933
 30
0.000000
  70
    32
  0
VERTEX
  8
AM_0
  5
1C37B
 10
389.870
 20
390.979
 30
0.000000
  70
    32
  0
VERTEX
  8
AM_0
  5
1C37C
 10
389.803
 20
390.026
 30
0.000000
  70
    32
  0
VERTEX
  8
AM_0
  5
1C37D
 10
389.736
 20
389.072
 30
0.000000
  70
    32
  0
VERTEX
  8
AM_0
  5
1C37E
 10
389.671
 20
388.118
 30
0.000000
  70
    32
  0
VERTEX
  8
AM_0
  5
1C37F
 10
389.607
 20
387.164
 30
0.000000
  70
    32
  0
VERTEX
  8
AM_0
  5
1C380
 10
389.544
 20
386.210
 30
0.000000
  70
    32
  0
VERTEX
  8
AM_0
  5
1C381
 10
389.482
 20
385.255
 30
0.000000
  70
    32
  0
VERTEX
  8
AM_0
  5
1C382
 10
389.421
 20
384.301
 30
0.000000
  70
    32
  0
VERTEX
  8
AM_0
  5
1C383
 10
389.361
 20
383.347
 30
0.000000
  70
    32
  0
VERTEX
  8
AM_0
  5
1C384
 10
389.302
 20
382.392
 30
0.000000
  70
    32
  0
VERTEX
  8
AM_0
  5
1C385
 10
389.245
 20
381.438
 30
0.000000
  70
    32
  0
VERTEX
  8
AM_0
  5
1C386
 10
389.189
 20
380.483
 30
0.000000
  70
    32
  0
VERTEX
  8
AM_0
  5
1C387
 10
389.133
 20
379.529
 30
0.000000
  70
    32
  0
VERTEX
  8
AM_0
  5
1C388
 10
389.079
 20
378.574
 30
0.000000
  70
    32
  0
VERTEX
  8
AM_0
  5
1C389
 10
389.026
 20
377.619
 30
0.000000
  70
    32
  0
VERTEX
  8
AM_0
  5
1C38A
 10
388.974
 20
376.665
 30
0.000000
  70
    32
  0
VERTEX
  8
AM_0
  5
1C38B
 10
388.923
 20
375.710
 30
0.000000
  70
    32
  0
VERTEX
  8
AM_0
  5
1C38C
 10
388.874
 20
374.755
 30
0.000000
  70
    32
  0
VERTEX
  8
AM_0
  5
1C38D
 10
388.825
 20
373.800
 30
0.000000
  70
    32
  0
VERTEX
  8
AM_0
  5
1C38E
 10
388.778
 20
372.845
 30
0.000000
  70
    32
  0
VERTEX
  8
AM_0
  5
1C38F
 10
388.731
 20
371.890
 30
0.000000
  70
    32
  0
VERTEX
  8
AM_0
  5
1C390
 10
388.686
 20
370.935
 30
0.000000
  70
    32
  0
VERTEX
  8
AM_0
  5
1C391
 10
388.642
 20
369.980
 30
0.000000
  70
    32
  0
VERTEX
  8
AM_0
  5
1C392
 10
388.599
 20
369.024
 30
0.000000
  70
    32
  0
VERTEX
  8
AM_0
  5
1C393
 10
388.557
 20
368.069
 30
0.000000
  70
    32
  0
VERTEX
  8
AM_0
  5
1C394
 10
388.516
 20
367.114
 30
0.000000
  70
    32
  0
VERTEX
  8
AM_0
  5
1C395
 10
388.477
 20
366.158
 30
0.000000
  70
    32
  0
VERTEX
  8
AM_0
  5
1C396
 10
388.438
 20
365.203
 30
0.000000
  70
    32
  0
VERTEX
  8
AM_0
  5
1C397
 10
388.401
 20
364.247
 30
0.000000
  70
    32
  0
VERTEX
  8
AM_0
  5
1C398
 10
388.364
 20
363.292
 30
0.000000
  70
    32
  0
VERTEX
  8
AM_0
  5
1C399
 10
388.329
 20
362.336
 30
0.000000
  70
    32
  0
VERTEX
  8
AM_0
  5
1C39A
 10
388.295
 20
361.381
 30
0.000000
  70
    32
  0
VERTEX
  8
AM_0
  5
1C39B
 10
388.262
 20
360.425
 30
0.000000
  70
    32
  0
VERTEX
  8
AM_0
  5
1C39C
 10
388.230
 20
359.470
 30
0.000000
  70
    32
  0
VERTEX
  8
AM_0
  5
1C39D
 10
388.199
 20
358.514
 30
0.000000
  70
    32
  0
VERTEX
  8
AM_0
  5
1C39E
 10
388.170
 20
357.558
 30
0.000000
  70
    32
  0
VERTEX
  8
AM_0
  5
1C39F
 10
388.141
 20
356.602
 30
0.000000
  70
    32
  0
VERTEX
  8
AM_0
  5
1C3A0
 10
388.114
 20
355.647
 30
0.000000
  70
    32
  0
VERTEX
  8
AM_0
  5
1C3A1
 10
388.088
 20
354.691
 30
0.000000
  70
    32
  0
VERTEX
  8
AM_0
  5
1C3A2
 10
388.063
 20
353.735
 30
0.000000
  70
    32
  0
VERTEX
  8
AM_0
  5
1C3A3
 10
388.039
 20
352.779
 30
0.000000
  70
    32
  0
VERTEX
  8
AM_0
  5
1C3A4
 10
388.016
 20
351.823
 30
0.000000
  70
    32
  0
VERTEX
  8
AM_0
  5
1C3A5
 10
387.994
 20
350.867
 30
0.000000
  70
    32
  0
VERTEX
  8
AM_0
  5
1C3A6
 10
387.973
 20
349.911
 30
0.000000
  70
    32
  0
VERTEX
  8
AM_0
  5
1C3A7
 10
387.954
 20
348.955
 30
0.000000
  70
    32
  0
VERTEX
  8
AM_0
  5
1C3A8
 10
387.935
 20
347.999
 30
0.000000
  70
    32
  0
VERTEX
  8
AM_0
  5
1C3A9
 10
387.918
 20
347.043
 30
0.000000
  70
    32
  0
VERTEX
  8
AM_0
  5
1C3AA
 10
387.902
 20
346.087
 30
0.000000
  70
    32
  0
VERTEX
  8
AM_0
  5
1C3AB
 10
387.887
 20
345.131
 30
0.000000
  70
    32
  0
VERTEX
  8
AM_0
  5
1C3AC
 10
387.873
 20
344.175
 30
0.000000
  70
    32
  0
VERTEX
  8
AM_0
  5
1C3AD
 10
387.860
 20
343.219
 30
0.000000
  70
    32
  0
VERTEX
  8
AM_0
  5
1C3AE
 10
387.848
 20
342.263
 30
0.000000
  70
    32
  0
VERTEX
  8
AM_0
  5
1C3AF
 10
387.838
 20
341.306
 30
0.000000
  70
    32
  0
VERTEX
  8
AM_0
  5
1C3B0
 10
387.828
 20
340.350
 30
0.000000
  70
    32
  0
VERTEX
  8
AM_0
  5
1C3B1
 10
387.820
 20
339.394
 30
0.000000
  70
    32
  0
VERTEX
  8
AM_0
  5
1C3B2
 10
387.812
 20
338.438
 30
0.000000
  70
    32
  0
VERTEX
  8
AM_0
  5
1C3B3
 10
387.806
 20
337.482
 30
0.000000
  70
    32
  0
VERTEX
  8
AM_0
  5
1C3B4
 10
387.801
 20
336.526
 30
0.000000
  70
    32
  0
VERTEX
  8
AM_0
  5
1C3B5
 10
387.797
 20
335.569
 30
0.000000
  70
    32
  0
VERTEX
  8
AM_0
  5
1C3B6
 10
387.794
 20
334.613
 30
0.000000
  70
    32
  0
VERTEX
  8
AM_0
  5
1C3B7
 10
387.793
 20
333.657
 30
0.000000
  70
    32
  0
VERTEX
  8
AM_0
  5
1C3B8
 10
387.792
 20
332.701
 30
0.000000
  70
    32
  0
VERTEX
  8
AM_0
  5
1C3B9
 10
387.793
 20
331.745
 30
0.000000
  70
    32
  0
VERTEX
  8
AM_0
  5
1C3BA
 10
387.794
 20
330.789
 30
0.000000
  70
    32
  0
VERTEX
  8
AM_0
  5
1C3BB
 10
387.797
 20
329.832
 30
0.000000
  70
    32
  0
VERTEX
  8
AM_0
  5
1C3BC
 10
387.801
 20
328.876
 30
0.000000
  70
    32
  0
VERTEX
  8
AM_0
  5
1C3BD
 10
387.806
 20
327.920
 30
0.000000
  70
    32
  0
VERTEX
  8
AM_0
  5
1C3BE
 10
387.812
 20
326.964
 30
0.000000
  70
    32
  0
VERTEX
  8
AM_0
  5
1C3BF
 10
387.820
 20
326.008
 30
0.000000
  70
    32
  0
VERTEX
  8
AM_0
  5
1C3C0
 10
387.828
 20
325.051
 30
0.000000
  70
    32
  0
VERTEX
  8
AM_0
  5
1C3C1
 10
387.838
 20
324.095
 30
0.000000
  70
    32
  0
VERTEX
  8
AM_0
  5
1C3C2
 10
387.848
 20
323.139
 30
0.000000
  70
    32
  0
VERTEX
  8
AM_0
  5
1C3C3
 10
387.860
 20
322.183
 30
0.000000
  70
    32
  0
VERTEX
  8
AM_0
  5
1C3C4
 10
387.873
 20
321.227
 30
0.000000
  70
    32
  0
VERTEX
  8
AM_0
  5
1C3C5
 10
387.887
 20
320.271
 30
0.000000
  70
    32
  0
VERTEX
  8
AM_0
  5
1C3C6
 10
387.902
 20
319.315
 30
0.000000
  70
    32
  0
VERTEX
  8
AM_0
  5
1C3C7
 10
387.918
 20
318.359
 30
0.000000
  70
    32
  0
VERTEX
  8
AM_0
  5
1C3C8
 10
387.935
 20
317.403
 30
0.000000
  70
    32
  0
VERTEX
  8
AM_0
  5
1C3C9
 10
387.954
 20
316.447
 30
0.000000
  70
    32
  0
VERTEX
  8
AM_0
  5
1C3CA
 10
387.973
 20
315.491
 30
0.000000
  70
    32
  0
VERTEX
  8
AM_0
  5
1C3CB
 10
387.994
 20
314.535
 30
0.000000
  70
    32
  0
VERTEX
  8
AM_0
  5
1C3CC
 10
388.016
 20
313.579
 30
0.000000
  70
    32
  0
VERTEX
  8
AM_0
  5
1C3CD
 10
388.039
 20
312.623
 30
0.000000
  70
    32
  0
VERTEX
  8
AM_0
  5
1C3CE
 10
388.063
 20
311.667
 30
0.000000
  70
    32
  0
VERTEX
  8
AM_0
  5
1C3CF
 10
388.088
 20
310.711
 30
0.000000
  70
    32
  0
VERTEX
  8
AM_0
  5
1C3D0
 10
388.114
 20
309.755
 30
0.000000
  70
    32
  0
VERTEX
  8
AM_0
  5
1C3D1
 10
388.141
 20
308.799
 30
0.000000
  70
    32
  0
VERTEX
  8
AM_0
  5
1C3D2
 10
388.170
 20
307.844
 30
0.000000
  70
    32
  0
VERTEX
  8
AM_0
  5
1C3D3
 10
388.199
 20
306.888
 30
0.000000
  70
    32
  0
VERTEX
  8
AM_0
  5
1C3D4
 10
388.230
 20
305.932
 30
0.000000
  70
    32
  0
VERTEX
  8
AM_0
  5
1C3D5
 10
388.262
 20
304.977
 30
0.000000
  70
    32
  0
VERTEX
  8
AM_0
  5
1C3D6
 10
388.295
 20
304.021
 30
0.000000
  70
    32
  0
VERTEX
  8
AM_0
  5
1C3D7
 10
388.329
 20
303.065
 30
0.000000
  70
    32
  0
VERTEX
  8
AM_0
  5
1C3D8
 10
388.364
 20
302.110
 30
0.000000
  70
    32
  0
VERTEX
  8
AM_0
  5
1C3D9
 10
388.401
 20
301.154
 30
0.000000
  70
    32
  0
VERTEX
  8
AM_0
  5
1C3DA
 10
388.438
 20
300.199
 30
0.000000
  70
    32
  0
VERTEX
  8
AM_0
  5
1C3DB
 10
388.477
 20
299.243
 30
0.000000
  70
    32
  0
VERTEX
  8
AM_0
  5
1C3DC
 10
388.516
 20
298.288
 30
0.000000
  70
    32
  0
VERTEX
  8
AM_0
  5
1C3DD
 10
388.557
 20
297.333
 30
0.000000
  70
    32
  0
VERTEX
  8
AM_0
  5
1C3DE
 10
388.599
 20
296.377
 30
0.000000
  70
    32
  0
VERTEX
  8
AM_0
  5
1C3DF
 10
388.642
 20
295.422
 30
0.000000
  70
    32
  0
VERTEX
  8
AM_0
  5
1C3E0
 10
388.686
 20
294.467
 30
0.000000
  70
    32
  0
VERTEX
  8
AM_0
  5
1C3E1
 10
388.731
 20
293.512
 30
0.000000
  70
    32
  0
VERTEX
  8
AM_0
  5
1C3E2
 10
388.778
 20
292.557
 30
0.000000
  70
    32
  0
VERTEX
  8
AM_0
  5
1C3E3
 10
388.825
 20
291.602
 30
0.000000
  70
    32
  0
VERTEX
  8
AM_0
  5
1C3E4
 10
388.874
 20
290.647
 30
0.000000
  70
    32
  0
VERTEX
  8
AM_0
  5
1C3E5
 10
388.923
 20
289.692
 30
0.000000
  70
    32
  0
VERTEX
  8
AM_0
  5
1C3E6
 10
388.974
 20
288.737
 30
0.000000
  70
    32
  0
VERTEX
  8
AM_0
  5
1C3E7
 10
389.026
 20
287.782
 30
0.000000
  70
    32
  0
VERTEX
  8
AM_0
  5
1C3E8
 10
389.079
 20
286.828
 30
0.000000
  70
    32
  0
VERTEX
  8
AM_0
  5
1C3E9
 10
389.133
 20
285.873
 30
0.000000
  70
    32
  0
VERTEX
  8
AM_0
  5
1C3EA
 10
389.189
 20
284.918
 30
0.000000
  70
    32
  0
VERTEX
  8
AM_0
  5
1C3EB
 10
389.245
 20
283.964
 30
0.000000
  70
    32
  0
VERTEX
  8
AM_0
  5
1C3EC
 10
389.302
 20
283.009
 30
0.000000
  70
    32
  0
VERTEX
  8
AM_0
  5
1C3ED
 10
389.361
 20
282.055
 30
0.000000
  70
    32
  0
VERTEX
  8
AM_0
  5
1C3EE
 10
389.421
 20
281.101
 30
0.000000
  70
    32
  0
VERTEX
  8
AM_0
  5
1C3EF
 10
389.482
 20
280.146
 30
0.000000
  70
    32
  0
VERTEX
  8
AM_0
  5
1C3F0
 10
389.544
 20
279.192
 30
0.000000
  70
    32
  0
VERTEX
  8
AM_0
  5
1C3F1
 10
389.607
 20
278.238
 30
0.000000
  70
    32
  0
VERTEX
  8
AM_0
  5
1C3F2
 10
389.671
 20
277.284
 30
0.000000
  70
    32
  0
VERTEX
  8
AM_0
  5
1C3F3
 10
389.736
 20
276.330
 30
0.000000
  70
    32
  0
VERTEX
  8
AM_0
  5
1C3F4
 10
389.803
 20
275.376
 30
0.000000
  70
    32
  0
VERTEX
  8
AM_0
  5
1C3F5
 10
389.870
 20
274.422
 30
0.000000
  70
    32
  0
VERTEX
  8
AM_0
  5
1C3F6
 10
389.939
 20
273.469
 30
0.000000
  70
    32
  0
VERTEX
  8
AM_0
  5
1C3F7
 10
390.009
 20
272.515
 30
0.000000
  70
    32
  0
VERTEX
  8
AM_0
  5
1C3F8
 10
390.080
 20
271.562
 30
0.000000
  70
    32
  0
SEQEND
  8
AM_0
  5
1C3F9
  0
LINE
  5
1A1BA
  8
AM_0
 10
363.0523257067772
 20
406.20236935700473
 30
0.0
 11
363.05232570677742
 21
332.70089935700469
 31
0.0
  0
LINE
  5
1A1BB
  8
AM_0
 10
377.05232571097707
 20
403.20229481260071
 30
0.0
 11
377.05232571097741
 21
332.70089935700469
 31
0.0
  0
LINE
  5
1A1E1
  8
AM_0
 10
378.02094762808377
 20
260.69947265559711
 30
0.0
 11
399.58566617932769
 21
260.69949880113921
 31
0.0
  0
LINE
  5
1A262
  8
AM_0
 10
363.0523257067772
 20
259.19942935700448
 30
0.0
 11
363.05232570677742
 21
332.70089935700469
 31
0.0
  0
LINE
  5
1A263
  8
AM_0
 10
377.05232571097707
 20
262.199503901409
 30
0.0
 11
377.05232571097741
 21
332.70089935700469
 31
0.0
  0
LINE
  5
1A27C
  8
AM_0
 10
363.05233178645091
 20
259.19942450731639
 30
0.0
 11
374.05233099927108
 21
259.1994439014137
 31
0.0
  0
POLYLINE
  5
1A27D
  8
AM_0
 10
374.05233099927085
 20
259.19944390141359
 30
0.0
 66
     1
 70
     8
  0
VERTEX
  8
AM_0
  5
1C3FA
 10
374.052
 20
259.199
 30
0.000000
  70
    32
  0
VERTEX
  8
AM_0
  5
1C3FB
 10
374.069
 20
259.199
 30
0.000000
  70
    32
  0
VERTEX
  8
AM_0
  5
1C3FC
 10
374.086
 20
259.200
 30
0.000000
  70
    32
  0
VERTEX
  8
AM_0
  5
1C3FD
 10
374.103
 20
259.200
 30
0.000000
  70
    32
  0
VERTEX
  8
AM_0
  5
1C3FE
 10
374.120
 20
259.200
 30
0.000000
  70
    32
  0
VERTEX
  8
AM_0
  5
1C3FF
 10
374.137
 20
259.201
 30
0.000000
  70
    32
  0
VERTEX
  8
AM_0
  5
1C400
 10
374.154
 20
259.201
 30
0.000000
  70
    32
  0
VERTEX
  8
AM_0
  5
1C401
 10
374.171
 20
259.202
 30
0.000000
  70
    32
  0
VERTEX
  8
AM_0
  5
1C402
 10
374.188
 20
259.203
 30
0.000000
  70
    32
  0
VERTEX
  8
AM_0
  5
1C403
 10
374.205
 20
259.203
 30
0.000000
  70
    32
  0
VERTEX
  8
AM_0
  5
1C404
 10
374.222
 20
259.204
 30
0.000000
  70
    32
  0
VERTEX
  8
AM_0
  5
1C405
 10
374.239
 20
259.205
 30
0.000000
  70
    32
  0
VERTEX
  8
AM_0
  5
1C406
 10
374.255
 20
259.206
 30
0.000000
  70
    32
  0
VERTEX
  8
AM_0
  5
1C407
 10
374.272
 20
259.208
 30
0.000000
  70
    32
  0
VERTEX
  8
AM_0
  5
1C408
 10
374.289
 20
259.209
 30
0.000000
  70
    32
  0
VERTEX
  8
AM_0
  5
1C409
 10
374.306
 20
259.210
 30
0.000000
  70
    32
  0
VERTEX
  8
AM_0
  5
1C40A
 10
374.323
 20
259.212
 30
0.000000
  70
    32
  0
VERTEX
  8
AM_0
  5
1C40B
 10
374.340
 20
259.213
 30
0.000000
  70
    32
  0
VERTEX
  8
AM_0
  5
1C40C
 10
374.357
 20
259.215
 30
0.000000
  70
    32
  0
VERTEX
  8
AM_0
  5
1C40D
 10
374.374
 20
259.217
 30
0.000000
  70
    32
  0
VERTEX
  8
AM_0
  5
1C40E
 10
374.390
 20
259.219
 30
0.000000
  70
    32
  0
VERTEX
  8
AM_0
  5
1C40F
 10
374.407
 20
259.221
 30
0.000000
  70
    32
  0
VERTEX
  8
AM_0
  5
1C410
 10
374.424
 20
259.223
 30
0.000000
  70
    32
  0
VERTEX
  8
AM_0
  5
1C411
 10
374.441
 20
259.225
 30
0.000000
  70
    32
  0
VERTEX
  8
AM_0
  5
1C412
 10
374.458
 20
259.227
 30
0.000000
  70
    32
  0
VERTEX
  8
AM_0
  5
1C413
 10
374.474
 20
259.229
 30
0.000000
  70
    32
  0
VERTEX
  8
AM_0
  5
1C414
 10
374.491
 20
259.232
 30
0.000000
  70
    32
  0
VERTEX
  8
AM_0
  5
1C415
 10
374.508
 20
259.234
 30
0.000000
  70
    32
  0
VERTEX
  8
AM_0
  5
1C416
 10
374.525
 20
259.237
 30
0.000000
  70
    32
  0
VERTEX
  8
AM_0
  5
1C417
 10
374.541
 20
259.240
 30
0.000000
  70
    32
  0
VERTEX
  8
AM_0
  5
1C418
 10
374.558
 20
259.242
 30
0.000000
  70
    32
  0
VERTEX
  8
AM_0
  5
1C419
 10
374.575
 20
259.245
 30
0.000000
  70
    32
  0
VERTEX
  8
AM_0
  5
1C41A
 10
374.591
 20
259.248
 30
0.000000
  70
    32
  0
VERTEX
  8
AM_0
  5
1C41B
 10
374.608
 20
259.251
 30
0.000000
  70
    32
  0
VERTEX
  8
AM_0
  5
1C41C
 10
374.625
 20
259.255
 30
0.000000
  70
    32
  0
VERTEX
  8
AM_0
  5
1C41D
 10
374.641
 20
259.258
 30
0.000000
  70
    32
  0
VERTEX
  8
AM_0
  5
1C41E
 10
374.658
 20
259.261
 30
0.000000
  70
    32
  0
VERTEX
  8
AM_0
  5
1C41F
 10
374.675
 20
259.265
 30
0.000000
  70
    32
  0
VERTEX
  8
AM_0
  5
1C420
 10
374.691
 20
259.268
 30
0.000000
  70
    32
  0
VERTEX
  8
AM_0
  5
1C421
 10
374.708
 20
259.272
 30
0.000000
  70
    32
  0
VERTEX
  8
AM_0
  5
1C422
 10
374.724
 20
259.276
 30
0.000000
  70
    32
  0
VERTEX
  8
AM_0
  5
1C423
 10
374.741
 20
259.279
 30
0.000000
  70
    32
  0
VERTEX
  8
AM_0
  5
1C424
 10
374.757
 20
259.283
 30
0.000000
  70
    32
  0
VERTEX
  8
AM_0
  5
1C425
 10
374.774
 20
259.287
 30
0.000000
  70
    32
  0
VERTEX
  8
AM_0
  5
1C426
 10
374.790
 20
259.292
 30
0.000000
  70
    32
  0
VERTEX
  8
AM_0
  5
1C427
 10
374.806
 20
259.296
 30
0.000000
  70
    32
  0
VERTEX
  8
AM_0
  5
1C428
 10
374.823
 20
259.300
 30
0.000000
  70
    32
  0
VERTEX
  8
AM_0
  5
1C429
 10
374.839
 20
259.304
 30
0.000000
  70
    32
  0
VERTEX
  8
AM_0
  5
1C42A
 10
374.855
 20
259.309
 30
0.000000
  70
    32
  0
VERTEX
  8
AM_0
  5
1C42B
 10
374.872
 20
259.314
 30
0.000000
  70
    32
  0
VERTEX
  8
AM_0
  5
1C42C
 10
374.888
 20
259.318
 30
0.000000
  70
    32
  0
VERTEX
  8
AM_0
  5
1C42D
 10
374.904
 20
259.323
 30
0.000000
  70
    32
  0
VERTEX
  8
AM_0
  5
1C42E
 10
374.921
 20
259.328
 30
0.000000
  70
    32
  0
VERTEX
  8
AM_0
  5
1C42F
 10
374.937
 20
259.333
 30
0.000000
  70
    32
  0
VERTEX
  8
AM_0
  5
1C430
 10
374.953
 20
259.338
 30
0.000000
  70
    32
  0
VERTEX
  8
AM_0
  5
1C431
 10
374.969
 20
259.343
 30
0.000000
  70
    32
  0
VERTEX
  8
AM_0
  5
1C432
 10
374.985
 20
259.348
 30
0.000000
  70
    32
  0
VERTEX
  8
AM_0
  5
1C433
 10
375.001
 20
259.353
 30
0.000000
  70
    32
  0
VERTEX
  8
AM_0
  5
1C434
 10
375.017
 20
259.359
 30
0.000000
  70
    32
  0
VERTEX
  8
AM_0
  5
1C435
 10
375.033
 20
259.364
 30
0.000000
  70
    32
  0
VERTEX
  8
AM_0
  5
1C436
 10
375.049
 20
259.370
 30
0.000000
  70
    32
  0
VERTEX
  8
AM_0
  5
1C437
 10
375.065
 20
259.376
 30
0.000000
  70
    32
  0
VERTEX
  8
AM_0
  5
1C438
 10
375.081
 20
259.381
 30
0.000000
  70
    32
  0
VERTEX
  8
AM_0
  5
1C439
 10
375.097
 20
259.387
 30
0.000000
  70
    32
  0
VERTEX
  8
AM_0
  5
1C43A
 10
375.113
 20
259.393
 30
0.000000
  70
    32
  0
VERTEX
  8
AM_0
  5
1C43B
 10
375.129
 20
259.399
 30
0.000000
  70
    32
  0
VERTEX
  8
AM_0
  5
1C43C
 10
375.145
 20
259.405
 30
0.000000
  70
    32
  0
VERTEX
  8
AM_0
  5
1C43D
 10
375.160
 20
259.412
 30
0.000000
  70
    32
  0
VERTEX
  8
AM_0
  5
1C43E
 10
375.176
 20
259.418
 30
0.000000
  70
    32
  0
VERTEX
  8
AM_0
  5
1C43F
 10
375.192
 20
259.424
 30
0.000000
  70
    32
  0
VERTEX
  8
AM_0
  5
1C440
 10
375.207
 20
259.431
 30
0.000000
  70
    32
  0
VERTEX
  8
AM_0
  5
1C441
 10
375.223
 20
259.437
 30
0.000000
  70
    32
  0
VERTEX
  8
AM_0
  5
1C442
 10
375.239
 20
259.444
 30
0.000000
  70
    32
  0
VERTEX
  8
AM_0
  5
1C443
 10
375.254
 20
259.451
 30
0.000000
  70
    32
  0
VERTEX
  8
AM_0
  5
1C444
 10
375.270
 20
259.458
 30
0.000000
  70
    32
  0
VERTEX
  8
AM_0
  5
1C445
 10
375.285
 20
259.464
 30
0.000000
  70
    32
  0
VERTEX
  8
AM_0
  5
1C446
 10
375.301
 20
259.471
 30
0.000000
  70
    32
  0
VERTEX
  8
AM_0
  5
1C447
 10
375.316
 20
259.479
 30
0.000000
  70
    32
  0
VERTEX
  8
AM_0
  5
1C448
 10
375.331
 20
259.486
 30
0.000000
  70
    32
  0
VERTEX
  8
AM_0
  5
1C449
 10
375.347
 20
259.493
 30
0.000000
  70
    32
  0
VERTEX
  8
AM_0
  5
1C44A
 10
375.362
 20
259.500
 30
0.000000
  70
    32
  0
VERTEX
  8
AM_0
  5
1C44B
 10
375.377
 20
259.508
 30
0.000000
  70
    32
  0
VERTEX
  8
AM_0
  5
1C44C
 10
375.392
 20
259.515
 30
0.000000
  70
    32
  0
VERTEX
  8
AM_0
  5
1C44D
 10
375.407
 20
259.523
 30
0.000000
  70
    32
  0
VERTEX
  8
AM_0
  5
1C44E
 10
375.422
 20
259.531
 30
0.000000
  70
    32
  0
VERTEX
  8
AM_0
  5
1C44F
 10
375.438
 20
259.538
 30
0.000000
  70
    32
  0
VERTEX
  8
AM_0
  5
1C450
 10
375.453
 20
259.546
 30
0.000000
  70
    32
  0
VERTEX
  8
AM_0
  5
1C451
 10
375.467
 20
259.554
 30
0.000000
  70
    32
  0
VERTEX
  8
AM_0
  5
1C452
 10
375.482
 20
259.562
 30
0.000000
  70
    32
  0
VERTEX
  8
AM_0
  5
1C453
 10
375.497
 20
259.570
 30
0.000000
  70
    32
  0
VERTEX
  8
AM_0
  5
1C454
 10
375.512
 20
259.579
 30
0.000000
  70
    32
  0
VERTEX
  8
AM_0
  5
1C455
 10
375.527
 20
259.587
 30
0.000000
  70
    32
  0
VERTEX
  8
AM_0
  5
1C456
 10
375.542
 20
259.595
 30
0.000000
  70
    32
  0
VERTEX
  8
AM_0
  5
1C457
 10
375.556
 20
259.604
 30
0.000000
  70
    32
  0
VERTEX
  8
AM_0
  5
1C458
 10
375.571
 20
259.612
 30
0.000000
  70
    32
  0
VERTEX
  8
AM_0
  5
1C459
 10
375.585
 20
259.621
 30
0.000000
  70
    32
  0
VERTEX
  8
AM_0
  5
1C45A
 10
375.600
 20
259.629
 30
0.000000
  70
    32
  0
VERTEX
  8
AM_0
  5
1C45B
 10
375.614
 20
259.638
 30
0.000000
  70
    32
  0
VERTEX
  8
AM_0
  5
1C45C
 10
375.629
 20
259.647
 30
0.000000
  70
    32
  0
VERTEX
  8
AM_0
  5
1C45D
 10
375.643
 20
259.656
 30
0.000000
  70
    32
  0
VERTEX
  8
AM_0
  5
1C45E
 10
375.658
 20
259.665
 30
0.000000
  70
    32
  0
VERTEX
  8
AM_0
  5
1C45F
 10
375.672
 20
259.674
 30
0.000000
  70
    32
  0
VERTEX
  8
AM_0
  5
1C460
 10
375.686
 20
259.683
 30
0.000000
  70
    32
  0
VERTEX
  8
AM_0
  5
1C461
 10
375.700
 20
259.693
 30
0.000000
  70
    32
  0
VERTEX
  8
AM_0
  5
1C462
 10
375.714
 20
259.702
 30
0.000000
  70
    32
  0
VERTEX
  8
AM_0
  5
1C463
 10
375.729
 20
259.711
 30
0.000000
  70
    32
  0
VERTEX
  8
AM_0
  5
1C464
 10
375.743
 20
259.721
 30
0.000000
  70
    32
  0
VERTEX
  8
AM_0
  5
1C465
 10
375.757
 20
259.731
 30
0.000000
  70
    32
  0
VERTEX
  8
AM_0
  5
1C466
 10
375.770
 20
259.740
 30
0.000000
  70
    32
  0
VERTEX
  8
AM_0
  5
1C467
 10
375.784
 20
259.750
 30
0.000000
  70
    32
  0
VERTEX
  8
AM_0
  5
1C468
 10
375.798
 20
259.760
 30
0.000000
  70
    32
  0
VERTEX
  8
AM_0
  5
1C469
 10
375.812
 20
259.770
 30
0.000000
  70
    32
  0
VERTEX
  8
AM_0
  5
1C46A
 10
375.826
 20
259.780
 30
0.000000
  70
    32
  0
VERTEX
  8
AM_0
  5
1C46B
 10
375.839
 20
259.790
 30
0.000000
  70
    32
  0
VERTEX
  8
AM_0
  5
1C46C
 10
375.853
 20
259.800
 30
0.000000
  70
    32
  0
VERTEX
  8
AM_0
  5
1C46D
 10
375.866
 20
259.810
 30
0.000000
  70
    32
  0
VERTEX
  8
AM_0
  5
1C46E
 10
375.880
 20
259.820
 30
0.000000
  70
    32
  0
VERTEX
  8
AM_0
  5
1C46F
 10
375.893
 20
259.831
 30
0.000000
  70
    32
  0
VERTEX
  8
AM_0
  5
1C470
 10
375.907
 20
259.841
 30
0.000000
  70
    32
  0
VERTEX
  8
AM_0
  5
1C471
 10
375.920
 20
259.852
 30
0.000000
  70
    32
  0
VERTEX
  8
AM_0
  5
1C472
 10
375.933
 20
259.862
 30
0.000000
  70
    32
  0
VERTEX
  8
AM_0
  5
1C473
 10
375.946
 20
259.873
 30
0.000000
  70
    32
  0
VERTEX
  8
AM_0
  5
1C474
 10
375.959
 20
259.884
 30
0.000000
  70
    32
  0
VERTEX
  8
AM_0
  5
1C475
 10
375.972
 20
259.894
 30
0.000000
  70
    32
  0
VERTEX
  8
AM_0
  5
1C476
 10
375.985
 20
259.905
 30
0.000000
  70
    32
  0
VERTEX
  8
AM_0
  5
1C477
 10
375.998
 20
259.916
 30
0.000000
  70
    32
  0
VERTEX
  8
AM_0
  5
1C478
 10
376.011
 20
259.927
 30
0.000000
  70
    32
  0
VERTEX
  8
AM_0
  5
1C479
 10
376.024
 20
259.938
 30
0.000000
  70
    32
  0
VERTEX
  8
AM_0
  5
1C47A
 10
376.037
 20
259.949
 30
0.000000
  70
    32
  0
SEQEND
  8
AM_0
  5
1C47B
  0
POLYLINE
  5
1A27E
  8
AM_0
 10
378.02094762808372
 20
260.69947265559722
 30
0.0
 66
     1
 70
     8
  0
VERTEX
  8
AM_0
  5
1C47C
 10
378.021
 20
260.699
 30
0.000000
  70
    32
  0
VERTEX
  8
AM_0
  5
1C47D
 10
378.004
 20
260.699
 30
0.000000
  70
    32
  0
VERTEX
  8
AM_0
  5
1C47E
 10
377.987
 20
260.699
 30
0.000000
  70
    32
  0
VERTEX
  8
AM_0
  5
1C47F
 10
377.970
 20
260.699
 30
0.000000
  70
    32
  0
VERTEX
  8
AM_0
  5
1C480
 10
377.953
 20
260.699
 30
0.000000
  70
    32
  0
VERTEX
  8
AM_0
  5
1C481
 10
377.936
 20
260.698
 30
0.000000
  70
    32
  0
VERTEX
  8
AM_0
  5
1C482
 10
377.919
 20
260.698
 30
0.000000
  70
    32
  0
VERTEX
  8
AM_0
  5
1C483
 10
377.902
 20
260.697
 30
0.000000
  70
    32
  0
VERTEX
  8
AM_0
  5
1C484
 10
377.885
 20
260.696
 30
0.000000
  70
    32
  0
VERTEX
  8
AM_0
  5
1C485
 10
377.869
 20
260.696
 30
0.000000
  70
    32
  0
VERTEX
  8
AM_0
  5
1C486
 10
377.852
 20
260.695
 30
0.000000
  70
    32
  0
VERTEX
  8
AM_0
  5
1C487
 10
377.835
 20
260.694
 30
0.000000
  70
    32
  0
VERTEX
  8
AM_0
  5
1C488
 10
377.818
 20
260.693
 30
0.000000
  70
    32
  0
VERTEX
  8
AM_0
  5
1C489
 10
377.801
 20
260.691
 30
0.000000
  70
    32
  0
VERTEX
  8
AM_0
  5
1C48A
 10
377.784
 20
260.690
 30
0.000000
  70
    32
  0
VERTEX
  8
AM_0
  5
1C48B
 10
377.767
 20
260.689
 30
0.000000
  70
    32
  0
VERTEX
  8
AM_0
  5
1C48C
 10
377.750
 20
260.687
 30
0.000000
  70
    32
  0
VERTEX
  8
AM_0
  5
1C48D
 10
377.733
 20
260.686
 30
0.000000
  70
    32
  0
VERTEX
  8
AM_0
  5
1C48E
 10
377.717
 20
260.684
 30
0.000000
  70
    32
  0
VERTEX
  8
AM_0
  5
1C48F
 10
377.700
 20
260.682
 30
0.000000
  70
    32
  0
VERTEX
  8
AM_0
  5
1C490
 10
377.683
 20
260.680
 30
0.000000
  70
    32
  0
VERTEX
  8
AM_0
  5
1C491
 10
377.666
 20
260.678
 30
0.000000
  70
    32
  0
VERTEX
  8
AM_0
  5
1C492
 10
377.649
 20
260.676
 30
0.000000
  70
    32
  0
VERTEX
  8
AM_0
  5
1C493
 10
377.632
 20
260.674
 30
0.000000
  70
    32
  0
VERTEX
  8
AM_0
  5
1C494
 10
377.616
 20
260.672
 30
0.000000
  70
    32
  0
VERTEX
  8
AM_0
  5
1C495
 10
377.599
 20
260.670
 30
0.000000
  70
    32
  0
VERTEX
  8
AM_0
  5
1C496
 10
377.582
 20
260.667
 30
0.000000
  70
    32
  0
VERTEX
  8
AM_0
  5
1C497
 10
377.565
 20
260.665
 30
0.000000
  70
    32
  0
VERTEX
  8
AM_0
  5
1C498
 10
377.549
 20
260.662
 30
0.000000
  70
    32
  0
VERTEX
  8
AM_0
  5
1C499
 10
377.532
 20
260.659
 30
0.000000
  70
    32
  0
VERTEX
  8
AM_0
  5
1C49A
 10
377.515
 20
260.657
 30
0.000000
  70
    32
  0
VERTEX
  8
AM_0
  5
1C49B
 10
377.499
 20
260.654
 30
0.000000
  70
    32
  0
VERTEX
  8
AM_0
  5
1C49C
 10
377.482
 20
260.651
 30
0.000000
  70
    32
  0
VERTEX
  8
AM_0
  5
1C49D
 10
377.465
 20
260.648
 30
0.000000
  70
    32
  0
VERTEX
  8
AM_0
  5
1C49E
 10
377.449
 20
260.644
 30
0.000000
  70
    32
  0
VERTEX
  8
AM_0
  5
1C49F
 10
377.432
 20
260.641
 30
0.000000
  70
    32
  0
VERTEX
  8
AM_0
  5
1C4A0
 10
377.415
 20
260.638
 30
0.000000
  70
    32
  0
VERTEX
  8
AM_0
  5
1C4A1
 10
377.399
 20
260.634
 30
0.000000
  70
    32
  0
VERTEX
  8
AM_0
  5
1C4A2
 10
377.382
 20
260.631
 30
0.000000
  70
    32
  0
VERTEX
  8
AM_0
  5
1C4A3
 10
377.366
 20
260.627
 30
0.000000
  70
    32
  0
VERTEX
  8
AM_0
  5
1C4A4
 10
377.349
 20
260.623
 30
0.000000
  70
    32
  0
VERTEX
  8
AM_0
  5
1C4A5
 10
377.333
 20
260.619
 30
0.000000
  70
    32
  0
VERTEX
  8
AM_0
  5
1C4A6
 10
377.316
 20
260.616
 30
0.000000
  70
    32
  0
VERTEX
  8
AM_0
  5
1C4A7
 10
377.300
 20
260.611
 30
0.000000
  70
    32
  0
VERTEX
  8
AM_0
  5
1C4A8
 10
377.283
 20
260.607
 30
0.000000
  70
    32
  0
VERTEX
  8
AM_0
  5
1C4A9
 10
377.267
 20
260.603
 30
0.000000
  70
    32
  0
VERTEX
  8
AM_0
  5
1C4AA
 10
377.250
 20
260.599
 30
0.000000
  70
    32
  0
VERTEX
  8
AM_0
  5
1C4AB
 10
377.234
 20
260.594
 30
0.000000
  70
    32
  0
VERTEX
  8
AM_0
  5
1C4AC
 10
377.218
 20
260.590
 30
0.000000
  70
    32
  0
VERTEX
  8
AM_0
  5
1C4AD
 10
377.201
 20
260.585
 30
0.000000
  70
    32
  0
VERTEX
  8
AM_0
  5
1C4AE
 10
377.185
 20
260.581
 30
0.000000
  70
    32
  0
VERTEX
  8
AM_0
  5
1C4AF
 10
377.169
 20
260.576
 30
0.000000
  70
    32
  0
VERTEX
  8
AM_0
  5
1C4B0
 10
377.153
 20
260.571
 30
0.000000
  70
    32
  0
VERTEX
  8
AM_0
  5
1C4B1
 10
377.137
 20
260.566
 30
0.000000
  70
    32
  0
VERTEX
  8
AM_0
  5
1C4B2
 10
377.120
 20
260.561
 30
0.000000
  70
    32
  0
VERTEX
  8
AM_0
  5
1C4B3
 10
377.104
 20
260.556
 30
0.000000
  70
    32
  0
VERTEX
  8
AM_0
  5
1C4B4
 10
377.088
 20
260.551
 30
0.000000
  70
    32
  0
VERTEX
  8
AM_0
  5
1C4B5
 10
377.072
 20
260.545
 30
0.000000
  70
    32
  0
VERTEX
  8
AM_0
  5
1C4B6
 10
377.056
 20
260.540
 30
0.000000
  70
    32
  0
VERTEX
  8
AM_0
  5
1C4B7
 10
377.040
 20
260.535
 30
0.000000
  70
    32
  0
VERTEX
  8
AM_0
  5
1C4B8
 10
377.024
 20
260.529
 30
0.000000
  70
    32
  0
VERTEX
  8
AM_0
  5
1C4B9
 10
377.008
 20
260.523
 30
0.000000
  70
    32
  0
VERTEX
  8
AM_0
  5
1C4BA
 10
376.992
 20
260.518
 30
0.000000
  70
    32
  0
VERTEX
  8
AM_0
  5
1C4BB
 10
376.976
 20
260.512
 30
0.000000
  70
    32
  0
VERTEX
  8
AM_0
  5
1C4BC
 10
376.960
 20
260.506
 30
0.000000
  70
    32
  0
VERTEX
  8
AM_0
  5
1C4BD
 10
376.944
 20
260.500
 30
0.000000
  70
    32
  0
VERTEX
  8
AM_0
  5
1C4BE
 10
376.929
 20
260.494
 30
0.000000
  70
    32
  0
VERTEX
  8
AM_0
  5
1C4BF
 10
376.913
 20
260.487
 30
0.000000
  70
    32
  0
VERTEX
  8
AM_0
  5
1C4C0
 10
376.897
 20
260.481
 30
0.000000
  70
    32
  0
VERTEX
  8
AM_0
  5
1C4C1
 10
376.881
 20
260.475
 30
0.000000
  70
    32
  0
VERTEX
  8
AM_0
  5
1C4C2
 10
376.866
 20
260.468
 30
0.000000
  70
    32
  0
VERTEX
  8
AM_0
  5
1C4C3
 10
376.850
 20
260.462
 30
0.000000
  70
    32
  0
VERTEX
  8
AM_0
  5
1C4C4
 10
376.835
 20
260.455
 30
0.000000
  70
    32
  0
VERTEX
  8
AM_0
  5
1C4C5
 10
376.819
 20
260.448
 30
0.000000
  70
    32
  0
VERTEX
  8
AM_0
  5
1C4C6
 10
376.804
 20
260.441
 30
0.000000
  70
    32
  0
VERTEX
  8
AM_0
  5
1C4C7
 10
376.788
 20
260.434
 30
0.000000
  70
    32
  0
VERTEX
  8
AM_0
  5
1C4C8
 10
376.773
 20
260.427
 30
0.000000
  70
    32
  0
VERTEX
  8
AM_0
  5
1C4C9
 10
376.757
 20
260.420
 30
0.000000
  70
    32
  0
VERTEX
  8
AM_0
  5
1C4CA
 10
376.742
 20
260.413
 30
0.000000
  70
    32
  0
VERTEX
  8
AM_0
  5
1C4CB
 10
376.727
 20
260.406
 30
0.000000
  70
    32
  0
VERTEX
  8
AM_0
  5
1C4CC
 10
376.711
 20
260.399
 30
0.000000
  70
    32
  0
VERTEX
  8
AM_0
  5
1C4CD
 10
376.696
 20
260.391
 30
0.000000
  70
    32
  0
VERTEX
  8
AM_0
  5
1C4CE
 10
376.681
 20
260.384
 30
0.000000
  70
    32
  0
VERTEX
  8
AM_0
  5
1C4CF
 10
376.666
 20
260.376
 30
0.000000
  70
    32
  0
VERTEX
  8
AM_0
  5
1C4D0
 10
376.651
 20
260.368
 30
0.000000
  70
    32
  0
VERTEX
  8
AM_0
  5
1C4D1
 10
376.636
 20
260.361
 30
0.000000
  70
    32
  0
VERTEX
  8
AM_0
  5
1C4D2
 10
376.621
 20
260.353
 30
0.000000
  70
    32
  0
VERTEX
  8
AM_0
  5
1C4D3
 10
376.606
 20
260.345
 30
0.000000
  70
    32
  0
VERTEX
  8
AM_0
  5
1C4D4
 10
376.591
 20
260.337
 30
0.000000
  70
    32
  0
VERTEX
  8
AM_0
  5
1C4D5
 10
376.576
 20
260.329
 30
0.000000
  70
    32
  0
VERTEX
  8
AM_0
  5
1C4D6
 10
376.561
 20
260.320
 30
0.000000
  70
    32
  0
VERTEX
  8
AM_0
  5
1C4D7
 10
376.546
 20
260.312
 30
0.000000
  70
    32
  0
VERTEX
  8
AM_0
  5
1C4D8
 10
376.532
 20
260.304
 30
0.000000
  70
    32
  0
VERTEX
  8
AM_0
  5
1C4D9
 10
376.517
 20
260.295
 30
0.000000
  70
    32
  0
VERTEX
  8
AM_0
  5
1C4DA
 10
376.502
 20
260.287
 30
0.000000
  70
    32
  0
VERTEX
  8
AM_0
  5
1C4DB
 10
376.488
 20
260.278
 30
0.000000
  70
    32
  0
VERTEX
  8
AM_0
  5
1C4DC
 10
376.473
 20
260.269
 30
0.000000
  70
    32
  0
VERTEX
  8
AM_0
  5
1C4DD
 10
376.459
 20
260.261
 30
0.000000
  70
    32
  0
VERTEX
  8
AM_0
  5
1C4DE
 10
376.444
 20
260.252
 30
0.000000
  70
    32
  0
VERTEX
  8
AM_0
  5
1C4DF
 10
376.430
 20
260.243
 30
0.000000
  70
    32
  0
VERTEX
  8
AM_0
  5
1C4E0
 10
376.416
 20
260.234
 30
0.000000
  70
    32
  0
VERTEX
  8
AM_0
  5
1C4E1
 10
376.401
 20
260.225
 30
0.000000
  70
    32
  0
VERTEX
  8
AM_0
  5
1C4E2
 10
376.387
 20
260.216
 30
0.000000
  70
    32
  0
VERTEX
  8
AM_0
  5
1C4E3
 10
376.373
 20
260.206
 30
0.000000
  70
    32
  0
VERTEX
  8
AM_0
  5
1C4E4
 10
376.359
 20
260.197
 30
0.000000
  70
    32
  0
VERTEX
  8
AM_0
  5
1C4E5
 10
376.345
 20
260.187
 30
0.000000
  70
    32
  0
VERTEX
  8
AM_0
  5
1C4E6
 10
376.331
 20
260.178
 30
0.000000
  70
    32
  0
VERTEX
  8
AM_0
  5
1C4E7
 10
376.317
 20
260.168
 30
0.000000
  70
    32
  0
VERTEX
  8
AM_0
  5
1C4E8
 10
376.303
 20
260.159
 30
0.000000
  70
    32
  0
VERTEX
  8
AM_0
  5
1C4E9
 10
376.289
 20
260.149
 30
0.000000
  70
    32
  0
VERTEX
  8
AM_0
  5
1C4EA
 10
376.275
 20
260.139
 30
0.000000
  70
    32
  0
VERTEX
  8
AM_0
  5
1C4EB
 10
376.261
 20
260.129
 30
0.000000
  70
    32
  0
VERTEX
  8
AM_0
  5
1C4EC
 10
376.248
 20
260.119
 30
0.000000
  70
    32
  0
VERTEX
  8
AM_0
  5
1C4ED
 10
376.234
 20
260.109
 30
0.000000
  70
    32
  0
VERTEX
  8
AM_0
  5
1C4EE
 10
376.221
 20
260.099
 30
0.000000
  70
    32
  0
VERTEX
  8
AM_0
  5
1C4EF
 10
376.207
 20
260.089
 30
0.000000
  70
    32
  0
VERTEX
  8
AM_0
  5
1C4F0
 10
376.194
 20
260.079
 30
0.000000
  70
    32
  0
VERTEX
  8
AM_0
  5
1C4F1
 10
376.180
 20
260.068
 30
0.000000
  70
    32
  0
VERTEX
  8
AM_0
  5
1C4F2
 10
376.167
 20
260.058
 30
0.000000
  70
    32
  0
VERTEX
  8
AM_0
  5
1C4F3
 10
376.153
 20
260.047
 30
0.000000
  70
    32
  0
VERTEX
  8
AM_0
  5
1C4F4
 10
376.140
 20
260.037
 30
0.000000
  70
    32
  0
VERTEX
  8
AM_0
  5
1C4F5
 10
376.127
 20
260.026
 30
0.000000
  70
    32
  0
VERTEX
  8
AM_0
  5
1C4F6
 10
376.114
 20
260.015
 30
0.000000
  70
    32
  0
VERTEX
  8
AM_0
  5
1C4F7
 10
376.101
 20
260.005
 30
0.000000
  70
    32
  0
VERTEX
  8
AM_0
  5
1C4F8
 10
376.088
 20
259.994
 30
0.000000
  70
    32
  0
VERTEX
  8
AM_0
  5
1C4F9
 10
376.075
 20
259.983
 30
0.000000
  70
    32
  0
VERTEX
  8
AM_0
  5
1C4FA
 10
376.062
 20
259.972
 30
0.000000
  70
    32
  0
VERTEX
  8
AM_0
  5
1C4FB
 10
376.049
 20
259.961
 30
0.000000
  70
    32
  0
VERTEX
  8
AM_0
  5
1C4FC
 10
376.037
 20
259.949
 30
0.000000
  70
    32
  0
SEQEND
  8
AM_0
  5
1C4FD
  0
LINE
  5
1A27F
  8
AM_0
 10
375.05232571037908
 20
269.6996393570052
 30
0.0
 11
363.0523257067793
 21
269.69963935700468
 31
0.0
  0
LINE
  5
1A293
  8
AM_0
 10
375.05232571037851
 20
293.63916573571203
 30
0.0
 11
363.0523257067785
 21
293.63916573571203
 31
0.0
  0
LINE
  5
1A2AE
  8
0
 10
413.9268294447246
 20
226.00428098414281
 30
0.0
 11
399.05685902483168
 21
260.70093813762549
 31
0.0
  0
ARC
  5
1A2AF
  8
AM_0
 10
414.55232616926219
 20
267.70089740035331
 30
0.0
 40
15.000000451534881
 50
180.00000500895689
 51
270.000000683243
  0
CIRCLE
  5
1A2B3
  8
0
 10
429.55229911344981
 20
232.7008993570042
 30
0.0
 40
7.0
  0
ARC
  5
1A2B4
  8
0
 10
429.55229911344981
 20
232.7008993570042
 30
0.0
 40
16.999999999999709
 50
203.19855493455009
 51
270.0
  0
LINE
  5
1A2B9
  8
AM_0
 10
437.40902260163449
 20
260.70089718963698
 30
0.0
 11
529.55229911344975
 21
260.70089718963737
 31
0.0
  0
CIRCLE
  5
1A2BA
  8
0
 10
414.55232616926219
 20
267.70089740035331
 30
0.0
 40
12.0
  0
ARC
  5
1A2BC
  8
AM_0
 10
414.55232616926219
 20
267.70089740035331
 30
0.0
 40
15.714285718999999
 50
0.3581004304211079
 51
89.641899569578882
  0
ARC
  5
1A2BD
  8
AM_0
 10
414.69518310354562
 20
290.55759383272601
 30
0.0
 40
7.142857144999998
 50
180.0
 51
269.64189956957892
1001
GENIUS_GENODEF_13
1002
{
1000
HIER
1070
     0
1002
}
1002
{
1000
MANEDIT
1070
     0
1002
}
1002
{
1000
NOSEL
1070
     0
1002
}
1002
{
1000
BEHIND
1070
     0
1002
}
1002
{
1000
OTHER
1070
     0
1002
}
1002
{
1000
REACTOR
1002
}
1001
GENIUS_GENOBJ-N-FIL_13
1002
{
1000
OWNER
1000
GEN
1002
}
  0
ARC
  5
1A2BE
  8
0
 10
399.58566981652172
 20
257.700938777852
 30
0.0
 40
3.000000000899997
 50
33.748837597605352
 51
90.000069465278145
1001
GENIUS_GENODEF_13
1002
{
1000
HIER
1070
     0
1002
}
1002
{
1000
MANEDIT
1070
     0
1002
}
1002
{
1000
NOSEL
1070
     0
1002
}
1002
{
1000
BEHIND
1070
     0
1002
}
1002
{
1000
OTHER
1070
     0
1002
}
1002
{
1000
REACTOR
1002
}
1001
GENIUS_GENOBJ-N-FIL_13
1002
{
1000
OWNER
1000
GEN
1002
}
  0
POLYLINE
  5
1A2BF
  8
AM_0
 10
390.07951224810057
 20
271.56151420423703
 30
0.0
 66
     1
 70
     8
  0
VERTEX
  8
AM_0
  5
1C4FE
 10
390.080
 20
271.562
 30
0.000000
  70
    32
  0
VERTEX
  8
AM_0
  5
1C4FF
 10
390.082
 20
271.527
 30
0.000000
  70
    32
  0
VERTEX
  8
AM_0
  5
1C500
 10
390.086
 20
271.492
 30
0.000000
  70
    32
  0
VERTEX
  8
AM_0
  5
1C501
 10
390.089
 20
271.457
 30
0.000000
  70
    32
  0
VERTEX
  8
AM_0
  5
1C502
 10
390.093
 20
271.422
 30
0.000000
  70
    32
  0
VERTEX
  8
AM_0
  5
1C503
 10
390.098
 20
271.387
 30
0.000000
  70
    32
  0
VERTEX
  8
AM_0
  5
1C504
 10
390.103
 20
271.352
 30
0.000000
  70
    32
  0
VERTEX
  8
AM_0
  5
1C505
 10
390.108
 20
271.318
 30
0.000000
  70
    32
  0
VERTEX
  8
AM_0
  5
1C506
 10
390.114
 20
271.283
 30
0.000000
  70
    32
  0
VERTEX
  8
AM_0
  5
1C507
 10
390.120
 20
271.249
 30
0.000000
  70
    32
  0
VERTEX
  8
AM_0
  5
1C508
 10
390.126
 20
271.214
 30
0.000000
  70
    32
  0
VERTEX
  8
AM_0
  5
1C509
 10
390.133
 20
271.180
 30
0.000000
  70
    32
  0
VERTEX
  8
AM_0
  5
1C50A
 10
390.140
 20
271.146
 30
0.000000
  70
    32
  0
VERTEX
  8
AM_0
  5
1C50B
 10
390.148
 20
271.111
 30
0.000000
  70
    32
  0
VERTEX
  8
AM_0
  5
1C50C
 10
390.156
 20
271.077
 30
0.000000
  70
    32
  0
VERTEX
  8
AM_0
  5
1C50D
 10
390.164
 20
271.043
 30
0.000000
  70
    32
  0
VERTEX
  8
AM_0
  5
1C50E
 10
390.173
 20
271.009
 30
0.000000
  70
    32
  0
VERTEX
  8
AM_0
  5
1C50F
 10
390.183
 20
270.975
 30
0.000000
  70
    32
  0
VERTEX
  8
AM_0
  5
1C510
 10
390.192
 20
270.942
 30
0.000000
  70
    32
  0
VERTEX
  8
AM_0
  5
1C511
 10
390.202
 20
270.908
 30
0.000000
  70
    32
  0
VERTEX
  8
AM_0
  5
1C512
 10
390.213
 20
270.875
 30
0.000000
  70
    32
  0
VERTEX
  8
AM_0
  5
1C513
 10
390.224
 20
270.841
 30
0.000000
  70
    32
  0
VERTEX
  8
AM_0
  5
1C514
 10
390.235
 20
270.808
 30
0.000000
  70
    32
  0
VERTEX
  8
AM_0
  5
1C515
 10
390.246
 20
270.775
 30
0.000000
  70
    32
  0
VERTEX
  8
AM_0
  5
1C516
 10
390.258
 20
270.742
 30
0.000000
  70
    32
  0
VERTEX
  8
AM_0
  5
1C517
 10
390.271
 20
270.709
 30
0.000000
  70
    32
  0
VERTEX
  8
AM_0
  5
1C518
 10
390.284
 20
270.677
 30
0.000000
  70
    32
  0
VERTEX
  8
AM_0
  5
1C519
 10
390.297
 20
270.644
 30
0.000000
  70
    32
  0
VERTEX
  8
AM_0
  5
1C51A
 10
390.310
 20
270.612
 30
0.000000
  70
    32
  0
VERTEX
  8
AM_0
  5
1C51B
 10
390.324
 20
270.580
 30
0.000000
  70
    32
  0
VERTEX
  8
AM_0
  5
1C51C
 10
390.339
 20
270.548
 30
0.000000
  70
    32
  0
VERTEX
  8
AM_0
  5
1C51D
 10
390.353
 20
270.516
 30
0.000000
  70
    32
  0
VERTEX
  8
AM_0
  5
1C51E
 10
390.368
 20
270.484
 30
0.000000
  70
    32
  0
VERTEX
  8
AM_0
  5
1C51F
 10
390.384
 20
270.453
 30
0.000000
  70
    32
  0
VERTEX
  8
AM_0
  5
1C520
 10
390.399
 20
270.421
 30
0.000000
  70
    32
  0
VERTEX
  8
AM_0
  5
1C521
 10
390.415
 20
270.390
 30
0.000000
  70
    32
  0
VERTEX
  8
AM_0
  5
1C522
 10
390.432
 20
270.359
 30
0.000000
  70
    32
  0
VERTEX
  8
AM_0
  5
1C523
 10
390.449
 20
270.328
 30
0.000000
  70
    32
  0
VERTEX
  8
AM_0
  5
1C524
 10
390.466
 20
270.298
 30
0.000000
  70
    32
  0
VERTEX
  8
AM_0
  5
1C525
 10
390.484
 20
270.267
 30
0.000000
  70
    32
  0
VERTEX
  8
AM_0
  5
1C526
 10
390.502
 20
270.237
 30
0.000000
  70
    32
  0
VERTEX
  8
AM_0
  5
1C527
 10
390.520
 20
270.207
 30
0.000000
  70
    32
  0
VERTEX
  8
AM_0
  5
1C528
 10
390.538
 20
270.178
 30
0.000000
  70
    32
  0
VERTEX
  8
AM_0
  5
1C529
 10
390.557
 20
270.148
 30
0.000000
  70
    32
  0
VERTEX
  8
AM_0
  5
1C52A
 10
390.577
 20
270.119
 30
0.000000
  70
    32
  0
VERTEX
  8
AM_0
  5
1C52B
 10
390.596
 20
270.090
 30
0.000000
  70
    32
  0
VERTEX
  8
AM_0
  5
1C52C
 10
390.616
 20
270.061
 30
0.000000
  70
    32
  0
VERTEX
  8
AM_0
  5
1C52D
 10
390.637
 20
270.033
 30
0.000000
  70
    32
  0
VERTEX
  8
AM_0
  5
1C52E
 10
390.657
 20
270.004
 30
0.000000
  70
    32
  0
VERTEX
  8
AM_0
  5
1C52F
 10
390.678
 20
269.976
 30
0.000000
  70
    32
  0
VERTEX
  8
AM_0
  5
1C530
 10
390.700
 20
269.948
 30
0.000000
  70
    32
  0
VERTEX
  8
AM_0
  5
1C531
 10
390.721
 20
269.921
 30
0.000000
  70
    32
  0
VERTEX
  8
AM_0
  5
1C532
 10
390.743
 20
269.893
 30
0.000000
  70
    32
  0
VERTEX
  8
AM_0
  5
1C533
 10
390.765
 20
269.866
 30
0.000000
  70
    32
  0
VERTEX
  8
AM_0
  5
1C534
 10
390.788
 20
269.839
 30
0.000000
  70
    32
  0
VERTEX
  8
AM_0
  5
1C535
 10
390.811
 20
269.813
 30
0.000000
  70
    32
  0
VERTEX
  8
AM_0
  5
1C536
 10
390.834
 20
269.787
 30
0.000000
  70
    32
  0
VERTEX
  8
AM_0
  5
1C537
 10
390.858
 20
269.761
 30
0.000000
  70
    32
  0
VERTEX
  8
AM_0
  5
1C538
 10
390.882
 20
269.735
 30
0.000000
  70
    32
  0
VERTEX
  8
AM_0
  5
1C539
 10
390.906
 20
269.709
 30
0.000000
  70
    32
  0
VERTEX
  8
AM_0
  5
1C53A
 10
390.930
 20
269.684
 30
0.000000
  70
    32
  0
VERTEX
  8
AM_0
  5
1C53B
 10
390.955
 20
269.659
 30
0.000000
  70
    32
  0
VERTEX
  8
AM_0
  5
1C53C
 10
390.980
 20
269.635
 30
0.000000
  70
    32
  0
VERTEX
  8
AM_0
  5
1C53D
 10
391.005
 20
269.610
 30
0.000000
  70
    32
  0
VERTEX
  8
AM_0
  5
1C53E
 10
391.031
 20
269.586
 30
0.000000
  70
    32
  0
VERTEX
  8
AM_0
  5
1C53F
 10
391.056
 20
269.563
 30
0.000000
  70
    32
  0
VERTEX
  8
AM_0
  5
1C540
 10
391.083
 20
269.539
 30
0.000000
  70
    32
  0
VERTEX
  8
AM_0
  5
1C541
 10
391.109
 20
269.516
 30
0.000000
  70
    32
  0
VERTEX
  8
AM_0
  5
1C542
 10
391.136
 20
269.494
 30
0.000000
  70
    32
  0
VERTEX
  8
AM_0
  5
1C543
 10
391.163
 20
269.471
 30
0.000000
  70
    32
  0
VERTEX
  8
AM_0
  5
1C544
 10
391.190
 20
269.449
 30
0.000000
  70
    32
  0
VERTEX
  8
AM_0
  5
1C545
 10
391.217
 20
269.427
 30
0.000000
  70
    32
  0
VERTEX
  8
AM_0
  5
1C546
 10
391.245
 20
269.406
 30
0.000000
  70
    32
  0
VERTEX
  8
AM_0
  5
1C547
 10
391.273
 20
269.384
 30
0.000000
  70
    32
  0
VERTEX
  8
AM_0
  5
1C548
 10
391.301
 20
269.364
 30
0.000000
  70
    32
  0
VERTEX
  8
AM_0
  5
1C549
 10
391.329
 20
269.343
 30
0.000000
  70
    32
  0
VERTEX
  8
AM_0
  5
1C54A
 10
391.358
 20
269.323
 30
0.000000
  70
    32
  0
VERTEX
  8
AM_0
  5
1C54B
 10
391.387
 20
269.303
 30
0.000000
  70
    32
  0
VERTEX
  8
AM_0
  5
1C54C
 10
391.416
 20
269.283
 30
0.000000
  70
    32
  0
VERTEX
  8
AM_0
  5
1C54D
 10
391.445
 20
269.264
 30
0.000000
  70
    32
  0
VERTEX
  8
AM_0
  5
1C54E
 10
391.475
 20
269.245
 30
0.000000
  70
    32
  0
VERTEX
  8
AM_0
  5
1C54F
 10
391.505
 20
269.227
 30
0.000000
  70
    32
  0
VERTEX
  8
AM_0
  5
1C550
 10
391.535
 20
269.209
 30
0.000000
  70
    32
  0
VERTEX
  8
AM_0
  5
1C551
 10
391.565
 20
269.191
 30
0.000000
  70
    32
  0
VERTEX
  8
AM_0
  5
1C552
 10
391.595
 20
269.174
 30
0.000000
  70
    32
  0
VERTEX
  8
AM_0
  5
1C553
 10
391.626
 20
269.157
 30
0.000000
  70
    32
  0
VERTEX
  8
AM_0
  5
1C554
 10
391.657
 20
269.140
 30
0.000000
  70
    32
  0
VERTEX
  8
AM_0
  5
1C555
 10
391.688
 20
269.124
 30
0.000000
  70
    32
  0
VERTEX
  8
AM_0
  5
1C556
 10
391.719
 20
269.108
 30
0.000000
  70
    32
  0
VERTEX
  8
AM_0
  5
1C557
 10
391.751
 20
269.092
 30
0.000000
  70
    32
  0
VERTEX
  8
AM_0
  5
1C558
 10
391.782
 20
269.077
 30
0.000000
  70
    32
  0
VERTEX
  8
AM_0
  5
1C559
 10
391.814
 20
269.062
 30
0.000000
  70
    32
  0
VERTEX
  8
AM_0
  5
1C55A
 10
391.846
 20
269.047
 30
0.000000
  70
    32
  0
VERTEX
  8
AM_0
  5
1C55B
 10
391.878
 20
269.033
 30
0.000000
  70
    32
  0
VERTEX
  8
AM_0
  5
1C55C
 10
391.910
 20
269.019
 30
0.000000
  70
    32
  0
VERTEX
  8
AM_0
  5
1C55D
 10
391.943
 20
269.006
 30
0.000000
  70
    32
  0
VERTEX
  8
AM_0
  5
1C55E
 10
391.975
 20
268.993
 30
0.000000
  70
    32
  0
VERTEX
  8
AM_0
  5
1C55F
 10
392.008
 20
268.980
 30
0.000000
  70
    32
  0
VERTEX
  8
AM_0
  5
1C560
 10
392.041
 20
268.968
 30
0.000000
  70
    32
  0
VERTEX
  8
AM_0
  5
1C561
 10
392.074
 20
268.956
 30
0.000000
  70
    32
  0
VERTEX
  8
AM_0
  5
1C562
 10
392.107
 20
268.945
 30
0.000000
  70
    32
  0
VERTEX
  8
AM_0
  5
1C563
 10
392.140
 20
268.934
 30
0.000000
  70
    32
  0
VERTEX
  8
AM_0
  5
1C564
 10
392.173
 20
268.923
 30
0.000000
  70
    32
  0
VERTEX
  8
AM_0
  5
1C565
 10
392.207
 20
268.913
 30
0.000000
  70
    32
  0
VERTEX
  8
AM_0
  5
1C566
 10
392.241
 20
268.903
 30
0.000000
  70
    32
  0
VERTEX
  8
AM_0
  5
1C567
 10
392.274
 20
268.893
 30
0.000000
  70
    32
  0
VERTEX
  8
AM_0
  5
1C568
 10
392.308
 20
268.884
 30
0.000000
  70
    32
  0
VERTEX
  8
AM_0
  5
1C569
 10
392.342
 20
268.876
 30
0.000000
  70
    32
  0
VERTEX
  8
AM_0
  5
1C56A
 10
392.376
 20
268.867
 30
0.000000
  70
    32
  0
VERTEX
  8
AM_0
  5
1C56B
 10
392.410
 20
268.859
 30
0.000000
  70
    32
  0
VERTEX
  8
AM_0
  5
1C56C
 10
392.445
 20
268.852
 30
0.000000
  70
    32
  0
VERTEX
  8
AM_0
  5
1C56D
 10
392.479
 20
268.845
 30
0.000000
  70
    32
  0
VERTEX
  8
AM_0
  5
1C56E
 10
392.513
 20
268.838
 30
0.000000
  70
    32
  0
VERTEX
  8
AM_0
  5
1C56F
 10
392.548
 20
268.832
 30
0.000000
  70
    32
  0
VERTEX
  8
AM_0
  5
1C570
 10
392.582
 20
268.826
 30
0.000000
  70
    32
  0
VERTEX
  8
AM_0
  5
1C571
 10
392.617
 20
268.820
 30
0.000000
  70
    32
  0
VERTEX
  8
AM_0
  5
1C572
 10
392.652
 20
268.815
 30
0.000000
  70
    32
  0
VERTEX
  8
AM_0
  5
1C573
 10
392.686
 20
268.810
 30
0.000000
  70
    32
  0
VERTEX
  8
AM_0
  5
1C574
 10
392.721
 20
268.806
 30
0.000000
  70
    32
  0
VERTEX
  8
AM_0
  5
1C575
 10
392.756
 20
268.802
 30
0.000000
  70
    32
  0
VERTEX
  8
AM_0
  5
1C576
 10
392.791
 20
268.799
 30
0.000000
  70
    32
  0
VERTEX
  8
AM_0
  5
1C577
 10
392.826
 20
268.796
 30
0.000000
  70
    32
  0
VERTEX
  8
AM_0
  5
1C578
 10
392.861
 20
268.793
 30
0.000000
  70
    32
  0
VERTEX
  8
AM_0
  5
1C579
 10
392.896
 20
268.791
 30
0.000000
  70
    32
  0
VERTEX
  8
AM_0
  5
1C57A
 10
392.931
 20
268.789
 30
0.000000
  70
    32
  0
VERTEX
  8
AM_0
  5
1C57B
 10
392.966
 20
268.787
 30
0.000000
  70
    32
  0
VERTEX
  8
AM_0
  5
1C57C
 10
393.001
 20
268.786
 30
0.000000
  70
    32
  0
VERTEX
  8
AM_0
  5
1C57D
 10
393.036
 20
268.786
 30
0.000000
  70
    32
  0
VERTEX
  8
AM_0
  5
1C57E
 10
393.071
 20
268.786
 30
0.000000
  70
    32
  0
SEQEND
  8
AM_0
  5
1C57F
  0
LINE
  5
1A2C0
  8
AM_0
 10
393.07112631716751
 20
268.78561324813779
 30
0.0
 11
397.05232571697729
 21
268.78561324813779
 31
0.0
  0
POLYLINE
  5
1A2C1
  8
0
 66
     1
 10
0.0
 20
0.0
 30
0.0
 70
     1
  0
VERTEX
  5
1C321
  8
0
 10
409.55232616926202
 20
270.58764874630128
 30
0.0
  0
VERTEX
  5
1C322
  8
0
 10
409.55232616926202
 20
264.814146054405
 30
0.0
  0
VERTEX
  5
1C323
  8
0
 10
414.55232616926219
 20
261.92739470845692
 30
0.0
  0
VERTEX
  5
1C324
  8
0
 10
419.55232616926207
 20
264.814146054405
 30
0.0
  0
VERTEX
  5
1C325
  8
0
 10
419.55232616926207
 20
270.58764874630128
 30
0.0
  0
VERTEX
  5
1C326
  8
0
 10
414.55232616926219
 20
273.47440009224943
 30
0.0
  0
SEQEND
  5
1C327
  8
0
  0
CIRCLE
  5
1A2C2
  8
0
 10
414.55232616926219
 20
267.70089740035331
 30
0.0
 40
9.0
  0
ARC
  5
1A2C4
  8
AM_0
 10
437.40902260163449
 20
267.84375433463708
 30
0.0
 40
7.142857144999998
 50
180.3581004304211
 51
270.0
1001
GENIUS_GENOBJ-N-FIL_13
1002
{
1000
OWNER
1000
GEN
1002
}
1001
GENIUS_GENODEF_13
1002
{
1000
HIER
1070
     0
1002
}
1002
{
1000
MANEDIT
1070
     0
1002
}
1002
{
1000
NOSEL
1070
     0
1002
}
1002
{
1000
BEHIND
1070
     0
1002
}
1002
{
1000
OTHER
1070
     0
1002
}
1002
{
1000
REACTOR
1002
}
  0
CIRCLE
  5
1A2C5
  8
AM_0
 10
529.55229911344975
 20
332.70089935700469
 30
0.0
 40
25.000000752558059
  0
ARC
  5
1A2C6
  8
0
 10
529.55229911344975
 20
332.70089935700469
 30
0.0
 40
16.000000000000512
 50
108.2099568642822
 51
71.790043135717795
  0
LINE
  5
1A2C7
  8
0
 10
524.55229911344986
 20
351.70089935700378
 30
0.0
 11
534.55229911344975
 21
351.70089935700378
 31
0.0
  0
LINE
  5
1A2C8
  8
AM_0
 10
534.55229911344975
 20
343.70089935700378
 30
0.0
 11
534.55229911344975
 21
351.70089935700378
 31
0.0
  0
LINE
  5
1A2C9
  8
0
 10
524.55229911344986
 20
343.70089935700378
 30
0.0
 11
534.55229911344975
 21
343.70089935700378
 31
0.0
  0
LINE
  5
1A2CA
  8
AM_0
 10
524.55229911344986
 20
343.70089935700378
 30
0.0
 11
524.55229911344986
 21
351.70089935700378
 31
0.0
  0
LINE
  5
1A2E3
  8
AM_0
 10
378.02094762808377
 20
404.70232605841198
 30
0.0
 11
399.58566617932769
 21
404.70229991286999
 31
0.0
  0
LINE
  5
1A300
  8
AM_0
 10
375.05232571037709
 20
371.76263297829792
 30
0.0
 11
363.05232570677742
 21
371.76263297829752
 31
0.0
  0
LINE
  5
1A301
  8
AM_0
 10
375.05232571037709
 20
395.70215935700469
 30
0.0
 11
363.0523257067772
 21
395.70215935700469
 31
0.0
  0
LINE
  5
1A308
  8
AM_0
 10
363.05233178645091
 20
406.20237420669258
 30
0.0
 11
374.05233099927108
 21
406.2023548125955
 31
0.0
  0
POLYLINE
  5
1A309
  8
AM_0
 10
376.03663848767729
 20
405.45234043550533
 30
0.0
 66
     1
 70
     8
  0
VERTEX
  8
AM_0
  5
1C580
 10
376.037
 20
405.452
 30
0.000000
  70
    32
  0
VERTEX
  8
AM_0
  5
1C581
 10
376.024
 20
405.464
 30
0.000000
  70
    32
  0
VERTEX
  8
AM_0
  5
1C582
 10
376.011
 20
405.475
 30
0.000000
  70
    32
  0
VERTEX
  8
AM_0
  5
1C583
 10
375.998
 20
405.486
 30
0.000000
  70
    32
  0
VERTEX
  8
AM_0
  5
1C584
 10
375.985
 20
405.497
 30
0.000000
  70
    32
  0
VERTEX
  8
AM_0
  5
1C585
 10
375.972
 20
405.507
 30
0.000000
  70
    32
  0
VERTEX
  8
AM_0
  5
1C586
 10
375.959
 20
405.518
 30
0.000000
  70
    32
  0
VERTEX
  8
AM_0
  5
1C587
 10
375.946
 20
405.529
 30
0.000000
  70
    32
  0
VERTEX
  8
AM_0
  5
1C588
 10
375.933
 20
405.540
 30
0.000000
  70
    32
  0
VERTEX
  8
AM_0
  5
1C589
 10
375.920
 20
405.550
 30
0.000000
  70
    32
  0
VERTEX
  8
AM_0
  5
1C58A
 10
375.907
 20
405.561
 30
0.000000
  70
    32
  0
VERTEX
  8
AM_0
  5
1C58B
 10
375.893
 20
405.571
 30
0.000000
  70
    32
  0
VERTEX
  8
AM_0
  5
1C58C
 10
375.880
 20
405.582
 30
0.000000
  70
    32
  0
VERTEX
  8
AM_0
  5
1C58D
 10
375.866
 20
405.592
 30
0.000000
  70
    32
  0
VERTEX
  8
AM_0
  5
1C58E
 10
375.853
 20
405.602
 30
0.000000
  70
    32
  0
VERTEX
  8
AM_0
  5
1C58F
 10
375.839
 20
405.612
 30
0.000000
  70
    32
  0
VERTEX
  8
AM_0
  5
1C590
 10
375.826
 20
405.622
 30
0.000000
  70
    32
  0
VERTEX
  8
AM_0
  5
1C591
 10
375.812
 20
405.632
 30
0.000000
  70
    32
  0
VERTEX
  8
AM_0
  5
1C592
 10
375.798
 20
405.642
 30
0.000000
  70
    32
  0
VERTEX
  8
AM_0
  5
1C593
 10
375.784
 20
405.652
 30
0.000000
  70
    32
  0
VERTEX
  8
AM_0
  5
1C594
 10
375.770
 20
405.662
 30
0.000000
  70
    32
  0
VERTEX
  8
AM_0
  5
1C595
 10
375.757
 20
405.671
 30
0.000000
  70
    32
  0
VERTEX
  8
AM_0
  5
1C596
 10
375.743
 20
405.681
 30
0.000000
  70
    32
  0
VERTEX
  8
AM_0
  5
1C597
 10
375.729
 20
405.690
 30
0.000000
  70
    32
  0
VERTEX
  8
AM_0
  5
1C598
 10
375.714
 20
405.700
 30
0.000000
  70
    32
  0
VERTEX
  8
AM_0
  5
1C599
 10
375.700
 20
405.709
 30
0.000000
  70
    32
  0
VERTEX
  8
AM_0
  5
1C59A
 10
375.686
 20
405.718
 30
0.000000
  70
    32
  0
VERTEX
  8
AM_0
  5
1C59B
 10
375.672
 20
405.728
 30
0.000000
  70
    32
  0
VERTEX
  8
AM_0
  5
1C59C
 10
375.658
 20
405.737
 30
0.000000
  70
    32
  0
VERTEX
  8
AM_0
  5
1C59D
 10
375.643
 20
405.746
 30
0.000000
  70
    32
  0
VERTEX
  8
AM_0
  5
1C59E
 10
375.629
 20
405.755
 30
0.000000
  70
    32
  0
VERTEX
  8
AM_0
  5
1C59F
 10
375.614
 20
405.764
 30
0.000000
  70
    32
  0
VERTEX
  8
AM_0
  5
1C5A0
 10
375.600
 20
405.772
 30
0.000000
  70
    32
  0
VERTEX
  8
AM_0
  5
1C5A1
 10
375.585
 20
405.781
 30
0.000000
  70
    32
  0
VERTEX
  8
AM_0
  5
1C5A2
 10
375.571
 20
405.790
 30
0.000000
  70
    32
  0
VERTEX
  8
AM_0
  5
1C5A3
 10
375.556
 20
405.798
 30
0.000000
  70
    32
  0
VERTEX
  8
AM_0
  5
1C5A4
 10
375.542
 20
405.807
 30
0.000000
  70
    32
  0
VERTEX
  8
AM_0
  5
1C5A5
 10
375.527
 20
405.815
 30
0.000000
  70
    32
  0
VERTEX
  8
AM_0
  5
1C5A6
 10
375.512
 20
405.823
 30
0.000000
  70
    32
  0
VERTEX
  8
AM_0
  5
1C5A7
 10
375.497
 20
405.831
 30
0.000000
  70
    32
  0
VERTEX
  8
AM_0
  5
1C5A8
 10
375.482
 20
405.840
 30
0.000000
  70
    32
  0
VERTEX
  8
AM_0
  5
1C5A9
 10
375.467
 20
405.848
 30
0.000000
  70
    32
  0
VERTEX
  8
AM_0
  5
1C5AA
 10
375.453
 20
405.856
 30
0.000000
  70
    32
  0
VERTEX
  8
AM_0
  5
1C5AB
 10
375.438
 20
405.863
 30
0.000000
  70
    32
  0
VERTEX
  8
AM_0
  5
1C5AC
 10
375.422
 20
405.871
 30
0.000000
  70
    32
  0
VERTEX
  8
AM_0
  5
1C5AD
 10
375.407
 20
405.879
 30
0.000000
  70
    32
  0
VERTEX
  8
AM_0
  5
1C5AE
 10
375.392
 20
405.886
 30
0.000000
  70
    32
  0
VERTEX
  8
AM_0
  5
1C5AF
 10
375.377
 20
405.894
 30
0.000000
  70
    32
  0
VERTEX
  8
AM_0
  5
1C5B0
 10
375.362
 20
405.901
 30
0.000000
  70
    32
  0
VERTEX
  8
AM_0
  5
1C5B1
 10
375.347
 20
405.909
 30
0.000000
  70
    32
  0
VERTEX
  8
AM_0
  5
1C5B2
 10
375.331
 20
405.916
 30
0.000000
  70
    32
  0
VERTEX
  8
AM_0
  5
1C5B3
 10
375.316
 20
405.923
 30
0.000000
  70
    32
  0
VERTEX
  8
AM_0
  5
1C5B4
 10
375.301
 20
405.930
 30
0.000000
  70
    32
  0
VERTEX
  8
AM_0
  5
1C5B5
 10
375.285
 20
405.937
 30
0.000000
  70
    32
  0
VERTEX
  8
AM_0
  5
1C5B6
 10
375.270
 20
405.944
 30
0.000000
  70
    32
  0
VERTEX
  8
AM_0
  5
1C5B7
 10
375.254
 20
405.951
 30
0.000000
  70
    32
  0
VERTEX
  8
AM_0
  5
1C5B8
 10
375.239
 20
405.958
 30
0.000000
  70
    32
  0
VERTEX
  8
AM_0
  5
1C5B9
 10
375.223
 20
405.964
 30
0.000000
  70
    32
  0
VERTEX
  8
AM_0
  5
1C5BA
 10
375.207
 20
405.971
 30
0.000000
  70
    32
  0
VERTEX
  8
AM_0
  5
1C5BB
 10
375.192
 20
405.978
 30
0.000000
  70
    32
  0
VERTEX
  8
AM_0
  5
1C5BC
 10
375.176
 20
405.984
 30
0.000000
  70
    32
  0
VERTEX
  8
AM_0
  5
1C5BD
 10
375.160
 20
405.990
 30
0.000000
  70
    32
  0
VERTEX
  8
AM_0
  5
1C5BE
 10
375.145
 20
405.996
 30
0.000000
  70
    32
  0
VERTEX
  8
AM_0
  5
1C5BF
 10
375.129
 20
406.003
 30
0.000000
  70
    32
  0
VERTEX
  8
AM_0
  5
1C5C0
 10
375.113
 20
406.009
 30
0.000000
  70
    32
  0
VERTEX
  8
AM_0
  5
1C5C1
 10
375.097
 20
406.015
 30
0.000000
  70
    32
  0
VERTEX
  8
AM_0
  5
1C5C2
 10
375.081
 20
406.020
 30
0.000000
  70
    32
  0
VERTEX
  8
AM_0
  5
1C5C3
 10
375.065
 20
406.026
 30
0.000000
  70
    32
  0
VERTEX
  8
AM_0
  5
1C5C4
 10
375.049
 20
406.032
 30
0.000000
  70
    32
  0
VERTEX
  8
AM_0
  5
1C5C5
 10
375.033
 20
406.037
 30
0.000000
  70
    32
  0
VERTEX
  8
AM_0
  5
1C5C6
 10
375.017
 20
406.043
 30
0.000000
  70
    32
  0
VERTEX
  8
AM_0
  5
1C5C7
 10
375.001
 20
406.048
 30
0.000000
  70
    32
  0
VERTEX
  8
AM_0
  5
1C5C8
 10
374.985
 20
406.054
 30
0.000000
  70
    32
  0
VERTEX
  8
AM_0
  5
1C5C9
 10
374.969
 20
406.059
 30
0.000000
  70
    32
  0
VERTEX
  8
AM_0
  5
1C5CA
 10
374.953
 20
406.064
 30
0.000000
  70
    32
  0
VERTEX
  8
AM_0
  5
1C5CB
 10
374.937
 20
406.069
 30
0.000000
  70
    32
  0
VERTEX
  8
AM_0
  5
1C5CC
 10
374.921
 20
406.074
 30
0.000000
  70
    32
  0
VERTEX
  8
AM_0
  5
1C5CD
 10
374.904
 20
406.079
 30
0.000000
  70
    32
  0
VERTEX
  8
AM_0
  5
1C5CE
 10
374.888
 20
406.084
 30
0.000000
  70
    32
  0
VERTEX
  8
AM_0
  5
1C5CF
 10
374.872
 20
406.088
 30
0.000000
  70
    32
  0
VERTEX
  8
AM_0
  5
1C5D0
 10
374.855
 20
406.093
 30
0.000000
  70
    32
  0
VERTEX
  8
AM_0
  5
1C5D1
 10
374.839
 20
406.097
 30
0.000000
  70
    32
  0
VERTEX
  8
AM_0
  5
1C5D2
 10
374.823
 20
406.102
 30
0.000000
  70
    32
  0
VERTEX
  8
AM_0
  5
1C5D3
 10
374.806
 20
406.106
 30
0.000000
  70
    32
  0
VERTEX
  8
AM_0
  5
1C5D4
 10
374.790
 20
406.110
 30
0.000000
  70
    32
  0
VERTEX
  8
AM_0
  5
1C5D5
 10
374.774
 20
406.114
 30
0.000000
  70
    32
  0
VERTEX
  8
AM_0
  5
1C5D6
 10
374.757
 20
406.118
 30
0.000000
  70
    32
  0
VERTEX
  8
AM_0
  5
1C5D7
 10
374.741
 20
406.122
 30
0.000000
  70
    32
  0
VERTEX
  8
AM_0
  5
1C5D8
 10
374.724
 20
406.126
 30
0.000000
  70
    32
  0
VERTEX
  8
AM_0
  5
1C5D9
 10
374.708
 20
406.130
 30
0.000000
  70
    32
  0
VERTEX
  8
AM_0
  5
1C5DA
 10
374.691
 20
406.134
 30
0.000000
  70
    32
  0
VERTEX
  8
AM_0
  5
1C5DB
 10
374.675
 20
406.137
 30
0.000000
  70
    32
  0
VERTEX
  8
AM_0
  5
1C5DC
 10
374.658
 20
406.141
 30
0.000000
  70
    32
  0
VERTEX
  8
AM_0
  5
1C5DD
 10
374.641
 20
406.144
 30
0.000000
  70
    32
  0
VERTEX
  8
AM_0
  5
1C5DE
 10
374.625
 20
406.147
 30
0.000000
  70
    32
  0
VERTEX
  8
AM_0
  5
1C5DF
 10
374.608
 20
406.150
 30
0.000000
  70
    32
  0
VERTEX
  8
AM_0
  5
1C5E0
 10
374.591
 20
406.154
 30
0.000000
  70
    32
  0
VERTEX
  8
AM_0
  5
1C5E1
 10
374.575
 20
406.157
 30
0.000000
  70
    32
  0
VERTEX
  8
AM_0
  5
1C5E2
 10
374.558
 20
406.159
 30
0.000000
  70
    32
  0
VERTEX
  8
AM_0
  5
1C5E3
 10
374.541
 20
406.162
 30
0.000000
  70
    32
  0
VERTEX
  8
AM_0
  5
1C5E4
 10
374.525
 20
406.165
 30
0.000000
  70
    32
  0
VERTEX
  8
AM_0
  5
1C5E5
 10
374.508
 20
406.168
 30
0.000000
  70
    32
  0
VERTEX
  8
AM_0
  5
1C5E6
 10
374.491
 20
406.170
 30
0.000000
  70
    32
  0
VERTEX
  8
AM_0
  5
1C5E7
 10
374.474
 20
406.173
 30
0.000000
  70
    32
  0
VERTEX
  8
AM_0
  5
1C5E8
 10
374.458
 20
406.175
 30
0.000000
  70
    32
  0
VERTEX
  8
AM_0
  5
1C5E9
 10
374.441
 20
406.177
 30
0.000000
  70
    32
  0
VERTEX
  8
AM_0
  5
1C5EA
 10
374.424
 20
406.179
 30
0.000000
  70
    32
  0
VERTEX
  8
AM_0
  5
1C5EB
 10
374.407
 20
406.181
 30
0.000000
  70
    32
  0
VERTEX
  8
AM_0
  5
1C5EC
 10
374.390
 20
406.183
 30
0.000000
  70
    32
  0
VERTEX
  8
AM_0
  5
1C5ED
 10
374.374
 20
406.185
 30
0.000000
  70
    32
  0
VERTEX
  8
AM_0
  5
1C5EE
 10
374.357
 20
406.187
 30
0.000000
  70
    32
  0
VERTEX
  8
AM_0
  5
1C5EF
 10
374.340
 20
406.189
 30
0.000000
  70
    32
  0
VERTEX
  8
AM_0
  5
1C5F0
 10
374.323
 20
406.190
 30
0.000000
  70
    32
  0
VERTEX
  8
AM_0
  5
1C5F1
 10
374.306
 20
406.192
 30
0.000000
  70
    32
  0
VERTEX
  8
AM_0
  5
1C5F2
 10
374.289
 20
406.193
 30
0.000000
  70
    32
  0
VERTEX
  8
AM_0
  5
1C5F3
 10
374.272
 20
406.194
 30
0.000000
  70
    32
  0
VERTEX
  8
AM_0
  5
1C5F4
 10
374.255
 20
406.195
 30
0.000000
  70
    32
  0
VERTEX
  8
AM_0
  5
1C5F5
 10
374.239
 20
406.197
 30
0.000000
  70
    32
  0
VERTEX
  8
AM_0
  5
1C5F6
 10
374.222
 20
406.198
 30
0.000000
  70
    32
  0
VERTEX
  8
AM_0
  5
1C5F7
 10
374.205
 20
406.198
 30
0.000000
  70
    32
  0
VERTEX
  8
AM_0
  5
1C5F8
 10
374.188
 20
406.199
 30
0.000000
  70
    32
  0
VERTEX
  8
AM_0
  5
1C5F9
 10
374.171
 20
406.200
 30
0.000000
  70
    32
  0
VERTEX
  8
AM_0
  5
1C5FA
 10
374.154
 20
406.201
 30
0.000000
  70
    32
  0
VERTEX
  8
AM_0
  5
1C5FB
 10
374.137
 20
406.201
 30
0.000000
  70
    32
  0
VERTEX
  8
AM_0
  5
1C5FC
 10
374.120
 20
406.202
 30
0.000000
  70
    32
  0
VERTEX
  8
AM_0
  5
1C5FD
 10
374.103
 20
406.202
 30
0.000000
  70
    32
  0
VERTEX
  8
AM_0
  5
1C5FE
 10
374.086
 20
406.202
 30
0.000000
  70
    32
  0
VERTEX
  8
AM_0
  5
1C5FF
 10
374.069
 20
406.202
 30
0.000000
  70
    32
  0
VERTEX
  8
AM_0
  5
1C600
 10
374.052
 20
406.202
 30
0.000000
  70
    32
  0
SEQEND
  8
AM_0
  5
1C601
  0
POLYLINE
  5
1A30A
  8
AM_0
 10
376.03663848767701
 20
405.45234043550488
 30
0.0
 66
     1
 70
     8
  0
VERTEX
  8
AM_0
  5
1C602
 10
376.037
 20
405.452
 30
0.000000
  70
    32
  0
VERTEX
  8
AM_0
  5
1C603
 10
376.049
 20
405.441
 30
0.000000
  70
    32
  0
VERTEX
  8
AM_0
  5
1C604
 10
376.062
 20
405.430
 30
0.000000
  70
    32
  0
VERTEX
  8
AM_0
  5
1C605
 10
376.075
 20
405.419
 30
0.000000
  70
    32
  0
VERTEX
  8
AM_0
  5
1C606
 10
376.088
 20
405.408
 30
0.000000
  70
    32
  0
VERTEX
  8
AM_0
  5
1C607
 10
376.101
 20
405.397
 30
0.000000
  70
    32
  0
VERTEX
  8
AM_0
  5
1C608
 10
376.114
 20
405.386
 30
0.000000
  70
    32
  0
VERTEX
  8
AM_0
  5
1C609
 10
376.127
 20
405.376
 30
0.000000
  70
    32
  0
VERTEX
  8
AM_0
  5
1C60A
 10
376.140
 20
405.365
 30
0.000000
  70
    32
  0
VERTEX
  8
AM_0
  5
1C60B
 10
376.153
 20
405.354
 30
0.000000
  70
    32
  0
VERTEX
  8
AM_0
  5
1C60C
 10
376.167
 20
405.344
 30
0.000000
  70
    32
  0
VERTEX
  8
AM_0
  5
1C60D
 10
376.180
 20
405.334
 30
0.000000
  70
    32
  0
VERTEX
  8
AM_0
  5
1C60E
 10
376.194
 20
405.323
 30
0.000000
  70
    32
  0
VERTEX
  8
AM_0
  5
1C60F
 10
376.207
 20
405.313
 30
0.000000
  70
    32
  0
VERTEX
  8
AM_0
  5
1C610
 10
376.221
 20
405.303
 30
0.000000
  70
    32
  0
VERTEX
  8
AM_0
  5
1C611
 10
376.234
 20
405.293
 30
0.000000
  70
    32
  0
VERTEX
  8
AM_0
  5
1C612
 10
376.248
 20
405.282
 30
0.000000
  70
    32
  0
VERTEX
  8
AM_0
  5
1C613
 10
376.261
 20
405.273
 30
0.000000
  70
    32
  0
VERTEX
  8
AM_0
  5
1C614
 10
376.275
 20
405.263
 30
0.000000
  70
    32
  0
VERTEX
  8
AM_0
  5
1C615
 10
376.289
 20
405.253
 30
0.000000
  70
    32
  0
VERTEX
  8
AM_0
  5
1C616
 10
376.303
 20
405.243
 30
0.000000
  70
    32
  0
VERTEX
  8
AM_0
  5
1C617
 10
376.317
 20
405.233
 30
0.000000
  70
    32
  0
VERTEX
  8
AM_0
  5
1C618
 10
376.331
 20
405.224
 30
0.000000
  70
    32
  0
VERTEX
  8
AM_0
  5
1C619
 10
376.345
 20
405.214
 30
0.000000
  70
    32
  0
VERTEX
  8
AM_0
  5
1C61A
 10
376.359
 20
405.205
 30
0.000000
  70
    32
  0
VERTEX
  8
AM_0
  5
1C61B
 10
376.373
 20
405.196
 30
0.000000
  70
    32
  0
VERTEX
  8
AM_0
  5
1C61C
 10
376.387
 20
405.186
 30
0.000000
  70
    32
  0
VERTEX
  8
AM_0
  5
1C61D
 10
376.401
 20
405.177
 30
0.000000
  70
    32
  0
VERTEX
  8
AM_0
  5
1C61E
 10
376.416
 20
405.168
 30
0.000000
  70
    32
  0
VERTEX
  8
AM_0
  5
1C61F
 10
376.430
 20
405.159
 30
0.000000
  70
    32
  0
VERTEX
  8
AM_0
  5
1C620
 10
376.444
 20
405.150
 30
0.000000
  70
    32
  0
VERTEX
  8
AM_0
  5
1C621
 10
376.459
 20
405.141
 30
0.000000
  70
    32
  0
VERTEX
  8
AM_0
  5
1C622
 10
376.473
 20
405.132
 30
0.000000
  70
    32
  0
VERTEX
  8
AM_0
  5
1C623
 10
376.488
 20
405.124
 30
0.000000
  70
    32
  0
VERTEX
  8
AM_0
  5
1C624
 10
376.502
 20
405.115
 30
0.000000
  70
    32
  0
VERTEX
  8
AM_0
  5
1C625
 10
376.517
 20
405.107
 30
0.000000
  70
    32
  0
VERTEX
  8
AM_0
  5
1C626
 10
376.532
 20
405.098
 30
0.000000
  70
    32
  0
VERTEX
  8
AM_0
  5
1C627
 10
376.546
 20
405.090
 30
0.000000
  70
    32
  0
VERTEX
  8
AM_0
  5
1C628
 10
376.561
 20
405.081
 30
0.000000
  70
    32
  0
VERTEX
  8
AM_0
  5
1C629
 10
376.576
 20
405.073
 30
0.000000
  70
    32
  0
VERTEX
  8
AM_0
  5
1C62A
 10
376.591
 20
405.065
 30
0.000000
  70
    32
  0
VERTEX
  8
AM_0
  5
1C62B
 10
376.606
 20
405.057
 30
0.000000
  70
    32
  0
VERTEX
  8
AM_0
  5
1C62C
 10
376.621
 20
405.049
 30
0.000000
  70
    32
  0
VERTEX
  8
AM_0
  5
1C62D
 10
376.636
 20
405.041
 30
0.000000
  70
    32
  0
VERTEX
  8
AM_0
  5
1C62E
 10
376.651
 20
405.033
 30
0.000000
  70
    32
  0
VERTEX
  8
AM_0
  5
1C62F
 10
376.666
 20
405.026
 30
0.000000
  70
    32
  0
VERTEX
  8
AM_0
  5
1C630
 10
376.681
 20
405.018
 30
0.000000
  70
    32
  0
VERTEX
  8
AM_0
  5
1C631
 10
376.696
 20
405.011
 30
0.000000
  70
    32
  0
VERTEX
  8
AM_0
  5
1C632
 10
376.711
 20
405.003
 30
0.000000
  70
    32
  0
VERTEX
  8
AM_0
  5
1C633
 10
376.727
 20
404.996
 30
0.000000
  70
    32
  0
VERTEX
  8
AM_0
  5
1C634
 10
376.742
 20
404.989
 30
0.000000
  70
    32
  0
VERTEX
  8
AM_0
  5
1C635
 10
376.757
 20
404.981
 30
0.000000
  70
    32
  0
VERTEX
  8
AM_0
  5
1C636
 10
376.773
 20
404.974
 30
0.000000
  70
    32
  0
VERTEX
  8
AM_0
  5
1C637
 10
376.788
 20
404.967
 30
0.000000
  70
    32
  0
VERTEX
  8
AM_0
  5
1C638
 10
376.804
 20
404.960
 30
0.000000
  70
    32
  0
VERTEX
  8
AM_0
  5
1C639
 10
376.819
 20
404.954
 30
0.000000
  70
    32
  0
VERTEX
  8
AM_0
  5
1C63A
 10
376.835
 20
404.947
 30
0.000000
  70
    32
  0
VERTEX
  8
AM_0
  5
1C63B
 10
376.850
 20
404.940
 30
0.000000
  70
    32
  0
VERTEX
  8
AM_0
  5
1C63C
 10
376.866
 20
404.934
 30
0.000000
  70
    32
  0
VERTEX
  8
AM_0
  5
1C63D
 10
376.881
 20
404.927
 30
0.000000
  70
    32
  0
VERTEX
  8
AM_0
  5
1C63E
 10
376.897
 20
404.921
 30
0.000000
  70
    32
  0
VERTEX
  8
AM_0
  5
1C63F
 10
376.913
 20
404.914
 30
0.000000
  70
    32
  0
VERTEX
  8
AM_0
  5
1C640
 10
376.929
 20
404.908
 30
0.000000
  70
    32
  0
VERTEX
  8
AM_0
  5
1C641
 10
376.944
 20
404.902
 30
0.000000
  70
    32
  0
VERTEX
  8
AM_0
  5
1C642
 10
376.960
 20
404.896
 30
0.000000
  70
    32
  0
VERTEX
  8
AM_0
  5
1C643
 10
376.976
 20
404.890
 30
0.000000
  70
    32
  0
VERTEX
  8
AM_0
  5
1C644
 10
376.992
 20
404.884
 30
0.000000
  70
    32
  0
VERTEX
  8
AM_0
  5
1C645
 10
377.008
 20
404.879
 30
0.000000
  70
    32
  0
VERTEX
  8
AM_0
  5
1C646
 10
377.024
 20
404.873
 30
0.000000
  70
    32
  0
VERTEX
  8
AM_0
  5
1C647
 10
377.040
 20
404.867
 30
0.000000
  70
    32
  0
VERTEX
  8
AM_0
  5
1C648
 10
377.056
 20
404.862
 30
0.000000
  70
    32
  0
VERTEX
  8
AM_0
  5
1C649
 10
377.072
 20
404.856
 30
0.000000
  70
    32
  0
VERTEX
  8
AM_0
  5
1C64A
 10
377.088
 20
404.851
 30
0.000000
  70
    32
  0
VERTEX
  8
AM_0
  5
1C64B
 10
377.104
 20
404.846
 30
0.000000
  70
    32
  0
VERTEX
  8
AM_0
  5
1C64C
 10
377.120
 20
404.841
 30
0.000000
  70
    32
  0
VERTEX
  8
AM_0
  5
1C64D
 10
377.137
 20
404.836
 30
0.000000
  70
    32
  0
VERTEX
  8
AM_0
  5
1C64E
 10
377.153
 20
404.831
 30
0.000000
  70
    32
  0
VERTEX
  8
AM_0
  5
1C64F
 10
377.169
 20
404.826
 30
0.000000
  70
    32
  0
VERTEX
  8
AM_0
  5
1C650
 10
377.185
 20
404.821
 30
0.000000
  70
    32
  0
VERTEX
  8
AM_0
  5
1C651
 10
377.201
 20
404.816
 30
0.000000
  70
    32
  0
VERTEX
  8
AM_0
  5
1C652
 10
377.218
 20
404.812
 30
0.000000
  70
    32
  0
VERTEX
  8
AM_0
  5
1C653
 10
377.234
 20
404.807
 30
0.000000
  70
    32
  0
VERTEX
  8
AM_0
  5
1C654
 10
377.250
 20
404.803
 30
0.000000
  70
    32
  0
VERTEX
  8
AM_0
  5
1C655
 10
377.267
 20
404.799
 30
0.000000
  70
    32
  0
VERTEX
  8
AM_0
  5
1C656
 10
377.283
 20
404.794
 30
0.000000
  70
    32
  0
VERTEX
  8
AM_0
  5
1C657
 10
377.300
 20
404.790
 30
0.000000
  70
    32
  0
VERTEX
  8
AM_0
  5
1C658
 10
377.316
 20
404.786
 30
0.000000
  70
    32
  0
VERTEX
  8
AM_0
  5
1C659
 10
377.333
 20
404.782
 30
0.000000
  70
    32
  0
VERTEX
  8
AM_0
  5
1C65A
 10
377.349
 20
404.779
 30
0.000000
  70
    32
  0
VERTEX
  8
AM_0
  5
1C65B
 10
377.366
 20
404.775
 30
0.000000
  70
    32
  0
VERTEX
  8
AM_0
  5
1C65C
 10
377.382
 20
404.771
 30
0.000000
  70
    32
  0
VERTEX
  8
AM_0
  5
1C65D
 10
377.399
 20
404.768
 30
0.000000
  70
    32
  0
VERTEX
  8
AM_0
  5
1C65E
 10
377.415
 20
404.764
 30
0.000000
  70
    32
  0
VERTEX
  8
AM_0
  5
1C65F
 10
377.432
 20
404.761
 30
0.000000
  70
    32
  0
VERTEX
  8
AM_0
  5
1C660
 10
377.449
 20
404.757
 30
0.000000
  70
    32
  0
VERTEX
  8
AM_0
  5
1C661
 10
377.465
 20
404.754
 30
0.000000
  70
    32
  0
VERTEX
  8
AM_0
  5
1C662
 10
377.482
 20
404.751
 30
0.000000
  70
    32
  0
VERTEX
  8
AM_0
  5
1C663
 10
377.499
 20
404.748
 30
0.000000
  70
    32
  0
VERTEX
  8
AM_0
  5
1C664
 10
377.515
 20
404.745
 30
0.000000
  70
    32
  0
VERTEX
  8
AM_0
  5
1C665
 10
377.532
 20
404.742
 30
0.000000
  70
    32
  0
VERTEX
  8
AM_0
  5
1C666
 10
377.549
 20
404.740
 30
0.000000
  70
    32
  0
VERTEX
  8
AM_0
  5
1C667
 10
377.565
 20
404.737
 30
0.000000
  70
    32
  0
VERTEX
  8
AM_0
  5
1C668
 10
377.582
 20
404.735
 30
0.000000
  70
    32
  0
VERTEX
  8
AM_0
  5
1C669
 10
377.599
 20
404.732
 30
0.000000
  70
    32
  0
VERTEX
  8
AM_0
  5
1C66A
 10
377.616
 20
404.730
 30
0.000000
  70
    32
  0
VERTEX
  8
AM_0
  5
1C66B
 10
377.632
 20
404.728
 30
0.000000
  70
    32
  0
VERTEX
  8
AM_0
  5
1C66C
 10
377.649
 20
404.725
 30
0.000000
  70
    32
  0
VERTEX
  8
AM_0
  5
1C66D
 10
377.666
 20
404.723
 30
0.000000
  70
    32
  0
VERTEX
  8
AM_0
  5
1C66E
 10
377.683
 20
404.721
 30
0.000000
  70
    32
  0
VERTEX
  8
AM_0
  5
1C66F
 10
377.700
 20
404.720
 30
0.000000
  70
    32
  0
VERTEX
  8
AM_0
  5
1C670
 10
377.717
 20
404.718
 30
0.000000
  70
    32
  0
VERTEX
  8
AM_0
  5
1C671
 10
377.733
 20
404.716
 30
0.000000
  70
    32
  0
VERTEX
  8
AM_0
  5
1C672
 10
377.750
 20
404.715
 30
0.000000
  70
    32
  0
VERTEX
  8
AM_0
  5
1C673
 10
377.767
 20
404.713
 30
0.000000
  70
    32
  0
VERTEX
  8
AM_0
  5
1C674
 10
377.784
 20
404.712
 30
0.000000
  70
    32
  0
VERTEX
  8
AM_0
  5
1C675
 10
377.801
 20
404.710
 30
0.000000
  70
    32
  0
VERTEX
  8
AM_0
  5
1C676
 10
377.818
 20
404.709
 30
0.000000
  70
    32
  0
VERTEX
  8
AM_0
  5
1C677
 10
377.835
 20
404.708
 30
0.000000
  70
    32
  0
VERTEX
  8
AM_0
  5
1C678
 10
377.852
 20
404.707
 30
0.000000
  70
    32
  0
VERTEX
  8
AM_0
  5
1C679
 10
377.869
 20
404.706
 30
0.000000
  70
    32
  0
VERTEX
  8
AM_0
  5
1C67A
 10
377.885
 20
404.705
 30
0.000000
  70
    32
  0
VERTEX
  8
AM_0
  5
1C67B
 10
377.902
 20
404.705
 30
0.000000
  70
    32
  0
VERTEX
  8
AM_0
  5
1C67C
 10
377.919
 20
404.704
 30
0.000000
  70
    32
  0
VERTEX
  8
AM_0
  5
1C67D
 10
377.936
 20
404.704
 30
0.000000
  70
    32
  0
VERTEX
  8
AM_0
  5
1C67E
 10
377.953
 20
404.703
 30
0.000000
  70
    32
  0
VERTEX
  8
AM_0
  5
1C67F
 10
377.970
 20
404.703
 30
0.000000
  70
    32
  0
VERTEX
  8
AM_0
  5
1C680
 10
377.987
 20
404.703
 30
0.000000
  70
    32
  0
VERTEX
  8
AM_0
  5
1C681
 10
378.004
 20
404.702
 30
0.000000
  70
    32
  0
VERTEX
  8
AM_0
  5
1C682
 10
378.021
 20
404.702
 30
0.000000
  70
    32
  0
SEQEND
  8
AM_0
  5
1C683
  0
LINE
  5
1A30E
  8
AM_0
 10
437.40902260163449
 20
404.70090152437132
 30
0.0
 11
529.55229911344975
 21
404.70090152437132
 31
0.0
  0
CIRCLE
  5
1A30F
  8
0
 10
429.55229911344981
 20
432.70089935700372
 30
0.0
 40
7.0
  0
LINE
  5
1A310
  8
0
 10
413.9268294447246
 20
439.39751772986551
 30
0.0
 11
399.05747615672072
 21
404.70230055325919
 31
0.0
  0
CIRCLE
  5
1A312
  8
0
 10
414.55232616926219
 20
397.70090131365549
 30
0.0
 40
12.0
  0
ARC
  5
1A314
  8
AM_0
 10
414.55232616926219
 20
397.70090131365549
 30
0.0
 40
15.714285718999999
 50
270.35810043042108
 51
359.64189956957239
  0
POLYLINE
  5
1A315
  8
0
 66
     1
 10
0.0
 20
0.0
 30
0.0
 70
     1
  0
VERTEX
  5
1C328
  8
0
 10
409.55232616926202
 20
400.58765265960358
 30
0.0
  0
VERTEX
  5
1C329
  8
0
 10
409.55232616926202
 20
394.81414996770741
 30
0.0
  0
VERTEX
  5
1C32A
  8
0
 10
414.55232616926219
 20
391.92739862175932
 30
0.0
  0
VERTEX
  5
1C32B
  8
0
 10
419.55232616926207
 20
394.81414996770741
 30
0.0
  0
VERTEX
  5
1C32C
  8
0
 10
419.55232616926207
 20
400.58765265960358
 30
0.0
  0
VERTEX
  5
1C32D
  8
0
 10
414.55232616926219
 20
403.47440400555178
 30
0.0
  0
SEQEND
  5
1C32E
  8
0
  0
CIRCLE
  5
1A316
  8
0
 10
414.55232616926219
 20
397.70090131365549
 30
0.0
 40
9.0
  0
ARC
  5
1A318
  8
AM_0
 10
414.55232616926219
 20
397.70090131365549
 30
0.0
 40
15.00000045153484
 50
90.000002504475205
 51
180.00000500895689
  0
POLYLINE
  5
1A319
  8
AM_0
 10
393.07112631716728
 20
396.61618546587164
 30
0.0
 66
     1
 70
     8
  0
VERTEX
  8
AM_0
  5
1C684
 10
393.071
 20
396.616
 30
0.000000
  70
    32
  0
VERTEX
  8
AM_0
  5
1C685
 10
393.036
 20
396.616
 30
0.000000
  70
    32
  0
VERTEX
  8
AM_0
  5
1C686
 10
393.001
 20
396.615
 30
0.000000
  70
    32
  0
VERTEX
  8
AM_0
  5
1C687
 10
392.966
 20
396.614
 30
0.000000
  70
    32
  0
VERTEX
  8
AM_0
  5
1C688
 10
392.931
 20
396.613
 30
0.000000
  70
    32
  0
VERTEX
  8
AM_0
  5
1C689
 10
392.896
 20
396.611
 30
0.000000
  70
    32
  0
VERTEX
  8
AM_0
  5
1C68A
 10
392.861
 20
396.609
 30
0.000000
  70
    32
  0
VERTEX
  8
AM_0
  5
1C68B
 10
392.826
 20
396.606
 30
0.000000
  70
    32
  0
VERTEX
  8
AM_0
  5
1C68C
 10
392.791
 20
396.603
 30
0.000000
  70
    32
  0
VERTEX
  8
AM_0
  5
1C68D
 10
392.756
 20
396.600
 30
0.000000
  70
    32
  0
VERTEX
  8
AM_0
  5
1C68E
 10
392.721
 20
396.596
 30
0.000000
  70
    32
  0
VERTEX
  8
AM_0
  5
1C68F
 10
392.686
 20
396.591
 30
0.000000
  70
    32
  0
VERTEX
  8
AM_0
  5
1C690
 10
392.652
 20
396.587
 30
0.000000
  70
    32
  0
VERTEX
  8
AM_0
  5
1C691
 10
392.617
 20
396.582
 30
0.000000
  70
    32
  0
VERTEX
  8
AM_0
  5
1C692
 10
392.582
 20
396.576
 30
0.000000
  70
    32
  0
VERTEX
  8
AM_0
  5
1C693
 10
392.548
 20
396.570
 30
0.000000
  70
    32
  0
VERTEX
  8
AM_0
  5
1C694
 10
392.513
 20
396.564
 30
0.000000
  70
    32
  0
VERTEX
  8
AM_0
  5
1C695
 10
392.479
 20
396.557
 30
0.000000
  70
    32
  0
VERTEX
  8
AM_0
  5
1C696
 10
392.445
 20
396.550
 30
0.000000
  70
    32
  0
VERTEX
  8
AM_0
  5
1C697
 10
392.410
 20
396.543
 30
0.000000
  70
    32
  0
VERTEX
  8
AM_0
  5
1C698
 10
392.376
 20
396.535
 30
0.000000
  70
    32
  0
VERTEX
  8
AM_0
  5
1C699
 10
392.342
 20
396.526
 30
0.000000
  70
    32
  0
VERTEX
  8
AM_0
  5
1C69A
 10
392.308
 20
396.518
 30
0.000000
  70
    32
  0
VERTEX
  8
AM_0
  5
1C69B
 10
392.274
 20
396.508
 30
0.000000
  70
    32
  0
VERTEX
  8
AM_0
  5
1C69C
 10
392.241
 20
396.499
 30
0.000000
  70
    32
  0
VERTEX
  8
AM_0
  5
1C69D
 10
392.207
 20
396.489
 30
0.000000
  70
    32
  0
VERTEX
  8
AM_0
  5
1C69E
 10
392.173
 20
396.479
 30
0.000000
  70
    32
  0
VERTEX
  8
AM_0
  5
1C69F
 10
392.140
 20
396.468
 30
0.000000
  70
    32
  0
VERTEX
  8
AM_0
  5
1C6A0
 10
392.107
 20
396.457
 30
0.000000
  70
    32
  0
VERTEX
  8
AM_0
  5
1C6A1
 10
392.074
 20
396.446
 30
0.000000
  70
    32
  0
VERTEX
  8
AM_0
  5
1C6A2
 10
392.041
 20
396.434
 30
0.000000
  70
    32
  0
VERTEX
  8
AM_0
  5
1C6A3
 10
392.008
 20
396.421
 30
0.000000
  70
    32
  0
VERTEX
  8
AM_0
  5
1C6A4
 10
391.975
 20
396.409
 30
0.000000
  70
    32
  0
VERTEX
  8
AM_0
  5
1C6A5
 10
391.943
 20
396.396
 30
0.000000
  70
    32
  0
VERTEX
  8
AM_0
  5
1C6A6
 10
391.910
 20
396.382
 30
0.000000
  70
    32
  0
VERTEX
  8
AM_0
  5
1C6A7
 10
391.878
 20
396.369
 30
0.000000
  70
    32
  0
VERTEX
  8
AM_0
  5
1C6A8
 10
391.846
 20
396.355
 30
0.000000
  70
    32
  0
VERTEX
  8
AM_0
  5
1C6A9
 10
391.814
 20
396.340
 30
0.000000
  70
    32
  0
VERTEX
  8
AM_0
  5
1C6AA
 10
391.782
 20
396.325
 30
0.000000
  70
    32
  0
VERTEX
  8
AM_0
  5
1C6AB
 10
391.751
 20
396.310
 30
0.000000
  70
    32
  0
VERTEX
  8
AM_0
  5
1C6AC
 10
391.719
 20
396.294
 30
0.000000
  70
    32
  0
VERTEX
  8
AM_0
  5
1C6AD
 10
391.688
 20
396.278
 30
0.000000
  70
    32
  0
VERTEX
  8
AM_0
  5
1C6AE
 10
391.657
 20
396.262
 30
0.000000
  70
    32
  0
VERTEX
  8
AM_0
  5
1C6AF
 10
391.626
 20
396.245
 30
0.000000
  70
    32
  0
VERTEX
  8
AM_0
  5
1C6B0
 10
391.595
 20
396.228
 30
0.000000
  70
    32
  0
VERTEX
  8
AM_0
  5
1C6B1
 10
391.565
 20
396.211
 30
0.000000
  70
    32
  0
VERTEX
  8
AM_0
  5
1C6B2
 10
391.535
 20
396.193
 30
0.000000
  70
    32
  0
VERTEX
  8
AM_0
  5
1C6B3
 10
391.505
 20
396.175
 30
0.000000
  70
    32
  0
VERTEX
  8
AM_0
  5
1C6B4
 10
391.475
 20
396.156
 30
0.000000
  70
    32
  0
VERTEX
  8
AM_0
  5
1C6B5
 10
391.445
 20
396.138
 30
0.000000
  70
    32
  0
VERTEX
  8
AM_0
  5
1C6B6
 10
391.416
 20
396.118
 30
0.000000
  70
    32
  0
VERTEX
  8
AM_0
  5
1C6B7
 10
391.387
 20
396.099
 30
0.000000
  70
    32
  0
VERTEX
  8
AM_0
  5
1C6B8
 10
391.358
 20
396.079
 30
0.000000
  70
    32
  0
VERTEX
  8
AM_0
  5
1C6B9
 10
391.329
 20
396.059
 30
0.000000
  70
    32
  0
VERTEX
  8
AM_0
  5
1C6BA
 10
391.301
 20
396.038
 30
0.000000
  70
    32
  0
VERTEX
  8
AM_0
  5
1C6BB
 10
391.273
 20
396.017
 30
0.000000
  70
    32
  0
VERTEX
  8
AM_0
  5
1C6BC
 10
391.245
 20
395.996
 30
0.000000
  70
    32
  0
VERTEX
  8
AM_0
  5
1C6BD
 10
391.217
 20
395.975
 30
0.000000
  70
    32
  0
VERTEX
  8
AM_0
  5
1C6BE
 10
391.190
 20
395.953
 30
0.000000
  70
    32
  0
VERTEX
  8
AM_0
  5
1C6BF
 10
391.163
 20
395.931
 30
0.000000
  70
    32
  0
VERTEX
  8
AM_0
  5
1C6C0
 10
391.136
 20
395.908
 30
0.000000
  70
    32
  0
VERTEX
  8
AM_0
  5
1C6C1
 10
391.109
 20
395.885
 30
0.000000
  70
    32
  0
VERTEX
  8
AM_0
  5
1C6C2
 10
391.083
 20
395.862
 30
0.000000
  70
    32
  0
VERTEX
  8
AM_0
  5
1C6C3
 10
391.056
 20
395.839
 30
0.000000
  70
    32
  0
VERTEX
  8
AM_0
  5
1C6C4
 10
391.031
 20
395.815
 30
0.000000
  70
    32
  0
VERTEX
  8
AM_0
  5
1C6C5
 10
391.005
 20
395.791
 30
0.000000
  70
    32
  0
VERTEX
  8
AM_0
  5
1C6C6
 10
390.980
 20
395.767
 30
0.000000
  70
    32
  0
VERTEX
  8
AM_0
  5
1C6C7
 10
390.955
 20
395.742
 30
0.000000
  70
    32
  0
VERTEX
  8
AM_0
  5
1C6C8
 10
390.930
 20
395.718
 30
0.000000
  70
    32
  0
VERTEX
  8
AM_0
  5
1C6C9
 10
390.906
 20
395.692
 30
0.000000
  70
    32
  0
VERTEX
  8
AM_0
  5
1C6CA
 10
390.882
 20
395.667
 30
0.000000
  70
    32
  0
VERTEX
  8
AM_0
  5
1C6CB
 10
390.858
 20
395.641
 30
0.000000
  70
    32
  0
VERTEX
  8
AM_0
  5
1C6CC
 10
390.834
 20
395.615
 30
0.000000
  70
    32
  0
VERTEX
  8
AM_0
  5
1C6CD
 10
390.811
 20
395.589
 30
0.000000
  70
    32
  0
VERTEX
  8
AM_0
  5
1C6CE
 10
390.788
 20
395.562
 30
0.000000
  70
    32
  0
VERTEX
  8
AM_0
  5
1C6CF
 10
390.765
 20
395.536
 30
0.000000
  70
    32
  0
VERTEX
  8
AM_0
  5
1C6D0
 10
390.743
 20
395.508
 30
0.000000
  70
    32
  0
VERTEX
  8
AM_0
  5
1C6D1
 10
390.721
 20
395.481
 30
0.000000
  70
    32
  0
VERTEX
  8
AM_0
  5
1C6D2
 10
390.700
 20
395.454
 30
0.000000
  70
    32
  0
VERTEX
  8
AM_0
  5
1C6D3
 10
390.678
 20
395.426
 30
0.000000
  70
    32
  0
VERTEX
  8
AM_0
  5
1C6D4
 10
390.657
 20
395.398
 30
0.000000
  70
    32
  0
VERTEX
  8
AM_0
  5
1C6D5
 10
390.637
 20
395.369
 30
0.000000
  70
    32
  0
VERTEX
  8
AM_0
  5
1C6D6
 10
390.616
 20
395.341
 30
0.000000
  70
    32
  0
VERTEX
  8
AM_0
  5
1C6D7
 10
390.596
 20
395.312
 30
0.000000
  70
    32
  0
VERTEX
  8
AM_0
  5
1C6D8
 10
390.577
 20
395.283
 30
0.000000
  70
    32
  0
VERTEX
  8
AM_0
  5
1C6D9
 10
390.557
 20
395.254
 30
0.000000
  70
    32
  0
VERTEX
  8
AM_0
  5
1C6DA
 10
390.538
 20
395.224
 30
0.000000
  70
    32
  0
VERTEX
  8
AM_0
  5
1C6DB
 10
390.520
 20
395.194
 30
0.000000
  70
    32
  0
VERTEX
  8
AM_0
  5
1C6DC
 10
390.502
 20
395.164
 30
0.000000
  70
    32
  0
VERTEX
  8
AM_0
  5
1C6DD
 10
390.484
 20
395.134
 30
0.000000
  70
    32
  0
VERTEX
  8
AM_0
  5
1C6DE
 10
390.466
 20
395.104
 30
0.000000
  70
    32
  0
VERTEX
  8
AM_0
  5
1C6DF
 10
390.449
 20
395.073
 30
0.000000
  70
    32
  0
VERTEX
  8
AM_0
  5
1C6E0
 10
390.432
 20
395.043
 30
0.000000
  70
    32
  0
VERTEX
  8
AM_0
  5
1C6E1
 10
390.415
 20
395.012
 30
0.000000
  70
    32
  0
VERTEX
  8
AM_0
  5
1C6E2
 10
390.399
 20
394.981
 30
0.000000
  70
    32
  0
VERTEX
  8
AM_0
  5
1C6E3
 10
390.384
 20
394.949
 30
0.000000
  70
    32
  0
VERTEX
  8
AM_0
  5
1C6E4
 10
390.368
 20
394.918
 30
0.000000
  70
    32
  0
VERTEX
  8
AM_0
  5
1C6E5
 10
390.353
 20
394.886
 30
0.000000
  70
    32
  0
VERTEX
  8
AM_0
  5
1C6E6
 10
390.339
 20
394.854
 30
0.000000
  70
    32
  0
VERTEX
  8
AM_0
  5
1C6E7
 10
390.324
 20
394.822
 30
0.000000
  70
    32
  0
VERTEX
  8
AM_0
  5
1C6E8
 10
390.310
 20
394.790
 30
0.000000
  70
    32
  0
VERTEX
  8
AM_0
  5
1C6E9
 10
390.297
 20
394.758
 30
0.000000
  70
    32
  0
VERTEX
  8
AM_0
  5
1C6EA
 10
390.284
 20
394.725
 30
0.000000
  70
    32
  0
VERTEX
  8
AM_0
  5
1C6EB
 10
390.271
 20
394.693
 30
0.000000
  70
    32
  0
VERTEX
  8
AM_0
  5
1C6EC
 10
390.258
 20
394.660
 30
0.000000
  70
    32
  0
VERTEX
  8
AM_0
  5
1C6ED
 10
390.246
 20
394.627
 30
0.000000
  70
    32
  0
VERTEX
  8
AM_0
  5
1C6EE
 10
390.235
 20
394.594
 30
0.000000
  70
    32
  0
VERTEX
  8
AM_0
  5
1C6EF
 10
390.224
 20
394.560
 30
0.000000
  70
    32
  0
VERTEX
  8
AM_0
  5
1C6F0
 10
390.213
 20
394.527
 30
0.000000
  70
    32
  0
VERTEX
  8
AM_0
  5
1C6F1
 10
390.202
 20
394.494
 30
0.000000
  70
    32
  0
VERTEX
  8
AM_0
  5
1C6F2
 10
390.192
 20
394.460
 30
0.000000
  70
    32
  0
VERTEX
  8
AM_0
  5
1C6F3
 10
390.183
 20
394.426
 30
0.000000
  70
    32
  0
VERTEX
  8
AM_0
  5
1C6F4
 10
390.173
 20
394.393
 30
0.000000
  70
    32
  0
VERTEX
  8
AM_0
  5
1C6F5
 10
390.164
 20
394.359
 30
0.000000
  70
    32
  0
VERTEX
  8
AM_0
  5
1C6F6
 10
390.156
 20
394.325
 30
0.000000
  70
    32
  0
VERTEX
  8
AM_0
  5
1C6F7
 10
390.148
 20
394.291
 30
0.000000
  70
    32
  0
VERTEX
  8
AM_0
  5
1C6F8
 10
390.140
 20
394.256
 30
0.000000
  70
    32
  0
VERTEX
  8
AM_0
  5
1C6F9
 10
390.133
 20
394.222
 30
0.000000
  70
    32
  0
VERTEX
  8
AM_0
  5
1C6FA
 10
390.126
 20
394.188
 30
0.000000
  70
    32
  0
VERTEX
  8
AM_0
  5
1C6FB
 10
390.120
 20
394.153
 30
0.000000
  70
    32
  0
VERTEX
  8
AM_0
  5
1C6FC
 10
390.114
 20
394.119
 30
0.000000
  70
    32
  0
VERTEX
  8
AM_0
  5
1C6FD
 10
390.108
 20
394.084
 30
0.000000
  70
    32
  0
VERTEX
  8
AM_0
  5
1C6FE
 10
390.103
 20
394.049
 30
0.000000
  70
    32
  0
VERTEX
  8
AM_0
  5
1C6FF
 10
390.098
 20
394.015
 30
0.000000
  70
    32
  0
VERTEX
  8
AM_0
  5
1C700
 10
390.093
 20
393.980
 30
0.000000
  70
    32
  0
VERTEX
  8
AM_0
  5
1C701
 10
390.089
 20
393.945
 30
0.000000
  70
    32
  0
VERTEX
  8
AM_0
  5
1C702
 10
390.086
 20
393.910
 30
0.000000
  70
    32
  0
VERTEX
  8
AM_0
  5
1C703
 10
390.082
 20
393.875
 30
0.000000
  70
    32
  0
VERTEX
  8
AM_0
  5
1C704
 10
390.080
 20
393.840
 30
0.000000
  70
    32
  0
SEQEND
  8
AM_0
  5
1C705
  0
LINE
  5
1A31A
  8
AM_0
 10
393.07112631716751
 20
396.61618546587152
 30
0.0
 11
397.05232571697729
 21
396.61618546587152
 31
0.0
  0
ARC
  5
1A31B
  8
AM_0
 10
414.69518310354562
 20
374.84420488128308
 30
0.0
 40
7.142857144999998
 50
90.358100430421089
 51
180.0
1001
GENIUS_GENODEF_13
1002
{
1000
HIER
1070
     0
1002
}
1002
{
1000
MANEDIT
1070
     0
1002
}
1002
{
1000
NOSEL
1070
     0
1002
}
1002
{
1000
BEHIND
1070
     0
1002
}
1002
{
1000
OTHER
1070
     0
1002
}
1002
{
1000
REACTOR
1002
}
1001
GENIUS_GENOBJ-N-FIL_13
1002
{
1000
OWNER
1000
GEN
1002
}
  0
ARC
  5
1A31C
  8
0
 10
399.58566981652172
 20
407.70085993615629
 30
0.0
 40
3.000000000899997
 50
269.99993053471542
 51
326.2511624023947
1001
GENIUS_GENOBJ-N-FIL_13
1002
{
1000
OWNER
1000
GEN
1002
}
1001
GENIUS_GENODEF_13
1002
{
1000
HIER
1070
     0
1002
}
1002
{
1000
MANEDIT
1070
     0
1002
}
1002
{
1000
NOSEL
1070
     0
1002
}
1002
{
1000
BEHIND
1070
     0
1002
}
1002
{
1000
OTHER
1070
     0
1002
}
1002
{
1000
REACTOR
1002
}
  0
ARC
  5
1A31D
  8
AM_0
 10
437.40902260163449
 20
397.55804437937172
 30
0.0
 40
7.142857144999998
 50
90.0
 51
179.6418995695789
1001
GENIUS_GENODEF_13
1002
{
1000
HIER
1070
     0
1002
}
1002
{
1000
MANEDIT
1070
     0
1002
}
1002
{
1000
NOSEL
1070
     0
1002
}
1002
{
1000
BEHIND
1070
     0
1002
}
1002
{
1000
OTHER
1070
     0
1002
}
1002
{
1000
REACTOR
1002
}
1001
GENIUS_GENOBJ-N-FIL_13
1002
{
1000
OWNER
1000
GEN
1002
}
  0
ARC
  5
1A31E
  8
0
 10
429.55229911344981
 20
432.70089935700372
 30
0.0
 40
16.999999999999709
 50
90.0
 51
156.80144506545
  0
LINE
  5
1A323
  8
AM_0
 10
606.55230137112449
 20
397.70090131365549
 30
0.0
 11
606.55230137112449
 21
267.70089740035331
 31
0.0
  0
LINE
  5
1A324
  8
AM_0
 10
596.55230113030518
 20
290.55759383272601
 30
0.0
 11
596.55230113030518
 21
374.84420488128308
 31
0.0
  0
LINE
  5
1A325
  8
AM_0
 10
604.55230137112426
 20
397.70090131365549
 30
0.0
 11
604.55230137112426
 21
267.70089740035331
 31
0.0
  0
LINE
  5
1A327
  8
0
 10
590.17779764412694
 20
226.00428098414281
 30
0.0
 11
605.17777100334092
 21
261.0042788496242
 31
0.0
  0
ARC
  5
1A328
  8
AM_0
 10
589.55230091958924
 20
267.70089740035331
 30
0.0
 40
15.00000045153484
 50
269.99999749551819
 51
0.0
  0
ARC
  5
1A32C
  8
0
 10
574.55232797540168
 20
232.7008993570042
 30
0.0
 40
16.999999999999709
 50
270.0
 51
336.80144506545003
  0
CIRCLE
  5
1A32D
  8
0
 10
574.55232797540168
 20
232.7008993570042
 30
0.0
 40
7.0
  0
ARC
  5
1A330
  8
AM_0
 10
589.40944398530542
 20
290.55759383272601
 30
0.0
 40
7.142857144999998
 50
270.35810043042108
 51
0.0
1001
GENIUS_GENODEF_13
1002
{
1000
HIER
1070
     0
1002
}
1002
{
1000
MANEDIT
1070
     0
1002
}
1002
{
1000
NOSEL
1070
     0
1002
}
1002
{
1000
BEHIND
1070
     0
1002
}
1002
{
1000
OTHER
1070
     0
1002
}
1002
{
1000
REACTOR
1002
}
1001
GENIUS_GENOBJ-N-FIL_13
1002
{
1000
OWNER
1000
GEN
1002
}
  0
ARC
  5
1A331
  8
AM_0
 10
589.55230091958924
 20
267.70089740035331
 30
0.0
 40
15.714285718999999
 50
90.358100430421089
 51
179.6418995695789
  0
CIRCLE
  5
1A332
  8
0
 10
589.55230091958924
 20
267.70089740035331
 30
0.0
 40
12.0
  0
ARC
  5
1A334
  8
AM_0
 10
566.69560448721677
 20
267.84375433463708
 30
0.0
 40
7.142857144999998
 50
270.0
 51
359.64189956957892
1001
GENIUS_GENOBJ-N-FIL_13
1002
{
1000
OWNER
1000
GEN
1002
}
1001
GENIUS_GENODEF_13
1002
{
1000
HIER
1070
     0
1002
}
1002
{
1000
MANEDIT
1070
     0
1002
}
1002
{
1000
NOSEL
1070
     0
1002
}
1002
{
1000
BEHIND
1070
     0
1002
}
1002
{
1000
OTHER
1070
     0
1002
}
1002
{
1000
REACTOR
1002
}
  0
POLYLINE
  5
1A335
  8
0
 66
     1
 10
0.0
 20
0.0
 30
0.0
 70
     1
  0
VERTEX
  5
1C32F
  8
0
 10
584.55230091958924
 20
270.58764874630128
 30
0.0
  0
VERTEX
  5
1C330
  8
0
 10
584.55230091958924
 20
264.814146054405
 30
0.0
  0
VERTEX
  5
1C331
  8
0
 10
589.55230091958924
 20
261.92739470845692
 30
0.0
  0
VERTEX
  5
1C332
  8
0
 10
594.55230091958924
 20
264.814146054405
 30
0.0
  0
VERTEX
  5
1C333
  8
0
 10
594.55230091958924
 20
270.58764874630128
 30
0.0
  0
VERTEX
  5
1C334
  8
0
 10
589.55230091958924
 20
273.47440009224943
 30
0.0
  0
SEQEND
  5
1C335
  8
0
  0
CIRCLE
  5
1A336
  8
0
 10
589.55230091958924
 20
267.70089740035331
 30
0.0
 40
9.0
  0
ARC
  5
1A338
  8
AM_0
 10
589.55230091958924
 20
267.70089740035331
 30
0.0
 40
17.000000451534831
 50
336.80144506545003
 51
0.0
  0
LINE
  5
1A33A
  8
0
 10
590.17779764412694
 20
439.39751772986551
 30
0.0
 11
605.17777100334092
 21
404.39751986438381
 31
0.0
  0
CIRCLE
  5
1A33B
  8
0
 10
574.55232797540168
 20
432.70089935700372
 30
0.0
 40
7.0
  0
LINE
  5
1A33C
  8
ﾁｭｳｼﾝｾﾝ1
 10
574.55232797540202
 20
417.700899357004
 30
0.0
 11
574.55232797540202
 21
447.70089935700412
 31
0.0
  0
ARC
  5
1A33D
  8
AM_0
 10
589.55230091958924
 20
397.70090131365549
 30
0.0
 40
15.000000451534831
 50
0.0
 51
90.000002504475205
  0
POLYLINE
  5
1A33E
  8
0
 66
     1
 10
0.0
 20
0.0
 30
0.0
 70
     1
  0
VERTEX
  5
1C336
  8
0
 10
584.55230091958924
 20
400.58765265960358
 30
0.0
  0
VERTEX
  5
1C337
  8
0
 10
584.55230091958924
 20
394.81414996770741
 30
0.0
  0
VERTEX
  5
1C338
  8
0
 10
589.55230091958924
 20
391.92739862175932
 30
0.0
  0
VERTEX
  5
1C339
  8
0
 10
594.55230091958924
 20
394.81414996770741
 30
0.0
  0
VERTEX
  5
1C33A
  8
0
 10
594.55230091958924
 20
400.58765265960358
 30
0.0
  0
VERTEX
  5
1C33B
  8
0
 10
589.55230091958924
 20
403.47440400555178
 30
0.0
  0
SEQEND
  5
1C33C
  8
0
  0
CIRCLE
  5
1A33F
  8
0
 10
589.55230091958924
 20
397.70090131365549
 30
0.0
 40
9.0
  0
CIRCLE
  5
1A340
  8
0
 10
589.55230091958924
 20
397.70090131365549
 30
0.0
 40
12.0
  0
ARC
  5
1A342
  8
AM_0
 10
566.69560448721677
 20
397.55804437937172
 30
0.0
 40
7.142857144999998
 50
0.3581004304211079
 51
90.0
1001
GENIUS_GENOBJ-N-FIL_13
1002
{
1000
OWNER
1000
GEN
1002
}
1001
GENIUS_GENODEF_13
1002
{
1000
HIER
1070
     0
1002
}
1002
{
1000
MANEDIT
1070
     0
1002
}
1002
{
1000
NOSEL
1070
     0
1002
}
1002
{
1000
BEHIND
1070
     0
1002
}
1002
{
1000
OTHER
1070
     0
1002
}
1002
{
1000
REACTOR
1002
}
  0
ARC
  5
1A343
  8
AM_0
 10
589.55230091958924
 20
397.70090131365549
 30
0.0
 40
15.714285718999999
 50
180.3581004304211
 51
269.64189956957239
  0
ARC
  5
1A345
  8
AM_0
 10
589.40944398530542
 20
374.84420488128308
 30
0.0
 40
7.142857144999998
 50
0.0
 51
89.641899569578882
1001
GENIUS_GENODEF_13
1002
{
1000
HIER
1070
     0
1002
}
1002
{
1000
MANEDIT
1070
     0
1002
}
1002
{
1000
NOSEL
1070
     0
1002
}
1002
{
1000
BEHIND
1070
     0
1002
}
1002
{
1000
OTHER
1070
     0
1002
}
1002
{
1000
REACTOR
1002
}
1001
GENIUS_GENOBJ-N-FIL_13
1002
{
1000
OWNER
1000
GEN
1002
}
  0
ARC
  5
1A347
  8
AM_0
 10
589.55230091958924
 20
397.70090131365509
 30
0.0
 40
17.000000451534831
 50
0.0
 51
23.198554934550032
  0
ARC
  5
1A348
  8
0
 10
574.55232797540168
 20
432.70089935700372
 30
0.0
 40
16.999999999999709
 50
23.198554934550032
 51
90.0
  0
LINE
  5
1A349
  8
ﾁｭｳｼﾝｾﾝ1
 10
589.55232797540179
 20
432.70089935700372
 30
0.0
 11
559.55232797540179
 21
432.70089935700372
 31
0.0
  0
LINE
  5
1A34D
  8
AM_0
 10
805.84229816274456
 20
382.70090056409731
 30
0.0
 11
805.84229816274456
 21
282.7008981499115
 31
0.0
  0
LINE
  5
1A34E
  8
AM_0
 10
969.84230008929364
 20
215.70089935700469
 30
0.0
 11
969.84230008929364
 21
449.70089935700452
 31
0.0
  0
LINE
  5
1A354
  8
AM_0
 10
903.8423013234883
 20
252.82308292294019
 30
0.0
 11
903.84230132348875
 21
412.5787157910691
 31
0.0
  0
LINE
  5
1A356
  8
AM_0
 10
810.84229831325661
 20
254.44641091737861
 30
0.0
 11
810.84229831325661
 21
410.95538779663059
 31
0.0
  0
LINE
  5
1A357
  8
ﾁｭｳｼﾝｾﾝ1
 10
869.84230014847105
 20
199.4242352002656
 30
0.0
 11
869.84230005132827
 21
421.74694419195703
 31
0.0
  0
LINE
  5
1A35A
  8
ﾁｭｳｼﾝｾﾝ1
 10
979.12257066636107
 20
332.70089935700418
 30
0.0
 11
706.91263801882371
 21
332.70089935700469
 31
0.0
  0
LINE
  5
1A35D
  8
AM_0
 10
810.84229831325661
 20
254.44641091737861
 30
0.0
 11
903.8423013234883
 21
252.82308292294039
 31
0.0
  0
LINE
  5
1A365
  8
0
 10
714.84230008929308
 20
351.7008993570044
 30
0.0
 11
759.84230008929296
 21
351.7008993570044
 31
0.0
  0
LINE
  5
1A366
  8
0
 10
714.84230008929308
 20
348.70089935700429
 30
0.0
 11
772.84230008929308
 21
348.70089935700429
 31
0.0
  0
LINE
  5
1A367
  8
0
 10
714.84230008929308
 20
316.70089935700418
 30
0.0
 11
772.84230008929308
 21
316.70089935700418
 31
0.0
  0
LINE
  5
1A368
  8
AM_0
 10
714.84230008929308
 20
316.70089935700418
 30
0.0
 11
714.84230008929308
 21
351.7008993570044
 31
0.0
  0
LINE
  5
1A369
  8
0
 10
772.84230008929308
 20
312.70089935700418
 30
0.0
 11
800.84229801223341
 21
307.70089860444688
 31
0.0
  0
LINE
  5
1A36A
  8
AM_0
 10
800.84229801223341
 20
357.70090010956301
 30
0.0
 11
800.84229801223341
 21
307.70089860444688
 31
0.0
  0
LINE
  5
1A36D
  8
0
 10
796.34229831325672
 20
258.70089740035371
 30
0.0
 11
808.34229831325672
 21
258.70089740035371
 31
0.0
  0
LINE
  5
1A36E
  8
AM_0
 10
808.34229831325672
 20
276.70089740035371
 30
0.0
 11
796.34229831325672
 21
276.70089740035371
 31
0.0
  0
LINE
  5
1A36F
  8
0
 10
796.34229831325672
 20
276.70089740035371
 30
0.0
 11
796.34229831325672
 21
258.70089740035371
 31
0.0
  0
LINE
  5
1A370
  8
0
 10
808.34229831325672
 20
279.70089740035371
 30
0.0
 11
808.34229831325672
 21
255.70089740035371
 31
0.0
  0
LINE
  5
1A371
  8
0
 10
808.34229831325672
 20
255.70089740035371
 30
0.0
 11
810.84229831325661
 21
255.70089740035371
 31
0.0
  0
LINE
  5
1A372
  8
AM_0
 10
810.84229831325661
 20
279.70089740035371
 30
0.0
 11
808.34229831325672
 21
279.70089740035371
 31
0.0
  0
LINE
  5
1A37B
  8
AM_0
 10
805.84229816274456
 20
282.7008981499115
 30
0.0
 11
810.84229831325661
 21
282.7008981499115
 31
0.0
  0
LINE
  5
1A37F
  8
AM_0
 10
805.8422981627449
 20
307.70089860444688
 30
0.0
 11
800.84229801223341
 21
307.70089860444688
 31
0.0
  0
LINE
  5
1A380
  8
0
 10
772.84230008929308
 20
352.70089935700429
 30
0.0
 11
800.84229801223341
 21
357.70090010956301
 31
0.0
  0
LINE
  5
1A381
  8
0
 10
772.84230008929308
 20
352.70089935700429
 30
0.0
 11
772.84230008929308
 21
312.70089935700418
 31
0.0
  0
LINE
  5
1A382
  8
0
 10
759.84230008929296
 20
351.7008993570044
 30
0.0
 11
759.84230008929296
 21
348.70089935700429
 31
0.0
  0
LINE
  5
1A397
  8
AM_0
 10
805.8422981627449
 20
357.70090010956301
 30
0.0
 11
800.84229801223341
 21
357.70090010956301
 31
0.0
  0
LINE
  5
1A39C
  8
AM_0
 10
903.8423013234883
 20
252.82308292294039
 30
0.0
 11
941.894659424623
 21
252.15885410952831
 31
0.0
  0
LINE
  5
1A94C
  8
ﾁｭｳｼﾝｾﾝ1
 10
941.83551073956755
 20
232.70089935700381
 30
0.0
 11
973.47650399433655
 21
232.70089935700381
 31
0.0
  0
LINE
  5
1A94F
  8
AM_0
 10
969.84230008929364
 20
215.70089935700469
 30
0.0
 11
946.77250109588852
 21
216.50651448987429
 31
0.0
  0
LINE
  5
1A951
  8
AM_0
 10
944.84230008929364
 20
218.50529614391269
 30
0.0
 11
944.84230008929364
 21
249.15931106099501
 31
0.0
  0
ARC
  5
1A952
  8
0
 10
946.84230008929364
 20
218.50529614391269
 30
0.0
 40
2.0
 50
180.0
 51
267.99999999999631
1001
GENIUS_GENOBJ-N-FIL_13
1002
{
1000
OWNER
1000
GEN
1002
}
1001
GENIUS_GENODEF_13
1002
{
1000
HIER
1070
     0
1002
}
1002
{
1000
MANEDIT
1070
     0
1002
}
1002
{
1000
NOSEL
1070
     0
1002
}
1002
{
1000
BEHIND
1070
     0
1002
}
1002
{
1000
OTHER
1070
     0
1002
}
1002
{
1000
REACTOR
1002
}
  0
ARC
  5
1A953
  8
AM_0
 10
941.84230008929364
 20
249.15931106099501
 30
0.0
 40
3.0
 50
0.0
 51
88.999959580877501
1001
GENIUS_GENOBJ-N-FIL_13
1002
{
1000
OWNER
1000
GEN
1002
}
1001
GENIUS_GENODEF_13
1002
{
1000
HIER
1070
     0
1002
}
1002
{
1000
MANEDIT
1070
     0
1002
}
1002
{
1000
NOSEL
1070
     0
1002
}
1002
{
1000
BEHIND
1070
     0
1002
}
1002
{
1000
OTHER
1070
     0
1002
}
1002
{
1000
REACTOR
1002
}
  0
LINE
  5
1A96F
  8
AM_0
 10
810.84229831325661
 20
410.95538779663059
 30
0.0
 11
903.84230132348875
 21
412.5787157910691
 31
0.0
  0
LINE
  5
1A970
  8
0
 10
796.34229831325672
 20
388.70090131365561
 30
0.0
 11
796.34229831325672
 21
406.70090131365532
 31
0.0
  0
LINE
  5
1A971
  8
0
 10
808.34229831325672
 20
385.70090131365561
 30
0.0
 11
808.34229831325672
 21
409.70090131365532
 31
0.0
  0
LINE
  5
1A974
  8
AM_0
 10
808.34229831325672
 20
388.70090131365561
 30
0.0
 11
796.34229831325672
 21
388.70090131365561
 31
0.0
  0
LINE
  5
1A976
  8
AM_0
 10
805.84229816274456
 20
382.70090056409731
 30
0.0
 11
810.84229831325661
 21
382.70090056409731
 31
0.0
  0
LINE
  5
1A97A
  8
AM_0
 10
810.84229831325661
 20
385.70090131365561
 30
0.0
 11
808.34229831325672
 21
385.70090131365561
 31
0.0
  0
LINE
  5
1A97B
  8
0
 10
796.34229831325672
 20
406.70090131365532
 30
0.0
 11
808.34229831325672
 21
406.70090131365532
 31
0.0
  0
LINE
  5
1A97D
  8
0
 10
808.34229831325672
 20
409.70090131365532
 30
0.0
 11
810.84229831325661
 21
409.70090131365532
 31
0.0
  0
LINE
  5
1A980
  8
AM_0
 10
903.84230132348875
 20
412.5787157910691
 30
0.0
 11
941.89465434068359
 21
413.24289186892628
 31
0.0
  0
LINE
  5
1A993
  8
AM_0
 10
944.84230008929296
 20
416.24243500619951
 30
0.0
 11
944.84230008929364
 21
446.89650257009652
 31
0.0
  0
ARC
  5
1A9A3
  8
AM_0
 10
941.84230008929296
 20
416.24243500619951
 30
0.0
 40
3.0
 50
270.99994330824171
 51
0.0
1001
GENIUS_GENOBJ-N-FIL_13
1002
{
1000
OWNER
1000
GEN
1002
}
1001
GENIUS_GENODEF_13
1002
{
1000
HIER
1070
     0
1002
}
1002
{
1000
MANEDIT
1070
     0
1002
}
1002
{
1000
NOSEL
1070
     0
1002
}
1002
{
1000
BEHIND
1070
     0
1002
}
1002
{
1000
OTHER
1070
     0
1002
}
1002
{
1000
REACTOR
1002
}
  0
LINE
  5
1A9A7
  8
ﾁｭｳｼﾝｾﾝ1
 10
941.83551073956755
 20
432.70089935700452
 30
0.0
 11
973.47650399433655
 21
432.70089935700452
 31
0.0
  0
LINE
  5
1A9A9
  8
AM_0
 10
969.84230008929364
 20
449.70089935700452
 30
0.0
 11
946.77250109588852
 21
448.8952842241348
 31
0.0
  0
ARC
  5
1A9AB
  8
0
 10
946.84230008929364
 20
446.89650257009652
 30
0.0
 40
2.0
 50
92.000000000003695
 51
180.0
1001
GENIUS_GENODEF_13
1002
{
1000
HIER
1070
     0
1002
}
1002
{
1000
MANEDIT
1070
     0
1002
}
1002
{
1000
NOSEL
1070
     0
1002
}
1002
{
1000
BEHIND
1070
     0
1002
}
1002
{
1000
OTHER
1070
     0
1002
}
1002
{
1000
REACTOR
1002
}
1001
GENIUS_GENOBJ-N-FIL_13
1002
{
1000
OWNER
1000
GEN
1002
}
  0
CIRCLE
  5
1AD56
  8
ｽﾝﾎﾟｳｾﾝ
 10
529.55229911344975
 20
332.70089935700469
 30
0.0
 40
4.0
  0
CIRCLE
  5
1B05D
  8
AM_0
 10
529.55229911344975
 20
332.70089935700469
 30
0.0
 40
3.399999999999999
  0
LINE
  5
1B061
  8
ﾁｭｳｼﾝｾﾝ1
 10
429.55229911344981
 20
417.700899357004
 30
0.0
 11
429.55229911344981
 21
447.70089935700412
 31
0.0
  0
LINE
  5
1B062
  8
ﾁｭｳｼﾝｾﾝ1
 10
444.55229911344958
 20
432.70089935700372
 30
0.0
 11
414.55229911344958
 21
432.70089935700372
 31
0.0
  0
LINE
  5
1B063
  8
ﾁｭｳｼﾝｾﾝ1
 10
429.55229911344981
 20
217.7008993570042
 30
0.0
 11
429.55229911344981
 21
247.7008993570042
 31
0.0
  0
LINE
  5
1B064
  8
ﾁｭｳｼﾝｾﾝ1
 10
444.55229911344958
 20
232.7008993570042
 30
0.0
 11
414.55229911344958
 21
232.7008993570042
 31
0.0
  0
LINE
  5
1B065
  8
ﾁｭｳｼﾝｾﾝ1
 10
574.55232797540168
 20
217.7008993570042
 30
0.0
 11
574.55232797540168
 21
247.7008993570042
 31
0.0
  0
LINE
  5
1B066
  8
ﾁｭｳｼﾝｾﾝ1
 10
589.55232797540145
 20
232.7008993570042
 30
0.0
 11
559.55232797540145
 21
232.7008993570042
 31
0.0
  0
ARC
  5
1B067
  8
ｶｸﾚｾﾝ2
 10
414.55232616926219
 20
267.70089740035331
 30
0.0
 40
17.000000451534831
 50
180.0
 51
203.19855493455
  0
ARC
  5
1B068
  8
ｶｸﾚｾﾝ2
 10
414.55232616926219
 20
397.70090131365509
 30
0.0
 40
17.000000451534831
 50
156.80144506545
 51
180.0
  0
LINE
  5
1B069
  8
ｶｸﾚｾﾝ2
 10
399.05747615672072
 20
404.70230055325919
 30
0.0
 11
398.92685608551091
 21
404.39751986438409
 31
0.0
  0
LINE
  5
1B06A
  8
ｶｸﾚｾﾝ2
 10
398.92685608551091
 20
261.00427884962357
 30
0.0
 11
399.05685902483168
 21
260.70093813762549
 31
0.0
  0
LINE
  5
1B110
  8
AM_0
 10
579.55330030556627
 20
636.50088938363615
 30
0.0
 11
479.55129792133317
 21
636.50088938363615
 31
0.0
  0
LINE
  5
1B111
  8
AM_0
 10
401.17568617823378
 20
641.50088953414775
 30
0.0
 11
602.92894091061248
 21
641.50088953414775
 31
0.0
  0
LINE
  5
1B112
  8
AM_0
 10
399.55232571772717
 20
734.50089254438024
 30
0.0
 11
604.55230137112426
 21
734.50089254438024
 31
0.0
  0
LINE
  5
1B113
  8
ﾁｭｳｼﾝｾﾝ1
 10
128.55000000000001
 20
700.50089540315548
 30
0.0
 11
609.55230137112414
 21
700.50089040315549
 31
0.0
  0
LINE
  5
1B153
  8
AM_0
 10
377.05227179065059
 20
629.99949774234437
 30
0.0
 11
377.05227179065082
 21
700.50089319794017
 31
0.0
  0
LINE
  5
1B154
  8
AM_0
 10
401.17568617823378
 20
641.50088953414775
 30
0.0
 11
399.55232571766192
 21
734.50089254438024
 31
0.0
  0
LINE
  5
1B156
  8
AM_0
 10
363.05227178645077
 20
774.00087940315552
 30
0.0
 11
363.05227178645077
 21
627.00089040315561
 31
0.0
  0
ARC
  5
1B158
  8
AM_0
 10
384.33235933415921
 20
770.50231224718584
 30
0.0
 40
2.0
 50
4.9999999999994991
 51
89.999930533327898
1001
GENIUS_GENODEF_13
1002
{
1000
HIER
1070
     0
1002
}
1002
{
1000
MANEDIT
1070
     0
1002
}
1002
{
1000
NOSEL
1070
     0
1002
}
1002
{
1000
BEHIND
1070
     0
1002
}
1002
{
1000
OTHER
1070
     0
1002
}
1002
{
1000
REACTOR
1002
}
1001
GENIUS_GENOBJ-N-FIL_13
1002
{
1000
OWNER
1000
GEN
1002
}
  0
LINE
  5
1B159
  8
AM_0
 10
377.05227179065082
 20
771.00228865353608
 30
0.0
 11
377.05227179065082
 21
700.50089319794017
 31
0.0
  0
LINE
  5
1B162
  8
AM_0
 10
363.05227786612443
 20
774.00236804762835
 30
0.0
 11
374.0522770789446
 21
774.00234865353104
 31
0.0
  0
LINE
  5
1B163
  8
AM_0
 10
378.02089370775741
 20
772.50231989934775
 30
0.0
 11
384.33236175900362
 21
772.50231224718414
 31
0.0
  0
POLYLINE
  5
1B164
  8
AM_0
 10
378.02089370775752
 20
772.50231989934764
 30
0.0
 66
     1
 70
     8
  0
VERTEX
  8
AM_0
  5
1C706
 10
378.021
 20
772.502
 30
0.000000
  70
    32
  0
VERTEX
  8
AM_0
  5
1C707
 10
378.004
 20
772.502
 30
0.000000
  70
    32
  0
VERTEX
  8
AM_0
  5
1C708
 10
377.987
 20
772.503
 30
0.000000
  70
    32
  0
VERTEX
  8
AM_0
  5
1C709
 10
377.970
 20
772.503
 30
0.000000
  70
    32
  0
VERTEX
  8
AM_0
  5
1C70A
 10
377.953
 20
772.503
 30
0.000000
  70
    32
  0
VERTEX
  8
AM_0
  5
1C70B
 10
377.936
 20
772.504
 30
0.000000
  70
    32
  0
VERTEX
  8
AM_0
  5
1C70C
 10
377.919
 20
772.504
 30
0.000000
  70
    32
  0
VERTEX
  8
AM_0
  5
1C70D
 10
377.902
 20
772.505
 30
0.000000
  70
    32
  0
VERTEX
  8
AM_0
  5
1C70E
 10
377.885
 20
772.505
 30
0.000000
  70
    32
  0
VERTEX
  8
AM_0
  5
1C70F
 10
377.869
 20
772.506
 30
0.000000
  70
    32
  0
VERTEX
  8
AM_0
  5
1C710
 10
377.852
 20
772.507
 30
0.000000
  70
    32
  0
VERTEX
  8
AM_0
  5
1C711
 10
377.835
 20
772.508
 30
0.000000
  70
    32
  0
VERTEX
  8
AM_0
  5
1C712
 10
377.818
 20
772.509
 30
0.000000
  70
    32
  0
VERTEX
  8
AM_0
  5
1C713
 10
377.801
 20
772.510
 30
0.000000
  70
    32
  0
VERTEX
  8
AM_0
  5
1C714
 10
377.784
 20
772.512
 30
0.000000
  70
    32
  0
VERTEX
  8
AM_0
  5
1C715
 10
377.767
 20
772.513
 30
0.000000
  70
    32
  0
VERTEX
  8
AM_0
  5
1C716
 10
377.750
 20
772.515
 30
0.000000
  70
    32
  0
VERTEX
  8
AM_0
  5
1C717
 10
377.733
 20
772.516
 30
0.000000
  70
    32
  0
VERTEX
  8
AM_0
  5
1C718
 10
377.717
 20
772.518
 30
0.000000
  70
    32
  0
VERTEX
  8
AM_0
  5
1C719
 10
377.700
 20
772.520
 30
0.000000
  70
    32
  0
VERTEX
  8
AM_0
  5
1C71A
 10
377.683
 20
772.521
 30
0.000000
  70
    32
  0
VERTEX
  8
AM_0
  5
1C71B
 10
377.666
 20
772.523
 30
0.000000
  70
    32
  0
VERTEX
  8
AM_0
  5
1C71C
 10
377.649
 20
772.525
 30
0.000000
  70
    32
  0
VERTEX
  8
AM_0
  5
1C71D
 10
377.632
 20
772.528
 30
0.000000
  70
    32
  0
VERTEX
  8
AM_0
  5
1C71E
 10
377.616
 20
772.530
 30
0.000000
  70
    32
  0
VERTEX
  8
AM_0
  5
1C71F
 10
377.599
 20
772.532
 30
0.000000
  70
    32
  0
VERTEX
  8
AM_0
  5
1C720
 10
377.582
 20
772.535
 30
0.000000
  70
    32
  0
VERTEX
  8
AM_0
  5
1C721
 10
377.565
 20
772.537
 30
0.000000
  70
    32
  0
VERTEX
  8
AM_0
  5
1C722
 10
377.549
 20
772.540
 30
0.000000
  70
    32
  0
VERTEX
  8
AM_0
  5
1C723
 10
377.532
 20
772.542
 30
0.000000
  70
    32
  0
VERTEX
  8
AM_0
  5
1C724
 10
377.515
 20
772.545
 30
0.000000
  70
    32
  0
VERTEX
  8
AM_0
  5
1C725
 10
377.498
 20
772.548
 30
0.000000
  70
    32
  0
VERTEX
  8
AM_0
  5
1C726
 10
377.482
 20
772.551
 30
0.000000
  70
    32
  0
VERTEX
  8
AM_0
  5
1C727
 10
377.465
 20
772.554
 30
0.000000
  70
    32
  0
VERTEX
  8
AM_0
  5
1C728
 10
377.448
 20
772.557
 30
0.000000
  70
    32
  0
VERTEX
  8
AM_0
  5
1C729
 10
377.432
 20
772.561
 30
0.000000
  70
    32
  0
VERTEX
  8
AM_0
  5
1C72A
 10
377.415
 20
772.564
 30
0.000000
  70
    32
  0
VERTEX
  8
AM_0
  5
1C72B
 10
377.399
 20
772.568
 30
0.000000
  70
    32
  0
VERTEX
  8
AM_0
  5
1C72C
 10
377.382
 20
772.571
 30
0.000000
  70
    32
  0
VERTEX
  8
AM_0
  5
1C72D
 10
377.366
 20
772.575
 30
0.000000
  70
    32
  0
VERTEX
  8
AM_0
  5
1C72E
 10
377.349
 20
772.579
 30
0.000000
  70
    32
  0
VERTEX
  8
AM_0
  5
1C72F
 10
377.333
 20
772.582
 30
0.000000
  70
    32
  0
VERTEX
  8
AM_0
  5
1C730
 10
377.316
 20
772.586
 30
0.000000
  70
    32
  0
VERTEX
  8
AM_0
  5
1C731
 10
377.300
 20
772.590
 30
0.000000
  70
    32
  0
VERTEX
  8
AM_0
  5
1C732
 10
377.283
 20
772.594
 30
0.000000
  70
    32
  0
VERTEX
  8
AM_0
  5
1C733
 10
377.267
 20
772.599
 30
0.000000
  70
    32
  0
VERTEX
  8
AM_0
  5
1C734
 10
377.250
 20
772.603
 30
0.000000
  70
    32
  0
VERTEX
  8
AM_0
  5
1C735
 10
377.234
 20
772.607
 30
0.000000
  70
    32
  0
VERTEX
  8
AM_0
  5
1C736
 10
377.218
 20
772.612
 30
0.000000
  70
    32
  0
VERTEX
  8
AM_0
  5
1C737
 10
377.201
 20
772.616
 30
0.000000
  70
    32
  0
VERTEX
  8
AM_0
  5
1C738
 10
377.185
 20
772.621
 30
0.000000
  70
    32
  0
VERTEX
  8
AM_0
  5
1C739
 10
377.169
 20
772.626
 30
0.000000
  70
    32
  0
VERTEX
  8
AM_0
  5
1C73A
 10
377.153
 20
772.631
 30
0.000000
  70
    32
  0
VERTEX
  8
AM_0
  5
1C73B
 10
377.136
 20
772.636
 30
0.000000
  70
    32
  0
VERTEX
  8
AM_0
  5
1C73C
 10
377.120
 20
772.641
 30
0.000000
  70
    32
  0
VERTEX
  8
AM_0
  5
1C73D
 10
377.104
 20
772.646
 30
0.000000
  70
    32
  0
VERTEX
  8
AM_0
  5
1C73E
 10
377.088
 20
772.651
 30
0.000000
  70
    32
  0
VERTEX
  8
AM_0
  5
1C73F
 10
377.072
 20
772.656
 30
0.000000
  70
    32
  0
VERTEX
  8
AM_0
  5
1C740
 10
377.056
 20
772.662
 30
0.000000
  70
    32
  0
VERTEX
  8
AM_0
  5
1C741
 10
377.040
 20
772.667
 30
0.000000
  70
    32
  0
VERTEX
  8
AM_0
  5
1C742
 10
377.024
 20
772.673
 30
0.000000
  70
    32
  0
VERTEX
  8
AM_0
  5
1C743
 10
377.008
 20
772.679
 30
0.000000
  70
    32
  0
VERTEX
  8
AM_0
  5
1C744
 10
376.992
 20
772.684
 30
0.000000
  70
    32
  0
VERTEX
  8
AM_0
  5
1C745
 10
376.976
 20
772.690
 30
0.000000
  70
    32
  0
VERTEX
  8
AM_0
  5
1C746
 10
376.960
 20
772.696
 30
0.000000
  70
    32
  0
VERTEX
  8
AM_0
  5
1C747
 10
376.944
 20
772.702
 30
0.000000
  70
    32
  0
VERTEX
  8
AM_0
  5
1C748
 10
376.929
 20
772.708
 30
0.000000
  70
    32
  0
VERTEX
  8
AM_0
  5
1C749
 10
376.913
 20
772.714
 30
0.000000
  70
    32
  0
VERTEX
  8
AM_0
  5
1C74A
 10
376.897
 20
772.721
 30
0.000000
  70
    32
  0
VERTEX
  8
AM_0
  5
1C74B
 10
376.881
 20
772.727
 30
0.000000
  70
    32
  0
VERTEX
  8
AM_0
  5
1C74C
 10
376.866
 20
772.734
 30
0.000000
  70
    32
  0
VERTEX
  8
AM_0
  5
1C74D
 10
376.850
 20
772.740
 30
0.000000
  70
    32
  0
VERTEX
  8
AM_0
  5
1C74E
 10
376.835
 20
772.747
 30
0.000000
  70
    32
  0
VERTEX
  8
AM_0
  5
1C74F
 10
376.819
 20
772.754
 30
0.000000
  70
    32
  0
VERTEX
  8
AM_0
  5
1C750
 10
376.804
 20
772.760
 30
0.000000
  70
    32
  0
VERTEX
  8
AM_0
  5
1C751
 10
376.788
 20
772.767
 30
0.000000
  70
    32
  0
VERTEX
  8
AM_0
  5
1C752
 10
376.773
 20
772.774
 30
0.000000
  70
    32
  0
VERTEX
  8
AM_0
  5
1C753
 10
376.757
 20
772.781
 30
0.000000
  70
    32
  0
VERTEX
  8
AM_0
  5
1C754
 10
376.742
 20
772.789
 30
0.000000
  70
    32
  0
VERTEX
  8
AM_0
  5
1C755
 10
376.727
 20
772.796
 30
0.000000
  70
    32
  0
VERTEX
  8
AM_0
  5
1C756
 10
376.711
 20
772.803
 30
0.000000
  70
    32
  0
VERTEX
  8
AM_0
  5
1C757
 10
376.696
 20
772.811
 30
0.000000
  70
    32
  0
VERTEX
  8
AM_0
  5
1C758
 10
376.681
 20
772.818
 30
0.000000
  70
    32
  0
VERTEX
  8
AM_0
  5
1C759
 10
376.666
 20
772.826
 30
0.000000
  70
    32
  0
VERTEX
  8
AM_0
  5
1C75A
 10
376.651
 20
772.833
 30
0.000000
  70
    32
  0
VERTEX
  8
AM_0
  5
1C75B
 10
376.636
 20
772.841
 30
0.000000
  70
    32
  0
VERTEX
  8
AM_0
  5
1C75C
 10
376.621
 20
772.849
 30
0.000000
  70
    32
  0
VERTEX
  8
AM_0
  5
1C75D
 10
376.606
 20
772.857
 30
0.000000
  70
    32
  0
VERTEX
  8
AM_0
  5
1C75E
 10
376.591
 20
772.865
 30
0.000000
  70
    32
  0
VERTEX
  8
AM_0
  5
1C75F
 10
376.576
 20
772.873
 30
0.000000
  70
    32
  0
VERTEX
  8
AM_0
  5
1C760
 10
376.561
 20
772.881
 30
0.000000
  70
    32
  0
VERTEX
  8
AM_0
  5
1C761
 10
376.546
 20
772.890
 30
0.000000
  70
    32
  0
VERTEX
  8
AM_0
  5
1C762
 10
376.532
 20
772.898
 30
0.000000
  70
    32
  0
VERTEX
  8
AM_0
  5
1C763
 10
376.517
 20
772.907
 30
0.000000
  70
    32
  0
VERTEX
  8
AM_0
  5
1C764
 10
376.502
 20
772.915
 30
0.000000
  70
    32
  0
VERTEX
  8
AM_0
  5
1C765
 10
376.488
 20
772.924
 30
0.000000
  70
    32
  0
VERTEX
  8
AM_0
  5
1C766
 10
376.473
 20
772.932
 30
0.000000
  70
    32
  0
VERTEX
  8
AM_0
  5
1C767
 10
376.459
 20
772.941
 30
0.000000
  70
    32
  0
VERTEX
  8
AM_0
  5
1C768
 10
376.444
 20
772.950
 30
0.000000
  70
    32
  0
VERTEX
  8
AM_0
  5
1C769
 10
376.430
 20
772.959
 30
0.000000
  70
    32
  0
VERTEX
  8
AM_0
  5
1C76A
 10
376.416
 20
772.968
 30
0.000000
  70
    32
  0
VERTEX
  8
AM_0
  5
1C76B
 10
376.401
 20
772.977
 30
0.000000
  70
    32
  0
VERTEX
  8
AM_0
  5
1C76C
 10
376.387
 20
772.986
 30
0.000000
  70
    32
  0
VERTEX
  8
AM_0
  5
1C76D
 10
376.373
 20
772.996
 30
0.000000
  70
    32
  0
VERTEX
  8
AM_0
  5
1C76E
 10
376.359
 20
773.005
 30
0.000000
  70
    32
  0
VERTEX
  8
AM_0
  5
1C76F
 10
376.345
 20
773.014
 30
0.000000
  70
    32
  0
VERTEX
  8
AM_0
  5
1C770
 10
376.331
 20
773.024
 30
0.000000
  70
    32
  0
VERTEX
  8
AM_0
  5
1C771
 10
376.317
 20
773.033
 30
0.000000
  70
    32
  0
VERTEX
  8
AM_0
  5
1C772
 10
376.303
 20
773.043
 30
0.000000
  70
    32
  0
VERTEX
  8
AM_0
  5
1C773
 10
376.289
 20
773.053
 30
0.000000
  70
    32
  0
VERTEX
  8
AM_0
  5
1C774
 10
376.275
 20
773.063
 30
0.000000
  70
    32
  0
VERTEX
  8
AM_0
  5
1C775
 10
376.261
 20
773.073
 30
0.000000
  70
    32
  0
VERTEX
  8
AM_0
  5
1C776
 10
376.248
 20
773.082
 30
0.000000
  70
    32
  0
VERTEX
  8
AM_0
  5
1C777
 10
376.234
 20
773.093
 30
0.000000
  70
    32
  0
VERTEX
  8
AM_0
  5
1C778
 10
376.220
 20
773.103
 30
0.000000
  70
    32
  0
VERTEX
  8
AM_0
  5
1C779
 10
376.207
 20
773.113
 30
0.000000
  70
    32
  0
VERTEX
  8
AM_0
  5
1C77A
 10
376.193
 20
773.123
 30
0.000000
  70
    32
  0
VERTEX
  8
AM_0
  5
1C77B
 10
376.180
 20
773.134
 30
0.000000
  70
    32
  0
VERTEX
  8
AM_0
  5
1C77C
 10
376.167
 20
773.144
 30
0.000000
  70
    32
  0
VERTEX
  8
AM_0
  5
1C77D
 10
376.153
 20
773.154
 30
0.000000
  70
    32
  0
VERTEX
  8
AM_0
  5
1C77E
 10
376.140
 20
773.165
 30
0.000000
  70
    32
  0
VERTEX
  8
AM_0
  5
1C77F
 10
376.127
 20
773.176
 30
0.000000
  70
    32
  0
VERTEX
  8
AM_0
  5
1C780
 10
376.114
 20
773.186
 30
0.000000
  70
    32
  0
VERTEX
  8
AM_0
  5
1C781
 10
376.101
 20
773.197
 30
0.000000
  70
    32
  0
VERTEX
  8
AM_0
  5
1C782
 10
376.088
 20
773.208
 30
0.000000
  70
    32
  0
VERTEX
  8
AM_0
  5
1C783
 10
376.075
 20
773.219
 30
0.000000
  70
    32
  0
VERTEX
  8
AM_0
  5
1C784
 10
376.062
 20
773.230
 30
0.000000
  70
    32
  0
VERTEX
  8
AM_0
  5
1C785
 10
376.049
 20
773.241
 30
0.000000
  70
    32
  0
VERTEX
  8
AM_0
  5
1C786
 10
376.037
 20
773.252
 30
0.000000
  70
    32
  0
SEQEND
  8
AM_0
  5
1C787
  0
POLYLINE
  5
1B165
  8
AM_0
 10
374.05227707894443
 20
774.00234865353139
 30
0.0
 66
     1
 70
     8
  0
VERTEX
  8
AM_0
  5
1C788
 10
374.052
 20
774.002
 30
0.000000
  70
    32
  0
VERTEX
  8
AM_0
  5
1C789
 10
374.069
 20
774.002
 30
0.000000
  70
    32
  0
VERTEX
  8
AM_0
  5
1C78A
 10
374.086
 20
774.002
 30
0.000000
  70
    32
  0
VERTEX
  8
AM_0
  5
1C78B
 10
374.103
 20
774.002
 30
0.000000
  70
    32
  0
VERTEX
  8
AM_0
  5
1C78C
 10
374.120
 20
774.002
 30
0.000000
  70
    32
  0
VERTEX
  8
AM_0
  5
1C78D
 10
374.137
 20
774.001
 30
0.000000
  70
    32
  0
VERTEX
  8
AM_0
  5
1C78E
 10
374.154
 20
774.001
 30
0.000000
  70
    32
  0
VERTEX
  8
AM_0
  5
1C78F
 10
374.171
 20
774.000
 30
0.000000
  70
    32
  0
VERTEX
  8
AM_0
  5
1C790
 10
374.188
 20
773.999
 30
0.000000
  70
    32
  0
VERTEX
  8
AM_0
  5
1C791
 10
374.205
 20
773.998
 30
0.000000
  70
    32
  0
VERTEX
  8
AM_0
  5
1C792
 10
374.222
 20
773.998
 30
0.000000
  70
    32
  0
VERTEX
  8
AM_0
  5
1C793
 10
374.238
 20
773.997
 30
0.000000
  70
    32
  0
VERTEX
  8
AM_0
  5
1C794
 10
374.255
 20
773.995
 30
0.000000
  70
    32
  0
VERTEX
  8
AM_0
  5
1C795
 10
374.272
 20
773.994
 30
0.000000
  70
    32
  0
VERTEX
  8
AM_0
  5
1C796
 10
374.289
 20
773.993
 30
0.000000
  70
    32
  0
VERTEX
  8
AM_0
  5
1C797
 10
374.306
 20
773.992
 30
0.000000
  70
    32
  0
VERTEX
  8
AM_0
  5
1C798
 10
374.323
 20
773.990
 30
0.000000
  70
    32
  0
VERTEX
  8
AM_0
  5
1C799
 10
374.340
 20
773.989
 30
0.000000
  70
    32
  0
VERTEX
  8
AM_0
  5
1C79A
 10
374.357
 20
773.987
 30
0.000000
  70
    32
  0
VERTEX
  8
AM_0
  5
1C79B
 10
374.374
 20
773.985
 30
0.000000
  70
    32
  0
VERTEX
  8
AM_0
  5
1C79C
 10
374.390
 20
773.983
 30
0.000000
  70
    32
  0
VERTEX
  8
AM_0
  5
1C79D
 10
374.407
 20
773.981
 30
0.000000
  70
    32
  0
VERTEX
  8
AM_0
  5
1C79E
 10
374.424
 20
773.979
 30
0.000000
  70
    32
  0
VERTEX
  8
AM_0
  5
1C79F
 10
374.441
 20
773.977
 30
0.000000
  70
    32
  0
VERTEX
  8
AM_0
  5
1C7A0
 10
374.458
 20
773.975
 30
0.000000
  70
    32
  0
VERTEX
  8
AM_0
  5
1C7A1
 10
374.474
 20
773.973
 30
0.000000
  70
    32
  0
VERTEX
  8
AM_0
  5
1C7A2
 10
374.491
 20
773.970
 30
0.000000
  70
    32
  0
VERTEX
  8
AM_0
  5
1C7A3
 10
374.508
 20
773.968
 30
0.000000
  70
    32
  0
VERTEX
  8
AM_0
  5
1C7A4
 10
374.525
 20
773.965
 30
0.000000
  70
    32
  0
VERTEX
  8
AM_0
  5
1C7A5
 10
374.541
 20
773.962
 30
0.000000
  70
    32
  0
VERTEX
  8
AM_0
  5
1C7A6
 10
374.558
 20
773.959
 30
0.000000
  70
    32
  0
VERTEX
  8
AM_0
  5
1C7A7
 10
374.575
 20
773.957
 30
0.000000
  70
    32
  0
VERTEX
  8
AM_0
  5
1C7A8
 10
374.591
 20
773.954
 30
0.000000
  70
    32
  0
VERTEX
  8
AM_0
  5
1C7A9
 10
374.608
 20
773.950
 30
0.000000
  70
    32
  0
VERTEX
  8
AM_0
  5
1C7AA
 10
374.625
 20
773.947
 30
0.000000
  70
    32
  0
VERTEX
  8
AM_0
  5
1C7AB
 10
374.641
 20
773.944
 30
0.000000
  70
    32
  0
VERTEX
  8
AM_0
  5
1C7AC
 10
374.658
 20
773.941
 30
0.000000
  70
    32
  0
VERTEX
  8
AM_0
  5
1C7AD
 10
374.674
 20
773.937
 30
0.000000
  70
    32
  0
VERTEX
  8
AM_0
  5
1C7AE
 10
374.691
 20
773.934
 30
0.000000
  70
    32
  0
VERTEX
  8
AM_0
  5
1C7AF
 10
374.708
 20
773.930
 30
0.000000
  70
    32
  0
VERTEX
  8
AM_0
  5
1C7B0
 10
374.724
 20
773.926
 30
0.000000
  70
    32
  0
VERTEX
  8
AM_0
  5
1C7B1
 10
374.741
 20
773.922
 30
0.000000
  70
    32
  0
VERTEX
  8
AM_0
  5
1C7B2
 10
374.757
 20
773.918
 30
0.000000
  70
    32
  0
VERTEX
  8
AM_0
  5
1C7B3
 10
374.774
 20
773.914
 30
0.000000
  70
    32
  0
VERTEX
  8
AM_0
  5
1C7B4
 10
374.790
 20
773.910
 30
0.000000
  70
    32
  0
VERTEX
  8
AM_0
  5
1C7B5
 10
374.806
 20
773.906
 30
0.000000
  70
    32
  0
VERTEX
  8
AM_0
  5
1C7B6
 10
374.823
 20
773.902
 30
0.000000
  70
    32
  0
VERTEX
  8
AM_0
  5
1C7B7
 10
374.839
 20
773.897
 30
0.000000
  70
    32
  0
VERTEX
  8
AM_0
  5
1C7B8
 10
374.855
 20
773.893
 30
0.000000
  70
    32
  0
VERTEX
  8
AM_0
  5
1C7B9
 10
374.872
 20
773.888
 30
0.000000
  70
    32
  0
VERTEX
  8
AM_0
  5
1C7BA
 10
374.888
 20
773.884
 30
0.000000
  70
    32
  0
VERTEX
  8
AM_0
  5
1C7BB
 10
374.904
 20
773.879
 30
0.000000
  70
    32
  0
VERTEX
  8
AM_0
  5
1C7BC
 10
374.921
 20
773.874
 30
0.000000
  70
    32
  0
VERTEX
  8
AM_0
  5
1C7BD
 10
374.937
 20
773.869
 30
0.000000
  70
    32
  0
VERTEX
  8
AM_0
  5
1C7BE
 10
374.953
 20
773.864
 30
0.000000
  70
    32
  0
VERTEX
  8
AM_0
  5
1C7BF
 10
374.969
 20
773.859
 30
0.000000
  70
    32
  0
VERTEX
  8
AM_0
  5
1C7C0
 10
374.985
 20
773.854
 30
0.000000
  70
    32
  0
VERTEX
  8
AM_0
  5
1C7C1
 10
375.001
 20
773.848
 30
0.000000
  70
    32
  0
VERTEX
  8
AM_0
  5
1C7C2
 10
375.017
 20
773.843
 30
0.000000
  70
    32
  0
VERTEX
  8
AM_0
  5
1C7C3
 10
375.033
 20
773.837
 30
0.000000
  70
    32
  0
VERTEX
  8
AM_0
  5
1C7C4
 10
375.049
 20
773.832
 30
0.000000
  70
    32
  0
VERTEX
  8
AM_0
  5
1C7C5
 10
375.065
 20
773.826
 30
0.000000
  70
    32
  0
VERTEX
  8
AM_0
  5
1C7C6
 10
375.081
 20
773.820
 30
0.000000
  70
    32
  0
VERTEX
  8
AM_0
  5
1C7C7
 10
375.097
 20
773.815
 30
0.000000
  70
    32
  0
VERTEX
  8
AM_0
  5
1C7C8
 10
375.113
 20
773.809
 30
0.000000
  70
    32
  0
VERTEX
  8
AM_0
  5
1C7C9
 10
375.129
 20
773.803
 30
0.000000
  70
    32
  0
VERTEX
  8
AM_0
  5
1C7CA
 10
375.145
 20
773.796
 30
0.000000
  70
    32
  0
VERTEX
  8
AM_0
  5
1C7CB
 10
375.160
 20
773.790
 30
0.000000
  70
    32
  0
VERTEX
  8
AM_0
  5
1C7CC
 10
375.176
 20
773.784
 30
0.000000
  70
    32
  0
VERTEX
  8
AM_0
  5
1C7CD
 10
375.192
 20
773.778
 30
0.000000
  70
    32
  0
VERTEX
  8
AM_0
  5
1C7CE
 10
375.207
 20
773.771
 30
0.000000
  70
    32
  0
VERTEX
  8
AM_0
  5
1C7CF
 10
375.223
 20
773.764
 30
0.000000
  70
    32
  0
VERTEX
  8
AM_0
  5
1C7D0
 10
375.239
 20
773.758
 30
0.000000
  70
    32
  0
VERTEX
  8
AM_0
  5
1C7D1
 10
375.254
 20
773.751
 30
0.000000
  70
    32
  0
VERTEX
  8
AM_0
  5
1C7D2
 10
375.270
 20
773.744
 30
0.000000
  70
    32
  0
VERTEX
  8
AM_0
  5
1C7D3
 10
375.285
 20
773.737
 30
0.000000
  70
    32
  0
VERTEX
  8
AM_0
  5
1C7D4
 10
375.300
 20
773.730
 30
0.000000
  70
    32
  0
VERTEX
  8
AM_0
  5
1C7D5
 10
375.316
 20
773.723
 30
0.000000
  70
    32
  0
VERTEX
  8
AM_0
  5
1C7D6
 10
375.331
 20
773.716
 30
0.000000
  70
    32
  0
VERTEX
  8
AM_0
  5
1C7D7
 10
375.347
 20
773.709
 30
0.000000
  70
    32
  0
VERTEX
  8
AM_0
  5
1C7D8
 10
375.362
 20
773.701
 30
0.000000
  70
    32
  0
VERTEX
  8
AM_0
  5
1C7D9
 10
375.377
 20
773.694
 30
0.000000
  70
    32
  0
VERTEX
  8
AM_0
  5
1C7DA
 10
375.392
 20
773.686
 30
0.000000
  70
    32
  0
VERTEX
  8
AM_0
  5
1C7DB
 10
375.407
 20
773.679
 30
0.000000
  70
    32
  0
VERTEX
  8
AM_0
  5
1C7DC
 10
375.422
 20
773.671
 30
0.000000
  70
    32
  0
VERTEX
  8
AM_0
  5
1C7DD
 10
375.437
 20
773.663
 30
0.000000
  70
    32
  0
VERTEX
  8
AM_0
  5
1C7DE
 10
375.452
 20
773.656
 30
0.000000
  70
    32
  0
VERTEX
  8
AM_0
  5
1C7DF
 10
375.467
 20
773.648
 30
0.000000
  70
    32
  0
VERTEX
  8
AM_0
  5
1C7E0
 10
375.482
 20
773.640
 30
0.000000
  70
    32
  0
VERTEX
  8
AM_0
  5
1C7E1
 10
375.497
 20
773.631
 30
0.000000
  70
    32
  0
VERTEX
  8
AM_0
  5
1C7E2
 10
375.512
 20
773.623
 30
0.000000
  70
    32
  0
VERTEX
  8
AM_0
  5
1C7E3
 10
375.527
 20
773.615
 30
0.000000
  70
    32
  0
VERTEX
  8
AM_0
  5
1C7E4
 10
375.542
 20
773.607
 30
0.000000
  70
    32
  0
VERTEX
  8
AM_0
  5
1C7E5
 10
375.556
 20
773.598
 30
0.000000
  70
    32
  0
VERTEX
  8
AM_0
  5
1C7E6
 10
375.571
 20
773.590
 30
0.000000
  70
    32
  0
VERTEX
  8
AM_0
  5
1C7E7
 10
375.585
 20
773.581
 30
0.000000
  70
    32
  0
VERTEX
  8
AM_0
  5
1C7E8
 10
375.600
 20
773.572
 30
0.000000
  70
    32
  0
VERTEX
  8
AM_0
  5
1C7E9
 10
375.614
 20
773.564
 30
0.000000
  70
    32
  0
VERTEX
  8
AM_0
  5
1C7EA
 10
375.629
 20
773.555
 30
0.000000
  70
    32
  0
VERTEX
  8
AM_0
  5
1C7EB
 10
375.643
 20
773.546
 30
0.000000
  70
    32
  0
VERTEX
  8
AM_0
  5
1C7EC
 10
375.658
 20
773.537
 30
0.000000
  70
    32
  0
VERTEX
  8
AM_0
  5
1C7ED
 10
375.672
 20
773.528
 30
0.000000
  70
    32
  0
VERTEX
  8
AM_0
  5
1C7EE
 10
375.686
 20
773.518
 30
0.000000
  70
    32
  0
VERTEX
  8
AM_0
  5
1C7EF
 10
375.700
 20
773.509
 30
0.000000
  70
    32
  0
VERTEX
  8
AM_0
  5
1C7F0
 10
375.714
 20
773.500
 30
0.000000
  70
    32
  0
VERTEX
  8
AM_0
  5
1C7F1
 10
375.728
 20
773.490
 30
0.000000
  70
    32
  0
VERTEX
  8
AM_0
  5
1C7F2
 10
375.743
 20
773.481
 30
0.000000
  70
    32
  0
VERTEX
  8
AM_0
  5
1C7F3
 10
375.756
 20
773.471
 30
0.000000
  70
    32
  0
VERTEX
  8
AM_0
  5
1C7F4
 10
375.770
 20
773.462
 30
0.000000
  70
    32
  0
VERTEX
  8
AM_0
  5
1C7F5
 10
375.784
 20
773.452
 30
0.000000
  70
    32
  0
VERTEX
  8
AM_0
  5
1C7F6
 10
375.798
 20
773.442
 30
0.000000
  70
    32
  0
VERTEX
  8
AM_0
  5
1C7F7
 10
375.812
 20
773.432
 30
0.000000
  70
    32
  0
VERTEX
  8
AM_0
  5
1C7F8
 10
375.826
 20
773.422
 30
0.000000
  70
    32
  0
VERTEX
  8
AM_0
  5
1C7F9
 10
375.839
 20
773.412
 30
0.000000
  70
    32
  0
VERTEX
  8
AM_0
  5
1C7FA
 10
375.853
 20
773.402
 30
0.000000
  70
    32
  0
VERTEX
  8
AM_0
  5
1C7FB
 10
375.866
 20
773.392
 30
0.000000
  70
    32
  0
VERTEX
  8
AM_0
  5
1C7FC
 10
375.880
 20
773.382
 30
0.000000
  70
    32
  0
VERTEX
  8
AM_0
  5
1C7FD
 10
375.893
 20
773.371
 30
0.000000
  70
    32
  0
VERTEX
  8
AM_0
  5
1C7FE
 10
375.906
 20
773.361
 30
0.000000
  70
    32
  0
VERTEX
  8
AM_0
  5
1C7FF
 10
375.920
 20
773.350
 30
0.000000
  70
    32
  0
VERTEX
  8
AM_0
  5
1C800
 10
375.933
 20
773.340
 30
0.000000
  70
    32
  0
VERTEX
  8
AM_0
  5
1C801
 10
375.946
 20
773.329
 30
0.000000
  70
    32
  0
VERTEX
  8
AM_0
  5
1C802
 10
375.959
 20
773.318
 30
0.000000
  70
    32
  0
VERTEX
  8
AM_0
  5
1C803
 10
375.972
 20
773.307
 30
0.000000
  70
    32
  0
VERTEX
  8
AM_0
  5
1C804
 10
375.985
 20
773.297
 30
0.000000
  70
    32
  0
VERTEX
  8
AM_0
  5
1C805
 10
375.998
 20
773.286
 30
0.000000
  70
    32
  0
VERTEX
  8
AM_0
  5
1C806
 10
376.011
 20
773.275
 30
0.000000
  70
    32
  0
VERTEX
  8
AM_0
  5
1C807
 10
376.024
 20
773.264
 30
0.000000
  70
    32
  0
VERTEX
  8
AM_0
  5
1C808
 10
376.037
 20
773.252
 30
0.000000
  70
    32
  0
SEQEND
  8
AM_0
  5
1C809
  0
LINE
  5
1B16D
  8
AM_0
 10
375.05227179005283
 20
763.50215319793972
 30
0.0
 11
363.05227178645282
 21
763.50215319794006
 31
0.0
  0
LINE
  5
1B16E
  8
AM_0
 10
375.05227179005192
 20
739.56262681923295
 30
0.0
 11
363.0522717864518
 21
739.56262681923295
 31
0.0
  0
LINE
  5
1B16F
  8
AM_0
 10
386.32474873034289
 20
770.6766237326807
 30
0.0
 11
389.5049653829833
 21
734.3265810588847
 31
0.0
  0
ARC
  5
1B170
  8
AM_0
 10
391.49735477916653
 20
734.50089254437978
 30
0.0
 40
2.0
 50
184.9999999999994
 51
270.0
1001
GENIUS_GENOBJ-N-FIL_13
1002
{
1000
OWNER
1000
GEN
1002
}
1001
GENIUS_GENODEF_13
1002
{
1000
HIER
1070
     0
1002
}
1002
{
1000
MANEDIT
1070
     0
1002
}
1002
{
1000
NOSEL
1070
     0
1002
}
1002
{
1000
BEHIND
1070
     0
1002
}
1002
{
1000
OTHER
1070
     0
1002
}
1002
{
1000
REACTOR
1002
}
  0
LINE
  5
1B171
  8
AM_0
 10
391.4973547791667
 20
732.50089254438024
 30
0.0
 11
398.56962887055278
 21
732.50089254438024
 31
0.0
  0
ARC
  5
1B172
  8
AM_0
 10
398.56962887055261
 20
733.50089254438024
 30
0.0
 40
1.0
 50
270.0
 51
1.0000242476043999
1001
GENIUS_GENODEF_13
1002
{
1000
HIER
1070
     0
1002
}
1002
{
1000
MANEDIT
1070
     0
1002
}
1002
{
1000
NOSEL
1070
     0
1002
}
1002
{
1000
BEHIND
1070
     0
1002
}
1002
{
1000
OTHER
1070
     0
1002
}
1002
{
1000
REACTOR
1002
}
1001
GENIUS_GENOBJ-N-FIL_13
1002
{
1000
OWNER
1000
GEN
1002
}
  0
LINE
  5
1B173
  8
AM_0
 10
383.38496146148481
 20
643.50088953414775
 30
0.0
 11
399.17538150736959
 21
643.50088953414786
 31
0.0
  0
ARC
  5
1B174
  8
AM_0
 10
399.17538150736931
 20
641.50088953414775
 30
0.0
 40
2.0
 50
1.0000242476434871
 51
90.0
1001
GENIUS_GENOBJ-N-FIL_13
1002
{
1000
OWNER
1000
GEN
1002
}
1001
GENIUS_GENODEF_13
1002
{
1000
HIER
1070
     0
1002
}
1002
{
1000
MANEDIT
1070
     0
1002
}
1002
{
1000
NOSEL
1070
     0
1002
}
1002
{
1000
BEHIND
1070
     0
1002
}
1002
{
1000
OTHER
1070
     0
1002
}
1002
{
1000
REACTOR
1002
}
  0
LINE
  5
1B17A
  8
AM_0
 10
375.0522717900505
 20
661.43915957664717
 30
0.0
 11
363.05227178645077
 21
661.43915957664717
 31
0.0
  0
ARC
  5
1B184
  8
AM_0
 10
383.38496146148452
 20
641.50088953414775
 30
0.0
 40
2.0
 50
90.0
 51
175.00000000000051
1001
GENIUS_GENOBJ-N-FIL_13
1002
{
1000
OWNER
1000
GEN
1002
}
1001
GENIUS_GENODEF_13
1002
{
1000
HIER
1070
     0
1002
}
1002
{
1000
MANEDIT
1070
     0
1002
}
1002
{
1000
NOSEL
1070
     0
1002
}
1002
{
1000
BEHIND
1070
     0
1002
}
1002
{
1000
OTHER
1070
     0
1002
}
1002
{
1000
REACTOR
1002
}
  0
LINE
  5
1B185
  8
AM_0
 10
363.05227786612443
 20
626.99941834825211
 30
0.0
 11
374.0522770789446
 21
626.99943774234907
 31
0.0
  0
LINE
  5
1B186
  8
AM_0
 10
375.0522717900505
 20
637.49963319794006
 30
0.0
 11
363.0522717864506
 21
637.49963319794006
 31
0.0
  0
LINE
  5
1B187
  8
AM_0
 10
381.39257206530129
 20
641.67520101964305
 30
0.0
 11
380.3995717500257
 21
630.32515547938374
 31
0.0
  0
ARC
  5
1B188
  8
AM_0
 10
378.40718235384219
 20
630.49946696487928
 30
0.0
 40
2.0
 50
270.00006946667207
 51
355.00000000000051
1001
GENIUS_GENOBJ-N-FIL_13
1002
{
1000
OWNER
1000
GEN
1002
}
1001
GENIUS_GENODEF_13
1002
{
1000
HIER
1070
     0
1002
}
1002
{
1000
MANEDIT
1070
     0
1002
}
1002
{
1000
NOSEL
1070
     0
1002
}
1002
{
1000
BEHIND
1070
     0
1002
}
1002
{
1000
OTHER
1070
     0
1002
}
1002
{
1000
REACTOR
1002
}
  0
POLYLINE
  5
1B189
  8
AM_0
 10
376.03658456735064
 20
627.74945211943975
 30
0.0
 66
     1
 70
     8
  0
VERTEX
  8
AM_0
  5
1C80A
 10
376.037
 20
627.749
 30
0.000000
  70
    32
  0
VERTEX
  8
AM_0
  5
1C80B
 10
376.049
 20
627.761
 30
0.000000
  70
    32
  0
VERTEX
  8
AM_0
  5
1C80C
 10
376.062
 20
627.772
 30
0.000000
  70
    32
  0
VERTEX
  8
AM_0
  5
1C80D
 10
376.075
 20
627.783
 30
0.000000
  70
    32
  0
VERTEX
  8
AM_0
  5
1C80E
 10
376.088
 20
627.794
 30
0.000000
  70
    32
  0
VERTEX
  8
AM_0
  5
1C80F
 10
376.101
 20
627.805
 30
0.000000
  70
    32
  0
VERTEX
  8
AM_0
  5
1C810
 10
376.114
 20
627.815
 30
0.000000
  70
    32
  0
VERTEX
  8
AM_0
  5
1C811
 10
376.127
 20
627.826
 30
0.000000
  70
    32
  0
VERTEX
  8
AM_0
  5
1C812
 10
376.140
 20
627.837
 30
0.000000
  70
    32
  0
VERTEX
  8
AM_0
  5
1C813
 10
376.153
 20
627.847
 30
0.000000
  70
    32
  0
VERTEX
  8
AM_0
  5
1C814
 10
376.167
 20
627.858
 30
0.000000
  70
    32
  0
VERTEX
  8
AM_0
  5
1C815
 10
376.180
 20
627.868
 30
0.000000
  70
    32
  0
VERTEX
  8
AM_0
  5
1C816
 10
376.193
 20
627.879
 30
0.000000
  70
    32
  0
VERTEX
  8
AM_0
  5
1C817
 10
376.207
 20
627.889
 30
0.000000
  70
    32
  0
VERTEX
  8
AM_0
  5
1C818
 10
376.220
 20
627.899
 30
0.000000
  70
    32
  0
VERTEX
  8
AM_0
  5
1C819
 10
376.234
 20
627.909
 30
0.000000
  70
    32
  0
VERTEX
  8
AM_0
  5
1C81A
 10
376.248
 20
627.919
 30
0.000000
  70
    32
  0
VERTEX
  8
AM_0
  5
1C81B
 10
376.261
 20
627.929
 30
0.000000
  70
    32
  0
VERTEX
  8
AM_0
  5
1C81C
 10
376.275
 20
627.939
 30
0.000000
  70
    32
  0
VERTEX
  8
AM_0
  5
1C81D
 10
376.289
 20
627.949
 30
0.000000
  70
    32
  0
VERTEX
  8
AM_0
  5
1C81E
 10
376.303
 20
627.959
 30
0.000000
  70
    32
  0
VERTEX
  8
AM_0
  5
1C81F
 10
376.317
 20
627.968
 30
0.000000
  70
    32
  0
VERTEX
  8
AM_0
  5
1C820
 10
376.331
 20
627.978
 30
0.000000
  70
    32
  0
VERTEX
  8
AM_0
  5
1C821
 10
376.345
 20
627.987
 30
0.000000
  70
    32
  0
VERTEX
  8
AM_0
  5
1C822
 10
376.359
 20
627.997
 30
0.000000
  70
    32
  0
VERTEX
  8
AM_0
  5
1C823
 10
376.373
 20
628.006
 30
0.000000
  70
    32
  0
VERTEX
  8
AM_0
  5
1C824
 10
376.387
 20
628.016
 30
0.000000
  70
    32
  0
VERTEX
  8
AM_0
  5
1C825
 10
376.401
 20
628.025
 30
0.000000
  70
    32
  0
VERTEX
  8
AM_0
  5
1C826
 10
376.416
 20
628.034
 30
0.000000
  70
    32
  0
VERTEX
  8
AM_0
  5
1C827
 10
376.430
 20
628.043
 30
0.000000
  70
    32
  0
VERTEX
  8
AM_0
  5
1C828
 10
376.444
 20
628.052
 30
0.000000
  70
    32
  0
VERTEX
  8
AM_0
  5
1C829
 10
376.459
 20
628.061
 30
0.000000
  70
    32
  0
VERTEX
  8
AM_0
  5
1C82A
 10
376.473
 20
628.069
 30
0.000000
  70
    32
  0
VERTEX
  8
AM_0
  5
1C82B
 10
376.488
 20
628.078
 30
0.000000
  70
    32
  0
VERTEX
  8
AM_0
  5
1C82C
 10
376.502
 20
628.087
 30
0.000000
  70
    32
  0
VERTEX
  8
AM_0
  5
1C82D
 10
376.517
 20
628.095
 30
0.000000
  70
    32
  0
VERTEX
  8
AM_0
  5
1C82E
 10
376.532
 20
628.104
 30
0.000000
  70
    32
  0
VERTEX
  8
AM_0
  5
1C82F
 10
376.546
 20
628.112
 30
0.000000
  70
    32
  0
VERTEX
  8
AM_0
  5
1C830
 10
376.561
 20
628.120
 30
0.000000
  70
    32
  0
VERTEX
  8
AM_0
  5
1C831
 10
376.576
 20
628.129
 30
0.000000
  70
    32
  0
VERTEX
  8
AM_0
  5
1C832
 10
376.591
 20
628.137
 30
0.000000
  70
    32
  0
VERTEX
  8
AM_0
  5
1C833
 10
376.606
 20
628.145
 30
0.000000
  70
    32
  0
VERTEX
  8
AM_0
  5
1C834
 10
376.621
 20
628.153
 30
0.000000
  70
    32
  0
VERTEX
  8
AM_0
  5
1C835
 10
376.636
 20
628.161
 30
0.000000
  70
    32
  0
VERTEX
  8
AM_0
  5
1C836
 10
376.651
 20
628.168
 30
0.000000
  70
    32
  0
VERTEX
  8
AM_0
  5
1C837
 10
376.666
 20
628.176
 30
0.000000
  70
    32
  0
VERTEX
  8
AM_0
  5
1C838
 10
376.681
 20
628.184
 30
0.000000
  70
    32
  0
VERTEX
  8
AM_0
  5
1C839
 10
376.696
 20
628.191
 30
0.000000
  70
    32
  0
VERTEX
  8
AM_0
  5
1C83A
 10
376.711
 20
628.199
 30
0.000000
  70
    32
  0
VERTEX
  8
AM_0
  5
1C83B
 10
376.727
 20
628.206
 30
0.000000
  70
    32
  0
VERTEX
  8
AM_0
  5
1C83C
 10
376.742
 20
628.213
 30
0.000000
  70
    32
  0
VERTEX
  8
AM_0
  5
1C83D
 10
376.757
 20
628.220
 30
0.000000
  70
    32
  0
VERTEX
  8
AM_0
  5
1C83E
 10
376.773
 20
628.227
 30
0.000000
  70
    32
  0
VERTEX
  8
AM_0
  5
1C83F
 10
376.788
 20
628.234
 30
0.000000
  70
    32
  0
VERTEX
  8
AM_0
  5
1C840
 10
376.804
 20
628.241
 30
0.000000
  70
    32
  0
VERTEX
  8
AM_0
  5
1C841
 10
376.819
 20
628.248
 30
0.000000
  70
    32
  0
VERTEX
  8
AM_0
  5
1C842
 10
376.835
 20
628.255
 30
0.000000
  70
    32
  0
VERTEX
  8
AM_0
  5
1C843
 10
376.850
 20
628.262
 30
0.000000
  70
    32
  0
VERTEX
  8
AM_0
  5
1C844
 10
376.866
 20
628.268
 30
0.000000
  70
    32
  0
VERTEX
  8
AM_0
  5
1C845
 10
376.881
 20
628.275
 30
0.000000
  70
    32
  0
VERTEX
  8
AM_0
  5
1C846
 10
376.897
 20
628.281
 30
0.000000
  70
    32
  0
VERTEX
  8
AM_0
  5
1C847
 10
376.913
 20
628.287
 30
0.000000
  70
    32
  0
VERTEX
  8
AM_0
  5
1C848
 10
376.929
 20
628.294
 30
0.000000
  70
    32
  0
VERTEX
  8
AM_0
  5
1C849
 10
376.944
 20
628.300
 30
0.000000
  70
    32
  0
VERTEX
  8
AM_0
  5
1C84A
 10
376.960
 20
628.306
 30
0.000000
  70
    32
  0
VERTEX
  8
AM_0
  5
1C84B
 10
376.976
 20
628.312
 30
0.000000
  70
    32
  0
VERTEX
  8
AM_0
  5
1C84C
 10
376.992
 20
628.318
 30
0.000000
  70
    32
  0
VERTEX
  8
AM_0
  5
1C84D
 10
377.008
 20
628.323
 30
0.000000
  70
    32
  0
VERTEX
  8
AM_0
  5
1C84E
 10
377.024
 20
628.329
 30
0.000000
  70
    32
  0
VERTEX
  8
AM_0
  5
1C84F
 10
377.040
 20
628.335
 30
0.000000
  70
    32
  0
VERTEX
  8
AM_0
  5
1C850
 10
377.056
 20
628.340
 30
0.000000
  70
    32
  0
VERTEX
  8
AM_0
  5
1C851
 10
377.072
 20
628.345
 30
0.000000
  70
    32
  0
VERTEX
  8
AM_0
  5
1C852
 10
377.088
 20
628.351
 30
0.000000
  70
    32
  0
VERTEX
  8
AM_0
  5
1C853
 10
377.104
 20
628.356
 30
0.000000
  70
    32
  0
VERTEX
  8
AM_0
  5
1C854
 10
377.120
 20
628.361
 30
0.000000
  70
    32
  0
VERTEX
  8
AM_0
  5
1C855
 10
377.136
 20
628.366
 30
0.000000
  70
    32
  0
VERTEX
  8
AM_0
  5
1C856
 10
377.153
 20
628.371
 30
0.000000
  70
    32
  0
VERTEX
  8
AM_0
  5
1C857
 10
377.169
 20
628.376
 30
0.000000
  70
    32
  0
VERTEX
  8
AM_0
  5
1C858
 10
377.185
 20
628.381
 30
0.000000
  70
    32
  0
VERTEX
  8
AM_0
  5
1C859
 10
377.201
 20
628.385
 30
0.000000
  70
    32
  0
VERTEX
  8
AM_0
  5
1C85A
 10
377.218
 20
628.390
 30
0.000000
  70
    32
  0
VERTEX
  8
AM_0
  5
1C85B
 10
377.234
 20
628.394
 30
0.000000
  70
    32
  0
VERTEX
  8
AM_0
  5
1C85C
 10
377.250
 20
628.399
 30
0.000000
  70
    32
  0
VERTEX
  8
AM_0
  5
1C85D
 10
377.267
 20
628.403
 30
0.000000
  70
    32
  0
VERTEX
  8
AM_0
  5
1C85E
 10
377.283
 20
628.407
 30
0.000000
  70
    32
  0
VERTEX
  8
AM_0
  5
1C85F
 10
377.300
 20
628.411
 30
0.000000
  70
    32
  0
VERTEX
  8
AM_0
  5
1C860
 10
377.316
 20
628.416
 30
0.000000
  70
    32
  0
VERTEX
  8
AM_0
  5
1C861
 10
377.333
 20
628.419
 30
0.000000
  70
    32
  0
VERTEX
  8
AM_0
  5
1C862
 10
377.349
 20
628.423
 30
0.000000
  70
    32
  0
VERTEX
  8
AM_0
  5
1C863
 10
377.366
 20
628.427
 30
0.000000
  70
    32
  0
VERTEX
  8
AM_0
  5
1C864
 10
377.382
 20
628.431
 30
0.000000
  70
    32
  0
VERTEX
  8
AM_0
  5
1C865
 10
377.399
 20
628.434
 30
0.000000
  70
    32
  0
VERTEX
  8
AM_0
  5
1C866
 10
377.415
 20
628.438
 30
0.000000
  70
    32
  0
VERTEX
  8
AM_0
  5
1C867
 10
377.432
 20
628.441
 30
0.000000
  70
    32
  0
VERTEX
  8
AM_0
  5
1C868
 10
377.448
 20
628.444
 30
0.000000
  70
    32
  0
VERTEX
  8
AM_0
  5
1C869
 10
377.465
 20
628.448
 30
0.000000
  70
    32
  0
VERTEX
  8
AM_0
  5
1C86A
 10
377.482
 20
628.451
 30
0.000000
  70
    32
  0
VERTEX
  8
AM_0
  5
1C86B
 10
377.498
 20
628.454
 30
0.000000
  70
    32
  0
VERTEX
  8
AM_0
  5
1C86C
 10
377.515
 20
628.457
 30
0.000000
  70
    32
  0
VERTEX
  8
AM_0
  5
1C86D
 10
377.532
 20
628.459
 30
0.000000
  70
    32
  0
VERTEX
  8
AM_0
  5
1C86E
 10
377.549
 20
628.462
 30
0.000000
  70
    32
  0
VERTEX
  8
AM_0
  5
1C86F
 10
377.565
 20
628.465
 30
0.000000
  70
    32
  0
VERTEX
  8
AM_0
  5
1C870
 10
377.582
 20
628.467
 30
0.000000
  70
    32
  0
VERTEX
  8
AM_0
  5
1C871
 10
377.599
 20
628.470
 30
0.000000
  70
    32
  0
VERTEX
  8
AM_0
  5
1C872
 10
377.616
 20
628.472
 30
0.000000
  70
    32
  0
VERTEX
  8
AM_0
  5
1C873
 10
377.632
 20
628.474
 30
0.000000
  70
    32
  0
VERTEX
  8
AM_0
  5
1C874
 10
377.649
 20
628.476
 30
0.000000
  70
    32
  0
VERTEX
  8
AM_0
  5
1C875
 10
377.666
 20
628.478
 30
0.000000
  70
    32
  0
VERTEX
  8
AM_0
  5
1C876
 10
377.683
 20
628.480
 30
0.000000
  70
    32
  0
VERTEX
  8
AM_0
  5
1C877
 10
377.700
 20
628.482
 30
0.000000
  70
    32
  0
VERTEX
  8
AM_0
  5
1C878
 10
377.717
 20
628.484
 30
0.000000
  70
    32
  0
VERTEX
  8
AM_0
  5
1C879
 10
377.733
 20
628.486
 30
0.000000
  70
    32
  0
VERTEX
  8
AM_0
  5
1C87A
 10
377.750
 20
628.487
 30
0.000000
  70
    32
  0
VERTEX
  8
AM_0
  5
1C87B
 10
377.767
 20
628.489
 30
0.000000
  70
    32
  0
VERTEX
  8
AM_0
  5
1C87C
 10
377.784
 20
628.490
 30
0.000000
  70
    32
  0
VERTEX
  8
AM_0
  5
1C87D
 10
377.801
 20
628.491
 30
0.000000
  70
    32
  0
VERTEX
  8
AM_0
  5
1C87E
 10
377.818
 20
628.493
 30
0.000000
  70
    32
  0
VERTEX
  8
AM_0
  5
1C87F
 10
377.835
 20
628.494
 30
0.000000
  70
    32
  0
VERTEX
  8
AM_0
  5
1C880
 10
377.852
 20
628.495
 30
0.000000
  70
    32
  0
VERTEX
  8
AM_0
  5
1C881
 10
377.869
 20
628.496
 30
0.000000
  70
    32
  0
VERTEX
  8
AM_0
  5
1C882
 10
377.885
 20
628.496
 30
0.000000
  70
    32
  0
VERTEX
  8
AM_0
  5
1C883
 10
377.902
 20
628.497
 30
0.000000
  70
    32
  0
VERTEX
  8
AM_0
  5
1C884
 10
377.919
 20
628.498
 30
0.000000
  70
    32
  0
VERTEX
  8
AM_0
  5
1C885
 10
377.936
 20
628.498
 30
0.000000
  70
    32
  0
VERTEX
  8
AM_0
  5
1C886
 10
377.953
 20
628.499
 30
0.000000
  70
    32
  0
VERTEX
  8
AM_0
  5
1C887
 10
377.970
 20
628.499
 30
0.000000
  70
    32
  0
VERTEX
  8
AM_0
  5
1C888
 10
377.987
 20
628.499
 30
0.000000
  70
    32
  0
VERTEX
  8
AM_0
  5
1C889
 10
378.004
 20
628.499
 30
0.000000
  70
    32
  0
VERTEX
  8
AM_0
  5
1C88A
 10
378.021
 20
628.499
 30
0.000000
  70
    32
  0
SEQEND
  8
AM_0
  5
1C88B
  0
POLYLINE
  5
1B18A
  8
AM_0
 10
376.03658456735087
 20
627.74945211943975
 30
0.0
 66
     1
 70
     8
  0
VERTEX
  8
AM_0
  5
1C88C
 10
376.037
 20
627.749
 30
0.000000
  70
    32
  0
VERTEX
  8
AM_0
  5
1C88D
 10
376.024
 20
627.738
 30
0.000000
  70
    32
  0
VERTEX
  8
AM_0
  5
1C88E
 10
376.011
 20
627.727
 30
0.000000
  70
    32
  0
VERTEX
  8
AM_0
  5
1C88F
 10
375.998
 20
627.716
 30
0.000000
  70
    32
  0
VERTEX
  8
AM_0
  5
1C890
 10
375.985
 20
627.705
 30
0.000000
  70
    32
  0
VERTEX
  8
AM_0
  5
1C891
 10
375.972
 20
627.694
 30
0.000000
  70
    32
  0
VERTEX
  8
AM_0
  5
1C892
 10
375.959
 20
627.684
 30
0.000000
  70
    32
  0
VERTEX
  8
AM_0
  5
1C893
 10
375.946
 20
627.673
 30
0.000000
  70
    32
  0
VERTEX
  8
AM_0
  5
1C894
 10
375.933
 20
627.662
 30
0.000000
  70
    32
  0
VERTEX
  8
AM_0
  5
1C895
 10
375.920
 20
627.652
 30
0.000000
  70
    32
  0
VERTEX
  8
AM_0
  5
1C896
 10
375.906
 20
627.641
 30
0.000000
  70
    32
  0
VERTEX
  8
AM_0
  5
1C897
 10
375.893
 20
627.631
 30
0.000000
  70
    32
  0
VERTEX
  8
AM_0
  5
1C898
 10
375.880
 20
627.620
 30
0.000000
  70
    32
  0
VERTEX
  8
AM_0
  5
1C899
 10
375.866
 20
627.610
 30
0.000000
  70
    32
  0
VERTEX
  8
AM_0
  5
1C89A
 10
375.853
 20
627.600
 30
0.000000
  70
    32
  0
VERTEX
  8
AM_0
  5
1C89B
 10
375.839
 20
627.590
 30
0.000000
  70
    32
  0
VERTEX
  8
AM_0
  5
1C89C
 10
375.826
 20
627.580
 30
0.000000
  70
    32
  0
VERTEX
  8
AM_0
  5
1C89D
 10
375.812
 20
627.570
 30
0.000000
  70
    32
  0
VERTEX
  8
AM_0
  5
1C89E
 10
375.798
 20
627.560
 30
0.000000
  70
    32
  0
VERTEX
  8
AM_0
  5
1C89F
 10
375.784
 20
627.550
 30
0.000000
  70
    32
  0
VERTEX
  8
AM_0
  5
1C8A0
 10
375.770
 20
627.540
 30
0.000000
  70
    32
  0
VERTEX
  8
AM_0
  5
1C8A1
 10
375.756
 20
627.531
 30
0.000000
  70
    32
  0
VERTEX
  8
AM_0
  5
1C8A2
 10
375.743
 20
627.521
 30
0.000000
  70
    32
  0
VERTEX
  8
AM_0
  5
1C8A3
 10
375.728
 20
627.511
 30
0.000000
  70
    32
  0
VERTEX
  8
AM_0
  5
1C8A4
 10
375.714
 20
627.502
 30
0.000000
  70
    32
  0
VERTEX
  8
AM_0
  5
1C8A5
 10
375.700
 20
627.493
 30
0.000000
  70
    32
  0
VERTEX
  8
AM_0
  5
1C8A6
 10
375.686
 20
627.483
 30
0.000000
  70
    32
  0
VERTEX
  8
AM_0
  5
1C8A7
 10
375.672
 20
627.474
 30
0.000000
  70
    32
  0
VERTEX
  8
AM_0
  5
1C8A8
 10
375.658
 20
627.465
 30
0.000000
  70
    32
  0
VERTEX
  8
AM_0
  5
1C8A9
 10
375.643
 20
627.456
 30
0.000000
  70
    32
  0
VERTEX
  8
AM_0
  5
1C8AA
 10
375.629
 20
627.447
 30
0.000000
  70
    32
  0
VERTEX
  8
AM_0
  5
1C8AB
 10
375.614
 20
627.438
 30
0.000000
  70
    32
  0
VERTEX
  8
AM_0
  5
1C8AC
 10
375.600
 20
627.429
 30
0.000000
  70
    32
  0
VERTEX
  8
AM_0
  5
1C8AD
 10
375.585
 20
627.421
 30
0.000000
  70
    32
  0
VERTEX
  8
AM_0
  5
1C8AE
 10
375.571
 20
627.412
 30
0.000000
  70
    32
  0
VERTEX
  8
AM_0
  5
1C8AF
 10
375.556
 20
627.404
 30
0.000000
  70
    32
  0
VERTEX
  8
AM_0
  5
1C8B0
 10
375.542
 20
627.395
 30
0.000000
  70
    32
  0
VERTEX
  8
AM_0
  5
1C8B1
 10
375.527
 20
627.387
 30
0.000000
  70
    32
  0
VERTEX
  8
AM_0
  5
1C8B2
 10
375.512
 20
627.379
 30
0.000000
  70
    32
  0
VERTEX
  8
AM_0
  5
1C8B3
 10
375.497
 20
627.370
 30
0.000000
  70
    32
  0
VERTEX
  8
AM_0
  5
1C8B4
 10
375.482
 20
627.362
 30
0.000000
  70
    32
  0
VERTEX
  8
AM_0
  5
1C8B5
 10
375.467
 20
627.354
 30
0.000000
  70
    32
  0
VERTEX
  8
AM_0
  5
1C8B6
 10
375.452
 20
627.346
 30
0.000000
  70
    32
  0
VERTEX
  8
AM_0
  5
1C8B7
 10
375.437
 20
627.338
 30
0.000000
  70
    32
  0
VERTEX
  8
AM_0
  5
1C8B8
 10
375.422
 20
627.331
 30
0.000000
  70
    32
  0
VERTEX
  8
AM_0
  5
1C8B9
 10
375.407
 20
627.323
 30
0.000000
  70
    32
  0
VERTEX
  8
AM_0
  5
1C8BA
 10
375.392
 20
627.315
 30
0.000000
  70
    32
  0
VERTEX
  8
AM_0
  5
1C8BB
 10
375.377
 20
627.308
 30
0.000000
  70
    32
  0
VERTEX
  8
AM_0
  5
1C8BC
 10
375.362
 20
627.300
 30
0.000000
  70
    32
  0
VERTEX
  8
AM_0
  5
1C8BD
 10
375.347
 20
627.293
 30
0.000000
  70
    32
  0
VERTEX
  8
AM_0
  5
1C8BE
 10
375.331
 20
627.286
 30
0.000000
  70
    32
  0
VERTEX
  8
AM_0
  5
1C8BF
 10
375.316
 20
627.279
 30
0.000000
  70
    32
  0
VERTEX
  8
AM_0
  5
1C8C0
 10
375.300
 20
627.271
 30
0.000000
  70
    32
  0
VERTEX
  8
AM_0
  5
1C8C1
 10
375.285
 20
627.264
 30
0.000000
  70
    32
  0
VERTEX
  8
AM_0
  5
1C8C2
 10
375.270
 20
627.258
 30
0.000000
  70
    32
  0
VERTEX
  8
AM_0
  5
1C8C3
 10
375.254
 20
627.251
 30
0.000000
  70
    32
  0
VERTEX
  8
AM_0
  5
1C8C4
 10
375.239
 20
627.244
 30
0.000000
  70
    32
  0
VERTEX
  8
AM_0
  5
1C8C5
 10
375.223
 20
627.237
 30
0.000000
  70
    32
  0
VERTEX
  8
AM_0
  5
1C8C6
 10
375.207
 20
627.231
 30
0.000000
  70
    32
  0
VERTEX
  8
AM_0
  5
1C8C7
 10
375.192
 20
627.224
 30
0.000000
  70
    32
  0
VERTEX
  8
AM_0
  5
1C8C8
 10
375.176
 20
627.218
 30
0.000000
  70
    32
  0
VERTEX
  8
AM_0
  5
1C8C9
 10
375.160
 20
627.212
 30
0.000000
  70
    32
  0
VERTEX
  8
AM_0
  5
1C8CA
 10
375.145
 20
627.205
 30
0.000000
  70
    32
  0
VERTEX
  8
AM_0
  5
1C8CB
 10
375.129
 20
627.199
 30
0.000000
  70
    32
  0
VERTEX
  8
AM_0
  5
1C8CC
 10
375.113
 20
627.193
 30
0.000000
  70
    32
  0
VERTEX
  8
AM_0
  5
1C8CD
 10
375.097
 20
627.187
 30
0.000000
  70
    32
  0
VERTEX
  8
AM_0
  5
1C8CE
 10
375.081
 20
627.181
 30
0.000000
  70
    32
  0
VERTEX
  8
AM_0
  5
1C8CF
 10
375.065
 20
627.176
 30
0.000000
  70
    32
  0
VERTEX
  8
AM_0
  5
1C8D0
 10
375.049
 20
627.170
 30
0.000000
  70
    32
  0
VERTEX
  8
AM_0
  5
1C8D1
 10
375.033
 20
627.164
 30
0.000000
  70
    32
  0
VERTEX
  8
AM_0
  5
1C8D2
 10
375.017
 20
627.159
 30
0.000000
  70
    32
  0
VERTEX
  8
AM_0
  5
1C8D3
 10
375.001
 20
627.153
 30
0.000000
  70
    32
  0
VERTEX
  8
AM_0
  5
1C8D4
 10
374.985
 20
627.148
 30
0.000000
  70
    32
  0
VERTEX
  8
AM_0
  5
1C8D5
 10
374.969
 20
627.143
 30
0.000000
  70
    32
  0
VERTEX
  8
AM_0
  5
1C8D6
 10
374.953
 20
627.138
 30
0.000000
  70
    32
  0
VERTEX
  8
AM_0
  5
1C8D7
 10
374.937
 20
627.133
 30
0.000000
  70
    32
  0
VERTEX
  8
AM_0
  5
1C8D8
 10
374.921
 20
627.128
 30
0.000000
  70
    32
  0
VERTEX
  8
AM_0
  5
1C8D9
 10
374.904
 20
627.123
 30
0.000000
  70
    32
  0
VERTEX
  8
AM_0
  5
1C8DA
 10
374.888
 20
627.118
 30
0.000000
  70
    32
  0
VERTEX
  8
AM_0
  5
1C8DB
 10
374.872
 20
627.114
 30
0.000000
  70
    32
  0
VERTEX
  8
AM_0
  5
1C8DC
 10
374.855
 20
627.109
 30
0.000000
  70
    32
  0
VERTEX
  8
AM_0
  5
1C8DD
 10
374.839
 20
627.104
 30
0.000000
  70
    32
  0
VERTEX
  8
AM_0
  5
1C8DE
 10
374.823
 20
627.100
 30
0.000000
  70
    32
  0
VERTEX
  8
AM_0
  5
1C8DF
 10
374.806
 20
627.096
 30
0.000000
  70
    32
  0
VERTEX
  8
AM_0
  5
1C8E0
 10
374.790
 20
627.092
 30
0.000000
  70
    32
  0
VERTEX
  8
AM_0
  5
1C8E1
 10
374.774
 20
627.087
 30
0.000000
  70
    32
  0
VERTEX
  8
AM_0
  5
1C8E2
 10
374.757
 20
627.083
 30
0.000000
  70
    32
  0
VERTEX
  8
AM_0
  5
1C8E3
 10
374.741
 20
627.079
 30
0.000000
  70
    32
  0
VERTEX
  8
AM_0
  5
1C8E4
 10
374.724
 20
627.076
 30
0.000000
  70
    32
  0
VERTEX
  8
AM_0
  5
1C8E5
 10
374.708
 20
627.072
 30
0.000000
  70
    32
  0
VERTEX
  8
AM_0
  5
1C8E6
 10
374.691
 20
627.068
 30
0.000000
  70
    32
  0
VERTEX
  8
AM_0
  5
1C8E7
 10
374.674
 20
627.065
 30
0.000000
  70
    32
  0
VERTEX
  8
AM_0
  5
1C8E8
 10
374.658
 20
627.061
 30
0.000000
  70
    32
  0
VERTEX
  8
AM_0
  5
1C8E9
 10
374.641
 20
627.058
 30
0.000000
  70
    32
  0
VERTEX
  8
AM_0
  5
1C8EA
 10
374.625
 20
627.055
 30
0.000000
  70
    32
  0
VERTEX
  8
AM_0
  5
1C8EB
 10
374.608
 20
627.051
 30
0.000000
  70
    32
  0
VERTEX
  8
AM_0
  5
1C8EC
 10
374.591
 20
627.048
 30
0.000000
  70
    32
  0
VERTEX
  8
AM_0
  5
1C8ED
 10
374.575
 20
627.045
 30
0.000000
  70
    32
  0
VERTEX
  8
AM_0
  5
1C8EE
 10
374.558
 20
627.042
 30
0.000000
  70
    32
  0
VERTEX
  8
AM_0
  5
1C8EF
 10
374.541
 20
627.040
 30
0.000000
  70
    32
  0
VERTEX
  8
AM_0
  5
1C8F0
 10
374.525
 20
627.037
 30
0.000000
  70
    32
  0
VERTEX
  8
AM_0
  5
1C8F1
 10
374.508
 20
627.034
 30
0.000000
  70
    32
  0
VERTEX
  8
AM_0
  5
1C8F2
 10
374.491
 20
627.032
 30
0.000000
  70
    32
  0
VERTEX
  8
AM_0
  5
1C8F3
 10
374.474
 20
627.029
 30
0.000000
  70
    32
  0
VERTEX
  8
AM_0
  5
1C8F4
 10
374.458
 20
627.027
 30
0.000000
  70
    32
  0
VERTEX
  8
AM_0
  5
1C8F5
 10
374.441
 20
627.025
 30
0.000000
  70
    32
  0
VERTEX
  8
AM_0
  5
1C8F6
 10
374.424
 20
627.023
 30
0.000000
  70
    32
  0
VERTEX
  8
AM_0
  5
1C8F7
 10
374.407
 20
627.021
 30
0.000000
  70
    32
  0
VERTEX
  8
AM_0
  5
1C8F8
 10
374.390
 20
627.019
 30
0.000000
  70
    32
  0
VERTEX
  8
AM_0
  5
1C8F9
 10
374.374
 20
627.017
 30
0.000000
  70
    32
  0
VERTEX
  8
AM_0
  5
1C8FA
 10
374.357
 20
627.015
 30
0.000000
  70
    32
  0
VERTEX
  8
AM_0
  5
1C8FB
 10
374.340
 20
627.013
 30
0.000000
  70
    32
  0
VERTEX
  8
AM_0
  5
1C8FC
 10
374.323
 20
627.012
 30
0.000000
  70
    32
  0
VERTEX
  8
AM_0
  5
1C8FD
 10
374.306
 20
627.010
 30
0.000000
  70
    32
  0
VERTEX
  8
AM_0
  5
1C8FE
 10
374.289
 20
627.009
 30
0.000000
  70
    32
  0
VERTEX
  8
AM_0
  5
1C8FF
 10
374.272
 20
627.008
 30
0.000000
  70
    32
  0
VERTEX
  8
AM_0
  5
1C900
 10
374.255
 20
627.006
 30
0.000000
  70
    32
  0
VERTEX
  8
AM_0
  5
1C901
 10
374.238
 20
627.005
 30
0.000000
  70
    32
  0
VERTEX
  8
AM_0
  5
1C902
 10
374.222
 20
627.004
 30
0.000000
  70
    32
  0
VERTEX
  8
AM_0
  5
1C903
 10
374.205
 20
627.003
 30
0.000000
  70
    32
  0
VERTEX
  8
AM_0
  5
1C904
 10
374.188
 20
627.002
 30
0.000000
  70
    32
  0
VERTEX
  8
AM_0
  5
1C905
 10
374.171
 20
627.002
 30
0.000000
  70
    32
  0
VERTEX
  8
AM_0
  5
1C906
 10
374.154
 20
627.001
 30
0.000000
  70
    32
  0
VERTEX
  8
AM_0
  5
1C907
 10
374.137
 20
627.001
 30
0.000000
  70
    32
  0
VERTEX
  8
AM_0
  5
1C908
 10
374.120
 20
627.000
 30
0.000000
  70
    32
  0
VERTEX
  8
AM_0
  5
1C909
 10
374.103
 20
627.000
 30
0.000000
  70
    32
  0
VERTEX
  8
AM_0
  5
1C90A
 10
374.086
 20
627.000
 30
0.000000
  70
    32
  0
VERTEX
  8
AM_0
  5
1C90B
 10
374.069
 20
626.999
 30
0.000000
  70
    32
  0
VERTEX
  8
AM_0
  5
1C90C
 10
374.052
 20
626.999
 30
0.000000
  70
    32
  0
SEQEND
  8
AM_0
  5
1C90D
  0
LINE
  5
1B18B
  8
AM_0
 10
378.02089370775741
 20
628.4994664965327
 30
0.0
 11
378.40718477868631
 21
628.49946696488064
 31
0.0
  0
LINE
  5
1B18E
  8
AM_0
 10
479.55129792133317
 20
636.50088938363615
 30
0.0
 11
479.55129792133317
 21
641.50088953414775
 31
0.0
  0
LINE
  5
1B190
  8
ﾁｭｳｼﾝｾﾝ1
 10
529.55229911344975
 20
810.50089254438035
 30
0.0
 11
529.55229911344975
 21
538.1400959745913
 31
0.0
  0
LINE
  5
1B191
  8
AM_0
 10
602.92894091061248
 20
641.50088953414775
 30
0.0
 11
604.55230137112426
 21
734.50089254438024
 31
0.0
  0
LINE
  5
1B193
  8
AM_0
 10
579.55330030556627
 20
636.50088938363615
 30
0.0
 11
579.55330030556627
 21
639.00088953414786
 31
0.0
  0
LINE
  5
1B194
  8
0
 10
601.55200092408029
 20
639.00088953414786
 30
0.0
 11
577.55200092408018
 21
639.00088953414786
 31
0.0
  0
LINE
  5
1B195
  8
0
 10
598.55200092408018
 20
627.00088953414775
 30
0.0
 11
580.55200092408006
 21
627.00088953414775
 31
0.0
  0
LINE
  5
1B196
  8
0
 10
598.55200092408018
 20
639.00088953414786
 30
0.0
 11
598.55200092408018
 21
627.00088953414775
 31
0.0
  0
LINE
  5
1B197
  8
0
 10
601.55200092408029
 20
641.50088953414775
 30
0.0
 11
601.55200092408029
 21
639.00088953414786
 31
0.0
  0
LINE
  5
1B198
  8
0
 10
580.55200092408006
 20
627.00088953414775
 30
0.0
 11
580.55200092408006
 21
639.00088953414786
 31
0.0
  0
LINE
  5
1B199
  8
0
 10
577.55200092408018
 20
639.00088953414786
 30
0.0
 11
577.55200092408018
 21
641.50088953414775
 31
0.0
  0
LINE
  5
1B19A
  8
0
 10
426.55232616926139
 20
639.00088953414786
 30
0.0
 11
402.55232616926162
 21
639.00088953414786
 31
0.0
  0
LINE
  5
1B19B
  8
0
 10
423.55232616926162
 20
627.00088953414775
 30
0.0
 11
405.55232616926162
 21
627.00088953414775
 31
0.0
  0
LINE
  5
1B19C
  8
0
 10
423.55232616926162
 20
639.00088953414786
 30
0.0
 11
423.55232616926162
 21
627.00088953414775
 31
0.0
  0
LINE
  5
1B19D
  8
0
 10
426.55232616926139
 20
641.50088953414775
 30
0.0
 11
426.55232616926139
 21
639.00088953414786
 31
0.0
  0
LINE
  5
1B19E
  8
0
 10
405.55232616926162
 20
627.00088953414775
 30
0.0
 11
405.55232616926162
 21
639.00088953414786
 31
0.0
  0
LINE
  5
1B19F
  8
0
 10
402.55232616926162
 20
639.00088953414786
 30
0.0
 11
402.55232616926162
 21
641.50088953414775
 31
0.0
  0
LINE
  5
1B1A0
  8
AM_0
 10
944.84230008929296
 20
413.29434087633268
 30
0.0
 11
969.84230008929364
 21
413.29434087633268
 31
0.0
  0
LINE
  5
1B1A1
  8
AM_0
 10
944.84230008929296
 20
252.1074578376751
 30
0.0
 11
969.84230008929364
 21
252.1074578376751
 31
0.0
  0
LINE
  5
1B1A2
  8
AM_0
 10
397.5523257177266
 20
800.50089254437989
 30
0.0
 11
606.55230137112414
 21
800.50089254438012
 31
0.0
  0
LINE
  5
1B1A3
  8
AM_0
 10
398.30853265197561
 20
775.50089254437989
 30
0.0
 11
605.79335676847882
 21
775.50089254438024
 31
0.0
  0
LINE
  5
1B1A4
  8
AM_0
 10
604.54868762014053
 20
734.50089254438024
 30
0.0
 11
606.55230137112414
 21
800.50089254438012
 31
0.0
  0
LINE
  5
1B1A5
  8
AM_0
 10
399.54871202414392
 20
734.50089254438024
 30
0.0
 11
397.5523257177266
 21
800.50089254437989
 31
0.0
  0
LINE
  5
1B1A6
  8
AM_0
 10
583.91067953059951
 20
800.50089254438012
 30
0.0
 11
583.91067953059951
 21
775.50089254438024
 31
0.0
  0
LINE
  5
1B1A7
  8
ﾁｭｳｼﾝｾﾝ1
 10
574.55232797540168
 20
805.50089254438035
 30
0.0
 11
574.55232797540168
 21
770.50089254438024
 31
0.0
  0
LINE
  5
1B1A8
  8
AM_0
 10
420.19394755825152
 20
800.50089254438046
 30
0.0
 11
420.19394755825152
 21
775.50089254438024
 31
0.0
  0
LINE
  5
1B1A9
  8
ﾁｭｳｼﾝｾﾝ1
 10
429.55229911344901
 20
805.50089254438035
 30
0.0
 11
429.55229911344901
 21
770.50089254438024
 31
0.0
  0
LINE
  5
1B1AC
  8
0
 10
513.55229911344975
 20
545.50089131018456
 30
0.0
 11
513.55229911344975
 21
603.50089131018467
 31
0.0
  0
LINE
  5
1B1AD
  8
0
 10
545.55229911344986
 20
545.50089131018456
 30
0.0
 11
545.55229911344986
 21
603.50089131018467
 31
0.0
  0
LINE
  5
1B1AE
  8
AM_0
 10
545.55229911344986
 20
545.50089131018456
 30
0.0
 11
513.55229911344975
 21
545.50089131018456
 31
0.0
  0
LINE
  5
1B1AF
  8
0
 10
549.55229911344986
 20
603.50089131018467
 30
0.0
 11
554.55229986600716
 21
631.50088923312524
 31
0.0
  0
LINE
  5
1B1B0
  8
AM_0
 10
504.55229836089097
 20
631.50088923312524
 30
0.0
 11
554.55229986600716
 21
631.50088923312524
 31
0.0
  0
LINE
  5
1B1B1
  8
AM_0
 10
554.55229986600716
 20
636.50088938363683
 30
0.0
 11
554.55229986600716
 21
631.50088923312524
 31
0.0
  0
LINE
  5
1B1B2
  8
0
 10
509.55229911344969
 20
603.50089131018467
 30
0.0
 11
504.55229836089097
 21
631.50088923312524
 31
0.0
  0
LINE
  5
1B1B3
  8
0
 10
509.55229911344969
 20
603.50089131018467
 30
0.0
 11
549.55229911344986
 21
603.50089131018467
 31
0.0
  0
LINE
  5
1B1B5
  8
AM_0
 10
504.55229836089097
 20
636.50088938363683
 30
0.0
 11
504.55229836089097
 21
631.50088923312524
 31
0.0
  0
LINE
  5
1B22A
  8
AM_0
 10
534.55229911344975
 20
545.50089131018456
 30
0.0
 11
534.55229911344975
 21
590.50089131018501
 31
0.0
  0
LINE
  5
1B230
  8
AM_0
 10
524.55229911344986
 20
545.50089131018456
 30
0.0
 11
524.55229911344986
 21
590.50089131018501
 31
0.0
  0
LINE
  5
1B231
  8
AM_0
 10
524.55229911344986
 20
590.50089131018501
 30
0.0
 11
534.55229911344975
 21
590.50089131018501
 31
0.0
  0
ARC
  5
1B232
  8
AM_0
 10
529.55229911344975
 20
590.50089131018501
 30
0.0
 40
5.0
 50
0.0
 51
180.0
  0
ARC
  5
1BC1D
  8
ｶｸﾚｾﾝ2
 10
266.73687678645092
 20
665.68446496551314
 30
0.0
 40
5.600000999999998
 50
180.00005700000179
 51
266.1630369999973
  0
ARC
  5
1BC1E
  8
ｶｸﾚｾﾝ2
 10
306.55227178645077
 20
1259.3508399655129
 30
0.0
 40
600.59997599999986
 50
266.16305400000141
 51
273.96601299999787
  0
ARC
  5
1BC1F
  8
ｶｸﾚｾﾝ2
 10
347.84637778645077
 20
663.78066396551355
 30
0.0
 40
3.6000059999999978
 50
273.96599899999779
 51
0.0000179999992061
  0
LINE
  5
1BC20
  8
ｶｸﾚｾﾝ2
 10
351.44636778645082
 20
663.77018296551353
 30
0.0
 11
351.44636778645082
 21
737.22872596551315
 31
0.0
  0
ARC
  5
1BC21
  8
ｶｸﾚｾﾝ2
 10
347.84637778645077
 20
737.22086496551333
 30
0.0
 40
3.5999989999999982
 50
0.0000179999992061
 51
86.033744000000837
  0
ARC
  5
1BC22
  8
ｶｸﾚｾﾝ2
 10
306.55227178645077
 20
141.6508879655135
 30
0.0
 40
600.59997599999986
 50
86.033760000003895
 51
93.836910000000643
  0
LINE
  5
1BC23
  8
ｶｸﾚｾﾝ2
 10
261.13687378645068
 20
735.31726396551335
 30
0.0
 11
261.13687378645068
 21
665.68445996551361
 31
0.0
  0
ARC
  5
1BC24
  8
ｶｸﾚｾﾝ2
 10
266.73687678645092
 20
735.31726296551335
 30
0.0
 40
5.5999980000000003
 50
93.837062000007137
 51
179.99998200000081
  0
ARC
  5
1BC2A
  8
AM_0
 10
805.84227109023641
 20
370.83552935700442
 30
0.0
 40
1.0
 50
329.21124799999711
 51
0.0
  0
ARC
  5
1BC2D
  8
0
  6
CONTINUOUS
 62
     0
 10
354.05232570677742
 20
270.6620913570045
 30
0.0
 40
1.0
 50
180.0
 51
270.0
  0
ARC
  5
1BC2E
  8
AM_0
 10
354.05232570677742
 20
394.73970735700459
 30
0.0
 40
1.0
 50
90.0
 51
180.0
  0
ARC
  5
1BC2F
  8
AM_0
 10
350.22865278645082
 20
775.3970289655133
 30
0.0
 40
2.0
 50
14.999997000001709
 51
90.0
  0
ARC
  5
1BC30
  8
AM_0
 10
352.04389678645072
 20
767.0008639655133
 30
0.0
 40
2.0
 50
15.000000000000741
 51
90.0
  0
LINE
  5
1BC31
  8
AM_0
 10
353.05227178645077
 20
773.0008639655133
 30
0.0
 11
353.05227178645077
 21
772.58654696551332
 31
0.0
  0
ARC
  5
1BC32
  8
AM_0
 10
354.04977478645083
 20
773.00336096551325
 30
0.0
 40
0.9975059999999999
 50
89.856577999996389
 51
180.14342199999709
  0
LINE
  5
1BC33
  8
AM_0
 10
353.05227178645077
 20
773.00585796551366
 30
0.0
 11
353.05227178645077
 21
773.0008639655133
 31
0.0
  0
LINE
  5
1BC34
  8
AM_0
 10
352.96471578645082
 20
772.91330796551335
 30
0.0
 11
353.05227178645077
 21
773.0008639655133
 31
0.0
  0
LINE
  5
1BC35
  8
AM_0
 10
355.05227178645077
 20
763.5008639655133
 30
0.0
 11
353.97574878645082
 21
767.51850196551356
 31
0.0
  0
LINE
  5
1BC36
  8
AM_0
 10
354.05227178645077
 20
774.00086396551319
 30
0.0
 11
363.05227178645077
 21
774.00086396551319
 31
0.0
  0
LINE
  5
1BC37
  8
AM_0
 10
355.05227178645077
 20
765.12244496551364
 30
0.0
 11
352.1605047864507
 21
775.91466696551356
 31
0.0
  0
ARC
  5
1BC38
  8
AM_0
 10
354.05227178645077
 20
762.5008639655133
 30
0.0
 40
1.0
 50
90.0
 51
180.0
  0
ARC
  5
1BC39
  8
AM_0
 10
284.05227178645077
 20
778.36306196551334
 30
0.0
 40
2.0
 50
0.0
 51
90.0
  0
ARC
  5
1BC3A
  8
AM_0
 10
284.05227178645077
 20
777.93578396551334
 30
0.0
 40
2.0
 50
0.0
 51
90.0
  0
ARC
  5
1BC3B
  8
AM_0
 10
284.05227178645077
 20
776.93043296551355
 30
0.0
 40
2.0
 50
13.49131100000081
 51
90.0
  0
LINE
  5
1BC3C
  8
AM_0
 10
286.05227178645077
 20
778.36306196551334
 30
0.0
 11
286.05227178645077
 21
777.3970289655133
 31
0.0
  0
ARC
  5
1BC3D
  8
AM_0
 10
203.0522717864508
 20
778.36306196551334
 30
0.0
 40
2.0
 50
90.0
 51
180.0
  0
LINE
  5
1BC3E
  8
AM_0
 10
201.0522717864508
 20
776.38521996551333
 30
0.0
 11
201.0522717864508
 21
776.93043296551355
 31
0.0
  0
ARC
  5
1BC3F
  8
AM_0
 10
202.90172178645071
 20
777.93578396551334
 30
0.0
 40
2.0
 50
90.0
 51
164.23045299999831
  0
ARC
  5
1BC40
  8
AM_0
 10
199.05227178645069
 20
779.02285896551359
 30
0.0
 40
2.0
 50
270.0
 51
344.23045299999831
  0
ARC
  5
1BC41
  8
AM_0
 10
203.0522717864508
 20
776.93043296551355
 30
0.0
 40
2.0
 50
90.0
 51
180.0
  0
ARC
  5
1BC42
  8
AM_0
 10
199.05227178645069
 20
776.38521996551333
 30
0.0
 40
2.0
 50
270.0
 51
0.0
  0
ARC
  5
1BC43
  8
AM_0
 10
203.0522717864508
 20
775.3970289655133
 30
0.0
 40
2.0
 50
90.0
 51
180.0
  0
ARC
  5
1BC44
  8
AM_0
 10
199.05227178645069
 20
772.02923096551365
 30
0.0
 40
2.0
 50
270.0
 51
0.0
  0
LINE
  5
1BC45
  8
AM_0
 10
201.0522717864508
 20
772.02923096551365
 30
0.0
 11
201.0522717864508
 21
775.3970289655133
 31
0.0
  0
ARC
  5
1BC46
  8
AM_0
 10
199.05227178645069
 20
753.4019139655137
 30
0.0
 40
2.0
 50
270.0
 51
0.0
  0
LINE
  5
1BC47
  8
AM_0
 10
201.0522717864508
 20
765.85678296551362
 30
0.0
 11
201.0522717864508
 21
753.4019139655137
 31
0.0
  0
ARC
  5
1BC48
  8
AM_0
 10
203.0522717864508
 20
767.0008639655133
 30
0.0
 40
2.0
 50
90.0
 51
180.0
  0
ARC
  5
1BC49
  8
AM_0
 10
199.05227178645069
 20
765.85678296551362
 30
0.0
 40
2.0
 50
270.0
 51
0.0
  0
LINE
  5
1BC4A
  8
AM_0
 10
201.0522717864508
 20
765.85678296551362
 30
0.0
 11
201.0522717864508
 21
767.0008639655133
 31
0.0
  0
LINE
  5
1BC4B
  8
AM_0
 10
199.05227178645069
 20
777.02285896551325
 30
0.0
 11
193.5462607864506
 21
777.02285896551325
 31
0.0
  0
LINE
  5
1BC4C
  8
AM_0
 10
199.05227178645069
 20
774.38521996551333
 30
0.0
 11
193.5462607864506
 21
774.38521996551333
 31
0.0
  0
LINE
  5
1BC4D
  8
AM_0
 10
199.05227178645069
 20
770.02923096551365
 30
0.0
 11
193.5462607864506
 21
770.02923096551365
 31
0.0
  0
LINE
  5
1BC4E
  8
AM_0
 10
199.05227178645069
 20
763.85678296551362
 30
0.0
 11
193.5462607864506
 21
763.85678296551362
 31
0.0
  0
LINE
  5
1BC4F
  8
AM_0
 10
203.0522717864508
 20
780.36306196551357
 30
0.0
 11
284.05227178645077
 21
780.36306196551357
 31
0.0
  0
LINE
  5
1BC50
  8
AM_0
 10
202.90172178645071
 20
779.93578396551334
 30
0.0
 11
284.05227178645077
 21
779.93578396551334
 31
0.0
  0
LINE
  5
1BC51
  8
AM_0
 10
203.0522717864508
 20
778.93043296551355
 30
0.0
 11
284.05227178645077
 21
778.93043296551355
 31
0.0
  0
LINE
  5
1BC52
  8
AM_0
 10
203.0522717864508
 20
777.3970289655133
 30
0.0
 11
350.22865278645082
 21
777.3970289655133
 31
0.0
  0
LINE
  5
1BC53
  8
AM_0
 10
203.0522717864508
 20
769.0008639655133
 30
0.0
 11
352.04389678645072
 21
769.0008639655133
 31
0.0
  0
LINE
  5
1BC54
  8
AM_0
 10
193.5462607864506
 20
751.40191396551381
 30
0.0
 11
351.55227178645077
 21
751.40191396551381
 31
0.0
  0
ARC
  5
1BC55
  8
AM_0
 10
352.04389678645072
 20
634.00086396551353
 30
0.0
 40
2.0
 50
270.0
 51
344.99999999999932
  0
ARC
  5
1BC56
  8
AM_0
 10
354.04977478645083
 20
627.99836696551358
 30
0.0
 40
0.9975059999999999
 50
179.85657800000291
 51
270.14342199999061
  0
LINE
  5
1BC57
  8
AM_0
 10
352.96471578645082
 20
628.08841996551325
 30
0.0
 11
353.05227178645077
 21
628.00086396551353
 31
0.0
  0
LINE
  5
1BC58
  8
AM_0
 10
353.05227178645077
 20
627.99586996551341
 30
0.0
 11
353.05227178645077
 21
628.00086396551353
 31
0.0
  0
LINE
  5
1BC59
  8
AM_0
 10
353.05227178645077
 20
628.00086396551353
 30
0.0
 11
353.05227178645077
 21
628.41518096551351
 31
0.0
  0
ARC
  5
1BC5A
  8
AM_0
 10
350.22865278645082
 20
625.60469896551365
 30
0.0
 40
2.0
 50
270.0
 51
345.0000029999984
  0
LINE
  5
1BC5B
  8
AM_0
 10
354.05227178645077
 20
627.00086396551353
 30
0.0
 11
363.05227178645077
 21
627.00086396551353
 31
0.0
  0
LINE
  5
1BC5C
  8
AM_0
 10
355.05227178645077
 20
637.50086396551353
 30
0.0
 11
353.97574878645082
 21
633.4832259655135
 31
0.0
  0
LINE
  5
1BC5D
  8
AM_0
 10
355.05227178645077
 20
635.87928296551343
 30
0.0
 11
352.1605047864507
 21
625.08706096551339
 31
0.0
  0
ARC
  5
1BC5E
  8
AM_0
 10
354.05227178645077
 20
638.50086396551353
 30
0.0
 40
1.0
 50
180.0
 51
270.0
  0
LINE
  5
1BC5F
  8
AM_0
 10
203.0522717864508
 20
622.07129496551318
 30
0.0
 11
284.05227178645077
 21
622.07129496551318
 31
0.0
  0
LINE
  5
1BC60
  8
AM_0
 10
202.90172178645071
 20
621.06594396551361
 30
0.0
 11
284.05227178645077
 21
621.06594396551361
 31
0.0
  0
LINE
  5
1BC61
  8
AM_0
 10
203.0522717864508
 20
620.6386659655135
 30
0.0
 11
284.05227178645077
 21
620.6386659655135
 31
0.0
  0
LINE
  5
1BC62
  8
AM_0
 10
201.0522717864508
 20
635.14494496551345
 30
0.0
 11
201.0522717864508
 21
634.00086396551353
 31
0.0
  0
ARC
  5
1BC63
  8
AM_0
 10
199.05227178645069
 20
635.14494496551345
 30
0.0
 40
2.0
 50
0.0
 51
90.0
  0
ARC
  5
1BC64
  8
AM_0
 10
203.0522717864508
 20
634.00086396551353
 30
0.0
 40
2.0
 50
180.0
 51
270.0
  0
LINE
  5
1BC65
  8
AM_0
 10
201.0522717864508
 20
635.14494496551345
 30
0.0
 11
201.0522717864508
 21
647.59981396551325
 31
0.0
  0
ARC
  5
1BC66
  8
AM_0
 10
199.05227178645069
 20
647.59981396551325
 30
0.0
 40
2.0
 50
0.0
 51
90.0
  0
ARC
  5
1BC67
  8
AM_0
 10
199.05227178645069
 20
621.97886896551347
 30
0.0
 40
2.0
 50
15.769547000001671
 51
90.0
  0
ARC
  5
1BC68
  8
AM_0
 10
199.05227178645069
 20
624.61650796551373
 30
0.0
 40
2.0
 50
0.0
 51
90.0
  0
ARC
  5
1BC69
  8
AM_0
 10
199.05227178645069
 20
628.97249696551341
 30
0.0
 40
2.0
 50
0.0
 51
90.0
  0
LINE
  5
1BC6A
  8
AM_0
 10
201.0522717864508
 20
628.97249696551341
 30
0.0
 11
201.0522717864508
 21
625.60469896551365
 31
0.0
  0
ARC
  5
1BC6B
  8
AM_0
 10
203.0522717864508
 20
625.60469896551365
 30
0.0
 40
2.0
 50
180.0
 51
270.0
  0
ARC
  5
1BC6C
  8
AM_0
 10
203.0522717864508
 20
624.0712949655134
 30
0.0
 40
2.0
 50
180.0
 51
270.0
  0
ARC
  5
1BC6D
  8
AM_0
 10
202.90172178645071
 20
623.06594396551361
 30
0.0
 40
2.0
 50
195.76954700000161
 51
270.0
  0
LINE
  5
1BC6E
  8
AM_0
 10
201.0522717864508
 20
624.61650796551373
 30
0.0
 11
201.0522717864508
 21
624.0712949655134
 31
0.0
  0
ARC
  5
1BC6F
  8
AM_0
 10
203.0522717864508
 20
622.63866596551316
 30
0.0
 40
2.0
 50
180.0
 51
270.0
  0
LINE
  5
1BC70
  8
AM_0
 10
286.05227178645077
 20
622.63866596551316
 30
0.0
 11
286.05227178645077
 21
623.60469896551365
 31
0.0
  0
ARC
  5
1BC71
  8
AM_0
 10
284.05227178645077
 20
624.0712949655134
 30
0.0
 40
2.0
 50
270.0
 51
346.50868899999909
  0
ARC
  5
1BC72
  8
AM_0
 10
284.05227178645077
 20
623.06594396551361
 30
0.0
 40
2.0
 50
270.0
 51
0.0
  0
ARC
  5
1BC73
  8
AM_0
 10
284.05227178645077
 20
622.63866596551316
 30
0.0
 40
2.0
 50
270.0
 51
0.0
  0
LINE
  5
1BC74
  8
AM_0
 10
199.05227178645069
 20
637.1449449655131
 30
0.0
 11
193.5462607864506
 21
637.1449449655131
 31
0.0
  0
LINE
  5
1BC75
  8
AM_0
 10
203.0522717864508
 20
632.00086396551353
 30
0.0
 11
352.04389678645072
 21
632.00086396551353
 31
0.0
  0
LINE
  5
1BC76
  8
AM_0
 10
193.5462607864506
 20
649.59981396551325
 30
0.0
 11
351.55227178645077
 21
649.59981396551325
 31
0.0
  0
LINE
  5
1BC77
  8
AM_0
 10
203.0522717864508
 20
623.60469896551365
 30
0.0
 11
350.22865278645082
 21
623.60469896551365
 31
0.0
  0
LINE
  5
1BC78
  8
AM_0
 10
199.05227178645069
 20
623.97886896551324
 30
0.0
 11
193.5462607864506
 21
623.97886896551324
 31
0.0
  0
LINE
  5
1BC79
  8
AM_0
 10
199.05227178645069
 20
626.61650796551373
 30
0.0
 11
193.5462607864506
 21
626.61650796551373
 31
0.0
  0
LINE
  5
1BC7A
  8
AM_0
 10
199.05227178645069
 20
630.97249696551341
 30
0.0
 11
193.5462607864506
 21
630.97249696551341
 31
0.0
  0
LINE
  5
1BCCC
  8
AM_0
 10
353.05227178645077
 20
656.67092196551323
 30
0.0
 11
353.05227178645077
 21
664.31092196551344
 31
0.0
  0
LINE
  5
1BCCD
  8
AM_0
 10
353.05227178645077
 20
744.33086396551357
 30
0.0
 11
353.05227178645077
 21
736.69086396551359
 31
0.0
  0
ARC
  5
1BCCE
  8
AM_0
 10
354.05163278645063
 20
653.45933296551323
 30
0.0
 40
1.0026319999999971
 50
0.0540849999984558
 51
81.243758999994554
  0
LINE
  5
1BCCF
  8
AM_0
 10
354.20426478645072
 20
654.4502799655138
 30
0.0
 11
352.44546578645082
 21
654.72086396551344
 31
0.0
  0
LINE
  5
1BCD0
  8
AM_0
 10
354.19426478645067
 20
656.54027996551315
 30
0.0
 11
352.59157678645079
 21
656.32086396551324
 31
0.0
  0
ARC
  5
1BCD1
  8
AM_0
 10
354.04729678645072
 20
657.53648396551341
 30
0.0
 40
1.0069859999999999
 50
278.39216299999578
 51
359.64700200000118
  0
LINE
  5
1BCD2
  8
AM_0
 10
355.05426478645091
 20
657.53027996551361
 30
0.0
 11
355.05426478645091
 21
653.46027996551322
 31
0.0
  0
ARC
  5
1BCD3
  8
AM_0
 10
352.51090878645073
 20
655.50692396551324
 30
0.0
 40
0.8033630000000001
 50
0.2393299999979041
 51
89.760670000008602
  0
ARC
  5
1BCD4
  8
AM_0
 10
352.50920278645071
 20
655.51534196551358
 30
0.0
 40
0.8050779999999997
 50
270.36025099999512
 51
359.6397489999984
  0
ARC
  5
1BCD5
  8
AM_0
 10
354.04729678645072
 20
743.46524396551365
 30
0.0
 40
1.0069859999999999
 50
0.3529979999987695
 51
81.607837000004196
  0
LINE
  5
1BCD6
  8
AM_0
 10
354.19426478645067
 20
744.46144796551334
 30
0.0
 11
352.59157678645079
 21
744.68086396551325
 31
0.0
  0
ARC
  5
1BCD7
  8
AM_0
 10
354.05163278645063
 20
747.54239496551361
 30
0.0
 40
1.0026319999999971
 50
278.75624099999249
 51
359.94591500000149
  0
LINE
  5
1BCD8
  8
AM_0
 10
355.05426478645091
 20
743.47144796551333
 30
0.0
 11
355.05426478645091
 21
747.54144796551327
 31
0.0
  0
LINE
  5
1BCD9
  8
AM_0
 10
354.20426478645072
 20
746.55144796551326
 30
0.0
 11
352.44546578645082
 21
746.28086396551328
 31
0.0
  0
ARC
  5
1BCDA
  8
AM_0
 10
352.51090878645073
 20
745.49480396551348
 30
0.0
 40
0.8033630000000001
 50
270.23932999999141
 51
359.76067000000211
  0
ARC
  5
1BCDB
  8
AM_0
 10
352.50920278645071
 20
745.48638596551348
 30
0.0
 40
0.8050779999999997
 50
0.3602510000015905
 51
89.639749000004883
  0
LINE
  5
1BCEA
  8
AM_0
 10
353.05227178645077
 20
666.65092196551325
 30
0.0
 11
353.05227178645077
 21
674.40092196551359
 31
0.0
  0
ARC
  5
1BCEB
  8
AM_0
 10
354.04530378645092
 20
667.52706796551354
 30
0.0
 40
1.0069859999999999
 50
278.39216299999578
 51
359.64700200000118
  0
LINE
  5
1BCEC
  8
AM_0
 10
354.19227178645087
 20
666.5308639655135
 30
0.0
 11
352.51227278645058
 21
666.30086396551314
 31
0.0
  0
LINE
  5
1BCED
  8
AM_0
 10
354.20227178645058
 20
664.44086396551359
 30
0.0
 11
352.51227278645058
 21
664.70086396551346
 31
0.0
  0
ARC
  5
1BCEE
  8
AM_0
 10
352.50720978645091
 20
665.50592596551348
 30
0.0
 40
0.8050779999999997
 50
270.36122599999391
 51
359.6397489999984
  0
ARC
  5
1BCEF
  8
AM_0
 10
352.50891578645093
 20
665.49750796551359
 30
0.0
 40
0.8033630000000001
 50
0.2393299999979041
 51
90.23918299999508
  0
ARC
  5
1BCF0
  8
AM_0
 10
354.04963978645083
 20
663.44991796551358
 30
0.0
 40
1.0026319999999971
 50
0.0540849999984558
 51
81.243758999994554
  0
LINE
  5
1BCF1
  8
AM_0
 10
355.05227178645077
 20
667.52086396551351
 30
0.0
 11
355.05227178645077
 21
663.45086396551358
 31
0.0
  0
LINE
  5
1BCF2
  8
AM_0
 10
353.05227178645077
 20
734.35086396551355
 30
0.0
 11
353.05227178645077
 21
726.60086396551367
 31
0.0
  0
LINE
  5
1BCF3
  8
AM_0
 10
354.19227178645087
 20
734.47086396551333
 30
0.0
 11
352.51227278645058
 21
734.70086396551335
 31
0.0
  0
ARC
  5
1BCF4
  8
AM_0
 10
354.04530378645092
 20
733.4746599655133
 30
0.0
 40
1.0069859999999999
 50
0.3529979999987695
 51
81.607837000004196
  0
ARC
  5
1BCF5
  8
AM_0
 10
354.04963978645083
 20
737.5518099655136
 30
0.0
 40
1.0026319999999971
 50
278.75624099999249
 51
359.94591500000149
  0
LINE
  5
1BCF6
  8
AM_0
 10
355.05227178645077
 20
733.48086396551332
 30
0.0
 11
355.05227178645077
 21
737.55086396551349
 31
0.0
  0
LINE
  5
1BCF7
  8
AM_0
 10
354.20227178645058
 20
736.56086396551348
 30
0.0
 11
352.51227278645058
 21
736.30086396551326
 31
0.0
  0
ARC
  5
1BCF8
  8
AM_0
 10
352.50720978645091
 20
735.49580196551358
 30
0.0
 40
0.8050779999999997
 50
0.3602510000015905
 51
89.63877400000608
  0
ARC
  5
1BCF9
  8
AM_0
 10
352.50891578645093
 20
735.50421996551347
 30
0.0
 40
0.8033630000000001
 50
269.76081699999179
 51
359.76067000000211
  0
LINE
  5
1BCFA
  8
AM_0
 10
353.05227178645077
 20
738.36480896551325
 30
0.0
 11
363.05227178645077
 21
738.36480896551325
 31
0.0
  0
LINE
  5
1BCFB
  8
AM_0
 10
353.05227178645077
 20
662.64691896551324
 30
0.0
 11
363.05227178645077
 21
662.64691896551324
 31
0.0
  0
LINE
  5
1BD54
  8
AM_0
 10
829.57518609023668
 20
246.32988835700451
 30
0.0
 11
829.20218509023687
 21
239.8328963570043
 31
0.0
  0
LINE
  5
1BD55
  8
AM_0
 10
829.63822909023656
 20
211.89539135700431
 30
0.0
 11
829.18817409023666
 21
214.76789435700431
 31
0.0
  0
LINE
  5
1BD56
  8
AM_0
 10
829.59619409023651
 20
242.2738753570043
 30
0.0
 11
829.19620209023651
 21
239.79788935700441
 31
0.0
  0
LINE
  5
1BD57
  8
AM_0
 10
835.57517709023648
 20
247.7718833570043
 30
0.0
 11
904.11026909023633
 21
247.7718833570043
 31
0.0
  0
LINE
  5
1BD58
  8
AM_0
 10
910.11026709023668
 20
246.3298893570043
 30
0.0
 11
910.4829660902368
 21
239.8328953570045
 31
0.0
  0
LINE
  5
1BD59
  8
AM_0
 10
837.61683809023668
 20
205.6958863570045
 30
0.0
 11
902.06707109023682
 21
205.6958863570045
 31
0.0
  0
LINE
  5
1BD5A
  8
AM_0
 10
837.61683809023668
 20
245.2868983570045
 30
0.0
 11
902.06707109023682
 21
245.2868983570045
 31
0.0
  0
LINE
  5
1BD5B
  8
AM_0
 10
910.05149709023658
 20
211.92510935700449
 30
0.0
 11
910.49717309023629
 21
214.76790035700449
 31
0.0
  0
LINE
  5
1BD5C
  8
AM_0
 10
910.0892670902366
 20
242.2738903570044
 30
0.0
 11
910.48916609023661
 21
239.79788935700441
 31
0.0
  0
LINE
  5
1BD5D
  8
AM_0
 10
902.06813409023687
 20
219.57589135700439
 30
0.0
 11
837.6164600902365
 21
219.57589135700439
 31
0.0
  0
LINE
  5
1BD5E
  8
AM_0
 10
835.57517709023648
 20
252.32989735700431
 30
0.0
 11
904.11026909023633
 21
252.32989735700431
 31
0.0
  0
LINE
  5
1BD5F
  8
AM_0
 10
837.6168300902367
 20
219.5759013570044
 30
0.0
 11
837.20783709023658
 21
219.56490035700429
 31
0.0
  0
LINE
  5
1BD60
  8
AM_0
 10
837.2078340902367
 20
219.5649133570044
 30
0.0
 11
836.80083609023666
 21
219.5299093570043
 31
0.0
  0
LINE
  5
1BD61
  8
AM_0
 10
836.80083909023665
 20
219.5299383570044
 30
0.0
 11
836.40084009023656
 21
219.47393935700441
 31
0.0
  0
LINE
  5
1BD62
  8
AM_0
 10
836.40083909023656
 20
219.47391935700449
 30
0.0
 11
836.00984309023647
 21
219.3949253570043
 31
0.0
  0
LINE
  5
1BD63
  8
AM_0
 10
836.00983809023683
 20
219.39490335700441
 30
0.0
 11
835.63082709023695
 21
219.2948963570044
 31
0.0
  0
LINE
  5
1BD64
  8
AM_0
 10
835.63084509023656
 20
219.2948693570045
 30
0.0
 11
835.26684709023687
 21
219.1738673570045
 31
0.0
  0
LINE
  5
1BD65
  8
AM_0
 10
835.26683709023655
 20
219.17387435700431
 30
0.0
 11
834.92183809023663
 21
219.03288435700441
 31
0.0
  0
LINE
  5
1BD66
  8
AM_0
 10
834.92184309023662
 20
219.03288435700441
 30
0.0
 11
834.59584609023625
 21
218.87388735700449
 31
0.0
  0
LINE
  5
1BD67
  8
AM_0
 10
834.59584709023693
 20
218.8738843570043
 30
0.0
 11
834.29384309023658
 21
218.69688135700429
 31
0.0
  0
LINE
  5
1BD68
  8
AM_0
 10
834.29383109023684
 20
218.6969203570043
 30
0.0
 11
834.01683009023679
 21
218.50391135700451
 31
0.0
  0
LINE
  5
1BD69
  8
AM_0
 10
834.01682409023658
 20
218.50389935700451
 30
0.0
 11
833.76682209023693
 21
218.29689735700441
 31
0.0
  0
LINE
  5
1BD6A
  8
AM_0
 10
833.76684409023665
 20
218.29688735700441
 30
0.0
 11
833.54684209023651
 21
218.07589335700439
 31
0.0
  0
LINE
  5
1BD6B
  8
AM_0
 10
833.54683609023675
 20
218.07590735700441
 30
0.0
 11
833.35784109023666
 21
217.84391435700431
 31
0.0
  0
LINE
  5
1BD6C
  8
AM_0
 10
833.35784609023665
 20
217.84389235700431
 30
0.0
 11
833.20084009023685
 21
217.60188635700439
 31
0.0
  0
LINE
  5
1BD6D
  8
AM_0
 10
833.20083709023663
 20
217.60189635700439
 30
0.0
 11
833.07783409023637
 21
217.35189135700449
 31
0.0
  0
LINE
  5
1BD6E
  8
AM_0
 10
833.07786009023664
 20
217.35188635700439
 30
0.0
 11
832.98886109023647
 21
217.09687535700439
 31
0.0
  0
LINE
  5
1BD6F
  8
AM_0
 10
832.98884709023662
 20
217.09688435700431
 30
0.0
 11
832.93484509023654
 21
216.83688435700449
 31
0.0
  0
LINE
  5
1BD70
  8
AM_0
 10
832.93484009023655
 20
216.83689835700449
 30
0.0
 11
832.91684209023663
 21
216.57589135700439
 31
0.0
  0
LINE
  5
1BD71
  8
AM_0
 10
906.76717309023627
 20
216.57589335700439
 30
0.0
 11
906.74927109023668
 21
216.8368923570045
 31
0.0
  0
LINE
  5
1BD72
  8
AM_0
 10
906.74927309023667
 20
216.83688335700441
 30
0.0
 11
906.69567309023626
 21
217.09687235700429
 31
0.0
  0
LINE
  5
1BD73
  8
AM_0
 10
906.69567109023694
 20
217.09687935700441
 30
0.0
 11
906.6069720902367
 21
217.3518823570044
 31
0.0
  0
LINE
  5
1BD74
  8
AM_0
 10
906.60696709023625
 20
217.3518803570044
 30
0.0
 11
906.48367009023661
 21
217.60187635700439
 31
0.0
  0
LINE
  5
1BD75
  8
AM_0
 10
906.48368409023669
 20
217.6019003570043
 30
0.0
 11
906.32677909023687
 21
217.84390935700441
 31
0.0
  0
LINE
  5
1BD76
  8
AM_0
 10
906.32676109023657
 20
217.84387535700429
 30
0.0
 11
906.13745309023682
 21
218.07587935700451
 31
0.0
  0
LINE
  5
1BD77
  8
AM_0
 10
906.1374770902363
 20
218.0758893570044
 30
0.0
 11
905.91707309023661
 21
218.29688835700449
 31
0.0
  0
LINE
  5
1BD78
  8
AM_0
 10
905.91707509023661
 20
218.29689935700441
 30
0.0
 11
905.66747809023639
 21
218.5038983570044
 31
0.0
  0
LINE
  5
1BD79
  8
AM_0
 10
905.6674960902368
 20
218.5039033570045
 30
0.0
 11
905.39049209023665
 21
218.69691435700429
 31
0.0
  0
LINE
  5
1BD7A
  8
AM_0
 10
905.39049009023631
 20
218.6969093570045
 30
0.0
 11
905.0881860902366
 21
218.8739133570044
 31
0.0
  0
LINE
  5
1BD7B
  8
AM_0
 10
905.08817709023663
 20
218.87389035700451
 30
0.0
 11
904.76287809023677
 21
219.03288535700429
 31
0.0
  0
LINE
  5
1BD7C
  8
AM_0
 10
904.76287809023677
 20
219.0328983570044
 30
0.0
 11
904.41707309023627
 21
219.17389235700449
 31
0.0
  0
LINE
  5
1BD7D
  8
AM_0
 10
904.41707309023627
 20
219.1738883570045
 30
0.0
 11
904.05337309023662
 21
219.29489035700439
 31
0.0
  0
LINE
  5
1BD7E
  8
AM_0
 10
904.05338209023682
 20
219.29490835700429
 30
0.0
 11
903.67457609023666
 21
219.39491535700449
 31
0.0
  0
LINE
  5
1BD7F
  8
AM_0
 10
903.67457609023666
 20
219.3949113570043
 30
0.0
 11
903.28357309023625
 21
219.47390735700429
 31
0.0
  0
LINE
  5
1BD80
  8
AM_0
 10
903.28357009023637
 20
219.4738653570044
 30
0.0
 11
902.88327009023658
 21
219.52986535700441
 31
0.0
  0
LINE
  5
1BD81
  8
AM_0
 10
902.88327509023668
 20
219.52986735700441
 30
0.0
 11
902.4767740902364
 21
219.56487135700451
 31
0.0
  0
LINE
  5
1BD82
  8
AM_0
 10
902.4767740902364
 20
219.56491835700439
 30
0.0
 11
902.06707109023682
 21
219.57592035700449
 31
0.0
  0
ARC
  5
1BD83
  8
AM_0
 10
835.57517709023648
 20
246.32989735700431
 30
0.0
 40
6.0
 50
90.0
 51
179.99998200000081
  0
ARC
  5
1BD84
  8
AM_0
 10
837.61683809023646
 20
209.69588635700441
 30
0.0
 40
4.0
 50
179.99998200000081
 51
269.99996400000163
  0
ARC
  5
1BD85
  8
AM_0
 10
837.61683809023646
 20
241.2868983570045
 30
0.0
 40
4.0
 50
90.0
 51
179.99998200000081
  0
ARC
  5
1BD86
  8
AM_0
 10
954.81327209023664
 20
225.4918923570045
 30
0.0
 40
122.221001
 50
172.57449399999311
 51
187.42550399999729
  0
ARC
  5
1BD87
  8
AM_0
 10
899.8689820902365
 20
227.25989735700441
 30
0.0
 40
71.776710999999963
 50
169.93968699999849
 51
190.02400200000139
  0
ARC
  5
1BD88
  8
AM_0
 10
835.57517709023648
 20
241.7718833570043
 30
0.0
 40
6.0
 50
90.0
 51
175.20372800000271
  0
ARC
  5
1BD89
  8
AM_0
 10
835.57517709023648
 20
212.76288835700441
 30
0.0
 40
5.9999919999999971
 50
188.31313400000491
 51
263.06156699999752
  0
ARC
  5
1BD8A
  8
AM_0
 10
904.11026909023633
 20
246.32989735700431
 30
0.0
 40
6.0
 50
0.0000179999991712
 51
89.999964000001555
  0
ARC
  5
1BD8B
  8
AM_0
 10
902.06707109023625
 20
209.69588635700441
 30
0.0
 40
4.0
 50
269.99998099999942
 51
0.0000179999991712
  0
ARC
  5
1BD8C
  8
AM_0
 10
902.06707109023625
 20
241.2868983570045
 30
0.0
 40
4.0
 50
0.0000179999991712
 51
89.999945000000963
  0
ARC
  5
1BD8D
  8
AM_0
 10
784.87127009023641
 20
225.4918923570045
 30
0.0
 40
122.221001
 50
352.57495999999571
 51
7.4259639999989053
  0
ARC
  5
1BD8E
  8
AM_0
 10
839.81556809023641
 20
227.25989735700441
 30
0.0
 40
71.776702999999983
 50
349.97597100000081
 51
10.05997100000419
  0
ARC
  5
1BD8F
  8
AM_0
 10
904.11026909023633
 20
241.7718833570043
 30
0.0
 40
6.0
 50
4.795986000001883
 51
89.999964000001555
  0
ARC
  5
1BD90
  8
AM_0
 10
904.11026909023633
 20
212.76288835700441
 30
0.0
 40
6.0000049999999998
 50
276.9213300000016
 51
351.97358200000582
  0
LINE
  5
1BD9B
  8
AM_0
 10
272.65232770677721
 20
250.7008993570046
 30
0.0
 11
342.39542770677741
 21
250.7008993570046
 31
0.0
  0
LINE
  5
1BD9C
  8
AM_0
 10
351.45044570677732
 20
248.79592035700441
 30
0.0
 11
349.80245070677739
 21
252.3298843570046
 31
0.0
  0
LINE
  5
1BD9D
  8
AM_0
 10
349.80245070677739
 20
252.3298843570046
 30
0.0
 11
260.98433170677731
 21
210.9138753570046
 31
0.0
  0
LINE
  5
1BD9E
  8
AM_0
 10
262.6325247067773
 20
207.3789043570045
 30
0.0
 11
260.98433170677731
 21
210.9138753570046
 31
0.0
  0
LINE
  5
1BD9F
  8
AM_0
 10
270.18552970677729
 20
207.7449083570045
 30
0.0
 11
269.86412770677731
 21
208.4339003570046
 31
0.0
  0
LINE
  5
1BDA0
  8
AM_0
 10
346.47742770677718
 20
223.61490135700461
 30
0.0
 11
346.47742770677718
 21
243.9889093570045
 31
0.0
  0
LINE
  5
1BDA1
  8
AM_0
 10
264.0999197067772
 20
206.8499013570046
 30
0.0
 11
350.92542470677751
 21
247.3369043570047
 31
0.0
  0
LINE
  5
1BDA2
  8
AM_0
 10
269.0523297067773
 20
214.67590535700461
 30
0.0
 11
269.0523297067773
 21
247.1009083570045
 31
0.0
  0
LINE
  5
1BDA3
  8
ﾁｭｳｼﾝｾﾝ1
 10
263.87612870677731
 20
230.7008993570046
 30
0.0
 11
272.46642970677732
 21
230.7008993570046
 31
0.0
  0
LINE
  5
1BDA4
  8
AM_0
 10
267.0523297067773
 20
242.3009053570045
 30
0.0
 11
267.0523297067773
 21
219.1009083570045
 31
0.0
  0
LINE
  5
1BDA5
  8
AM_0
 10
267.0523297067773
 20
242.3009053570045
 30
0.0
 11
268.0523297067773
 21
242.3009053570045
 31
0.0
  0
LINE
  5
1BDA6
  8
AM_0
 10
267.0523297067773
 20
219.1009083570045
 30
0.0
 11
268.0523297067773
 21
219.1009083570045
 31
0.0
  0
ARC
  5
1BDBA
  8
AM_0
 10
272.65232770677721
 20
247.1009083570045
 30
0.0
 40
3.5999979999999998
 50
90.000061000000898
 51
179.99998200000081
  0
ARC
  5
1BDBB
  8
AM_0
 10
350.45342570677741
 20
248.33090435700461
 30
0.0
 40
1.100006
 50
294.99982600000448
 51
24.999514000001501
  0
ARC
  5
1BDBC
  8
AM_0
 10
263.62942870677739
 20
207.84390535700459
 30
0.0
 40
1.0999959999999971
 50
204.99980300000141
 51
295.00019499999559
  0
ARC
  5
1BDBD
  8
AM_0
 10
338.87742970677732
 20
223.61490135700461
 30
0.0
 40
7.5999979999999967
 50
288.90001599999658
 51
0.0000179999992061
  0
ARC
  5
1BDBE
  8
AM_0
 10
273.44823070677739
 20
209.26590235700451
 30
0.0
 40
3.5999979999999998
 50
204.9991569999998
 51
269.09402099999909
  0
ARC
  5
1BDBF
  8
AM_0
 10
276.5547287067775
 20
405.64189335700462
 30
0.0
 40
200.0
 50
269.09405200000299
 51
288.9000030000019
  0
ARC
  5
1BDC0
  8
AM_0
 10
268.9578277067771
 20
208.0119043570046
 30
0.0
 40
0.9999979999999998
 50
24.99926799999901
 51
114.9993579999972
  0
ARC
  5
1BDC1
  8
AM_0
 10
348.47742770677718
 20
243.9889093570045
 30
0.0
 40
2.0
 50
115.0001499999973
 51
179.99998200000081
  0
ARC
  5
1BDC2
  8
AM_0
 10
342.39542770677741
 20
248.1009083570045
 30
0.0
 40
2.600006
 50
40.686130000000617
 51
90.0
  0
ARC
  5
1BDC3
  8
AM_0
 10
268.0523297067773
 20
243.3009053570045
 30
0.0
 40
1.0
 50
269.99894299999522
 51
0.0000179999992061
  0
ARC
  5
1BDC4
  8
AM_0
 10
268.0523297067773
 20
218.1009083570045
 30
0.0
 40
1.0
 50
0.0000179999992061
 51
90.0
  0
LINE
  5
1BDC7
  8
ﾁｭｳｼﾝｾﾝ1
 10
306.55232570677731
 20
260.78561535700459
 30
0.0
 11
306.55232570677731
 21
246.7987933570046
 31
0.0
  0
ARC
  5
1BDE6
  8
AM_0
 10
854.82429409023655
 20
411.15600935700439
 30
0.0
 40
1.0
 50
35.541567732627442
 51
146.45844077113449
  0
ARC
  5
1BDEE
  8
AM_0
 10
874.82429409023655
 20
411.65931335700418
 30
0.0
 40
1.0
 50
25.382500229166919
 51
156.61750827459591
  0
ARC
  5
1BDF1
  8
AM_0
 10
864.82429409023655
 20
411.65931335700418
 30
0.0
 40
1.0
 50
14.786312807602959
 51
167.21369569615979
  0
ARC
  5
1BDF9
  8
AM_0
 10
869.84227109023652
 20
332.70089935700429
 30
0.0
 40
73.5
 50
150.54567055515409
 51
160.13345702211819
  0
LINE
  5
1BDFC
  8
AM_0
 10
806.84227109023675
 20
388.70090131365561
 30
0.0
 11
806.84227109023675
 21
382.70090056409731
 31
0.0
  0
LINE
  5
1BE00
  8
AM_0
 10
795.84227109023675
 20
365.60598735700438
 30
0.0
 11
795.84227109023675
 21
357.7008993570044
 31
0.0
  0
ARC
  5
1BE01
  8
AM_0
 10
801.84227109023652
 20
378.41616335700439
 30
0.0
 40
0.5
 50
90.0
 51
180.0
  0
LINE
  5
1BE02
  8
AM_0
 10
801.34227109023675
 20
376.91616335700428
 30
0.0
 11
801.34227109023675
 21
378.41616335700439
 31
0.0
  0
ARC
  5
1BE03
  8
AM_0
 10
801.84227109023652
 20
376.91616335700428
 30
0.0
 40
0.5
 50
180.0
 51
270.0
  0
LINE
  5
1BE0D
  8
AM_0
 10
805.84229816274456
 20
376.06147021833578
 30
0.0
 11
801.79834809023669
 21
376.41809635700429
 31
0.0
  0
LINE
  5
1BE0E
  8
AM_0
 10
805.84229816274444
 20
379.81100232601381
 30
0.0
 11
801.73451409023653
 21
378.90441435700433
 31
0.0
  0
ARC
  5
1BE11
  8
AM_0
 10
806.34227109023652
 20
375.51543835700443
 30
0.0
 40
0.5
 50
0.0
 51
84.960257999998404
  0
LINE
  5
1BE24
  8
AM_0
 10
792.39574809023679
 20
356.70150835700429
 30
0.0
 11
794.7795397845282
 21
356.61826446849852
 31
0.0
  0
ARC
  5
1BE25
  8
AM_0
 10
792.43064709023622
 20
357.7008993570044
 30
0.0
 40
1.0
 50
91.999999999997002
 51
268.0000000000029
  0
LINE
  5
1BE26
  8
AM_0
 10
792.39574809023679
 20
358.70029035700452
 30
0.0
 11
795.84227109023675
 21
358.82064535700448
 31
0.0
  0
ARC
  5
1BE27
  8
AM_0
 10
799.84163409023665
 20
360.9615253570044
 30
0.0
 40
2.0
 50
271.99999999999699
 51
338.03549900000189
  0
ARC
  5
1BE28
  8
AM_0
 10
801.14184409023665
 20
363.9928013570044
 30
0.0
 40
2.0
 50
335.53245500000497
 51
84.482415999997869
  0
ARC
  5
1BE29
  8
AM_0
 10
793.9561060902364
 20
367.7008993570044
 30
0.0
 40
1.0
 50
94.613730000001127
 51
264.4824159999979
  0
ARC
  5
1BE2A
  8
AM_0
 10
804.8522710902364
 20
371.58996435700448
 30
0.0
 40
2.0
 50
274.61373000000111
 51
299.67064293716783
  0
ARC
  5
1BE39
  8
AM_0
 10
797.00180209023654
 20
357.7008993570044
 30
0.0
 40
1.1595309999999981
 50
91.999999999997002
 51
225.73275723151579
  0
LINE
  5
1BE3A
  8
AM_0
 10
796.96133509023684
 20
358.85972435700438
 30
0.0
 11
799.91143309023653
 21
358.96274335700429
 31
0.0
  0
ARC
  5
1BE3B
  8
AM_0
 10
794.84227109023652
 20
365.60598735700438
 30
0.0
 40
1.0
 50
0.0
 51
84.482415999997869
  0
LINE
  5
1BE3C
  8
AM_0
 10
805.0131470902362
 20
369.59644535700443
 30
0.0
 11
793.87566909023667
 21
368.6976593570044
 31
0.0
  0
LINE
  5
1BE3D
  8
AM_0
 10
801.3341470902368
 20
365.98353435700449
 30
0.0
 11
793.85995509023678
 21
366.70553235700442
 31
0.0
  0
LINE
  5
1BE6A
  8
AM_0
 10
801.3341470902368
 20
299.41826435700438
 30
0.0
 11
793.85995509023678
 21
298.69626635700428
 31
0.0
  0
LINE
  5
1BE6B
  8
AM_0
 10
805.0131470902362
 20
295.80535335700438
 30
0.0
 11
793.87566909023667
 21
296.70413935700441
 31
0.0
  0
ARC
  5
1BE6C
  8
AM_0
 10
794.84227109023652
 20
299.79581135700442
 30
0.0
 40
1.0
 50
275.5175840000021
 51
0.0
  0
LINE
  5
1BE6D
  8
AM_0
 10
796.96133509023684
 20
306.54207435700442
 30
0.0
 11
799.91143309023653
 21
306.43905535700452
 31
0.0
  0
ARC
  5
1BE6E
  8
AM_0
 10
797.00180209023654
 20
307.70089935700429
 30
0.0
 40
1.1595309999999981
 50
134.26724276843049
 51
268.0000000000029
  0
ARC
  5
1BE8A
  8
AM_0
 10
804.8522710902364
 20
293.81183435700427
 30
0.0
 40
2.0
 50
60.329357062832237
 51
85.386269999998888
  0
ARC
  5
1BE8B
  8
AM_0
 10
793.9561060902364
 20
297.7008993570044
 30
0.0
 40
1.0
 50
95.517584000002117
 51
265.38626999999889
  0
ARC
  5
1BE8C
  8
AM_0
 10
801.14184409023665
 20
301.40899735700452
 30
0.0
 40
2.0
 50
275.5175840000021
 51
24.467544999994988
  0
ARC
  5
1BE8D
  8
AM_0
 10
799.84163409023665
 20
304.4402733570044
 30
0.0
 40
2.0
 50
21.964500999998059
 51
88.000000000003084
  0
LINE
  5
1BE8E
  8
AM_0
 10
792.39574809023679
 20
306.70150835700429
 30
0.0
 11
795.84227109023675
 21
306.58115335700433
 31
0.0
  0
ARC
  5
1BE8F
  8
AM_0
 10
792.43064709023622
 20
307.70089935700429
 30
0.0
 40
1.0
 50
91.999999999997002
 51
268.0000000000029
  0
LINE
  5
1BE90
  8
AM_0
 10
792.39574809023679
 20
308.70029035700452
 30
0.0
 11
794.77953978453229
 21
308.7835342455104
 31
0.0
  0
LINE
  5
1BEA6
  8
AM_0
 10
805.84229816274444
 20
285.59079638799471
 30
0.0
 11
801.73451409023653
 21
286.49738435700448
 31
0.0
  0
LINE
  5
1BEA7
  8
AM_0
 10
805.84229816274456
 20
289.34032849567291
 30
0.0
 11
801.79834809023669
 21
288.98370235700418
 31
0.0
  0
ARC
  5
1BEB1
  8
AM_0
 10
801.84227109023652
 20
288.4856353570043
 30
0.0
 40
0.5
 50
90.0
 51
180.0
  0
LINE
  5
1BEB2
  8
AM_0
 10
801.34227109023675
 20
288.4856353570043
 30
0.0
 11
801.34227109023675
 21
286.98563535700418
 31
0.0
  0
ARC
  5
1BEB3
  8
AM_0
 10
801.84227109023652
 20
286.98563535700418
 30
0.0
 40
0.5
 50
180.0
 51
270.0
  0
LINE
  5
1BEB4
  8
AM_0
 10
795.84227109023675
 20
299.79581135700442
 30
0.0
 11
795.84227109023675
 21
307.70089935700429
 31
0.0
  0
LINE
  5
1BEB8
  8
AM_0
 10
806.84227109023664
 20
276.70089740035371
 30
0.0
 11
806.84227109023675
 21
282.7008981499115
 31
0.0
  0
LINE
  5
1BEC3
  8
AM_0
 10
836.34227109023675
 20
253.7008993570044
 30
0.0
 11
836.3324697197196
 21
254.00147642826261
 31
0.0
  0
LINE
  5
1BEC4
  8
AM_0
 10
351.55227178645077
 20
666.65092196551325
 30
0.0
 11
351.55227178645077
 21
674.40092196551359
 31
0.0
  0
LINE
  5
1BEC5
  8
AM_0
 10
351.55227178645077
 20
676.58092196551354
 30
0.0
 11
351.55227178645077
 21
684.45092196551377
 31
0.0
  0
LINE
  5
1BEC6
  8
AM_0
 10
351.55227178645077
 20
686.53092196551347
 30
0.0
 11
351.55227178645077
 21
694.48092196551329
 31
0.0
  0
LINE
  5
1BEC7
  8
AM_0
 10
351.55227178645077
 20
696.51092196551326
 30
0.0
 11
351.55227178645077
 21
704.49086396551331
 31
0.0
  0
LINE
  5
1BEC8
  8
AM_0
 10
351.55227178645077
 20
706.52086396551351
 30
0.0
 11
351.55227178645077
 21
714.47086396551333
 31
0.0
  0
LINE
  5
1BEC9
  8
AM_0
 10
351.55227178645077
 20
716.55086396551349
 30
0.0
 11
351.55227178645077
 21
724.42086396551315
 31
0.0
  0
LINE
  5
1BECA
  8
AM_0
 10
351.55227178645077
 20
726.60086396551367
 30
0.0
 11
351.55227178645077
 21
734.35086396551355
 31
0.0
  0
LINE
  5
1BECB
  8
AM_0
 10
351.55227178645077
 20
736.69086396551359
 30
0.0
 11
351.55227178645077
 21
744.33086396551357
 31
0.0
  0
LINE
  5
1BECC
  8
AM_0
 10
354.04149178645088
 20
637.50092196551316
 30
0.0
 11
363.05227178645077
 21
637.50092196551316
 31
0.0
  0
LINE
  5
1BECD
  8
AM_0
 10
354.05227178645077
 20
763.5008639655133
 30
0.0
 11
363.05227178645077
 21
763.5008639655133
 31
0.0
  0
LINE
  5
1BECE
  8
AM_0
 10
193.5462607864506
 20
781.2508639655133
 30
0.0
 11
193.5462607864506
 21
619.75092196551338
 31
0.0
  0
LINE
  5
1BECF
  8
AM_0
 10
351.55227178645077
 20
656.67092196551323
 30
0.0
 11
351.55227178645077
 21
664.31092196551344
 31
0.0
  0
LINE
  5
1BED0
  8
AM_0
 10
351.55227178645077
 20
649.59987196551322
 30
0.0
 11
351.55227178645077
 21
654.33092196551354
 31
0.0
  0
LINE
  5
1BED1
  8
AM_0
 10
354.19227178645087
 20
696.5308639655135
 30
0.0
 11
352.75227178645082
 21
696.33372096551363
 31
0.0
  0
LINE
  5
1BED2
  8
AM_0
 10
354.20227178645058
 20
694.44086396551359
 30
0.0
 11
352.75227178645082
 21
694.66394096551335
 31
0.0
  0
LINE
  5
1BED3
  8
AM_0
 10
355.05227178645077
 20
697.52086396551351
 30
0.0
 11
355.05227178645077
 21
693.45086396551358
 31
0.0
  0
LINE
  5
1BED4
  8
AM_0
 10
354.19227178645087
 20
686.53086396551328
 30
0.0
 11
352.75227178645082
 21
686.33372096551363
 31
0.0
  0
LINE
  5
1BED5
  8
AM_0
 10
354.20227178645058
 20
684.44086396551347
 30
0.0
 11
352.75227178645082
 21
684.66394096551323
 31
0.0
  0
LINE
  5
1BED6
  8
AM_0
 10
355.05227178645077
 20
687.52086396551329
 30
0.0
 11
355.05227178645077
 21
683.45086396551346
 31
0.0
  0
LINE
  5
1BED7
  8
AM_0
 10
354.20227178645058
 20
674.44086396551347
 30
0.0
 11
352.75227178645082
 21
674.66394096551323
 31
0.0
  0
LINE
  5
1BED8
  8
AM_0
 10
354.19227178645087
 20
676.5308639655135
 30
0.0
 11
352.75227178645082
 21
676.33372096551363
 31
0.0
  0
LINE
  5
1BED9
  8
AM_0
 10
355.05227178645077
 20
677.52086396551351
 30
0.0
 11
355.05227178645077
 21
673.45086396551346
 31
0.0
  0
ARC
  5
1BEDA
  8
AM_0
 10
352.50387678645058
 20
695.5008639655133
 30
0.0
 40
0.8000439999999999
 50
288.08794099999648
 51
71.912059000003524
  0
ARC
  5
1BEDB
  8
AM_0
 10
354.04963978645083
 20
693.44991796551335
 30
0.0
 40
1.0026319999999971
 50
0.0540849999984558
 51
81.243758999994554
  0
ARC
  5
1BEDC
  8
AM_0
 10
354.04530378645092
 20
697.52706796551331
 30
0.0
 40
1.0069859999999999
 50
278.39216299999578
 51
359.64700200000118
  0
ARC
  5
1BEDD
  8
AM_0
 10
352.50720978645091
 20
685.50592596551348
 30
0.0
 40
0.8050779999999997
 50
287.72178999999659
 51
359.6397489999984
  0
ARC
  5
1BEDE
  8
AM_0
 10
354.04963978645083
 20
683.44991796551324
 30
0.0
 40
1.0026319999999971
 50
0.0540849999984558
 51
81.243758999994554
  0
ARC
  5
1BEDF
  8
AM_0
 10
354.04530378645092
 20
687.52706796551331
 30
0.0
 40
1.0069859999999999
 50
278.39216299999578
 51
359.64700200000118
  0
ARC
  5
1BEE0
  8
AM_0
 10
352.50891578645093
 20
675.49750796551325
 30
0.0
 40
0.8033630000000001
 50
0.2393299999979041
 51
72.366849999996845
  0
ARC
  5
1BEE1
  8
AM_0
 10
352.50720978645091
 20
675.50592596551326
 30
0.0
 40
0.8050779999999997
 50
287.72178999999659
 51
359.6397489999984
  0
ARC
  5
1BEE2
  8
AM_0
 10
354.04530378645092
 20
677.52706796551354
 30
0.0
 40
1.0069859999999999
 50
278.39216299999578
 51
359.64700200000118
  0
ARC
  5
1BEE3
  8
AM_0
 10
354.04963978645083
 20
673.44991796551324
 30
0.0
 40
1.0026319999999971
 50
0.0540849999984558
 51
81.243758999994554
  0
ARC
  5
1BEE4
  8
AM_0
 10
352.50891578645093
 20
685.49750796551359
 30
0.0
 40
0.8033630000000001
 50
0.2393299999979041
 51
72.366849999996845
  0
LINE
  5
1BEE5
  8
AM_0
 10
353.05227178645077
 20
686.53092196551347
 30
0.0
 11
353.05227178645077
 21
694.48092196551329
 31
0.0
  0
LINE
  5
1BEE6
  8
AM_0
 10
353.05227178645077
 20
676.58092196551354
 30
0.0
 11
353.05227178645077
 21
684.45092196551377
 31
0.0
  0
ARC
  5
1BEE7
  8
AM_0
 10
170.21410178645081
 20
780.73361296551332
 30
0.0
 40
0.5
 50
272.99975299999602
 51
335.24658999999849
  0
ARC
  5
1BEE8
  8
AM_0
 10
144.67446378645079
 20
773.13684996551331
 30
0.0
 40
5.7500059999999991
 50
92.999882999996146
 51
170.00004799999661
  0
ARC
  5
1BEE9
  8
AM_0
 10
171.80330878645071
 20
780.0008639655133
 30
0.0
 40
1.25
 50
89.999982000000827
 51
154.62363899999889
  0
LINE
  5
1BEEA
  8
AM_0
 10
171.80330878645071
 20
781.2508639655133
 30
0.0
 11
193.5522717864508
 21
781.2508639655133
 31
0.0
  0
LINE
  5
1BEEB
  8
AM_0
 10
170.2402677864506
 20
780.23429796551329
 30
0.0
 11
144.37359778645069
 21
778.87879496551329
 31
0.0
  0
LINE
  5
1BEEC
  8
AM_0
 10
201.0522717864508
 20
736.30086396551326
 30
0.0
 11
352.51228578645078
 21
736.30086396551326
 31
0.0
  0
LINE
  5
1BEED
  8
AM_0
 10
201.0522717864508
 20
734.35086396551355
 30
0.0
 11
354.54157678645078
 21
734.35086396551355
 31
0.0
  0
LINE
  5
1BEEE
  8
AM_0
 10
137.55105078645079
 20
634.75690296551363
 30
0.0
 11
137.55105078645079
 21
766.24488296551351
 31
0.0
  0
LINE
  5
1BEEF
  8
AM_0
 10
137.95079478645081
 20
768.11787496551358
 30
0.0
 11
139.0116567864506
 21
774.13535096551357
 31
0.0
  0
ARC
  5
1BEF0
  8
AM_0
 10
134.99636278645079
 20
768.63889496551326
 30
0.0
 40
2.999997
 50
276.36937100000358
 51
350.00017400000189
  0
ARC
  5
1BEF1
  8
AM_0
 10
135.55105078645079
 20
763.66976096551332
 30
0.0
 40
2.0
 50
96.369371000003596
 51
180.0
  0
LINE
  5
1BEF2
  8
AM_0
 10
201.0522717864508
 20
746.4321959655133
 30
0.0
 11
201.0522717864508
 21
729.78242096551332
 31
0.0
  0
LINE
  5
1BEF3
  8
AM_0
 10
193.5462607864506
 20
746.4321959655133
 30
0.0
 11
201.0522717864508
 21
746.4321959655133
 31
0.0
  0
LINE
  5
1BEF4
  8
AM_0
 10
193.5462607864506
 20
746.02086396551351
 30
0.0
 11
201.0522717864508
 21
746.02086396551351
 31
0.0
  0
LINE
  5
1BEF5
  8
AM_0
 10
193.5462607864506
 20
735.5008639655133
 30
0.0
 11
201.0522717864508
 21
735.5008639655133
 31
0.0
  0
LINE
  5
1BEF6
  8
AM_0
 10
193.5462607864506
 20
729.78242096551332
 30
0.0
 11
201.0522717864508
 21
729.78242096551332
 31
0.0
  0
LINE
  5
1BEF7
  8
AM_0
 10
351.55227178645077
 20
751.40191396551381
 30
0.0
 11
351.66842678645071
 21
752.60983996551329
 31
0.0
  0
LINE
  5
1BEF8
  8
AM_0
 10
353.05227178645077
 20
762.5008639655133
 30
0.0
 11
353.05227178645077
 21
746.67086396551315
 31
0.0
  0
LINE
  5
1BEF9
  8
AM_0
 10
351.55227178645077
 20
751.40191396551381
 30
0.0
 11
351.55227178645077
 21
746.67086396551315
 31
0.0
  0
LINE
  5
1BEFA
  8
AM_0
 10
353.05227178645077
 20
724.42086396551315
 30
0.0
 11
353.05227178645077
 21
716.55086396551349
 31
0.0
  0
LINE
  5
1BEFB
  8
AM_0
 10
353.05227178645077
 20
714.47086396551333
 30
0.0
 11
353.05227178645077
 21
706.52086396551351
 31
0.0
  0
LINE
  5
1BEFC
  8
AM_0
 10
201.0522717864508
 20
744.33086396551357
 30
0.0
 11
354.56181078645068
 21
744.33086396551357
 31
0.0
  0
LINE
  5
1BEFD
  8
AM_0
 10
193.5462607864506
 20
746.67086396551315
 30
0.0
 11
354.54731978645083
 21
746.67086396551315
 31
0.0
  0
LINE
  5
1BEFE
  8
AM_0
 10
201.0522717864508
 20
744.68086396551325
 30
0.0
 11
352.59157678645079
 21
744.68086396551325
 31
0.0
  0
LINE
  5
1BEFF
  8
AM_0
 10
201.0522717864508
 20
746.28086396551328
 30
0.0
 11
352.44546578645082
 21
746.28086396551328
 31
0.0
  0
LINE
  5
1BF00
  8
AM_0
 10
352.75227178645082
 20
704.70086396551346
 30
0.0
 11
193.5462607864506
 21
704.70086396551346
 31
0.0
  0
LINE
  5
1BF01
  8
AM_0
 10
352.75227178645082
 20
706.30086396551349
 30
0.0
 11
193.5462607864506
 21
706.30086396551349
 31
0.0
  0
LINE
  5
1BF02
  8
AM_0
 10
193.5462607864506
 20
704.49086396551331
 30
0.0
 11
354.04618478645079
 21
704.49086396551331
 31
0.0
  0
LINE
  5
1BF03
  8
AM_0
 10
193.5462607864506
 20
706.52086396551351
 30
0.0
 11
353.94227178645087
 21
706.52086396551351
 31
0.0
  0
LINE
  5
1BF04
  8
AM_0
 10
193.5462607864506
 20
714.47086396551333
 30
0.0
 11
354.19227178645087
 21
714.47086396551333
 31
0.0
  0
LINE
  5
1BF05
  8
AM_0
 10
193.5462607864506
 20
724.42086396551315
 30
0.0
 11
354.38985978645093
 21
724.42086396551315
 31
0.0
  0
LINE
  5
1BF06
  8
AM_0
 10
193.5462607864506
 20
726.60086396551367
 30
0.0
 11
354.38985978645093
 21
726.60086396551367
 31
0.0
  0
ARC
  5
1BF07
  8
AM_0
 10
352.50891578645093
 20
715.50421996551336
 30
0.0
 40
0.8033630000000001
 50
287.63315000000318
 51
359.76067000000211
  0
ARC
  5
1BF08
  8
AM_0
 10
354.04963978645083
 20
727.5518099655136
 30
0.0
 40
1.0026319999999971
 50
278.75624099999249
 51
359.94591500000149
  0
ARC
  5
1BF09
  8
AM_0
 10
354.04530378645092
 20
723.4746599655133
 30
0.0
 40
1.0069859999999999
 50
0.3529979999987695
 51
81.607837000004196
  0
ARC
  5
1BF0A
  8
AM_0
 10
352.50720978645091
 20
725.49580196551335
 30
0.0
 40
0.8050779999999997
 50
0.3602510000015905
 51
72.278210000003455
  0
ARC
  5
1BF0B
  8
AM_0
 10
352.50891578645093
 20
725.50421996551324
 30
0.0
 40
0.8033630000000001
 50
287.63315000000318
 51
359.76067000000211
  0
ARC
  5
1BF0C
  8
AM_0
 10
354.04530378645092
 20
713.4746599655133
 30
0.0
 40
1.0069859999999999
 50
0.3529979999987695
 51
81.607837000004196
  0
ARC
  5
1BF0D
  8
AM_0
 10
354.04963978645083
 20
717.55180996551348
 30
0.0
 40
1.0026319999999971
 50
278.75624099999249
 51
359.94591500000149
  0
ARC
  5
1BF0E
  8
AM_0
 10
352.50720978645091
 20
715.49580196551346
 30
0.0
 40
0.8050779999999997
 50
0.3602510000015905
 51
72.278210000003455
  0
ARC
  5
1BF0F
  8
AM_0
 10
354.04530378645092
 20
703.47465996551318
 30
0.0
 40
1.0069859999999999
 50
0.3529979999987695
 51
81.607837000004196
  0
ARC
  5
1BF10
  8
AM_0
 10
354.04963978645083
 20
707.5518099655136
 30
0.0
 40
1.0026319999999971
 50
278.75624099999249
 51
359.94591500000149
  0
ARC
  5
1BF11
  8
AM_0
 10
352.50387678645058
 20
705.5008639655133
 30
0.0
 40
0.8000439999999999
 50
288.08794099999648
 51
71.912059000003524
  0
LINE
  5
1BF12
  8
AM_0
 10
201.0522717864508
 20
736.69086396551359
 30
0.0
 11
354.56349078645081
 21
736.69086396551359
 31
0.0
  0
LINE
  5
1BF13
  8
AM_0
 10
193.5462607864506
 20
716.55086396551349
 30
0.0
 11
354.10227178645067
 21
716.55086396551349
 31
0.0
  0
LINE
  5
1BF14
  8
AM_0
 10
193.5462607864506
 20
716.30086396551314
 30
0.0
 11
352.75227178645082
 21
716.30086396551314
 31
0.0
  0
LINE
  5
1BF15
  8
AM_0
 10
193.5462607864506
 20
714.70086396551335
 30
0.0
 11
352.75227178645082
 21
714.70086396551335
 31
0.0
  0
LINE
  5
1BF16
  8
AM_0
 10
193.5462607864506
 20
724.70086396551358
 30
0.0
 11
352.75227178645082
 21
724.70086396551358
 31
0.0
  0
LINE
  5
1BF17
  8
AM_0
 10
193.5462607864506
 20
726.30086396551349
 30
0.0
 11
352.74367078645082
 21
726.30086396551349
 31
0.0
  0
LINE
  5
1BF18
  8
AM_0
 10
201.0522717864508
 20
734.70086396551335
 30
0.0
 11
352.51226978645082
 21
734.70086396551335
 31
0.0
  0
LINE
  5
1BF19
  8
AM_0
 10
355.05227178645077
 20
723.48086396551332
 30
0.0
 11
355.05227178645077
 21
727.55086396551349
 31
0.0
  0
LINE
  5
1BF1A
  8
AM_0
 10
354.19227178645087
 20
724.47086396551356
 30
0.0
 11
352.75227178645082
 21
724.66800696551331
 31
0.0
  0
LINE
  5
1BF1B
  8
AM_0
 10
354.20227178645058
 20
726.56086396551325
 30
0.0
 11
352.75227178645082
 21
726.3377869655136
 31
0.0
  0
LINE
  5
1BF1C
  8
AM_0
 10
355.05227178645077
 20
713.48086396551332
 30
0.0
 11
355.05227178645077
 21
717.55086396551326
 31
0.0
  0
LINE
  5
1BF1D
  8
AM_0
 10
354.20227178645058
 20
716.56086396551325
 30
0.0
 11
352.75227178645082
 21
716.3377869655136
 31
0.0
  0
LINE
  5
1BF1E
  8
AM_0
 10
354.19227178645087
 20
714.47086396551333
 30
0.0
 11
352.75227178645082
 21
714.66800696551331
 31
0.0
  0
LINE
  5
1BF1F
  8
AM_0
 10
355.05227178645077
 20
703.48086396551332
 30
0.0
 11
355.05227178645077
 21
707.55086396551349
 31
0.0
  0
LINE
  5
1BF20
  8
AM_0
 10
354.20227178645058
 20
706.56086396551348
 30
0.0
 11
352.75227178645082
 21
706.3377869655136
 31
0.0
  0
LINE
  5
1BF21
  8
AM_0
 10
354.19227178645087
 20
704.47086396551333
 30
0.0
 11
352.75227178645082
 21
704.66800696551331
 31
0.0
  0
ARC
  5
1BF22
  8
AM_0
 10
170.21410178645081
 20
620.2681729655136
 30
0.0
 40
0.5
 50
24.753410000001509
 51
87.000247000003981
  0
ARC
  5
1BF23
  8
AM_0
 10
144.67446378645079
 20
627.86493596551361
 30
0.0
 40
5.7500059999999991
 50
189.9999520000033
 51
267.00011700000391
  0
ARC
  5
1BF24
  8
AM_0
 10
171.80330878645071
 20
621.00092196551338
 30
0.0
 40
1.25
 50
205.37636100000111
 51
270.00001799999922
  0
LINE
  5
1BF25
  8
AM_0
 10
171.80330878645071
 20
619.75092196551338
 30
0.0
 11
193.5522717864508
 21
619.75092196551338
 31
0.0
  0
LINE
  5
1BF26
  8
AM_0
 10
170.2402677864506
 20
620.76748796551362
 30
0.0
 11
144.37359778645069
 21
622.1229909655134
 31
0.0
  0
LINE
  5
1BF27
  8
AM_0
 10
170.55288878645069
 20
780.25068096551365
 30
0.0
 11
170.55288878645069
 21
620.75110496551349
 31
0.0
  0
LINE
  5
1BF28
  8
AM_0
 10
140.60524978645071
 20
626.53888596551349
 30
0.0
 11
140.60524978645071
 21
774.46289996551366
 31
0.0
  0
LINE
  5
1BF29
  8
AM_0
 10
133.55105078645079
 20
763.66976096551332
 30
0.0
 11
133.55105078645079
 21
637.3320249655136
 31
0.0
  0
LINE
  5
1BF2A
  8
AM_0
 10
137.95079478645081
 20
632.88391096551345
 30
0.0
 11
139.0116567864506
 21
626.86643496551358
 31
0.0
  0
ARC
  5
1BF2B
  8
AM_0
 10
134.99636278645079
 20
632.36289096551343
 30
0.0
 40
2.999997
 50
9.9998259999981478
 51
83.630628999996375
  0
ARC
  5
1BF2C
  8
AM_0
 10
135.55105078645079
 20
637.3320249655136
 30
0.0
 40
2.0
 50
180.0
 51
263.63062899999642
  0
LINE
  5
1BF2D
  8
AM_0
 10
201.0522717864508
 20
654.5695899655135
 30
0.0
 11
201.0522717864508
 21
671.21936496551348
 31
0.0
  0
LINE
  5
1BF2E
  8
AM_0
 10
193.5462607864506
 20
654.5695899655135
 30
0.0
 11
201.0522717864508
 21
654.5695899655135
 31
0.0
  0
LINE
  5
1BF2F
  8
AM_0
 10
193.5462607864506
 20
654.98092196551318
 30
0.0
 11
201.0522717864508
 21
654.98092196551318
 31
0.0
  0
LINE
  5
1BF30
  8
AM_0
 10
193.5462607864506
 20
665.50092196551316
 30
0.0
 11
201.0522717864508
 21
665.50092196551316
 31
0.0
  0
LINE
  5
1BF31
  8
AM_0
 10
193.5462607864506
 20
671.21936496551348
 30
0.0
 11
201.0522717864508
 21
671.21936496551348
 31
0.0
  0
LINE
  5
1BF32
  8
AM_0
 10
351.55227178645077
 20
649.59987196551322
 30
0.0
 11
351.66843178645081
 21
648.39188696551344
 31
0.0
  0
LINE
  5
1BF33
  8
AM_0
 10
353.05227178645077
 20
638.50086396551353
 30
0.0
 11
353.05227178645077
 21
654.33092196551354
 31
0.0
  0
LINE
  5
1BF34
  8
AM_0
 10
353.05227178645077
 20
704.49086396551331
 30
0.0
 11
353.05227178645077
 21
696.51092196551326
 31
0.0
  0
LINE
  5
1BF35
  8
AM_0
 10
201.0522717864508
 20
656.67092196551323
 30
0.0
 11
354.56190878645072
 21
656.67092196551323
 31
0.0
  0
LINE
  5
1BF36
  8
AM_0
 10
193.5462607864506
 20
654.33092196551354
 30
0.0
 11
354.54721678645092
 21
654.33092196551354
 31
0.0
  0
LINE
  5
1BF37
  8
AM_0
 10
201.0522717864508
 20
656.32092196551355
 30
0.0
 11
352.59200078645091
 21
656.32092196551355
 31
0.0
  0
LINE
  5
1BF38
  8
AM_0
 10
201.0522717864508
 20
654.72092196551364
 30
0.0
 11
352.44508778645081
 21
654.72092196551364
 31
0.0
  0
LINE
  5
1BF39
  8
AM_0
 10
352.75227178645082
 20
696.30092196551334
 30
0.0
 11
193.5462607864506
 21
696.30092196551334
 31
0.0
  0
LINE
  5
1BF3A
  8
AM_0
 10
352.75227178645082
 20
694.70092196551354
 30
0.0
 11
193.5462607864506
 21
694.70092196551354
 31
0.0
  0
LINE
  5
1BF3B
  8
AM_0
 10
354.04660978645057
 20
696.51092196551326
 30
0.0
 11
193.5462607864506
 21
696.51092196551326
 31
0.0
  0
LINE
  5
1BF3C
  8
AM_0
 10
353.94189378645058
 20
694.48092196551329
 30
0.0
 11
193.5462607864506
 21
694.48092196551329
 31
0.0
  0
LINE
  5
1BF3D
  8
AM_0
 10
354.1926957864506
 20
686.53092196551347
 30
0.0
 11
193.5462607864506
 21
686.53092196551347
 31
0.0
  0
LINE
  5
1BF3E
  8
AM_0
 10
354.39001878645081
 20
676.58092196551354
 30
0.0
 11
193.5462607864506
 21
676.58092196551354
 31
0.0
  0
LINE
  5
1BF3F
  8
AM_0
 10
354.3672277864506
 20
674.40092196551359
 30
0.0
 11
193.5462607864506
 21
674.40092196551359
 31
0.0
  0
LINE
  5
1BF40
  8
AM_0
 10
201.0522717864508
 20
664.31092196551344
 30
0.0
 11
354.56339378645089
 21
664.31092196551344
 31
0.0
  0
LINE
  5
1BF41
  8
AM_0
 10
201.0522717864508
 20
666.65092196551325
 30
0.0
 11
354.54167978645091
 21
666.65092196551325
 31
0.0
  0
LINE
  5
1BF42
  8
AM_0
 10
193.5462607864506
 20
684.45092196551377
 30
0.0
 11
354.13689378645091
 21
684.45092196551377
 31
0.0
  0
LINE
  5
1BF43
  8
AM_0
 10
193.5462607864506
 20
684.70092196551354
 30
0.0
 11
352.75227178645082
 21
684.70092196551354
 31
0.0
  0
LINE
  5
1BF44
  8
AM_0
 10
193.5462607864506
 20
686.30092196551345
 30
0.0
 11
352.75227178645082
 21
686.30092196551345
 31
0.0
  0
LINE
  5
1BF45
  8
AM_0
 10
193.5462607864506
 20
676.30092196551357
 30
0.0
 11
352.75227178645082
 21
676.30092196551357
 31
0.0
  0
LINE
  5
1BF46
  8
AM_0
 10
193.5462607864506
 20
674.70092196551366
 30
0.0
 11
352.75227178645082
 21
674.70092196551366
 31
0.0
  0
LINE
  5
1BF47
  8
AM_0
 10
201.0522717864508
 20
666.30092196551345
 30
0.0
 11
352.51269778645059
 21
666.30092196551345
 31
0.0
  0
LINE
  5
1BF48
  8
AM_0
 10
201.0522717864508
 20
664.70092196551354
 30
0.0
 11
352.51189478645063
 21
664.70092196551354
 31
0.0
  0
LINE
  5
1BF49
  8
AM_0
 10
363.05227178645077
 20
774.00086396551319
 30
0.0
 11
363.05227178645077
 21
627.00092196551338
 31
0.0
  0
INSERT
  5
1BF4A
  8
AM_0
  2
$6-44
 10
353.05227178645077
 20
643.89188696551321
 30
0.0
 41
-1.0
 42
-1.0
 50
270.0
  0
INSERT
  5
1BF4B
  8
AM_0
  2
$6-44
 10
353.05226978645078
 20
757.10983996551329
 30
0.0
 50
90.0
  0
LINE
  5
1BF4C
  8
AM_0
 10
903.34227109023686
 20
252.32989735700431
 30
0.0
 11
903.34227109023686
 21
252.83181102024599
 31
0.0
  0
LINE
  5
1BF4D
  8
AM_0
 10
836.34227109023675
 20
252.32989735700431
 30
0.0
 11
836.34227109023675
 21
253.7008993570044
 31
0.0
  0
LINE
  5
1BF4E
  8
AM_0
 10
853.55244536702958
 20
253.7008993570044
 30
0.0
 11
836.34227109023675
 21
253.7008993570044
 31
0.0
  0
LINE
  5
1BF52
  8
AM_0
 10
363.05232570677742
 20
259.20089935700457
 30
0.0
 11
363.05232570677742
 21
406.20090435700439
 31
0.0
  0
ARC
  5
1BF53
  8
AM_0
 10
201.07120070677729
 20
254.22596935700449
 30
0.0
 40
2.0
 50
60.311696999995213
 51
90.0
  0
LINE
  5
1BF54
  8
AM_0
 10
193.55232570677731
 20
256.22596935700449
 30
0.0
 11
201.07120070677729
 21
256.22596935700449
 31
0.0
  0
ARC
  5
1BF55
  8
AM_0
 10
199.1269527067773
 20
256.93184135700449
 30
0.0
 40
2.0
 50
11.084969999998529
 51
90.0
  0
LINE
  5
1BF56
  8
AM_0
 10
193.55232570677731
 20
258.93184135700449
 30
0.0
 11
199.1269527067773
 21
258.93184135700449
 31
0.0
  0
ARC
  5
1BF57
  8
AM_0
 10
203.05232570677731
 20
257.70089935700457
 30
0.0
 40
2.0
 50
180.0
 51
270.0
  0
ARC
  5
1BF58
  8
AM_0
 10
203.05232570677731
 20
266.20090335700462
 30
0.0
 40
2.0
 50
180.0
 51
270.0
  0
LINE
  5
1BF59
  8
AM_0
 10
201.05232570677731
 20
279.9013863570047
 30
0.0
 11
201.05232570677731
 21
257.70089935700457
 31
0.0
  0
LINE
  5
1BF5A
  8
AM_0
 10
193.55232570677731
 20
278.51360235700457
 30
0.0
 11
201.05232570677731
 21
278.51360235700457
 31
0.0
  0
LINE
  5
1BF5B
  8
AM_0
 10
193.55232570677731
 20
266.93690735700471
 30
0.0
 11
201.05232570677731
 21
266.93690735700471
 31
0.0
  0
LINE
  5
1BF5C
  8
AM_0
 10
193.55232570677731
 20
260.8767443570045
 30
0.0
 11
201.05232570677731
 21
260.8767443570045
 31
0.0
  0
ARC
  5
1BF5D
  8
AM_0
 10
351.05232370677737
 20
266.20089535700458
 30
0.0
 40
2.0
 50
269.99999799999722
 51
359.99999799999722
  0
LINE
  5
1BF5E
  8
AM_0
 10
203.05232570677731
 20
281.9013863570047
 30
0.0
 11
351.05232270677732
 21
281.9013863570047
 31
0.0
  0
LINE
  5
1BF5F
  8
AM_0
 10
203.05232570677731
 20
264.20090335700462
 30
0.0
 11
351.05802670677741
 21
264.20090335700462
 31
0.0
  0
LINE
  5
1BF60
  8
AM_0
 10
353.05232570677742
 20
259.20089935700457
 30
0.0
 11
363.0523227067772
 21
259.20089935700457
 31
0.0
  0
LINE
  5
1BF61
  8
AM_0
 10
354.05232570677742
 20
269.66209135700461
 30
0.0
 11
363.05232370677737
 21
269.66209135700461
 31
0.0
  0
INSERT
  5
1BF62
  8
AM_0
  2
$6-44
 10
353.05232370677737
 20
276.09192335700442
 30
0.0
 41
-1.0
 42
-1.0
 50
269.99999999999858
  0
LINE
  5
1BF63
  8
AM_0
 10
201.05232570677731
 20
407.65368735700429
 30
0.0
 11
201.05232570677731
 21
404.6148833570046
 31
0.0
  0
ARC
  5
1BF64
  8
AM_0
 10
203.05232570677731
 20
399.20090335700462
 30
0.0
 40
2.0
 50
90.0
 51
180.0
  0
LINE
  5
1BF65
  8
AM_0
 10
193.55232570677731
 20
386.97550035700442
 30
0.0
 11
201.05232570677731
 21
386.97550035700442
 31
0.0
  0
LINE
  5
1BF66
  8
AM_0
 10
193.55232570677731
 20
398.5415193570048
 30
0.0
 11
201.05232570677731
 21
398.5415193570048
 31
0.0
  0
LINE
  5
1BF67
  8
AM_0
 10
193.55232570677731
 20
404.6148833570046
 30
0.0
 11
201.05232570677731
 21
404.6148833570046
 31
0.0
  0
LINE
  5
1BF68
  8
AM_0
 10
201.05232570677731
 20
409.17914535700442
 30
0.0
 11
201.05232570677731
 21
408.57586935700459
 31
0.0
  0
ARC
  5
1BF69
  8
AM_0
 10
203.05232570677731
 20
407.65368735700429
 30
0.0
 40
2.0
 50
90.0
 51
180.0
  0
LINE
  5
1BF6A
  8
AM_0
 10
193.55232570677731
 20
410.59404435700452
 30
0.0
 11
199.53299670677731
 21
410.59404435700452
 31
0.0
  0
LINE
  5
1BF6B
  8
AM_0
 10
193.55232570677731
 20
409.27953235700431
 30
0.0
 11
199.20363670677739
 21
409.27953235700431
 31
0.0
  0
ARC
  5
1BF6C
  8
AM_0
 10
199.20363670677739
 20
411.27953235700409
 30
0.0
 40
2.0
 50
270.0
 51
344.19037399999939
  0
ARC
  5
1BF6D
  8
AM_0
 10
203.05232570677731
 20
410.18976535700449
 30
0.0
 40
2.0
 50
90.0
 51
164.19037399999951
  0
ARC
  5
1BF6E
  8
AM_0
 10
199.53299670677731
 20
412.59404435700418
 30
0.0
 40
2.0
 50
270.0
 51
331.62214299999528
  0
ARC
  5
1BF6F
  8
AM_0
 10
203.05232570677731
 20
410.6929073570044
 30
0.0
 40
2.0
 50
90.0
 51
151.6221439999978
  0
ARC
  5
1BF70
  8
AM_0
 10
351.05232570677742
 20
399.20090335700462
 30
0.0
 40
2.0
 50
0.0
 51
90.0
  0
ARC
  5
1BF71
  8
AM_0
 10
349.92483370677752
 20
407.65368735700429
 30
0.0
 40
2.0
 50
15.000000000000741
 51
90.0
  0
LINE
  5
1BF72
  8
AM_0
 10
355.05232570677742
 20
396.24503335700462
 30
0.0
 11
351.85668570677723
 21
408.1713253570046
 31
0.0
  0
ARC
  5
1BF73
  8
AM_0
 10
350.88934970677741
 20
409.17914535700442
 30
0.0
 40
2.0
 50
15.000000000000741
 51
90.0
  0
LINE
  5
1BF74
  8
AM_0
 10
355.05232570677742
 20
401.37011635700429
 30
0.0
 11
352.82120170677717
 21
409.69678435700462
 31
0.0
  0
ARC
  5
1BF75
  8
AM_0
 10
351.43704370677727
 20
410.18976535700449
 30
0.0
 40
2.0
 50
15.000000000000741
 51
90.0
  0
LINE
  5
1BF76
  8
AM_0
 10
355.05232570677742
 20
404.42475335700459
 30
0.0
 11
353.36889470677733
 21
410.70740335700441
 31
0.0
  0
ARC
  5
1BF77
  8
AM_0
 10
351.71807770677719
 20
410.6929073570044
 30
0.0
 40
2.0
 50
15.000000000000741
 51
90.0
  0
LINE
  5
1BF78
  8
AM_0
 10
355.05232570677742
 20
405.97673135700461
 30
0.0
 11
353.6499297067773
 21
411.2105463570046
 31
0.0
  0
ARC
  5
1BF79
  8
AM_0
 10
199.05232570677731
 20
408.57586935700459
 30
0.0
 40
2.0
 50
270.0
 51
0.0
  0
ARC
  5
1BF7A
  8
AM_0
 10
203.05232570677731
 20
409.17914535700442
 30
0.0
 40
2.0
 50
90.0
 51
180.0
  0
LINE
  5
1BF7B
  8
AM_0
 10
193.55232570677731
 20
406.57586935700459
 30
0.0
 11
199.05232570677731
 21
406.57586935700459
 31
0.0
  0
LINE
  5
1BF7C
  8
AM_0
 10
201.05232570677731
 20
404.6148833570046
 30
0.0
 11
201.05232570677731
 21
385.57223935700449
 31
0.0
  0
INSERT
  5
1BF7D
  8
AM_0
  2
$6-44
 10
353.05232570677742
 20
389.30987635700473
 30
0.0
 50
90.0
  0
LINE
  5
1BF7E
  8
AM_0
 10
354.05232570677742
 20
395.7397073570047
 30
0.0
 11
363.05232570677742
 21
395.7397073570047
 31
0.0
  0
LINE
  5
1BF7F
  8
AM_0
 10
203.05232570677731
 20
383.57223935700449
 30
0.0
 11
351.05232570677742
 21
383.57223935700449
 31
0.0
  0
LINE
  5
1BF80
  8
AM_0
 10
203.05232570677731
 20
412.69290735700429
 30
0.0
 11
351.71807770677719
 21
412.69290735700429
 31
0.0
  0
LINE
  5
1BF81
  8
AM_0
 10
203.05232570677731
 20
401.20090335700428
 30
0.0
 11
351.05232570677742
 21
401.20090335700428
 31
0.0
  0
LINE
  5
1BF82
  8
AM_0
 10
203.05232570677731
 20
409.6536873570044
 30
0.0
 11
349.92483370677752
 21
409.6536873570044
 31
0.0
  0
LINE
  5
1BF83
  8
AM_0
 10
203.05232570677731
 20
411.1791453570043
 30
0.0
 11
350.88934970677741
 21
411.1791453570043
 31
0.0
  0
LINE
  5
1BF84
  8
AM_0
 10
203.05232570677731
 20
412.18976535700438
 30
0.0
 11
351.43704370677727
 21
412.18976535700438
 31
0.0
  0
LINE
  5
1BF85
  8
AM_0
 10
273.05232570677731
 20
253.7008993570046
 30
0.0
 11
273.05232570677731
 21
250.7008993570046
 31
0.0
  0
LINE
  5
1BF86
  8
AM_0
 10
340.05232570677731
 20
253.7008993570046
 30
0.0
 11
340.05232570677731
 21
250.7008993570046
 31
0.0
  0
LINE
  5
1BF87
  8
AM_0
 10
137.55232570677731
 20
271.9079293570046
 30
0.0
 11
137.55232570677731
 21
394.81585935700468
 31
0.0
  0
LINE
  5
1BF88
  8
AM_0
 10
133.55269570677731
 20
270.10091935700461
 30
0.0
 11
133.55269570677731
 21
395.30083935700458
 31
0.0
  0
LINE
  5
1BF89
  8
AM_0
 10
137.95228570677719
 20
399.96789935700463
 30
0.0
 11
139.07527570677729
 21
406.33886935700428
 31
0.0
  0
LINE
  5
1BF8A
  8
AM_0
 10
144.43739570677729
 20
411.08282935700458
 30
0.0
 11
170.07936570677751
 21
412.4268193570046
 31
0.0
  0
LINE
  5
1BF8B
  8
AM_0
 10
170.55232570677731
 20
253.64559935700461
 30
0.0
 11
170.55232570677731
 21
411.58746935700418
 31
0.0
  0
LINE
  5
1BF8C
  8
AM_0
 10
141.41426570677729
 20
404.72784935700457
 30
0.0
 11
141.41426570677729
 21
261.18087935700441
 31
0.0
  0
LINE
  5
1BF8D
  8
AM_0
 10
137.95228570677719
 20
265.43389935700452
 30
0.0
 11
139.07527570677729
 21
259.06383935700461
 31
0.0
  0
LINE
  5
1BF8E
  8
AM_0
 10
144.4373357067773
 20
254.31988935700451
 30
0.0
 11
170.07936570677751
 21
252.97588935700469
 31
0.0
  0
LINE
  5
1BF8F
  8
AM_0
 10
171.64534570677731
 20
413.45086935700459
 30
0.0
 11
193.55232570677731
 21
413.45086935700459
 31
0.0
  0
LINE
  5
1BF90
  8
AM_0
 10
171.64534570677731
 20
251.9508993570046
 30
0.0
 11
193.55232570677731
 21
251.9508993570046
 31
0.0
  0
LINE
  5
1BF91
  8
AM_0
 10
340.05232570677731
 20
255.7008993570046
 30
0.0
 11
340.05232570677731
 21
253.7008993570046
 31
0.0
  0
LINE
  5
1BF92
  8
AM_0
 10
273.05232570677731
 20
255.7008993570046
 30
0.0
 11
273.05232570677731
 21
253.7008993570046
 31
0.0
  0
LINE
  5
1BF93
  8
AM_0
 10
273.05232570677731
 20
253.7008993570046
 30
0.0
 11
340.05232570677731
 21
253.7008993570046
 31
0.0
  0
LINE
  5
1BF94
  8
AM_0
 10
203.05232570677731
 20
255.7008993570046
 30
0.0
 11
349.83284570677728
 21
255.7008993570046
 31
0.0
  0
LINE
  5
1BF95
  8
AM_0
 10
316.55232570677731
 20
358.70089935700457
 30
0.0
 11
193.55232570677731
 21
358.70089935700457
 31
0.0
  0
LINE
  5
1BF96
  8
AM_0
 10
316.55232570677731
 20
306.70089935700457
 30
0.0
 11
193.55232570677731
 21
306.70089935700457
 31
0.0
  0
LINE
  5
1BF97
  8
AM_0
 10
332.55232570677731
 20
359.70089935700457
 30
0.0
 11
332.55232570677731
 21
365.70089935700457
 31
0.0
  0
LINE
  5
1BF98
  8
AM_0
 10
317.55232570677731
 20
359.70089935700457
 30
0.0
 11
317.55232570677731
 21
365.70089935700457
 31
0.0
  0
LINE
  5
1BF99
  8
AM_0
 10
332.55232570677731
 20
305.70089935700457
 30
0.0
 11
332.55232570677731
 21
299.70089935700457
 31
0.0
  0
LINE
  5
1BF9A
  8
AM_0
 10
317.55232570677731
 20
305.70089935700457
 30
0.0
 11
317.55232570677731
 21
299.70089935700457
 31
0.0
  0
LINE
  5
1BF9B
  8
AM_0
 10
289.05232570677731
 20
353.20089935700457
 30
0.0
 11
289.05232570677731
 21
312.20089935700457
 31
0.0
  0
LINE
  5
1BF9C
  8
AM_0
 10
352.05232570677742
 20
353.20089935700457
 30
0.0
 11
352.05232570677742
 21
312.20089935700457
 31
0.0
  0
LINE
  5
1BF9D
  8
AM_0
 10
289.05232570677731
 20
353.20089935700457
 30
0.0
 11
352.05232570677742
 21
353.20089935700457
 31
0.0
  0
LINE
  5
1BF9E
  8
AM_0
 10
289.05232570677731
 20
312.20089935700457
 30
0.0
 11
352.05232570677742
 21
312.20089935700457
 31
0.0
  0
LINE
  5
1BF9F
  8
AM_0
 10
289.05232570677731
 20
345.70089935700457
 30
0.0
 11
352.05232570677742
 21
345.70089935700457
 31
0.0
  0
LINE
  5
1BFA0
  8
AM_0
 10
201.05232570677731
 20
335.70089935700457
 30
0.0
 11
201.05232570677731
 21
329.70089935700457
 31
0.0
  0
LINE
  5
1BFA1
  8
AM_0
 10
351.76442570677727
 20
257.18218935700452
 30
0.0
 11
352.75233570677727
 21
260.8608693570045
 31
0.0
  0
LINE
  5
1BFA2
  8
AM_0
 10
351.1763457067774
 20
257.18218935700452
 30
0.0
 11
352.75233570677727
 21
263.05090935700451
 31
0.0
  0
LINE
  5
1BFA3
  8
AM_0
 10
353.05232570677742
 20
295.74267935700459
 30
0.0
 11
353.05232570677742
 21
259.20089935700457
 31
0.0
  0
LINE
  5
1BFA4
  8
AM_0
 10
352.05232570677742
 20
308.70089935700457
 30
0.0
 11
193.55232570677731
 21
308.70089935700457
 31
0.0
  0
LINE
  5
1BFA5
  8
AM_0
 10
352.05232570677742
 20
306.70089935700457
 30
0.0
 11
333.55232570677731
 21
306.70089935700457
 31
0.0
  0
LINE
  5
1BFA6
  8
AM_0
 10
285.05232570677731
 20
316.70089935700457
 30
0.0
 11
193.55232570677731
 21
316.70089935700457
 31
0.0
  0
LINE
  5
1BFA7
  8
AM_0
 10
285.05232570677731
 20
318.70089935700457
 30
0.0
 11
193.55232570677731
 21
318.70089935700457
 31
0.0
  0
LINE
  5
1BFA8
  8
AM_0
 10
285.05232570677731
 20
326.70089935700457
 30
0.0
 11
193.55232570677731
 21
326.70089935700457
 31
0.0
  0
LINE
  5
1BFA9
  8
AM_0
 10
285.05232570677731
 20
328.70089935700457
 30
0.0
 11
202.05232570677731
 21
328.70089935700457
 31
0.0
  0
LINE
  5
1BFAA
  8
AM_0
 10
352.05232570677742
 20
286.70089935700457
 30
0.0
 11
193.55232570677731
 21
286.70089935700457
 31
0.0
  0
LINE
  5
1BFAB
  8
AM_0
 10
352.05232570677742
 20
298.70089935700469
 30
0.0
 11
193.55232570677731
 21
298.70089935700469
 31
0.0
  0
LINE
  5
1BFAC
  8
AM_0
 10
352.05232570677742
 20
296.70089935700469
 30
0.0
 11
193.55232570677731
 21
296.70089935700469
 31
0.0
  0
LINE
  5
1BFAD
  8
AM_0
 10
352.05232570677742
 20
288.70089935700452
 30
0.0
 11
193.55232570677731
 21
288.70089935700452
 31
0.0
  0
LINE
  5
1BFAE
  8
AM_0
 10
352.05232570677742
 20
376.70089935700457
 30
0.0
 11
193.55232570677731
 21
376.70089935700457
 31
0.0
  0
LINE
  5
1BFAF
  8
AM_0
 10
352.05232570677742
 20
368.70089935700457
 30
0.0
 11
193.55232570677731
 21
368.70089935700457
 31
0.0
  0
LINE
  5
1BFB0
  8
AM_0
 10
352.05232570677742
 20
366.70089935700457
 30
0.0
 11
193.55232570677731
 21
366.70089935700457
 31
0.0
  0
LINE
  5
1BFB1
  8
AM_0
 10
352.05232570677742
 20
378.70089935700457
 30
0.0
 11
193.55232570677731
 21
378.70089935700457
 31
0.0
  0
LINE
  5
1BFB2
  8
AM_0
 10
285.05232570677731
 20
336.70089935700457
 30
0.0
 11
202.05232570677731
 21
336.70089935700457
 31
0.0
  0
LINE
  5
1BFB3
  8
AM_0
 10
285.05232570677731
 20
338.70089935700457
 30
0.0
 11
193.55232570677731
 21
338.70089935700457
 31
0.0
  0
LINE
  5
1BFB4
  8
AM_0
 10
285.05232570677731
 20
346.70089935700457
 30
0.0
 11
193.55232570677731
 21
346.70089935700457
 31
0.0
  0
LINE
  5
1BFB5
  8
AM_0
 10
285.05232570677731
 20
348.70089935700469
 30
0.0
 11
193.55232570677731
 21
348.70089935700469
 31
0.0
  0
LINE
  5
1BFB6
  8
AM_0
 10
352.05232570677742
 20
358.70089935700457
 30
0.0
 11
333.55232570677731
 21
358.70089935700457
 31
0.0
  0
LINE
  5
1BFB7
  8
AM_0
 10
352.05232570677742
 20
356.70089935700457
 30
0.0
 11
193.55232570677731
 21
356.70089935700457
 31
0.0
  0
LINE
  5
1BFB8
  8
AM_0
 10
353.05232570677742
 20
369.6591193570045
 30
0.0
 11
353.05232570677742
 21
399.20090335700462
 31
0.0
  0
LINE
  5
1BFB9
  8
AM_0
 10
193.55232570677731
 20
413.45086935700459
 30
0.0
 11
193.55232570677731
 21
251.9508993570046
 31
0.0
  0
ARC
  5
1BFBA
  8
AM_0
 10
170.05232570677731
 20
412.92583935700452
 30
0.0
 40
0.5
 50
272.99996999999098
 51
335.54395000000068
  0
ARC
  5
1BFBB
  8
AM_0
 10
144.7382357067772
 20
405.34087935700472
 30
0.0
 40
5.75
 50
92.999986000002309
 51
169.9999800000015
  0
ARC
  5
1BFBC
  8
AM_0
 10
171.64534570677731
 20
412.20086935700459
 30
0.0
 40
1.25
 50
89.999988999991061
 51
155.54398000000231
  0
ARC
  5
1BFBD
  8
AM_0
 10
135.80269570677731
 20
395.30083935700458
 30
0.0
 40
2.25
 50
98.81658799999677
 51
179.99997999999789
  0
ARC
  5
1BFBE
  8
AM_0
 10
134.99800570677729
 20
400.48894935700429
 30
0.0
 40
3.0
 50
278.8169699999973
 51
349.99994999999791
  0
ARC
  5
1BFBF
  8
AM_0
 10
135.80269570677731
 20
270.10091935700461
 30
0.0
 40
2.25
 50
179.99997999999789
 51
261.18293999999872
  0
ARC
  5
1BFC0
  8
AM_0
 10
134.99800570677729
 20
264.91293935700469
 30
0.0
 40
3.0
 50
9.9998320000020424
 51
81.183190999993727
  0
ARC
  5
1BFC1
  8
AM_0
 10
170.05232570677731
 20
252.4768993570047
 30
0.0
 40
0.5
 50
24.456399000000751
 51
86.999984999993174
  0
ARC
  5
1BFC2
  8
AM_0
 10
144.7382357067772
 20
260.06185935700449
 30
0.0
 40
5.75
 50
189.99998000000099
 51
266.9999500000028
  0
ARC
  5
1BFC3
  8
AM_0
 10
171.64534570677731
 20
253.2008993570046
 30
0.0
 40
1.25
 50
204.45596999999859
 51
269.99995999999589
  0
ARC
  5
1BFC4
  8
AM_0
 10
349.83284570677728
 20
257.70089935700457
 30
0.0
 40
2.0
 50
269.999989999999
 51
344.96831000000009
  0
ARC
  5
1BFC5
  8
AM_0
 10
349.24476570677729
 20
257.70089935700457
 30
0.0
 40
2.0
 50
269.999989999999
 51
344.96831000000009
  0
ARC
  5
1BFC6
  8
AM_0
 10
333.55232570677731
 20
299.70089935700457
 30
0.0
 40
1.0
 50
179.999989999999
 51
270.0
  0
ARC
  5
1BFC7
  8
AM_0
 10
316.55232570677731
 20
299.70089935700457
 30
0.0
 40
1.0
 50
269.999989999999
 51
0.0000010000014034
  0
ARC
  5
1BFC8
  8
AM_0
 10
316.55232570677731
 20
365.70089935700457
 30
0.0
 40
1.0
 50
0.0
 51
90.00000299999769
  0
ARC
  5
1BFC9
  8
AM_0
 10
333.55232570677731
 20
365.70089935700457
 30
0.0
 40
1.0
 50
90.00000299999769
 51
180.00001000000091
  0
ARC
  5
1BFCA
  8
AM_0
 10
333.55232570677731
 20
305.70089935700457
 30
0.0
 40
1.0
 50
90.00000299999769
 51
180.00001000000091
  0
ARC
  5
1BFCB
  8
AM_0
 10
316.55232570677731
 20
305.70089935700457
 30
0.0
 40
1.0
 50
0.0
 51
90.00000299999769
  0
ARC
  5
1BFCC
  8
AM_0
 10
333.55232570677731
 20
359.70089935700457
 30
0.0
 40
1.0
 50
179.999989999999
 51
270.0
  0
ARC
  5
1BFCD
  8
AM_0
 10
316.55232570677731
 20
359.70089935700457
 30
0.0
 40
1.0
 50
269.999989999999
 51
0.0000010000014034
  0
CIRCLE
  5
1BFCE
  8
AM_0
 10
327.55232570677731
 20
361.20089935700469
 30
0.0
 40
1.0
  0
CIRCLE
  5
1BFCF
  8
AM_0
 10
322.55232570677731
 20
361.20089935700469
 30
0.0
 40
1.149999999999999
  0
CIRCLE
  5
1BFD0
  8
AM_0
 10
322.55232570677731
 20
361.20089935700469
 30
0.0
 40
1.1000000000000001
  0
CIRCLE
  5
1BFD1
  8
AM_0
 10
322.55232570677731
 20
304.20089935700457
 30
0.0
 40
1.1000000000000001
  0
CIRCLE
  5
1BFD2
  8
AM_0
 10
322.55232570677731
 20
304.20089935700457
 30
0.0
 40
1.149999999999999
  0
CIRCLE
  5
1BFD3
  8
AM_0
 10
327.55232570677731
 20
304.20089935700457
 30
0.0
 40
1.0
  0
ARC
  5
1BFD4
  8
AM_0
 10
285.05232570677731
 20
347.70089935700457
 30
0.0
 40
1.0
 50
269.999989999999
 51
90.00000299999769
  0
ARC
  5
1BFD5
  8
AM_0
 10
285.05232570677731
 20
337.70089935700457
 30
0.0
 40
1.0
 50
269.999989999999
 51
90.00000299999769
  0
ARC
  5
1BFD6
  8
AM_0
 10
285.05232570677731
 20
327.70089935700457
 30
0.0
 40
1.0
 50
269.999989999999
 51
90.00000299999769
  0
ARC
  5
1BFD7
  8
AM_0
 10
285.05232570677731
 20
317.70089935700457
 30
0.0
 40
1.0
 50
269.999989999999
 51
90.00000299999769
  0
ARC
  5
1BFD8
  8
AM_0
 10
350.10231570677752
 20
297.70089935700457
 30
0.0
 40
1.0
 50
269.999989999999
 51
90.00000299999769
  0
ARC
  5
1BFD9
  8
AM_0
 10
352.05232570677742
 20
297.70089935700457
 30
0.0
 40
1.0
 50
269.999989999999
 51
90.00000299999769
  0
ARC
  5
1BFDA
  8
AM_0
 10
350.10231570677752
 20
307.70089935700457
 30
0.0
 40
1.0
 50
269.999989999999
 51
90.00000299999769
  0
ARC
  5
1BFDB
  8
AM_0
 10
352.05232570677742
 20
307.70089935700457
 30
0.0
 40
1.0
 50
269.999989999999
 51
90.00000299999769
  0
ARC
  5
1BFDC
  8
AM_0
 10
350.10231570677752
 20
357.70089935700457
 30
0.0
 40
1.0
 50
269.999989999999
 51
90.00000299999769
  0
ARC
  5
1BFDD
  8
AM_0
 10
352.05232570677742
 20
357.70089935700457
 30
0.0
 40
1.0
 50
269.999989999999
 51
90.00000299999769
  0
ARC
  5
1BFDE
  8
AM_0
 10
350.10231570677752
 20
367.70089935700457
 30
0.0
 40
1.0
 50
269.999989999999
 51
90.00000299999769
  0
ARC
  5
1BFDF
  8
AM_0
 10
352.05232570677742
 20
367.70089935700457
 30
0.0
 40
1.0
 50
269.999989999999
 51
90.00000299999769
  0
ARC
  5
1BFE0
  8
AM_0
 10
202.05232570677731
 20
335.70089935700457
 30
0.0
 40
1.0
 50
90.00000299999769
 51
180.00001000000091
  0
ARC
  5
1BFE1
  8
AM_0
 10
202.05232570677731
 20
329.70089935700457
 30
0.0
 40
1.0
 50
179.999989999999
 51
270.0
  0
ARC
  5
1BFE2
  8
AM_0
 10
202.05229570677739
 20
317.70089935700457
 30
0.0
 40
1.0
 50
90.00000299999769
 51
270.0
  0
ARC
  5
1BFE3
  8
AM_0
 10
202.05229570677739
 20
307.70089935700457
 30
0.0
 40
1.0
 50
90.00000299999769
 51
270.0
  0
ARC
  5
1BFE4
  8
AM_0
 10
350.10231570677752
 20
287.70089935700457
 30
0.0
 40
1.0
 50
269.999989999999
 51
90.00000299999769
  0
ARC
  5
1BFE5
  8
AM_0
 10
352.05232570677742
 20
287.70089935700457
 30
0.0
 40
1.0
 50
269.999989999999
 51
90.00000299999769
  0
ARC
  5
1BFE6
  8
AM_0
 10
202.05229570677739
 20
287.70089935700457
 30
0.0
 40
1.0
 50
90.00000299999769
 51
270.0
  0
ARC
  5
1BFE7
  8
AM_0
 10
202.05229570677739
 20
297.70089935700457
 30
0.0
 40
1.0
 50
90.00000299999769
 51
270.0
  0
ARC
  5
1BFE8
  8
AM_0
 10
354.19838570677729
 20
260.48049935700459
 30
0.0
 40
1.4952499999999991
 50
140.03765000000359
 51
165.26260000000369
  0
ARC
  5
1BFE9
  8
AM_0
 10
354.19331570677741
 20
262.6563993570046
 30
0.0
 40
1.4940209999999989
 50
139.79258000000129
 51
164.69034000000019
  0
ARC
  5
1BFEA
  8
AM_0
 10
354.19648570677742
 20
406.46795935700442
 30
0.0
 40
1.495147999999999
 50
195.0018899999981
 51
195.00621299999861
  0
ARC
  5
1BFEB
  8
AM_0
 10
202.05229570677739
 20
367.70089935700457
 30
0.0
 40
1.0
 50
90.00000299999769
 51
270.0
  0
ARC
  5
1BFEC
  8
AM_0
 10
202.05229570677739
 20
377.70089935700457
 30
0.0
 40
1.0
 50
90.00000299999769
 51
270.0
  0
ARC
  5
1BFED
  8
AM_0
 10
352.05232570677742
 20
377.70089935700457
 30
0.0
 40
1.0
 50
269.999989999999
 51
90.00000299999769
  0
ARC
  5
1BFEE
  8
AM_0
 10
350.10231570677752
 20
377.70089935700457
 30
0.0
 40
1.0
 50
269.999989999999
 51
90.00000299999769
  0
ARC
  5
1BFEF
  8
AM_0
 10
202.05229570677739
 20
357.70089935700457
 30
0.0
 40
1.0
 50
90.00000299999769
 51
270.0
  0
ARC
  5
1BFF0
  8
AM_0
 10
202.05229570677739
 20
347.70089935700457
 30
0.0
 40
1.0
 50
90.00000299999769
 51
270.0
  0
LINE
  5
1BFF1
  8
AM_0
 10
363.0523317067773
 20
406.20090435700439
 30
0.0
 11
354.99225870677719
 21
406.20090435700439
 31
0.0
  0
LINE
  5
1BFF2
  8
AM_0
 10
354.05232570677742
 20
295.74267935700459
 30
0.0
 11
363.05232570677742
 21
295.74267935700459
 31
0.0
  0
LINE
  5
1BFF3
  8
AM_0
 10
354.05232570677742
 20
369.6591193570045
 30
0.0
 11
363.05232570677742
 21
369.6591193570045
 31
0.0
  0
ARC
  5
1C04E
  8
AM_0
 10
869.84227109023652
 20
332.70089935700429
 30
0.0
 40
73.5
 50
199.86654297788081
 51
209.45432944484591
  0
TEXT
  5
1C2FF
  8
AM_0
 10
705.15555699742117
 20
705.25924372673296
 30
0.0
 40
15.0
  1
VC08-007EFML~VC08-060EFML
1001
ACAD
1000
MTEXTBEGIN
1070
    73
1070
     1
1070
    44
1040
1.0
1070
    74
1070
     0
1000
MTEXTEND
  0
VIEWPORT
  5
89
 67
     1
  8
0
 10
210.0
 20
148.5
 30
0.0
 40
420.0
 41
297.0
 68
     1
 69
     1
1001
ACAD
1000
MVIEW
1002
{
1070
    16
1010
0.0
1020
0.0
1030
0.0
1010
0.0
1020
0.0
1030
1.0
1040
0.0
1040
297.0
1040
221.70154043645701
1040
148.5
1040
50.0
1040
0.0
1040
0.0
1070
     0
1070
   100
1070
     1
1070
     1
1070
     0
1070
     0
1070
     0
1070
     0
1040
0.0
1040
0.0
1040
0.0
1040
10.0
1040
10.0
1040
10.0
1040
10.0
1070
     0
1002
{
1002
}
1002
}
1001
GENIUS_GENOREF_13
1005
1B94
1001
GENIUS_GENSCREG_15
1000
PF
1040
1.0
1000
DF
1040
1.0
1000
MIN
1011
0.0
1021
0.0
1031
0.0
1021
0.0
1031
0.0
1000
MAX
1011
420.0
1021
0.0
1031
0.0
1021
297.0
1031
0.0
1000
FLAGS
1070
     4
  0
ENDSEC
  0
EOF
