  0
SECTION
  2
HEADER
  9
$ACADVER
  1
AC1009
  9
$INSBASE
 10
0.0
 20
0.0
 30
0.0
  9
$EXTMIN
 10
63.983850633473821
 20
140.3725632437995
 30
-0.0000000000000058
  9
$EXTMAX
 10
654.39862236089357
 20
557.75390242278547
 30
0.0000000000000104
  9
$LIMMIN
 10
0.0
 20
0.0
  9
$LIMMAX
 10
853.5
 20
555.00000000000011
  9
$ORTHOMODE
 70
     0
  9
$REGENMODE
 70
     1
  9
$FILLMODE
 70
     1
  9
$QTEXTMODE
 70
     0
  9
$MIRRTEXT
 70
     1
  9
$DRAGMODE
 70
     2
  9
$LTSCALE
 40
3.0
  9
$OSMODE
 70
   551
  9
$ATTMODE
 70
     1
  9
$TEXTSIZE
 40
2.5
  9
$TRACEWID
 40
1.0
  9
$TEXTSTYLE
  7
STANDARD
  9
$CLAYER
  8
AM_0
  9
$CELTYPE
  6
BYLAYER
  9
$CECOLOR
 62
   256
  9
$DIMSCALE
 40
3.0
  9
$DIMASZ
 40
2.5
  9
$DIMEXO
 40
1.0
  9
$DIMDLI
 40
7.0
  9
$DIMRND
 40
0.0
  9
$DIMDLE
 40
0.0
  9
$DIMEXE
 40
1.0
  9
$DIMTP
 40
0.1
  9
$DIMTM
 40
0.1000000001
  9
$DIMTXT
 40
2.5
  9
$DIMCEN
 40
0.0
  9
$DIMTSZ
 40
0.0
  9
$DIMTOL
 70
     0
  9
$DIMLIM
 70
     0
  9
$DIMTIH
 70
     0
  9
$DIMTOH
 70
     0
  9
$DIMSE1
 70
     0
  9
$DIMSE2
 70
     0
  9
$DIMTAD
 70
     3
  9
$DIMZIN
 70
     8
  9
$DIMBLK
  1

  9
$DIMASO
 70
     1
  9
$DIMSHO
 70
     1
  9
$DIMPOST
  1

  9
$DIMAPOST
  1
"
  9
$DIMALT
 70
     0
  9
$DIMALTD
 70
     2
  9
$DIMALTF
 40
0.0393701
  9
$DIMLFAC
 40
1.0
  9
$DIMTOFL
 70
     1
  9
$DIMTVP
 40
0.0
  9
$DIMTIX
 70
     0
  9
$DIMSOXD
 70
     0
  9
$DIMSAH
 70
     0
  9
$DIMBLK1
  1

  9
$DIMBLK2
  1

  9
$DIMSTYLE
  2
AM_JIS
  9
$DIMCLRD
 70
   256
  9
$DIMCLRE
 70
   256
  9
$DIMCLRT
 70
     4
  9
$DIMTFAC
 40
0.71
  9
$DIMGAP
 40
1.0
  9
$LUNITS
 70
     2
  9
$LUPREC
 70
     2
  9
$SKETCHINC
 40
1.0
  9
$FILLETRAD
 40
5.0
  9
$AUNITS
 70
     0
  9
$AUPREC
 70
     3
  9
$MENU
  1
.
  9
$ELEVATION
 40
0.0
  9
$PELEVATION
 40
0.0
  9
$THICKNESS
 40
0.0
  9
$LIMCHECK
 70
     0
  9
$BLIPMODE
 70
     0
  9
$CHAMFERA
 40
7.5
  9
$CHAMFERB
 40
7.5
  9
$SKPOLY
 70
     0
  9
$TDCREATE
 40
2452753.643349607
  9
$TDUPDATE
 40
2458543.4401782178
  9
$TDINDWG
 40
0.4124513079
  9
$TDUSRTIMER
 40
0.4124511111
  9
$USRTIMER
 70
     1
  9
$ANGBASE
 50
0.0
  9
$ANGDIR
 70
     0
  9
$PDMODE
 70
     0
  9
$PDSIZE
 40
0.0
  9
$PLINEWID
 40
0.0
  9
$COORDS
 70
     1
  9
$SPLFRAME
 70
     0
  9
$SPLINETYPE
 70
     6
  9
$SPLINESEGS
 70
     8
  9
$ATTDIA
 70
     1
  9
$ATTREQ
 70
     1
  9
$HANDLING
 70
     1
  9
$HANDSEED
  5
15B79
  9
$SURFTAB1
 70
     6
  9
$SURFTAB2
 70
     6
  9
$SURFTYPE
 70
     6
  9
$SURFU
 70
     6
  9
$SURFV
 70
     6
  9
$UCSNAME
  2

  9
$UCSORG
 10
0.0
 20
0.0
 30
0.0
  9
$UCSXDIR
 10
1.0
 20
0.0
 30
0.0
  9
$UCSYDIR
 10
0.0
 20
1.0
 30
0.0
  9
$PUCSNAME
  2

  9
$PUCSORG
 10
0.0
 20
0.0
 30
0.0
  9
$PUCSXDIR
 10
1.0
 20
0.0
 30
0.0
  9
$PUCSYDIR
 10
0.0
 20
1.0
 30
0.0
  9
$USERI1
 70
     0
  9
$USERI2
 70
     0
  9
$USERI3
 70
     0
  9
$USERI4
 70
     0
  9
$USERI5
 70
     0
  9
$USERR1
 40
0.0
  9
$USERR2
 40
0.0
  9
$USERR3
 40
0.0
  9
$USERR4
 40
0.0
  9
$USERR5
 40
0.0
  9
$WORLDVIEW
 70
     1
  9
$SHADEDGE
 70
     3
  9
$SHADEDIF
 70
    70
  9
$TILEMODE
 70
     1
  9
$MAXACTVP
 70
    48
  9
$PLIMCHECK
 70
     0
  9
$PEXTMIN
 10
1.0000000000000000E+020
 20
1.0000000000000000E+020
 30
1.0000000000000000E+020
  9
$PEXTMAX
 10
-1.0000000000000000E+020
 20
-1.0000000000000000E+020
 30
-1.0000000000000000E+020
  9
$PLIMMIN
 10
0.0
 20
0.0
  9
$PLIMMAX
 10
420.0
 20
297.0
  9
$UNITMODE
 70
     0
  9
$VISRETAIN
 70
     1
  9
$PLINEGEN
 70
     0
  9
$PSLTSCALE
 70
     1
  0
ENDSEC
  0
SECTION
  2
TABLES
  0
TABLE
  2
VPORT
 70
     1
  0
VPORT
  2
*ACTIVE
 70
     0
 10
0.0
 20
0.0
 11
1.0
 21
1.0
 12
359.1912364971837
 22
349.06323283329249
 13
0.0
 23
0.0
 14
7.5
 24
7.5
 15
30.0
 25
30.0
 16
0.0
 26
0.0
 36
1.0
 17
0.0
 27
0.0
 37
0.0
 40
420.24665729691958
 41
1.7571592210767459
 42
50.0
 43
0.0
 44
0.0
 50
0.0
 51
0.0
 71
    16
 72
   100
 73
     1
 74
     1
 75
     0
 76
     0
 77
     0
 78
     0
  0
ENDTAB
  0
TABLE
  2
LTYPE
 70
    21
  0
LTYPE
  2
CONTINUOUS
 70
     0
  3
Solid line
 72
    65
 73
     0
 40
0.0
  0
LTYPE
  2
PHANTOM2
 70
     0
  3
Phantom (.5x) ___ _ _ ___ _ _ ___ _ _ ___ _ _
 72
    65
 73
     6
 40
31.75
 49
15.875
 49
-3.174999999999998
 49
3.174999999999998
 49
-3.174999999999998
 49
3.174999999999998
 49
-3.174999999999998
  0
LTYPE
  2
CENTER
 70
     0
  3
Center ____ _ ____ _ ____ _ ____ _ ____ _ ____
 72
    65
 73
     4
 40
50.799999999999997
 49
31.75
 49
-6.3499999999999979
 49
6.3499999999999979
 49
-6.3499999999999979
  0
LTYPE
  2
ACANSTGBM
 70
     0
  3
__ . . __ . .
 72
    65
 73
     6
 40
9.0
 49
4.0
 49
-1.0
 49
1.0
 49
-1.0
 49
1.0
 49
-1.0
  0
LTYPE
  2
ACANSTGLM
 70
     0
  3
_ _ _ _ _
 72
    65
 73
     2
 40
3.0
 49
2.0
 49
-1.0
  0
LTYPE
  2
GEN3B
 70
     0
  3
 - - - - -
 72
    65
 73
     2
 40
1.0
 49
0.5
 49
-0.5
  0
LTYPE
  2
GEN7A
 70
     0
  3
__ . __ . __
 72
    65
 73
     4
 40
7.375
 49
4.75
 49
-0.875
 49
0.875
 49
-0.875
  0
LTYPE
  2
AM_ISO02W050
 70
     0
  3
__ __ __ __ __ __ __ __ __ __ __ __ __ __ __
 72
    65
 73
     2
 40
7.5
 49
6.0
 49
-1.5
  0
LTYPE
  2
AM_ISO08W050
 70
     0
  3
____ . ____ . ____ . ____ . ____ . ____ . ____
 72
    65
 73
     4
 40
18.0
 49
12.0
 49
-1.5
 49
3.0
 49
-1.5
  0
LTYPE
  2
AM_ISO09W050
 70
     0
  3
_____ . . _____ . . _____ . . ____ .. ____
 72
    65
 73
     6
 40
22.5
 49
12.0
 49
-1.5
 49
3.0
 49
-1.5
 49
3.0
 49
-1.5
  0
LTYPE
  2
AMCONSTR
 70
     0
  3
_______________________
 72
    65
 73
     2
 40
9999.0
 49
9999.0
 49
0.0
  0
LTYPE
  2
AM_ISO02W050X2
 70
     0
  3
 _ _ _ _ _ _ _ _ _ _ _ _
 72
    65
 73
     2
 40
3.75
 49
3.0
 49
-0.75
  0
LTYPE
  2
AM_ISO08W050X2
 70
     0
  3
__ . __ . __ . __ . __ . __
 72
    65
 73
     4
 40
9.0
 49
6.0
 49
-0.75
 49
1.5
 49
-0.75
  0
LTYPE
  2
AMZIGZAG
 70
     0
  3
/\/-/\/-/\/-/\/-/\/-/\/
 72
    65
 73
     2
 40
11.0001
 49
0.0001
 49
-11.0
  0
LTYPE
  2
ACJISTGB
 70
     0
  3
__ . . __ . .
 72
    65
 73
     6
 40
9.0
 49
4.0
 49
-1.0
 49
1.0
 49
-1.0
 49
1.0
 49
-1.0
  0
LTYPE
  2
ACJISTGL
 70
     0
  3
_ _ _ _ _
 72
    65
 73
     2
 40
3.0
 49
2.0
 49
-1.0
  0
LTYPE
  2
ACISOWELD
 70
     0
  3
_ _ _ _ _
 72
    65
 73
     2
 40
2.0
 49
2.0
 49
-1.0
  0
LTYPE
  2
ACISOTGB
 70
     0
  3
__ . . __ . .
 72
    65
 73
     6
 40
9.0
 49
4.0
 49
-1.0
 49
1.0
 49
-1.0
 49
1.0
 49
-1.0
  0
LTYPE
  2
ACISOTGL
 70
     0
  3
_ _ _ _ _
 72
    65
 73
     2
 40
3.0
 49
2.0
 49
-1.0
  0
LTYPE
  2
HIDDEN
 70
     0
  3
Hidden __ __ __ __ __ __ __ __ __ __ __ __ __ _
 72
    65
 73
     2
 40
9.5249999999999968
 49
6.3499999999999979
 49
-3.174999999999998
  0
ENDTAB
  0
TABLE
  2
LAYER
 70
     9
  0
LAYER
  2
0
 70
     0
 62
     7
  6
CONTINUOUS
  0
LAYER
  2
ｽﾝﾎﾟｳｾﾝ
 70
     0
 62
     2
  6
CONTINUOUS
  0
LAYER
  2
DEFPOINTS
 70
     0
 62
     7
  6
CONTINUOUS
  0
LAYER
  2
ｷｲﾛ
 70
     0
 62
     2
  6
CONTINUOUS
  0
LAYER
  2
ｶｸﾚｾﾝ2
 70
     0
 62
     3
  6
GEN3B
  0
LAYER
  2
ﾁｭｳｼﾝｾﾝ1
 70
     0
 62
     1
  6
GEN7A
  0
LAYER
  2
AM_0
 70
     0
 62
     7
  6
CONTINUOUS
  0
LAYER
  2
AM_0N
 70
     0
 62
     7
  6
CONTINUOUS
  0
LAYER
  2
AM_5
 70
     0
 62
     2
  6
CONTINUOUS
  0
ENDTAB
  0
TABLE
  2
STYLE
 70
     8
  0
STYLE
  2
STANDARD
 70
     0
 40
0.0
 41
0.8299999999999999
 50
0.0
 71
     0
 42
2.5
  3
txt.shx
  4
bigfont.shx
  0
STYLE
  2
ACANSTS
 70
     0
 40
1.0
 41
1.0
 50
0.0
 71
     0
 42
2.5
  3
romans.shx
  4
bigfont.shx
  0
STYLE
  2
ACANSGDT
 70
     0
 40
0.0
 41
1.0
 50
0.0
 71
     0
 42
2.5
  3
amgdtans.shx
  4

  0
STYLE
  2

 70
     1
 40
0.0
 41
1.0
 50
0.0
 71
     0
 42
2.5
  3
ltypeshp.shx
  4

  0
STYLE
  2
ACJISTS
 70
     0
 40
1.0
 41
1.0
 50
0.0
 71
     0
 42
2.5
  3
isocp.shx
  4
bigfont.shx
  0
STYLE
  2
ACJISGDT
 70
     0
 40
0.0
 41
1.0
 50
0.0
 71
     0
 42
2.5
  3
amgdt.shx
  4

  0
STYLE
  2
ACISOTS
 70
     0
 40
3.0
 41
1.0
 50
0.0
 71
     0
 42
2.5
  3
isocp.shx
  4
extfont.shx
  0
STYLE
  2
ACISOGDT
 70
     0
 40
0.0
 41
1.0
 50
0.0
 71
     0
 42
2.5
  3
amgdt.shx
  4

  0
ENDTAB
  0
TABLE
  2
VIEW
 70
    12
  0
VIEW
  2
GEN1
 70
     0
 40
95.824742268041234
 10
71.5
 20
137.08762886597941
 41
143.0
 11
0.0
 21
0.0
 31
1.0
 12
0.0
 22
0.0
 32
0.0
 42
50.0
 43
0.0
 44
0.0
 50
0.0
 71
     0
  0
VIEW
  2
GEN2
 70
     0
 40
95.824742268041234
 10
214.5
 20
137.08762886597941
 41
143.0
 11
0.0
 21
0.0
 31
1.0
 12
0.0
 22
0.0
 32
0.0
 42
50.0
 43
0.0
 44
0.0
 50
0.0
 71
     0
  0
VIEW
  2
GEN3
 70
     0
 40
95.824742268041234
 10
71.5
 20
47.912371134020603
 41
143.0
 11
0.0
 21
0.0
 31
1.0
 12
0.0
 22
0.0
 32
0.0
 42
50.0
 43
0.0
 44
0.0
 50
0.0
 71
     0
  0
VIEW
  2
GEN4
 70
     0
 40
95.824742268041234
 10
214.5
 20
47.912371134020603
 41
143.0
 11
0.0
 21
0.0
 31
1.0
 12
0.0
 22
0.0
 32
0.0
 42
50.0
 43
0.0
 44
0.0
 50
0.0
 71
     0
  0
VIEW
  2
GEN5
 70
     0
 40
95.824742268041234
 10
143.0
 20
92.500000000000057
 41
143.0
 11
0.0
 21
0.0
 31
1.0
 12
0.0
 22
0.0
 32
0.0
 42
50.0
 43
0.0
 44
0.0
 50
0.0
 71
     0
  0
VIEW
  2
GEN6
 70
     0
 40
191.64756804123709
 10
143.0
 20
92.5
 41
285.99714
 11
0.0
 21
0.0
 31
1.0
 12
0.0
 22
0.0
 32
0.0
 42
50.0
 43
0.0
 44
0.0
 50
0.0
 71
     0
  0
VIEW
  2
AM_VIEW1
 70
     0
 40
277.50000000000011
 10
249.64779005524869
 20
416.25000000000011
 41
499.29558011049721
 11
0.0
 21
0.0
 31
1.0
 12
0.0
 22
0.0
 32
0.0
 42
50.0
 43
0.0
 44
0.0
 50
0.0
 71
    16
  0
VIEW
  2
AM_VIEW2
 70
     0
 40
277.50000000000011
 10
603.85220994475117
 20
416.25000000000011
 41
499.29558011049721
 11
0.0
 21
0.0
 31
1.0
 12
0.0
 22
0.0
 32
0.0
 42
50.0
 43
0.0
 44
0.0
 50
0.0
 71
    16
  0
VIEW
  2
AM_VIEW3
 70
     0
 40
277.50000000000011
 10
249.64779005524869
 20
138.75
 41
499.29558011049721
 11
0.0
 21
0.0
 31
1.0
 12
0.0
 22
0.0
 32
0.0
 42
50.0
 43
0.0
 44
0.0
 50
0.0
 71
    16
  0
VIEW
  2
AM_VIEW4
 70
     0
 40
277.50000000000011
 10
603.85220994475117
 20
138.75
 41
499.29558011049721
 11
0.0
 21
0.0
 31
1.0
 12
0.0
 22
0.0
 32
0.0
 42
50.0
 43
0.0
 44
0.0
 50
0.0
 71
    16
  0
VIEW
  2
AM_VIEW5
 70
     0
 40
277.50000000000011
 10
426.75
 20
277.50000000000011
 41
499.2955801104971
 11
0.0
 21
0.0
 31
1.0
 12
0.0
 22
0.0
 32
0.0
 42
50.0
 43
0.0
 44
0.0
 50
0.0
 71
    16
  0
VIEW
  2
AM_VIEW6
 70
     0
 40
554.99445000000014
 10
426.75
 20
277.5
 41
998.5811743093924
 11
0.0
 21
0.0
 31
1.0
 12
0.0
 22
0.0
 32
0.0
 42
50.0
 43
0.0
 44
0.0
 50
0.0
 71
    16
  0
ENDTAB
  0
TABLE
  2
UCS
 70
     0
  0
ENDTAB
  0
TABLE
  2
APPID
 70
    97
  0
APPID
  2
ACAD
 70
     0
  0
APPID
  2
MCAD_NO_VIS
 70
     0
  0
APPID
  2
ACAD_TEMP_GRAPHIC
 70
     0
  0
APPID
  2
AD_DRAW
 70
     0
  0
APPID
  2
DESIGNERASSEMBLIES
 70
     0
  0
APPID
  2
ASURF_PCURVE_APPNAME
 70
     0
  0
APPID
  2
GENIUS_GE3SECT_13
 70
     0
  0
APPID
  2
GENIUS_GENCFG_13
 70
     0
  0
APPID
  2
GENIUS_GE3CFG0_13
 70
     0
  0
APPID
  2
GENIUS_GENCFG0_13
 70
     0
  0
APPID
  2
GENIUS_GENCFG1_13
 70
     0
  0
APPID
  2
GENIUS_GENCFG2_13
 70
     0
  0
APPID
  2
GENIUS_GENCFG3_13
 70
     0
  0
APPID
  2
GENIUS_GENCFG4_13
 70
     0
  0
APPID
  2
GENIUS_GEVCFG0_13
 70
     0
  0
APPID
  2
GENIUS_GENOENT_13
 70
     0
  0
APPID
  2
GENIUS_GENREC_14
 70
     0
  0
APPID
  2
GENIUS_GENODEF_13
 70
     0
  0
APPID
  2
GENIUS_GENOBJ-N-REC_13
 70
     0
  0
APPID
  2
GENIUS_GENHINW_13
 70
     0
  0
APPID
  2
GENIUS_FIRSTVISTXT_14
 70
     0
  0
APPID
  2
GENIUS_GENOBJ-N-LEADER_13
 70
     0
  0
APPID
  2
GENIUS_GENOREF_13
 70
     0
  0
APPID
  2
GENIUS_GENOLIS_13
 70
     0
  0
APPID
  2
GEV_VCCNULL_SWITCH_OFF
 70
     0
  0
APPID
  2
GENIUS_GENDTOL_13
 70
     0
  0
APPID
  2
GENIUS_GEFCFG0_13
 70
     0
  0
APPID
  2
GENIUS_GENOBJ-N-TIT_13
 70
     0
  0
APPID
  2
GENIUS_GENTITLE_13
 70
     0
  0
APPID
  2
GENIUS_GENZVEED_13
 70
     0
  0
APPID
  2
GENIUS_GENOBJ-N-SDF_13
 70
     0
  0
APPID
  2
GENIUS_GENSCREG_13
 70
     0
  0
APPID
  2
GENIUS_DUMCFG0_13
 70
     0
  0
APPID
  2
GEVID936201362
 70
     0
  0
APPID
  2
GEVDC
 70
     0
  0
APPID
  2
GEVCON
 70
     0
  0
APPID
  2
VCC
 70
     0
  0
APPID
  2
GEVPT
 70
     0
  0
APPID
  2
GEVIT
 70
     0
  0
APPID
  2
GENBH
 70
     0
  0
APPID
  2
GEVMK
 70
     0
  0
APPID
  2
GENIUS_GENBH_13
 70
     0
  0
APPID
  2
GENIUS_GENOBJ-NBEHI-BHF_13
 70
     0
  0
APPID
  2
GENIUS_GENOBJ-NBEHI-BHB_13
 70
     0
  0
APPID
  2
GENIUS_GENOBJ-F-DESC_13
 70
     0
  0
APPID
  2
GENIUS_GEFDESC_14
 70
     0
  0
APPID
  2
GENIUS_GENOBJ-F-PART_13
 70
     0
  0
APPID
  2
GENIUS_GEFSTDP_13
 70
     0
  0
APPID
  2
GENIUS_GEFPARTINS_13
 70
     0
  0
APPID
  2
GENIUS_GENTRA_14
 70
     0
  0
APPID
  2
GENIUS_GENINF13_13
 70
     0
  0
APPID
  2
GENIUS_GENOBJ-N-INFOPT_13
 70
     0
  0
APPID
  2
GENIUS_GENOBJ-N-RSSYM_13
 70
     0
  0
APPID
  2
GENIUS_GENSYMENT_13
 70
     0
  0
APPID
  2
GENIUS_GENSCSYM_13
 70
     0
  0
APPID
  2
GENIUS_GEFINFNAM_13
 70
     0
  0
APPID
  2
GENIUS_GENSCREG_15
 70
     0
  0
APPID
  2
GENIUS_GENOBJ-N-CEN_13
 70
     0
  0
APPID
  2
GENIUS_GENOBJ-N-CRS_13
 70
     0
  0
APPID
  2
GENIUS_GENOBJ-N-CRC_13
 70
     0
  0
APPID
  2
GENIUS_GENCRC_14
 70
     0
  0
APPID
  2
GEVID942827039
 70
     0
  0
APPID
  2
GEVID942827040
 70
     0
  0
APPID
  2
GEVID942827041
 70
     0
  0
APPID
  2
GENIUS_GENOBJ-F-SCPASSM_13
 70
     0
  0
APPID
  2
GENIUS_GENDIMSH_14
 70
     0
  0
APPID
  2
GENIUS_GENFIL_13
 70
     0
  0
APPID
  2
GENIUS_GENOBJ-N-CHA_13
 70
     0
  0
APPID
  2
GENIUS_GENOBJ-N-FIL_13
 70
     0
  0
APPID
  2
GEVID942827042
 70
     0
  0
APPID
  2
GEVID946020473
 70
     0
  0
APPID
  2
GEVID946020474
 70
     0
  0
APPID
  2
GEVID946020475
 70
     0
  0
APPID
  2
GENIUS_GENOBJ-N-HTC_13
 70
     0
  0
APPID
  2
GENIUS_GENHATCH_13
 70
     0
  0
APPID
  2
GEVID948854295
 70
     0
  0
APPID
  2
GEVID939402019
 70
     0
  0
APPID
  2
GEVID952919491
 70
     0
  0
APPID
  2
GEVID952919492
 70
     0
  0
APPID
  2
GENIUS_GEFWELD_13
 70
     0
  0
APPID
  2
GENIUS_GENOBJ-F-WELS_13
 70
     0
  0
APPID
  2
GEVID952919493
 70
     0
  0
APPID
  2
GENIUS_GENOBJ-N-RSBK_13
 70
     0
  0
APPID
  2
GENIUS_GENOBJ-N-LIB_13
 70
     0
  0
APPID
  2
GENIUS_GENSCALE_13
 70
     0
  0
APPID
  2
GEVID986376691
 70
     0
  0
APPID
  2
ACATTRIBSERVICES
 70
     0
  0
APPID
  2
DCO15
 70
     0
  0
APPID
  2
GEVID1088155249
 70
     0
  0
APPID
  2
ACADM_DIM_EDIT
 70
     0
  0
APPID
  2
AMDT_DM_ADJ
 70
     0
  0
APPID
  2
ACAD_MLEADERVER
 70
     0
  0
APPID
  2
ACAD_DSTYLE_DIMBREAK
 70
     0
  0
APPID
  2
ACAD_DSTYLE_DIMJAG
 70
     0
  0
APPID
  2
ACAD_NAV_VCDISPLAY
 70
     0
  0
APPID
  2
ACADANNOPO
 70
     0
  0
APPID
  2
ACAD_EXEMPT_FROM_CAD_STANDARDS
 70
     0
  0
ENDTAB
  0
TABLE
  2
DIMSTYLE
 70
    16
  0
DIMSTYLE
  2
STANDARD
 70
     0
  3

  4

  5

  6

  7

 40
1.0
 41
0.18
 42
0.0625
 43
0.38
 44
0.18
 45
0.0
 46
0.0
 47
0.0
 48
0.0
140
0.18
141
0.09
142
0.0
143
25.399999999999999
144
1.0
145
0.0
146
1.0
147
0.09
 71
     0
 72
     0
 73
     1
 74
     1
 75
     0
 76
     0
 77
     0
 78
     0
170
     0
171
     2
172
     0
173
     0
174
     0
175
     0
176
     0
177
     0
178
     0
  0
DIMSTYLE
  2
AM_JIS
 70
     0
  3

  4
"
  5

  6

  7

 40
1.0
 41
2.5
 42
1.0
 43
7.0
 44
1.0
 45
0.0
 46
0.0
 47
0.1
 48
0.1000000001
140
2.5
141
0.0
142
0.0
143
0.0393701
144
1.0
145
0.0
146
0.71
147
1.0
 71
     0
 72
     0
 73
     0
 74
     0
 75
     0
 76
     0
 77
     3
 78
     8
170
     0
171
     2
172
     1
173
     0
174
     0
175
     0
176
   256
177
   256
178
     4
  0
DIMSTYLE
  2
AM_JIS$3
 70
     0
  3

  4
"
  5

  6

  7

 40
1.0
 41
2.5
 42
1.0
 43
7.0
 44
1.0
 45
0.0
 46
0.0
 47
0.1
 48
0.1000000001
140
2.5
141
0.0
142
0.0
143
0.0393701
144
1.0
145
0.0
146
0.71
147
1.0
 71
     0
 72
     0
 73
     0
 74
     1
 75
     0
 76
     0
 77
     3
 78
     8
170
     0
171
     2
172
     0
173
     0
174
     0
175
     0
176
   256
177
   256
178
     4
  0
DIMSTYLE
  2
AM_JIS$4
 70
     0
  3

  4
"
  5

  6

  7

 40
1.0
 41
2.5
 42
1.0
 43
7.0
 44
1.0
 45
0.0
 46
0.0
 47
0.1
 48
0.1000000001
140
2.5
141
0.0
142
0.0
143
0.0393701
144
1.0
145
0.0
146
0.71
147
1.0
 71
     0
 72
     0
 73
     0
 74
     0
 75
     0
 76
     0
 77
     3
 78
     8
170
     0
171
     2
172
     0
173
     0
174
     0
175
     0
176
   256
177
   256
178
     4
  0
DIMSTYLE
  2
AM_JIS$6
 70
     0
  3

  4
"
  5

  6

  7

 40
1.0
 41
2.5
 42
1.0
 43
7.0
 44
1.0
 45
0.0
 46
0.0
 47
0.1
 48
0.1000000001
140
2.5
141
0.0
142
0.0
143
0.0393701
144
1.0
145
0.0
146
0.71
147
1.0
 71
     0
 72
     0
 73
     0
 74
     0
 75
     0
 76
     0
 77
     0
 78
     8
170
     0
171
     2
172
     1
173
     0
174
     0
175
     0
176
   256
177
   256
178
     4
  0
DIMSTYLE
  2
AM_JIS$7
 70
     0
  3

  4
"
  5

  6

  7

 40
1.0
 41
2.5
 42
1.0
 43
7.0
 44
1.0
 45
0.0
 46
0.0
 47
0.1
 48
0.1000000001
140
2.5
141
0.0
142
0.0
143
0.0393701
144
1.0
145
0.0
146
0.71
147
1.0
 71
     0
 72
     0
 73
     0
 74
     0
 75
     0
 76
     0
 77
     3
 78
     8
170
     0
171
     2
172
     1
173
     0
174
     0
175
     0
176
   256
177
   256
178
     4
  0
DIMSTYLE
  2
AM_JIS$SF
 70
     0
  3

  4
"
  5
OPEN30
  6
OPEN30
  7
OPEN30
 40
1.0
 41
2.5
 42
1.0
 43
10.0
 44
1.0
 45
0.0
 46
0.0
 47
0.1
 48
0.1
140
3.5
141
0.0
142
0.0
143
0.0393701
144
1.0
145
0.0
146
0.71
147
1.5
 71
     0
 72
     0
 73
     0
 74
     0
 75
     1
 76
     1
 77
     3
 78
     8
170
     0
171
     2
172
     1
173
     0
174
     0
175
     0
176
   256
177
   256
178
     4
  0
DIMSTYLE
  2
AM_JIS$SH
 70
     0
  3

  4
"
  5

  6
NONE
  7

 40
1.0
 41
2.5
 42
1.0
 43
10.0
 44
1.0
 45
0.0
 46
0.0
 47
0.1
 48
0.1
140
3.5
141
0.0
142
0.0
143
0.0393701
144
1.0
145
0.0
146
0.71
147
1.5
 71
     0
 72
     0
 73
     0
 74
     0
 75
     1
 76
     0
 77
     3
 78
     8
170
     0
171
     2
172
     1
173
     1
174
     0
175
     0
176
   256
177
   256
178
     4
  0
DIMSTYLE
  2
AM_ISO
 70
     0
  3

  4
"
  5

  6

  7

 40
1.0
 41
2.5
 42
1.0
 43
10.0
 44
1.0
 45
0.0
 46
0.0
 47
0.0
 48
0.000000001
140
3.0
141
0.0
142
0.0
143
0.0393701
144
1.0
145
0.0
146
0.71
147
1.299999999999998
 71
     1
 72
     0
 73
     0
 74
     0
 75
     0
 76
     0
 77
     1
 78
     8
170
     0
171
     2
172
     1
173
     0
174
     0
175
     0
176
   256
177
   256
178
     4
  0
DIMSTYLE
  2
AM_ISO$3
 70
     0
  3

  4
"
  5

  6

  7

 40
1.0
 41
2.5
 42
1.0
 43
10.0
 44
1.0
 45
0.0
 46
0.0
 47
0.0
 48
0.000000001
140
2.5
141
0.0
142
0.0
143
0.0393701
144
1.0
145
0.0
146
0.71
147
1.299999999999998
 71
     1
 72
     0
 73
     0
 74
     1
 75
     0
 76
     0
 77
     1
 78
     8
170
     0
171
     2
172
     0
173
     0
174
     0
175
     0
176
   256
177
   256
178
     4
  0
DIMSTYLE
  2
AM_ISO$4
 70
     0
  3

  4
"
  5

  6

  7

 40
1.0
 41
2.5
 42
1.0
 43
10.0
 44
1.0
 45
0.0
 46
0.0
 47
0.0
 48
0.000000001
140
2.5
141
0.0
142
0.0
143
0.0393701
144
1.0
145
0.0
146
0.71
147
1.299999999999998
 71
     1
 72
     0
 73
     0
 74
     1
 75
     0
 76
     0
 77
     1
 78
     8
170
     0
171
     2
172
     0
173
     0
174
     0
175
     0
176
   256
177
   256
178
     4
  0
DIMSTYLE
  2
AM_ISO$6
 70
     0
  3

  4
"
  5

  6

  7

 40
1.0
 41
2.5
 42
1.0
 43
10.0
 44
1.0
 45
0.0
 46
0.0
 47
0.0
 48
0.000000001
140
2.5
141
0.0
142
0.0
143
0.0393701
144
1.0
145
0.0
146
0.71
147
1.299999999999998
 71
     1
 72
     0
 73
     0
 74
     0
 75
     0
 76
     0
 77
     0
 78
     8
170
     0
171
     2
172
     1
173
     0
174
     0
175
     0
176
   256
177
   256
178
     4
  0
DIMSTYLE
  2
AM_ISO$7
 70
     0
  3

  4
"
  5

  6

  7

 40
1.0
 41
2.5
 42
1.0
 43
10.0
 44
1.0
 45
0.0
 46
0.0
 47
0.0
 48
0.000000001
140
2.5
141
0.0
142
0.0
143
0.0393701
144
1.0
145
0.0
146
0.71
147
1.299999999999998
 71
     1
 72
     0
 73
     0
 74
     0
 75
     0
 76
     0
 77
     1
 78
     8
170
     0
171
     2
172
     1
173
     0
174
     0
175
     0
176
   256
177
   256
178
     4
  0
DIMSTYLE
  2
AM_ISO$SF
 70
     0
  3

  4
"
  5

  6

  7

 40
1.0
 41
2.5
 42
1.0
 43
10.0
 44
1.0
 45
0.0
 46
0.0
 47
0.1
 48
0.1
140
3.5
141
0.0
142
0.0
143
0.0393701
144
1.0
145
0.0
146
0.71
147
1.5
 71
     0
 72
     0
 73
     0
 74
     0
 75
     1
 76
     1
 77
     1
 78
     8
170
     0
171
     2
172
     1
173
     0
174
     0
175
     0
176
   256
177
   256
178
     4
  0
DIMSTYLE
  2
AM_ISO$SH
 70
     0
  3

  4
"
  5

  6
GENAXEH
  7

 40
1.0
 41
2.5
 42
1.0
 43
10.0
 44
1.0
 45
0.0
 46
0.0
 47
0.1
 48
0.1
140
3.5
141
0.0
142
0.0
143
0.0393701
144
2.0
145
0.0
146
0.71
147
1.5
 71
     0
 72
     0
 73
     0
 74
     0
 75
     1
 76
     1
 77
     1
 78
     8
170
     0
171
     2
172
     1
173
     1
174
     0
175
     0
176
   256
177
   256
178
     4
  0
DIMSTYLE
  2
AM_JIS$0
 70
     0
  3

  4
"
  5

  6

  7

 40
1.0
 41
2.5
 42
1.0
 43
7.0
 44
1.0
 45
0.0
 46
0.0
 47
0.1
 48
0.1000000001
140
2.5
141
0.0
142
0.0
143
0.0393701
144
1.0
145
0.0
146
0.71
147
1.0
 71
     0
 72
     0
 73
     0
 74
     0
 75
     0
 76
     0
 77
     3
 78
     8
170
     0
171
     2
172
     1
173
     0
174
     0
175
     0
176
   256
177
   256
178
     4
  0
ENDTAB
  0
ENDSEC
  0
SECTION
  2
BLOCKS
  0
BLOCK
  8
0
  2
$MODEL_SPACE
 70
     0
 10
0.0
 20
0.0
 30
0.0
  3
$MODEL_SPACE
  1

  0
ENDBLK
  5
1A
  8
0
  0
BLOCK
 67
     1
  8
0
  2
$PAPER_SPACE
 70
     0
 10
0.0
 20
0.0
 30
0.0
  3
$PAPER_SPACE
  1

  0
ENDBLK
  5
17
 67
     1
  8
0
  0
BLOCK
  8
0
  2
_OPEN30
 70
     0
 10
0.0
 20
0.0
 30
0.0
  3
_OPEN30
  1

  0
LINE
  5
21C5
  8
0
 62
     0
 10
-1.0
 20
0.26794919
 30
0.0
 11
0.0
 21
0.0
 31
0.0
  0
LINE
  5
21C6
  8
0
 62
     0
 10
0.0
 20
0.0
 30
0.0
 11
-1.0
 21
-0.26794919
 31
0.0
  0
LINE
  5
21C7
  8
0
 62
     0
 10
0.0
 20
0.0
 30
0.0
 11
-1.0
 21
0.0
 31
0.0
  0
ENDBLK
  5
21C9
  8
0
  0
BLOCK
  8
0
  2
GENAXEH
 70
     0
 10
0.0
 20
0.0
 30
0.0
  3
GENAXEH
  1

  0
LINE
  5
21D0
  8
0
 10
-1.0
 20
0.0
 30
0.0
 11
1.0
 21
0.0
 31
0.0
  0
ENDBLK
  5
21D2
  8
0
  0
BLOCK
  8
0
  2
_NONE
 70
     0
 10
0.0
 20
0.0
 30
0.0
  3
_NONE
  1

  0
ENDBLK
  5
8193
  8
0
  0
ENDSEC
  0
SECTION
  2
ENTITIES
  0
POINT
  5
1B94
  8
0
 10
0.0
 20
0.0
 30
0.0
1001
GENIUS_GENODEF_13
1002
{
1000
HIER
1070
     1
1002
}
1002
{
1000
MANEDIT
1070
     0
1002
}
1002
{
1000
NOSEL
1070
     0
1002
}
1002
{
1000
BEHIND
1070
     0
1002
}
1002
{
1000
REACTOR
1002
}
1001
GENIUS_GENOBJ-N-SDF_13
1002
{
1000
OWNER
1000
GEN
1002
}
1001
GENIUS_GENOENT_13
1002
{
1000
MYREF
1005
1B94
1002
}
1002
{
1000
GRP
1005
0
1002
}
1001
GENIUS_GENOLIS_13
1002
{
1000
ENT
1005
89
1002
}
  0
ARC
  5
13707
  8
0
 10
373.64102997361368
 20
303.07254707683779
 30
0.0
 40
12.0
 50
90.0
 51
156.070183125966
  0
ARC
  5
13708
  8
0
 10
374.95473742951731
 20
282.07254707683802
 30
0.0
 40
3.0
 50
90.0
 51
199.47122063448779
1001
GENIUS_GENODEF_13
1002
{
1000
HIER
1070
     0
1002
}
1002
{
1000
MANEDIT
1070
     0
1002
}
1002
{
1000
NOSEL
1070
     0
1002
}
1002
{
1000
BEHIND
1070
     0
1002
}
1002
{
1000
OTHER
1070
     0
1002
}
1002
{
1000
REACTOR
1002
}
1001
GENIUS_GENOBJ-N-FIL_13
1002
{
1000
OWNER
1000
GEN
1002
}
  0
ARC
  5
13709
  8
0
 10
363.64102893053251
 20
278.07254707683768
 30
0.0
 40
9.0
 50
239.99999162024909
 51
19.4712206344878
  0
LINE
  5
1370A
  8
AM_0
 10
418.9231807294309
 20
285.07254707683808
 30
0.0
 11
359.64102741061402
 21
285.07254707683791
 31
0.0
  0
ARC
  5
1370B
  8
0
 10
373.64103116570669
 20
303.0725458847449
 30
0.0
 40
9.0
 50
221.44585651111089
 51
343.30075622292458
  0
ARC
  5
1370C
  8
0
 10
374.95473742951731
 20
194.07254707683759
 30
0.0
 40
3.0
 50
160.52877936551209
 51
270.0
1001
GENIUS_GENODEF_13
1002
{
1000
HIER
1070
     0
1002
}
1002
{
1000
MANEDIT
1070
     0
1002
}
1002
{
1000
NOSEL
1070
     0
1002
}
1002
{
1000
BEHIND
1070
     0
1002
}
1002
{
1000
OTHER
1070
     0
1002
}
1002
{
1000
REACTOR
1002
}
1001
GENIUS_GENOBJ-N-FIL_13
1002
{
1000
OWNER
1000
GEN
1002
}
  0
LINE
  5
1370D
  8
AM_0
 10
418.9231807294309
 20
191.07254707683779
 30
0.0
 11
359.64102741061402
 21
191.07254707683779
 31
0.0
  0
ARC
  5
1370E
  8
0
 10
373.64102997361368
 20
173.07254707683759
 30
0.0
 40
12.0
 50
203.92981687403369
 51
270.0
  0
ARC
  5
1370F
  8
0
 10
373.64103116570669
 20
173.07254826893049
 30
0.0
 40
9.0
 50
33.94543635354821
 51
138.554143488889
  0
ARC
  5
13710
  8
0
 10
363.64102893053251
 20
198.07254707683759
 30
0.0
 40
9.0
 50
340.52877936551221
 51
120.0000083797508
  0
LINE
  5
13711
  8
ﾁｭｳｼﾝｾﾝ1
 10
360.64102997361402
 20
303.07254707683779
 30
0.0
 11
386.64102997361368
 21
303.07254707683779
 31
0.0
1001
GENIUS_GENODEF_13
1002
{
1000
HIER
1070
     0
1002
}
1002
{
1000
MANEDIT
1070
     0
1002
}
1002
{
1000
NOSEL
1070
     0
1002
}
1002
{
1000
BEHIND
1070
     0
1002
}
1002
{
1000
OTHER
1070
     0
1002
}
1002
{
1000
REACTOR
1002
}
1001
GENIUS_GENOBJ-N-CEN_13
1002
{
1000
OWNER
1000
GEN
1002
}
  0
CIRCLE
  5
13712
  8
0
 10
373.64102997361368
 20
303.07254707683779
 30
0.0
 40
4.4999999999999982
  0
LINE
  5
13714
  8
ﾁｭｳｼﾝｾﾝ1
 10
360.64102997361402
 20
173.07254707683791
 30
0.0
 11
386.64102997361368
 21
173.07254707683791
 31
0.0
1001
GENIUS_GENODEF_13
1002
{
1000
HIER
1070
     0
1002
}
1002
{
1000
MANEDIT
1070
     0
1002
}
1002
{
1000
NOSEL
1070
     0
1002
}
1002
{
1000
BEHIND
1070
     0
1002
}
1002
{
1000
OTHER
1070
     0
1002
}
1002
{
1000
REACTOR
1002
}
1001
GENIUS_GENOBJ-N-CEN_13
1002
{
1000
OWNER
1000
GEN
1002
}
  0
CIRCLE
  5
13715
  8
0
 10
373.64102997361368
 20
173.07254707683791
 30
0.0
 40
4.4999999999999982
  0
LINE
  5
13718
  8
ﾁｭｳｼﾝｾﾝ1
 10
343.64739597646422
 20
238.07254707683779
 30
0.0
 11
654.34981283331103
 21
238.07254707683779
 31
0.0
  0
ARC
  5
1371C
  8
0
 10
357.64102741061402
 20
267.68024310894998
 30
0.0
 40
3.0
 50
59.999991620249162
 51
180.0
1001
GENIUS_GENOBJ-N-FIL_13
1002
{
1000
OWNER
1000
GEN
1002
}
1001
GENIUS_GENODEF_13
1002
{
1000
HIER
1070
     0
1002
}
1002
{
1000
MANEDIT
1070
     0
1002
}
1002
{
1000
NOSEL
1070
     0
1002
}
1002
{
1000
BEHIND
1070
     0
1002
}
1002
{
1000
OTHER
1070
     0
1002
}
1002
{
1000
REACTOR
1002
}
  0
LINE
  5
1371D
  8
AM_0
 10
354.64102741061402
 20
278.07254826893069
 30
0.0
 11
354.64102741061402
 21
238.07254707683779
 31
0.0
  0
LINE
  5
1371E
  8
AM_0
 10
350.64102741061402
 20
278.07254826893069
 30
0.0
 11
350.64102741061402
 21
198.07254588474521
 31
0.0
  0
LINE
  5
13721
  8
AM_0
 10
129.09099836556661
 20
269.57254827489089
 30
0.0
 11
129.09099836556661
 21
286.57254827489101
 31
0.0
  0
LINE
  5
13722
  8
0
 10
238.68099908956199
 20
161.07254626064201
 30
0.0
 11
238.68099952940361
 21
315.07254790839329
 31
0.0
  0
LINE
  5
13723
  8
AM_0
 10
130.6809983655665
 20
287.9728794735056
 30
0.0
 11
130.6809983655665
 21
188.1722146801699
 31
0.0
  0
LINE
  5
13724
  8
AM_0
 10
193.68100024311269
 20
289.07254859675641
 30
0.0
 11
193.68100024311269
 21
187.07254555691949
 31
0.0
  0
LINE
  5
13729
  8
ﾁｭｳｼﾝｾﾝ1
 10
168.6809993080546
 20
140.38961795282691
 30
0.0
 11
168.6809993080546
 21
306.09155723482257
 31
0.0
  0
ARC
  5
13731
  8
AM_0
 10
168.68099949805469
 20
238.07254707683779
 30
0.0
 40
56.499999999999972
 50
242.48212463479919
 51
295.51787536520169
  0
LINE
  5
13732
  8
AM_0
 10
193.68100024311411
 20
187.07254555691941
 30
0.0
 11
130.68099836556621
 21
188.1722146801699
 31
0.0
  0
LINE
  5
13733
  8
AM_0
 10
137.18099930805491
 20
171.07254707683779
 30
0.0
 11
200.18099930805499
 21
171.07254707683791
 31
0.0
  0
LINE
  5
13735
  8
ﾁｭｳｼﾝｾﾝ1
 10
271.17527621197428
 20
238.07254707683791
 30
0.0
 11
102.1809993080546
 21
238.07254707683779
 31
0.0
  0
LINE
  5
13736
  8
AM_0
 10
138.6809994980544
 20
188.03257414097649
 30
0.0
 11
138.6809994980546
 21
171.07254707683779
 31
0.0
  0
LINE
  5
13737
  8
AM_0
 10
134.7147015502668
 20
181.0376475801356
 30
0.0
 11
134.96123712825479
 21
188.09750283465891
 31
0.0
  0
LINE
  5
13738
  8
AM_0
 10
132.6472974458427
 20
181.03764758013531
 30
0.0
 11
132.39920019284691
 21
188.142223355715
 31
0.0
  0
ARC
  5
13739
  8
AM_0
 10
136.71844855407659
 20
182.1131829548471
 30
0.0
 40
1.965536666759129
 50
3.1584702260748112
 51
179.35044678892791
  0
ARC
  5
13A27
  8
AM_0
 10
133.64668827286161
 20
181.07254707683799
 30
0.0
 40
0.9999999999999996
 50
181.9999999999971
 51
270.0
1001
GENIUS_GENODEF_13
1002
{
1000
HIER
1070
     0
1002
}
1002
{
1000
MANEDIT
1070
     0
1002
}
1002
{
1000
NOSEL
1070
     0
1002
}
1002
{
1000
BEHIND
1070
     0
1002
}
1002
{
1000
REACTOR
1002
}
1001
GENIUS_GENOBJ-N-FIL_13
1002
{
1000
OWNER
1000
GEN
1002
}
  0
LINE
  5
13A28
  8
AM_0
 10
133.71531072324771
 20
180.07254707683779
 30
0.0
 11
133.64668827286161
 21
180.07254707683779
 31
0.0
  0
ARC
  5
13A29
  8
AM_0
 10
133.71531072324771
 20
181.07254707683799
 30
0.0
 40
0.9999999999999996
 50
269.999999999995
 51
357.99999999999642
1001
GENIUS_GENODEF_13
1002
{
1000
HIER
1070
     0
1002
}
1002
{
1000
MANEDIT
1070
     0
1002
}
1002
{
1000
NOSEL
1070
     0
1002
}
1002
{
1000
BEHIND
1070
     0
1002
}
1002
{
1000
REACTOR
1002
}
1001
GENIUS_GENOBJ-N-FIL_13
1002
{
1000
OWNER
1000
GEN
1002
}
  0
LINE
  5
13A2E
  8
AM_0
 10
126.68099824635721
 20
265.57254789640172
 30
0.0
 11
126.68099824635721
 21
210.57254625727421
 31
0.0
  0
LINE
  5
13A2F
  8
AM_0
 10
129.09099836556661
 20
206.57254587878489
 30
0.0
 11
129.09099836556661
 21
189.57254587878469
 31
0.0
  0
LINE
  5
13A30
  8
0
 10
121.0909983655667
 20
204.57254587878489
 30
0.0
 11
129.09099836556661
 21
204.57254587878489
 31
0.0
  0
LINE
  5
13A31
  8
0
 10
129.09099836556661
 20
191.57254587878481
 30
0.0
 11
121.0909983655667
 21
191.57254587878481
 31
0.0
  0
LINE
  5
13A32
  8
0
 10
130.6809983655665
 20
189.57254587878469
 30
0.0
 11
129.09099836556661
 21
189.57254587878469
 31
0.0
  0
LINE
  5
13A33
  8
0
 10
130.6809983655665
 20
206.57254587878481
 30
0.0
 11
129.09099836556661
 21
206.57254587878481
 31
0.0
  0
LINE
  5
13A34
  8
AM_0
 10
126.68099824635721
 20
210.57254625727401
 30
0.0
 11
130.6809983655665
 21
210.57254625727401
 31
0.0
  0
LINE
  5
13A37
  8
0
 10
130.6809983655665
 20
269.57254827489101
 30
0.0
 11
129.09099836556661
 21
269.57254827489101
 31
0.0
  0
LINE
  5
13A38
  8
AM_0
 10
126.68099824635721
 20
265.57254789640172
 30
0.0
 11
130.6809983655665
 21
265.57254789640172
 31
0.0
  0
ARC
  5
13A39
  8
0
 10
219.68099946487089
 20
183.16266573078769
 30
0.0
 40
2.9999999999999978
 50
0.0000001678559361
 51
87.999999999999616
1001
GENIUS_GENOBJ-N-FIL_13
1002
{
1000
OWNER
1000
GEN
1002
}
1001
GENIUS_GENODEF_13
1002
{
1000
HIER
1070
     0
1002
}
1002
{
1000
MANEDIT
1070
     0
1002
}
1002
{
1000
NOSEL
1070
     0
1002
}
1002
{
1000
BEHIND
1070
     0
1002
}
1002
{
1000
OTHER
1070
     0
1002
}
1002
{
1000
REACTOR
1002
}
  0
LINE
  5
13A3C
  8
AM_0
 10
204.71470155026671
 20
181.03764758013531
 30
0.0
 11
204.9117455015483
 21
186.6802480769025
 31
0.0
  0
LINE
  5
13A3D
  8
AM_0
 10
202.6472974458427
 20
181.0376475801356
 30
0.0
 11
202.44724813825661
 21
186.76631022123911
 31
0.0
  0
LINE
  5
13A3F
  8
AM_0
 10
198.68099949805469
 20
186.8978305218522
 30
0.0
 11
198.68099949805469
 21
171.07254707683779
 31
0.0
  0
ARC
  5
13A40
  8
AM_0
 10
200.64355044203259
 20
182.1131829548471
 30
0.0
 40
1.965536666759129
 50
0.6495532110655964
 51
176.84152977392509
  0
LINE
  5
13A42
  8
ﾁｭｳｼﾝｾﾝ1
 10
218.88618476809049
 20
173.07254707683791
 30
0.0
 11
244.88618476809049
 21
173.07254707683791
 31
0.0
1001
GENIUS_GENODEF_13
1002
{
1000
HIER
1070
     0
1002
}
1002
{
1000
MANEDIT
1070
     0
1002
}
1002
{
1000
NOSEL
1070
     0
1002
}
1002
{
1000
BEHIND
1070
     0
1002
}
1002
{
1000
OTHER
1070
     0
1002
}
1002
{
1000
REACTOR
1002
}
1001
GENIUS_GENOBJ-N-CEN_13
1002
{
1000
OWNER
1000
GEN
1002
}
  0
LINE
  5
13CF4
  8
AM_0
 10
203.6466882728615
 20
180.07254707683779
 30
0.0
 11
203.7153107232476
 21
180.07254707683779
 31
0.0
  0
ARC
  5
13CF5
  8
AM_0
 10
203.6466882728615
 20
181.07254707683799
 30
0.0
 40
0.9999999999999996
 50
181.9999999999971
 51
270.0
1001
GENIUS_GENODEF_13
1002
{
1000
HIER
1070
     0
1002
}
1002
{
1000
MANEDIT
1070
     0
1002
}
1002
{
1000
NOSEL
1070
     0
1002
}
1002
{
1000
BEHIND
1070
     0
1002
}
1002
{
1000
REACTOR
1002
}
1001
GENIUS_GENOBJ-N-FIL_13
1002
{
1000
OWNER
1000
GEN
1002
}
  0
ARC
  5
13CF6
  8
AM_0
 10
203.7153107232476
 20
181.07254707683799
 30
0.0
 40
0.9999999999999996
 50
269.999999999995
 51
357.99999999999642
1001
GENIUS_GENODEF_13
1002
{
1000
HIER
1070
     0
1002
}
1002
{
1000
MANEDIT
1070
     0
1002
}
1002
{
1000
NOSEL
1070
     0
1002
}
1002
{
1000
BEHIND
1070
     0
1002
}
1002
{
1000
REACTOR
1002
}
1001
GENIUS_GENOBJ-N-FIL_13
1002
{
1000
OWNER
1000
GEN
1002
}
  0
ARC
  5
13CF8
  8
0
 10
224.68099952229159
 20
163.562656107013
 30
0.0
 40
1.9999999999999989
 50
180.00000016364311
 51
267.9999999999996
1001
GENIUS_GENOBJ-N-FIL_13
1002
{
1000
OWNER
1000
GEN
1002
}
1001
GENIUS_GENODEF_13
1002
{
1000
HIER
1070
     0
1002
}
1002
{
1000
MANEDIT
1070
     0
1002
}
1002
{
1000
NOSEL
1070
     0
1002
}
1002
{
1000
BEHIND
1070
     0
1002
}
1002
{
1000
OTHER
1070
     0
1002
}
1002
{
1000
REACTOR
1002
}
  0
LINE
  5
13CF9
  8
0
 10
224.61120052888651
 20
161.5638744529748
 30
0.0
 11
238.6809995579473
 21
161.0725462442856
 31
0.0
  0
LINE
  5
13CFA
  8
0
 10
222.68099946487081
 20
183.16266573957671
 30
0.0
 11
222.68099952229159
 21
163.56265610130069
 31
0.0
  0
LINE
  5
13D00
  8
ｶｸﾚｾﾝ2
 10
210.68100074975229
 20
263.57254789640172
 30
0.0
 11
210.6810007497522
 21
212.57254625727401
 31
0.0
  0
LINE
  5
13D01
  8
0
 10
193.67463270001261
 20
187.07265670279779
 30
0.0
 11
219.7856979549783
 21
186.16083821184509
 31
0.0
  0
LINE
  5
13D0E
  8
0
 10
361.90392357671141
 20
179.79864036488769
 30
0.0
 11
355.41464048649209
 21
194.42198994326739
 31
0.0
  0
LINE
  5
13D0F
  8
0
 10
362.67251403721281
 20
168.20513933216341
 30
0.0
 11
351.75846850769182
 21
192.79952069504259
 31
0.0
  0
ARC
  5
13D16
  8
0
 10
364.64605256081148
 20
181.0154923010563
 30
0.0
 40
3.0
 50
203.92981687403369
 51
318.554143488889
1001
GENIUS_GENOBJ-N-FIL_13
1002
{
1000
OWNER
1000
GEN
1002
}
1001
GENIUS_GENODEF_13
1002
{
1000
HIER
1070
     0
1002
}
1002
{
1000
MANEDIT
1070
     0
1002
}
1002
{
1000
NOSEL
1070
     0
1002
}
1002
{
1000
BEHIND
1070
     0
1002
}
1002
{
1000
OTHER
1070
     0
1002
}
1002
{
1000
REACTOR
1002
}
  0
LINE
  5
13D18
  8
AM_0
 10
354.64102741061402
 20
238.07254707683779
 30
0.0
 11
354.64102741061402
 21
198.0725458847449
 31
0.0
  0
ARC
  5
13D19
  8
0
 10
357.64102741061402
 20
208.46485104472549
 30
0.0
 40
3.0
 50
180.0
 51
300.0000083797508
1001
GENIUS_GENOBJ-N-FIL_13
1002
{
1000
OWNER
1000
GEN
1002
}
1001
GENIUS_GENODEF_13
1002
{
1000
HIER
1070
     0
1002
}
1002
{
1000
MANEDIT
1070
     0
1002
}
1002
{
1000
NOSEL
1070
     0
1002
}
1002
{
1000
BEHIND
1070
     0
1002
}
1002
{
1000
OTHER
1070
     0
1002
}
1002
{
1000
REACTOR
1002
}
  0
ARC
  5
13D1A
  8
AM_0
 10
363.64102773843962
 20
198.07254588474481
 30
0.0
 40
13.00000032782555
 50
179.99999499103649
 51
203.92981687403369
  0
ARC
  5
13D1B
  8
AM_0
 10
363.64102773843962
 20
198.07254588474481
 30
0.0
 40
9.0000003278255516
 50
179.99999499103649
 51
203.92981687403369
  0
CIRCLE
  5
13D1C
  8
0
 10
363.64102773843962
 20
198.07254707683791
 30
0.0
 40
3.25
  0
CIRCLE
  5
13D1D
  8
ｷｲﾛ
 10
363.64102773843962
 20
198.07254707683791
 30
0.0
 40
4.0
  0
ARC
  5
13D1E
  8
AM_0
 10
359.64102741061402
 20
196.07254707683771
 30
0.0
 40
5.0
 50
228.9011962787331
 51
270.0
1001
GENIUS_GENODEF_13
1002
{
1000
HIER
1070
     0
1002
}
1002
{
1000
MANEDIT
1070
     0
1002
}
1002
{
1000
NOSEL
1070
     0
1002
}
1002
{
1000
BEHIND
1070
     0
1002
}
1002
{
1000
OTHER
1070
     0
1002
}
1002
{
1000
REACTOR
1002
}
1001
GENIUS_GENOBJ-N-FIL_13
1002
{
1000
OWNER
1000
GEN
1002
}
  0
ARC
  5
13D1F
  8
0
 10
356.64102741061402
 20
234.07254707683779
 30
0.0
 40
2.0
 50
90.0
 51
180.0
1001
GENIUS_GENODEF_13
1002
{
1000
HIER
1070
     0
1002
}
1002
{
1000
MANEDIT
1070
     0
1002
}
1002
{
1000
NOSEL
1070
     0
1002
}
1002
{
1000
BEHIND
1070
     0
1002
}
1002
{
1000
OTHER
1070
     0
1002
}
1002
{
1000
REACTOR
1002
}
1001
GENIUS_GENOBJ-N-FIL_13
1002
{
1000
OWNER
1000
GEN
1002
}
  0
ARC
  5
13D20
  8
0
 10
356.64102741061402
 20
242.07254707683779
 30
0.0
 40
2.0
 50
180.0
 51
270.0
1001
GENIUS_GENOBJ-N-FIL_13
1002
{
1000
OWNER
1000
GEN
1002
}
1001
GENIUS_GENODEF_13
1002
{
1000
HIER
1070
     0
1002
}
1002
{
1000
MANEDIT
1070
     0
1002
}
1002
{
1000
NOSEL
1070
     0
1002
}
1002
{
1000
BEHIND
1070
     0
1002
}
1002
{
1000
OTHER
1070
     0
1002
}
1002
{
1000
REACTOR
1002
}
  0
ARC
  5
13D21
  8
0
 10
358.64102741061402
 20
238.07254707683779
 30
0.0
 40
2.0
 50
270.0
 51
90.0
  0
LINE
  5
13D22
  8
0
 10
358.64102741061402
 20
236.07254707683779
 30
0.0
 11
356.64102741061402
 21
236.07254707683779
 31
0.0
  0
LINE
  5
13D23
  8
0
 10
358.64102741061402
 20
240.07254707683779
 30
0.0
 11
356.64102741061402
 21
240.07254707683779
 31
0.0
  0
ARC
  5
13D25
  8
AM_0
 10
168.68099949805469
 20
238.07254707683779
 30
0.0
 40
56.499999999999972
 50
64.482124634799419
 51
117.51787536520069
  0
LINE
  5
13D26
  8
AM_0
 10
193.68100024311411
 20
289.07254859675618
 30
0.0
 11
130.6809983655665
 21
287.9728794735056
 31
0.0
  0
LINE
  5
13D29
  8
AM_0
 10
132.6568996753457
 20
293.3824184496678
 30
0.0
 11
132.46908432930749
 21
288.00409063010011
 31
0.0
  0
LINE
  5
13D2A
  8
AM_0
 10
134.72746536445149
 20
293.40650235400801
 30
0.0
 11
134.91463106988849
 21
288.04677780724188
 31
0.0
  0
LINE
  5
13D2B
  8
0
 10
121.0909983655667
 20
271.57254827489101
 30
0.0
 11
129.09099836556661
 21
271.57254827489101
 31
0.0
  0
LINE
  5
13D2C
  8
0
 10
129.09099836556661
 20
284.57254827489101
 30
0.0
 11
121.0909983655667
 21
284.57254827489101
 31
0.0
  0
LINE
  5
13D2D
  8
0
 10
130.6809983655665
 20
286.57254827489101
 30
0.0
 11
129.09099836556661
 21
286.57254827489101
 31
0.0
  0
ARC
  5
13D2E
  8
AM_0
 10
168.68099949805469
 20
189.07254707683779
 30
0.0
 40
110.9999999999999
 50
108.52714231447339
 51
108.566580801898
  0
ARC
  5
13D2F
  8
AM_0
 10
133.65629050236501
 20
293.34751895296529
 30
0.0
 40
0.9999999999999996
 50
108.5665808019031
 51
177.99999999999631
1001
GENIUS_GENODEF_13
1002
{
1000
HIER
1070
     0
1002
}
1002
{
1000
MANEDIT
1070
     0
1002
}
1002
{
1000
NOSEL
1070
     0
1002
}
1002
{
1000
BEHIND
1070
     0
1002
}
1002
{
1000
REACTOR
1002
}
1001
GENIUS_GENOBJ-N-FIL_13
1002
{
1000
OWNER
1000
GEN
1002
}
  0
ARC
  5
13D30
  8
AM_0
 10
133.72807453743229
 20
293.37160285730511
 30
0.0
 40
0.9999999999999996
 50
1.999999999997129
 51
108.52714231447339
1001
GENIUS_GENODEF_13
1002
{
1000
HIER
1070
     0
1002
}
1002
{
1000
MANEDIT
1070
     0
1002
}
1002
{
1000
NOSEL
1070
     0
1002
}
1002
{
1000
BEHIND
1070
     0
1002
}
1002
{
1000
REACTOR
1002
}
1001
GENIUS_GENOBJ-N-FIL_13
1002
{
1000
OWNER
1000
GEN
1002
}
  0
LINE
  5
13D31
  8
AM_0
 10
152.65175214198851
 20
298.07580625981012
 30
0.0
 11
152.44620973814111
 21
292.18984192286092
 31
0.0
  0
LINE
  5
13D32
  8
AM_0
 10
144.72318542109869
 20
296.2388515086995
 30
0.0
 11
144.96362715437019
 21
289.35350113495798
 31
0.0
  0
LINE
  5
13D33
  8
AM_0
 10
142.65438877209539
 20
296.22251677437669
 30
0.0
 11
142.37343214587099
 21
288.1769716643098
 31
0.0
  0
ARC
  5
13D34
  8
AM_0
 10
143.65377959911439
 20
296.18761727767412
 30
0.0
 40
0.9999999999999996
 50
103.15111826065331
 51
178.00000000000281
1001
GENIUS_GENODEF_13
1002
{
1000
HIER
1070
     0
1002
}
1002
{
1000
MANEDIT
1070
     0
1002
}
1002
{
1000
NOSEL
1070
     0
1002
}
1002
{
1000
BEHIND
1070
     0
1002
}
1002
{
1000
REACTOR
1002
}
1001
GENIUS_GENOBJ-N-FIL_13
1002
{
1000
OWNER
1000
GEN
1002
}
  0
ARC
  5
13D35
  8
AM_0
 10
168.68099949805469
 20
189.07254707683779
 30
0.0
 40
110.9999999999999
 50
103.11367014329871
 51
103.15111826065331
  0
ARC
  5
13D36
  8
AM_0
 10
143.72379459407989
 20
296.20395201199671
 30
0.0
 40
0.9999999999999996
 50
2.0000000000036389
 51
103.11367014329871
1001
GENIUS_GENODEF_13
1002
{
1000
HIER
1070
     0
1002
}
1002
{
1000
MANEDIT
1070
     0
1002
}
1002
{
1000
NOSEL
1070
     0
1002
}
1002
{
1000
BEHIND
1070
     0
1002
}
1002
{
1000
REACTOR
1002
}
1001
GENIUS_GENOBJ-N-FIL_13
1002
{
1000
OWNER
1000
GEN
1002
}
  0
ARC
  5
13D37
  8
AM_0
 10
153.72005072494201
 20
298.05038891548082
 30
0.0
 40
0.9999999999999996
 50
1.999999999997129
 51
97.816947831692914
1001
GENIUS_GENODEF_13
1002
{
1000
HIER
1070
     0
1002
}
1002
{
1000
MANEDIT
1070
     0
1002
}
1002
{
1000
NOSEL
1070
     0
1002
}
1002
{
1000
BEHIND
1070
     0
1002
}
1002
{
1000
REACTOR
1002
}
1001
GENIUS_GENOBJ-N-FIL_13
1002
{
1000
OWNER
1000
GEN
1002
}
  0
ARC
  5
13D38
  8
AM_0
 10
153.6511429690074
 20
298.0409067631075
 30
0.0
 40
0.9999999999999996
 50
97.853178088806132
 51
178.00000000000281
1001
GENIUS_GENODEF_13
1002
{
1000
HIER
1070
     0
1002
}
1002
{
1000
MANEDIT
1070
     0
1002
}
1002
{
1000
NOSEL
1070
     0
1002
}
1002
{
1000
BEHIND
1070
     0
1002
}
1002
{
1000
REACTOR
1002
}
1001
GENIUS_GENOBJ-N-FIL_13
1002
{
1000
OWNER
1000
GEN
1002
}
  0
ARC
  5
13D39
  8
AM_0
 10
168.68099949805469
 20
189.07254707683779
 30
0.0
 40
110.9999999999999
 50
97.816947831692914
 51
97.853178088806132
  0
LINE
  5
13D3A
  8
AM_0
 10
154.7194415519611
 20
298.08528841218362
 30
0.0
 11
154.90168463782729
 21
292.86652924625781
 31
0.0
  0
ARC
  5
13D3B
  8
AM_0
 10
163.7167068802911
 20
298.96047088471221
 30
0.0
 40
0.9999999999999996
 50
2.0000000000036389
 51
92.586633228774929
1001
GENIUS_GENODEF_13
1002
{
1000
HIER
1070
     0
1002
}
1002
{
1000
MANEDIT
1070
     0
1002
}
1002
{
1000
NOSEL
1070
     0
1002
}
1002
{
1000
BEHIND
1070
     0
1002
}
1002
{
1000
REACTOR
1002
}
1001
GENIUS_GENOBJ-N-FIL_13
1002
{
1000
OWNER
1000
GEN
1002
}
  0
ARC
  5
13D3C
  8
AM_0
 10
163.64833284617521
 20
298.95736070625168
 30
0.0
 40
0.9999999999999996
 50
92.622284087954526
 51
178.00000000000281
1001
GENIUS_GENODEF_13
1002
{
1000
HIER
1070
     0
1002
}
1002
{
1000
MANEDIT
1070
     0
1002
}
1002
{
1000
NOSEL
1070
     0
1002
}
1002
{
1000
BEHIND
1070
     0
1002
}
1002
{
1000
REACTOR
1002
}
1001
GENIUS_GENOBJ-N-FIL_13
1002
{
1000
OWNER
1000
GEN
1002
}
  0
ARC
  5
13D3D
  8
AM_0
 10
168.68099949805469
 20
189.07254707683779
 30
0.0
 40
110.9999999999999
 50
92.586633228774929
 51
92.622284087959443
  0
LINE
  5
13D3E
  8
AM_0
 10
162.64894201915621
 20
298.99226020295441
 30
0.0
 11
162.48269354530811
 21
294.23152679794867
 31
0.0
  0
LINE
  5
13D47
  8
AM_0
 10
164.7160977073103
 20
298.99537038141477
 30
0.0
 11
164.87502766867121
 21
294.4442117536409
 31
0.0
  0
LINE
  5
13D4B
  8
ﾁｭｳｼﾝｾﾝ1
 10
218.88618476809049
 20
303.07254707683779
 30
0.0
 11
244.88618476809049
 21
303.07254707683779
 31
0.0
1001
GENIUS_GENODEF_13
1002
{
1000
HIER
1070
     0
1002
}
1002
{
1000
MANEDIT
1070
     0
1002
}
1002
{
1000
NOSEL
1070
     0
1002
}
1002
{
1000
BEHIND
1070
     0
1002
}
1002
{
1000
OTHER
1070
     0
1002
}
1002
{
1000
REACTOR
1002
}
1001
GENIUS_GENOBJ-N-CEN_13
1002
{
1000
OWNER
1000
GEN
1002
}
  0
ARC
  5
13D4C
  8
0
 10
224.68099952229159
 20
312.5824380466629
 30
0.0
 40
1.9999999999999989
 50
92.000000000000398
 51
179.9999998363551
1001
GENIUS_GENOBJ-N-FIL_13
1002
{
1000
OWNER
1000
GEN
1002
}
1001
GENIUS_GENODEF_13
1002
{
1000
HIER
1070
     0
1002
}
1002
{
1000
MANEDIT
1070
     0
1002
}
1002
{
1000
NOSEL
1070
     0
1002
}
1002
{
1000
BEHIND
1070
     0
1002
}
1002
{
1000
OTHER
1070
     0
1002
}
1002
{
1000
REACTOR
1002
}
  0
LINE
  5
13D4E
  8
0
 10
193.67463270001261
 20
289.072437450878
 30
0.0
 11
219.7856979549783
 21
289.98425594183061
 31
0.0
  0
LINE
  5
13D51
  8
AM_0
 10
204.70509932076379
 20
293.3824184496678
 30
0.0
 11
204.841989027804
 21
289.46241012703302
 31
0.0
  0
LINE
  5
13D52
  8
AM_0
 10
202.63453363165769
 20
293.40650235400801
 30
0.0
 11
202.49393954338819
 21
289.3804144322325
 31
0.0
  0
LINE
  5
13D53
  8
AM_0
 10
192.63881357501049
 20
296.2388515086995
 30
0.0
 11
192.39837184173899
 21
289.35350113495798
 31
0.0
  0
LINE
  5
13D54
  8
AM_0
 10
194.70761022401379
 20
296.22251677437669
 30
0.0
 11
194.95807104584509
 21
289.0502572429765
 31
0.0
  0
LINE
  5
13D55
  8
AM_0
 10
184.71024685412081
 20
298.07580625981012
 30
0.0
 11
184.9157892579683
 21
292.18984192286092
 31
0.0
  0
ARC
  5
13D59
  8
AM_0
 10
173.71366614993411
 20
298.95736070625168
 30
0.0
 40
0.9999999999999996
 50
1.999999999997129
 51
87.377715912045474
1001
GENIUS_GENODEF_13
1002
{
1000
HIER
1070
     0
1002
}
1002
{
1000
MANEDIT
1070
     0
1002
}
1002
{
1000
NOSEL
1070
     0
1002
}
1002
{
1000
BEHIND
1070
     0
1002
}
1002
{
1000
REACTOR
1002
}
1001
GENIUS_GENOBJ-N-FIL_13
1002
{
1000
OWNER
1000
GEN
1002
}
  0
ARC
  5
13D5A
  8
AM_0
 10
173.64529211581811
 20
298.96047088471221
 30
0.0
 40
0.9999999999999996
 50
87.413366771225057
 51
177.99999999999631
1001
GENIUS_GENODEF_13
1002
{
1000
HIER
1070
     0
1002
}
1002
{
1000
MANEDIT
1070
     0
1002
}
1002
{
1000
NOSEL
1070
     0
1002
}
1002
{
1000
BEHIND
1070
     0
1002
}
1002
{
1000
REACTOR
1002
}
1001
GENIUS_GENOBJ-N-FIL_13
1002
{
1000
OWNER
1000
GEN
1002
}
  0
ARC
  5
13D5C
  8
AM_0
 10
168.68099949805469
 20
189.07254707683779
 30
0.0
 40
110.9999999999999
 50
87.377715912040557
 51
87.413366771225057
  0
LINE
  5
13D5D
  8
AM_0
 10
174.713056976953
 20
298.99226020295441
 30
0.0
 11
174.8793054508011
 21
294.23152679794867
 31
0.0
  0
LINE
  5
13D5E
  8
AM_0
 10
172.645901288799
 20
298.99537038141477
 30
0.0
 11
172.486971327438
 21
294.4442117536409
 31
0.0
  0
ARC
  5
13D5F
  8
AM_0
 10
183.64194827116731
 20
298.05038891548082
 30
0.0
 40
0.9999999999999996
 50
82.1830521683071
 51
178.00000000000281
1001
GENIUS_GENODEF_13
1002
{
1000
HIER
1070
     0
1002
}
1002
{
1000
MANEDIT
1070
     0
1002
}
1002
{
1000
NOSEL
1070
     0
1002
}
1002
{
1000
BEHIND
1070
     0
1002
}
1002
{
1000
REACTOR
1002
}
1001
GENIUS_GENOBJ-N-FIL_13
1002
{
1000
OWNER
1000
GEN
1002
}
  0
ARC
  5
13D60
  8
AM_0
 10
183.7108560271019
 20
298.0409067631075
 30
0.0
 40
0.9999999999999996
 50
1.999999999997129
 51
82.146821911193925
1001
GENIUS_GENODEF_13
1002
{
1000
HIER
1070
     0
1002
}
1002
{
1000
MANEDIT
1070
     0
1002
}
1002
{
1000
NOSEL
1070
     0
1002
}
1002
{
1000
BEHIND
1070
     0
1002
}
1002
{
1000
REACTOR
1002
}
1001
GENIUS_GENOBJ-N-FIL_13
1002
{
1000
OWNER
1000
GEN
1002
}
  0
ARC
  5
13D61
  8
AM_0
 10
168.68099949805469
 20
189.07254707683779
 30
0.0
 40
110.9999999999999
 50
82.146821911193925
 51
82.1830521683071
  0
LINE
  5
13D62
  8
AM_0
 10
182.64255744414811
 20
298.08528841218362
 30
0.0
 11
182.46031435828189
 21
292.86652924625781
 31
0.0
  0
ARC
  5
13D64
  8
AM_0
 10
193.70821939699491
 20
296.18761727767412
 30
0.0
 40
0.9999999999999996
 50
1.999999999997129
 51
76.848881739346623
1001
GENIUS_GENODEF_13
1002
{
1000
HIER
1070
     0
1002
}
1002
{
1000
MANEDIT
1070
     0
1002
}
1002
{
1000
NOSEL
1070
     0
1002
}
1002
{
1000
BEHIND
1070
     0
1002
}
1002
{
1000
REACTOR
1002
}
1001
GENIUS_GENOBJ-N-FIL_13
1002
{
1000
OWNER
1000
GEN
1002
}
  0
ARC
  5
13D65
  8
AM_0
 10
168.68099949805469
 20
189.07254707683779
 30
0.0
 40
110.9999999999999
 50
76.848881739346623
 51
76.886329856701238
  0
ARC
  5
13D66
  8
AM_0
 10
193.63820440202949
 20
296.20395201199671
 30
0.0
 40
0.9999999999999996
 50
76.886329856701238
 51
177.99999999999631
1001
GENIUS_GENODEF_13
1002
{
1000
HIER
1070
     0
1002
}
1002
{
1000
MANEDIT
1070
     0
1002
}
1002
{
1000
NOSEL
1070
     0
1002
}
1002
{
1000
BEHIND
1070
     0
1002
}
1002
{
1000
REACTOR
1002
}
1001
GENIUS_GENOBJ-N-FIL_13
1002
{
1000
OWNER
1000
GEN
1002
}
  0
ARC
  5
13D67
  8
AM_0
 10
168.68099949805469
 20
189.07254707683779
 30
0.0
 40
110.9999999999999
 50
71.433419198101944
 51
71.472857685526591
  0
ARC
  5
13D68
  8
AM_0
 10
203.70570849374431
 20
293.34751895296529
 30
0.0
 40
0.9999999999999996
 50
2.0000000000036389
 51
71.433419198096814
1001
GENIUS_GENODEF_13
1002
{
1000
HIER
1070
     0
1002
}
1002
{
1000
MANEDIT
1070
     0
1002
}
1002
{
1000
NOSEL
1070
     0
1002
}
1002
{
1000
BEHIND
1070
     0
1002
}
1002
{
1000
REACTOR
1002
}
1001
GENIUS_GENOBJ-N-FIL_13
1002
{
1000
OWNER
1000
GEN
1002
}
  0
ARC
  5
13D69
  8
AM_0
 10
203.63392445867689
 20
293.37160285730511
 30
0.0
 40
0.9999999999999996
 50
71.472857685526591
 51
178.00000000000281
1001
GENIUS_GENODEF_13
1002
{
1000
HIER
1070
     0
1002
}
1002
{
1000
MANEDIT
1070
     0
1002
}
1002
{
1000
NOSEL
1070
     0
1002
}
1002
{
1000
BEHIND
1070
     0
1002
}
1002
{
1000
REACTOR
1002
}
1001
GENIUS_GENOBJ-N-FIL_13
1002
{
1000
OWNER
1000
GEN
1002
}
  0
ARC
  5
13D6A
  8
0
 10
219.68099946487069
 20
292.98242842288789
 30
0.0
 40
2.9999999999999978
 50
272.0000000000004
 51
359.99999983214411
1001
GENIUS_GENOBJ-N-FIL_13
1002
{
1000
OWNER
1000
GEN
1002
}
1001
GENIUS_GENODEF_13
1002
{
1000
HIER
1070
     0
1002
}
1002
{
1000
MANEDIT
1070
     0
1002
}
1002
{
1000
NOSEL
1070
     0
1002
}
1002
{
1000
BEHIND
1070
     0
1002
}
1002
{
1000
OTHER
1070
     0
1002
}
1002
{
1000
REACTOR
1002
}
  0
LINE
  5
13D6F
  8
0
 10
222.68099946487081
 20
292.98242841409899
 30
0.0
 11
222.68099952229159
 21
312.58243805237498
 31
0.0
  0
LINE
  5
13D73
  8
0
 10
224.61120052888651
 20
314.5812197007009
 30
0.0
 11
238.6809995579473
 21
315.0725479093901
 31
0.0
  0
LINE
  5
13D76
  8
0
 10
362.67251403721281
 20
307.93995482151252
 30
0.0
 11
351.75846850769182
 21
283.34557345863328
 31
0.0
  0
LINE
  5
13D77
  8
0
 10
361.90392357671141
 20
296.34645378878793
 30
0.0
 11
355.41464048649209
 21
281.72310421040851
 31
0.0
  0
ARC
  5
13D78
  8
AM_0
 10
363.64102773843962
 20
278.07254826893057
 30
0.0
 40
9.0000003278255516
 50
156.070183125966
 51
180.00000500895041
  0
ARC
  5
13D79
  8
AM_0
 10
363.64102773843962
 20
278.07254826893057
 30
0.0
 40
13.00000032782555
 50
156.070183125966
 51
180.00000500895041
  0
CIRCLE
  5
13D7A
  8
ｷｲﾛ
 10
363.64102773843962
 20
278.07254707683768
 30
0.0
 40
4.0
  0
CIRCLE
  5
13D7B
  8
0
 10
363.64102773843962
 20
278.07254707683768
 30
0.0
 40
3.25
  0
ARC
  5
13D7C
  8
AM_0
 10
359.64102741061402
 20
280.07254707683768
 30
0.0
 40
5.0
 50
90.0
 51
131.09880372126679
1001
GENIUS_GENODEF_13
1002
{
1000
HIER
1070
     0
1002
}
1002
{
1000
MANEDIT
1070
     0
1002
}
1002
{
1000
NOSEL
1070
     0
1002
}
1002
{
1000
BEHIND
1070
     0
1002
}
1002
{
1000
OTHER
1070
     0
1002
}
1002
{
1000
REACTOR
1002
}
1001
GENIUS_GENOBJ-N-FIL_13
1002
{
1000
OWNER
1000
GEN
1002
}
  0
ARC
  5
13D7D
  8
0
 10
364.64605256081148
 20
295.12960185261937
 30
0.0
 40
3.0
 50
41.445856511110989
 51
156.070183125966
1001
GENIUS_GENOBJ-N-FIL_13
1002
{
1000
OWNER
1000
GEN
1002
}
1001
GENIUS_GENODEF_13
1002
{
1000
HIER
1070
     0
1002
}
1002
{
1000
MANEDIT
1070
     0
1002
}
1002
{
1000
NOSEL
1070
     0
1002
}
1002
{
1000
BEHIND
1070
     0
1002
}
1002
{
1000
OTHER
1070
     0
1002
}
1002
{
1000
REACTOR
1002
}
  0
ARC
  5
13D7F
  8
0
 10
484.64103149353213
 20
267.68024310895021
 30
0.0
 40
3.0
 50
0.0
 51
120.0000083797508
1001
GENIUS_GENOBJ-N-FIL_13
1002
{
1000
OWNER
1000
GEN
1002
}
1001
GENIUS_GENODEF_13
1002
{
1000
HIER
1070
     0
1002
}
1002
{
1000
MANEDIT
1070
     0
1002
}
1002
{
1000
NOSEL
1070
     0
1002
}
1002
{
1000
BEHIND
1070
     0
1002
}
1002
{
1000
OTHER
1070
     0
1002
}
1002
{
1000
REACTOR
1002
}
  0
ARC
  5
13D80
  8
0
 10
478.64102997361368
 20
278.07254707683802
 30
0.0
 40
9.0
 50
160.52877936551209
 51
300.0000083797508
  0
LINE
  5
13D81
  8
AM_0
 10
487.64103149353218
 20
278.07254826893069
 30
0.0
 11
487.64103149353218
 21
238.07254707683779
 31
0.0
  0
LINE
  5
13D82
  8
AM_0
 10
491.64103149353218
 20
278.07254826893069
 30
0.0
 11
491.64103149353218
 21
198.07254588474521
 31
0.0
  0
LINE
  5
13D83
  8
ﾁｭｳｼﾝｾﾝ1
 10
403.64102893053268
 20
154.10248954574109
 30
0.0
 11
403.64102893053212
 21
322.04260460793449
 31
0.0
  0
ARC
  5
13D84
  8
AM_0
 10
543.14713500915707
 20
270.57254707683791
 30
0.0
 40
1.4999999999999989
 50
359.999989999999
 51
89.999997000000647
  0
ARC
  5
13D85
  8
AM_0
 10
543.16715500915711
 20
270.4325270768378
 30
0.0
 40
0.9999999999999998
 50
359.999989999999
 51
89.999997000000647
  0
ARC
  5
13D86
  8
AM_0
 10
270.6410467523213
 20
238.07254707683779
 30
0.0
 40
235.99999999999989
 50
359.9999949910495
 51
10.56396171235874
  0
LINE
  5
13D87
  8
AM_0
 10
502.64103149353213
 20
187.4322653995917
 30
0.0
 11
502.64103149353213
 21
288.71283638347847
 31
0.0
  0
LINE
  5
13D88
  8
AM_0
 10
514.14713500915695
 20
294.07254707683791
 30
0.0
 11
514.14713500915695
 21
182.07254707683791
 31
0.0
  0
LINE
  5
13D89
  8
AM_0
 10
522.14713500915707
 20
294.07254707683791
 30
0.0
 11
522.14713500915707
 21
182.07254707683791
 31
0.0
  0
ARC
  5
13D8A
  8
AM_0
 10
561.14713500915695
 20
270.57254707683791
 30
0.0
 40
1.4999999999999989
 50
89.999997000000647
 51
180.0
  0
ARC
  5
13D8B
  8
AM_0
 10
561.12711500915702
 20
270.4325270768378
 30
0.0
 40
0.9999999999999998
 50
89.999997000000647
 51
180.0
  0
POLYLINE
  5
13D8E
  8
AM_0
 66
     1
 10
0.0
 20
0.0
 30
0.0
  0
VERTEX
  5
13D8F
  8
AM_0
 10
626.28623500915705
 20
264.55557707683778
 30
0.0
 42
0.00068898288
  0
VERTEX
  5
13D90
  8
AM_0
 10
626.21535500915707
 20
265.13032707683777
 30
0.0
 42
0.00070644354
  0
VERTEX
  5
13D91
  8
AM_0
 10
626.14285500915719
 20
265.70501707683781
 30
0.0
 42
0.00069248071
  0
VERTEX
  5
13D92
  8
AM_0
 10
626.06876500915678
 20
266.27932707683789
 30
0.0
 42
0.00069585665
  0
VERTEX
  5
13D93
  8
AM_0
 10
625.99308500915708
 20
266.853467076838
 30
0.0
 42
0.00068980191
  0
VERTEX
  5
13D94
  8
AM_0
 10
625.91578500915705
 20
267.4274670768379
 30
0.0
 42
0.00072080104
  0
VERTEX
  5
13D95
  8
AM_0
 10
625.83689500915682
 20
268.0012570768377
 30
0.0
 42
0.00071002307
  0
VERTEX
  5
13D96
  8
AM_0
 10
625.75635500915678
 20
268.5747270768378
 30
0.0
 42
0.00072659056
  0
VERTEX
  5
13D97
  8
AM_0
 10
625.67419500915696
 20
269.14782707683793
 30
0.0
 42
0.00069570481
  0
VERTEX
  5
13D98
  8
AM_0
 10
625.59037500915701
 20
269.72085707683789
 30
0.0
 42
0.00071266935
  0
VERTEX
  5
13D99
  8
AM_0
 10
625.5049450091567
 20
270.29362707683788
 30
0.0
 42
0.00071614426
  0
VERTEX
  5
13D9A
  8
AM_0
 10
625.4179150091569
 20
270.86596707683782
 30
0.0
 42
0.00072288975
  0
VERTEX
  5
13D9B
  8
AM_0
 10
625.32920500915702
 20
271.43826707683792
 30
0.0
  0
SEQEND
  5
13D9C
  8
AM_0
  0
LINE
  5
13D9F
  8
AM_0
 10
630.14713500915684
 20
291.07254707683791
 30
0.0
 11
630.14713500915684
 21
185.07254707683791
 31
0.0
  0
LINE
  5
13DAB
  8
AM_0
 10
514.14713500915695
 20
270.0124970768378
 30
0.0
 11
504.54111887319419
 21
270.0124970768378
 31
0.0
  0
LINE
  5
13DAC
  8
AM_0
 10
514.14713500915695
 20
206.1326070768379
 30
0.0
 11
504.4663846481634
 21
206.1326070768379
 31
0.0
  0
LINE
  5
13DAD
  8
AM_0
 10
514.14713500915695
 20
182.07254707683791
 30
0.0
 11
504.58990643035412
 21
182.07254707683791
 31
0.0
  0
LINE
  5
13DAE
  8
AM_0
 10
514.14713500915695
 20
192.07254707683779
 30
0.0
 11
502.64103149353213
 21
192.07254707683779
 31
0.0
  0
ARC
  5
13DAF
  8
AM_0
 10
270.6410467523213
 20
238.07254707683779
 30
0.0
 40
235.99999999999989
 50
349.43602826972682
 51
359.9999949910495
  0
LINE
  5
13DB0
  8
0
 10
480.37813612484769
 20
179.7986421618269
 30
0.0
 11
486.86741841765411
 21
194.42198994326739
 31
0.0
  0
LINE
  5
13DB1
  8
0
 10
479.60954486693328
 20
168.20513933216341
 30
0.0
 11
490.52359039645438
 21
192.79952069504259
 31
0.0
  0
ARC
  5
13DB2
  8
0
 10
421.14103064416599
 20
105.36421658714291
 30
0.0
 40
84.708331681787811
 50
92.644096325323176
 51
118.1140438068888
  0
ARC
  5
13DB3
  8
0
 10
421.14103064416599
 20
105.36421658714291
 30
0.0
 40
84.708331681787811
 50
61.885956193111198
 51
87.355919741582937
  0
ARC
  5
13DB4
  8
0
 10
421.14103064416599
 20
105.36421658714291
 30
0.0
 40
80.708331681787811
 50
62.230425742763408
 51
117.7695742572366
  0
LINE
  5
13DB5
  8
ﾁｭｳｼﾝｾﾝ1
 10
373.64102997361368
 20
160.07254707683791
 30
0.0
 11
373.64102997361368
 21
186.07254707683791
 31
0.0
1001
GENIUS_GENODEF_13
1002
{
1000
HIER
1070
     0
1002
}
1002
{
1000
MANEDIT
1070
     0
1002
}
1002
{
1000
NOSEL
1070
     0
1002
}
1002
{
1000
BEHIND
1070
     0
1002
}
1002
{
1000
OTHER
1070
     0
1002
}
1002
{
1000
REACTOR
1002
}
1001
GENIUS_GENOBJ-N-CEN_13
1002
{
1000
OWNER
1000
GEN
1002
}
  0
ARC
  5
13DB6
  8
AM_0
 10
504.58990643035412
 20
184.07254707683779
 30
0.0
 40
1.9999999999999989
 50
182.0004653026449
 51
270.0
1001
GENIUS_GENOBJ-N-FIL_13
1002
{
1000
OWNER
1000
GEN
1002
}
1001
GENIUS_GENODEF_13
1002
{
1000
HIER
1070
     0
1002
}
1002
{
1000
MANEDIT
1070
     0
1002
}
1002
{
1000
NOSEL
1070
     0
1002
}
1002
{
1000
BEHIND
1070
     0
1002
}
1002
{
1000
OTHER
1070
     0
1002
}
1002
{
1000
REACTOR
1002
}
  0
LINE
  5
13DB7
  8
ﾁｭｳｼﾝｾﾝ1
 10
468.6410289305324
 20
160.07254707683791
 30
0.0
 11
468.6410289305324
 21
186.07254707683779
 31
0.0
1001
GENIUS_GENODEF_13
1002
{
1000
HIER
1070
     0
1002
}
1002
{
1000
MANEDIT
1070
     0
1002
}
1002
{
1000
NOSEL
1070
     0
1002
}
1002
{
1000
BEHIND
1070
     0
1002
}
1002
{
1000
OTHER
1070
     0
1002
}
1002
{
1000
REACTOR
1002
}
1001
GENIUS_GENOBJ-N-CEN_13
1002
{
1000
OWNER
1000
GEN
1002
}
  0
LINE
  5
13DB8
  8
0
 10
457.73231855438451
 20
165.07254707683779
 30
0.0
 11
384.54974273394743
 21
165.07254707683799
 31
0.0
  0
LINE
  5
13DB9
  8
0
 10
468.6410289305324
 20
161.07254707683779
 30
0.0
 11
373.64102997361368
 21
161.07254707683811
 31
0.0
  0
ARC
  5
13DBD
  8
0
 10
373.64103116570669
 20
173.07254826893049
 30
0.0
 40
9.0
 50
335.37567538661648
 51
33.94543635354821
  0
ARC
  5
13DBE
  8
0
 10
384.54974273394743
 20
168.07254707683759
 30
0.0
 40
3.0
 50
155.37567538661719
 51
270.0
1001
GENIUS_GENOBJ-N-FIL_13
1002
{
1000
OWNER
1000
GEN
1002
}
1001
GENIUS_GENODEF_13
1002
{
1000
HIER
1070
     0
1002
}
1002
{
1000
MANEDIT
1070
     0
1002
}
1002
{
1000
NOSEL
1070
     0
1002
}
1002
{
1000
BEHIND
1070
     0
1002
}
1002
{
1000
OTHER
1070
     0
1002
}
1002
{
1000
REACTOR
1002
}
  0
ARC
  5
13DBF
  8
0
 10
380.28162948500778
 20
181.84195269350201
 30
0.0
 40
2.0
 50
232.86531156728779
 51
298.11404380688879
1001
GENIUS_GENODEF_13
1002
{
1000
HIER
1070
     0
1002
}
1002
{
1000
MANEDIT
1070
     0
1002
}
1002
{
1000
NOSEL
1070
     0
1002
}
1002
{
1000
BEHIND
1070
     0
1002
}
1002
{
1000
OTHER
1070
     0
1002
}
1002
{
1000
REACTOR
1002
}
1001
GENIUS_GENOBJ-N-FIL_13
1002
{
1000
OWNER
1000
GEN
1002
}
  0
ARC
  5
13DC0
  8
0
 10
384.46949377158649
 20
175.0075928661069
 30
0.0
 40
2.0
 50
117.7695742572366
 51
190.13180188606299
1001
GENIUS_GENOBJ-N-FIL_13
1002
{
1000
OWNER
1000
GEN
1002
}
1001
GENIUS_GENODEF_13
1002
{
1000
HIER
1070
     0
1002
}
1002
{
1000
MANEDIT
1070
     0
1002
}
1002
{
1000
NOSEL
1070
     0
1002
}
1002
{
1000
BEHIND
1070
     0
1002
}
1002
{
1000
OTHER
1070
     0
1002
}
1002
{
1000
REACTOR
1002
}
  0
ARC
  5
13DC1
  8
0
 10
468.6410301226253
 20
173.07254826893049
 30
0.0
 40
9.0
 50
41.445867957166122
 51
146.05456364645181
  0
ARC
  5
13DC2
  8
0
 10
468.6410289305324
 20
173.07254707683759
 30
0.0
 40
12.0
 50
270.0
 51
336.07018312596603
  0
CIRCLE
  5
13DC3
  8
0
 10
468.6410289305324
 20
173.07254707683799
 30
0.0
 40
4.4999999999999982
  0
LINE
  5
13DC4
  8
ﾁｭｳｼﾝｾﾝ1
 10
481.64102893053217
 20
173.07254707683791
 30
0.0
 11
455.64102893053212
 21
173.07254707683791
 31
0.0
1001
GENIUS_GENODEF_13
1002
{
1000
HIER
1070
     0
1002
}
1002
{
1000
MANEDIT
1070
     0
1002
}
1002
{
1000
NOSEL
1070
     0
1002
}
1002
{
1000
BEHIND
1070
     0
1002
}
1002
{
1000
OTHER
1070
     0
1002
}
1002
{
1000
REACTOR
1002
}
1001
GENIUS_GENOBJ-N-CEN_13
1002
{
1000
OWNER
1000
GEN
1002
}
  0
ARC
  5
13DC5
  8
0
 10
468.6410301226253
 20
173.07254826893049
 30
0.0
 40
9.0
 50
146.05456364645181
 51
204.6243246133827
  0
ARC
  5
13DC6
  8
0
 10
457.73231855438451
 20
168.07254707683759
 30
0.0
 40
3.0
 50
270.0
 51
24.624324613382718
1001
GENIUS_GENOBJ-N-FIL_13
1002
{
1000
OWNER
1000
GEN
1002
}
1001
GENIUS_GENODEF_13
1002
{
1000
HIER
1070
     0
1002
}
1002
{
1000
MANEDIT
1070
     0
1002
}
1002
{
1000
NOSEL
1070
     0
1002
}
1002
{
1000
BEHIND
1070
     0
1002
}
1002
{
1000
OTHER
1070
     0
1002
}
1002
{
1000
REACTOR
1002
}
  0
ARC
  5
13DC7
  8
0
 10
462.00043180332409
 20
181.84195269350201
 30
0.0
 40
2.0
 50
241.88595619311121
 51
307.1346884327121
1001
GENIUS_GENODEF_13
1002
{
1000
HIER
1070
     0
1002
}
1002
{
1000
MANEDIT
1070
     0
1002
}
1002
{
1000
NOSEL
1070
     0
1002
}
1002
{
1000
BEHIND
1070
     0
1002
}
1002
{
1000
OTHER
1070
     0
1002
}
1002
{
1000
REACTOR
1002
}
1001
GENIUS_GENOBJ-N-FIL_13
1002
{
1000
OWNER
1000
GEN
1002
}
  0
ARC
  5
13DC8
  8
0
 10
457.8125675167455
 20
175.0075928661069
 30
0.0
 40
2.0
 50
349.86819811392451
 51
62.230425742763408
1001
GENIUS_GENOBJ-N-FIL_13
1002
{
1000
OWNER
1000
GEN
1002
}
1001
GENIUS_GENODEF_13
1002
{
1000
HIER
1070
     0
1002
}
1002
{
1000
MANEDIT
1070
     0
1002
}
1002
{
1000
NOSEL
1070
     0
1002
}
1002
{
1000
BEHIND
1070
     0
1002
}
1002
{
1000
OTHER
1070
     0
1002
}
1002
{
1000
REACTOR
1002
}
  0
ARC
  5
13DC9
  8
0
 10
477.63600714074732
 20
181.01549409799529
 30
0.0
 40
3.0
 50
221.44586795716609
 51
336.07018312596603
1001
GENIUS_GENOBJ-N-FIL_13
1002
{
1000
OWNER
1000
GEN
1002
}
1001
GENIUS_GENODEF_13
1002
{
1000
HIER
1070
     0
1002
}
1002
{
1000
MANEDIT
1070
     0
1002
}
1002
{
1000
NOSEL
1070
     0
1002
}
1002
{
1000
BEHIND
1070
     0
1002
}
1002
{
1000
OTHER
1070
     0
1002
}
1002
{
1000
REACTOR
1002
}
  0
ARC
  5
13DCA
  8
0
 10
439.55710871363192
 20
193.07254707683759
 30
0.0
 40
2.0
 50
170.40593177313519
 51
270.0
1001
GENIUS_GENODEF_13
1002
{
1000
HIER
1070
     0
1002
}
1002
{
1000
MANEDIT
1070
     0
1002
}
1002
{
1000
NOSEL
1070
     0
1002
}
1002
{
1000
BEHIND
1070
     0
1002
}
1002
{
1000
OTHER
1070
     0
1002
}
1002
{
1000
REACTOR
1002
}
1001
GENIUS_GENOBJ-N-FIL_13
1002
{
1000
OWNER
1000
GEN
1002
}
  0
LINE
  5
13DCB
  8
0
 10
423.35885684130187
 20
191.07254707683751
 30
0.0
 11
482.641029258358
 21
191.07254707683799
 31
0.0
  0
CIRCLE
  5
13DCC
  8
0
 10
403.64102893053229
 20
238.07254707683779
 30
0.0
 40
29.0
  0
CIRCLE
  5
13DCD
  8
AM_0
 10
403.64102893053229
 20
238.07254707683779
 30
0.0
 40
15.00000044703483
  0
ARC
  5
13DCE
  8
0
 10
421.14101849971962
 20
195.14263692484201
 30
0.0
 40
2.0
 50
0.0
 51
180.0
  0
LINE
  5
13DCF
  8
0
 10
419.14101849971962
 20
195.14263692484229
 30
0.0
 11
419.14101849971962
 21
191.98023523198259
 31
0.0
  0
ARC
  5
13DD0
  8
0
 10
417.14101849971962
 20
191.9802352319825
 30
0.0
 40
2.0
 50
272.64409632532318
 51
0.0
1001
GENIUS_GENODEF_13
1002
{
1000
HIER
1070
     0
1002
}
1002
{
1000
MANEDIT
1070
     0
1002
}
1002
{
1000
NOSEL
1070
     0
1002
}
1002
{
1000
BEHIND
1070
     0
1002
}
1002
{
1000
OTHER
1070
     0
1002
}
1002
{
1000
REACTOR
1002
}
1001
GENIUS_GENOBJ-N-FIL_13
1002
{
1000
OWNER
1000
GEN
1002
}
  0
LINE
  5
13DD1
  8
0
 10
423.14101849971962
 20
195.14263692484229
 30
0.0
 11
423.14101849971962
 21
191.980236353664
 31
0.0
  0
ARC
  5
13DD2
  8
0
 10
433.6410289305324
 20
194.07254707683759
 30
0.0
 40
4.0
 50
350.40593177313531
 51
189.59406822686481
  0
ARC
  5
13DD3
  8
0
 10
427.72494914743288
 20
193.07254707683759
 30
0.0
 40
2.0
 50
270.0
 51
9.5940682268648061
1001
GENIUS_GENODEF_13
1002
{
1000
HIER
1070
     0
1002
}
1002
{
1000
MANEDIT
1070
     0
1002
}
1002
{
1000
NOSEL
1070
     0
1002
}
1002
{
1000
BEHIND
1070
     0
1002
}
1002
{
1000
OTHER
1070
     0
1002
}
1002
{
1000
REACTOR
1002
}
1001
GENIUS_GENOBJ-N-FIL_13
1002
{
1000
OWNER
1000
GEN
1002
}
  0
ARC
  5
13DD4
  8
0
 10
425.14101849971962
 20
191.98023635366391
 30
0.0
 40
2.0
 50
180.0
 51
267.35591974158302
1001
GENIUS_GENOBJ-N-FIL_13
1002
{
1000
OWNER
1000
GEN
1002
}
1001
GENIUS_GENODEF_13
1002
{
1000
HIER
1070
     0
1002
}
1002
{
1000
MANEDIT
1070
     0
1002
}
1002
{
1000
NOSEL
1070
     0
1002
}
1002
{
1000
BEHIND
1070
     0
1002
}
1002
{
1000
OTHER
1070
     0
1002
}
1002
{
1000
REACTOR
1002
}
  0
LINE
  5
13DD9
  8
AM_0
 10
487.64103030143929
 20
238.07254707683779
 30
0.0
 11
487.64103149353218
 21
198.0725458847449
 31
0.0
  0
ARC
  5
13DDA
  8
0
 10
478.64102997361391
 20
198.07254707683791
 30
0.0
 40
9.0
 50
59.999991620249162
 51
199.47122063448779
  0
ARC
  5
13DDB
  8
0
 10
467.32732147462917
 20
194.07254707683759
 30
0.0
 40
3.0
 50
270.0
 51
19.4712206344878
1001
GENIUS_GENODEF_13
1002
{
1000
HIER
1070
     0
1002
}
1002
{
1000
MANEDIT
1070
     0
1002
}
1002
{
1000
NOSEL
1070
     0
1002
}
1002
{
1000
BEHIND
1070
     0
1002
}
1002
{
1000
OTHER
1070
     0
1002
}
1002
{
1000
REACTOR
1002
}
1001
GENIUS_GENOBJ-N-FIL_13
1002
{
1000
OWNER
1000
GEN
1002
}
  0
ARC
  5
13DDC
  8
0
 10
484.64103149353241
 20
208.46485104472569
 30
0.0
 40
3.0
 50
239.99999162024909
 51
0.0
1001
GENIUS_GENOBJ-N-FIL_13
1002
{
1000
OWNER
1000
GEN
1002
}
1001
GENIUS_GENODEF_13
1002
{
1000
HIER
1070
     0
1002
}
1002
{
1000
MANEDIT
1070
     0
1002
}
1002
{
1000
NOSEL
1070
     0
1002
}
1002
{
1000
BEHIND
1070
     0
1002
}
1002
{
1000
OTHER
1070
     0
1002
}
1002
{
1000
REACTOR
1002
}
  0
LINE
  5
13DDD
  8
AM_0
 10
501.44724491614983
 20
189.07254707683779
 30
0.0
 11
488.86970208935458
 21
189.07254707683779
 31
0.0
  0
ARC
  5
13DDE
  8
AM_0
 10
478.64103116570658
 20
198.07254588474481
 30
0.0
 40
9.0000003278255516
 50
336.07018312596603
 51
0.0000050089504314
  0
CIRCLE
  5
13DDF
  8
ｷｲﾛ
 10
478.64102893053229
 20
198.07254707683759
 30
0.0
 40
4.0
  0
CIRCLE
  5
13DE0
  8
0
 10
478.64102893053229
 20
198.07254707683759
 30
0.0
 40
3.25
  0
ARC
  5
13DE1
  8
AM_0
 10
482.641029258358
 20
196.07254707683771
 30
0.0
 40
5.0
 50
270.0
 51
311.09880372126679
1001
GENIUS_GENODEF_13
1002
{
1000
HIER
1070
     0
1002
}
1002
{
1000
MANEDIT
1070
     0
1002
}
1002
{
1000
NOSEL
1070
     0
1002
}
1002
{
1000
BEHIND
1070
     0
1002
}
1002
{
1000
OTHER
1070
     0
1002
}
1002
{
1000
REACTOR
1002
}
1001
GENIUS_GENOBJ-N-FIL_13
1002
{
1000
OWNER
1000
GEN
1002
}
  0
ARC
  5
13DE2
  8
AM_0
 10
478.64103116570658
 20
198.07254588474481
 30
0.0
 40
13.00000032782555
 50
336.07018312596603
 51
0.0000050089504314
  0
LINE
  5
13DE3
  8
AM_0
 10
502.14103149353213
 20
194.8059378849434
 30
0.0
 11
491.22392752143861
 21
194.8059378849434
 31
0.0
  0
LINE
  5
13DE4
  8
AM_0
 10
502.59112534322389
 20
184.00273185120301
 30
0.0
 11
502.44642089782889
 21
188.14556038250191
 31
0.0
  0
ARC
  5
13DE5
  8
AM_0
 10
501.44597761192432
 20
188.0691942212392
 30
0.0
 40
1.003353655944897
 50
4.3650553058041632
 51
89.927631496271445
  0
ARC
  5
13DE6
  8
0
 10
483.64103149353218
 20
238.07254707683779
 30
0.0
 40
2.0
 50
90.0
 51
270.0
  0
ARC
  5
13DE7
  8
0
 10
485.64103149353213
 20
234.07254707683779
 30
0.0
 40
2.0
 50
0.0
 51
90.0
1001
GENIUS_GENODEF_13
1002
{
1000
HIER
1070
     0
1002
}
1002
{
1000
MANEDIT
1070
     0
1002
}
1002
{
1000
NOSEL
1070
     0
1002
}
1002
{
1000
BEHIND
1070
     0
1002
}
1002
{
1000
OTHER
1070
     0
1002
}
1002
{
1000
REACTOR
1002
}
1001
GENIUS_GENOBJ-N-FIL_13
1002
{
1000
OWNER
1000
GEN
1002
}
  0
LINE
  5
13DE8
  8
0
 10
484.6410304504509
 20
236.07254707683811
 30
0.0
 11
484.6410304504509
 21
236.07254707683811
 31
0.0
  0
LINE
  5
13DE9
  8
0
 10
483.64103149353218
 20
236.07254707683779
 30
0.0
 11
485.64103149353213
 21
236.07254707683779
 31
0.0
  0
LINE
  5
13DEA
  8
0
 10
484.6410304504509
 20
240.07254707683811
 30
0.0
 11
484.6410304504509
 21
240.07254707683811
 31
0.0
  0
ARC
  5
13DEB
  8
0
 10
485.64103149353213
 20
242.07254707683779
 30
0.0
 40
2.0
 50
270.0
 51
0.0
1001
GENIUS_GENOBJ-N-FIL_13
1002
{
1000
OWNER
1000
GEN
1002
}
1001
GENIUS_GENODEF_13
1002
{
1000
HIER
1070
     0
1002
}
1002
{
1000
MANEDIT
1070
     0
1002
}
1002
{
1000
NOSEL
1070
     0
1002
}
1002
{
1000
BEHIND
1070
     0
1002
}
1002
{
1000
OTHER
1070
     0
1002
}
1002
{
1000
REACTOR
1002
}
  0
LINE
  5
13DEC
  8
0
 10
483.64103149353218
 20
240.07254707683779
 30
0.0
 11
485.64103149353213
 21
240.07254707683779
 31
0.0
  0
LINE
  5
13DED
  8
AM_0
 10
523.94144500915684
 20
198.7536070768378
 30
0.0
 11
528.08719500915709
 21
183.27249707683779
 31
0.0
  0
LINE
  5
13DEE
  8
AM_0
 10
630.14713500915684
 20
189.9824870768378
 30
0.0
 11
628.90714500915692
 21
183.42248707683791
 31
0.0
  0
LINE
  5
13DEF
  8
AM_0
 10
630.14713500915684
 20
188.63247707683789
 30
0.0
 11
628.86716500915713
 21
180.63253707683791
 31
0.0
  0
LINE
  5
13DF0
  8
AM_0
 10
630.14713500915684
 20
187.2924870768378
 30
0.0
 11
629.13791500915704
 21
180.64245707683779
 31
0.0
  0
LINE
  5
13DF1
  8
AM_0
 10
630.14713500915684
 20
187.29254707683791
 30
0.0
 11
629.22165500915708
 21
180.6659270768379
 31
0.0
  0
LINE
  5
13DF2
  8
AM_0
 10
523.14713500915695
 20
185.07251707683781
 30
0.0
 11
528.87293500915689
 21
176.25555707683779
 31
0.0
  0
LINE
  5
13DF6
  8
AM_0
 10
626.93711500915686
 20
181.7925170768379
 30
0.0
 11
530.0171250091571
 21
181.7925170768379
 31
0.0
  0
LINE
  5
13DFF
  8
AM_0
 10
541.56805432337194
 20
175.57254707683779
 30
0.0
 11
530.13095500915733
 21
175.57254707683779
 31
0.0
  0
LINE
  5
13E06
  8
AM_0
 10
522.14713500915707
 20
182.07254707683791
 30
0.0
 11
514.14713500915695
 21
182.07254707683791
 31
0.0
  0
ARC
  5
13E08
  8
AM_0
 10
530.13095500915733
 20
177.07254707683779
 30
0.0
 40
1.4999999999999989
 50
213.00000000000151
 51
270.000010000001
  0
ARC
  5
13E09
  8
AM_0
 10
530.02195500915695
 20
183.7972770768379
 30
0.0
 40
2.0047289999999989
 50
195.17349999999811
 51
269.86167999999742
  0
LINE
  5
13E1D
  8
AM_0
 10
543.14713500915707
 20
171.0724870768378
 30
0.0
 11
542.86639588609376
 21
181.7925170768379
 31
0.0
  0
ARC
  5
13E20
  8
AM_0
 10
541.56805432337194
 20
174.07254707683779
 30
0.0
 40
1.4999999999999989
 50
1.500134906353124
 51
90.0
1001
GENIUS_GENODEF_13
1002
{
1000
HIER
1070
     0
1002
}
1002
{
1000
MANEDIT
1070
     0
1002
}
1002
{
1000
NOSEL
1070
     0
1002
}
1002
{
1000
BEHIND
1070
     0
1002
}
1002
{
1000
REACTOR
1002
}
1001
GENIUS_GENOBJ-N-FIL_13
1002
{
1000
OWNER
1000
GEN
1002
}
  0
LINE
  5
13E39
  8
AM_0
 10
627.24088500915695
 20
178.94253707683791
 30
0.0
 11
604.81448481049028
 21
178.94253707683791
 31
0.0
  0
LINE
  5
13E54
  8
AM_0
 10
603.14719500915703
 20
171.0725170768379
 30
0.0
 11
603.42785919649623
 21
181.7925170768377
 31
0.0
  0
ARC
  5
13E57
  8
AM_0
 10
604.81448481049028
 20
177.44253707683791
 30
0.0
 40
1.4999999999999989
 50
90.0
 51
178.50026113613271
1001
GENIUS_GENODEF_13
1002
{
1000
HIER
1070
     0
1002
}
1002
{
1000
MANEDIT
1070
     0
1002
}
1002
{
1000
NOSEL
1070
     0
1002
}
1002
{
1000
BEHIND
1070
     0
1002
}
1002
{
1000
REACTOR
1002
}
1001
GENIUS_GENOBJ-N-FIL_13
1002
{
1000
OWNER
1000
GEN
1002
}
  0
ARC
  5
13E66
  8
AM_0
 10
627.16050500915696
 20
180.94253707683791
 30
0.0
 40
1.9999999999999989
 50
270.000010000001
 51
351.37037999999581
  0
ARC
  5
13E67
  8
AM_0
 10
627.24088500915695
 20
180.94253707683791
 30
0.0
 40
1.9999999999999989
 50
270.000010000001
 51
352.04955999999657
  0
ARC
  5
13E68
  8
AM_0
 10
626.8909650091573
 20
180.9429070768378
 30
0.0
 40
2.000420099999999
 50
270.1772900000023
 51
351.07317999999862
  0
ARC
  5
13E69
  8
AM_0
 10
626.94229500915708
 20
183.79178707683789
 30
0.0
 40
1.9992489999999989
 50
269.8525700000003
 51
349.35689999999892
  0
LINE
  5
13E6A
  8
AM_0
 10
561.14713500915695
 20
212.07254707683799
 30
0.0
 11
627.78714500915703
 21
212.07254707683799
 31
0.0
  0
LINE
  5
13E6B
  8
AM_0
 10
628.68711500915686
 20
211.5825570768379
 30
0.0
 11
561.14713500915695
 21
211.5825570768379
 31
0.0
  0
LINE
  5
13E6C
  8
AM_0
 10
628.46714500915721
 20
204.7025470768379
 30
0.0
 11
561.12711500915702
 21
204.7025470768379
 31
0.0
  0
LINE
  5
13E6D
  8
AM_0
 10
561.14713500915695
 20
264.07254707683791
 30
0.0
 11
627.78714500915703
 21
264.07254707683791
 31
0.0
  0
LINE
  5
13E6E
  8
AM_0
 10
628.68711500915686
 20
264.56253707683788
 30
0.0
 11
561.14713500915695
 21
264.56253707683788
 31
0.0
  0
LINE
  5
13E6F
  8
AM_0
 10
528.81430500915712
 20
262.07254707683791
 30
0.0
 11
627.78714500915703
 21
262.07254707683791
 31
0.0
  0
LINE
  5
13E70
  8
AM_0
 10
628.68711500915686
 20
261.63260707683793
 30
0.0
 11
525.112895009157
 21
261.63260707683793
 31
0.0
  0
LINE
  5
13E71
  8
AM_0
 10
528.81430500915712
 20
214.07254707683799
 30
0.0
 11
627.78714500915703
 21
214.07254707683799
 31
0.0
  0
LINE
  5
13E72
  8
AM_0
 10
628.68711500915686
 20
214.51248707683791
 30
0.0
 11
525.112895009157
 21
214.51248707683791
 31
0.0
  0
LINE
  5
13E73
  8
AM_0
 10
528.80710500915711
 20
204.07254707683791
 30
0.0
 11
573.14713500915695
 21
204.07254707683791
 31
0.0
  0
LINE
  5
13E74
  8
AM_0
 10
528.80710500915711
 20
202.07254707683791
 30
0.0
 11
573.14713500915695
 21
202.07254707683791
 31
0.0
  0
LINE
  5
13E75
  8
AM_0
 10
573.14713500915695
 20
201.3525770768378
 30
0.0
 11
525.32712500915704
 21
201.3525770768378
 31
0.0
  0
LINE
  5
13E76
  8
AM_0
 10
543.14713500915707
 20
211.59256707683781
 30
0.0
 11
525.112895009157
 21
211.59256707683781
 31
0.0
  0
LINE
  5
13E77
  8
AM_0
 10
528.81430500915712
 20
212.07254707683799
 30
0.0
 11
543.14713500915707
 21
212.07254707683799
 31
0.0
  0
LINE
  5
13E78
  8
AM_0
 10
525.32712500915704
 20
204.7025470768379
 30
0.0
 11
543.16715500915711
 21
204.7025470768379
 31
0.0
  0
LINE
  5
13E79
  8
AM_0
 10
527.60508500915705
 20
185.07254707683791
 30
0.0
 11
522.14713500915707
 21
185.07254707683791
 31
0.0
  0
LINE
  5
13E7A
  8
AM_0
 10
522.14713500915707
 20
192.07254707683779
 30
0.0
 11
514.14713500915695
 21
192.07254707683779
 31
0.0
  0
ARC
  5
13E7B
  8
AM_0
 10
522.49393500915721
 20
198.34976707683779
 30
0.0
 40
1.502775999999999
 50
14.75642999999951
 51
89.877586999996751
  0
ARC
  5
13E7C
  8
AM_0
 10
528.80710500915711
 20
203.07254707683791
 30
0.0
 40
0.9999999999999998
 50
89.999997000000647
 51
270.000010000001
  0
ARC
  5
13E7D
  8
AM_0
 10
525.32712500915704
 20
203.02749707683799
 30
0.0
 40
1.675001999999999
 50
89.999997000000647
 51
270.000010000001
  0
LINE
  5
13E7E
  8
AM_0
 10
522.14713500915707
 20
206.1326070768379
 30
0.0
 11
514.14713500915695
 21
206.1326070768379
 31
0.0
  0
ARC
  5
13E7F
  8
AM_0
 10
528.80716500915685
 20
213.07254707683791
 30
0.0
 40
1.0000255999999981
 50
89.589469000002197
 51
270.4105299999984
  0
ARC
  5
13E80
  8
AM_0
 10
525.10715500915705
 20
213.04251707683781
 30
0.0
 40
1.460011199999999
 50
89.775250000004789
 51
270.22475000000497
  0
LINE
  5
13E81
  8
AM_0
 10
544.64713500915695
 20
210.57254707683791
 30
0.0
 11
544.64713500915695
 21
205.57254707683791
 31
0.0
  0
ARC
  5
13E82
  8
AM_0
 10
543.16715500915711
 20
205.7125570768379
 30
0.0
 40
0.9999999999999998
 50
270.0
 51
0.0000100000010064
  0
LINE
  5
13E83
  8
AM_0
 10
559.64713500915707
 20
210.57254707683791
 30
0.0
 11
559.64713500915707
 21
205.57254707683791
 31
0.0
  0
ARC
  5
13E84
  8
AM_0
 10
561.12711500915702
 20
205.7125570768379
 30
0.0
 40
0.9999999999999998
 50
179.99999931675049
 51
270.000010000001
  0
ARC
  5
13E85
  8
AM_0
 10
543.14713500915707
 20
205.57254707683791
 30
0.0
 40
1.4999999999999989
 50
270.0
 51
0.0000100000010064
  0
ARC
  5
13E86
  8
AM_0
 10
561.14713500915695
 20
205.57254707683791
 30
0.0
 40
1.4999999999999989
 50
179.99999931675049
 51
270.000010000001
  0
CIRCLE
  5
13E87
  8
AM_0
 10
554.64713500915718
 20
209.57254707683779
 30
0.0
 40
1.149999999999999
  0
LINE
  5
13E88
  8
AM_0
 10
544.16715500915734
 20
210.57254707683791
 30
0.0
 11
544.16715500915734
 21
205.7125570768379
 31
0.0
  0
ARC
  5
13E89
  8
AM_0
 10
543.14713500915707
 20
210.57254707683791
 30
0.0
 40
1.4999999999999989
 50
359.999989999999
 51
89.999997000000647
  0
ARC
  5
13E8A
  8
AM_0
 10
543.14713500915707
 20
210.57254707683791
 30
0.0
 40
1.019999999999998
 50
359.999989999999
 51
89.999997000000647
  0
CIRCLE
  5
13E8B
  8
AM_0
 10
554.64713500915718
 20
209.57254707683779
 30
0.0
 40
1.0999999999999981
  0
CIRCLE
  5
13E8C
  8
AM_0
 10
549.64713500915718
 20
209.57254707683779
 30
0.0
 40
0.9999999999999998
  0
LINE
  5
13E8D
  8
AM_0
 10
560.12711500915691
 20
210.57254707683791
 30
0.0
 11
560.12711500915691
 21
205.7125570768379
 31
0.0
  0
ARC
  5
13E8E
  8
AM_0
 10
561.14713500915695
 20
210.57254707683791
 30
0.0
 40
1.019999999999998
 50
89.999997000000647
 51
180.0
  0
ARC
  5
13E8F
  8
AM_0
 10
561.14713500915695
 20
210.57254707683791
 30
0.0
 40
1.4999999999999989
 50
89.999997000000647
 51
180.0
  0
LINE
  5
13E90
  8
AM_0
 10
543.14713500915707
 20
264.56253707683788
 30
0.0
 11
525.10147500915696
 21
264.56253707683788
 31
0.0
  0
LINE
  5
13E91
  8
AM_0
 10
528.79996500915695
 20
264.07254707683791
 30
0.0
 11
543.14713500915707
 21
264.07254707683791
 31
0.0
  0
LINE
  5
13E92
  8
AM_0
 10
522.14713500915707
 20
270.01248707683777
 30
0.0
 11
514.14713500915695
 21
270.01248707683777
 31
0.0
  0
ARC
  5
13E93
  8
AM_0
 10
528.80716500915685
 20
263.07254707683779
 30
0.0
 40
1.0000255999999981
 50
89.589469000002197
 51
270.4105299999984
  0
ARC
  5
13E94
  8
AM_0
 10
525.10715500915705
 20
263.1025770768378
 30
0.0
 40
1.460011199999999
 50
89.775250000004789
 51
270.22475000000497
  0
CIRCLE
  5
13E95
  8
AM_0
 10
554.64713500915718
 20
266.57254707683791
 30
0.0
 40
1.149999999999999
  0
ARC
  5
13E96
  8
AM_0
 10
543.14713500915707
 20
265.57254707683779
 30
0.0
 40
1.4999999999999989
 50
270.0
 51
0.0000100000010064
  0
ARC
  5
13E97
  8
AM_0
 10
543.14713500915707
 20
265.57254707683779
 30
0.0
 40
1.019999999999998
 50
270.0
 51
0.0000100000010064
  0
LINE
  5
13E98
  8
AM_0
 10
544.16715500915734
 20
265.57254707683779
 30
0.0
 11
544.16715500915734
 21
270.4325270768378
 31
0.0
  0
LINE
  5
13E99
  8
AM_0
 10
544.64713500915695
 20
265.57254707683779
 30
0.0
 11
544.64713500915695
 21
270.57254707683791
 31
0.0
  0
CIRCLE
  5
13E9A
  8
AM_0
 10
554.64713500915718
 20
266.57254707683791
 30
0.0
 40
1.0999999999999981
  0
CIRCLE
  5
13E9B
  8
AM_0
 10
549.64713500915718
 20
266.57254707683791
 30
0.0
 40
0.9999999999999998
  0
ARC
  5
13E9C
  8
AM_0
 10
561.14713500915695
 20
265.57254707683779
 30
0.0
 40
1.4999999999999989
 50
179.99999931675049
 51
270.000010000001
  0
ARC
  5
13E9D
  8
AM_0
 10
561.14713500915695
 20
265.57254707683779
 30
0.0
 40
1.019999999999998
 50
179.999999316757
 51
270.000010000001
  0
LINE
  5
13E9E
  8
AM_0
 10
560.12711500915691
 20
265.57254707683779
 30
0.0
 11
560.12711500915691
 21
270.4325270768378
 31
0.0
  0
LINE
  5
13E9F
  8
AM_0
 10
559.64713500915707
 20
265.57254707683779
 30
0.0
 11
559.64713500915707
 21
270.57254707683791
 31
0.0
  0
POLYLINE
  5
13EA0
  8
AM_0
 66
     1
 10
0.0
 20
0.0
 30
0.0
  0
VERTEX
  5
13EA1
  8
AM_0
 10
627.7430850091572
 20
231.8021570768378
 30
0.0
 42
-0.00076695235
  0
VERTEX
  5
13EA2
  8
AM_0
 10
627.72828500915705
 20
231.18439707683791
 30
0.0
 42
-0.00073263043
  0
VERTEX
  5
13EA3
  8
AM_0
 10
627.71164500915711
 20
230.56679707683779
 30
0.0
 42
-0.00076525988
  0
VERTEX
  5
13EA4
  8
AM_0
 10
627.69315500915695
 20
229.9491270768379
 30
0.0
 42
-0.00075144488
  0
VERTEX
  5
13EA5
  8
AM_0
 10
627.67278500915677
 20
229.33152707683789
 30
0.0
 42
-0.00076035096
  0
VERTEX
  5
13EA6
  8
AM_0
 10
627.65054500915676
 20
228.71409707683799
 30
0.0
 42
-0.00075543154
  0
VERTEX
  5
13EA7
  8
AM_0
 10
627.62644500915712
 20
228.09671707683779
 30
0.0
 42
-0.0007577325
  0
VERTEX
  5
13EA8
  8
AM_0
 10
627.60046500915723
 20
227.4793170768379
 30
0.0
 42
-0.00076034585
  0
VERTEX
  5
13EA9
  8
AM_0
 10
627.57261500915718
 20
226.86192707683779
 30
0.0
 42
-0.00074823143
  0
VERTEX
  5
13EAA
  8
AM_0
 10
627.54288500915709
 20
226.2445370768379
 30
0.0
 42
-0.00074896605
  0
VERTEX
  5
13EAB
  8
AM_0
 10
627.51132500915696
 20
225.6274070768379
 30
0.0
 42
-0.00076039763
  0
VERTEX
  5
13EAC
  8
AM_0
 10
627.47790500915676
 20
225.01037707683801
 30
0.0
 42
-0.00075616127
  0
VERTEX
  5
13EAD
  8
AM_0
 10
627.44260500915698
 20
224.3933470768379
 30
0.0
  0
SEQEND
  5
13EAE
  8
AM_0
  0
LINE
  5
13EAF
  8
AM_0
 10
628.81711500915708
 20
221.73257707683791
 30
0.0
 11
592.47586500915713
 21
221.73257707683791
 31
0.0
  0
LINE
  5
13EB0
  8
AM_0
 10
628.81711500915708
 20
224.39248707683799
 30
0.0
 11
592.4884450091572
 21
224.39248707683799
 31
0.0
  0
LINE
  5
13EB1
  8
AM_0
 10
593.70841500915697
 20
224.07254707683791
 30
0.0
 11
627.78714500915703
 21
224.07254707683791
 31
0.0
  0
LINE
  5
13EB2
  8
AM_0
 10
593.70841500915697
 20
222.07254707683791
 30
0.0
 11
627.78714500915703
 21
222.07254707683791
 31
0.0
  0
LINE
  5
13EB3
  8
AM_0
 10
628.46714500915721
 20
201.3525770768378
 30
0.0
 11
573.14713500915695
 21
201.3525770768378
 31
0.0
  0
LINE
  5
13EB4
  8
AM_0
 10
573.14713500915695
 20
204.07254707683791
 30
0.0
 11
627.78714500915703
 21
204.07254707683791
 31
0.0
  0
LINE
  5
13EB5
  8
AM_0
 10
573.14713500915695
 20
202.07254707683791
 30
0.0
 11
627.78714500915703
 21
202.07254707683791
 31
0.0
  0
ARC
  5
13EB6
  8
AM_0
 10
593.70841500915697
 20
223.07254707683791
 30
0.0
 40
1.000005699999998
 50
89.999997000000647
 51
270.000010000001
  0
ARC
  5
13EB7
  8
AM_0
 10
592.48215500915717
 20
223.06253707683791
 30
0.0
 40
1.3300147999999981
 50
89.729433000000611
 51
270.27058000000301
  0
POLYLINE
  5
13EB8
  8
AM_0
 66
     1
 10
0.0
 20
0.0
 30
0.0
  0
VERTEX
  5
13EB9
  8
AM_0
 10
626.28623500915705
 20
211.5895070768378
 30
0.0
 42
-0.00068900015
  0
VERTEX
  5
13EBA
  8
AM_0
 10
626.21535500915707
 20
211.01475707683781
 30
0.0
 42
-0.00070644648
  0
VERTEX
  5
13EBB
  8
AM_0
 10
626.14285500915719
 20
210.44007707683781
 30
0.0
 42
-0.00069245587
  0
VERTEX
  5
13EBC
  8
AM_0
 10
626.06876500915678
 20
209.86575707683789
 30
0.0
 42
-0.00069587802
  0
VERTEX
  5
13EBD
  8
AM_0
 10
625.99308500915708
 20
209.29161707683789
 30
0.0
 42
-0.00068980012
  0
VERTEX
  5
13EBE
  8
AM_0
 10
625.91578500915705
 20
208.71761707683791
 30
0.0
 42
-0.00072079193
  0
VERTEX
  5
13EBF
  8
AM_0
 10
625.83689500915682
 20
208.14383707683791
 30
0.0
 42
-0.00071003147
  0
VERTEX
  5
13EC0
  8
AM_0
 10
625.75635500915678
 20
207.57035707683789
 30
0.0
 42
-0.00072658712
  0
VERTEX
  5
13EC1
  8
AM_0
 10
625.67419500915696
 20
206.9972670768378
 30
0.0
 42
-0.00069571059
  0
VERTEX
  5
13EC2
  8
AM_0
 10
625.59037500915701
 20
206.42422707683781
 30
0.0
 42
-0.0007126617
  0
VERTEX
  5
13EC3
  8
AM_0
 10
625.5049450091567
 20
205.85146707683779
 30
0.0
 42
-0.00071614574
  0
VERTEX
  5
13EC4
  8
AM_0
 10
625.4179150091569
 20
205.27911707683791
 30
0.0
 42
-0.00072290803
  0
VERTEX
  5
13EC5
  8
AM_0
 10
625.32920500915702
 20
204.70681707683789
 30
0.0
  0
SEQEND
  5
13EC6
  8
AM_0
  0
LINE
  5
13EC7
  8
AM_0
 10
624.78714500915703
 20
201.4225470768379
 30
0.0
 11
630.14713500915684
 21
189.9825470768379
 31
0.0
  0
ARC
  5
13EC9
  8
AM_0
 10
628.47397500915713
 20
203.02749707683799
 30
0.0
 40
1.6750139999999989
 50
269.76649000000219
 51
90.233501000003244
  0
ARC
  5
13ECA
  8
AM_0
 10
627.60251500915695
 20
203.07254707683791
 30
0.0
 40
1.000013899999999
 50
269.69165999999939
 51
90.308340000000754
  0
POLYLINE
  5
13ECB
  8
AM_0
 66
     1
 10
0.0
 20
0.0
 30
0.0
  0
VERTEX
  5
13ECC
  8
AM_0
 10
627.26889500915684
 20
221.7319670768378
 30
0.0
 42
-0.00073721992
  0
VERTEX
  5
13ECD
  8
AM_0
 10
627.224745009157
 20
221.1295570768379
 30
0.0
 42
-0.00074398496
  0
VERTEX
  5
13ECE
  8
AM_0
 10
627.17881500915701
 20
220.52728707683789
 30
0.0
 42
-0.00073322625
  0
VERTEX
  5
13ECF
  8
AM_0
 10
627.131085009157
 20
219.9249570768379
 30
0.0
 42
-0.00073594289
  0
VERTEX
  5
13ED0
  8
AM_0
 10
627.08160500915687
 20
219.32296707683781
 30
0.0
 42
-0.00074742568
  0
VERTEX
  5
13ED1
  8
AM_0
 10
627.03033500915683
 20
218.72110707683791
 30
0.0
 42
-0.00073216749
  0
VERTEX
  5
13ED2
  8
AM_0
 10
626.97727500915676
 20
218.11929707683791
 30
0.0
 42
-0.00074184065
  0
VERTEX
  5
13ED3
  8
AM_0
 10
626.92245500915715
 20
217.51776707683791
 30
0.0
 42
-0.00072077528
  0
VERTEX
  5
13ED4
  8
AM_0
 10
626.86587500915721
 20
216.91653707683801
 30
0.0
 42
-0.00074978179
  0
VERTEX
  5
13ED5
  8
AM_0
 10
626.80753500915705
 20
216.31533707683789
 30
0.0
 42
-0.00074288888
  0
VERTEX
  5
13ED6
  8
AM_0
 10
626.74738500915714
 20
215.71431707683789
 30
0.0
 42
-0.00072503679
  0
VERTEX
  5
13ED7
  8
AM_0
 10
626.68547500915702
 20
215.11357707683791
 30
0.0
 42
-0.00074640584
  0
VERTEX
  5
13ED8
  8
AM_0
 10
626.62180500915701
 20
214.5129770768379
 30
0.0
  0
SEQEND
  5
13ED9
  8
AM_0
  0
ARC
  5
13EDA
  8
AM_0
 10
627.60251500915695
 20
213.07254707683791
 30
0.0
 40
1.000013899999999
 50
269.69165999999939
 51
90.308340000000754
  0
ARC
  5
13EDB
  8
AM_0
 10
628.68711500915686
 20
213.04751707683781
 30
0.0
 40
1.4650039999999991
 50
270.0
 51
89.999997000000647
  0
ARC
  5
13EDC
  8
AM_0
 10
628.81711500915708
 20
223.06253707683791
 30
0.0
 40
1.3300049999999981
 50
270.0
 51
89.999997000000647
  0
ARC
  5
13EDD
  8
AM_0
 10
627.60251500915695
 20
223.07254707683791
 30
0.0
 40
1.000013899999999
 50
269.69165999999939
 51
90.308340000000754
  0
LINE
  5
13EDE
  8
AM_0
 10
593.70841500915697
 20
244.07254707683779
 30
0.0
 11
627.78714500915703
 21
244.07254707683779
 31
0.0
  0
LINE
  5
13EDF
  8
AM_0
 10
593.70841500915697
 20
242.07254707683791
 30
0.0
 11
627.78714500915703
 21
242.07254707683791
 31
0.0
  0
LINE
  5
13EE0
  8
AM_0
 10
628.87711500915691
 20
244.3425670768379
 30
0.0
 11
592.42844500915726
 21
244.3425670768379
 31
0.0
  0
LINE
  5
13EE1
  8
AM_0
 10
628.87711500915691
 20
241.81253707683791
 30
0.0
 11
592.42844500915726
 21
241.81253707683791
 31
0.0
  0
LINE
  5
13EE2
  8
AM_0
 10
628.87711500915691
 20
234.34256707683781
 30
0.0
 11
592.42844500915726
 21
234.34256707683781
 31
0.0
  0
LINE
  5
13EE3
  8
AM_0
 10
593.70841500915697
 20
234.07254707683779
 30
0.0
 11
627.78714500915703
 21
234.07254707683779
 31
0.0
  0
LINE
  5
13EE4
  8
AM_0
 10
593.70841500915697
 20
232.07254707683779
 30
0.0
 11
627.78714500915703
 21
232.07254707683779
 31
0.0
  0
LINE
  5
13EE5
  8
AM_0
 10
628.87711500915691
 20
231.80252707683789
 30
0.0
 11
592.42844500915726
 21
231.80252707683789
 31
0.0
  0
LINE
  5
13EE6
  8
AM_0
 10
593.70841500915697
 20
252.07254707683791
 30
0.0
 11
627.78714500915703
 21
252.07254707683791
 31
0.0
  0
LINE
  5
13EE7
  8
AM_0
 10
628.81711500915708
 20
251.75259707683779
 30
0.0
 11
592.4884450091572
 21
251.75259707683779
 31
0.0
  0
LINE
  5
13EE8
  8
AM_0
 10
593.70841500915697
 20
254.07254707683791
 30
0.0
 11
627.78714500915703
 21
254.07254707683791
 31
0.0
  0
LINE
  5
13EE9
  8
AM_0
 10
628.81711500915708
 20
254.4125070768379
 30
0.0
 11
592.4884450091572
 21
254.4125070768379
 31
0.0
  0
ARC
  5
13EEA
  8
AM_0
 10
593.70841500915697
 20
233.07254707683791
 30
0.0
 40
1.000005699999998
 50
89.999997000000647
 51
270.000010000001
  0
ARC
  5
13EEB
  8
AM_0
 10
592.42020500915714
 20
233.07254707683791
 30
0.0
 40
1.2700266
 50
89.629329999993644
 51
270.37068000000158
  0
ARC
  5
13EEC
  8
AM_0
 10
593.70841500915697
 20
243.07254707683791
 30
0.0
 40
1.000005699999998
 50
89.999997000000647
 51
270.000010000001
  0
ARC
  5
13EED
  8
AM_0
 10
592.42020500915714
 20
243.08255707683779
 30
0.0
 40
1.2700266
 50
89.629329999993644
 51
270.37068000000158
  0
ARC
  5
13EEE
  8
AM_0
 10
593.70841500915697
 20
253.07254707683779
 30
0.0
 40
1.000005699999998
 50
89.999997000000647
 51
270.000010000001
  0
ARC
  5
13EEF
  8
AM_0
 10
592.48215500915717
 20
253.08755707683781
 30
0.0
 40
1.3350147999999991
 50
89.730443999996979
 51
270.2695700000001
  0
POLYLINE
  5
13EF0
  8
AM_0
 66
     1
 10
0.0
 20
0.0
 30
0.0
  0
VERTEX
  5
13EF1
  8
AM_0
 10
627.7430850091572
 20
244.34292707683781
 30
0.0
 42
0.00076691992
  0
VERTEX
  5
13EF2
  8
AM_0
 10
627.72828500915705
 20
244.9606970768379
 30
0.0
 42
0.00073262792
  0
VERTEX
  5
13EF3
  8
AM_0
 10
627.71164500915711
 20
245.578287076838
 30
0.0
 42
0.00076529537
  0
VERTEX
  5
13EF4
  8
AM_0
 10
627.69315500915695
 20
246.1959570768378
 30
0.0
 42
0.00075141097
  0
VERTEX
  5
13EF5
  8
AM_0
 10
627.67278500915677
 20
246.81355707683781
 30
0.0
 42
0.00075841687
  0
VERTEX
  5
13EF6
  8
AM_0
 10
627.65055500915685
 20
247.43098707683779
 30
0.0
 42
0.00075711788
  0
VERTEX
  5
13EF7
  8
AM_0
 10
627.62644500915712
 20
248.04849707683789
 30
0.0
 42
0.00075976003
  0
VERTEX
  5
13EF8
  8
AM_0
 10
627.60045500915703
 20
248.66588707683781
 30
0.0
 42
0.00075797311
  0
VERTEX
  5
13EF9
  8
AM_0
 10
627.57261500915718
 20
249.283167076838
 30
0.0
 42
0.0007482613
  0
VERTEX
  5
13EFA
  8
AM_0
 10
627.54288500915709
 20
249.90054707683791
 30
0.0
 42
0.00074893561
  0
VERTEX
  5
13EFB
  8
AM_0
 10
627.51132500915696
 20
250.51767707683791
 30
0.0
 42
0.00076039839
  0
VERTEX
  5
13EFC
  8
AM_0
 10
627.47790500915676
 20
251.1347070768378
 30
0.0
 42
0.00075618786
  0
VERTEX
  5
13EFD
  8
AM_0
 10
627.44260500915698
 20
251.75174707683789
 30
0.0
  0
SEQEND
  5
13EFE
  8
AM_0
  0
POLYLINE
  5
13EFF
  8
AM_0
 66
     1
 10
0.0
 20
0.0
 30
0.0
  0
VERTEX
  5
13F00
  8
AM_0
 10
627.78714500915703
 20
238.07254707683779
 30
0.0
 42
0.00039106649
  0
VERTEX
  5
13F01
  8
AM_0
 10
627.78950500915698
 20
238.3836770768379
 30
0.0
 42
0.00035488198
  0
VERTEX
  5
13F02
  8
AM_0
 10
627.79139500915676
 20
238.69478707683771
 30
0.0
 42
0.00039706113
  0
VERTEX
  5
13F03
  8
AM_0
 10
627.79282500915724
 20
239.0058970768379
 30
0.0
 42
0.00038765718
  0
VERTEX
  5
13F04
  8
AM_0
 10
627.79375500915705
 20
239.31703707683801
 30
0.0
 42
0.00040613432
  0
VERTEX
  5
13F05
  8
AM_0
 10
627.79420500915728
 20
239.62813707683779
 30
0.0
 42
0.00035573434
  0
VERTEX
  5
13F06
  8
AM_0
 10
627.79416500915704
 20
239.939247076838
 30
0.0
 42
0.00038545884
  0
VERTEX
  5
13F07
  8
AM_0
 10
627.79367500915714
 20
240.25037707683791
 30
0.0
 42
0.00035501205
  0
VERTEX
  5
13F08
  8
AM_0
 10
627.79271500915706
 20
240.56148707683789
 30
0.0
 42
0.00040120779
  0
VERTEX
  5
13F09
  8
AM_0
 10
627.79129500915701
 20
240.87271707683789
 30
0.0
 42
0.00038317817
  0
VERTEX
  5
13F0A
  8
AM_0
 10
627.78938500915706
 20
241.18384707683791
 30
0.0
 42
0.00035656084
  0
VERTEX
  5
13F0B
  8
AM_0
 10
627.78700500915716
 20
241.4950870768379
 30
0.0
 42
0.00040143615
  0
VERTEX
  5
13F0C
  8
AM_0
 10
627.78415500915696
 20
241.8061870768378
 30
0.0
  0
SEQEND
  5
13F0D
  8
AM_0
  0
ARC
  5
13F0E
  8
AM_0
 10
628.88297500915724
 20
233.07254707683791
 30
0.0
 40
1.2700129999999981
 50
269.73663000000249
 51
90.263382999998399
  0
ARC
  5
13F0F
  8
AM_0
 10
627.60251500915695
 20
233.07254707683791
 30
0.0
 40
1.000013899999999
 50
269.69165999999939
 51
90.308340000000754
  0
POLYLINE
  5
13F10
  8
AM_0
 66
     1
 10
0.0
 20
0.0
 30
0.0
  0
VERTEX
  5
13F11
  8
AM_0
 10
627.78714500915703
 20
238.07254707683779
 30
0.0
 42
-0.00039106589
  0
VERTEX
  5
13F12
  8
AM_0
 10
627.78950500915698
 20
237.76140707683791
 30
0.0
 42
-0.00035488584
  0
VERTEX
  5
13F13
  8
AM_0
 10
627.79139500915676
 20
237.4502970768379
 30
0.0
 42
-0.00039705232
  0
VERTEX
  5
13F14
  8
AM_0
 10
627.79282500915724
 20
237.13919707683789
 30
0.0
 42
-0.0003876649
  0
VERTEX
  5
13F15
  8
AM_0
 10
627.79375500915705
 20
236.82805707683781
 30
0.0
 42
-0.00040613779
  0
VERTEX
  5
13F16
  8
AM_0
 10
627.79420500915728
 20
236.51694707683799
 30
0.0
 42
-0.00035571855
  0
VERTEX
  5
13F17
  8
AM_0
 10
627.79416500915704
 20
236.20584707683781
 30
0.0
 42
-0.00038547358
  0
VERTEX
  5
13F18
  8
AM_0
 10
627.79367500915714
 20
235.89470707683779
 30
0.0
 42
-0.000355015
  0
VERTEX
  5
13F19
  8
AM_0
 10
627.79271500915706
 20
235.58360707683789
 30
0.0
 42
-0.00040118616
  0
VERTEX
  5
13F1A
  8
AM_0
 10
627.79129500915701
 20
235.2723770768379
 30
0.0
 42
-0.00038319867
  0
VERTEX
  5
13F1B
  8
AM_0
 10
627.78938500915706
 20
234.96123707683799
 30
0.0
 42
-0.00035656356
  0
VERTEX
  5
13F1C
  8
AM_0
 10
627.78700500915716
 20
234.6500070768378
 30
0.0
 42
-0.00040140992
  0
VERTEX
  5
13F1D
  8
AM_0
 10
627.78415500915696
 20
234.3388970768379
 30
0.0
  0
SEQEND
  5
13F1E
  8
AM_0
  0
ARC
  5
13F1F
  8
AM_0
 10
628.88297500915724
 20
243.0775470768379
 30
0.0
 40
1.2650129999999991
 50
269.7355899999958
 51
90.264420999998279
  0
ARC
  5
13F20
  8
AM_0
 10
627.60251500915695
 20
243.07254707683791
 30
0.0
 40
1.000013899999999
 50
269.69165999999939
 51
90.308340000000754
  0
POLYLINE
  5
13F21
  8
AM_0
 66
     1
 10
0.0
 20
0.0
 30
0.0
  0
VERTEX
  5
13F22
  8
AM_0
 10
627.26889500915684
 20
254.41311707683789
 30
0.0
 42
0.0007337051
  0
VERTEX
  5
13F23
  8
AM_0
 10
627.22475500915675
 20
255.01553707683789
 30
0.0
 42
0.00075211323
  0
VERTEX
  5
13F24
  8
AM_0
 10
627.17881500915701
 20
255.6179270768379
 30
0.0
 42
0.0007297491
  0
VERTEX
  5
13F25
  8
AM_0
 10
627.131085009157
 20
256.22012707683791
 30
0.0
 42
0.00073593041
  0
VERTEX
  5
13F26
  8
AM_0
 10
627.08160500915687
 20
256.8221170768378
 30
0.0
 42
0.00074742739
  0
VERTEX
  5
13F27
  8
AM_0
 10
627.03033500915683
 20
257.42398707683782
 30
0.0
 42
0.00073217363
  0
VERTEX
  5
13F28
  8
AM_0
 10
626.97727500915676
 20
258.02578707683779
 30
0.0
 42
0.00073754168
  0
VERTEX
  5
13F29
  8
AM_0
 10
626.92245500915715
 20
258.62732707683779
 30
0.0
 42
0.00073075073
  0
VERTEX
  5
13F2A
  8
AM_0
 10
626.86587500915721
 20
259.22868707683779
 30
0.0
 42
0.00074550816
  0
VERTEX
  5
13F2B
  8
AM_0
 10
626.80753500915705
 20
259.82974707683792
 30
0.0
 42
0.00074288416
  0
VERTEX
  5
13F2C
  8
AM_0
 10
626.74738500915714
 20
260.43076707683792
 30
0.0
 42
0.00072504001
  0
VERTEX
  5
13F2D
  8
AM_0
 10
626.68547500915702
 20
261.03151707683787
 30
0.0
 42
0.00074640667
  0
VERTEX
  5
13F2E
  8
AM_0
 10
626.62180500915701
 20
261.63211707683791
 30
0.0
  0
SEQEND
  5
13F2F
  8
AM_0
  0
ARC
  5
13F30
  8
AM_0
 10
628.81711500915708
 20
253.08255707683779
 30
0.0
 40
1.3300049999999981
 50
270.0
 51
89.999997000000647
  0
ARC
  5
13F31
  8
AM_0
 10
627.60251500915695
 20
253.07254707683779
 30
0.0
 40
1.000013899999999
 50
269.69165999999939
 51
90.308340000000754
  0
ARC
  5
13F32
  8
AM_0
 10
628.68711500915686
 20
263.09756707683789
 30
0.0
 40
1.4650039999999991
 50
270.0
 51
89.999997000000647
  0
ARC
  5
13F33
  8
AM_0
 10
627.60251500915695
 20
263.07254707683779
 30
0.0
 40
1.000013899999999
 50
269.69165999999939
 51
90.308340000000754
  0
LINE
  5
13F5B
  8
AM_0
 10
514.14713500915695
 20
294.07254707683791
 30
0.0
 11
504.5899058973813
 21
294.07254707683791
 31
0.0
  0
LINE
  5
13F5C
  8
AM_0
 10
514.14713500915695
 20
284.07254707683779
 30
0.0
 11
502.64103149353213
 21
284.07254707683779
 31
0.0
  0
ARC
  5
13F5E
  8
0
 10
439.55710871363192
 20
283.07254707683768
 30
0.0
 40
2.0
 50
90.0
 51
189.59406822686481
1001
GENIUS_GENODEF_13
1002
{
1000
HIER
1070
     0
1002
}
1002
{
1000
MANEDIT
1070
     0
1002
}
1002
{
1000
NOSEL
1070
     0
1002
}
1002
{
1000
BEHIND
1070
     0
1002
}
1002
{
1000
OTHER
1070
     0
1002
}
1002
{
1000
REACTOR
1002
}
1001
GENIUS_GENOBJ-N-FIL_13
1002
{
1000
OWNER
1000
GEN
1002
}
  0
ARC
  5
13F5F
  8
0
 10
421.14103064416599
 20
370.78087756653269
 30
0.0
 40
84.708331681787811
 50
272.64408025841698
 51
298.11404380688879
  0
ARC
  5
13F60
  8
0
 10
421.14103064416599
 20
370.78087756653269
 30
0.0
 40
80.708331681787811
 50
242.2304257427634
 51
297.76957425723663
  0
LINE
  5
13F61
  8
0
 10
423.35885684130187
 20
285.07254707683808
 30
0.0
 11
482.641029258358
 21
285.07254707683791
 31
0.0
  0
LINE
  5
13F62
  8
0
 10
457.73231855438451
 20
311.07254707683779
 30
0.0
 11
384.54974273394743
 21
311.07254707683779
 31
0.0
  0
LINE
  5
13F63
  8
0
 10
468.6410289305324
 20
315.07254707683779
 30
0.0
 11
373.64102997361368
 21
315.07254707683779
 31
0.0
  0
LINE
  5
13F65
  8
ﾁｭｳｼﾝｾﾝ1
 10
373.64102997361368
 20
316.07254707683791
 30
0.0
 11
373.64102997361368
 21
290.07254707683779
 31
0.0
1001
GENIUS_GENODEF_13
1002
{
1000
HIER
1070
     0
1002
}
1002
{
1000
MANEDIT
1070
     0
1002
}
1002
{
1000
NOSEL
1070
     0
1002
}
1002
{
1000
BEHIND
1070
     0
1002
}
1002
{
1000
OTHER
1070
     0
1002
}
1002
{
1000
REACTOR
1002
}
1001
GENIUS_GENOBJ-N-CEN_13
1002
{
1000
OWNER
1000
GEN
1002
}
  0
ARC
  5
13F66
  8
0
 10
421.14103064416599
 20
370.78087756653269
 30
0.0
 40
84.708331681787811
 50
241.88595619311121
 51
267.35590367467682
  0
ARC
  5
13F67
  8
0
 10
373.64103116570669
 20
303.0725458847449
 30
0.0
 40
9.0
 50
343.30075622292458
 51
24.624324613382718
  0
ARC
  5
13F68
  8
0
 10
380.28162948500778
 20
294.30314146017332
 30
0.0
 40
2.0
 50
61.885956193111198
 51
127.1346884327121
1001
GENIUS_GENODEF_13
1002
{
1000
HIER
1070
     0
1002
}
1002
{
1000
MANEDIT
1070
     0
1002
}
1002
{
1000
NOSEL
1070
     0
1002
}
1002
{
1000
BEHIND
1070
     0
1002
}
1002
{
1000
OTHER
1070
     0
1002
}
1002
{
1000
REACTOR
1002
}
1001
GENIUS_GENOBJ-N-FIL_13
1002
{
1000
OWNER
1000
GEN
1002
}
  0
ARC
  5
13F69
  8
0
 10
384.46949377158649
 20
301.13750128756851
 30
0.0
 40
2.0
 50
169.8681981139369
 51
242.2304257427634
1001
GENIUS_GENOBJ-N-FIL_13
1002
{
1000
OWNER
1000
GEN
1002
}
1001
GENIUS_GENODEF_13
1002
{
1000
HIER
1070
     0
1002
}
1002
{
1000
MANEDIT
1070
     0
1002
}
1002
{
1000
NOSEL
1070
     0
1002
}
1002
{
1000
BEHIND
1070
     0
1002
}
1002
{
1000
OTHER
1070
     0
1002
}
1002
{
1000
REACTOR
1002
}
  0
ARC
  5
13F6A
  8
0
 10
384.54974273394743
 20
308.07254707683779
 30
0.0
 40
3.0
 50
90.0
 51
204.6243246133827
1001
GENIUS_GENOBJ-N-FIL_13
1002
{
1000
OWNER
1000
GEN
1002
}
1001
GENIUS_GENODEF_13
1002
{
1000
HIER
1070
     0
1002
}
1002
{
1000
MANEDIT
1070
     0
1002
}
1002
{
1000
NOSEL
1070
     0
1002
}
1002
{
1000
BEHIND
1070
     0
1002
}
1002
{
1000
OTHER
1070
     0
1002
}
1002
{
1000
REACTOR
1002
}
  0
ARC
  5
13F6B
  8
0
 10
421.14101849971962
 20
281.00245722883352
 30
0.0
 40
2.0
 50
180.0
 51
0.0
  0
LINE
  5
13F6C
  8
0
 10
419.14101849971962
 20
281.00245722883329
 30
0.0
 11
419.14101849971962
 21
284.164858921693
 31
0.0
  0
ARC
  5
13F6D
  8
0
 10
417.14101849971962
 20
284.164858921693
 30
0.0
 40
2.0
 50
0.0
 51
87.355903674676838
1001
GENIUS_GENODEF_13
1002
{
1000
HIER
1070
     0
1002
}
1002
{
1000
MANEDIT
1070
     0
1002
}
1002
{
1000
NOSEL
1070
     0
1002
}
1002
{
1000
BEHIND
1070
     0
1002
}
1002
{
1000
OTHER
1070
     0
1002
}
1002
{
1000
REACTOR
1002
}
1001
GENIUS_GENOBJ-N-FIL_13
1002
{
1000
OWNER
1000
GEN
1002
}
  0
LINE
  5
13F6E
  8
0
 10
423.14101849971962
 20
281.00245722883329
 30
0.0
 11
423.14101849971962
 21
284.16485780001159
 31
0.0
  0
ARC
  5
13F6F
  8
0
 10
433.6410289305324
 20
282.07254707683779
 30
0.0
 40
4.0
 50
170.40593177313519
 51
9.5940682268648061
  0
ARC
  5
13F70
  8
0
 10
425.14101849971962
 20
284.16485780001159
 30
0.0
 40
2.0
 50
92.644080258417048
 51
180.0
1001
GENIUS_GENOBJ-N-FIL_13
1002
{
1000
OWNER
1000
GEN
1002
}
1001
GENIUS_GENODEF_13
1002
{
1000
HIER
1070
     0
1002
}
1002
{
1000
MANEDIT
1070
     0
1002
}
1002
{
1000
NOSEL
1070
     0
1002
}
1002
{
1000
BEHIND
1070
     0
1002
}
1002
{
1000
OTHER
1070
     0
1002
}
1002
{
1000
REACTOR
1002
}
  0
ARC
  5
13F71
  8
0
 10
427.72494914743288
 20
283.07254707683768
 30
0.0
 40
2.0
 50
350.40593177313531
 51
90.0
1001
GENIUS_GENODEF_13
1002
{
1000
HIER
1070
     0
1002
}
1002
{
1000
MANEDIT
1070
     0
1002
}
1002
{
1000
NOSEL
1070
     0
1002
}
1002
{
1000
BEHIND
1070
     0
1002
}
1002
{
1000
OTHER
1070
     0
1002
}
1002
{
1000
REACTOR
1002
}
1001
GENIUS_GENOBJ-N-FIL_13
1002
{
1000
OWNER
1000
GEN
1002
}
  0
ARC
  5
13F73
  8
0
 10
468.6410289305324
 20
303.07254707683779
 30
0.0
 40
12.0
 50
23.929816874034021
 51
90.0
  0
LINE
  5
13F74
  8
ﾁｭｳｼﾝｾﾝ1
 10
468.6410289305324
 20
316.07254707683791
 30
0.0
 11
468.6410289305324
 21
290.07254707683779
 31
0.0
1001
GENIUS_GENODEF_13
1002
{
1000
HIER
1070
     0
1002
}
1002
{
1000
MANEDIT
1070
     0
1002
}
1002
{
1000
NOSEL
1070
     0
1002
}
1002
{
1000
BEHIND
1070
     0
1002
}
1002
{
1000
OTHER
1070
     0
1002
}
1002
{
1000
REACTOR
1002
}
1001
GENIUS_GENOBJ-N-CEN_13
1002
{
1000
OWNER
1000
GEN
1002
}
  0
ARC
  5
13F75
  8
0
 10
468.6410301226253
 20
303.0725458847449
 30
0.0
 40
9.0
 50
207.21610922031431
 51
318.55413204283388
  0
CIRCLE
  5
13F76
  8
0
 10
468.6410289305324
 20
303.07254707683779
 30
0.0
 40
4.4999999999999982
  0
LINE
  5
13F77
  8
ﾁｭｳｼﾝｾﾝ1
 10
481.64102893053217
 20
303.07254707683779
 30
0.0
 11
455.64102893053212
 21
303.07254707683779
 31
0.0
1001
GENIUS_GENODEF_13
1002
{
1000
HIER
1070
     0
1002
}
1002
{
1000
MANEDIT
1070
     0
1002
}
1002
{
1000
NOSEL
1070
     0
1002
}
1002
{
1000
BEHIND
1070
     0
1002
}
1002
{
1000
OTHER
1070
     0
1002
}
1002
{
1000
REACTOR
1002
}
1001
GENIUS_GENOBJ-N-CEN_13
1002
{
1000
OWNER
1000
GEN
1002
}
  0
ARC
  5
13F78
  8
0
 10
467.327321474629
 20
282.07254707683802
 30
0.0
 40
3.0
 50
340.52877936551221
 51
90.0
1001
GENIUS_GENODEF_13
1002
{
1000
HIER
1070
     0
1002
}
1002
{
1000
MANEDIT
1070
     0
1002
}
1002
{
1000
NOSEL
1070
     0
1002
}
1002
{
1000
BEHIND
1070
     0
1002
}
1002
{
1000
OTHER
1070
     0
1002
}
1002
{
1000
REACTOR
1002
}
1001
GENIUS_GENOBJ-N-FIL_13
1002
{
1000
OWNER
1000
GEN
1002
}
  0
ARC
  5
13F79
  8
0
 10
468.6410301226253
 20
303.0725458847449
 30
0.0
 40
9.0
 50
155.37567538661719
 51
207.21610922031431
  0
ARC
  5
13F7A
  8
0
 10
457.8125675167455
 20
301.13750128756851
 30
0.0
 40
2.0
 50
297.76957425723663
 51
10.131801886075509
1001
GENIUS_GENOBJ-N-FIL_13
1002
{
1000
OWNER
1000
GEN
1002
}
1001
GENIUS_GENODEF_13
1002
{
1000
HIER
1070
     0
1002
}
1002
{
1000
MANEDIT
1070
     0
1002
}
1002
{
1000
NOSEL
1070
     0
1002
}
1002
{
1000
BEHIND
1070
     0
1002
}
1002
{
1000
OTHER
1070
     0
1002
}
1002
{
1000
REACTOR
1002
}
  0
ARC
  5
13F7B
  8
0
 10
462.00043180332409
 20
294.30314146017349
 30
0.0
 40
2.0
 50
52.865311567287847
 51
118.1140438068888
1001
GENIUS_GENODEF_13
1002
{
1000
HIER
1070
     0
1002
}
1002
{
1000
MANEDIT
1070
     0
1002
}
1002
{
1000
NOSEL
1070
     0
1002
}
1002
{
1000
BEHIND
1070
     0
1002
}
1002
{
1000
OTHER
1070
     0
1002
}
1002
{
1000
REACTOR
1002
}
1001
GENIUS_GENOBJ-N-FIL_13
1002
{
1000
OWNER
1000
GEN
1002
}
  0
ARC
  5
13F7C
  8
0
 10
457.73231855438451
 20
308.07254707683779
 30
0.0
 40
3.0
 50
335.37567538661648
 51
90.0
1001
GENIUS_GENOBJ-N-FIL_13
1002
{
1000
OWNER
1000
GEN
1002
}
1001
GENIUS_GENODEF_13
1002
{
1000
HIER
1070
     0
1002
}
1002
{
1000
MANEDIT
1070
     0
1002
}
1002
{
1000
NOSEL
1070
     0
1002
}
1002
{
1000
BEHIND
1070
     0
1002
}
1002
{
1000
OTHER
1070
     0
1002
}
1002
{
1000
REACTOR
1002
}
  0
LINE
  5
13F7D
  8
0
 10
479.60954486693328
 20
307.93995482151252
 30
0.0
 11
490.52359039645438
 21
283.34557345863328
 31
0.0
  0
LINE
  5
13F7E
  8
0
 10
480.37813612484769
 20
296.34645199184899
 30
0.0
 11
486.86741841765411
 21
281.72310421040851
 31
0.0
  0
ARC
  5
13F7F
  8
AM_0
 10
504.5899058973813
 20
292.07254707683779
 30
0.0
 40
1.9999999999999989
 50
90.0
 51
177.99953469735479
1001
GENIUS_GENODEF_13
1002
{
1000
HIER
1070
     0
1002
}
1002
{
1000
MANEDIT
1070
     0
1002
}
1002
{
1000
NOSEL
1070
     0
1002
}
1002
{
1000
BEHIND
1070
     0
1002
}
1002
{
1000
OTHER
1070
     0
1002
}
1002
{
1000
REACTOR
1002
}
1001
GENIUS_GENOBJ-N-FIL_13
1002
{
1000
OWNER
1000
GEN
1002
}
  0
LINE
  5
13F80
  8
AM_0
 10
501.44724491614983
 20
287.07254707683791
 30
0.0
 11
488.86970208935458
 21
287.07254707683791
 31
0.0
  0
ARC
  5
13F81
  8
AM_0
 10
478.64103116570658
 20
278.07254826893057
 30
0.0
 40
9.0000003278255516
 50
359.99999499103649
 51
23.929816874034021
  0
CIRCLE
  5
13F82
  8
ｷｲﾛ
 10
478.64102893053229
 20
278.07254707683768
 30
0.0
 40
4.0
  0
CIRCLE
  5
13F83
  8
0
 10
478.64102893053229
 20
278.07254707683768
 30
0.0
 40
3.25
  0
ARC
  5
13F84
  8
AM_0
 10
482.641029258358
 20
280.07254707683768
 30
0.0
 40
5.0
 50
48.901196278733167
 51
90.0
1001
GENIUS_GENODEF_13
1002
{
1000
HIER
1070
     0
1002
}
1002
{
1000
MANEDIT
1070
     0
1002
}
1002
{
1000
NOSEL
1070
     0
1002
}
1002
{
1000
BEHIND
1070
     0
1002
}
1002
{
1000
OTHER
1070
     0
1002
}
1002
{
1000
REACTOR
1002
}
1001
GENIUS_GENOBJ-N-FIL_13
1002
{
1000
OWNER
1000
GEN
1002
}
  0
ARC
  5
13F85
  8
AM_0
 10
478.64103116570658
 20
278.07254826893057
 30
0.0
 40
13.00000032782555
 50
359.99999499103649
 51
23.929816874034021
  0
LINE
  5
13F86
  8
AM_0
 10
502.14103149353213
 20
281.33916389812691
 30
0.0
 11
491.22392554079181
 21
281.33916389812691
 31
0.0
  0
ARC
  5
13F87
  8
AM_0
 10
501.44724487243832
 20
288.07254707683779
 30
0.0
 40
1.0000000000000091
 50
270.00000250448011
 51
352.8192495496059
  0
LINE
  5
13F88
  8
AM_0
 10
502.59112481025107
 20
292.14236230247258
 30
0.0
 11
502.44642089782889
 21
287.99954902996291
 31
0.0
  0
ARC
  5
13F89
  8
0
 10
477.63600714074732
 20
295.1296000556805
 30
0.0
 40
3.0
 50
23.929816874034021
 51
138.55413204283391
1001
GENIUS_GENOBJ-N-FIL_13
1002
{
1000
OWNER
1000
GEN
1002
}
1001
GENIUS_GENODEF_13
1002
{
1000
HIER
1070
     0
1002
}
1002
{
1000
MANEDIT
1070
     0
1002
}
1002
{
1000
NOSEL
1070
     0
1002
}
1002
{
1000
BEHIND
1070
     0
1002
}
1002
{
1000
OTHER
1070
     0
1002
}
1002
{
1000
REACTOR
1002
}
  0
LINE
  5
13F8B
  8
AM_0
 10
628.46714500915721
 20
271.44253707683782
 30
0.0
 11
561.12711500915702
 21
271.44253707683782
 31
0.0
  0
LINE
  5
13F8C
  8
AM_0
 10
528.80710500915711
 20
274.07254707683779
 30
0.0
 11
627.78714500915703
 21
274.07254707683779
 31
0.0
  0
LINE
  5
13F8D
  8
AM_0
 10
528.80710500915711
 20
272.07254707683779
 30
0.0
 11
627.78714500915703
 21
272.07254707683779
 31
0.0
  0
LINE
  5
13F8E
  8
AM_0
 10
628.46714500915721
 20
274.7925170768379
 30
0.0
 11
525.32712500915704
 21
274.7925170768379
 31
0.0
  0
LINE
  5
13F8F
  8
AM_0
 10
626.93711500915686
 20
294.3525770768378
 30
0.0
 11
530.0171250091571
 21
294.3525770768378
 31
0.0
  0
LINE
  5
13F90
  8
AM_0
 10
626.89713500915684
 20
297.20254707683779
 30
0.0
 11
530.0171250091571
 21
297.20254707683779
 31
0.0
  0
LINE
  5
13F91
  8
AM_0
 10
626.87711500915702
 20
299.05252707683792
 30
0.0
 11
530.0171250091571
 21
299.05252707683792
 31
0.0
  0
LINE
  5
13F92
  8
AM_0
 10
626.85715500915717
 20
299.96255707683781
 30
0.0
 11
530.01706500915702
 21
299.96255707683781
 31
0.0
  0
LINE
  5
13F93
  8
AM_0
 10
543.16715500915711
 20
271.4325270768378
 30
0.0
 11
525.32712500915704
 21
271.4325270768378
 31
0.0
  0
LINE
  5
13F94
  8
AM_0
 10
523.9413850091571
 20
283.00137707683791
 30
0.0
 11
528.0871050091572
 21
298.4824870768378
 31
0.0
  0
LINE
  5
13F95
  8
AM_0
 10
523.94141500915703
 20
282.09137707683777
 30
0.0
 11
528.08713500915701
 21
297.57248707683777
 31
0.0
  0
LINE
  5
13F96
  8
AM_0
 10
523.94712500915739
 20
277.41247707683777
 30
0.0
 11
528.08713500915701
 21
292.87249707683787
 31
0.0
  0
LINE
  5
13F97
  8
AM_0
 10
523.94141500915703
 20
280.24139707683793
 30
0.0
 11
528.08713500915701
 21
295.72253707683768
 31
0.0
  0
LINE
  5
13F98
  8
AM_0
 10
527.60715500915705
 20
291.07254707683791
 30
0.0
 11
522.14713500915707
 21
291.07254707683791
 31
0.0
  0
LINE
  5
13F99
  8
AM_0
 10
522.14713500915707
 20
284.07254707683779
 30
0.0
 11
514.14713500915695
 21
284.07254707683779
 31
0.0
  0
ARC
  5
13F9A
  8
AM_0
 10
522.49393500915721
 20
282.49527707683779
 30
0.0
 40
1.502775999999999
 50
270.12242000000128
 51
345.24357000000049
  0
ARC
  5
13F9B
  8
AM_0
 10
522.49393500915721
 20
277.79532707683791
 30
0.0
 40
1.502775999999999
 50
270.12242000000128
 51
345.24357000000049
  0
ARC
  5
13F9C
  8
AM_0
 10
522.49393500915721
 20
280.64529707683789
 30
0.0
 40
1.502775999999999
 50
270.12242000000128
 51
345.24357000000049
  0
ARC
  5
13F9D
  8
AM_0
 10
528.80710500915711
 20
273.07254707683791
 30
0.0
 40
0.9999999999999998
 50
89.999997000000647
 51
270.000010000001
  0
ARC
  5
13F9E
  8
AM_0
 10
525.32712500915704
 20
273.11758707683782
 30
0.0
 40
1.675001999999999
 50
89.999997000000647
 51
270.000010000001
  0
ARC
  5
13F9F
  8
AM_0
 10
522.49393500915721
 20
283.40530707683791
 30
0.0
 40
1.502775999999999
 50
270.12242000000128
 51
345.24357000000049
  0
LINE
  5
13FA0
  8
AM_0
 10
522.14713500915707
 20
294.07254707683791
 30
0.0
 11
514.14713500915695
 21
294.07254707683791
 31
0.0
  0
ARC
  5
13FA1
  8
AM_0
 10
530.01706500915702
 20
292.35428707683781
 30
0.0
 40
1.9982919999999991
 50
89.997367999997024
 51
164.96745200000379
  0
ARC
  5
13FA2
  8
AM_0
 10
530.02195500915695
 20
297.95779707683789
 30
0.0
 40
2.0047289999999989
 50
90.138321999999846
 51
164.82650400000341
  0
ARC
  5
13FA3
  8
AM_0
 10
530.02195500915695
 20
297.04776707683789
 30
0.0
 40
2.0047289999999989
 50
90.138321999999846
 51
164.82650400000341
  0
ARC
  5
13FA4
  8
AM_0
 10
530.02195500915695
 20
295.19778707683781
 30
0.0
 40
2.0047289999999989
 50
90.138321999999846
 51
164.82650400000341
  0
LINE
  5
13FA5
  8
AM_0
 10
630.14713500915684
 20
288.86255707683779
 30
0.0
 11
628.85715500915705
 21
297.3525170768379
 31
0.0
  0
LINE
  5
13FA6
  8
AM_0
 10
630.14713500915684
 20
288.86255707683779
 30
0.0
 11
628.83713500915701
 21
298.24258707683782
 31
0.0
  0
LINE
  5
13FA7
  8
AM_0
 10
630.14713500915684
 20
287.51257707683777
 30
0.0
 11
628.86716500915713
 21
295.52252707683778
 31
0.0
  0
LINE
  5
13FA8
  8
AM_0
 10
630.14713500915684
 20
286.17257707683791
 30
0.0
 11
628.90714500915692
 21
292.73254707683799
 31
0.0
  0
LINE
  5
13FA9
  8
AM_0
 10
624.78714500915703
 20
274.7225370768378
 30
0.0
 11
630.14713500915684
 21
286.17251707683778
 31
0.0
  0
ARC
  5
13FAA
  8
AM_0
 10
628.47452500915711
 20
273.11758707683782
 30
0.0
 40
1.675015999999999
 50
269.74613000000068
 51
90.253854999997117
  0
ARC
  5
13FAB
  8
AM_0
 10
627.60251500915695
 20
273.07254707683791
 30
0.0
 40
1.000013899999999
 50
269.69165999999939
 51
90.308340000000754
  0
ARC
  5
13FAD
  8
AM_0
 10
626.89688500915736
 20
295.20730707683782
 30
0.0
 40
1.9952829999999979
 50
9.0916499999993068
 51
89.993796000001524
  0
ARC
  5
13FAE
  8
AM_0
 10
626.94840500915711
 20
292.35843707683767
 30
0.0
 40
1.994108999999999
 50
10.812230000001239
 51
90.324451999997237
  0
ARC
  5
13FAF
  8
AM_0
 10
626.88254500915684
 20
297.0558170768378
 30
0.0
 40
1.996732999999999
 50
8.5461200000027322
 51
90.156033000002694
  0
ARC
  5
13FB0
  8
AM_0
 10
626.86063500915702
 20
297.9669570768379
 30
0.0
 40
1.9956329999999991
 50
7.9388700000004286
 51
90.100291999999357
  0
LINE
  5
14385
  8
AM_0
 10
121.0909983655667
 20
284.57254827489101
 30
0.0
 11
121.09099836556661
 21
271.57254827489101
 31
0.0
  0
LINE
  5
14387
  8
AM_0
 10
121.0909983655667
 20
204.57254587878489
 30
0.0
 11
121.09099836556661
 21
191.57254587878481
 31
0.0
  0
ARC
  5
1438D
  8
AM_0
 10
110.5495943728954
 20
213.11534217286291
 30
0.0
 40
1.0
 50
92.000000000003723
 51
193.11367014329869
1001
GENIUS_GENODEF_13
1002
{
1000
HIER
1070
     0
1002
}
1002
{
1000
MANEDIT
1070
     0
1002
}
1002
{
1000
NOSEL
1070
     0
1002
}
1002
{
1000
BEHIND
1070
     0
1002
}
1002
{
1000
REACTOR
1002
}
1001
GENIUS_GENOBJ-N-FIL_13
1002
{
1000
OWNER
1000
GEN
1002
}
  0
LINE
  5
1438E
  8
AM_0
 10
113.34704403088401
 20
204.11901294323459
 30
0.0
 11
121.0909983655667
 21
204.38943778751079
 31
0.0
  0
LINE
  5
1438F
  8
AM_0
 10
113.37112793522439
 20
202.0484472541288
 30
0.0
 11
121.0909983655667
 21
201.77886343832461
 31
0.0
  0
LINE
  5
14390
  8
AM_0
 10
110.5310296105155
 20
212.04593635087849
 30
0.0
 11
118.6813047106217
 21
211.76132247281319
 31
0.0
  0
LINE
  5
14392
  8
AM_0
 10
114.6809993080546
 20
204.16559568798061
 30
0.0
 11
114.6809993080544
 21
211.9010162156728
 31
0.0
  0
ARC
  5
14393
  8
AM_0
 10
217.6809993080544
 20
238.07254707683779
 30
0.0
 40
111.0
 50
198.52714231446819
 51
198.56658080189609
  0
ARC
  5
14394
  8
AM_0
 10
113.4060274319268
 20
203.047838081148
 30
0.0
 40
1.0
 50
198.56658080190309
 51
267.99999999999301
1001
GENIUS_GENODEF_13
1002
{
1000
HIER
1070
     0
1002
}
1002
{
1000
MANEDIT
1070
     0
1002
}
1002
{
1000
NOSEL
1070
     0
1002
}
1002
{
1000
BEHIND
1070
     0
1002
}
1002
{
1000
REACTOR
1002
}
1001
GENIUS_GENOBJ-N-FIL_13
1002
{
1000
OWNER
1000
GEN
1002
}
  0
ARC
  5
14395
  8
AM_0
 10
113.3819435275868
 20
203.1196221162156
 30
0.0
 40
1.0
 50
92.000000000003723
 51
198.52714231446819
1001
GENIUS_GENODEF_13
1002
{
1000
HIER
1070
     0
1002
}
1002
{
1000
MANEDIT
1070
     0
1002
}
1002
{
1000
NOSEL
1070
     0
1002
}
1002
{
1000
BEHIND
1070
     0
1002
}
1002
{
1000
REACTOR
1002
}
1001
GENIUS_GENOBJ-N-FIL_13
1002
{
1000
OWNER
1000
GEN
1002
}
  0
ARC
  5
14396
  8
AM_0
 10
110.5659291072182
 20
213.04532717789769
 30
0.0
 40
1.0
 50
193.15111826064839
 51
267.99999999999949
1001
GENIUS_GENODEF_13
1002
{
1000
HIER
1070
     0
1002
}
1002
{
1000
MANEDIT
1070
     0
1002
}
1002
{
1000
NOSEL
1070
     0
1002
}
1002
{
1000
BEHIND
1070
     0
1002
}
1002
{
1000
REACTOR
1002
}
1001
GENIUS_GENOBJ-N-FIL_13
1002
{
1000
OWNER
1000
GEN
1002
}
  0
ARC
  5
14397
  8
AM_0
 10
217.6809993080544
 20
238.07254707683779
 30
0.0
 40
111.0
 50
193.11367014329869
 51
193.15111826064839
  0
ARC
  5
14398
  8
AM_0
 10
168.68099930805471
 20
238.07254707683779
 30
0.0
 40
56.5
 50
144.50431921274279
 51
215.49568078725721
  0
LINE
  5
14399
  8
AM_0
 10
110.51469487619281
 20
214.11473299988211
 30
0.0
 11
117.40004524993419
 21
214.35517473315349
 31
0.0
  0
ARC
  5
1439A
  8
AM_0
 10
108.7126396217848
 20
223.0426905477907
 30
0.0
 40
1.0
 50
187.853178088806
 51
267.99999999999949
1001
GENIUS_GENODEF_13
1002
{
1000
HIER
1070
     0
1002
}
1002
{
1000
MANEDIT
1070
     0
1002
}
1002
{
1000
NOSEL
1070
     0
1002
}
1002
{
1000
BEHIND
1070
     0
1002
}
1002
{
1000
REACTOR
1002
}
1001
GENIUS_GENOBJ-N-FIL_13
1002
{
1000
OWNER
1000
GEN
1002
}
  0
ARC
  5
1439B
  8
AM_0
 10
217.6809993080544
 20
238.07254707683779
 30
0.0
 40
111.0
 50
187.81694783169451
 51
187.85317808881271
  0
ARC
  5
1439C
  8
AM_0
 10
108.70315746941129
 20
223.1115983037252
 30
0.0
 40
1.0
 50
92.000000000000483
 51
187.81694783169451
1001
GENIUS_GENODEF_13
1002
{
1000
HIER
1070
     0
1002
}
1002
{
1000
MANEDIT
1070
     0
1002
}
1002
{
1000
NOSEL
1070
     0
1002
}
1002
{
1000
BEHIND
1070
     0
1002
}
1002
{
1000
REACTOR
1002
}
1001
GENIUS_GENOBJ-N-FIL_13
1002
{
1000
OWNER
1000
GEN
1002
}
  0
LINE
  5
1439D
  8
AM_0
 10
108.6682579727087
 20
224.1109891307444
 30
0.0
 11
113.8870171386345
 21
224.29323221661051
 31
0.0
  0
LINE
  5
1439E
  8
AM_0
 10
108.6777401250822
 20
222.0432997207715
 30
0.0
 11
114.5637044620311
 21
221.8377573169243
 31
0.0
  0
ARC
  5
1439F
  8
AM_0
 10
217.6809993080544
 20
238.07254707683779
 30
0.0
 40
111.0
 50
182.58663322877331
 51
182.62228408795289
  0
ARC
  5
143A0
  8
AM_0
 10
107.7961856786403
 20
233.03988042495831
 30
0.0
 40
1.0
 50
182.62228408795289
 51
267.99999999999949
1001
GENIUS_GENODEF_13
1002
{
1000
HIER
1070
     0
1002
}
1002
{
1000
MANEDIT
1070
     0
1002
}
1002
{
1000
NOSEL
1070
     0
1002
}
1002
{
1000
BEHIND
1070
     0
1002
}
1002
{
1000
REACTOR
1002
}
1001
GENIUS_GENOBJ-N-FIL_13
1002
{
1000
OWNER
1000
GEN
1002
}
  0
ARC
  5
143A1
  8
AM_0
 10
107.79307550018009
 20
233.10825445907449
 30
0.0
 40
1.0
 50
92.000000000003723
 51
182.58663322877331
1001
GENIUS_GENODEF_13
1002
{
1000
HIER
1070
     0
1002
}
1002
{
1000
MANEDIT
1070
     0
1002
}
1002
{
1000
NOSEL
1070
     0
1002
}
1002
{
1000
BEHIND
1070
     0
1002
}
1002
{
1000
REACTOR
1002
}
1001
GENIUS_GENOBJ-N-FIL_13
1002
{
1000
OWNER
1000
GEN
1002
}
  0
LINE
  5
143A2
  8
AM_0
 10
107.7581760034772
 20
234.1076452860936
 30
0.0
 11
112.3093346312511
 21
234.26657524745431
 31
0.0
  0
LINE
  5
143A3
  8
AM_0
 10
107.76128618193771
 20
232.04048959793931
 30
0.0
 11
112.5220195869435
 21
231.87424112409141
 31
0.0
  0
ARC
  5
143A4
  8
AM_0
 10
107.79307550018009
 20
243.0368396946011
 30
0.0
 40
1.0
 50
177.41336677122669
 51
267.99999999999619
1001
GENIUS_GENODEF_13
1002
{
1000
HIER
1070
     0
1002
}
1002
{
1000
MANEDIT
1070
     0
1002
}
1002
{
1000
NOSEL
1070
     0
1002
}
1002
{
1000
BEHIND
1070
     0
1002
}
1002
{
1000
REACTOR
1002
}
1001
GENIUS_GENOBJ-N-FIL_13
1002
{
1000
OWNER
1000
GEN
1002
}
  0
LINE
  5
143A5
  8
AM_0
 10
107.7581760034772
 20
242.0374488675823
 30
0.0
 11
112.3093346312511
 21
241.87851890622119
 31
0.0
  0
ARC
  5
143A6
  8
AM_0
 10
107.7961856786403
 20
243.1052137287171
 30
0.0
 40
1.0
 50
92.000000000000483
 51
177.37771591204699
1001
GENIUS_GENODEF_13
1002
{
1000
HIER
1070
     0
1002
}
1002
{
1000
MANEDIT
1070
     0
1002
}
1002
{
1000
NOSEL
1070
     0
1002
}
1002
{
1000
BEHIND
1070
     0
1002
}
1002
{
1000
REACTOR
1002
}
1001
GENIUS_GENOBJ-N-FIL_13
1002
{
1000
OWNER
1000
GEN
1002
}
  0
ARC
  5
143A7
  8
AM_0
 10
217.6809993080544
 20
238.07254707683779
 30
0.0
 40
111.0
 50
177.37771591204699
 51
177.41336677122669
  0
LINE
  5
143A8
  8
AM_0
 10
107.76128618193771
 20
244.1046045557363
 30
0.0
 11
112.5220195869435
 21
244.2708530295842
 31
0.0
  0
ARC
  5
143A9
  8
AM_0
 10
110.5659291072182
 20
263.09976697577792
 30
0.0
 40
1.0
 50
92.000000000000483
 51
166.84888173935161
1001
GENIUS_GENODEF_13
1002
{
1000
HIER
1070
     0
1002
}
1002
{
1000
MANEDIT
1070
     0
1002
}
1002
{
1000
NOSEL
1070
     0
1002
}
1002
{
1000
BEHIND
1070
     0
1002
}
1002
{
1000
REACTOR
1002
}
1001
GENIUS_GENOBJ-N-FIL_13
1002
{
1000
OWNER
1000
GEN
1002
}
  0
LINE
  5
143AA
  8
AM_0
 10
110.51469487619281
 20
262.03036115379348
 30
0.0
 11
117.40004524993419
 21
261.7899194205221
 31
0.0
  0
ARC
  5
143AB
  8
AM_0
 10
108.70315746941129
 20
253.0334958499503
 30
0.0
 40
1.0
 50
172.18305216830549
 51
267.99999999999949
1001
GENIUS_GENODEF_13
1002
{
1000
HIER
1070
     0
1002
}
1002
{
1000
MANEDIT
1070
     0
1002
}
1002
{
1000
NOSEL
1070
     0
1002
}
1002
{
1000
BEHIND
1070
     0
1002
}
1002
{
1000
REACTOR
1002
}
1001
GENIUS_GENOBJ-N-FIL_13
1002
{
1000
OWNER
1000
GEN
1002
}
  0
ARC
  5
143AC
  8
AM_0
 10
217.6809993080544
 20
238.07254707683779
 30
0.0
 40
111.0
 50
172.14682191118709
 51
172.18305216830549
  0
ARC
  5
143AD
  8
AM_0
 10
108.7126396217848
 20
253.10240360588489
 30
0.0
 40
1.0
 50
92.000000000000483
 51
172.14682191119391
1001
GENIUS_GENODEF_13
1002
{
1000
HIER
1070
     0
1002
}
1002
{
1000
MANEDIT
1070
     0
1002
}
1002
{
1000
NOSEL
1070
     0
1002
}
1002
{
1000
BEHIND
1070
     0
1002
}
1002
{
1000
REACTOR
1002
}
1001
GENIUS_GENOBJ-N-FIL_13
1002
{
1000
OWNER
1000
GEN
1002
}
  0
LINE
  5
143AE
  8
AM_0
 10
108.6682579727087
 20
252.03410502293141
 30
0.0
 11
113.8870171386345
 21
251.85186193706491
 31
0.0
  0
LINE
  5
143AF
  8
AM_0
 10
108.6777401250822
 20
254.1017944329038
 30
0.0
 11
114.5637044620311
 21
254.3073368367512
 31
0.0
  0
ARC
  5
143B0
  8
AM_0
 10
110.5495943728954
 20
263.02975198081259
 30
0.0
 40
1.0
 50
166.8863298567012
 51
267.99999999999619
1001
GENIUS_GENODEF_13
1002
{
1000
HIER
1070
     0
1002
}
1002
{
1000
MANEDIT
1070
     0
1002
}
1002
{
1000
NOSEL
1070
     0
1002
}
1002
{
1000
BEHIND
1070
     0
1002
}
1002
{
1000
REACTOR
1002
}
1001
GENIUS_GENOBJ-N-FIL_13
1002
{
1000
OWNER
1000
GEN
1002
}
  0
ARC
  5
143B1
  8
AM_0
 10
217.6809993080544
 20
238.07254707683779
 30
0.0
 40
111.0
 50
166.84888173935161
 51
166.88632985669449
  0
LINE
  5
143B2
  8
AM_0
 10
113.37112793522439
 20
274.09664689954673
 30
0.0
 11
121.09099836556661
 21
274.36623071535121
 31
0.0
  0
LINE
  5
143B3
  8
AM_0
 10
113.34704403088401
 20
272.02608121044102
 30
0.0
 11
121.09099836556661
 21
271.75565636616528
 31
0.0
  0
LINE
  5
143B4
  8
AM_0
 10
110.5310296105155
 20
264.09915780279709
 30
0.0
 11
118.5765747205825
 21
264.38011442902132
 31
0.0
  0
LINE
  5
143B5
  8
AM_0
 10
114.6809993080546
 20
271.97949846569469
 30
0.0
 11
114.6809993080544
 21
264.24407793800248
 31
0.0
  0
ARC
  5
143B6
  8
AM_0
 10
113.3819435275868
 20
273.02547203746019
 30
0.0
 40
1.0
 50
161.47285768553181
 51
267.99999999999619
1001
GENIUS_GENODEF_13
1002
{
1000
HIER
1070
     0
1002
}
1002
{
1000
MANEDIT
1070
     0
1002
}
1002
{
1000
NOSEL
1070
     0
1002
}
1002
{
1000
BEHIND
1070
     0
1002
}
1002
{
1000
REACTOR
1002
}
1001
GENIUS_GENOBJ-N-FIL_13
1002
{
1000
OWNER
1000
GEN
1002
}
  0
ARC
  5
143B7
  8
AM_0
 10
217.6809993080544
 20
238.07254707683779
 30
0.0
 40
111.0
 50
161.43341919810379
 51
161.47285768553181
  0
ARC
  5
143B8
  8
AM_0
 10
113.4060274319268
 20
273.0972560725275
 30
0.0
 40
1.0
 50
92.000000000007006
 51
161.4334191980968
1001
GENIUS_GENODEF_13
1002
{
1000
HIER
1070
     0
1002
}
1002
{
1000
MANEDIT
1070
     0
1002
}
1002
{
1000
NOSEL
1070
     0
1002
}
1002
{
1000
BEHIND
1070
     0
1002
}
1002
{
1000
REACTOR
1002
}
1001
GENIUS_GENOBJ-N-FIL_13
1002
{
1000
OWNER
1000
GEN
1002
}
  0
LINE
  5
143BA
  8
AM_0
 10
122.6809993080546
 20
204.57254587878489
 30
0.0
 11
122.6809993080546
 21
205.26629767218949
 31
0.0
  0
LINE
  5
143BC
  8
AM_0
 10
122.6809993080546
 20
270.87879648148618
 30
0.0
 11
122.6809993080546
 21
271.57254827489101
 31
0.0
  0
LINE
  5
143D1
  8
AM_0
 10
137.18099930805491
 20
165.07254707683779
 30
0.0
 11
200.18099930805491
 21
165.07254707683799
 31
0.0
  0
LINE
  5
143D2
  8
AM_0
 10
201.68099930805499
 20
168.57254707683811
 30
0.0
 11
135.68099930805471
 21
168.57254707683779
 31
0.0
  0
LINE
  5
143D4
  8
AM_0
 10
197.18099930805491
 20
148.57254707683819
 30
0.0
 11
140.18099930805491
 21
148.57254707683779
 31
0.0
  0
LINE
  5
143D5
  8
AM_0
 10
138.68099930805491
 20
165.07254707683779
 30
0.0
 11
138.68099930805491
 21
150.07254707683779
 31
0.0
  0
LINE
  5
143D6
  8
AM_0
 10
135.68099930805471
 20
153.57254707683779
 30
0.0
 11
135.68099930805471
 21
168.57254707683779
 31
0.0
  0
LINE
  5
143D7
  8
AM_0
 10
137.18099930805491
 20
171.07254707683779
 30
0.0
 11
137.18099930805491
 21
152.57254707683779
 31
0.0
  0
ARC
  5
143D8
  8
AM_0
 10
140.18099930805491
 20
150.07254707683799
 30
0.0
 40
1.5
 50
180.0
 51
270.0
  0
LINE
  5
143D9
  8
AM_0
 10
137.18099930805471
 20
153.57254707683779
 30
0.0
 11
135.68099930805471
 21
153.57254707683779
 31
0.0
  0
LINE
  5
143DA
  8
AM_0
 10
137.18099930805491
 20
152.57254707683779
 30
0.0
 11
138.68099930805491
 21
152.57254707683779
 31
0.0
  0
LINE
  5
143DB
  8
AM_0
 10
185.98489930805479
 20
145.57254707683791
 30
0.0
 11
191.18099930805491
 21
148.57254707683791
 31
0.0
  0
LINE
  5
143DC
  8
AM_0
 10
151.3771993080548
 20
145.57254707683779
 30
0.0
 11
185.98489930805479
 21
145.57254707683791
 31
0.0
  0
LINE
  5
143DD
  8
AM_0
 10
146.17813388749579
 20
148.57254707683779
 30
0.0
 11
151.3771993080548
 21
145.57254707683779
 31
0.0
  0
LINE
  5
143DE
  8
AM_0
 10
198.68099930805491
 20
165.07254707683799
 30
0.0
 11
198.68099930805491
 21
150.07254707683819
 31
0.0
  0
LINE
  5
143DF
  8
AM_0
 10
201.68099930805499
 20
153.57254707683819
 30
0.0
 11
201.68099930805499
 21
168.57254707683811
 31
0.0
  0
LINE
  5
143E0
  8
AM_0
 10
200.18099930805491
 20
152.57254707683819
 30
0.0
 11
200.18099930805491
 21
171.07254707683779
 31
0.0
  0
LINE
  5
143E1
  8
AM_0
 10
198.68099930805491
 20
152.57254707683819
 30
0.0
 11
200.18099930805491
 21
152.57254707683819
 31
0.0
  0
ARC
  5
143E2
  8
AM_0
 10
197.18099930805491
 20
150.07254707683799
 30
0.0
 40
1.5
 50
270.0
 51
0.0
  0
LINE
  5
143E3
  8
AM_0
 10
200.18099930805491
 20
153.57254707683819
 30
0.0
 11
201.68099930805499
 21
153.57254707683819
 31
0.0
  0
LINE
  5
14956
  8
AM_0
 10
645.6471350091573
 20
258.07251707683781
 30
0.0
 11
644.14713500915695
 21
258.20251707683781
 31
0.0
  0
LINE
  5
14957
  8
AM_0
 10
645.6471350091573
 20
255.3525770768378
 30
0.0
 11
644.14713500915695
 21
255.3525770768378
 31
0.0
  0
LINE
  5
14958
  8
AM_0
 10
645.6471350091573
 20
253.22256707683781
 30
0.0
 11
644.14713500915695
 21
253.22256707683781
 31
0.0
  0
LINE
  5
14959
  8
AM_0
 10
645.6471350091573
 20
222.92251707683789
 30
0.0
 11
644.14713500915695
 21
222.92251707683789
 31
0.0
  0
LINE
  5
1495A
  8
AM_0
 10
645.6471350091573
 20
220.79251707683781
 30
0.0
 11
644.14713500915695
 21
220.79251707683781
 31
0.0
  0
LINE
  5
1495B
  8
AM_0
 10
645.6471350091573
 20
218.07251707683781
 30
0.0
 11
644.14713500915695
 21
217.94250707683781
 31
0.0
  0
LINE
  5
1495F
  8
AM_0
 10
638.14713500915718
 20
291.07254707683791
 30
0.0
 11
638.14713500915718
 21
185.07254707683779
 31
0.0
  0
LINE
  5
14960
  8
AM_0
 10
639.14713500915695
 20
288.07254707683779
 30
0.0
 11
639.14713500915695
 21
188.07254707683779
 31
0.0
  0
LINE
  5
14961
  8
AM_0
 10
644.14713500915695
 20
286.09256707683778
 30
0.0
 11
644.14713500915695
 21
243.07254707683791
 31
0.0
  0
LINE
  5
14962
  8
AM_0
 10
642.14713500915718
 20
253.6825270768378
 30
0.0
 11
642.14713500915718
 21
252.47256707683781
 31
0.0
  0
ARC
  5
14963
  8
AM_0
 10
643.14688500915713
 20
253.07278707683781
 30
0.0
 40
1.000199999999998
 50
270.01143000000161
 51
359.98856999999839
  0
LINE
  5
14964
  8
AM_0
 10
644.14713500915695
 20
190.0525270768378
 30
0.0
 11
644.14713500915695
 21
233.07254707683791
 31
0.0
  0
LINE
  5
14965
  8
AM_0
 10
638.14713500915718
 20
185.07254707683779
 30
0.0
 11
630.14713500915707
 21
185.07254707683779
 31
0.0
  0
LINE
  5
14966
  8
AM_0
 10
637.44712500915728
 20
194.8825970768379
 30
0.0
 11
631.21714500915709
 21
194.8825970768379
 31
0.0
  0
ARC
  5
14967
  8
AM_0
 10
639.65049500915723
 20
189.97598707683781
 30
0.0
 40
0.5033929900000002
 50
180.38490000000189
 51
269.61508999999938
  0
ARC
  5
14968
  8
AM_0
 10
639.64664500915728
 20
187.82302707683769
 30
0.0
 40
0.49952301
 50
89.945226000000403
 51
180.0547699999986
  0
LINE
  5
14969
  8
AM_0
 10
639.14713500915695
 20
188.07254707683779
 30
0.0
 11
638.14713500915718
 21
188.07254707683779
 31
0.0
  0
ARC
  5
1496A
  8
AM_0
 10
640.15122500915709
 20
192.5766970768378
 30
0.0
 40
1.0041199999999999
 50
180.23461
 51
269.76539000000002
  0
LINE
  5
1496B
  8
AM_0
 10
641.86710500915729
 20
190.4325270768378
 30
0.0
 11
639.14713500915695
 21
190.4325270768378
 31
0.0
  0
LINE
  5
1496C
  8
AM_0
 10
641.89713500915695
 20
191.57254707683779
 30
0.0
 11
640.14713500915695
 21
191.57254707683779
 31
0.0
  0
LINE
  5
1496D
  8
AM_0
 10
641.90714500915715
 20
189.47256707683769
 30
0.0
 11
639.64713500915695
 21
189.47256707683769
 31
0.0
  0
LINE
  5
1496E
  8
AM_0
 10
641.87711500915725
 20
188.32254707683779
 30
0.0
 11
639.64713500915695
 21
188.32254707683779
 31
0.0
  0
ARC
  5
1496F
  8
AM_0
 10
640.15036500915721
 20
197.09927707683781
 30
0.0
 40
1.0032760000000001
 50
180.38188999999531
 51
205.8018999999949
  0
ARC
  5
14970
  8
AM_0
 10
640.14957500915739
 20
197.09500707683779
 30
0.0
 40
1.002470999999999
 50
180.14107000000001
 51
269.85892999999987
  0
LINE
  5
14971
  8
AM_0
 10
641.84708500915724
 20
194.95254707683779
 30
0.0
 11
639.14713500915695
 21
194.95254707683779
 31
0.0
  0
LINE
  5
14972
  8
AM_0
 10
641.87711500915725
 20
196.09256707683781
 30
0.0
 11
640.14713500915695
 21
196.09256707683781
 31
0.0
  0
ARC
  5
14973
  8
AM_0
 10
643.14939500915705
 20
193.23379707683779
 30
0.0
 40
0.9977070099999998
 50
297.95518999999922
 51
359.925979999996
  0
LINE
  5
14974
  8
AM_0
 10
642.14713500915718
 20
190.67251707683781
 30
0.0
 11
642.14713500915718
 21
191.22256707683781
 31
0.0
  0
LINE
  5
14975
  8
AM_0
 10
642.14713500915718
 20
188.57254707683779
 30
0.0
 11
642.14713500915718
 21
189.1025770768378
 31
0.0
  0
ARC
  5
14976
  8
AM_0
 10
643.14951500915708
 20
190.0571570768378
 30
0.0
 40
0.9976310099999999
 50
299.92076000000071
 51
359.73219000000142
  0
ARC
  5
14977
  8
AM_0
 10
643.15140500915686
 20
191.1029370768378
 30
0.0
 40
0.9956849800000001
 50
296.59085999999951
 51
359.97886999999997
  0
LINE
  5
14978
  8
AM_0
 10
642.38706500915725
 20
190.57254707683779
 30
0.0
 11
643.66709500915715
 21
191.34256707683781
 31
0.0
  0
LINE
  5
14979
  8
AM_0
 10
642.35715500915728
 20
189.58252707683769
 30
0.0
 11
643.5971450091572
 21
190.2125270768378
 31
0.0
  0
LINE
  5
1497A
  8
AM_0
 10
642.37711500915725
 20
188.46255707683781
 30
0.0
 11
643.64707500915722
 21
189.19253707683791
 31
0.0
  0
ARC
  5
1497B
  8
AM_0
 10
643.14835500915729
 20
192.19607707683781
 30
0.0
 40
0.9987969999999998
 50
301.2920499999999
 51
0.3727199999990344
  0
LINE
  5
1497C
  8
AM_0
 10
642.36710500915729
 20
191.69253707683791
 30
0.0
 11
643.61710500915729
 21
192.35253707683779
 31
0.0
  0
LINE
  5
1497D
  8
AM_0
 10
642.14713500915718
 20
195.24258707683779
 30
0.0
 11
642.14713500915718
 21
195.71255707683781
 31
0.0
  0
ARC
  5
1497E
  8
AM_0
 10
643.14865500915698
 20
197.83181707683781
 30
0.0
 40
0.9984580299999999
 50
300.61343000000232
 51
0.0404200000014871
  0
ARC
  5
1497F
  8
AM_0
 10
643.14865500915698
 20
197.83181707683781
 30
0.0
 40
0.9984580299999999
 50
300.61343000000232
 51
0.0404200000014871
  0
LINE
  5
14980
  8
AM_0
 10
643.65714500915715
 20
196.9725370768378
 30
0.0
 11
643.67716500915708
 21
196.98251707683781
 31
0.0
  0
ARC
  5
14981
  8
AM_0
 10
643.14804500915704
 20
196.79727707683779
 30
0.0
 40
0.9990889999999998
 50
303.33790999999962
 51
0.3049100000035252
  0
LINE
  5
14982
  8
AM_0
 10
642.37711500915725
 20
196.22259707683779
 30
0.0
 11
643.65708500915719
 21
196.97256707683781
 31
0.0
  0
LINE
  5
14983
  8
AM_0
 10
642.39719500915703
 20
195.1125170768378
 30
0.0
 11
643.69718500915724
 21
195.96252707683769
 31
0.0
  0
ARC
  5
14984
  8
AM_0
 10
641.90128500915739
 20
190.4718370768378
 30
0.0
 40
0.9993420200000001
 50
270.3345399999983
 51
297.13800000000202
  0
ARC
  5
14985
  8
AM_0
 10
641.87571500915715
 20
191.43618707683791
 30
0.0
 40
1.003743999999998
 50
269.50809999999939
 51
300.62887000000262
  0
ARC
  5
14986
  8
AM_0
 10
641.8919450091571
 20
192.5731570768379
 30
0.0
 40
1.0006820000000001
 50
270.29607000000112
 51
298.3493799999996
  0
ARC
  5
14987
  8
AM_0
 10
641.86643500915739
 20
189.3236370768378
 30
0.0
 40
1.001123999999999
 50
270.61232000000132
 51
300.67218000000099
  0
ARC
  5
14988
  8
AM_0
 10
641.88376500915695
 20
197.0935370768378
 30
0.0
 40
1.001044999999998
 50
269.62029000000052
 51
299.52813000000049
  0
ARC
  5
14989
  8
AM_0
 10
641.85434500915721
 20
195.9530370768378
 30
0.0
 40
1.000521999999999
 50
269.58655999999962
 51
302.85381999999981
  0
ARC
  5
1498A
  8
AM_0
 10
639.84659500915723
 20
201.6831370768378
 30
0.0
 40
0.6994530000000001
 50
89.95517099999924
 51
180.04482999999919
  0
ARC
  5
1498B
  8
AM_0
 10
640.15049500915723
 20
205.33584707683781
 30
0.0
 40
1.003352
 50
180.1910999999989
 51
269.80888999999979
  0
LINE
  5
1498C
  8
AM_0
 10
641.99710500915717
 20
204.33255707683779
 30
0.0
 11
640.14713500915695
 21
204.33255707683779
 31
0.0
  0
LINE
  5
1498D
  8
AM_0
 10
641.94712500915716
 20
202.3825970768379
 30
0.0
 11
639.84714500915697
 21
202.3825970768379
 31
0.0
  0
ARC
  5
1498E
  8
AM_0
 10
643.15073500915696
 20
205.6869270768378
 30
0.0
 40
0.99638802
 50
286.70335999999969
 51
359.75009000000108
  0
LINE
  5
1498F
  8
AM_0
 10
642.14713500915718
 20
202.6825270768378
 30
0.0
 11
642.14713500915718
 21
203.74258707683779
 31
0.0
  0
ARC
  5
14990
  8
AM_0
 10
643.15061500915704
 20
203.90103707683781
 30
0.0
 40
0.9965090199999998
 50
292.82155000000091
 51
0.086250000003443
  0
LINE
  5
14991
  8
AM_0
 10
642.28714500915714
 20
204.37252707683791
 30
0.0
 11
643.43711500915697
 21
204.73254707683779
 31
0.0
  0
LINE
  5
14992
  8
AM_0
 10
642.33707500915727
 20
202.46258707683791
 30
0.0
 11
643.53708500915718
 21
202.98260707683789
 31
0.0
  0
ARC
  5
14993
  8
AM_0
 10
642.00656500915704
 20
205.3352370768379
 30
0.0
 40
1.002699
 50
269.45935999999892
 51
286.247279999998
  0
ARC
  5
14994
  8
AM_0
 10
641.94413500915721
 20
203.38772707683779
 30
0.0
 40
1.005233
 50
270.17075000000062
 51
293.01360999999969
  0
ARC
  5
14995
  8
AM_0
 10
640.14695500915707
 20
231.0726670768378
 30
0.0
 40
0.9998279799999998
 50
89.990161999999827
 51
180.00984000000301
  0
ARC
  5
14996
  8
AM_0
 10
640.15207500915722
 20
215.07742707683781
 30
0.0
 40
1.0049469
 50
180.2813699999993
 51
269.71863000000081
  0
ARC
  5
14997
  8
AM_0
 10
640.14695500915707
 20
211.0726670768378
 30
0.0
 40
0.9998239899999999
 50
89.989922999999536
 51
180.01008000000471
  0
LINE
  5
14998
  8
AM_0
 10
642.14713500915718
 20
212.44253707683791
 30
0.0
 11
642.14713500915718
 21
213.81253707683791
 31
0.0
  0
ARC
  5
14999
  8
AM_0
 10
643.15201500915714
 20
213.07742707683781
 30
0.0
 40
0.9950849999999999
 50
359.71628000000078
 51
90.283717000000564
  0
ARC
  5
1499A
  8
AM_0
 10
643.14688500915713
 20
213.07278707683781
 30
0.0
 40
1.0001959999999981
 50
270.01124999999951
 51
359.98875000000061
  0
LINE
  5
1499B
  8
AM_0
 10
640.14713500915695
 20
212.07254707683799
 30
0.0
 11
643.14713500915707
 21
212.07254707683799
 31
0.0
  0
LINE
  5
1499C
  8
AM_0
 10
640.14713500915695
 20
214.07254707683799
 30
0.0
 11
643.14713500915707
 21
214.07254707683799
 31
0.0
  0
ARC
  5
1499D
  8
AM_0
 10
640.15207500915722
 20
225.07742707683781
 30
0.0
 40
1.004939
 50
180.28092999999899
 51
269.71906000000018
  0
ARC
  5
1499E
  8
AM_0
 10
640.14695500915707
 20
221.0726670768378
 30
0.0
 40
0.9998210099999999
 50
89.989718000001702
 51
180.01028000000201
  0
LINE
  5
1499F
  8
AM_0
 10
642.14713500915718
 20
222.46255707683781
 30
0.0
 11
642.14713500915718
 21
223.6825270768378
 31
0.0
  0
ARC
  5
149A0
  8
AM_0
 10
643.14688500915713
 20
223.07278707683781
 30
0.0
 40
1.000199999999998
 50
270.01145999999858
 51
359.98854000000142
  0
ARC
  5
149A1
  8
AM_0
 10
643.15201500915714
 20
223.07742707683781
 30
0.0
 40
0.9950810099999999
 50
359.71607999999549
 51
90.283927999999904
  0
LINE
  5
149A2
  8
AM_0
 10
640.14713500915695
 20
224.07254707683779
 30
0.0
 11
643.14713500915707
 21
224.07254707683779
 31
0.0
  0
LINE
  5
149A3
  8
AM_0
 10
640.14713500915695
 20
222.07254707683779
 30
0.0
 11
643.14713500915707
 21
222.07254707683779
 31
0.0
  0
ARC
  5
149A4
  8
AM_0
 10
640.14695500915707
 20
241.0726670768378
 30
0.0
 40
0.9998249999999999
 50
89.989949999998785
 51
180.01005000000131
  0
ARC
  5
149A5
  8
AM_0
 10
643.14688500915713
 20
243.07278707683781
 30
0.0
 40
1.0001959999999981
 50
270.01121999999913
 51
359.98878000000411
  0
ARC
  5
149A6
  8
AM_0
 10
640.15207500915722
 20
235.07742707683781
 30
0.0
 40
1.004942999999999
 50
180.28113000000181
 51
269.71886000000057
  0
LINE
  5
149A7
  8
AM_0
 10
642.14713500915718
 20
232.46255707683781
 30
0.0
 11
642.14713500915718
 21
233.62258707683779
 31
0.0
  0
ARC
  5
149A8
  8
AM_0
 10
643.14688500915713
 20
233.07278707683781
 30
0.0
 40
1.0002040000000001
 50
270.01167999999927
 51
359.98834000000318
  0
ARC
  5
149A9
  8
AM_0
 10
643.15201500915714
 20
233.07742707683781
 30
0.0
 40
0.9950770099999999
 50
359.7158599999994
 51
90.284140000000534
  0
LINE
  5
149AA
  8
AM_0
 10
640.14713500915695
 20
232.07254707683779
 30
0.0
 11
643.14713500915707
 21
232.07254707683779
 31
0.0
  0
LINE
  5
149AB
  8
AM_0
 10
640.14713500915695
 20
234.07254707683779
 30
0.0
 11
643.14713500915707
 21
234.07254707683779
 31
0.0
  0
ARC
  5
149AC
  8
AM_0
 10
640.14695500915707
 20
251.0726670768378
 30
0.0
 40
0.9998210099999999
 50
89.989745000000994
 51
180.01024999999851
  0
ARC
  5
149AD
  8
AM_0
 10
640.15207500915722
 20
245.07742707683781
 30
0.0
 40
1.0049469
 50
180.28133999999929
 51
269.71864999999963
  0
LINE
  5
149AE
  8
AM_0
 10
642.14713500915718
 20
243.6825270768378
 30
0.0
 11
642.14713500915718
 21
242.52249707683779
 31
0.0
  0
ARC
  5
149AF
  8
AM_0
 10
643.15201500915714
 20
243.07742707683781
 30
0.0
 40
0.9950849999999999
 50
359.71631000000031
 51
90.283688999999086
  0
LINE
  5
149B0
  8
AM_0
 10
640.14713500915695
 20
242.07254707683779
 30
0.0
 11
643.14713500915707
 21
242.07254707683779
 31
0.0
  0
LINE
  5
149B1
  8
AM_0
 10
640.14713500915695
 20
244.07254707683779
 30
0.0
 11
643.14713500915707
 21
244.07254707683779
 31
0.0
  0
LINE
  5
149B2
  8
AM_0
 10
640.14713500915695
 20
252.07254707683791
 30
0.0
 11
643.14713500915707
 21
252.07254707683791
 31
0.0
  0
ARC
  5
149B3
  8
AM_0
 10
639.85166500915705
 20
274.46707707683788
 30
0.0
 40
0.704566
 50
180.37009000000211
 51
269.62990000000002
  0
LINE
  5
149B4
  8
AM_0
 10
642.14713500915718
 20
263.70254707683779
 30
0.0
 11
642.14713500915718
 21
262.33255707683782
 31
0.0
  0
ARC
  5
149B5
  8
AM_0
 10
643.15201500915714
 20
263.07742707683781
 30
0.0
 40
0.99507803
 50
359.71589000000017
 51
90.284112999998655
  0
ARC
  5
149B6
  8
AM_0
 10
640.14695500915707
 20
261.07266707683777
 30
0.0
 40
0.9998289899999999
 50
89.990188999999049
 51
180.00980999999959
  0
ARC
  5
149B7
  8
AM_0
 10
640.15207500915722
 20
255.07742707683781
 30
0.0
 40
1.004939
 50
180.2809000000002
 51
269.71908999999908
  0
ARC
  5
149B8
  8
AM_0
 10
643.15201500915714
 20
253.07742707683781
 30
0.0
 40
0.99508202
 50
359.716090000002
 51
90.283901000001805
  0
ARC
  5
149B9
  8
AM_0
 10
643.14688500915713
 20
263.07278707683781
 30
0.0
 40
1.000203
 50
270.01164999999878
 51
359.98835000000429
  0
LINE
  5
149BA
  8
AM_0
 10
640.14713500915695
 20
254.07254707683791
 30
0.0
 11
643.14713500915707
 21
254.07254707683791
 31
0.0
  0
LINE
  5
149BB
  8
AM_0
 10
640.14713500915695
 20
262.07254707683791
 30
0.0
 11
643.14713500915707
 21
262.07254707683791
 31
0.0
  0
ARC
  5
149BC
  8
AM_0
 10
640.15207500915722
 20
265.07742707683781
 30
0.0
 40
1.004942999999999
 50
180.28111000000001
 51
269.71888999999999
  0
ARC
  5
149BD
  8
AM_0
 10
640.14542500915695
 20
270.8142370768378
 30
0.0
 40
0.9982839799999999
 50
89.901423999998656
 51
180.09857999999991
  0
LINE
  5
149BE
  8
AM_0
 10
641.94712500915716
 20
273.76248707683777
 30
0.0
 11
639.84714500915697
 21
273.76248707683777
 31
0.0
  0
LINE
  5
149BF
  8
AM_0
 10
641.99710500915717
 20
271.812537076838
 30
0.0
 11
640.14713500915695
 21
271.812537076838
 31
0.0
  0
LINE
  5
149C0
  8
AM_0
 10
642.14713500915718
 20
273.46255707683781
 30
0.0
 11
642.14713500915718
 21
272.40249707683779
 31
0.0
  0
ARC
  5
149C1
  8
AM_0
 10
643.15073500915696
 20
272.25405707683791
 30
0.0
 40
0.9963999999999998
 50
359.9095800000004
 51
67.182639999999211
  0
LINE
  5
149C2
  8
AM_0
 10
642.33713500915724
 20
273.68255707683778
 30
0.0
 11
643.53708500915718
 21
273.17254707683787
 31
0.0
  0
LINE
  5
149C3
  8
AM_0
 10
642.28714500915714
 20
271.77258707683779
 30
0.0
 11
643.43711500915697
 21
271.4225770768378
 31
0.0
  0
ARC
  5
149C4
  8
AM_0
 10
643.15085500915723
 20
270.46829707683793
 30
0.0
 40
0.9962710099999999
 50
359.66994999999997
 51
73.302080000000089
  0
LINE
  5
149C5
  8
AM_0
 10
640.14713500915695
 20
264.07254707683791
 30
0.0
 11
643.14713500915707
 21
264.07254707683791
 31
0.0
  0
ARC
  5
149C6
  8
AM_0
 10
641.94614500915714
 20
272.76712707683782
 30
0.0
 40
0.9954450099999999
 50
66.872549999997958
 51
89.943095000000326
  0
ARC
  5
149C7
  8
AM_0
 10
642.00797500915724
 20
270.81985707683782
 30
0.0
 40
0.9927430199999999
 50
73.667929999997554
 51
90.625445000001221
  0
LINE
  5
149C8
  8
AM_0
 10
642.14713500915718
 20
285.47256707683778
 30
0.0
 11
642.14713500915718
 21
284.92251707683778
 31
0.0
  0
ARC
  5
149C9
  8
AM_0
 10
643.15152500915724
 20
285.05227707683792
 30
0.0
 40
0.995579
 50
0.0173600000000249
 51
63.412910000002142
  0
LINE
  5
149CA
  8
AM_0
 10
642.38718500915695
 20
285.57260707683781
 30
0.0
 11
643.667155009157
 21
284.80258707683788
 31
0.0
  0
LINE
  5
149CB
  8
AM_0
 10
637.44712500915728
 20
281.26248707683777
 30
0.0
 11
631.21714500915709
 21
281.26248707683777
 31
0.0
  0
ARC
  5
149CC
  8
AM_0
 10
640.14945500915724
 20
279.06021707683777
 30
0.0
 40
1.002353
 50
90.134327000000596
 51
179.86567318000149
  0
LINE
  5
149CD
  8
AM_0
 10
641.84708500915724
 20
281.2025470768379
 30
0.0
 11
639.14713500915695
 21
281.2025470768379
 31
0.0
  0
LINE
  5
149CE
  8
AM_0
 10
641.87711500915725
 20
280.06253707683788
 30
0.0
 11
640.14713500915695
 21
280.06253707683788
 31
0.0
  0
ARC
  5
149CF
  8
AM_0
 10
640.14615500915738
 20
283.57351707683779
 30
0.0
 40
0.9990100299999999
 50
89.943190999999956
 51
180.05680999999871
  0
LINE
  5
149D0
  8
AM_0
 10
641.89713500915695
 20
284.57254707683779
 30
0.0
 11
640.14713500915695
 21
284.57254707683779
 31
0.0
  0
LINE
  5
149D1
  8
AM_0
 10
642.14713500915718
 20
280.90249707683779
 30
0.0
 11
642.14713500915718
 21
280.43252707683791
 31
0.0
  0
ARC
  5
149D2
  8
AM_0
 10
643.15232500915715
 20
279.35012707683791
 30
0.0
 40
0.9948369899999999
 50
359.56214000000188
 51
56.795039999998927
  0
LINE
  5
149D3
  8
AM_0
 10
642.39719500915703
 20
281.03256707683778
 30
0.0
 11
643.69718500915724
 21
280.18258707683788
 31
0.0
  0
ARC
  5
149D4
  8
AM_0
 10
643.15305500915724
 20
278.31570707683778
 30
0.0
 40
0.99404597
 50
359.81435999999968
 51
59.531800000001169
  0
LINE
  5
149D5
  8
AM_0
 10
642.3771750091571
 20
279.92257707683791
 30
0.0
 11
643.65714500915715
 21
279.17257707683791
 31
0.0
  0
ARC
  5
149D6
  8
AM_0
 10
643.15390500915714
 20
282.91397707683791
 30
0.0
 40
0.9932109699999999
 50
359.91813000000002
 51
62.20067999999938
  0
ARC
  5
149D7
  8
AM_0
 10
643.15268500915715
 20
283.95156707683782
 30
0.0
 40
0.9944329899999999
 50
0.0594900000009383
 51
58.847870000000192
  0
LINE
  5
149D8
  8
AM_0
 10
642.36710500915729
 20
284.46258707683779
 30
0.0
 11
643.61710500915729
 21
283.79257707683792
 31
0.0
  0
ARC
  5
149D9
  8
AM_0
 10
641.84049500915705
 20
280.20632707683779
 30
0.0
 40
0.99617702
 50
56.029510000002702
 51
89.618682000000817
  0
ARC
  5
149DA
  8
AM_0
 10
641.86771500915722
 20
279.06607707683793
 30
0.0
 40
0.99648702
 50
59.25623000000207
 51
89.459279000001374
  0
ARC
  5
149DB
  8
AM_0
 10
641.91202500915699
 20
283.57717707683793
 30
0.0
 40
0.99545902
 50
62.7961800000012
 51
90.858709000000076
  0
LINE
  5
149DC
  8
AM_0
 10
638.14713500915718
 20
291.07254707683791
 30
0.0
 11
630.14713500915707
 21
291.07254707683791
 31
0.0
  0
ARC
  5
149DD
  8
AM_0
 10
639.65171500915721
 20
288.32717707683793
 30
0.0
 40
0.50463498
 50
180.5238300000004
 51
269.47616999999963
  0
LINE
  5
149DE
  8
AM_0
 10
639.14713500915695
 20
288.07254707683779
 30
0.0
 11
638.14713500915718
 21
288.07254707683779
 31
0.0
  0
ARC
  5
149DF
  8
AM_0
 10
639.64542500915695
 20
286.17422707683778
 30
0.0
 40
0.4983060100000002
 50
89.804892999999964
 51
180.1951100000021
  0
LINE
  5
149E0
  8
AM_0
 10
641.87711500915725
 20
287.82254707683791
 30
0.0
 11
639.64713500915695
 21
287.82254707683791
 31
0.0
  0
LINE
  5
149E1
  8
AM_0
 10
641.86710500915729
 20
285.71255707683781
 30
0.0
 11
639.14713500915695
 21
285.71255707683781
 31
0.0
  0
LINE
  5
149E2
  8
AM_0
 10
641.90714500915715
 20
286.67251707683778
 30
0.0
 11
639.64713500915695
 21
286.67251707683778
 31
0.0
  0
ARC
  5
149E3
  8
AM_0
 10
643.15390500915714
 20
286.0904870768378
 30
0.0
 40
0.99319202
 50
0.1204100000019515
 51
60.22661999999832
  0
LINE
  5
149E4
  8
AM_0
 10
642.35715500915728
 20
286.57254707683779
 30
0.0
 11
643.5971450091572
 21
285.94253707683788
 31
0.0
  0
LINE
  5
149E5
  8
AM_0
 10
642.14713500915718
 20
287.57254707683791
 30
0.0
 11
642.14713500915718
 21
287.04251707683778
 31
0.0
  0
LINE
  5
149E6
  8
AM_0
 10
642.37711500915725
 20
287.6925070768379
 30
0.0
 11
643.64707500915722
 21
286.95251707683781
 31
0.0
  0
ARC
  5
149E7
  8
AM_0
 10
641.88510500915709
 20
286.82669707683777
 30
0.0
 40
0.9959030199999999
 50
60.392830000001311
 51
90.458733000000876
  0
ARC
  5
149E8
  8
AM_0
 10
641.87827500915728
 20
284.71829707683781
 30
0.0
 40
0.99427301
 50
59.219089999998253
 51
90.643933999999973
  0
ARC
  5
149E9
  8
AM_0
 10
641.92234500915697
 20
285.67849707683769
 30
0.0
 40
0.99411702
 50
64.065020000001226
 51
90.877356000001484
  0
LINE
  5
149EA
  8
AM_0
 10
646.64103149353218
 20
222.8507148014472
 30
0.0
 11
646.64103149353218
 21
253.29434883465041
 31
0.0
  0
LINE
  5
149EB
  8
AM_0
 10
645.6471350091573
 20
258.07254707683791
 30
0.0
 11
645.6471350091573
 21
218.07254707683791
 31
0.0
  0
LINE
  5
149EC
  8
AM_0
 10
646.64100097595394
 20
222.8507148014472
 30
0.0
 11
646.14100097595394
 21
220.08072578777529
 31
0.0
  0
LINE
  5
149ED
  8
AM_0
 10
646.1410314935323
 20
220.08072578777529
 30
0.0
 11
645.64100097595394
 21
220.1207343326972
 31
0.0
  0
LINE
  5
149EE
  8
AM_0
 10
646.14100097595394
 20
256.06436836590029
 30
0.0
 11
645.6410314935323
 21
256.02435982097847
 31
0.0
  0
LINE
  5
149EF
  8
AM_0
 10
646.64103149353218
 20
253.2943793522285
 30
0.0
 11
646.1410314935323
 21
256.06436836590029
 31
0.0
  0
LINE
  5
149F0
  8
AM_0
 10
616.14713500915741
 20
168.57254707683779
 30
0.0
 11
616.14713500915741
 21
161.07254707683779
 31
0.0
  0
LINE
  5
149F1
  8
AM_0
 10
621.64713500915752
 20
171.07254707683771
 30
0.0
 11
621.64713500915718
 21
152.57254707683779
 31
0.0
  0
LINE
  5
149F2
  8
AM_0
 10
612.6471350091573
 20
168.57254707683779
 30
0.0
 11
612.6471350091573
 21
161.07254707683779
 31
0.0
  0
LINE
  5
149F3
  8
AM_0
 10
604.64713500915718
 20
168.57254707683779
 30
0.0
 11
604.64713500915718
 21
161.07254707683779
 31
0.0
  0
LINE
  5
149F4
  8
AM_0
 10
601.14713500915741
 20
161.07254707683779
 30
0.0
 11
601.14713500915741
 21
168.57254707683779
 31
0.0
  0
LINE
  5
149F5
  8
AM_0
 10
541.6471350091573
 20
171.07254707683771
 30
0.0
 11
541.6471350091573
 21
165.07254707683779
 31
0.0
  0
LINE
  5
149F6
  8
AM_0
 10
544.14713500915741
 20
148.57254707683779
 30
0.0
 11
619.14713500915741
 21
148.57254707683779
 31
0.0
  0
LINE
  5
149F7
  8
AM_0
 10
555.34313500915732
 20
145.57254707683779
 30
0.0
 11
590.95113500915716
 21
145.57254707683779
 31
0.0
  0
LINE
  5
149F8
  8
AM_0
 10
541.6471350091573
 20
165.07254707683779
 30
0.0
 11
599.14713500915741
 21
165.07254707683779
 31
0.0
  0
LINE
  5
149F9
  8
AM_0
 10
543.14713500915741
 20
165.07254707683779
 30
0.0
 11
543.14713500915741
 21
149.57254707683779
 31
0.0
  0
ARC
  5
149FA
  8
AM_0
 10
544.14713500915741
 20
149.57254707683771
 30
0.0
 40
1.0
 50
180.0
 51
270.0
  0
LINE
  5
149FB
  8
AM_0
 10
550.1471350091573
 20
148.57254707683779
 30
0.0
 11
555.34313500915732
 21
145.57254707683779
 31
0.0
  0
ARC
  5
149FC
  8
AM_0
 10
608.6471350091573
 20
161.07254707683779
 30
0.0
 40
3.999999999999996
 50
180.0
 51
0.000000000000007
  0
ARC
  5
149FD
  8
AM_0
 10
608.6471350091573
 20
161.07254707683779
 30
0.0
 40
7.5000000000000018
 50
180.0
 51
0.000000000000007
  0
ARC
  5
149FE
  8
AM_0
 10
609.64713500915741
 20
160.07254707683779
 30
0.0
 40
7.499999999999992
 50
270.0
 51
0.000000000000007
  0
LINE
  5
149FF
  8
AM_0
 10
590.95113500915716
 20
145.57254707683779
 30
0.0
 11
596.13991051936023
 21
148.57254707683779
 31
0.0
  0
ARC
  5
14A00
  8
AM_0
 10
607.64713500915741
 20
160.07254707683779
 30
0.0
 40
7.4999999999999956
 50
180.0
 51
270.0
  0
LINE
  5
14A01
  8
AM_0
 10
607.64713500915741
 20
152.57254707683779
 30
0.0
 11
609.64713500915741
 21
152.57254707683779
 31
0.0
  0
LINE
  5
14A02
  8
AM_0
 10
600.1471350091573
 20
160.07254707683779
 30
0.0
 11
600.1471350091573
 21
164.07254707683779
 31
0.0
  0
ARC
  5
14A03
  8
AM_0
 10
599.14713500915741
 20
164.07254707683779
 30
0.0
 40
1.0
 50
0.000000000000007
 51
90.0
  0
LINE
  5
14A04
  8
AM_0
 10
620.14713500915741
 20
165.07254707683779
 30
0.0
 11
620.14713500915741
 21
149.57254707683779
 31
0.0
  0
ARC
  5
14A05
  8
AM_0
 10
619.14713500915741
 20
149.57254707683779
 30
0.0
 40
1.0
 50
270.0
 51
0.000000000000007
  0
LINE
  5
14A06
  8
AM_0
 10
621.64713500915718
 20
152.57254707683779
 30
0.0
 11
620.14713500915741
 21
152.57254707683779
 31
0.0
  0
LINE
  5
14A07
  8
AM_0
 10
621.64713500915718
 20
165.07254707683779
 30
0.0
 11
618.14713500915741
 21
165.07254707683779
 31
0.0
  0
LINE
  5
14A08
  8
AM_0
 10
617.14713500915718
 20
164.07254707683779
 30
0.0
 11
617.14713500915718
 21
160.07254707683779
 31
0.0
  0
ARC
  5
14A09
  8
AM_0
 10
618.14713500915741
 20
164.07254707683779
 30
0.0
 40
1.0
 50
90.0
 51
180.0
  0
LINE
  5
14A0A
  8
AM_0
 10
621.64713500915718
 20
168.57254707683779
 30
0.0
 11
541.6471350091573
 21
168.57254707683779
 31
0.0
  0
LINE
  5
14A0B
  8
AM_0
 10
541.6471350091573
 20
171.07254707683771
 30
0.0
 11
621.64713500915718
 21
171.07254707683771
 31
0.0
  0
ARC
  5
150A8
  8
AM_0
 10
403.64102893053229
 20
238.07254707683779
 30
0.0
 40
9.5
 50
108.4084801705864
 51
71.591519829413585
  0
CIRCLE
  5
150A9
  8
ｽﾝﾎﾟｳｾﾝ
 10
403.64102893053229
 20
238.07254707683779
 30
0.0
 40
3.0
  0
LINE
  5
150AA
  8
AM_0
 10
406.64102893053229
 20
250.07254707683791
 30
0.0
 11
406.64102893053229
 21
244.07254707683779
 31
0.0
  0
LINE
  5
150AB
  8
AM_0
 10
400.6410289305324
 20
244.07254707683779
 30
0.0
 11
400.6410289305324
 21
250.07254707683791
 31
0.0
  0
LINE
  5
150AC
  8
AM_0
 10
400.6410289305324
 20
250.07254707683791
 30
0.0
 11
406.64102893053229
 21
250.07254707683791
 31
0.0
  0
LINE
  5
150AD
  8
AM_0
 10
406.64102893053229
 20
244.07254707683779
 30
0.0
 11
400.6410289305324
 21
244.07254707683779
 31
0.0
  0
LINE
  5
150AF
  8
0
 10
265.68100083915931
 20
228.57254707683759
 30
0.0
 11
238.6809992823496
 21
228.57254707398161
 31
0.0
  0
LINE
  5
150B0
  8
0
 10
238.68099933661591
 20
247.57254707683771
 30
0.0
 11
265.68100083915931
 21
247.57254707683771
 31
0.0
  0
LINE
  5
150B1
  8
ｶｸﾚｾﾝ2
 10
213.6810008391592
 20
253.07254752387269
 30
0.0
 11
213.6810008391592
 21
223.07254662980301
 31
0.0
  0
LINE
  5
150B2
  8
ｶｸﾚｾﾝ2
 10
237.6810008391592
 20
250.07254707683791
 30
0.0
 11
237.6810008391592
 21
226.07254707683779
 31
0.0
  0
LINE
  5
150B3
  8
ｶｸﾚｾﾝ2
 10
213.6810008391592
 20
223.07254662980301
 30
0.0
 11
237.6810008391592
 21
226.07254707683779
 31
0.0
  0
LINE
  5
150B4
  8
ｶｸﾚｾﾝ2
 10
213.6810008391592
 20
223.07254662980301
 30
0.0
 11
210.6810007497522
 21
223.07254662980301
 31
0.0
  0
LINE
  5
150B5
  8
ｶｸﾚｾﾝ2
 10
213.6810008391592
 20
253.07254752387269
 30
0.0
 11
237.6810008391592
 21
250.07254707683791
 31
0.0
  0
LINE
  5
150B6
  8
ｶｸﾚｾﾝ2
 10
213.6810008391592
 20
253.07254752387269
 30
0.0
 11
210.6810007497522
 21
253.07254752387269
 31
0.0
  0
LINE
  5
150B7
  8
0
 10
265.68100083915931
 20
228.57254707683759
 30
0.0
 11
265.68100083915931
 21
250.07254707683791
 31
0.0
  0
LINE
  5
150B8
  8
0
 10
265.68100083915931
 20
250.07254707683791
 30
0.0
 11
243.6810008391592
 21
250.07254707683791
 31
0.0
  0
LINE
  5
150B9
  8
0
 10
243.6810008391592
 20
250.07254707683791
 30
0.0
 11
243.6810008391592
 21
247.57254707683771
 31
0.0
  0
LINE
  5
1524E
  8
ｶｸﾚｾﾝ2
 10
238.68099933661591
 20
247.57254707683771
 30
0.0
 11
237.6810008391592
 21
247.57254707683779
 31
0.0
  0
LINE
  5
1524F
  8
ｶｸﾚｾﾝ2
 10
238.68099928234969
 20
228.57254707398161
 30
0.0
 11
237.6810008391592
 21
228.57254707398161
 31
0.0
  0
CIRCLE
  5
15250
  8
AM_0
 10
403.64102893053229
 20
238.07254707683779
 30
0.0
 40
2.5
  0
LINE
  5
15427
  8
AM_0
 10
353.74069626610589
 20
533.85724580638328
 30
0.0
 11
488.54136290579748
 21
533.85724580638328
 31
0.0
  0
LINE
  5
15428
  8
ﾁｭｳｼﾝｾﾝ1
 10
650.64713500915684
 20
495.85722472902779
 30
0.0
 11
347.64102741061367
 21
495.85726817860308
 31
0.0
1001
GENIUS_GENODEF_13
1002
{
1000
HIER
1070
     0
1002
}
1002
{
1000
MANEDIT
1070
     0
1002
}
1002
{
1000
NOSEL
1070
     0
1002
}
1002
{
1000
BEHIND
1070
     0
1002
}
1002
{
1000
REACTOR
1002
}
1001
GENIUS_GENOBJ-N-CEN_13
1002
{
1000
OWNER
1000
GEN
1002
}
  0
LINE
  5
15429
  8
AM_0
 10
646.64103149353184
 20
480.63539245363739
 30
0.0
 11
646.64103149353184
 21
511.07902648684029
 31
0.0
  0
ARC
  5
1542A
  8
AM_0
 10
640.14713500915673
 20
508.85722472902791
 30
0.0
 40
1.0
 50
89.999996999995744
 51
180.0
  0
ARC
  5
1542B
  8
AM_0
 10
643.14713500915673
 20
510.85722472902808
 30
0.0
 40
1.0
 50
270.0
 51
0.0000100000009873
  0
LINE
  5
1542C
  8
AM_0
 10
644.14713500915684
 20
543.87358472902781
 30
0.0
 11
644.14713500915684
 21
500.8572147290277
 31
0.0
  0
LINE
  5
1542D
  8
AM_0
 10
639.14713500915695
 20
545.8572147290281
 30
0.0
 11
639.14713500915695
 21
444.73399572902798
 31
0.0
  0
LINE
  5
1542E
  8
AM_0
 10
645.64713500915684
 20
515.85721472902787
 30
0.0
 11
645.64713500915684
 21
475.85723472902811
 31
0.0
  0
LINE
  5
1542F
  8
AM_0
 10
638.14713500915684
 20
548.85721472902787
 30
0.0
 11
638.14713500915684
 21
442.85723372902788
 31
0.0
  0
LINE
  5
15430
  8
AM_0
 10
642.379375009157
 20
446.24206772902772
 30
0.0
 11
643.64756500915701
 21
446.97504672902801
 31
0.0
  0
LINE
  5
15431
  8
AM_0
 10
639.14713500915695
 20
445.85723372902783
 30
0.0
 11
638.14713500915684
 21
445.85723372902783
 31
0.0
  0
LINE
  5
15432
  8
AM_0
 10
641.87894500915684
 20
446.10783672902772
 30
0.0
 11
639.64713500915684
 21
446.10783672902772
 31
0.0
  0
ARC
  5
15433
  8
AM_0
 10
639.64713500915673
 20
445.6078437290281
 30
0.0
 40
0.5
 50
89.999996999995744
 51
180.0
  0
ARC
  5
15434
  8
AM_0
 10
641.87894500915661
 20
447.10784372902799
 30
0.0
 40
1.0
 50
270.0
 51
300.02639999999582
  0
LINE
  5
15435
  8
AM_0
 10
646.6410009759536
 20
480.63539245363739
 30
0.0
 11
646.14100097595372
 21
477.86540343996552
 31
0.0
  0
LINE
  5
15436
  8
AM_0
 10
644.14713500915684
 20
447.84081572902801
 30
0.0
 11
644.14713500915684
 21
490.85723472902782
 31
0.0
  0
ARC
  5
15437
  8
AM_0
 10
640.14713500915673
 20
463.11405472902811
 30
0.0
 40
1.0
 50
180.0
 51
270.0
  0
ARC
  5
15438
  8
AM_0
 10
641.9968050091569
 20
463.11405472902811
 30
0.0
 40
1.0
 50
270.0
 51
287.09763000000362
  0
ARC
  5
15439
  8
AM_0
 10
640.14713500915673
 20
454.87229372902789
 30
0.0
 40
1.0
 50
180.0
 51
270.0
  0
LINE
  5
1543A
  8
AM_0
 10
642.38120500915693
 20
454.0093947290278
 30
0.0
 11
643.65256500915666
 21
454.75407672902787
 31
0.0
  0
ARC
  5
1543B
  8
AM_0
 10
643.14713500915673
 20
454.58385772902818
 30
0.0
 40
1.0
 50
303.25472000000491
 51
0.0000100000009873
  0
LINE
  5
1543C
  8
AM_0
 10
642.36679500915693
 20
449.47202572902802
 30
0.0
 11
643.61539500915671
 21
450.13389072902788
 31
0.0
  0
LINE
  5
1543D
  8
AM_0
 10
642.36051500915676
 20
447.3624907290278
 30
0.0
 11
643.59977500915693
 21
447.99151872902797
 31
0.0
  0
LINE
  5
1543E
  8
AM_0
 10
642.3968850091569
 20
452.8960597290278
 30
0.0
 11
643.69553500915674
 21
453.74762272902802
 31
0.0
  0
LINE
  5
1543F
  8
AM_0
 10
642.38468500915701
 20
448.35813372902788
 30
0.0
 11
643.6615950091566
 21
449.12437672902797
 31
0.0
  0
ARC
  5
15440
  8
AM_0
 10
643.14713500915673
 20
449.98186772902812
 30
0.0
 40
1.0
 50
300.96660000000043
 51
0.0000100000009873
  0
ARC
  5
15441
  8
AM_0
 10
643.14713500915673
 20
451.01744372902812
 30
0.0
 40
1.0
 50
297.9265899999989
 51
0.0000100000009873
  0
ARC
  5
15442
  8
AM_0
 10
643.14713500915673
 20
448.88316572902812
 30
0.0
 40
1.0
 50
296.91125000000312
 51
0.0000100000009873
  0
ARC
  5
15443
  8
AM_0
 10
643.14713500915673
 20
447.84081572902818
 30
0.0
 40
1.0
 50
300.02639000000539
 51
0.0000100000009873
  0
LINE
  5
15444
  8
AM_0
 10
641.9078750091569
 20
447.25414572902798
 30
0.0
 11
639.64713500915684
 21
447.25414572902798
 31
0.0
  0
LINE
  5
15445
  8
AM_0
 10
641.89847500915698
 20
449.35557772902803
 30
0.0
 11
640.14713500915684
 21
449.35557772902803
 31
0.0
  0
LINE
  5
15446
  8
AM_0
 10
641.87583500915673
 20
453.8723097290279
 30
0.0
 11
640.14713500915684
 21
453.8723097290279
 31
0.0
  0
LINE
  5
15447
  8
AM_0
 10
641.84848500915678
 20
452.73229472902779
 30
0.0
 11
639.14713500915695
 21
452.73229472902779
 31
0.0
  0
LINE
  5
15448
  8
AM_0
 10
641.87009500915701
 20
448.21556372902779
 30
0.0
 11
639.14713500915695
 21
448.21556372902779
 31
0.0
  0
ARC
  5
15449
  8
AM_0
 10
639.64713500915673
 20
447.754137729028
 30
0.0
 40
0.5
 50
180.0
 51
270.0
  0
ARC
  5
1544A
  8
AM_0
 10
640.14713500915673
 20
450.35558572902801
 30
0.0
 40
1.0
 50
180.0
 51
270.0
  0
LINE
  5
1544B
  8
AM_0
 10
642.14713500915684
 20
448.46067272902781
 30
0.0
 11
642.14713500915684
 21
449.00669372902797
 31
0.0
  0
LINE
  5
1544C
  8
AM_0
 10
642.14713500915684
 20
453.02677372902798
 30
0.0
 11
642.14713500915684
 21
453.49888872902801
 31
0.0
  0
ARC
  5
1544D
  8
AM_0
 10
641.87583500915673
 20
454.87229372902789
 30
0.0
 40
1.0
 50
270.0
 51
300.35950000000429
  0
ARC
  5
1544E
  8
AM_0
 10
641.84848500915678
 20
453.73227972902811
 30
0.0
 40
1.0
 50
270.0
 51
303.25472999999982
  0
ARC
  5
1544F
  8
AM_0
 10
641.89847500915675
 20
450.35558572902801
 30
0.0
 40
1.0
 50
270.0
 51
297.92660000000438
  0
ARC
  5
15450
  8
AM_0
 10
641.87009500915656
 20
449.21557072902812
 30
0.0
 40
1.0
 50
270.0
 51
300.96660000000043
  0
ARC
  5
15451
  8
AM_0
 10
641.90787500915656
 20
448.25412972902802
 30
0.0
 40
1.0
 50
270.0
 51
296.91126000000253
  0
LINE
  5
15452
  8
AM_0
 10
642.14713500915684
 20
446.36107172902803
 30
0.0
 11
642.14713500915684
 21
446.88683572902801
 31
0.0
  0
LINE
  5
15453
  8
AM_0
 10
642.33524500915701
 20
460.24832372902802
 30
0.0
 11
643.53995500915687
 21
460.76283572902798
 31
0.0
  0
ARC
  5
15454
  8
AM_0
 10
643.14713500915673
 20
461.68248972902819
 30
0.0
 40
1.0
 50
293.12701999999518
 51
0.0000100000009873
  0
LINE
  5
15455
  8
AM_0
 10
643.65256500915666
 20
454.75411472902812
 30
0.0
 11
643.67612500915698
 21
454.767939729028
 31
0.0
  0
ARC
  5
15456
  8
AM_0
 10
643.14713500915673
 20
455.61698372902799
 30
0.0
 40
1.0
 50
300.3595100000008
 51
0.0000100000009873
  0
ARC
  5
15457
  8
AM_0
 10
643.14713500915673
 20
455.61698372902799
 30
0.0
 40
1.0
 50
300.3595100000008
 51
0.0000100000009873
  0
LINE
  5
15458
  8
AM_0
 10
641.9968050091569
 20
462.11406972902779
 30
0.0
 11
640.14713500915684
 21
462.11406972902779
 31
0.0
  0
LINE
  5
15459
  8
AM_0
 10
641.94248500915671
 20
460.16795572902811
 30
0.0
 11
639.84714500915697
 21
460.16795572902811
 31
0.0
  0
ARC
  5
1545A
  8
AM_0
 10
639.84714500915686
 20
459.46801272902798
 30
0.0
 40
0.6999999900000002
 50
89.999996999995744
 51
180.0
  0
LINE
  5
1545B
  8
AM_0
 10
642.14713500915684
 20
460.464334729028
 30
0.0
 11
642.14713500915684
 21
461.52428672902789
 31
0.0
  0
ARC
  5
1545C
  8
AM_0
 10
641.94248500915671
 20
461.16796372902809
 30
0.0
 40
1.0
 50
270.0
 51
293.12702999999561
  0
ARC
  5
1545D
  8
AM_0
 10
640.14713500915673
 20
454.87229372902789
 30
0.0
 40
1.0
 50
180.0
 51
205.3632400000005
  0
ARC
  5
1545E
  8
AM_0
 10
643.14713500915673
 20
470.8572147290281
 30
0.0
 40
1.0
 50
270.0
 51
0.0000100000009873
  0
LINE
  5
1545F
  8
AM_0
 10
640.14713500915684
 20
469.85723472902788
 30
0.0
 11
643.14713500915707
 21
469.85723472902788
 31
0.0
  0
LINE
  5
15460
  8
AM_0
 10
642.29081500915686
 20
462.15828972902779
 30
0.0
 11
643.44120500915687
 21
462.51214072902798
 31
0.0
  0
ARC
  5
15461
  8
AM_0
 10
643.14713500915673
 20
463.46795172902807
 30
0.0
 40
1.0
 50
287.09763000000362
 51
0.0000100000009873
  0
ARC
  5
15462
  8
AM_0
 10
640.14713500915673
 20
468.85722472902802
 30
0.0
 40
1.0
 50
89.999996999995744
 51
180.0
  0
LINE
  5
15463
  8
AM_0
 10
640.14713500915684
 20
471.85722472902802
 30
0.0
 11
643.14713500915707
 21
471.85722472902802
 31
0.0
  0
LINE
  5
15464
  8
AM_0
 10
646.14103149353184
 20
477.86540343996552
 30
0.0
 11
645.64100097595372
 21
477.90541198488739
 31
0.0
  0
LINE
  5
15465
  8
AM_0
 10
645.64707500915665
 20
475.85723472902811
 30
0.0
 11
644.14713500915684
 21
475.72600472902798
 31
0.0
  0
ARC
  5
15466
  8
AM_0
 10
643.14713500915673
 20
470.8572147290281
 30
0.0
 40
1.0
 50
359.999989999999
 51
89.999996999995744
  0
LINE
  5
15467
  8
AM_0
 10
642.14713500915684
 20
470.230994729028
 30
0.0
 11
642.14713500915684
 21
471.59385472902778
 31
0.0
  0
ARC
  5
15468
  8
AM_0
 10
640.14713500915673
 20
472.85723472902788
 30
0.0
 40
1.0
 50
180.0
 51
270.0
  0
LINE
  5
15469
  8
AM_0
 10
645.64713500915684
 20
480.707194729028
 30
0.0
 11
642.35343500915701
 21
480.707194729028
 31
0.0
  0
LINE
  5
1546A
  8
AM_0
 10
640.14713500915684
 20
481.85723472902788
 30
0.0
 11
643.14713500915707
 21
481.85723472902788
 31
0.0
  0
LINE
  5
1546B
  8
AM_0
 10
640.14713500915684
 20
479.8572147290281
 30
0.0
 11
643.14713500915707
 21
479.8572147290281
 31
0.0
  0
ARC
  5
1546C
  8
AM_0
 10
643.14713500915673
 20
480.85722472902802
 30
0.0
 40
1.0
 50
359.999989999999
 51
89.999996999995744
  0
LINE
  5
1546D
  8
AM_0
 10
645.64713500915684
 20
478.57518472902802
 30
0.0
 11
644.14713500915684
 21
478.57518472902802
 31
0.0
  0
ARC
  5
1546E
  8
AM_0
 10
643.14713500915673
 20
480.85722472902802
 30
0.0
 40
1.0
 50
270.0
 51
0.0000100000009873
  0
ARC
  5
1546F
  8
AM_0
 10
640.14713500915673
 20
482.85721472902799
 30
0.0
 40
1.0
 50
180.0
 51
270.0
  0
ARC
  5
15470
  8
AM_0
 10
640.14713500915673
 20
478.85723472902811
 30
0.0
 40
1.0
 50
89.999996999995744
 51
180.0
  0
LINE
  5
15471
  8
AM_0
 10
642.14713500915684
 20
480.25011472902781
 30
0.0
 11
642.14713500915684
 21
481.46147472902788
 31
0.0
  0
LINE
  5
15472
  8
AM_0
 10
640.14713500915684
 20
491.85721472902782
 30
0.0
 11
643.14713500915707
 21
491.85721472902782
 31
0.0
  0
LINE
  5
15473
  8
AM_0
 10
640.14713500915684
 20
489.85722472902779
 30
0.0
 11
643.14713500915707
 21
489.85722472902779
 31
0.0
  0
ARC
  5
15474
  8
AM_0
 10
643.14713500915673
 20
490.85723472902811
 30
0.0
 40
1.0
 50
359.999989999999
 51
89.999996999995744
  0
ARC
  5
15475
  8
AM_0
 10
643.14713500915673
 20
490.85723472902811
 30
0.0
 40
1.0
 50
270.0
 51
0.0000100000009873
  0
ARC
  5
15476
  8
AM_0
 10
640.14713500915673
 20
488.85721472902821
 30
0.0
 40
1.0
 50
89.999996999995744
 51
180.0
  0
ARC
  5
15477
  8
AM_0
 10
640.14713500915673
 20
492.85722472902802
 30
0.0
 40
1.0
 50
180.0
 51
270.0
  0
LINE
  5
15478
  8
AM_0
 10
642.14713500915684
 20
490.24394472902787
 30
0.0
 11
642.14713500915684
 21
491.40483472902781
 31
0.0
  0
ARC
  5
15479
  8
AM_0
 10
640.14713500915673
 20
502.85722472902808
 30
0.0
 40
1.0
 50
180.0
 51
270.0
  0
ARC
  5
1547A
  8
AM_0
 10
643.14713500915673
 20
500.8572147290281
 30
0.0
 40
1.0
 50
359.999989999999
 51
89.999996999995744
  0
LINE
  5
1547B
  8
AM_0
 10
640.14713500915684
 20
499.85722472902779
 30
0.0
 11
643.14713500915707
 21
499.85722472902779
 31
0.0
  0
LINE
  5
1547C
  8
AM_0
 10
640.14713500915684
 20
501.85722472902768
 30
0.0
 11
643.14713500915707
 21
501.85722472902768
 31
0.0
  0
ARC
  5
1547D
  8
AM_0
 10
643.14713500915673
 20
500.8572147290281
 30
0.0
 40
1.0
 50
270.0
 51
0.0000100000009873
  0
ARC
  5
1547E
  8
AM_0
 10
640.14713500915673
 20
498.85722472902808
 30
0.0
 40
1.0
 50
89.999996999995744
 51
180.0
  0
LINE
  5
1547F
  8
AM_0
 10
642.14713500915684
 20
501.47043472902772
 30
0.0
 11
642.14713500915684
 21
500.30954472902778
 31
0.0
  0
ARC
  5
15480
  8
AM_0
 10
640.14713500915673
 20
541.35885472902805
 30
0.0
 40
1.0
 50
89.999996999995744
 51
180.0
  0
LINE
  5
15481
  8
AM_0
 10
642.36679500915693
 20
542.24238472902789
 30
0.0
 11
643.61545500915668
 21
541.58052472902784
 31
0.0
  0
ARC
  5
15482
  8
AM_0
 10
643.14713500915673
 20
540.69693472902804
 30
0.0
 40
1.0
 50
359.999989999999
 51
62.07339999999563
  0
LINE
  5
15483
  8
AM_0
 10
645.64713500915684
 20
511.00725472902781
 30
0.0
 11
640.96964500915692
 21
511.00725472902809
 31
0.0
  0
LINE
  5
15484
  8
AM_0
 10
640.14713500915684
 20
509.8572147290281
 30
0.0
 11
643.14713500915707
 21
509.8572147290277
 31
0.0
  0
LINE
  5
15485
  8
AM_0
 10
640.14713500915684
 20
511.85722472902808
 30
0.0
 11
643.14713500915707
 21
511.85722472902779
 31
0.0
  0
LINE
  5
15486
  8
AM_0
 10
646.14100097595372
 20
513.84904601809023
 30
0.0
 11
645.64103149353184
 21
513.80903747316825
 31
0.0
  0
LINE
  5
15487
  8
AM_0
 10
646.64103149353184
 20
511.07905700441842
 30
0.0
 11
646.14103149353184
 21
513.84904601809023
 31
0.0
  0
LINE
  5
15488
  8
AM_0
 10
645.64713500915684
 20
515.85721472902787
 30
0.0
 11
644.14713500915684
 21
515.98843472902786
 31
0.0
  0
LINE
  5
15489
  8
AM_0
 10
645.64713500915684
 20
513.13919472902774
 30
0.0
 11
644.14713500915684
 21
513.13919472902774
 31
0.0
  0
ARC
  5
1548A
  8
AM_0
 10
643.14713500915673
 20
510.85722472902808
 30
0.0
 40
1.0
 50
359.999989999999
 51
89.999996999995744
  0
ARC
  5
1548B
  8
AM_0
 10
640.14713500915673
 20
512.8572147290281
 30
0.0
 40
1.0
 50
180.0
 51
270.0
  0
LINE
  5
1548C
  8
AM_0
 10
642.14713500915684
 20
511.46432472902802
 30
0.0
 11
642.14713500915684
 21
510.25290472902782
 31
0.0
  0
LINE
  5
1548D
  8
AM_0
 10
640.14713500915684
 20
519.85722472902808
 30
0.0
 11
643.14713500915707
 21
519.85722472902773
 31
0.0
  0
LINE
  5
1548E
  8
AM_0
 10
640.14713500915684
 20
521.8572147290281
 30
0.0
 11
643.14713500915707
 21
521.85721472902765
 31
0.0
  0
ARC
  5
1548F
  8
AM_0
 10
643.14713500915673
 20
520.85722472902796
 30
0.0
 40
1.0
 50
270.0
 51
0.0000100000009873
  0
ARC
  5
15490
  8
AM_0
 10
643.14713500915673
 20
520.85722472902796
 30
0.0
 40
1.0
 50
359.999989999999
 51
89.999996999995744
  0
ARC
  5
15491
  8
AM_0
 10
640.14713500915673
 20
518.8572147290281
 30
0.0
 40
1.0
 50
89.999996999995744
 51
180.0
  0
LINE
  5
15492
  8
AM_0
 10
642.14713500915684
 20
521.48338472902765
 30
0.0
 11
642.14713500915684
 21
520.12059472902774
 31
0.0
  0
ARC
  5
15493
  8
AM_0
 10
640.14713500915673
 20
522.85722472902785
 30
0.0
 40
1.0
 50
180.0
 51
270.0
  0
LINE
  5
15494
  8
AM_0
 10
642.33530500915674
 20
531.46611472902782
 30
0.0
 11
643.53989500915691
 21
530.95164472902775
 31
0.0
  0
LINE
  5
15495
  8
AM_0
 10
642.29081500915686
 20
529.55615472902787
 30
0.0
 11
643.44113500915671
 21
529.20231472902788
 31
0.0
  0
ARC
  5
15496
  8
AM_0
 10
643.14713500915673
 20
528.24649472902797
 30
0.0
 40
1.0
 50
359.999989999999
 51
72.902369999996452
  0
ARC
  5
15497
  8
AM_0
 10
643.14713500915673
 20
530.03195472902803
 30
0.0
 40
1.0
 50
359.999989999999
 51
66.872970000004372
  0
LINE
  5
15498
  8
AM_0
 10
641.94248500915671
 20
531.54642472902765
 30
0.0
 11
639.84714500915697
 21
531.5464247290281
 31
0.0
  0
ARC
  5
15499
  8
AM_0
 10
639.84714500915686
 20
532.24643472902801
 30
0.0
 40
0.6999999900000002
 50
180.0
 51
270.0
  0
ARC
  5
1549A
  8
AM_0
 10
641.94248500915671
 20
530.54643472902785
 30
0.0
 40
1.0
 50
66.872970000004372
 51
89.999996999995744
  0
LINE
  5
1549B
  8
AM_0
 10
641.9968050091569
 20
529.60032472902776
 30
0.0
 11
640.14713500915684
 21
529.60032472902776
 31
0.0
  0
ARC
  5
1549C
  8
AM_0
 10
640.14713500915673
 20
528.60032472902788
 30
0.0
 40
1.0
 50
89.999996999995744
 51
180.0
  0
ARC
  5
1549D
  8
AM_0
 10
641.9968050091569
 20
528.60032472902788
 30
0.0
 40
1.0
 50
72.902369999996452
 51
89.999996999995744
  0
LINE
  5
1549E
  8
AM_0
 10
642.14713500915684
 20
531.25010472902784
 30
0.0
 11
642.14713500915684
 21
530.19015472902765
 31
0.0
  0
LINE
  5
1549F
  8
AM_0
 10
642.38126500915678
 20
537.70500472902779
 30
0.0
 11
643.65256500915666
 21
536.96033472902775
 31
0.0
  0
LINE
  5
154A0
  8
AM_0
 10
642.3968850091569
 20
538.81837472902782
 30
0.0
 11
643.69547500915701
 21
537.96681472902787
 31
0.0
  0
ARC
  5
154A1
  8
AM_0
 10
643.14713500915673
 20
537.13054472902786
 30
0.0
 40
1.0
 50
359.999989999999
 51
56.745270000000168
  0
ARC
  5
154A2
  8
AM_0
 10
643.14713500915673
 20
536.09746472902805
 30
0.0
 40
1.0
 50
359.999989999999
 51
59.640499999995711
  0
LINE
  5
154A3
  8
AM_0
 10
641.84848500915678
 20
538.9821047290277
 30
0.0
 11
639.14713500915695
 21
538.9821047290277
 31
0.0
  0
LINE
  5
154A4
  8
AM_0
 10
641.87583500915673
 20
537.84213472902775
 30
0.0
 11
640.14713500915684
 21
537.84213472902775
 31
0.0
  0
ARC
  5
154A5
  8
AM_0
 10
640.14713500915673
 20
536.84215472902804
 30
0.0
 40
1.0
 50
89.999996999995744
 51
180.0
  0
LINE
  5
154A6
  8
AM_0
 10
642.14713500915684
 20
538.687674729028
 30
0.0
 11
642.14713500915684
 21
538.21548472902782
 31
0.0
  0
ARC
  5
154A7
  8
AM_0
 10
641.87583500915673
 20
536.84215472902804
 30
0.0
 40
1.0
 50
59.640499999995711
 51
89.999996999995744
  0
ARC
  5
154A8
  8
AM_0
 10
641.84848500915678
 20
537.98210472902804
 30
0.0
 40
1.0
 50
56.745270000000168
 51
89.999996999995744
  0
LINE
  5
154A9
  8
AM_0
 10
642.36045500915702
 20
544.35203472902799
 30
0.0
 11
643.59970500915665
 21
543.72301472902791
 31
0.0
  0
LINE
  5
154AA
  8
AM_0
 10
642.38468500915701
 20
543.35632472902773
 30
0.0
 11
643.66172500915684
 21
542.59002472902773
 31
0.0
  0
LINE
  5
154AB
  8
AM_0
 10
642.37931500915693
 20
545.47233472902758
 30
0.0
 11
643.64749500915684
 21
544.73938472902785
 31
0.0
  0
ARC
  5
154AC
  8
AM_0
 10
643.14713500915673
 20
541.73253472902798
 30
0.0
 40
1.0
 50
359.999989999999
 51
59.033399999999602
  0
ARC
  5
154AD
  8
AM_0
 10
643.14713500915673
 20
542.83128472902786
 30
0.0
 40
1.0
 50
359.999989999999
 51
63.088739999997472
  0
ARC
  5
154AE
  8
AM_0
 10
643.14713500915673
 20
543.87358472902804
 30
0.0
 40
1.0
 50
359.999989999999
 51
59.973600000004261
  0
LINE
  5
154AF
  8
AM_0
 10
639.14713500915695
 20
545.8572147290281
 30
0.0
 11
638.14713500915684
 21
545.8572147290281
 31
0.0
  0
LINE
  5
154B0
  8
AM_0
 10
641.9078750091569
 20
544.46029472902785
 30
0.0
 11
639.64713500915684
 21
544.46029472902785
 31
0.0
  0
LINE
  5
154B1
  8
AM_0
 10
641.89847500915698
 20
542.35887472902789
 30
0.0
 11
640.14713500915684
 21
542.35887472902789
 31
0.0
  0
LINE
  5
154B2
  8
AM_0
 10
641.87009500915701
 20
543.49881472902803
 30
0.0
 11
639.14713500915695
 21
543.49881472902803
 31
0.0
  0
LINE
  5
154B3
  8
AM_0
 10
641.87894500915684
 20
545.60661472902802
 30
0.0
 11
639.64713500915684
 21
545.60661472902802
 31
0.0
  0
ARC
  5
154B4
  8
AM_0
 10
639.64713500915673
 20
546.10660472902805
 30
0.0
 40
0.5
 50
180.0
 51
270.0
  0
ARC
  5
154B5
  8
AM_0
 10
639.64713500915673
 20
543.96031472902803
 30
0.0
 40
0.5
 50
89.999996999995744
 51
180.0
  0
LINE
  5
154B6
  8
AM_0
 10
642.14713500915684
 20
545.35338472902788
 30
0.0
 11
642.14713500915684
 21
544.82760472902783
 31
0.0
  0
LINE
  5
154B7
  8
AM_0
 10
642.14713500915684
 20
543.25377472902801
 30
0.0
 11
642.14713500915684
 21
542.70769472902782
 31
0.0
  0
ARC
  5
154B8
  8
AM_0
 10
641.89847500915675
 20
541.35885472902805
 30
0.0
 40
1.0
 50
62.07339999999563
 51
89.999996999995744
  0
ARC
  5
154B9
  8
AM_0
 10
641.8700950091569
 20
542.49882472902812
 30
0.0
 40
1.0
 50
59.033399999999602
 51
89.999996999995744
  0
ARC
  5
154BA
  8
AM_0
 10
641.90787500915656
 20
543.46031472902803
 30
0.0
 40
1.0
 50
63.088739999997472
 51
89.999996999995744
  0
ARC
  5
154BB
  8
AM_0
 10
641.87894500915661
 20
544.60660472902805
 30
0.0
 40
1.0
 50
59.973600000004261
 51
89.999996999995744
  0
LINE
  5
154BC
  8
AM_0
 10
489.64103202903709
 20
470.85724392883668
 30
0.0
 11
488.54136263803929
 21
533.85726114623753
 31
0.0
  0
LINE
  5
154BD
  8
AM_0
 10
504.50955783364191
 20
551.38933320743854
 30
0.0
 11
504.50954257552758
 21
440.32515543496248
 31
0.0
  0
LINE
  5
154BE
  8
AM_0
 10
514.14713500915673
 20
551.857254729028
 30
0.0
 11
514.14713500915673
 21
439.85723372902783
 31
0.0
  0
LINE
  5
154BF
  8
AM_0
 10
503.82550190067838
 20
441.50995069824842
 30
0.0
 11
498.58954901586128
 21
471.20454000173783
 31
0.0
1001
GENIUS_GENODEF_13
1002
{
1000
HIER
1070
     0
1002
}
1002
{
1000
MANEDIT
1070
     0
1002
}
1002
{
1000
NOSEL
1070
     0
1002
}
1002
{
1000
BEHIND
1070
     0
1002
}
1002
{
1000
REACTOR
1002
}
1001
GENIUS_GENOBJ-N-CEN_13
1002
{
1000
OWNER
1000
GEN
1002
}
  0
ARC
  5
154C0
  8
AM_0
 10
505.79511790474771
 20
441.85724422902803
 30
0.0
 40
2.0
 50
189.9999917840673
 51
270.0
1001
GENIUS_GENOBJ-N-CEN_13
1002
{
1000
OWNER
1000
GEN
1002
}
1001
GENIUS_GENODEF_13
1002
{
1000
HIER
1070
     0
1002
}
1002
{
1000
MANEDIT
1070
     0
1002
}
1002
{
1000
NOSEL
1070
     0
1002
}
1002
{
1000
BEHIND
1070
     0
1002
}
1002
{
1000
OTHER
1070
     0
1002
}
1002
{
1000
REACTOR
1002
}
1001
GENIUS_GENOBJ-N-FIL_13
1002
{
1000
OWNER
1000
GEN
1002
}
  0
LINE
  5
154C1
  8
AM_0
 10
514.14713500915673
 20
439.85724422902769
 30
0.0
 11
505.79511790474771
 21
439.85724422902769
 31
0.0
  0
LINE
  5
154C2
  8
AM_0
 10
490.62372929215297
 20
472.85724392883691
 30
0.0
 11
496.61993346003629
 21
472.85724392883691
 31
0.0
  0
LINE
  5
154C3
  8
AM_0
 10
514.14713500915673
 20
449.85721872902809
 30
0.0
 11
504.50954388505539
 21
449.85724008800281
 31
0.0
  0
LINE
  5
154C4
  8
AM_0
 10
514.14713500915673
 20
463.91978672902781
 30
0.0
 11
504.50954581664359
 21
463.91731529713712
 31
0.0
  0
ARC
  5
154C5
  8
AM_0
 10
496.61993346003629
 20
470.85724392883691
 30
0.0
 40
2.0
 50
9.9999917840672303
 51
90.0
1001
GENIUS_GENODEF_13
1002
{
1000
HIER
1070
     0
1002
}
1002
{
1000
MANEDIT
1070
     0
1002
}
1002
{
1000
NOSEL
1070
     0
1002
}
1002
{
1000
BEHIND
1070
     0
1002
}
1002
{
1000
OTHER
1070
     0
1002
}
1002
{
1000
REACTOR
1002
}
1001
GENIUS_GENOBJ-N-FIL_13
1002
{
1000
OWNER
1000
GEN
1002
}
  0
ARC
  5
154C6
  8
AM_0
 10
490.62372929215297
 20
471.85724392883702
 30
0.0
 40
1.0
 50
90.0
 51
180.9999999999886
1001
GENIUS_GENODEF_13
1002
{
1000
HIER
1070
     0
1002
}
1002
{
1000
MANEDIT
1070
     0
1002
}
1002
{
1000
NOSEL
1070
     0
1002
}
1002
{
1000
BEHIND
1070
     0
1002
}
1002
{
1000
OTHER
1070
     0
1002
}
1002
{
1000
REACTOR
1002
}
1001
GENIUS_GENOBJ-N-FIL_13
1002
{
1000
OWNER
1000
GEN
1002
}
  0
LINE
  5
154C7
  8
AM_0
 10
490.54166756188528
 20
531.85724580638305
 30
0.0
 11
499.641028930532
 21
531.85724580638305
 31
0.0
  0
LINE
  5
154C8
  8
AM_0
 10
503.82551748694419
 20
550.2045408667949
 30
0.0
 11
501.64102893053177
 21
537.81570101991861
 31
0.0
1001
GENIUS_GENODEF_13
1002
{
1000
HIER
1070
     0
1002
}
1002
{
1000
MANEDIT
1070
     0
1002
}
1002
{
1000
NOSEL
1070
     0
1002
}
1002
{
1000
BEHIND
1070
     0
1002
}
1002
{
1000
REACTOR
1002
}
1001
GENIUS_GENOBJ-N-CEN_13
1002
{
1000
OWNER
1000
GEN
1002
}
  0
LINE
  5
154C9
  8
AM_0
 10
514.14713500915673
 20
527.7971942290277
 30
0.0
 11
504.50955459252879
 21
527.7971942290277
 31
0.0
  0
ARC
  5
154CA
  8
AM_0
 10
499.64102893053212
 20
533.85724580638328
 30
0.0
 40
2.0
 50
270.0
 51
0.0
1001
GENIUS_GENODEF_13
1002
{
1000
HIER
1070
     0
1002
}
1002
{
1000
MANEDIT
1070
     0
1002
}
1002
{
1000
NOSEL
1070
     0
1002
}
1002
{
1000
BEHIND
1070
     0
1002
}
1002
{
1000
OTHER
1070
     0
1002
}
1002
{
1000
REACTOR
1002
}
1001
GENIUS_GENOBJ-N-FIL_13
1002
{
1000
OWNER
1000
GEN
1002
}
  0
LINE
  5
154CB
  8
AM_0
 10
501.64102893053177
 20
533.85724580638328
 30
0.0
 11
501.64102893053177
 21
537.81570101991861
 31
0.0
  0
ARC
  5
154CC
  8
AM_0
 10
505.7951329431682
 20
549.85724422902797
 30
0.0
 40
2.0
 50
90.0
 51
169.99999178407
1001
GENIUS_GENOBJ-N-CEN_13
1002
{
1000
OWNER
1000
GEN
1002
}
1001
GENIUS_GENOBJ-N-FIL_13
1002
{
1000
OWNER
1000
GEN
1002
}
1001
GENIUS_GENODEF_13
1002
{
1000
HIER
1070
     0
1002
}
1002
{
1000
MANEDIT
1070
     0
1002
}
1002
{
1000
NOSEL
1070
     0
1002
}
1002
{
1000
BEHIND
1070
     0
1002
}
1002
{
1000
OTHER
1070
     0
1002
}
1002
{
1000
REACTOR
1002
}
  0
LINE
  5
154CD
  8
AM_0
 10
514.14713500915673
 20
541.85724422902797
 30
0.0
 11
504.50955652411341
 21
541.85724422902797
 31
0.0
  0
LINE
  5
154CE
  8
AM_0
 10
514.14713500915673
 20
551.85724422902786
 30
0.0
 11
505.79513294316803
 21
551.85724422902786
 31
0.0
  0
ARC
  5
154CF
  8
AM_0
 10
490.54166756188528
 20
533.85724580638328
 30
0.0
 40
2.0
 50
181.00000000000159
 51
270.0
1001
GENIUS_GENODEF_13
1002
{
1000
HIER
1070
     0
1002
}
1002
{
1000
MANEDIT
1070
     0
1002
}
1002
{
1000
NOSEL
1070
     0
1002
}
1002
{
1000
BEHIND
1070
     0
1002
}
1002
{
1000
OTHER
1070
     0
1002
}
1002
{
1000
REACTOR
1002
}
1001
GENIUS_GENOBJ-N-FIL_13
1002
{
1000
OWNER
1000
GEN
1002
}
  0
LINE
  5
154D0
  8
AM_0
 10
352.64102741061362
 20
470.85725926868969
 30
0.0
 11
353.74069653386408
 21
533.85726114623753
 31
0.0
  0
LINE
  5
154D1
  8
ﾁｭｳｼﾝｾﾝ1
 10
403.64102893053212
 20
542.15845500308046
 30
0.0
 11
403.64102893053212
 21
393.5378289621292
 31
0.0
  0
LINE
  5
154D2
  8
AM_0
 10
376.14102811096819
 20
537.85724592559245
 30
0.0
 11
431.14102975009558
 21
537.85724592559257
 31
0.0
  0
LINE
  5
154D3
  8
AM_0
 10
431.14102975009581
 20
537.85724592559257
 30
0.0
 11
431.14102975009581
 21
533.85724580638339
 31
0.0
  0
LINE
  5
154D4
  8
AM_0
 10
376.14102811096819
 20
537.85724592559245
 30
0.0
 11
376.14102811096819
 21
533.85724580638328
 31
0.0
  0
LINE
  5
154D5
  8
AM_0
 10
637.45710500915675
 20
452.66220740541831
 30
0.0
 11
631.22712500915691
 21
452.66220740541831
 31
0.0
  0
LINE
  5
154D6
  8
AM_0
 10
638.14710500915658
 20
442.85221840541863
 30
0.0
 11
630.14710500915658
 21
442.85221840541863
 31
0.0
  0
LINE
  5
154D7
  8
AM_0
 10
638.14710500915658
 20
442.85720740541859
 30
0.0
 11
630.14710500915658
 21
442.85720740541859
 31
0.0
  0
LINE
  5
154D8
  8
AM_0
 10
637.45710500915675
 20
539.04220140541861
 30
0.0
 11
631.22712500915691
 21
539.04220140541861
 31
0.0
  0
LINE
  5
154D9
  8
AM_0
 10
638.14710500915658
 20
548.85222140541828
 30
0.0
 11
630.14710500915658
 21
548.85222140541828
 31
0.0
  0
LINE
  5
154DA
  8
AM_0
 10
638.14710500915658
 20
548.85721140541864
 30
0.0
 11
630.14710500915658
 21
548.85721140541864
 31
0.0
  0
LINE
  5
154DB
  8
AM_0
 10
624.82221779284487
 20
532.57718796775464
 30
0.0
 11
630.14710500915658
 21
543.95221140541855
 31
0.0
  0
LINE
  5
154DC
  8
AM_0
 10
523.94709500915667
 20
535.19223140541862
 30
0.0
 11
528.09708500915656
 21
550.65222140541869
 31
0.0
  0
LINE
  5
154DD
  8
AM_0
 10
522.1471050091568
 20
551.85721140541864
 30
0.0
 11
522.1471050091568
 21
439.85720740541859
 31
0.0
  0
LINE
  5
154DE
  8
AM_0
 10
630.14710500915658
 20
548.85222140541828
 30
0.0
 11
630.14710500915658
 21
446.41222340541862
 31
0.0
  0
LINE
  5
154DF
  8
AM_0
 10
626.9470950091569
 20
552.14221140541849
 30
0.0
 11
530.0271350091565
 21
552.14221140541849
 31
0.0
  0
LINE
  5
154E0
  8
AM_0
 10
626.85712500915702
 20
557.7422214054186
 30
0.0
 11
593.14710500915658
 21
557.7422214054186
 31
0.0
  0
LINE
  5
154E1
  8
AM_0
 10
626.87708500915664
 20
556.83221140541843
 30
0.0
 11
593.14710500915658
 21
556.83221140541843
 31
0.0
  0
LINE
  5
154E2
  8
AM_0
 10
626.89710500915658
 20
554.98221140541864
 30
0.0
 11
593.14710500915658
 21
554.98221140541864
 31
0.0
  0
ARC
  5
154E3
  8
AM_0
 10
626.89869500915677
 20
552.98907140541871
 30
0.0
 40
1.9931281000000001
 50
9.0388199999997951
 51
90.046626999999489
  0
LINE
  5
154E4
  8
AM_0
 10
630.14710500915658
 20
546.64219140541843
 30
0.0
 11
628.83710500915674
 21
556.02220140541863
 31
0.0
  0
LINE
  5
154E5
  8
AM_0
 10
630.14704500915684
 20
546.64223140541856
 30
0.0
 11
628.85706500915683
 21
555.13222140541836
 31
0.0
  0
ARC
  5
154E6
  8
AM_0
 10
626.88440500915658
 20
554.83764140541837
 30
0.0
 40
1.994588
 50
8.492910000005347
 51
90.209246999997575
  0
ARC
  5
154E7
  8
AM_0
 10
626.86243500915668
 20
555.74873140541865
 30
0.0
 40
1.9934921000000001
 50
7.8852599999973876
 51
90.153908999998592
  0
ARC
  5
154E8
  8
AM_0
 10
626.94422500915675
 20
550.14531140541874
 30
0.0
 40
1.9969039999999989
 50
10.587439999998571
 51
89.916526000000346
  0
LINE
  5
154E9
  8
AM_0
 10
630.14710500915658
 20
545.29222140541845
 30
0.0
 11
628.86713500915675
 21
553.30221140541835
 31
0.0
  0
LINE
  5
154EA
  8
AM_0
 10
630.14710500915658
 20
543.95222140541864
 30
0.0
 11
628.90711500915666
 21
550.51222140541859
 31
0.0
  0
ARC
  5
154EB
  8
AM_0
 10
593.14753500915674
 20
552.98179140541856
 30
0.0
 40
2.000407899999999
 50
90.011650000002106
 51
179.98835099999931
  0
LINE
  5
154EC
  8
AM_0
 10
591.14710500915669
 20
555.74220140541865
 30
0.0
 11
591.14710500915669
 21
552.14221140541849
 31
0.0
  0
ARC
  5
154ED
  8
AM_0
 10
593.14869500915665
 20
554.83066140541871
 30
0.0
 40
2.0015439999999991
 50
90.044216000000915
 51
179.9557860009991
  0
ARC
  5
154EE
  8
AM_0
 10
593.14838500915675
 20
555.74092140541836
 30
0.0
 40
2.001287899999999
 50
90.036874000002058
 51
179.96312800099781
  0
LINE
  5
154EF
  8
AM_0
 10
522.1471050091568
 20
551.85721140541864
 30
0.0
 11
514.14713500915673
 21
551.85721140541864
 31
0.0
  0
ARC
  5
154F0
  8
AM_0
 10
530.02991500915675
 20
550.14361140541871
 30
0.0
 40
1.9986041000000001
 50
90.080483999998904
 51
165.25728400000051
  0
LINE
  5
154F1
  8
AM_0
 10
527.60712500915656
 20
548.85222140541828
 30
0.0
 11
522.1471050091568
 21
548.85222140541862
 31
0.0
  0
LINE
  5
154F2
  8
AM_0
 10
528.80711389641601
 20
531.85724167084174
 30
0.0
 11
627.78715389641275
 21
531.85721723580582
 31
0.0
  0
LINE
  5
154F3
  8
AM_0
 10
528.80711340267908
 20
529.85724167084174
 30
0.0
 11
627.78715340267615
 21
529.85721723580582
 31
0.0
  0
LINE
  5
154F4
  8
AM_0
 10
528.81431093399601
 20
519.85724166906448
 30
0.0
 11
627.78715093399319
 21
519.85721723580605
 31
0.0
  0
LINE
  5
154F5
  8
AM_0
 10
628.4671540741507
 20
532.57718706793526
 30
0.0
 11
525.32713407415395
 21
532.57721252993861
 31
0.0
  0
LINE
  5
154F6
  8
AM_0
 10
628.68712082538593
 20
519.41727701363197
 30
0.0
 11
525.11290082538869
 21
519.41730258282564
 31
0.0
  0
LINE
  5
154F7
  8
AM_0
 10
628.68712154869274
 20
522.34720701363187
 30
0.0
 11
525.1014815486958
 21
522.34723258564475
 31
0.0
  0
LINE
  5
154F8
  8
AM_0
 10
528.79997142773277
 20
521.85724167260446
 30
0.0
 11
627.7871514277299
 21
521.85721723580593
 31
0.0
  0
LINE
  5
154F9
  8
AM_0
 10
628.46715324714671
 20
529.22720706793507
 30
0.0
 11
525.32713324714985
 21
529.22723252993865
 31
0.0
  0
LINE
  5
154FA
  8
AM_0
 10
628.81711904297208
 20
512.19717698153954
 30
0.0
 11
524.81854108657467
 21
512.19720265549336
 31
0.0
  0
LINE
  5
154FB
  8
AM_0
 10
628.81711838632418
 20
509.5372669815394
 30
0.0
 11
524.97006592833395
 21
509.53729261808661
 31
0.0
  0
LINE
  5
154FC
  8
AM_0
 10
628.87711655702287
 20
502.12723696672759
 30
0.0
 11
524.76101730351877
 21
502.12726266969389
 31
0.0
  0
LINE
  5
154FD
  8
AM_0
 10
628.87711593243876
 20
499.5972069667277
 30
0.0
 11
524.92430395643214
 21
499.5972326293836
 31
0.0
  0
LINE
  5
154FE
  8
AM_0
 10
528.80376970321834
 20
499.85724167166632
 30
0.0
 11
627.78714599662669
 21
499.85721723580662
 31
0.0
  0
LINE
  5
154FF
  8
AM_0
 10
528.80377019695516
 20
501.85724167166632
 30
0.0
 11
627.7871464903634
 21
501.85721723580667
 31
0.0
  0
LINE
  5
15500
  8
AM_0
 10
528.80377217190505
 20
509.85724167166609
 30
0.0
 11
627.78714846531
 21
509.8572172358065
 31
0.0
  0
LINE
  5
15501
  8
AM_0
 10
528.80377266561698
 20
511.85724167166569
 30
0.0
 11
627.78714895904659
 21
511.8572172358065
 31
0.0
  0
LINE
  5
15502
  8
AM_0
 10
528.80376871572412
 20
479.85724331497858
 30
0.0
 11
627.78714500915657
 21
479.8572433149784
 31
0.0
  0
LINE
  5
15503
  8
AM_0
 10
528.8037687157489
 20
481.8572433149784
 30
0.0
 11
627.78714500915657
 21
481.8572433149784
 31
0.0
  0
LINE
  5
15504
  8
AM_0
 10
528.80376871574526
 20
489.8572433149784
 30
0.0
 11
627.78714500915657
 21
489.8572433149784
 31
0.0
  0
LINE
  5
15505
  8
AM_0
 10
528.80376871574526
 20
491.85724331497829
 30
0.0
 11
627.78714500915657
 21
491.85724331497829
 31
0.0
  0
LINE
  5
15506
  8
AM_0
 10
628.87711500915668
 20
492.11725331497843
 30
0.0
 11
524.92430303314723
 21
492.11725331497843
 31
0.0
  0
LINE
  5
15507
  8
AM_0
 10
628.87711500915668
 20
489.58722331497842
 30
0.0
 11
524.76101575564985
 21
489.58722331497842
 31
0.0
  0
LINE
  5
15508
  8
AM_0
 10
628.81711500915674
 20
482.17719331497852
 30
0.0
 11
524.97006255116321
 21
482.17719331497852
 31
0.0
  0
LINE
  5
15509
  8
AM_0
 10
628.81711500915674
 20
479.51728331497827
 30
0.0
 11
524.81853705275614
 21
479.51728331497827
 31
0.0
  0
LINE
  5
1550A
  8
AM_0
 10
628.46714500915675
 20
462.48725331497837
 30
0.0
 11
525.32712500915682
 21
462.48725331497872
 31
0.0
  0
LINE
  5
1550B
  8
AM_0
 10
528.79996500915672
 20
469.8572433149784
 30
0.0
 11
627.78714500915657
 21
469.8572433149784
 31
0.0
  0
LINE
  5
1550C
  8
AM_0
 10
628.68711500915674
 20
469.36725331497843
 30
0.0
 11
525.10147500915673
 21
469.36725331497843
 31
0.0
  0
LINE
  5
1550D
  8
AM_0
 10
628.68711500915674
 20
472.29718331497838
 30
0.0
 11
525.11289500915655
 21
472.29718331497838
 31
0.0
  0
LINE
  5
1550E
  8
AM_0
 10
628.46714500915675
 20
459.1372733149783
 30
0.0
 11
525.32712500915682
 21
459.1372733149783
 31
0.0
  0
LINE
  5
1550F
  8
AM_0
 10
528.81430500915667
 20
471.8572433149784
 30
0.0
 11
627.78714500915657
 21
471.8572433149784
 31
0.0
  0
LINE
  5
15510
  8
AM_0
 10
528.80710500915654
 20
461.85724331497829
 30
0.0
 11
627.78714500915657
 21
461.85724331497829
 31
0.0
  0
LINE
  5
15511
  8
AM_0
 10
528.80710500915654
 20
459.8572433149784
 30
0.0
 11
627.78714500915657
 21
459.8572433149784
 31
0.0
  0
LINE
  5
15512
  8
AM_0
 10
604.64710500915658
 20
534.08220140541835
 30
0.0
 11
522.1471050091568
 21
534.08220140541835
 31
0.0
  0
LINE
  5
15513
  8
AM_0
 10
604.64710500915658
 20
457.6322164054186
 30
0.0
 11
522.1471050091568
 21
457.6322164054186
 31
0.0
  0
LINE
  5
15514
  8
AM_0
 10
626.94709500915644
 20
439.57220440541869
 30
0.0
 11
530.0271350091565
 21
439.57220440541869
 31
0.0
  0
LINE
  5
15515
  8
AM_0
 10
624.81755766987328
 20
459.1372733149783
 30
0.0
 11
630.14716500915688
 21
447.76223640541872
 31
0.0
  0
POLYLINE
  5
15516
  8
AM_0
 66
     1
 10
0.0
 20
0.0
 30
0.0
  0
VERTEX
  5
15517
  8
AM_0
 10
627.78714500915339
 20
495.85721723580713
 30
0.0
 42
0.00039106649
  0
VERTEX
  5
15518
  8
AM_0
 10
627.78950508596165
 20
496.16834723522447
 30
0.0
 42
0.00035488198
  0
VERTEX
  5
15519
  8
AM_0
 10
627.79139516276473
 20
496.47945723475772
 30
0.0
 42
0.00039706113
  0
VERTEX
  5
1551A
  8
AM_0
 10
627.79282523956795
 20
496.79056723440482
 30
0.0
 42
0.00038765718
  0
VERTEX
  5
1551B
  8
AM_0
 10
627.79375531637879
 20
497.10170723417508
 30
0.0
 42
0.00040613432
  0
VERTEX
  5
1551C
  8
AM_0
 10
627.79420539317925
 20
497.41280723406402
 30
0.0
 42
0.00035573434
  0
VERTEX
  5
1551D
  8
AM_0
 10
627.79416546998266
 20
497.72391723407378
 30
0.0
 42
0.00038545884
  0
VERTEX
  5
1551E
  8
AM_0
 10
627.79367554679072
 20
498.03504723419479
 30
0.0
 42
0.00035501205
  0
VERTEX
  5
1551F
  8
AM_0
 10
627.79271562359372
 20
498.3461572344317
 30
0.0
 42
0.00040120779
  0
VERTEX
  5
15520
  8
AM_0
 10
627.79129570042664
 20
498.6573872347825
 30
0.0
 42
0.00038317817
  0
VERTEX
  5
15521
  8
AM_0
 10
627.78938577723466
 20
498.9685172352539
 30
0.0
 42
0.00035656084
  0
VERTEX
  5
15522
  8
AM_0
 10
627.78700585407023
 20
499.27975723584149
 30
0.0
 42
0.00040143615
  0
VERTEX
  5
15523
  8
AM_0
 10
627.78415593087095
 20
499.59085723654488
 30
0.0
  0
SEQEND
  5
15524
  8
AM_0
  0
LINE
  5
15525
  8
AM_0
 10
604.64716500915665
 20
534.08221140541843
 30
0.0
 11
624.82459500915672
 21
532.58221140541843
 31
0.0
  0
ARC
  5
15526
  8
AM_0
 10
628.68712118703809
 20
520.88223701363211
 30
0.0
 40
1.465004
 50
269.99998585548531
 51
89.999982855487545
  0
ARC
  5
15527
  8
AM_0
 10
628.4745336606635
 20
530.90225706611341
 30
0.0
 40
1.6750160000000001
 50
269.74611585548871
 51
90.253840855485208
  0
ARC
  5
15528
  8
AM_0
 10
627.60252364954465
 20
530.85721728138515
 30
0.0
 40
1.0000138999999999
 50
269.6916458554881
 51
90.308325855489642
  0
ARC
  5
15529
  8
AM_0
 10
627.60252118086123
 20
520.85721728138537
 30
0.0
 40
1.0000138999999999
 50
269.6916458554881
 51
90.308325855489642
  0
POLYLINE
  5
1552A
  8
AM_0
 66
     1
 10
0.0
 20
0.0
 30
0.0
  0
VERTEX
  5
1552B
  8
AM_0
 10
626.28624154697445
 20
522.34024760633315
 30
0.0
 42
0.00068898288
  0
VERTEX
  5
1552C
  8
AM_0
 10
626.21536168886223
 20
522.91499762383114
 30
0.0
 42
0.00070644354
  0
VERTEX
  5
1552D
  8
AM_0
 10
626.14286183073466
 20
523.48968764172923
 30
0.0
 42
0.00069248071
  0
VERTEX
  5
1552E
  8
AM_0
 10
626.06877197251379
 20
524.0639976600196
 30
0.0
 42
0.00069585665
  0
VERTEX
  5
1552F
  8
AM_0
 10
625.99309211425066
 20
524.63813767870249
 30
0.0
 42
0.00068980191
  0
VERTEX
  5
15530
  8
AM_0
 10
625.91579225595308
 20
525.21213769778535
 30
0.0
 42
0.00072080104
  0
VERTEX
  5
15531
  8
AM_0
 10
625.83690239760392
 20
525.78592771726096
 30
0.0
 42
0.00071002307
  0
VERTEX
  5
15532
  8
AM_0
 10
625.75636253917526
 20
526.35939773714369
 30
0.0
 42
0.00072659056
  0
VERTEX
  5
15533
  8
AM_0
 10
625.67420268065564
 20
526.9324977574264
 30
0.0
 42
0.00069570481
  0
VERTEX
  5
15534
  8
AM_0
 10
625.59038282211839
 20
527.50552777811902
 30
0.0
 42
0.00071266935
  0
VERTEX
  5
15535
  8
AM_0
 10
625.50495296351733
 20
528.07829779920894
 30
0.0
 42
0.00071614426
  0
VERTEX
  5
15536
  8
AM_0
 10
625.41792310480992
 20
528.65063782069365
 30
0.0
 42
0.00072288975
  0
VERTEX
  5
15537
  8
AM_0
 10
625.32921324609265
 20
529.22293784259352
 30
0.0
  0
SEQEND
  5
15538
  8
AM_0
  0
POLYLINE
  5
15539
  8
AM_0
 66
     1
 10
0.0
 20
0.0
 30
0.0
  0
VERTEX
  5
1553A
  8
AM_0
 10
627.74308655711172
 20
502.12759724668371
 30
0.0
 42
0.00076691992
  0
VERTEX
  5
1553B
  8
AM_0
 10
627.72828670961951
 20
502.74536725033738
 30
0.0
 42
0.00073262792
  0
VERTEX
  5
1553C
  8
AM_0
 10
627.71164686208294
 20
503.36295725444529
 30
0.0
 42
0.00076529537
  0
VERTEX
  5
1553D
  8
AM_0
 10
627.69315701456628
 20
503.98062725900962
 30
0.0
 42
0.00075141097
  0
VERTEX
  5
1553E
  8
AM_0
 10
627.67278716703197
 20
504.59822726403848
 30
0.0
 42
0.00075841687
  0
VERTEX
  5
1553F
  8
AM_0
 10
627.65055731945574
 20
505.21565726952628
 30
0.0
 42
0.00075711788
  0
VERTEX
  5
15540
  8
AM_0
 10
627.6264474718995
 20
505.83316727547862
 30
0.0
 42
0.00075976003
  0
VERTEX
  5
15541
  8
AM_0
 10
627.60045762431378
 20
506.45055728189431
 30
0.0
 42
0.00075797311
  0
VERTEX
  5
15542
  8
AM_0
 10
627.57261777670033
 20
507.06783728876741
 30
0.0
 42
0.0007482613
  0
VERTEX
  5
15543
  8
AM_0
 10
627.54288792911177
 20
507.68521729610671
 30
0.0
 42
0.00074893561
  0
VERTEX
  5
15544
  8
AM_0
 10
627.51132808146201
 20
508.3023473038977
 30
0.0
 42
0.00076039839
  0
VERTEX
  5
15545
  8
AM_0
 10
627.47790823378682
 20
508.91937731214819
 30
0.0
 42
0.00075618786
  0
VERTEX
  5
15546
  8
AM_0
 10
627.44260838611444
 20
509.53641732086271
 30
0.0
  0
SEQEND
  5
15547
  8
AM_0
  0
ARC
  5
15548
  8
AM_0
 10
628.81711871464938
 20
510.8672269815396
 30
0.0
 40
1.3300049999999981
 50
269.99998585548531
 51
89.999982855487545
  0
ARC
  5
15549
  8
AM_0
 10
627.60251871217815
 20
510.85721728138577
 30
0.0
 40
1.0000138999999999
 50
269.6916458554881
 51
90.308325855489642
  0
POLYLINE
  5
1554A
  8
AM_0
 66
     1
 10
0.0
 20
0.0
 30
0.0
  0
VERTEX
  5
1554B
  8
AM_0
 10
627.26889904312259
 20
512.1977873637461
 30
0.0
 42
0.0007337051
  0
VERTEX
  5
1554C
  8
AM_0
 10
627.22475919184092
 20
512.80020737464281
 30
0.0
 42
0.00075211323
  0
VERTEX
  5
1554D
  8
AM_0
 10
627.17881934055185
 20
513.40259738598388
 30
0.0
 42
0.0007297491
  0
VERTEX
  5
1554E
  8
AM_0
 10
627.13108948921615
 20
514.00479739776699
 30
0.0
 42
0.00073593041
  0
VERTEX
  5
1554F
  8
AM_0
 10
627.08160963782825
 20
514.60678740998185
 30
0.0
 42
0.00074742739
  0
VERTEX
  5
15550
  8
AM_0
 10
627.03033978641076
 20
515.20865742263868
 30
0.0
 42
0.00073217363
  0
VERTEX
  5
15551
  8
AM_0
 10
626.9772799349762
 20
515.81045743573748
 30
0.0
 42
0.00073754168
  0
VERTEX
  5
15552
  8
AM_0
 10
626.92246008347763
 20
516.41199744927087
 30
0.0
 42
0.00073075073
  0
VERTEX
  5
15553
  8
AM_0
 10
626.86588023193417
 20
517.01335746323855
 30
0.0
 42
0.00074550816
  0
VERTEX
  5
15554
  8
AM_0
 10
626.80754038031682
 20
517.61441747764104
 30
0.0
 42
0.00074288416
  0
VERTEX
  5
15555
  8
AM_0
 10
626.74739052868972
 20
518.2154374924902
 30
0.0
 42
0.00072504001
  0
VERTEX
  5
15556
  8
AM_0
 10
626.68548067699567
 20
518.81618750777363
 30
0.0
 42
0.00074640667
  0
VERTEX
  5
15557
  8
AM_0
 10
626.62181082526502
 20
519.41678752349162
 30
0.0
  0
SEQEND
  5
15558
  8
AM_0
  0
ARC
  5
15559
  8
AM_0
 10
628.88297624472955
 20
500.86221696528111
 30
0.0
 40
1.2650129999999991
 50
269.73557585548838
 51
90.264406855489256
  0
ARC
  5
1555A
  8
AM_0
 10
627.6025162434953
 20
500.85721728138611
 30
0.0
 40
1.0000138999999999
 50
269.6916458554881
 51
90.308325855489642
  0
LINE
  5
1555B
  8
AM_0
 10
604.64710500915658
 20
457.6322164054186
 30
0.0
 11
624.81995500915707
 21
459.1322164054186
 31
0.0
  0
POLYLINE
  5
1555C
  8
AM_0
 66
     1
 10
0.0
 20
0.0
 30
0.0
  0
VERTEX
  5
1555D
  8
AM_0
 10
627.26889500915649
 20
479.5166733149785
 30
0.0
 42
-0.0007337051
  0
VERTEX
  5
1555E
  8
AM_0
 10
627.22475500915664
 20
478.9142533149784
 30
0.0
 42
-0.00075211323
  0
VERTEX
  5
1555F
  8
AM_0
 10
627.17881500915655
 20
478.3118633149785
 30
0.0
 42
-0.0007297491
  0
VERTEX
  5
15560
  8
AM_0
 10
627.13108500915655
 20
477.70966331497851
 30
0.0
 42
-0.00073593041
  0
VERTEX
  5
15561
  8
AM_0
 10
627.08160500915676
 20
477.10767331497863
 30
0.0
 42
-0.00074742739
  0
VERTEX
  5
15562
  8
AM_0
 10
627.0303350091566
 20
476.50580331497861
 30
0.0
 42
-0.00073217363
  0
VERTEX
  5
15563
  8
AM_0
 10
626.97727500915664
 20
475.90400331497858
 30
0.0
 42
-0.00073754168
  0
VERTEX
  5
15564
  8
AM_0
 10
626.92245500915669
 20
475.30246331497858
 30
0.0
 42
-0.00073075073
  0
VERTEX
  5
15565
  8
AM_0
 10
626.86587500915664
 20
474.7011033149787
 30
0.0
 42
-0.00074550816
  0
VERTEX
  5
15566
  8
AM_0
 10
626.8075350091566
 20
474.10004331497851
 30
0.0
 42
-0.00074288416
  0
VERTEX
  5
15567
  8
AM_0
 10
626.74738500915657
 20
473.4990233149785
 30
0.0
 42
-0.00072504001
  0
VERTEX
  5
15568
  8
AM_0
 10
626.68547500915668
 20
472.89827331497861
 30
0.0
 42
-0.00074640667
  0
VERTEX
  5
15569
  8
AM_0
 10
626.62180500915656
 20
472.29767331497868
 30
0.0
  0
SEQEND
  5
1556A
  8
AM_0
  0
POLYLINE
  5
1556B
  8
AM_0
 66
     1
 10
0.0
 20
0.0
 30
0.0
  0
VERTEX
  5
1556C
  8
AM_0
 10
627.74308500915674
 20
489.58686331497859
 30
0.0
 42
-0.00076691992
  0
VERTEX
  5
1556D
  8
AM_0
 10
627.72828500915671
 20
488.96909331497841
 30
0.0
 42
-0.00073262792
  0
VERTEX
  5
1556E
  8
AM_0
 10
627.71164500915665
 20
488.3515033149784
 30
0.0
 42
-0.00076529537
  0
VERTEX
  5
1556F
  8
AM_0
 10
627.69315500915673
 20
487.7338333149786
 30
0.0
 42
-0.00075141097
  0
VERTEX
  5
15570
  8
AM_0
 10
627.67278500915666
 20
487.1162333149785
 30
0.0
 42
-0.00075841687
  0
VERTEX
  5
15571
  8
AM_0
 10
627.65055500915662
 20
486.4988033149786
 30
0.0
 42
-0.00075711788
  0
VERTEX
  5
15572
  8
AM_0
 10
627.62644500915655
 20
485.88129331497851
 30
0.0
 42
-0.00075976003
  0
VERTEX
  5
15573
  8
AM_0
 10
627.60045500915669
 20
485.26390331497851
 30
0.0
 42
-0.00075797311
  0
VERTEX
  5
15574
  8
AM_0
 10
627.57261500915672
 20
484.64662331497851
 30
0.0
 42
-0.0007482613
  0
VERTEX
  5
15575
  8
AM_0
 10
627.54288500915675
 20
484.0292433149786
 30
0.0
 42
-0.00074893561
  0
VERTEX
  5
15576
  8
AM_0
 10
627.51132500915674
 20
483.41211331497851
 30
0.0
 42
-0.00076039839
  0
VERTEX
  5
15577
  8
AM_0
 10
627.47790500915664
 20
482.79508331497863
 30
0.0
 42
-0.00075618786
  0
VERTEX
  5
15578
  8
AM_0
 10
627.44260500915664
 20
482.17804331497842
 30
0.0
  0
SEQEND
  5
15579
  8
AM_0
  0
POLYLINE
  5
1557A
  8
AM_0
 66
     1
 10
0.0
 20
0.0
 30
0.0
  0
VERTEX
  5
1557B
  8
AM_0
 10
627.78714500915657
 20
495.8572433149784
 30
0.0
 42
-0.00039106649
  0
VERTEX
  5
1557C
  8
AM_0
 10
627.78950500915664
 20
495.54611331497853
 30
0.0
 42
-0.00035488198
  0
VERTEX
  5
1557D
  8
AM_0
 10
627.79139500915664
 20
495.2350033149786
 30
0.0
 42
-0.00039706113
  0
VERTEX
  5
1557E
  8
AM_0
 10
627.79282500915667
 20
494.9238933149785
 30
0.0
 42
-0.00038765718
  0
VERTEX
  5
1557F
  8
AM_0
 10
627.79375500915671
 20
494.61275331497842
 30
0.0
 42
-0.00040613432
  0
VERTEX
  5
15580
  8
AM_0
 10
627.79420500915671
 20
494.30165331497858
 30
0.0
 42
-0.00035573434
  0
VERTEX
  5
15581
  8
AM_0
 10
627.7941650091567
 20
493.99054331497842
 30
0.0
 42
-0.00038545884
  0
VERTEX
  5
15582
  8
AM_0
 10
627.79367500915669
 20
493.67941331497872
 30
0.0
 42
-0.00035501205
  0
VERTEX
  5
15583
  8
AM_0
 10
627.79271500915672
 20
493.36830331497862
 30
0.0
 42
-0.00040120779
  0
VERTEX
  5
15584
  8
AM_0
 10
627.79129500915656
 20
493.05707331497842
 30
0.0
 42
-0.00038317817
  0
VERTEX
  5
15585
  8
AM_0
 10
627.78938500915672
 20
492.74594331497849
 30
0.0
 42
-0.00035656084
  0
VERTEX
  5
15586
  8
AM_0
 10
627.7870050091567
 20
492.43470331497849
 30
0.0
 42
-0.00040143615
  0
VERTEX
  5
15587
  8
AM_0
 10
627.78415500915673
 20
492.1236033149786
 30
0.0
  0
SEQEND
  5
15588
  8
AM_0
  0
ARC
  5
15589
  8
AM_0
 10
627.60251500915672
 20
490.8572433149784
 30
0.0
 40
1.0000138999999999
 50
269.69165999999939
 51
90.308340000000726
  0
ARC
  5
1558A
  8
AM_0
 10
628.88297500915655
 20
490.85224331497858
 30
0.0
 40
1.2650129999999991
 50
269.73557900000168
 51
90.264410000002485
  0
ARC
  5
1558B
  8
AM_0
 10
627.60251500915672
 20
480.85724331497858
 30
0.0
 40
1.0000138999999999
 50
269.69165999999939
 51
90.308340000000726
  0
ARC
  5
1558C
  8
AM_0
 10
628.81711500915674
 20
480.84723331497861
 30
0.0
 40
1.3300049999999981
 50
270.00000299999761
 51
90.0
  0
POLYLINE
  5
1558D
  8
AM_0
 66
     1
 10
0.0
 20
0.0
 30
0.0
  0
VERTEX
  5
1558E
  8
AM_0
 10
626.28623500915671
 20
469.3742133149787
 30
0.0
 42
-0.00068898288
  0
VERTEX
  5
1558F
  8
AM_0
 10
626.21535500915672
 20
468.79946331497871
 30
0.0
 42
-0.00070644354
  0
VERTEX
  5
15590
  8
AM_0
 10
626.14285500915673
 20
468.22477331497851
 30
0.0
 42
-0.00069248071
  0
VERTEX
  5
15591
  8
AM_0
 10
626.06876500915678
 20
467.65046331497859
 30
0.0
 42
-0.00069585665
  0
VERTEX
  5
15592
  8
AM_0
 10
625.99308500915674
 20
467.07632331497859
 30
0.0
 42
-0.00068980191
  0
VERTEX
  5
15593
  8
AM_0
 10
625.91578500915659
 20
466.50232331497858
 30
0.0
 42
-0.00072080104
  0
VERTEX
  5
15594
  8
AM_0
 10
625.83689500915659
 20
465.92853331497861
 30
0.0
 42
-0.00071002307
  0
VERTEX
  5
15595
  8
AM_0
 10
625.75635500915678
 20
465.35506331497862
 30
0.0
 42
-0.00072659056
  0
VERTEX
  5
15596
  8
AM_0
 10
625.67419500915673
 20
464.78196331497861
 30
0.0
 42
-0.00069570481
  0
VERTEX
  5
15597
  8
AM_0
 10
625.59037500915656
 20
464.20893331497842
 30
0.0
 42
-0.00071266935
  0
VERTEX
  5
15598
  8
AM_0
 10
625.5049450091567
 20
463.63616331497838
 30
0.0
 42
-0.00071614426
  0
VERTEX
  5
15599
  8
AM_0
 10
625.41791500915656
 20
463.06382331497849
 30
0.0
 42
-0.00072288975
  0
VERTEX
  5
1559A
  8
AM_0
 10
625.32920500915657
 20
462.49152331497851
 30
0.0
  0
SEQEND
  5
1559B
  8
AM_0
  0
ARC
  5
1559C
  8
AM_0
 10
628.68711500915663
 20
470.83222331497842
 30
0.0
 40
1.465004
 50
270.00000299999761
 51
90.0
  0
ARC
  5
1559D
  8
AM_0
 10
627.60251500915672
 20
470.8572433149784
 30
0.0
 40
1.0000138999999999
 50
269.69165999999939
 51
90.308340000000726
  0
ARC
  5
1559E
  8
AM_0
 10
627.60251500915672
 20
460.85724331497852
 30
0.0
 40
1.0000138999999999
 50
269.69165999999939
 51
90.308340000000726
  0
ARC
  5
1559F
  8
AM_0
 10
628.47452500915665
 20
460.81220331497838
 30
0.0
 40
1.6750160000000001
 50
269.7461450000045
 51
90.253870000000916
  0
LINE
  5
155A0
  8
ﾁｭｳｼﾝｾﾝ1
 10
573.14710500915692
 20
536.48223822011505
 30
0.0
 11
573.14710500915692
 21
455.23223522011517
 31
0.0
  0
LINE
  5
155A1
  8
AM_0
 10
626.85712500915645
 20
433.96221840541841
 30
0.0
 11
593.14710500915635
 21
433.96221840541841
 31
0.0
  0
LINE
  5
155A2
  8
AM_0
 10
626.87708500915664
 20
434.88220940541839
 30
0.0
 11
593.14710500915635
 21
434.88220940541839
 31
0.0
  0
LINE
  5
155A3
  8
AM_0
 10
626.89710500915658
 20
436.72221340541859
 30
0.0
 11
593.14710500915635
 21
436.72221340541859
 31
0.0
  0
ARC
  5
155A4
  8
AM_0
 10
626.94245500915656
 20
441.57121240541881
 30
0.0
 40
1.9990078999999989
 50
270.13344999999691
 51
349.36259000000302
  0
LINE
  5
155A5
  8
AM_0
 10
630.14710500915658
 20
445.07223440541838
 30
0.0
 11
628.83710500915663
 21
435.69222940541857
 31
0.0
  0
LINE
  5
155A6
  8
AM_0
 10
630.14704500915684
 20
445.0722114054185
 30
0.0
 11
628.85706500915626
 21
436.57221940541848
 31
0.0
  0
LINE
  5
155A7
  8
AM_0
 10
630.14710500915658
 20
446.41220740541831
 30
0.0
 11
628.86713500915653
 21
438.41221540541858
 31
0.0
  0
LINE
  5
155A8
  8
AM_0
 10
630.14710500915658
 20
447.76219840541842
 30
0.0
 11
628.90711500915654
 21
441.20220140541858
 31
0.0
  0
ARC
  5
155A9
  8
AM_0
 10
626.89112500915667
 20
438.72238840541849
 30
0.0
 40
2.0001840999999998
 50
270.1714700000008
 51
351.07899999999728
  0
ARC
  5
155AA
  8
AM_0
 10
626.88355500915668
 20
436.87954640541858
 30
0.0
 40
1.9973480999999991
 50
269.81532000000249
 51
351.14853000000028
  0
ARC
  5
155AB
  8
AM_0
 10
626.85498500915674
 20
435.9626914054187
 30
0.0
 40
2.0004758999999992
 50
270.06031000000399
 51
352.22953999999908
  0
LINE
  5
155AC
  8
AM_0
 10
591.14710500915669
 20
435.9622114054186
 30
0.0
 11
591.14710500915669
 21
439.57220440541869
 31
0.0
  0
ARC
  5
155AD
  8
AM_0
 10
593.15430500915659
 20
438.72939240541871
 30
0.0
 40
2.0071799999999991
 50
180.2046199999977
 51
269.79538000000241
  0
ARC
  5
155AE
  8
AM_0
 10
593.15039500915657
 20
436.88549740541879
 30
0.0
 40
2.003279899999999
 50
180.09378999999711
 51
269.90621000000277
  0
ARC
  5
155AF
  8
AM_0
 10
593.15509500915664
 20
435.97022140541878
 30
0.0
 40
2.0080360999999991
 50
180.22878999999941
 51
269.77121000000062
  0
LINE
  5
155B0
  8
AM_0
 10
523.6471050091568
 20
457.63222440541853
 30
0.0
 11
528.09711500915648
 21
441.05222240541872
 31
0.0
  0
LINE
  5
155B1
  8
AM_0
 10
522.1471050091568
 20
541.85721140541864
 30
0.0
 11
514.14713500915673
 21
541.85721140541864
 31
0.0
  0
LINE
  5
155B2
  8
AM_0
 10
522.1471050091568
 20
527.79722140541855
 30
0.0
 11
514.14713500915673
 21
527.79722140541855
 31
0.0
  0
ARC
  5
155B3
  8
AM_0
 10
528.80717118086454
 20
520.85724167082742
 30
0.0
 40
1.0000255999999981
 50
89.589454855482614
 51
270.41051585548382
  0
ARC
  5
155B4
  8
AM_0
 10
528.80711364954755
 20
530.85724167084174
 30
0.0
 40
1.0
 50
89.999982855487545
 51
269.9999958554863
  0
ARC
  5
155B5
  8
AM_0
 10
525.32715382842639
 20
530.90225852993285
 30
0.0
 40
1.675026000120903
 50
90.000672712195325
 51
269.99929599882307
  0
ARC
  5
155B6
  8
AM_0
 10
522.49390500915683
 20
535.57998140541861
 30
0.0
 40
1.5027759999999999
 50
270.12241000000358
 51
345.24357000000072
  0
ARC
  5
155B7
  8
AM_0
 10
525.10716118827816
 20
520.88727258424228
 30
0.0
 40
1.460011199999999
 50
89.775235855483814
 51
270.22473585548403
  0
ARC
  5
155B8
  8
AM_0
 10
528.80714881218125
 20
510.85724167083259
 30
0.0
 40
1.000005699999998
 50
89.999982855487545
 51
269.9999958554863
  0
ARC
  5
155B9
  8
AM_0
 10
528.80714634349806
 20
500.85724167083288
 30
0.0
 40
1.000005699999998
 50
89.999982855487545
 51
269.9999958554863
  0
ARC
  5
155BA
  8
AM_0
 10
524.98216231588697
 20
510.87225261510042
 30
0.0
 40
1.3350147999999999
 50
89.730429855483649
 51
270.26955585548518
  0
ARC
  5
155BB
  8
AM_0
 10
524.92020984596934
 20
500.8672526303942
 30
0.0
 40
1.2700266
 50
89.629315855484137
 51
270.37066585548888
  0
LINE
  5
155BC
  8
AM_0
 10
522.1471050091568
 20
463.91722040541867
 30
0.0
 11
514.14713500915673
 21
463.91722040541867
 31
0.0
  0
ARC
  5
155BD
  8
AM_0
 10
528.80714510915675
 20
490.8572433149784
 30
0.0
 40
1.000005699999998
 50
89.999989999999016
 51
270.00000299999761
  0
ARC
  5
155BE
  8
AM_0
 10
528.80714510915675
 20
480.85724331497858
 30
0.0
 40
1.000005699999998
 50
89.999989999999016
 51
270.00000299999761
  0
ARC
  5
155BF
  8
AM_0
 10
524.92020860915682
 20
490.84723331497861
 30
0.0
 40
1.2700266
 50
89.629319999999979
 51
270.37066999999809
  0
ARC
  5
155C0
  8
AM_0
 10
524.98215860915684
 20
480.84223331497873
 30
0.0
 40
1.3350147999999999
 50
89.730429999999885
 51
270.26955600000139
  0
ARC
  5
155C1
  8
AM_0
 10
528.80710500915666
 20
460.85724331497852
 30
0.0
 40
1.0
 50
89.999989999999016
 51
270.00000299999761
  0
ARC
  5
155C2
  8
AM_0
 10
528.80716500915673
 20
470.8572433149784
 30
0.0
 40
1.0000255999999981
 50
89.589470000003274
 51
270.41053099999777
  0
ARC
  5
155C3
  8
AM_0
 10
525.10715500915683
 20
470.82721331497868
 30
0.0
 40
1.460011199999999
 50
89.77524999999666
 51
270.22475000000333
  0
ARC
  5
155C4
  8
AM_0
 10
525.3271451769225
 20
460.81222731497911
 30
0.0
 40
1.675026000120903
 50
90.000689856668657
 51
269.99931314329001
  0
LINE
  5
155C5
  8
AM_0
 10
522.1471050091568
 20
449.85721540541857
 30
0.0
 11
514.14713500915673
 21
449.85721540541857
 31
0.0
  0
LINE
  5
155C6
  8
AM_0
 10
522.1471050091568
 20
439.85720740541859
 30
0.0
 11
514.14713500915673
 21
439.85720740541859
 31
0.0
  0
ARC
  5
155C7
  8
AM_0
 10
530.02997500915683
 20
441.57434740541862
 30
0.0
 40
2.0021281000000002
 50
195.11669999999501
 51
269.9184800000001
  0
LINE
  5
155C8
  8
AM_0
 10
527.60712500915656
 20
442.85221840541863
 30
0.0
 11
522.1471050091568
 21
442.85221840541863
 31
0.0
  0
LINE
  5
155C9
  8
ｶｸﾚｾﾝ2
 10
544.64710500915703
 20
464.3572469552642
 30
0.0
 11
618.64710500915703
 21
464.3572469552642
 31
0.0
  0
LINE
  5
155CA
  8
ｶｸﾚｾﾝ2
 10
541.64710500915703
 20
467.35724695526432
 30
0.0
 11
541.64710500915703
 21
524.35724695526437
 31
0.0
  0
ARC
  5
155CB
  8
ｶｸﾚｾﾝ2
 10
544.6471050091568
 20
467.35724695526437
 30
0.0
 40
3.0
 50
180.0
 51
270.0
  0
LINE
  5
155CC
  8
ｶｸﾚｾﾝ2
 10
544.64710500915703
 20
527.35724695526415
 30
0.0
 11
618.64710500915703
 21
527.35724695526415
 31
0.0
  0
ARC
  5
155CD
  8
ｶｸﾚｾﾝ2
 10
544.6471050091568
 20
524.35724695526449
 30
0.0
 40
3.0
 50
90.0
 51
180.0
  0
LINE
  5
155CE
  8
ｶｸﾚｾﾝ2
 10
621.64710500915703
 20
524.35724695526437
 30
0.0
 11
621.64710500915703
 21
467.35724695526432
 31
0.0
  0
ARC
  5
155CF
  8
ｶｸﾚｾﾝ2
 10
618.64710500915692
 20
524.35724695526449
 30
0.0
 40
3.0
 50
0.0
 51
90.0
  0
ARC
  5
155D0
  8
ｶｸﾚｾﾝ2
 10
618.64710500915692
 20
467.35724695526437
 30
0.0
 40
3.0
 50
270.0
 51
0.0
  0
LINE
  5
155D1
  8
AM_0
 10
489.64103202903709
 20
470.85724392883668
 30
0.0
 11
352.64102741061362
 21
470.85725926868969
 31
0.0
  0
LINE
  5
155D2
  8
AM_0
 10
352.64102741061362
 20
470.85725926868969
 30
0.0
 11
350.64102741061407
 21
425.85724392883702
 31
0.0
  0
LINE
  5
155D3
  8
AM_0
 10
350.64102741061407
 20
425.85724392883702
 30
0.0
 11
491.64103149353218
 21
425.85724392883679
 31
0.0
  0
LINE
  5
155D4
  8
AM_0
 10
489.64103202903709
 20
470.85724392883668
 30
0.0
 11
491.64103149353218
 21
425.85724392883679
 31
0.0
  0
LINE
  5
155D5
  8
AM_0
 10
490.9299205712307
 20
441.85724396465929
 30
0.0
 11
351.35213828090963
 21
441.85724396465929
 31
0.0
  0
LINE
  5
155D6
  8
AM_0
 10
355.14102773843911
 20
535.44724580638297
 30
0.0
 11
372.14102773843911
 21
535.44724580638297
 31
0.0
  0
LINE
  5
155D7
  8
0
 10
355.14102773843911
 20
533.85724580638328
 30
0.0
 11
355.14102773843911
 21
535.44724580638297
 31
0.0
  0
LINE
  5
155D8
  8
0
 10
357.14102773843911
 20
543.44724580638285
 30
0.0
 11
357.14102773843911
 21
535.44724580638297
 31
0.0
  0
LINE
  5
155D9
  8
0
 10
370.14102773843911
 20
535.44724580638297
 30
0.0
 11
370.14102773843911
 21
543.44724580638285
 31
0.0
  0
LINE
  5
155DA
  8
0
 10
372.14102773843911
 20
533.85724580638328
 30
0.0
 11
372.14102773843911
 21
535.44724580638297
 31
0.0
  0
LINE
  5
155DB
  8
AM_0
 10
370.14102773843911
 20
543.44724580638285
 30
0.0
 11
357.14102773843911
 21
543.44724580638285
 31
0.0
  0
LINE
  5
155DC
  8
AM_0
 10
470.14103116570618
 20
535.44724580638331
 30
0.0
 11
487.14103116570612
 21
535.44724580638297
 31
0.0
  0
LINE
  5
155DD
  8
0
 10
470.14103116570618
 20
533.85724580638339
 30
0.0
 11
470.14103116570618
 21
535.44724580638331
 31
0.0
  0
LINE
  5
155DE
  8
0
 10
472.14103116570612
 20
543.44724580638285
 30
0.0
 11
472.14103116570612
 21
535.44724580638331
 31
0.0
  0
LINE
  5
155DF
  8
0
 10
485.14103116570612
 20
535.44724580638297
 30
0.0
 11
485.14103116570612
 21
543.44724580638285
 31
0.0
  0
LINE
  5
155E0
  8
0
 10
487.14103116570612
 20
533.85724580638328
 30
0.0
 11
487.14103116570612
 21
535.44724580638297
 31
0.0
  0
LINE
  5
155E1
  8
AM_0
 10
485.14103116570612
 20
543.44724580638285
 30
0.0
 11
472.14103116570612
 21
543.44724580638297
 31
0.0
  0
LINE
  5
155E2
  8
AM_0
 10
367.0991989201583
 20
425.85724392883679
 30
0.0
 11
367.09919892015841
 21
441.85724396465929
 31
0.0
  0
LINE
  5
155E3
  8
AM_0
 10
475.18285998398801
 20
425.85724392883679
 30
0.0
 11
475.18285998398801
 21
441.85724396465929
 31
0.0
  0
LINE
  5
155E4
  8
ﾁｭｳｼﾝｾﾝ1
 10
373.64102997361391
 20
420.85724392883691
 30
0.0
 11
373.64102997361391
 21
446.85724396465929
 31
0.0
  0
LINE
  5
155E5
  8
ﾁｭｳｼﾝｾﾝ1
 10
468.64102893035721
 20
420.85724392883691
 30
0.0
 11
468.64102893035721
 21
446.85724396465929
 31
0.0
  0
LINE
  5
155E7
  8
AM_0
 10
222.68099945638349
 20
290.08536209049038
 30
0.0
 11
238.68099945803741
 21
290.08536209049038
 31
0.0
  0
LINE
  5
155E8
  8
AM_0
 10
222.68099945638349
 20
186.05973204782549
 30
0.0
 11
238.68099945803741
 21
186.05973204782549
 31
0.0
  0
LINE
  5
155E9
  8
ｶｸﾚｾﾝ2
 10
388.64102848349728
 20
450.85728996220632
 30
0.0
 11
391.641028930532
 21
426.85728996220638
 31
0.0
  0
LINE
  5
155EA
  8
ｶｸﾚｾﾝ2
 10
418.64102937756678
 20
450.85728996220638
 30
0.0
 11
415.641028930532
 21
426.85728996220638
 31
0.0
  0
LINE
  5
155EB
  8
ｶｸﾚｾﾝ2
 10
415.641028930532
 20
426.85728996220638
 30
0.0
 11
391.641028930532
 21
426.85728996220638
 31
0.0
  0
LINE
  5
155EC
  8
0
 10
394.141028930532
 20
398.85728996220632
 30
0.0
 11
413.14102893053177
 21
398.85728996220632
 31
0.0
  0
LINE
  5
155ED
  8
0
 10
394.141028930532
 20
398.85728996220632
 30
0.0
 11
394.14102892767579
 21
425.85724392883679
 31
0.0
  0
LINE
  5
155EE
  8
ｶｸﾚｾﾝ2
 10
413.14102893053177
 20
426.85728996220638
 30
0.0
 11
413.14102893053177
 21
425.85724392883702
 31
0.0
  0
LINE
  5
155EF
  8
ｶｸﾚｾﾝ2
 10
418.64102937756678
 20
450.85728996220638
 30
0.0
 11
388.64102848349728
 21
450.85728996220632
 31
0.0
  0
LINE
  5
155F0
  8
ｶｸﾚｾﾝ2
 10
388.64102848349728
 20
450.85728996220632
 30
0.0
 11
388.64102848349728
 21
453.85729005161329
 31
0.0
  0
LINE
  5
155F1
  8
ｶｸﾚｾﾝ2
 10
418.64102937756678
 20
450.85728996220638
 30
0.0
 11
418.64102937756678
 21
453.8572900516134
 31
0.0
  0
LINE
  5
155F2
  8
AM_0
 10
400.64102893053177
 20
398.85728996220632
 30
0.0
 11
400.64102893053177
 21
420.85728996220649
 31
0.0
  0
LINE
  5
155F3
  8
AM_0
 10
406.641028930532
 20
398.85728996220632
 30
0.0
 11
406.641028930532
 21
420.85728996220649
 31
0.0
  0
LINE
  5
155F4
  8
AM_0
 10
406.641028930532
 20
420.85728996220649
 30
0.0
 11
400.64102893053177
 21
420.85728996220649
 31
0.0
  0
ARC
  5
155F5
  8
AM_0
 10
403.641028930532
 20
420.85728996220649
 30
0.0
 40
3.0
 50
0.0
 51
180.0
  0
LINE
  5
155F7
  8
ｶｸﾚｾﾝ2
 10
429.14102975009592
 20
453.85729005161329
 30
0.0
 11
378.14102811096831
 21
453.8572900516134
 31
0.0
  0
LINE
  5
155F8
  8
0
 10
413.14102893053177
 20
425.85724392883691
 30
0.0
 11
413.14102893053177
 21
398.85728996220632
 31
0.0
  0
LINE
  5
155FA
  8
ｶｸﾚｾﾝ2
 10
394.14102892767579
 20
425.85724392883702
 30
0.0
 11
394.14102892757012
 21
426.85728996220638
 31
0.0
  0
TEXT
  5
15B1C
  8
AM_0
 10
64.008557325395486
 20
501.81703670913771
 30
0.0
 40
10.0
  1
VC01-007FMR~VC01-060FMR
1001
ACAD
1000
MTEXTBEGIN
1070
    73
1070
     1
1070
    44
1040
1.0
1070
    74
1070
     0
1000
MTEXTEND
  0
VIEWPORT
  5
89
 67
     1
  8
0
 10
210.0
 20
148.5
 30
0.0
 40
420.0
 41
297.0
 68
     1
 69
     1
1001
ACAD
1000
MVIEW
1002
{
1070
    16
1010
0.0
1020
0.0
1030
0.0
1010
0.0
1020
0.0
1030
1.0
1040
0.0
1040
297.0
1040
221.70154043645701
1040
148.5
1040
50.0
1040
0.0
1040
0.0
1070
     0
1070
   100
1070
     1
1070
     1
1070
     0
1070
     0
1070
     0
1070
     0
1040
0.0
1040
0.0
1040
0.0
1040
10.0
1040
10.0
1040
10.0
1040
10.0
1070
     0
1002
{
1002
}
1002
}
1001
GENIUS_GENOREF_13
1005
1B94
1001
GENIUS_GENSCREG_15
1000
PF
1040
1.0
1000
DF
1040
1.0
1000
MIN
1011
0.0
1021
0.0
1031
0.0
1021
0.0
1031
0.0
1000
MAX
1011
420.0
1021
0.0
1031
0.0
1021
297.0
1031
0.0
1000
FLAGS
1070
     4
  0
ENDSEC
  0
EOF
