  0
SECTION
  2
HEADER
  9
$ACADVER
  1
AC1009
  9
$INSBASE
 10
0.0
 20
0.0
 30
0.0
  9
$EXTMIN
 10
81.239824469480482
 20
150.33107867504421
 30
-0.0000000349181948
  9
$EXTMAX
 10
676.14766108250205
 20
586.17314113704606
 30
0.0000000814935747
  9
$LIMMIN
 10
0.0
 20
0.0
  9
$LIMMAX
 10
853.5
 20
555.00000000000011
  9
$ORTHOMODE
 70
     0
  9
$REGENMODE
 70
     1
  9
$FILLMODE
 70
     1
  9
$QTEXTMODE
 70
     0
  9
$MIRRTEXT
 70
     1
  9
$DRAGMODE
 70
     2
  9
$LTSCALE
 40
3.0
  9
$OSMODE
 70
   551
  9
$ATTMODE
 70
     1
  9
$TEXTSIZE
 40
2.5
  9
$TRACEWID
 40
1.0
  9
$TEXTSTYLE
  7
STANDARD
  9
$CLAYER
  8
AM_0
  9
$CELTYPE
  6
BYLAYER
  9
$CECOLOR
 62
   256
  9
$DIMSCALE
 40
3.0
  9
$DIMASZ
 40
2.5
  9
$DIMEXO
 40
1.0
  9
$DIMDLI
 40
7.0
  9
$DIMRND
 40
0.0
  9
$DIMDLE
 40
0.0
  9
$DIMEXE
 40
1.0
  9
$DIMTP
 40
0.1
  9
$DIMTM
 40
0.1000000001
  9
$DIMTXT
 40
2.5
  9
$DIMCEN
 40
0.0
  9
$DIMTSZ
 40
0.0
  9
$DIMTOL
 70
     0
  9
$DIMLIM
 70
     0
  9
$DIMTIH
 70
     0
  9
$DIMTOH
 70
     0
  9
$DIMSE1
 70
     0
  9
$DIMSE2
 70
     0
  9
$DIMTAD
 70
     3
  9
$DIMZIN
 70
     8
  9
$DIMBLK
  1

  9
$DIMASO
 70
     1
  9
$DIMSHO
 70
     1
  9
$DIMPOST
  1

  9
$DIMAPOST
  1
"
  9
$DIMALT
 70
     0
  9
$DIMALTD
 70
     2
  9
$DIMALTF
 40
0.0393701
  9
$DIMLFAC
 40
1.0
  9
$DIMTOFL
 70
     1
  9
$DIMTVP
 40
0.0
  9
$DIMTIX
 70
     0
  9
$DIMSOXD
 70
     0
  9
$DIMSAH
 70
     0
  9
$DIMBLK1
  1

  9
$DIMBLK2
  1

  9
$DIMSTYLE
  2
AM_JIS
  9
$DIMCLRD
 70
   256
  9
$DIMCLRE
 70
   256
  9
$DIMCLRT
 70
     4
  9
$DIMTFAC
 40
0.71
  9
$DIMGAP
 40
1.0
  9
$LUNITS
 70
     2
  9
$LUPREC
 70
     2
  9
$SKETCHINC
 40
1.0
  9
$FILLETRAD
 40
7.5
  9
$AUNITS
 70
     0
  9
$AUPREC
 70
     3
  9
$MENU
  1
.
  9
$ELEVATION
 40
0.0
  9
$PELEVATION
 40
0.0
  9
$THICKNESS
 40
0.0
  9
$LIMCHECK
 70
     0
  9
$BLIPMODE
 70
     0
  9
$CHAMFERA
 40
7.5
  9
$CHAMFERB
 40
7.5
  9
$SKPOLY
 70
     0
  9
$TDCREATE
 40
2452753.643349607
  9
$TDUPDATE
 40
2458543.4406809611
  9
$TDINDWG
 40
0.2855676042
  9
$TDUSRTIMER
 40
0.2855674074
  9
$USRTIMER
 70
     1
  9
$ANGBASE
 50
0.0
  9
$ANGDIR
 70
     0
  9
$PDMODE
 70
     0
  9
$PDSIZE
 40
0.0
  9
$PLINEWID
 40
0.0
  9
$COORDS
 70
     1
  9
$SPLFRAME
 70
     0
  9
$SPLINETYPE
 70
     6
  9
$SPLINESEGS
 70
     8
  9
$ATTDIA
 70
     1
  9
$ATTREQ
 70
     1
  9
$HANDLING
 70
     1
  9
$HANDSEED
  5
164BE
  9
$SURFTAB1
 70
     6
  9
$SURFTAB2
 70
     6
  9
$SURFTYPE
 70
     6
  9
$SURFU
 70
     6
  9
$SURFV
 70
     6
  9
$UCSNAME
  2

  9
$UCSORG
 10
0.0
 20
0.0
 30
0.0
  9
$UCSXDIR
 10
1.0
 20
0.0
 30
0.0
  9
$UCSYDIR
 10
0.0
 20
1.0
 30
0.0
  9
$PUCSNAME
  2

  9
$PUCSORG
 10
0.0
 20
0.0
 30
0.0
  9
$PUCSXDIR
 10
1.0
 20
0.0
 30
0.0
  9
$PUCSYDIR
 10
0.0
 20
1.0
 30
0.0
  9
$USERI1
 70
     0
  9
$USERI2
 70
     0
  9
$USERI3
 70
     0
  9
$USERI4
 70
     0
  9
$USERI5
 70
     0
  9
$USERR1
 40
0.0
  9
$USERR2
 40
0.0
  9
$USERR3
 40
0.0
  9
$USERR4
 40
0.0
  9
$USERR5
 40
0.0
  9
$WORLDVIEW
 70
     1
  9
$SHADEDGE
 70
     3
  9
$SHADEDIF
 70
    70
  9
$TILEMODE
 70
     1
  9
$MAXACTVP
 70
    48
  9
$PLIMCHECK
 70
     0
  9
$PEXTMIN
 10
1.0000000000000000E+020
 20
1.0000000000000000E+020
 30
1.0000000000000000E+020
  9
$PEXTMAX
 10
-1.0000000000000000E+020
 20
-1.0000000000000000E+020
 30
-1.0000000000000000E+020
  9
$PLIMMIN
 10
0.0
 20
0.0
  9
$PLIMMAX
 10
420.0
 20
297.0
  9
$UNITMODE
 70
     0
  9
$VISRETAIN
 70
     1
  9
$PLINEGEN
 70
     0
  9
$PSLTSCALE
 70
     1
  0
ENDSEC
  0
SECTION
  2
TABLES
  0
TABLE
  2
VPORT
 70
     1
  0
VPORT
  2
*ACTIVE
 70
     0
 10
0.0
 20
0.0
 11
1.0
 21
1.0
 12
378.69374277599132
 22
368.25210990604512
 13
0.0
 23
0.0
 14
7.5
 24
7.5
 15
30.0
 25
30.0
 16
0.0
 26
0.0
 36
1.0
 17
0.0
 27
0.0
 37
0.0
 40
438.83411323405221
 41
1.7571592210767459
 42
50.0
 43
0.0
 44
0.0
 50
0.0
 51
0.0
 71
    16
 72
   100
 73
     1
 74
     1
 75
     0
 76
     0
 77
     0
 78
     0
  0
ENDTAB
  0
TABLE
  2
LTYPE
 70
    21
  0
LTYPE
  2
CONTINUOUS
 70
     0
  3
Solid line
 72
    65
 73
     0
 40
0.0
  0
LTYPE
  2
PHANTOM2
 70
     0
  3
Phantom (.5x) ___ _ _ ___ _ _ ___ _ _ ___ _ _
 72
    65
 73
     6
 40
31.75
 49
15.875
 49
-3.174999999999998
 49
3.174999999999998
 49
-3.174999999999998
 49
3.174999999999998
 49
-3.174999999999998
  0
LTYPE
  2
CENTER
 70
     0
  3
Center ____ _ ____ _ ____ _ ____ _ ____ _ ____
 72
    65
 73
     4
 40
50.799999999999997
 49
31.75
 49
-6.3499999999999979
 49
6.3499999999999979
 49
-6.3499999999999979
  0
LTYPE
  2
ACANSTGBM
 70
     0
  3
__ . . __ . .
 72
    65
 73
     6
 40
9.0
 49
4.0
 49
-1.0
 49
1.0
 49
-1.0
 49
1.0
 49
-1.0
  0
LTYPE
  2
ACANSTGLM
 70
     0
  3
_ _ _ _ _
 72
    65
 73
     2
 40
3.0
 49
2.0
 49
-1.0
  0
LTYPE
  2
GEN3B
 70
     0
  3
 - - - - -
 72
    65
 73
     2
 40
1.0
 49
0.5
 49
-0.5
  0
LTYPE
  2
GEN7A
 70
     0
  3
__ . __ . __
 72
    65
 73
     4
 40
7.375
 49
4.75
 49
-0.875
 49
0.875
 49
-0.875
  0
LTYPE
  2
AM_ISO02W050
 70
     0
  3
__ __ __ __ __ __ __ __ __ __ __ __ __ __ __
 72
    65
 73
     2
 40
7.5
 49
6.0
 49
-1.5
  0
LTYPE
  2
AM_ISO08W050
 70
     0
  3
____ . ____ . ____ . ____ . ____ . ____ . ____
 72
    65
 73
     4
 40
18.0
 49
12.0
 49
-1.5
 49
3.0
 49
-1.5
  0
LTYPE
  2
AM_ISO09W050
 70
     0
  3
_____ . . _____ . . _____ . . ____ .. ____
 72
    65
 73
     6
 40
22.5
 49
12.0
 49
-1.5
 49
3.0
 49
-1.5
 49
3.0
 49
-1.5
  0
LTYPE
  2
AMCONSTR
 70
     0
  3
_______________________
 72
    65
 73
     2
 40
9999.0
 49
9999.0
 49
0.0
  0
LTYPE
  2
AM_ISO02W050X2
 70
     0
  3
 _ _ _ _ _ _ _ _ _ _ _ _
 72
    65
 73
     2
 40
3.75
 49
3.0
 49
-0.75
  0
LTYPE
  2
AM_ISO08W050X2
 70
     0
  3
__ . __ . __ . __ . __ . __
 72
    65
 73
     4
 40
9.0
 49
6.0
 49
-0.75
 49
1.5
 49
-0.75
  0
LTYPE
  2
AMZIGZAG
 70
     0
  3
/\/-/\/-/\/-/\/-/\/-/\/
 72
    65
 73
     2
 40
11.0001
 49
0.0001
 49
-11.0
  0
LTYPE
  2
ACJISTGB
 70
     0
  3
__ . . __ . .
 72
    65
 73
     6
 40
9.0
 49
4.0
 49
-1.0
 49
1.0
 49
-1.0
 49
1.0
 49
-1.0
  0
LTYPE
  2
ACJISTGL
 70
     0
  3
_ _ _ _ _
 72
    65
 73
     2
 40
3.0
 49
2.0
 49
-1.0
  0
LTYPE
  2
ACISOWELD
 70
     0
  3
_ _ _ _ _
 72
    65
 73
     2
 40
2.0
 49
2.0
 49
-1.0
  0
LTYPE
  2
ACISOTGB
 70
     0
  3
__ . . __ . .
 72
    65
 73
     6
 40
9.0
 49
4.0
 49
-1.0
 49
1.0
 49
-1.0
 49
1.0
 49
-1.0
  0
LTYPE
  2
ACISOTGL
 70
     0
  3
_ _ _ _ _
 72
    65
 73
     2
 40
3.0
 49
2.0
 49
-1.0
  0
LTYPE
  2
HIDDEN
 70
     0
  3
Hidden __ __ __ __ __ __ __ __ __ __ __ __ __ _
 72
    65
 73
     2
 40
9.5249999999999968
 49
6.3499999999999979
 49
-3.174999999999998
  0
ENDTAB
  0
TABLE
  2
LAYER
 70
     9
  0
LAYER
  2
0
 70
     0
 62
     7
  6
CONTINUOUS
  0
LAYER
  2
ｽﾝﾎﾟｳｾﾝ
 70
     0
 62
     2
  6
CONTINUOUS
  0
LAYER
  2
DEFPOINTS
 70
     0
 62
     7
  6
CONTINUOUS
  0
LAYER
  2
ｷｲﾛ
 70
     0
 62
     2
  6
CONTINUOUS
  0
LAYER
  2
ｶｸﾚｾﾝ2
 70
     0
 62
     3
  6
GEN3B
  0
LAYER
  2
ﾁｭｳｼﾝｾﾝ1
 70
     0
 62
     1
  6
GEN7A
  0
LAYER
  2
AM_0
 70
     0
 62
     7
  6
CONTINUOUS
  0
LAYER
  2
AM_0N
 70
     0
 62
     7
  6
CONTINUOUS
  0
LAYER
  2
AM_5
 70
     0
 62
     2
  6
CONTINUOUS
  0
ENDTAB
  0
TABLE
  2
STYLE
 70
     8
  0
STYLE
  2
STANDARD
 70
     0
 40
0.0
 41
0.8299999999999999
 50
0.0
 71
     0
 42
2.5
  3
txt.shx
  4
bigfont.shx
  0
STYLE
  2
ACANSTS
 70
     0
 40
1.0
 41
1.0
 50
0.0
 71
     0
 42
2.5
  3
romans.shx
  4
bigfont.shx
  0
STYLE
  2
ACANSGDT
 70
     0
 40
0.0
 41
1.0
 50
0.0
 71
     0
 42
2.5
  3
amgdtans.shx
  4

  0
STYLE
  2

 70
     1
 40
0.0
 41
1.0
 50
0.0
 71
     0
 42
2.5
  3
ltypeshp.shx
  4

  0
STYLE
  2
ACJISTS
 70
     0
 40
1.0
 41
1.0
 50
0.0
 71
     0
 42
2.5
  3
isocp.shx
  4
bigfont.shx
  0
STYLE
  2
ACJISGDT
 70
     0
 40
0.0
 41
1.0
 50
0.0
 71
     0
 42
2.5
  3
amgdt.shx
  4

  0
STYLE
  2
ACISOTS
 70
     0
 40
3.0
 41
1.0
 50
0.0
 71
     0
 42
2.5
  3
isocp.shx
  4
extfont.shx
  0
STYLE
  2
ACISOGDT
 70
     0
 40
0.0
 41
1.0
 50
0.0
 71
     0
 42
2.5
  3
amgdt.shx
  4

  0
ENDTAB
  0
TABLE
  2
VIEW
 70
    12
  0
VIEW
  2
GEN1
 70
     0
 40
95.824742268041234
 10
71.5
 20
137.08762886597941
 41
143.0
 11
0.0
 21
0.0
 31
1.0
 12
0.0
 22
0.0
 32
0.0
 42
50.0
 43
0.0
 44
0.0
 50
0.0
 71
     0
  0
VIEW
  2
GEN2
 70
     0
 40
95.824742268041234
 10
214.5
 20
137.08762886597941
 41
143.0
 11
0.0
 21
0.0
 31
1.0
 12
0.0
 22
0.0
 32
0.0
 42
50.0
 43
0.0
 44
0.0
 50
0.0
 71
     0
  0
VIEW
  2
GEN3
 70
     0
 40
95.824742268041234
 10
71.5
 20
47.912371134020603
 41
143.0
 11
0.0
 21
0.0
 31
1.0
 12
0.0
 22
0.0
 32
0.0
 42
50.0
 43
0.0
 44
0.0
 50
0.0
 71
     0
  0
VIEW
  2
GEN4
 70
     0
 40
95.824742268041234
 10
214.5
 20
47.912371134020603
 41
143.0
 11
0.0
 21
0.0
 31
1.0
 12
0.0
 22
0.0
 32
0.0
 42
50.0
 43
0.0
 44
0.0
 50
0.0
 71
     0
  0
VIEW
  2
GEN5
 70
     0
 40
95.824742268041234
 10
143.0
 20
92.500000000000057
 41
143.0
 11
0.0
 21
0.0
 31
1.0
 12
0.0
 22
0.0
 32
0.0
 42
50.0
 43
0.0
 44
0.0
 50
0.0
 71
     0
  0
VIEW
  2
GEN6
 70
     0
 40
191.64756804123709
 10
143.0
 20
92.5
 41
285.99714
 11
0.0
 21
0.0
 31
1.0
 12
0.0
 22
0.0
 32
0.0
 42
50.0
 43
0.0
 44
0.0
 50
0.0
 71
     0
  0
VIEW
  2
AM_VIEW1
 70
     0
 40
277.50000000000011
 10
249.64779005524869
 20
416.25000000000011
 41
499.29558011049721
 11
0.0
 21
0.0
 31
1.0
 12
0.0
 22
0.0
 32
0.0
 42
50.0
 43
0.0
 44
0.0
 50
0.0
 71
    16
  0
VIEW
  2
AM_VIEW2
 70
     0
 40
277.50000000000011
 10
603.85220994475117
 20
416.25000000000011
 41
499.29558011049721
 11
0.0
 21
0.0
 31
1.0
 12
0.0
 22
0.0
 32
0.0
 42
50.0
 43
0.0
 44
0.0
 50
0.0
 71
    16
  0
VIEW
  2
AM_VIEW3
 70
     0
 40
277.50000000000011
 10
249.64779005524869
 20
138.75
 41
499.29558011049721
 11
0.0
 21
0.0
 31
1.0
 12
0.0
 22
0.0
 32
0.0
 42
50.0
 43
0.0
 44
0.0
 50
0.0
 71
    16
  0
VIEW
  2
AM_VIEW4
 70
     0
 40
277.50000000000011
 10
603.85220994475117
 20
138.75
 41
499.29558011049721
 11
0.0
 21
0.0
 31
1.0
 12
0.0
 22
0.0
 32
0.0
 42
50.0
 43
0.0
 44
0.0
 50
0.0
 71
    16
  0
VIEW
  2
AM_VIEW5
 70
     0
 40
277.50000000000011
 10
426.75
 20
277.50000000000011
 41
499.2955801104971
 11
0.0
 21
0.0
 31
1.0
 12
0.0
 22
0.0
 32
0.0
 42
50.0
 43
0.0
 44
0.0
 50
0.0
 71
    16
  0
VIEW
  2
AM_VIEW6
 70
     0
 40
554.99445000000014
 10
426.75
 20
277.5
 41
998.5811743093924
 11
0.0
 21
0.0
 31
1.0
 12
0.0
 22
0.0
 32
0.0
 42
50.0
 43
0.0
 44
0.0
 50
0.0
 71
    16
  0
ENDTAB
  0
TABLE
  2
UCS
 70
     0
  0
ENDTAB
  0
TABLE
  2
APPID
 70
    96
  0
APPID
  2
ACAD
 70
     0
  0
APPID
  2
MCAD_NO_VIS
 70
     0
  0
APPID
  2
ACAD_TEMP_GRAPHIC
 70
     0
  0
APPID
  2
AD_DRAW
 70
     0
  0
APPID
  2
DESIGNERASSEMBLIES
 70
     0
  0
APPID
  2
ASURF_PCURVE_APPNAME
 70
     0
  0
APPID
  2
GENIUS_GE3SECT_13
 70
     0
  0
APPID
  2
GENIUS_GENCFG_13
 70
     0
  0
APPID
  2
GENIUS_GE3CFG0_13
 70
     0
  0
APPID
  2
GENIUS_GENCFG0_13
 70
     0
  0
APPID
  2
GENIUS_GENCFG1_13
 70
     0
  0
APPID
  2
GENIUS_GENCFG2_13
 70
     0
  0
APPID
  2
GENIUS_GENCFG3_13
 70
     0
  0
APPID
  2
GENIUS_GENCFG4_13
 70
     0
  0
APPID
  2
GENIUS_GEVCFG0_13
 70
     0
  0
APPID
  2
GENIUS_GENOENT_13
 70
     0
  0
APPID
  2
GENIUS_GENREC_14
 70
     0
  0
APPID
  2
GENIUS_GENODEF_13
 70
     0
  0
APPID
  2
GENIUS_GENOBJ-N-REC_13
 70
     0
  0
APPID
  2
GENIUS_GENHINW_13
 70
     0
  0
APPID
  2
GENIUS_FIRSTVISTXT_14
 70
     0
  0
APPID
  2
GENIUS_GENOBJ-N-LEADER_13
 70
     0
  0
APPID
  2
GENIUS_GENOREF_13
 70
     0
  0
APPID
  2
GENIUS_GENOLIS_13
 70
     0
  0
APPID
  2
GEV_VCCNULL_SWITCH_OFF
 70
     0
  0
APPID
  2
GENIUS_GENDTOL_13
 70
     0
  0
APPID
  2
GENIUS_GEFCFG0_13
 70
     0
  0
APPID
  2
GENIUS_GENOBJ-N-TIT_13
 70
     0
  0
APPID
  2
GENIUS_GENTITLE_13
 70
     0
  0
APPID
  2
GENIUS_GENZVEED_13
 70
     0
  0
APPID
  2
GENIUS_GENOBJ-N-SDF_13
 70
     0
  0
APPID
  2
GENIUS_GENSCREG_13
 70
     0
  0
APPID
  2
GENIUS_DUMCFG0_13
 70
     0
  0
APPID
  2
GEVID936201362
 70
     0
  0
APPID
  2
GEVDC
 70
     0
  0
APPID
  2
GEVCON
 70
     0
  0
APPID
  2
VCC
 70
     0
  0
APPID
  2
GEVPT
 70
     0
  0
APPID
  2
GEVIT
 70
     0
  0
APPID
  2
GENBH
 70
     0
  0
APPID
  2
GEVMK
 70
     0
  0
APPID
  2
GENIUS_GENBH_13
 70
     0
  0
APPID
  2
GENIUS_GENOBJ-NBEHI-BHF_13
 70
     0
  0
APPID
  2
GENIUS_GENOBJ-NBEHI-BHB_13
 70
     0
  0
APPID
  2
GENIUS_GENOBJ-F-DESC_13
 70
     0
  0
APPID
  2
GENIUS_GEFDESC_14
 70
     0
  0
APPID
  2
GENIUS_GENOBJ-F-PART_13
 70
     0
  0
APPID
  2
GENIUS_GEFSTDP_13
 70
     0
  0
APPID
  2
GENIUS_GEFPARTINS_13
 70
     0
  0
APPID
  2
GENIUS_GENTRA_14
 70
     0
  0
APPID
  2
GENIUS_GENINF13_13
 70
     0
  0
APPID
  2
GENIUS_GENOBJ-N-INFOPT_13
 70
     0
  0
APPID
  2
GENIUS_GENOBJ-N-RSSYM_13
 70
     0
  0
APPID
  2
GENIUS_GENSYMENT_13
 70
     0
  0
APPID
  2
GENIUS_GENSCSYM_13
 70
     0
  0
APPID
  2
GENIUS_GEFINFNAM_13
 70
     0
  0
APPID
  2
GENIUS_GENSCREG_15
 70
     0
  0
APPID
  2
GENIUS_GENOBJ-N-CEN_13
 70
     0
  0
APPID
  2
GENIUS_GENOBJ-N-CRS_13
 70
     0
  0
APPID
  2
GENIUS_GENOBJ-N-CRC_13
 70
     0
  0
APPID
  2
GENIUS_GENCRC_14
 70
     0
  0
APPID
  2
GEVID942827039
 70
     0
  0
APPID
  2
GEVID942827040
 70
     0
  0
APPID
  2
GEVID942827041
 70
     0
  0
APPID
  2
GENIUS_GENOBJ-F-SCPASSM_13
 70
     0
  0
APPID
  2
GENIUS_GENDIMSH_14
 70
     0
  0
APPID
  2
GENIUS_GENFIL_13
 70
     0
  0
APPID
  2
GENIUS_GENOBJ-N-CHA_13
 70
     0
  0
APPID
  2
GENIUS_GENOBJ-N-FIL_13
 70
     0
  0
APPID
  2
GEVID942827042
 70
     0
  0
APPID
  2
GEVID946020473
 70
     0
  0
APPID
  2
GEVID946020474
 70
     0
  0
APPID
  2
GEVID946020475
 70
     0
  0
APPID
  2
GENIUS_GENOBJ-N-HTC_13
 70
     0
  0
APPID
  2
GENIUS_GENHATCH_13
 70
     0
  0
APPID
  2
GEVID948854295
 70
     0
  0
APPID
  2
GEVID939402019
 70
     0
  0
APPID
  2
GEVID952919491
 70
     0
  0
APPID
  2
GEVID952919492
 70
     0
  0
APPID
  2
GENIUS_GEFWELD_13
 70
     0
  0
APPID
  2
GENIUS_GENOBJ-F-WELS_13
 70
     0
  0
APPID
  2
GEVID952919493
 70
     0
  0
APPID
  2
GENIUS_GENOBJ-N-RSBK_13
 70
     0
  0
APPID
  2
GENIUS_GENOBJ-N-LIB_13
 70
     0
  0
APPID
  2
GENIUS_GENSCALE_13
 70
     0
  0
APPID
  2
GEVID986376691
 70
     0
  0
APPID
  2
ACATTRIBSERVICES
 70
     0
  0
APPID
  2
DCO15
 70
     0
  0
APPID
  2
ACADM_DIM_EDIT
 70
     0
  0
APPID
  2
AMDT_DM_ADJ
 70
     0
  0
APPID
  2
ACAD_MLEADERVER
 70
     0
  0
APPID
  2
ACAD_DSTYLE_DIMBREAK
 70
     0
  0
APPID
  2
ACAD_DSTYLE_DIMJAG
 70
     0
  0
APPID
  2
ACAD_NAV_VCDISPLAY
 70
     0
  0
APPID
  2
ACADANNOPO
 70
     0
  0
APPID
  2
ACAD_EXEMPT_FROM_CAD_STANDARDS
 70
     0
  0
ENDTAB
  0
TABLE
  2
DIMSTYLE
 70
    15
  0
DIMSTYLE
  2
STANDARD
 70
     0
  3

  4

  5

  6

  7

 40
1.0
 41
0.18
 42
0.0625
 43
0.38
 44
0.18
 45
0.0
 46
0.0
 47
0.0
 48
0.0
140
0.18
141
0.09
142
0.0
143
25.399999999999999
144
1.0
145
0.0
146
1.0
147
0.09
 71
     0
 72
     0
 73
     1
 74
     1
 75
     0
 76
     0
 77
     0
 78
     0
170
     0
171
     2
172
     0
173
     0
174
     0
175
     0
176
     0
177
     0
178
     0
  0
DIMSTYLE
  2
AM_JIS
 70
     0
  3

  4
"
  5

  6

  7

 40
1.0
 41
2.5
 42
1.0
 43
7.0
 44
1.0
 45
0.0
 46
0.0
 47
0.1
 48
0.1000000001
140
2.5
141
0.0
142
0.0
143
0.0393701
144
1.0
145
0.0
146
0.71
147
1.0
 71
     0
 72
     0
 73
     0
 74
     0
 75
     0
 76
     0
 77
     3
 78
     8
170
     0
171
     2
172
     1
173
     0
174
     0
175
     0
176
   256
177
   256
178
     4
  0
DIMSTYLE
  2
AM_JIS$3
 70
     0
  3

  4
"
  5

  6

  7

 40
1.0
 41
2.5
 42
1.0
 43
7.0
 44
1.0
 45
0.0
 46
0.0
 47
0.1
 48
0.1000000001
140
2.5
141
0.0
142
0.0
143
0.0393701
144
1.0
145
0.0
146
0.71
147
1.0
 71
     0
 72
     0
 73
     0
 74
     1
 75
     0
 76
     0
 77
     3
 78
     8
170
     0
171
     2
172
     0
173
     0
174
     0
175
     0
176
   256
177
   256
178
     4
  0
DIMSTYLE
  2
AM_JIS$4
 70
     0
  3

  4
"
  5

  6

  7

 40
1.0
 41
2.5
 42
1.0
 43
7.0
 44
1.0
 45
0.0
 46
0.0
 47
0.1
 48
0.1000000001
140
2.5
141
0.0
142
0.0
143
0.0393701
144
1.0
145
0.0
146
0.71
147
1.0
 71
     0
 72
     0
 73
     0
 74
     0
 75
     0
 76
     0
 77
     3
 78
     8
170
     0
171
     2
172
     0
173
     0
174
     0
175
     0
176
   256
177
   256
178
     4
  0
DIMSTYLE
  2
AM_JIS$6
 70
     0
  3

  4
"
  5

  6

  7

 40
1.0
 41
2.5
 42
1.0
 43
7.0
 44
1.0
 45
0.0
 46
0.0
 47
0.1
 48
0.1000000001
140
2.5
141
0.0
142
0.0
143
0.0393701
144
1.0
145
0.0
146
0.71
147
1.0
 71
     0
 72
     0
 73
     0
 74
     0
 75
     0
 76
     0
 77
     0
 78
     8
170
     0
171
     2
172
     1
173
     0
174
     0
175
     0
176
   256
177
   256
178
     4
  0
DIMSTYLE
  2
AM_JIS$7
 70
     0
  3

  4
"
  5

  6

  7

 40
1.0
 41
2.5
 42
1.0
 43
7.0
 44
1.0
 45
0.0
 46
0.0
 47
0.1
 48
0.1000000001
140
2.5
141
0.0
142
0.0
143
0.0393701
144
1.0
145
0.0
146
0.71
147
1.0
 71
     0
 72
     0
 73
     0
 74
     0
 75
     0
 76
     0
 77
     3
 78
     8
170
     0
171
     2
172
     1
173
     0
174
     0
175
     0
176
   256
177
   256
178
     4
  0
DIMSTYLE
  2
AM_JIS$SF
 70
     0
  3

  4
"
  5
OPEN30
  6
OPEN30
  7
OPEN30
 40
1.0
 41
2.5
 42
1.0
 43
10.0
 44
1.0
 45
0.0
 46
0.0
 47
0.1
 48
0.1
140
3.5
141
0.0
142
0.0
143
0.0393701
144
1.0
145
0.0
146
0.71
147
1.5
 71
     0
 72
     0
 73
     0
 74
     0
 75
     1
 76
     1
 77
     3
 78
     8
170
     0
171
     2
172
     1
173
     0
174
     0
175
     0
176
   256
177
   256
178
     4
  0
DIMSTYLE
  2
AM_JIS$SH
 70
     0
  3

  4
"
  5

  6
NONE
  7

 40
1.0
 41
2.5
 42
1.0
 43
10.0
 44
1.0
 45
0.0
 46
0.0
 47
0.1
 48
0.1
140
3.5
141
0.0
142
0.0
143
0.0393701
144
1.0
145
0.0
146
0.71
147
1.5
 71
     0
 72
     0
 73
     0
 74
     0
 75
     1
 76
     0
 77
     3
 78
     8
170
     0
171
     2
172
     1
173
     1
174
     0
175
     0
176
   256
177
   256
178
     4
  0
DIMSTYLE
  2
AM_ISO
 70
     0
  3

  4
"
  5

  6

  7

 40
1.0
 41
2.5
 42
1.0
 43
10.0
 44
1.0
 45
0.0
 46
0.0
 47
0.0
 48
0.000000001
140
3.0
141
0.0
142
0.0
143
0.0393701
144
1.0
145
0.0
146
0.71
147
1.299999999999998
 71
     1
 72
     0
 73
     0
 74
     0
 75
     0
 76
     0
 77
     1
 78
     8
170
     0
171
     2
172
     1
173
     0
174
     0
175
     0
176
   256
177
   256
178
     4
  0
DIMSTYLE
  2
AM_ISO$3
 70
     0
  3

  4
"
  5

  6

  7

 40
1.0
 41
2.5
 42
1.0
 43
10.0
 44
1.0
 45
0.0
 46
0.0
 47
0.0
 48
0.000000001
140
2.5
141
0.0
142
0.0
143
0.0393701
144
1.0
145
0.0
146
0.71
147
1.299999999999998
 71
     1
 72
     0
 73
     0
 74
     1
 75
     0
 76
     0
 77
     1
 78
     8
170
     0
171
     2
172
     0
173
     0
174
     0
175
     0
176
   256
177
   256
178
     4
  0
DIMSTYLE
  2
AM_ISO$4
 70
     0
  3

  4
"
  5

  6

  7

 40
1.0
 41
2.5
 42
1.0
 43
10.0
 44
1.0
 45
0.0
 46
0.0
 47
0.0
 48
0.000000001
140
2.5
141
0.0
142
0.0
143
0.0393701
144
1.0
145
0.0
146
0.71
147
1.299999999999998
 71
     1
 72
     0
 73
     0
 74
     1
 75
     0
 76
     0
 77
     1
 78
     8
170
     0
171
     2
172
     0
173
     0
174
     0
175
     0
176
   256
177
   256
178
     4
  0
DIMSTYLE
  2
AM_ISO$6
 70
     0
  3

  4
"
  5

  6

  7

 40
1.0
 41
2.5
 42
1.0
 43
10.0
 44
1.0
 45
0.0
 46
0.0
 47
0.0
 48
0.000000001
140
2.5
141
0.0
142
0.0
143
0.0393701
144
1.0
145
0.0
146
0.71
147
1.299999999999998
 71
     1
 72
     0
 73
     0
 74
     0
 75
     0
 76
     0
 77
     0
 78
     8
170
     0
171
     2
172
     1
173
     0
174
     0
175
     0
176
   256
177
   256
178
     4
  0
DIMSTYLE
  2
AM_ISO$7
 70
     0
  3

  4
"
  5

  6

  7

 40
1.0
 41
2.5
 42
1.0
 43
10.0
 44
1.0
 45
0.0
 46
0.0
 47
0.0
 48
0.000000001
140
2.5
141
0.0
142
0.0
143
0.0393701
144
1.0
145
0.0
146
0.71
147
1.299999999999998
 71
     1
 72
     0
 73
     0
 74
     0
 75
     0
 76
     0
 77
     1
 78
     8
170
     0
171
     2
172
     1
173
     0
174
     0
175
     0
176
   256
177
   256
178
     4
  0
DIMSTYLE
  2
AM_ISO$SF
 70
     0
  3

  4
"
  5

  6

  7

 40
1.0
 41
2.5
 42
1.0
 43
10.0
 44
1.0
 45
0.0
 46
0.0
 47
0.1
 48
0.1
140
3.5
141
0.0
142
0.0
143
0.0393701
144
1.0
145
0.0
146
0.71
147
1.5
 71
     0
 72
     0
 73
     0
 74
     0
 75
     1
 76
     1
 77
     1
 78
     8
170
     0
171
     2
172
     1
173
     0
174
     0
175
     0
176
   256
177
   256
178
     4
  0
DIMSTYLE
  2
AM_ISO$SH
 70
     0
  3

  4
"
  5

  6
GENAXEH
  7

 40
1.0
 41
2.5
 42
1.0
 43
10.0
 44
1.0
 45
0.0
 46
0.0
 47
0.1
 48
0.1
140
3.5
141
0.0
142
0.0
143
0.0393701
144
2.0
145
0.0
146
0.71
147
1.5
 71
     0
 72
     0
 73
     0
 74
     0
 75
     1
 76
     1
 77
     1
 78
     8
170
     0
171
     2
172
     1
173
     1
174
     0
175
     0
176
   256
177
   256
178
     4
  0
ENDTAB
  0
ENDSEC
  0
SECTION
  2
BLOCKS
  0
BLOCK
  8
0
  2
$MODEL_SPACE
 70
     0
 10
0.0
 20
0.0
 30
0.0
  3
$MODEL_SPACE
  1

  0
ENDBLK
  5
1A
  8
0
  0
BLOCK
 67
     1
  8
0
  2
$PAPER_SPACE
 70
     0
 10
0.0
 20
0.0
 30
0.0
  3
$PAPER_SPACE
  1

  0
ENDBLK
  5
17
 67
     1
  8
0
  0
BLOCK
  8
0
  2
_OPEN30
 70
     0
 10
0.0
 20
0.0
 30
0.0
  3
_OPEN30
  1

  0
LINE
  5
21C5
  8
0
 62
     0
 10
-1.0
 20
0.26794919
 30
0.0
 11
0.0
 21
0.0
 31
0.0
  0
LINE
  5
21C6
  8
0
 62
     0
 10
0.0
 20
0.0
 30
0.0
 11
-1.0
 21
-0.26794919
 31
0.0
  0
LINE
  5
21C7
  8
0
 62
     0
 10
0.0
 20
0.0
 30
0.0
 11
-1.0
 21
0.0
 31
0.0
  0
ENDBLK
  5
21C9
  8
0
  0
BLOCK
  8
0
  2
GENAXEH
 70
     0
 10
0.0
 20
0.0
 30
0.0
  3
GENAXEH
  1

  0
LINE
  5
21D0
  8
0
 10
-1.0
 20
0.0
 30
0.0
 11
1.0
 21
0.0
 31
0.0
  0
ENDBLK
  5
21D2
  8
0
  0
BLOCK
  8
0
  2
_NONE
 70
     0
 10
0.0
 20
0.0
 30
0.0
  3
_NONE
  1

  0
ENDBLK
  5
8193
  8
0
  0
ENDSEC
  0
SECTION
  2
ENTITIES
  0
POINT
  5
1B94
  8
0
 10
0.0
 20
0.0
 30
0.0
1001
GENIUS_GENODEF_13
1002
{
1000
HIER
1070
     1
1002
}
1002
{
1000
MANEDIT
1070
     0
1002
}
1002
{
1000
NOSEL
1070
     0
1002
}
1002
{
1000
BEHIND
1070
     0
1002
}
1002
{
1000
REACTOR
1002
}
1001
GENIUS_GENOBJ-N-SDF_13
1002
{
1000
OWNER
1000
GEN
1002
}
1001
GENIUS_GENOENT_13
1002
{
1000
MYREF
1005
1B94
1002
}
1002
{
1000
GRP
1005
0
1002
}
1001
GENIUS_GENOLIS_13
1002
{
1000
ENT
1005
89
1002
}
  0
LINE
  5
1500E
  8
AM_0
 10
440.39604584816658
 20
299.87951144231232
 30
0.0
 11
372.73339163947122
 21
299.87951144231249
 31
0.0
  0
ARC
  5
1500F
  8
0
 10
442.39603187087658
 20
414.05456574958049
 30
0.0
 40
112.1750543072711
 50
245.53408066714121
 51
267.9923002767668
  0
ARC
  5
15010
  8
0
 10
442.39603187087658
 20
414.05456574958049
 30
0.0
 40
108.1750543072711
 50
245.7481492359598
 51
294.25185076404
  0
ARC
  5
15011
  8
0
 10
442.39603187087658
 20
73.704457135044436
 30
0.0
 40
112.1750543072711
 50
92.007699723233188
 51
114.4659193328587
  0
LINE
  5
15012
  8
AM_0
 10
440.39604584816658
 20
187.87951144231249
 30
0.0
 11
372.73339163947122
 21
187.87951144231249
 31
0.0
  0
ARC
  5
15013
  8
0
 10
442.39603187087658
 20
73.704457135044436
 30
0.0
 40
108.1750543072711
 50
65.7481492359599
 51
114.2518507640401
  0
LINE
  5
15014
  8
AM_0
 10
401.59295564993141
 20
160.87951144231289
 30
0.0
 11
483.19910809182159
 21
160.87951144231289
 31
0.0
  0
LINE
  5
15015
  8
AM_0
 10
401.59295564993141
 20
326.87951144231249
 30
0.0
 11
483.19910809182193
 21
326.87951144231249
 31
0.0
  0
LINE
  5
15016
  8
AM_0
 10
386.8960171932323
 20
156.8795114423132
 30
0.0
 11
497.89604654852081
 21
156.87951144231289
 31
0.0
  0
LINE
  5
15017
  8
AM_0
 10
386.8960171932323
 20
330.87951144231249
 30
0.0
 11
497.89604654852081
 21
330.87951144231272
 31
0.0
  0
CIRCLE
  5
15018
  8
0
 10
422.89604654852081
 20
243.87951144231249
 30
0.0
 40
39.0
  0
LINE
  5
15019
  8
ﾁｭｳｼﾝｾﾝ1
 10
533.040551154279
 20
243.87951144231249
 30
0.0
 11
355.25934598471849
 21
243.87951144231249
 31
0.0
  0
CIRCLE
  5
1501F
  8
AM_0
 10
422.89604654852099
 20
243.87951144231241
 30
0.0
 40
19.999800629214029
  0
LINE
  5
15041
  8
ﾁｭｳｼﾝｾﾝ1
 10
179.46296190996449
 20
162.7051305745936
 30
0.0
 11
179.4629624656009
 21
325.0538923618488
 31
0.0
  0
LINE
  5
15044
  8
AM_0
 10
130.46296093694761
 20
281.37913760078447
 30
0.0
 11
130.46296093694761
 21
206.3798853656327
 31
0.0
  0
LINE
  5
15046
  8
AM_0
 10
134.4629610561569
 20
185.10196030584211
 30
0.0
 11
134.4629610561569
 21
302.65709317784911
 31
0.0
  0
LINE
  5
15047
  8
AM_0
 10
204.46296314231861
 20
183.8801096950873
 30
0.0
 11
204.46296314231861
 21
303.87891327132991
 31
0.0
  0
LINE
  5
15048
  8
0
 10
249.46296195866759
 20
156.8795105231282
 30
0.0
 11
249.46296245563121
 21
330.87951052312781
 31
0.0
  0
ARC
  5
1504C
  8
AM_0
 10
179.46296240193229
 20
260.37951097300981
 30
0.0
 40
56.499999999999972
 50
152.02943984642619
 51
209.85860574840919
  0
LINE
  5
1504D
  8
AM_0
 10
367.39604483488802
 20
293.37901791751239
 30
0.0
 11
367.39604483488802
 21
194.38000496711251
 31
0.0
  0
LINE
  5
1504E
  8
AM_0
 10
363.39604483488802
 20
293.37901791751239
 30
0.0
 11
363.39604483488802
 21
194.380004967113
 31
0.0
  0
LINE
  5
15052
  8
AM_0
 10
150.96296226399451
 20
170.87951096148331
 30
0.0
 11
207.96296226399451
 21
170.87951096148291
 31
0.0
  0
LINE
  5
15053
  8
AM_0
 10
196.76676226399471
 20
167.87951096148291
 30
0.0
 11
162.1590622639946
 21
167.87951096148311
 31
0.0
  0
LINE
  5
15054
  8
ﾁｭｳｼﾝｾﾝ1
 10
294.42055847339861
 20
243.87951144231249
 30
0.0
 11
112.96296239726151
 21
243.87951148320869
 31
0.0
  0
LINE
  5
15056
  8
AM_0
 10
204.46296314231861
 20
183.8801096950873
 30
0.0
 11
134.4629610561569
 21
185.10196030584211
 31
0.0
  0
LINE
  5
15058
  8
ﾁｭｳｼﾝｾﾝ1
 10
241.3579565586648
 20
260.37951142552299
 30
0.0
 11
117.5679679298426
 21
260.37951147647851
 31
0.0
  0
LINE
  5
15060
  8
AM_0
 10
132.87296105615681
 20
185.88000501396851
 30
0.0
 11
132.87296105615701
 21
202.88000501396871
 31
0.0
  0
LINE
  5
15061
  8
0
 10
124.8729610561571
 20
200.8800050139686
 30
0.0
 11
124.8729610561571
 21
187.88000501396871
 31
0.0
  0
LINE
  5
15062
  8
AM_0
 10
147.96296226399451
 20
175.87951096148331
 30
0.0
 11
146.46296226399451
 21
175.87951096148331
 31
0.0
  0
LINE
  5
15063
  8
0
 10
124.8729610561571
 20
187.88000501396871
 30
0.0
 11
132.87296105615701
 21
187.88000501396871
 31
0.0
  0
LINE
  5
15064
  8
AM_0
 10
146.46296226399451
 20
175.87951096148331
 30
0.0
 11
146.46296226399451
 21
184.89191156137181
 31
0.0
  0
LINE
  5
15065
  8
0
 10
134.4629610561569
 20
185.88000501396851
 30
0.0
 11
132.87296105615701
 21
185.88000501396851
 31
0.0
  0
LINE
  5
15066
  8
AM_0
 10
162.1590622639946
 20
167.87951096148311
 30
0.0
 11
156.96296226399451
 21
170.87951096148311
 31
0.0
  0
LINE
  5
15067
  8
AM_0
 10
147.96296226399451
 20
174.87951096148331
 30
0.0
 11
147.96296226399451
 21
184.86572878723661
 31
0.0
  0
LINE
  5
15068
  8
AM_0
 10
149.46296226399451
 20
184.83954601310151
 30
0.0
 11
149.46296226399451
 21
172.37951096148331
 31
0.0
  0
LINE
  5
15069
  8
AM_0
 10
149.46296226399451
 20
174.87951096148331
 30
0.0
 11
147.96296226399451
 21
174.87951096148331
 31
0.0
  0
ARC
  5
1506A
  8
AM_0
 10
150.96296226399471
 20
172.37951096148299
 30
0.0
 40
1.5
 50
180.0
 51
270.0
  0
LINE
  5
1506D
  8
AM_0
 10
125.4629624019326
 20
226.47255958415269
 30
0.0
 11
125.4629624019323
 21
234.20798011184499
 31
0.0
  0
LINE
  5
1506E
  8
AM_0
 10
130.46296093694761
 20
206.3798853656327
 30
0.0
 11
134.4629610561569
 21
206.3798853656327
 31
0.0
  0
LINE
  5
1506F
  8
0
 10
132.87296105615701
 20
200.8800050139686
 30
0.0
 11
124.8729610561571
 21
200.8800050139686
 31
0.0
  0
LINE
  5
15070
  8
0
 10
134.4629610561569
 20
202.88000501396871
 30
0.0
 11
132.87296105615701
 21
202.88000501396871
 31
0.0
  0
ARC
  5
15072
  8
AM_0
 10
124.18799052580481
 20
225.35480197731971
 30
0.0
 40
0.9999999999999996
 50
198.56658080190309
 51
267.99999999999631
1001
GENIUS_GENODEF_13
1002
{
1000
HIER
1070
     0
1002
}
1002
{
1000
MANEDIT
1070
     0
1002
}
1002
{
1000
NOSEL
1070
     0
1002
}
1002
{
1000
BEHIND
1070
     0
1002
}
1002
{
1000
REACTOR
1002
}
1001
GENIUS_GENOBJ-N-FIL_13
1002
{
1000
OWNER
1000
GEN
1002
}
  0
ARC
  5
15073
  8
AM_0
 10
124.1639066214649
 20
225.42658601238699
 30
0.0
 40
0.9999999999999996
 50
92.000000000003695
 51
198.52714231446831
1001
GENIUS_GENODEF_13
1002
{
1000
HIER
1070
     0
1002
}
1002
{
1000
MANEDIT
1070
     0
1002
}
1002
{
1000
NOSEL
1070
     0
1002
}
1002
{
1000
BEHIND
1070
     0
1002
}
1002
{
1000
REACTOR
1002
}
1001
GENIUS_GENOBJ-N-FIL_13
1002
{
1000
OWNER
1000
GEN
1002
}
  0
ARC
  5
15074
  8
AM_0
 10
228.4629624019324
 20
260.37951097300981
 30
0.0
 40
110.9999999999999
 50
198.52714231446831
 51
198.56658080189609
  0
LINE
  5
15075
  8
AM_0
 10
124.129007124762
 20
226.42597683940639
 30
0.0
 11
130.46296093694761
 21
226.64716338045341
 31
0.0
  0
LINE
  5
15076
  8
AM_0
 10
124.1530910291025
 20
224.35541115030071
 30
0.0
 11
130.46296093694761
 21
224.13506563772589
 31
0.0
  0
ARC
  5
15077
  8
AM_0
 10
118.5750385940581
 20
255.4152183552462
 30
0.0
 40
0.9999999999999996
 50
92.000000000003695
 51
182.58663322877331
1001
GENIUS_GENODEF_13
1002
{
1000
HIER
1070
     0
1002
}
1002
{
1000
MANEDIT
1070
     0
1002
}
1002
{
1000
NOSEL
1070
     0
1002
}
1002
{
1000
BEHIND
1070
     0
1002
}
1002
{
1000
REACTOR
1002
}
1001
GENIUS_GENOBJ-N-FIL_13
1002
{
1000
OWNER
1000
GEN
1002
}
  0
ARC
  5
15078
  8
AM_0
 10
119.49460271566279
 20
245.34965444396229
 30
0.0
 40
0.9999999999999996
 50
187.853178088806
 51
268.0000000000029
1001
GENIUS_GENODEF_13
1002
{
1000
HIER
1070
     0
1002
}
1002
{
1000
MANEDIT
1070
     0
1002
}
1002
{
1000
NOSEL
1070
     0
1002
}
1002
{
1000
BEHIND
1070
     0
1002
}
1002
{
1000
REACTOR
1002
}
1001
GENIUS_GENOBJ-N-FIL_13
1002
{
1000
OWNER
1000
GEN
1002
}
  0
LINE
  5
15079
  8
AM_0
 10
121.31299270439349
 20
234.35290024705029
 30
0.0
 11
129.46326780449931
 21
234.06828636898541
 31
0.0
  0
LINE
  5
1507A
  8
AM_0
 10
121.2966579700708
 20
236.42169689605399
 30
0.0
 11
128.18200834381221
 21
236.6621386293254
 31
0.0
  0
LINE
  5
1507B
  8
AM_0
 10
119.4597032189601
 20
244.35026361694361
 30
0.0
 11
125.3456675559092
 21
244.1447212130962
 31
0.0
  0
ARC
  5
1507C
  8
AM_0
 10
121.3478922010962
 20
235.35229107406931
 30
0.0
 40
0.9999999999999996
 50
193.15111826064839
 51
268.0000000000029
1001
GENIUS_GENODEF_13
1002
{
1000
HIER
1070
     0
1002
}
1002
{
1000
MANEDIT
1070
     0
1002
}
1002
{
1000
NOSEL
1070
     0
1002
}
1002
{
1000
BEHIND
1070
     0
1002
}
1002
{
1000
REACTOR
1002
}
1001
GENIUS_GENOBJ-N-FIL_13
1002
{
1000
OWNER
1000
GEN
1002
}
  0
ARC
  5
1507D
  8
AM_0
 10
121.3315574667734
 20
235.4223060690347
 30
0.0
 40
0.9999999999999996
 50
92.000000000003695
 51
193.11367014329889
1001
GENIUS_GENODEF_13
1002
{
1000
HIER
1070
     0
1002
}
1002
{
1000
MANEDIT
1070
     0
1002
}
1002
{
1000
NOSEL
1070
     0
1002
}
1002
{
1000
BEHIND
1070
     0
1002
}
1002
{
1000
REACTOR
1002
}
1001
GENIUS_GENOBJ-N-FIL_13
1002
{
1000
OWNER
1000
GEN
1002
}
  0
ARC
  5
1507E
  8
AM_0
 10
228.4629624019324
 20
260.37951097300981
 30
0.0
 40
110.9999999999999
 50
193.11367014329889
 51
193.15111826064839
  0
LINE
  5
1507F
  8
AM_0
 10
119.45022106658659
 20
246.41795302691611
 30
0.0
 11
124.6689802325124
 21
246.60019611278261
 31
0.0
  0
LINE
  5
15080
  8
AM_0
 10
118.5432492758157
 20
254.34745349411119
 30
0.0
 11
123.3039826808216
 21
254.18120502026329
 31
0.0
  0
ARC
  5
15081
  8
AM_0
 10
228.4629624019324
 20
260.37951097300981
 30
0.0
 40
110.9999999999999
 50
187.81694783169451
 51
187.853178088806
  0
ARC
  5
15082
  8
AM_0
 10
119.4851205632893
 20
245.41856219989711
 30
0.0
 40
0.9999999999999996
 50
92.000000000003695
 51
187.816947831688
1001
GENIUS_GENODEF_13
1002
{
1000
HIER
1070
     0
1002
}
1002
{
1000
MANEDIT
1070
     0
1002
}
1002
{
1000
NOSEL
1070
     0
1002
}
1002
{
1000
BEHIND
1070
     0
1002
}
1002
{
1000
REACTOR
1002
}
1001
GENIUS_GENOBJ-N-FIL_13
1002
{
1000
OWNER
1000
GEN
1002
}
  0
ARC
  5
15083
  8
AM_0
 10
118.5781487725184
 20
255.34684432113011
 30
0.0
 40
0.9999999999999996
 50
182.62228408795289
 51
267.99999999999631
1001
GENIUS_GENODEF_13
1002
{
1000
HIER
1070
     0
1002
}
1002
{
1000
MANEDIT
1070
     0
1002
}
1002
{
1000
NOSEL
1070
     0
1002
}
1002
{
1000
BEHIND
1070
     0
1002
}
1002
{
1000
REACTOR
1002
}
1001
GENIUS_GENOBJ-N-FIL_13
1002
{
1000
OWNER
1000
GEN
1002
}
  0
ARC
  5
15084
  8
AM_0
 10
228.4629624019324
 20
260.37951097300981
 30
0.0
 40
110.9999999999999
 50
182.58663322877331
 51
182.62228408795289
  0
LINE
  5
15085
  8
AM_0
 10
118.54013909735519
 20
256.41460918226528
 30
0.0
 11
123.09129772512929
 21
256.57353914362631
 31
0.0
  0
LINE
  5
15086
  8
AM_0
 10
118.54013909735519
 20
264.34441276375389
 30
0.0
 11
123.09129772512929
 21
264.18548280239332
 31
0.0
  0
LINE
  5
15087
  8
AM_0
 10
118.5432492758157
 20
266.41156845190818
 30
0.0
 11
123.3039826808216
 21
266.57781692575611
 31
0.0
  0
ARC
  5
15088
  8
AM_0
 10
118.5781487725184
 20
265.41217762488913
 30
0.0
 40
0.9999999999999996
 50
92.000000000003695
 51
177.37771591204699
1001
GENIUS_GENODEF_13
1002
{
1000
HIER
1070
     0
1002
}
1002
{
1000
MANEDIT
1070
     0
1002
}
1002
{
1000
NOSEL
1070
     0
1002
}
1002
{
1000
BEHIND
1070
     0
1002
}
1002
{
1000
REACTOR
1002
}
1001
GENIUS_GENOBJ-N-FIL_13
1002
{
1000
OWNER
1000
GEN
1002
}
  0
ARC
  5
15089
  8
AM_0
 10
228.4629624019324
 20
260.37951097300981
 30
0.0
 40
110.9999999999999
 50
177.37771591204699
 51
177.41336677122669
  0
ARC
  5
1508A
  8
AM_0
 10
118.5750385940581
 20
265.34380359077278
 30
0.0
 40
0.9999999999999996
 50
177.41336677122669
 51
267.99999999999631
1001
GENIUS_GENODEF_13
1002
{
1000
HIER
1070
     0
1002
}
1002
{
1000
MANEDIT
1070
     0
1002
}
1002
{
1000
NOSEL
1070
     0
1002
}
1002
{
1000
BEHIND
1070
     0
1002
}
1002
{
1000
REACTOR
1002
}
1001
GENIUS_GENOBJ-N-FIL_13
1002
{
1000
OWNER
1000
GEN
1002
}
  0
LINE
  5
1508C
  8
AM_0
 10
119.45022106658659
 20
274.34106891910312
 30
0.0
 11
124.6689802325124
 21
274.15882583323707
 31
0.0
  0
LINE
  5
1508D
  8
AM_0
 10
119.4597032189601
 20
276.40875832907602
 30
0.0
 11
125.3456675559092
 21
276.6143007329232
 31
0.0
  0
ARC
  5
1508E
  8
AM_0
 10
119.4851205632893
 20
275.34045974612229
 30
0.0
 40
0.9999999999999996
 50
172.183052168312
 51
267.99999999999631
1001
GENIUS_GENODEF_13
1002
{
1000
HIER
1070
     0
1002
}
1002
{
1000
MANEDIT
1070
     0
1002
}
1002
{
1000
NOSEL
1070
     0
1002
}
1002
{
1000
BEHIND
1070
     0
1002
}
1002
{
1000
REACTOR
1002
}
1001
GENIUS_GENOBJ-N-FIL_13
1002
{
1000
OWNER
1000
GEN
1002
}
  0
ARC
  5
1508F
  8
AM_0
 10
228.4629624019324
 20
260.37951097300981
 30
0.0
 40
110.9999999999999
 50
172.1468219111938
 51
172.183052168312
  0
ARC
  5
15090
  8
AM_0
 10
119.49460271566279
 20
275.4093675020568
 30
0.0
 40
0.9999999999999996
 50
91.999999999997215
 51
172.14682191120039
1001
GENIUS_GENODEF_13
1002
{
1000
HIER
1070
     0
1002
}
1002
{
1000
MANEDIT
1070
     0
1002
}
1002
{
1000
NOSEL
1070
     0
1002
}
1002
{
1000
BEHIND
1070
     0
1002
}
1002
{
1000
REACTOR
1002
}
1001
GENIUS_GENOBJ-N-FIL_13
1002
{
1000
OWNER
1000
GEN
1002
}
  0
LINE
  5
15098
  8
ﾁｭｳｼﾝｾﾝ1
 10
229.42154972863551
 20
168.87951223620269
 30
0.0
 11
255.4215497286352
 21
168.87951223620269
 31
0.0
1001
GENIUS_GENODEF_13
1002
{
1000
HIER
1070
     0
1002
}
1002
{
1000
MANEDIT
1070
     0
1002
}
1002
{
1000
NOSEL
1070
     0
1002
}
1002
{
1000
BEHIND
1070
     0
1002
}
1002
{
1000
OTHER
1070
     0
1002
}
1002
{
1000
REACTOR
1002
}
1001
GENIUS_GENOBJ-N-CEN_13
1002
{
1000
OWNER
1000
GEN
1002
}
  0
LINE
  5
15099
  8
0
 10
236.3582639642166
 20
157.33713847930051
 30
0.0
 11
249.4629624556313
 21
156.8795123614974
 31
0.0
  0
LINE
  5
1509D
  8
0
 10
204.46296314231861
 20
183.88010961329499
 30
0.0
 11
230.56766087978869
 21
182.96851348095299
 31
0.0
  0
LINE
  5
1509E
  8
AM_0
 10
201.96582768455369
 20
170.87951096148291
 30
0.0
 11
196.76676226399471
 21
167.87951096148291
 31
0.0
  0
LINE
  5
1509F
  8
AM_0
 10
210.96296226399451
 20
183.6531246422704
 30
0.0
 11
210.96296226399451
 21
174.87951096148291
 31
0.0
  0
LINE
  5
150A0
  8
AM_0
 10
212.4629622639948
 20
175.87951096148291
 30
0.0
 11
212.46296226399471
 21
183.60074348803269
 31
0.0
  0
LINE
  5
150A1
  8
AM_0
 10
209.46296226399451
 20
183.70550579650791
 30
0.0
 11
209.46296226399451
 21
172.37951096148291
 31
0.0
  0
LINE
  5
150A2
  8
AM_0
 10
210.9629622639948
 20
175.87951096148291
 30
0.0
 11
212.4629622639948
 21
175.87951096148291
 31
0.0
  0
LINE
  5
150A3
  8
AM_0
 10
210.96296226399451
 20
174.87951096148291
 30
0.0
 11
209.46296226399451
 21
174.87951096148291
 31
0.0
  0
ARC
  5
150A4
  8
AM_0
 10
207.9629622639948
 20
172.37951096148299
 30
0.0
 40
1.5
 50
270.0
 51
0.0
  0
LINE
  5
150A5
  8
0
 10
233.46296238968139
 20
179.970341008464
 30
0.0
 11
233.46296244576089
 21
160.33531095208849
 31
0.0
  0
ARC
  5
150A7
  8
0
 10
236.46296244576089
 20
160.3353109606569
 30
0.0
 40
3.0
 50
180.00000016364561
 51
268.0000001636455
1001
GENIUS_GENODEF_13
1002
{
1000
HIER
1070
     0
1002
}
1002
{
1000
MANEDIT
1070
     0
1002
}
1002
{
1000
NOSEL
1070
     0
1002
}
1002
{
1000
BEHIND
1070
     0
1002
}
1002
{
1000
OTHER
1070
     0
1002
}
1002
{
1000
REACTOR
1002
}
1001
GENIUS_GENOBJ-N-FIL_13
1002
{
1000
OWNER
1000
GEN
1002
}
  0
ARC
  5
150AA
  8
0
 10
230.46296238968139
 20
179.97034099989571
 30
0.0
 40
3.0
 50
0.0000001636455941
 51
87.999999999999517
1001
GENIUS_GENODEF_13
1002
{
1000
HIER
1070
     0
1002
}
1002
{
1000
MANEDIT
1070
     0
1002
}
1002
{
1000
NOSEL
1070
     0
1002
}
1002
{
1000
BEHIND
1070
     0
1002
}
1002
{
1000
OTHER
1070
     0
1002
}
1002
{
1000
REACTOR
1002
}
1001
GENIUS_GENOBJ-N-FIL_13
1002
{
1000
OWNER
1000
GEN
1002
}
  0
LINE
  5
150B0
  8
ｶｸﾚｾﾝ2
 10
228.46296385757421
 20
276.87913760078447
 30
0.0
 11
228.46296385757421
 21
210.87988528384051
 31
0.0
  0
LINE
  5
150B7
  8
0
 10
373.54530438736953
 20
178.9670516566249
 30
0.0
 11
368.15310160801891
 21
190.87332125464479
 31
0.0
  0
CIRCLE
  5
150B8
  8
ｷｲﾛ
 10
375.89604654852093
 20
194.37951144231249
 30
0.0
 40
4.0
  0
ARC
  5
150B9
  8
0
 10
372.73339163947122
 20
192.87951144231249
 30
0.0
 40
5.0
 50
204.36518630421739
 51
270.0
1001
GENIUS_GENODEF_13
1002
{
1000
HIER
1070
     0
1002
}
1002
{
1000
MANEDIT
1070
     0
1002
}
1002
{
1000
NOSEL
1070
     0
1002
}
1002
{
1000
BEHIND
1070
     0
1002
}
1002
{
1000
OTHER
1070
     0
1002
}
1002
{
1000
REACTOR
1002
}
1001
GENIUS_GENOBJ-N-FIL_13
1002
{
1000
OWNER
1000
GEN
1002
}
  0
ARC
  5
150BA
  8
0
 10
375.89604514781229
 20
194.380004967113
 30
0.0
 40
12.50000031292438
 50
180.0
 51
204.36518630421739
  0
LINE
  5
150C0
  8
0
 10
375.96480318654108
 20
163.9288993246131
 30
0.0
 11
364.50936360578828
 21
189.22311721541141
 31
0.0
  0
LINE
  5
150C1
  8
ﾁｭｳｼﾝｾﾝ1
 10
386.8960171932323
 20
155.87951144231269
 30
0.0
 11
386.8960171932323
 21
181.87951144231269
 31
0.0
1001
GENIUS_GENODEF_13
1002
{
1000
HIER
1070
     0
1002
}
1002
{
1000
MANEDIT
1070
     0
1002
}
1002
{
1000
NOSEL
1070
     0
1002
}
1002
{
1000
BEHIND
1070
     0
1002
}
1002
{
1000
OTHER
1070
     0
1002
}
1002
{
1000
REACTOR
1002
}
1001
GENIUS_GENOBJ-N-CEN_13
1002
{
1000
OWNER
1000
GEN
1002
}
  0
ARC
  5
150C2
  8
0
 10
386.8960171932323
 20
168.87951144231249
 30
0.0
 40
10.0
 50
348.46304096718188
 51
125.902145337034
  0
CIRCLE
  5
150C3
  8
0
 10
386.8960171932323
 20
168.87951144231269
 30
0.0
 40
4.5
  0
LINE
  5
150C4
  8
ﾁｭｳｼﾝｾﾝ1
 10
373.8960171932323
 20
168.87951144231269
 30
0.0
 11
399.89601719323241
 21
168.87951144231269
 31
0.0
1001
GENIUS_GENODEF_13
1002
{
1000
HIER
1070
     0
1002
}
1002
{
1000
MANEDIT
1070
     0
1002
}
1002
{
1000
NOSEL
1070
     0
1002
}
1002
{
1000
BEHIND
1070
     0
1002
}
1002
{
1000
OTHER
1070
     0
1002
}
1002
{
1000
REACTOR
1002
}
1001
GENIUS_GENOBJ-N-CEN_13
1002
{
1000
OWNER
1000
GEN
1002
}
  0
ARC
  5
150C5
  8
0
 10
386.8960171932323
 20
168.87951144231289
 30
0.0
 40
12.0
 50
204.36518630421739
 51
270.0
  0
ARC
  5
150C6
  8
0
 10
401.59295564993141
 20
165.87951144231289
 30
0.0
 40
5.0
 50
168.4630409671818
 51
270.0
1001
GENIUS_GENODEF_13
1002
{
1000
HIER
1070
     0
1002
}
1002
{
1000
MANEDIT
1070
     0
1002
}
1002
{
1000
NOSEL
1070
     0
1002
}
1002
{
1000
BEHIND
1070
     0
1002
}
1002
{
1000
OTHER
1070
     0
1002
}
1002
{
1000
REACTOR
1002
}
1001
GENIUS_GENOBJ-N-FIL_13
1002
{
1000
OWNER
1000
GEN
1002
}
  0
ARC
  5
150C7
  8
0
 10
378.09997689015739
 20
181.02980670566629
 30
0.0
 40
5.0
 50
204.36518630421739
 51
305.90214533703409
1001
GENIUS_GENOBJ-N-FIL_13
1002
{
1000
OWNER
1000
GEN
1002
}
1001
GENIUS_GENODEF_13
1002
{
1000
HIER
1070
     0
1002
}
1002
{
1000
MANEDIT
1070
     0
1002
}
1002
{
1000
NOSEL
1070
     0
1002
}
1002
{
1000
BEHIND
1070
     0
1002
}
1002
{
1000
OTHER
1070
     0
1002
}
1002
{
1000
REACTOR
1002
}
  0
ARC
  5
150C8
  8
0
 10
395.1102154779087
 20
177.62747958011579
 30
0.0
 40
2.0
 50
226.80240366557771
 51
294.46591933285879
1001
GENIUS_GENODEF_13
1002
{
1000
HIER
1070
     0
1002
}
1002
{
1000
MANEDIT
1070
     0
1002
}
1002
{
1000
NOSEL
1070
     0
1002
}
1002
{
1000
BEHIND
1070
     0
1002
}
1002
{
1000
OTHER
1070
     0
1002
}
1002
{
1000
REACTOR
1002
}
1001
GENIUS_GENOBJ-N-FIL_13
1002
{
1000
OWNER
1000
GEN
1002
}
  0
ARC
  5
150C9
  8
0
 10
398.7848083796855
 20
170.50943295113211
 30
0.0
 40
2.0
 50
114.2518507640401
 51
187.80643199356041
1001
GENIUS_GENODEF_13
1002
{
1000
HIER
1070
     0
1002
}
1002
{
1000
MANEDIT
1070
     0
1002
}
1002
{
1000
NOSEL
1070
     0
1002
}
1002
{
1000
BEHIND
1070
     0
1002
}
1002
{
1000
OTHER
1070
     0
1002
}
1002
{
1000
REACTOR
1002
}
1001
GENIUS_GENOBJ-N-FIL_13
1002
{
1000
OWNER
1000
GEN
1002
}
  0
LINE
  5
150CC
  8
0
 10
371.39604483488802
 20
221.87951144231249
 30
0.0
 11
369.39604483488802
 21
221.87951144231249
 31
0.0
  0
LINE
  5
150CD
  8
0
 10
371.39604483488802
 20
225.87951144231249
 30
0.0
 11
369.39604483488802
 21
225.87951144231249
 31
0.0
  0
ARC
  5
150CE
  8
0
 10
375.89604514781229
 20
194.380004967113
 30
0.0
 40
8.5000003129243851
 50
180.0
 51
204.36518630421739
  0
ARC
  5
150CF
  8
0
 10
369.39604483488802
 20
219.87951144231249
 30
0.0
 40
2.0
 50
90.0
 51
180.0
1001
GENIUS_GENODEF_13
1002
{
1000
HIER
1070
     0
1002
}
1002
{
1000
MANEDIT
1070
     0
1002
}
1002
{
1000
NOSEL
1070
     0
1002
}
1002
{
1000
BEHIND
1070
     0
1002
}
1002
{
1000
OTHER
1070
     0
1002
}
1002
{
1000
REACTOR
1002
}
1001
GENIUS_GENOBJ-N-FIL_13
1002
{
1000
OWNER
1000
GEN
1002
}
  0
ARC
  5
150D0
  8
0
 10
369.39604483488802
 20
227.87951144231249
 30
0.0
 40
2.0
 50
180.0
 51
270.0
1001
GENIUS_GENOBJ-N-FIL_13
1002
{
1000
OWNER
1000
GEN
1002
}
1001
GENIUS_GENODEF_13
1002
{
1000
HIER
1070
     0
1002
}
1002
{
1000
MANEDIT
1070
     0
1002
}
1002
{
1000
NOSEL
1070
     0
1002
}
1002
{
1000
BEHIND
1070
     0
1002
}
1002
{
1000
OTHER
1070
     0
1002
}
1002
{
1000
REACTOR
1002
}
  0
CIRCLE
  5
150D1
  8
0
 10
375.89604654852093
 20
194.37951144231249
 30
0.0
 40
3.25
  0
ARC
  5
150D2
  8
0
 10
371.39604483488802
 20
223.87951144231249
 30
0.0
 40
2.0
 50
270.0
 51
90.0
  0
LINE
  5
150D3
  8
0
 10
371.39604483488802
 20
261.87951144231249
 30
0.0
 11
369.39604483488802
 21
261.87951144231249
 31
0.0
  0
LINE
  5
150D4
  8
0
 10
371.39604483488802
 20
265.87951144231249
 30
0.0
 11
369.39604483488802
 21
265.87951144231249
 31
0.0
  0
ARC
  5
150D5
  8
0
 10
369.39604483488802
 20
267.87951144231249
 30
0.0
 40
2.0
 50
180.0
 51
270.0
1001
GENIUS_GENODEF_13
1002
{
1000
HIER
1070
     0
1002
}
1002
{
1000
MANEDIT
1070
     0
1002
}
1002
{
1000
NOSEL
1070
     0
1002
}
1002
{
1000
BEHIND
1070
     0
1002
}
1002
{
1000
OTHER
1070
     0
1002
}
1002
{
1000
REACTOR
1002
}
1001
GENIUS_GENOBJ-N-FIL_13
1002
{
1000
OWNER
1000
GEN
1002
}
  0
ARC
  5
150D6
  8
0
 10
369.39604483488802
 20
259.87951144231249
 30
0.0
 40
2.0
 50
90.0
 51
180.0
1001
GENIUS_GENOBJ-N-FIL_13
1002
{
1000
OWNER
1000
GEN
1002
}
1001
GENIUS_GENODEF_13
1002
{
1000
HIER
1070
     0
1002
}
1002
{
1000
MANEDIT
1070
     0
1002
}
1002
{
1000
NOSEL
1070
     0
1002
}
1002
{
1000
BEHIND
1070
     0
1002
}
1002
{
1000
OTHER
1070
     0
1002
}
1002
{
1000
REACTOR
1002
}
  0
ARC
  5
150D7
  8
0
 10
371.39604483488802
 20
263.87951144231249
 30
0.0
 40
2.0
 50
270.0
 51
90.0
  0
LINE
  5
150D8
  8
AM_0
 10
204.46296314231861
 20
303.87891327132991
 30
0.0
 11
134.4629610561569
 21
302.65709317784911
 31
0.0
  0
ARC
  5
150DA
  8
AM_0
 10
179.46296240193229
 20
260.37951097300981
 30
0.0
 40
56.499999999999972
 50
55.1361620456954
 51
124.8638379543046
  0
LINE
  5
150DF
  8
AM_0
 10
175.49806061118821
 20
321.30233427758662
 30
0.0
 11
175.65699057254889
 21
316.75117564981281
 31
0.0
  0
LINE
  5
150E0
  8
AM_0
 10
173.43090492303389
 20
321.29922409912632
 30
0.0
 11
173.26465644918579
 21
316.5384906941207
 31
0.0
  0
ARC
  5
150E1
  8
AM_0
 10
164.50201362881961
 20
320.35735281165267
 30
0.0
 40
0.9999999999999996
 50
1.9999999999971321
 51
97.816947831694847
1001
GENIUS_GENODEF_13
1002
{
1000
HIER
1070
     0
1002
}
1002
{
1000
MANEDIT
1070
     0
1002
}
1002
{
1000
NOSEL
1070
     0
1002
}
1002
{
1000
BEHIND
1070
     0
1002
}
1002
{
1000
REACTOR
1002
}
1001
GENIUS_GENOBJ-N-FIL_13
1002
{
1000
OWNER
1000
GEN
1002
}
  0
ARC
  5
150E2
  8
AM_0
 10
164.43310587288511
 20
320.34787065927941
 30
0.0
 40
0.9999999999999996
 50
97.853178088805706
 51
178.00000000000281
1001
GENIUS_GENODEF_13
1002
{
1000
HIER
1070
     0
1002
}
1002
{
1000
MANEDIT
1070
     0
1002
}
1002
{
1000
NOSEL
1070
     0
1002
}
1002
{
1000
BEHIND
1070
     0
1002
}
1002
{
1000
REACTOR
1002
}
1001
GENIUS_GENOBJ-N-FIL_13
1002
{
1000
OWNER
1000
GEN
1002
}
  0
LINE
  5
150E3
  8
AM_0
 10
132.87296105615681
 20
284.87901795626391
 30
0.0
 11
132.87296105615701
 21
301.87901795626419
 31
0.0
  0
LINE
  5
150E4
  8
0
 10
124.8729610561571
 20
299.87901795626419
 30
0.0
 11
124.8729610561571
 21
286.87901795626419
 31
0.0
  0
LINE
  5
150E5
  8
AM_0
 10
130.46296093694761
 20
281.37913760078447
 30
0.0
 11
134.4629610561569
 21
281.37913760078447
 31
0.0
  0
LINE
  5
150E6
  8
0
 10
124.8729610561571
 20
286.87901795626419
 30
0.0
 11
132.87296105615701
 21
286.87901795626419
 31
0.0
  0
LINE
  5
150E7
  8
AM_0
 10
121.2966579700708
 20
284.33732504996539
 30
0.0
 11
128.18200834381221
 21
284.096883316694
 31
0.0
  0
LINE
  5
150E8
  8
AM_0
 10
121.31299270439349
 20
286.40612169896912
 30
0.0
 11
129.46326780449931
 21
286.69073557703422
 31
0.0
  0
ARC
  5
150E9
  8
AM_0
 10
121.3478922010962
 20
285.40673087194978
 30
0.0
 40
0.9999999999999996
 50
91.999999999997215
 51
166.84888173935161
1001
GENIUS_GENODEF_13
1002
{
1000
HIER
1070
     0
1002
}
1002
{
1000
MANEDIT
1070
     0
1002
}
1002
{
1000
NOSEL
1070
     0
1002
}
1002
{
1000
BEHIND
1070
     0
1002
}
1002
{
1000
REACTOR
1002
}
1001
GENIUS_GENOBJ-N-FIL_13
1002
{
1000
OWNER
1000
GEN
1002
}
  0
ARC
  5
150EA
  8
AM_0
 10
121.3315574667734
 20
285.33671587698439
 30
0.0
 40
0.9999999999999996
 50
166.8863298567012
 51
267.99999999999631
1001
GENIUS_GENODEF_13
1002
{
1000
HIER
1070
     0
1002
}
1002
{
1000
MANEDIT
1070
     0
1002
}
1002
{
1000
NOSEL
1070
     0
1002
}
1002
{
1000
BEHIND
1070
     0
1002
}
1002
{
1000
REACTOR
1002
}
1001
GENIUS_GENOBJ-N-FIL_13
1002
{
1000
OWNER
1000
GEN
1002
}
  0
ARC
  5
150EB
  8
AM_0
 10
228.4629624019324
 20
260.37951097300981
 30
0.0
 40
110.9999999999999
 50
166.84888173935161
 51
166.8863298567012
  0
LINE
  5
150EC
  8
AM_0
 10
125.4629624019323
 20
286.87901795626419
 30
0.0
 11
125.4629624019323
 21
286.55104183417461
 31
0.0
  0
LINE
  5
150ED
  8
AM_0
 10
124.1530910291025
 20
296.40361079571869
 30
0.0
 11
124.872961056157
 21
296.42874921099741
 31
0.0
  0
LINE
  5
150EE
  8
AM_0
 10
124.129007124762
 20
294.33304510661299
 30
0.0
 11
124.8729610561571
 21
294.30706566286221
 31
0.0
  0
ARC
  5
150EF
  8
AM_0
 10
124.18799052580481
 20
295.40421996869929
 30
0.0
 40
0.9999999999999996
 50
92.000000000003695
 51
161.43341919809691
1001
GENIUS_GENODEF_13
1002
{
1000
HIER
1070
     0
1002
}
1002
{
1000
MANEDIT
1070
     0
1002
}
1002
{
1000
NOSEL
1070
     0
1002
}
1002
{
1000
BEHIND
1070
     0
1002
}
1002
{
1000
REACTOR
1002
}
1001
GENIUS_GENOBJ-N-FIL_13
1002
{
1000
OWNER
1000
GEN
1002
}
  0
ARC
  5
150F0
  8
AM_0
 10
124.1639066214649
 20
295.33243593363193
 30
0.0
 40
0.9999999999999996
 50
161.47285768553169
 51
267.99999999999631
1001
GENIUS_GENODEF_13
1002
{
1000
HIER
1070
     0
1002
}
1002
{
1000
MANEDIT
1070
     0
1002
}
1002
{
1000
NOSEL
1070
     0
1002
}
1002
{
1000
BEHIND
1070
     0
1002
}
1002
{
1000
REACTOR
1002
}
1001
GENIUS_GENOBJ-N-FIL_13
1002
{
1000
OWNER
1000
GEN
1002
}
  0
ARC
  5
150F1
  8
AM_0
 10
228.4629624019324
 20
260.37951097300981
 30
0.0
 40
110.9999999999999
 50
161.43341919810359
 51
161.47285768553169
  0
LINE
  5
150F2
  8
0
 10
134.4629610561569
 20
284.87901795626419
 30
0.0
 11
132.87296105615701
 21
284.87901795626419
 31
0.0
  0
LINE
  5
150F3
  8
0
 10
132.87296105615701
 20
299.87901795626419
 30
0.0
 11
124.8729610561571
 21
299.87901795626419
 31
0.0
  0
LINE
  5
150F4
  8
AM_0
 10
145.50942826832909
 20
315.71346625017998
 30
0.0
 11
145.8350690836123
 21
306.3883333844708
 31
0.0
  0
LINE
  5
150F5
  8
AM_0
 10
143.43886257922321
 20
315.68938234583982
 30
0.0
 11
143.113754707015
 21
306.37951097300981
 31
0.0
  0
LINE
  5
150F6
  8
AM_0
 10
138.46296240193229
 20
306.37951097300981
 30
0.0
 11
146.02271718752041
 21
306.37951097300981
 31
0.0
  0
LINE
  5
150F7
  8
0
 10
134.4629610561569
 20
301.87901795626419
 30
0.0
 11
132.87296105615701
 21
301.87901795626419
 31
0.0
  0
ARC
  5
150F8
  8
AM_0
 10
138.46296240193229
 20
301.37951097300981
 30
0.0
 40
4.9999999999999982
 50
90.0
 51
174.26650751163271
1001
GENIUS_GENOBJ-N-CEN_13
1002
{
1000
OWNER
1000
GEN
1002
}
1001
GENIUS_GENODEF_13
1002
{
1000
HIER
1070
     0
1002
}
1002
{
1000
MANEDIT
1070
     0
1002
}
1002
{
1000
NOSEL
1070
     0
1002
}
1002
{
1000
BEHIND
1070
     0
1002
}
1002
{
1000
REACTOR
1002
}
1001
GENIUS_GENOBJ-N-FIL_13
1002
{
1000
OWNER
1000
GEN
1002
}
  0
ARC
  5
150F9
  8
AM_0
 10
146.02271718752041
 20
308.37951097300959
 30
0.0
 40
1.9999999999999989
 50
270.0
 51
304.86383795430459
1001
GENIUS_GENOBJ-N-FIL_13
1002
{
1000
OWNER
1000
GEN
1002
}
1001
GENIUS_GENODEF_13
1002
{
1000
HIER
1070
     0
1002
}
1002
{
1000
MANEDIT
1070
     0
1002
}
1002
{
1000
NOSEL
1070
     0
1002
}
1002
{
1000
BEHIND
1070
     0
1002
}
1002
{
1000
OTHER
1070
     0
1002
}
1002
{
1000
REACTOR
1002
}
  0
ARC
  5
150FA
  8
AM_0
 10
144.43825340624269
 20
315.65448284913703
 30
0.0
 40
0.9999999999999996
 50
108.5665808019029
 51
177.9999999999898
1001
GENIUS_GENODEF_13
1002
{
1000
HIER
1070
     0
1002
}
1002
{
1000
MANEDIT
1070
     0
1002
}
1002
{
1000
NOSEL
1070
     0
1002
}
1002
{
1000
BEHIND
1070
     0
1002
}
1002
{
1000
REACTOR
1002
}
1001
GENIUS_GENOBJ-N-FIL_13
1002
{
1000
OWNER
1000
GEN
1002
}
  0
ARC
  5
150FB
  8
AM_0
 10
179.46296240193229
 20
211.37951097300979
 30
0.0
 40
110.9999999999999
 50
108.5271423144743
 51
108.56658080189671
  0
ARC
  5
150FC
  8
AM_0
 10
144.51003744131
 20
315.67856675347701
 30
0.0
 40
0.9999999999999996
 50
2.0000000000036491
 51
108.5271423144743
1001
GENIUS_GENODEF_13
1002
{
1000
HIER
1070
     0
1002
}
1002
{
1000
MANEDIT
1070
     0
1002
}
1002
{
1000
NOSEL
1070
     0
1002
}
1002
{
1000
BEHIND
1070
     0
1002
}
1002
{
1000
REACTOR
1002
}
1001
GENIUS_GENOBJ-N-FIL_13
1002
{
1000
OWNER
1000
GEN
1002
}
  0
LINE
  5
150FD
  8
AM_0
 10
155.5051483249766
 20
318.54581540487129
 30
0.0
 11
155.7455900582479
 21
311.66046503112977
 31
0.0
  0
LINE
  5
150FE
  8
AM_0
 10
153.4363516759731
 20
318.52948067054848
 30
0.0
 11
153.15173779790771
 21
310.37920557044271
 31
0.0
  0
ARC
  5
150FF
  8
AM_0
 10
179.46296240193229
 20
211.37951097300979
 30
0.0
 40
110.9999999999999
 50
103.11367014329809
 51
103.15111826065571
  0
ARC
  5
15100
  8
AM_0
 10
154.4357425029921
 20
318.4945811738462
 30
0.0
 40
0.9999999999999996
 50
103.15111826065571
 51
178.00000000000281
1001
GENIUS_GENODEF_13
1002
{
1000
HIER
1070
     0
1002
}
1002
{
1000
MANEDIT
1070
     0
1002
}
1002
{
1000
NOSEL
1070
     0
1002
}
1002
{
1000
BEHIND
1070
     0
1002
}
1002
{
1000
REACTOR
1002
}
1001
GENIUS_GENOBJ-N-FIL_13
1002
{
1000
OWNER
1000
GEN
1002
}
  0
ARC
  5
15101
  8
AM_0
 10
154.5057574979576
 20
318.51091590816861
 30
0.0
 40
0.9999999999999996
 50
2.0000000000036491
 51
103.11367014329809
1001
GENIUS_GENODEF_13
1002
{
1000
HIER
1070
     0
1002
}
1002
{
1000
MANEDIT
1070
     0
1002
}
1002
{
1000
NOSEL
1070
     0
1002
}
1002
{
1000
BEHIND
1070
     0
1002
}
1002
{
1000
REACTOR
1002
}
1001
GENIUS_GENOBJ-N-FIL_13
1002
{
1000
OWNER
1000
GEN
1002
}
  0
LINE
  5
15102
  8
AM_0
 10
163.43371504586611
 20
320.38277015598192
 30
0.0
 11
163.22817264201859
 21
314.49680581903272
 31
0.0
  0
LINE
  5
15103
  8
AM_0
 10
165.50140445583881
 20
320.39225230835541
 30
0.0
 11
165.6836475417052
 21
315.17349314242949
 31
0.0
  0
ARC
  5
15104
  8
AM_0
 10
179.46296240193229
 20
211.37951097300979
 30
0.0
 40
110.9999999999999
 50
97.816947831694847
 51
97.853178088805706
  0
ARC
  5
15105
  8
AM_0
 10
174.43029575005289
 20
321.2643246024237
 30
0.0
 40
0.9999999999999996
 50
92.622284087952934
 51
177.99999999999631
1001
GENIUS_GENODEF_13
1002
{
1000
HIER
1070
     0
1002
}
1002
{
1000
MANEDIT
1070
     0
1002
}
1002
{
1000
NOSEL
1070
     0
1002
}
1002
{
1000
BEHIND
1070
     0
1002
}
1002
{
1000
REACTOR
1002
}
1001
GENIUS_GENOBJ-N-FIL_13
1002
{
1000
OWNER
1000
GEN
1002
}
  0
ARC
  5
15106
  8
AM_0
 10
174.49866978416901
 20
321.26743478088417
 30
0.0
 40
0.9999999999999996
 50
2.0000000000036491
 51
92.586633228773294
1001
GENIUS_GENODEF_13
1002
{
1000
HIER
1070
     0
1002
}
1002
{
1000
MANEDIT
1070
     0
1002
}
1002
{
1000
NOSEL
1070
     0
1002
}
1002
{
1000
BEHIND
1070
     0
1002
}
1002
{
1000
REACTOR
1002
}
1001
GENIUS_GENOBJ-N-FIL_13
1002
{
1000
OWNER
1000
GEN
1002
}
  0
LINE
  5
1510A
  8
ﾁｭｳｼﾝｾﾝ1
 10
229.42154972863551
 20
318.87951065165299
 30
0.0
 11
255.4215497286352
 21
318.87951065165299
 31
0.0
1001
GENIUS_GENODEF_13
1002
{
1000
HIER
1070
     0
1002
}
1002
{
1000
MANEDIT
1070
     0
1002
}
1002
{
1000
NOSEL
1070
     0
1002
}
1002
{
1000
BEHIND
1070
     0
1002
}
1002
{
1000
OTHER
1070
     0
1002
}
1002
{
1000
REACTOR
1002
}
1001
GENIUS_GENOBJ-N-CEN_13
1002
{
1000
OWNER
1000
GEN
1002
}
  0
LINE
  5
1510B
  8
0
 10
236.3582639642166
 20
330.42188440532459
 30
0.0
 11
249.4629624556313
 21
330.87951052312781
 31
0.0
  0
LINE
  5
1510E
  8
0
 10
233.46296238968139
 20
307.78868187616092
 30
0.0
 11
233.46296244576089
 21
327.42371193253632
 31
0.0
  0
LINE
  5
15110
  8
AM_0
 10
183.42786419267671
 20
321.30233427758662
 30
0.0
 11
183.26893423131591
 21
316.75117564981281
 31
0.0
  0
LINE
  5
15111
  8
AM_0
 10
185.49501988083091
 20
321.29922409912632
 30
0.0
 11
185.6612683546789
 21
316.5384906941207
 31
0.0
  0
ARC
  5
15112
  8
AM_0
 10
194.49281893097961
 20
320.34787065927941
 30
0.0
 40
0.9999999999999996
 50
1.9999999999971321
 51
82.146821911194266
1001
GENIUS_GENODEF_13
1002
{
1000
HIER
1070
     0
1002
}
1002
{
1000
MANEDIT
1070
     0
1002
}
1002
{
1000
NOSEL
1070
     0
1002
}
1002
{
1000
BEHIND
1070
     0
1002
}
1002
{
1000
REACTOR
1002
}
1001
GENIUS_GENOBJ-N-FIL_13
1002
{
1000
OWNER
1000
GEN
1002
}
  0
ARC
  5
15113
  8
AM_0
 10
194.42391117504519
 20
320.35735281165267
 30
0.0
 40
0.9999999999999996
 50
82.183052168305124
 51
178.00000000000281
1001
GENIUS_GENODEF_13
1002
{
1000
HIER
1070
     0
1002
}
1002
{
1000
MANEDIT
1070
     0
1002
}
1002
{
1000
NOSEL
1070
     0
1002
}
1002
{
1000
BEHIND
1070
     0
1002
}
1002
{
1000
REACTOR
1002
}
1001
GENIUS_GENOBJ-N-FIL_13
1002
{
1000
OWNER
1000
GEN
1002
}
  0
LINE
  5
15114
  8
0
 10
204.46296314231861
 20
303.87891327132991
 30
0.0
 11
230.56766087978869
 21
304.79050940367222
 31
0.0
  0
LINE
  5
15115
  8
AM_0
 10
212.90320761634439
 20
306.37951097300981
 30
0.0
 11
220.46296240193249
 21
306.37951097300981
 31
0.0
  0
ARC
  5
15116
  8
AM_0
 10
214.4158873625548
 20
315.67856675347701
 30
0.0
 40
0.9999999999999996
 50
71.472857685525653
 51
177.99999999999631
1001
GENIUS_GENODEF_13
1002
{
1000
HIER
1070
     0
1002
}
1002
{
1000
MANEDIT
1070
     0
1002
}
1002
{
1000
NOSEL
1070
     0
1002
}
1002
{
1000
BEHIND
1070
     0
1002
}
1002
{
1000
REACTOR
1002
}
1001
GENIUS_GENOBJ-N-FIL_13
1002
{
1000
OWNER
1000
GEN
1002
}
  0
LINE
  5
15117
  8
AM_0
 10
193.42452034802599
 20
320.39225230835541
 30
0.0
 11
193.2422772621596
 21
315.17349314242949
 31
0.0
  0
LINE
  5
15118
  8
AM_0
 10
195.49220975799869
 20
320.38277015598192
 30
0.0
 11
195.69775216184601
 21
314.49680581903272
 31
0.0
  0
LINE
  5
15119
  8
AM_0
 10
213.41649653553571
 20
315.71346625017998
 30
0.0
 11
213.09085572025239
 21
306.3883333844708
 31
0.0
  0
ARC
  5
1511A
  8
AM_0
 10
212.90320761634439
 20
308.37951097300959
 30
0.0
 40
1.9999999999999989
 50
235.13616204569539
 51
270.0
1001
GENIUS_GENODEF_13
1002
{
1000
HIER
1070
     0
1002
}
1002
{
1000
MANEDIT
1070
     0
1002
}
1002
{
1000
NOSEL
1070
     0
1002
}
1002
{
1000
BEHIND
1070
     0
1002
}
1002
{
1000
OTHER
1070
     0
1002
}
1002
{
1000
REACTOR
1002
}
1001
GENIUS_GENOBJ-N-FIL_13
1002
{
1000
OWNER
1000
GEN
1002
}
  0
LINE
  5
1511B
  8
AM_0
 10
205.48957312789179
 20
318.52948067054848
 30
0.0
 11
205.7741870059572
 21
310.37920557044271
 31
0.0
  0
LINE
  5
1511C
  8
AM_0
 10
203.4207764788882
 20
318.54581540487129
 30
0.0
 11
203.18033474561699
 21
311.66046503112977
 31
0.0
  0
ARC
  5
1511D
  8
AM_0
 10
179.46296240193229
 20
211.37951097300979
 30
0.0
 40
110.9999999999999
 50
76.848881739344279
 51
76.886329856701835
  0
ARC
  5
1511E
  8
AM_0
 10
204.4901823008727
 20
318.4945811738462
 30
0.0
 40
0.9999999999999996
 50
1.9999999999971321
 51
76.848881739344279
1001
GENIUS_GENODEF_13
1002
{
1000
HIER
1070
     0
1002
}
1002
{
1000
MANEDIT
1070
     0
1002
}
1002
{
1000
NOSEL
1070
     0
1002
}
1002
{
1000
BEHIND
1070
     0
1002
}
1002
{
1000
REACTOR
1002
}
1001
GENIUS_GENOBJ-N-FIL_13
1002
{
1000
OWNER
1000
GEN
1002
}
  0
ARC
  5
1511F
  8
AM_0
 10
204.4201673059072
 20
318.51091590816861
 30
0.0
 40
0.9999999999999996
 50
76.886329856701835
 51
177.99999999999631
1001
GENIUS_GENODEF_13
1002
{
1000
HIER
1070
     0
1002
}
1002
{
1000
MANEDIT
1070
     0
1002
}
1002
{
1000
NOSEL
1070
     0
1002
}
1002
{
1000
BEHIND
1070
     0
1002
}
1002
{
1000
REACTOR
1002
}
1001
GENIUS_GENOBJ-N-FIL_13
1002
{
1000
OWNER
1000
GEN
1002
}
  0
ARC
  5
15124
  8
0
 10
230.46296238968139
 20
307.7886818847295
 30
0.0
 40
3.0
 50
272.00000000000051
 51
359.99999983635439
1001
GENIUS_GENOBJ-N-FIL_13
1002
{
1000
OWNER
1000
GEN
1002
}
1001
GENIUS_GENODEF_13
1002
{
1000
HIER
1070
     0
1002
}
1002
{
1000
MANEDIT
1070
     0
1002
}
1002
{
1000
NOSEL
1070
     0
1002
}
1002
{
1000
BEHIND
1070
     0
1002
}
1002
{
1000
OTHER
1070
     0
1002
}
1002
{
1000
REACTOR
1002
}
  0
LINE
  5
15125
  8
AM_0
 10
215.48706222464151
 20
315.68938234583982
 30
0.0
 11
215.81217009684991
 21
306.37951097300981
 31
0.0
  0
ARC
  5
15126
  8
AM_0
 10
220.46296240193249
 20
301.37951097300981
 30
0.0
 40
4.9999999999999982
 50
39.68025457286133
 51
90.0
1001
GENIUS_GENODEF_13
1002
{
1000
HIER
1070
     0
1002
}
1002
{
1000
MANEDIT
1070
     0
1002
}
1002
{
1000
NOSEL
1070
     0
1002
}
1002
{
1000
BEHIND
1070
     0
1002
}
1002
{
1000
REACTOR
1002
}
1001
GENIUS_GENOBJ-N-FIL_13
1002
{
1000
OWNER
1000
GEN
1002
}
  0
ARC
  5
15127
  8
AM_0
 10
214.48767139762219
 20
315.65448284913703
 30
0.0
 40
0.9999999999999996
 50
2.0000000000101679
 51
71.43341919809707
1001
GENIUS_GENODEF_13
1002
{
1000
HIER
1070
     0
1002
}
1002
{
1000
MANEDIT
1070
     0
1002
}
1002
{
1000
NOSEL
1070
     0
1002
}
1002
{
1000
BEHIND
1070
     0
1002
}
1002
{
1000
REACTOR
1002
}
1001
GENIUS_GENOBJ-N-FIL_13
1002
{
1000
OWNER
1000
GEN
1002
}
  0
ARC
  5
15128
  8
AM_0
 10
179.46296240193229
 20
211.37951097300979
 30
0.0
 40
110.9999999999999
 50
71.433419198103252
 51
71.472857685525653
  0
ARC
  5
1512B
  8
AM_0
 10
184.42725501969579
 20
321.26743478088417
 30
0.0
 40
0.9999999999999996
 50
87.413366771226706
 51
177.99999999999631
1001
GENIUS_GENODEF_13
1002
{
1000
HIER
1070
     0
1002
}
1002
{
1000
MANEDIT
1070
     0
1002
}
1002
{
1000
NOSEL
1070
     0
1002
}
1002
{
1000
BEHIND
1070
     0
1002
}
1002
{
1000
REACTOR
1002
}
1001
GENIUS_GENOBJ-N-FIL_13
1002
{
1000
OWNER
1000
GEN
1002
}
  0
ARC
  5
1512C
  8
AM_0
 10
184.4956290538118
 20
321.2643246024237
 30
0.0
 40
0.9999999999999996
 50
2.0000000000036491
 51
87.37771591204698
1001
GENIUS_GENODEF_13
1002
{
1000
HIER
1070
     0
1002
}
1002
{
1000
MANEDIT
1070
     0
1002
}
1002
{
1000
NOSEL
1070
     0
1002
}
1002
{
1000
BEHIND
1070
     0
1002
}
1002
{
1000
REACTOR
1002
}
1001
GENIUS_GENOBJ-N-FIL_13
1002
{
1000
OWNER
1000
GEN
1002
}
  0
ARC
  5
1512D
  8
AM_0
 10
179.46296240193229
 20
211.37951097300979
 30
0.0
 40
110.9999999999999
 50
82.146821911194266
 51
82.183052168305124
  0
ARC
  5
1512F
  8
0
 10
236.46296244576089
 20
327.4237119239682
 30
0.0
 40
3.0
 50
91.999999836354448
 51
179.99999983635439
1001
GENIUS_GENODEF_13
1002
{
1000
HIER
1070
     0
1002
}
1002
{
1000
MANEDIT
1070
     0
1002
}
1002
{
1000
NOSEL
1070
     0
1002
}
1002
{
1000
BEHIND
1070
     0
1002
}
1002
{
1000
OTHER
1070
     0
1002
}
1002
{
1000
REACTOR
1002
}
1001
GENIUS_GENOBJ-N-FIL_13
1002
{
1000
OWNER
1000
GEN
1002
}
  0
ARC
  5
15134
  8
0
 10
386.8960171932323
 20
318.87951144231232
 30
0.0
 40
10.0
 50
234.09785466296589
 51
11.536959032818149
  0
LINE
  5
15135
  8
0
 10
375.96480318654108
 20
323.83012356001228
 30
0.0
 11
364.50936360578828
 21
298.535905669214
 31
0.0
  0
CIRCLE
  5
15136
  8
0
 10
386.8960171932323
 20
318.87951144231232
 30
0.0
 40
4.5
  0
LINE
  5
15137
  8
ﾁｭｳｼﾝｾﾝ1
 10
386.8960171932323
 20
331.87951144231249
 30
0.0
 11
386.8960171932323
 21
305.87951144231272
 31
0.0
1001
GENIUS_GENODEF_13
1002
{
1000
HIER
1070
     0
1002
}
1002
{
1000
MANEDIT
1070
     0
1002
}
1002
{
1000
NOSEL
1070
     0
1002
}
1002
{
1000
BEHIND
1070
     0
1002
}
1002
{
1000
OTHER
1070
     0
1002
}
1002
{
1000
REACTOR
1002
}
1001
GENIUS_GENOBJ-N-CEN_13
1002
{
1000
OWNER
1000
GEN
1002
}
  0
LINE
  5
15138
  8
0
 10
373.54530438736953
 20
308.79197122800031
 30
0.0
 11
368.15310160801891
 21
296.8857016299807
 31
0.0
  0
ARC
  5
15139
  8
0
 10
372.73339163947088
 20
294.87951144231232
 30
0.0
 40
5.0
 50
90.0
 51
155.63481369578261
1001
GENIUS_GENODEF_13
1002
{
1000
HIER
1070
     0
1002
}
1002
{
1000
MANEDIT
1070
     0
1002
}
1002
{
1000
NOSEL
1070
     0
1002
}
1002
{
1000
BEHIND
1070
     0
1002
}
1002
{
1000
OTHER
1070
     0
1002
}
1002
{
1000
REACTOR
1002
}
1001
GENIUS_GENOBJ-N-FIL_13
1002
{
1000
OWNER
1000
GEN
1002
}
  0
ARC
  5
1513A
  8
0
 10
375.89604514781229
 20
293.37901791751239
 30
0.0
 40
8.5000003129243851
 50
155.63481369578261
 51
180.0
  0
ARC
  5
1513B
  8
0
 10
375.89604514781229
 20
293.37901791751239
 30
0.0
 40
12.50000031292438
 50
155.63481369578261
 51
180.0
  0
CIRCLE
  5
1513C
  8
ｷｲﾛ
 10
375.89604654852093
 20
293.37951144231232
 30
0.0
 40
4.0
  0
CIRCLE
  5
1513D
  8
0
 10
375.89604654852093
 20
293.37951144231232
 30
0.0
 40
3.25
  0
LINE
  5
1513E
  8
ﾁｭｳｼﾝｾﾝ1
 10
373.8960171932323
 20
318.87951144231249
 30
0.0
 11
399.89601719323241
 21
318.87951144231249
 31
0.0
1001
GENIUS_GENODEF_13
1002
{
1000
HIER
1070
     0
1002
}
1002
{
1000
MANEDIT
1070
     0
1002
}
1002
{
1000
NOSEL
1070
     0
1002
}
1002
{
1000
BEHIND
1070
     0
1002
}
1002
{
1000
OTHER
1070
     0
1002
}
1002
{
1000
REACTOR
1002
}
1001
GENIUS_GENOBJ-N-CEN_13
1002
{
1000
OWNER
1000
GEN
1002
}
  0
ARC
  5
1513F
  8
0
 10
378.09997689015739
 20
306.72921617895861
 30
0.0
 40
5.0
 50
54.097854662965901
 51
155.63481369578261
1001
GENIUS_GENODEF_13
1002
{
1000
HIER
1070
     0
1002
}
1002
{
1000
MANEDIT
1070
     0
1002
}
1002
{
1000
NOSEL
1070
     0
1002
}
1002
{
1000
BEHIND
1070
     0
1002
}
1002
{
1000
OTHER
1070
     0
1002
}
1002
{
1000
REACTOR
1002
}
1001
GENIUS_GENOBJ-N-FIL_13
1002
{
1000
OWNER
1000
GEN
1002
}
  0
ARC
  5
15140
  8
0
 10
395.1102154779087
 20
310.13154330450908
 30
0.0
 40
2.0
 50
65.534080667141254
 51
133.19759633442229
1001
GENIUS_GENODEF_13
1002
{
1000
HIER
1070
     0
1002
}
1002
{
1000
MANEDIT
1070
     0
1002
}
1002
{
1000
NOSEL
1070
     0
1002
}
1002
{
1000
BEHIND
1070
     0
1002
}
1002
{
1000
OTHER
1070
     0
1002
}
1002
{
1000
REACTOR
1002
}
1001
GENIUS_GENOBJ-N-FIL_13
1002
{
1000
OWNER
1000
GEN
1002
}
  0
ARC
  5
15141
  8
0
 10
398.7848083796855
 20
317.2495899334927
 30
0.0
 40
2.0
 50
172.19356800643959
 51
245.7481492359598
1001
GENIUS_GENODEF_13
1002
{
1000
HIER
1070
     0
1002
}
1002
{
1000
MANEDIT
1070
     0
1002
}
1002
{
1000
NOSEL
1070
     0
1002
}
1002
{
1000
BEHIND
1070
     0
1002
}
1002
{
1000
OTHER
1070
     0
1002
}
1002
{
1000
REACTOR
1002
}
1001
GENIUS_GENOBJ-N-FIL_13
1002
{
1000
OWNER
1000
GEN
1002
}
  0
ARC
  5
15142
  8
0
 10
386.8960171932323
 20
318.87951144231232
 30
0.0
 40
12.0
 50
90.0
 51
155.63481369578261
  0
ARC
  5
15143
  8
0
 10
401.59295564993141
 20
321.87951144231232
 30
0.0
 40
5.0
 50
90.0
 51
191.53695903281809
1001
GENIUS_GENOBJ-N-FIL_13
1002
{
1000
OWNER
1000
GEN
1002
}
1001
GENIUS_GENODEF_13
1002
{
1000
HIER
1070
     0
1002
}
1002
{
1000
MANEDIT
1070
     0
1002
}
1002
{
1000
NOSEL
1070
     0
1002
}
1002
{
1000
BEHIND
1070
     0
1002
}
1002
{
1000
OTHER
1070
     0
1002
}
1002
{
1000
REACTOR
1002
}
  0
LINE
  5
15147
  8
AM_0
 10
669.38994131926268
 20
275.60134371770329
 30
0.0
 11
668.88994131926268
 21
278.37133273137522
 31
0.0
  0
POLYLINE
  5
15148
  8
AM_0
 66
     1
 10
0.0
 20
0.0
 30
0.0
  0
VERTEX
  5
15149
  8
AM_0
 10
650.01780483488767
 20
276.72008144231268
 30
0.0
 42
0.0007337051
  0
VERTEX
  5
1514A
  8
AM_0
 10
649.97366483488781
 20
277.32249144231258
 30
0.0
 42
0.00075211323
  0
VERTEX
  5
1514B
  8
AM_0
 10
649.92772483488773
 20
277.92489144231268
 30
0.0
 42
0.0007297491
  0
VERTEX
  5
1514C
  8
AM_0
 10
649.87999483488738
 20
278.52709144231272
 30
0.0
 42
0.00073593041
  0
VERTEX
  5
1514D
  8
AM_0
 10
649.83051483488782
 20
279.12908144231272
 30
0.0
 42
0.00074742739
  0
VERTEX
  5
1514E
  8
AM_0
 10
649.77924483488744
 20
279.73094144231271
 30
0.0
 42
0.00073217363
  0
VERTEX
  5
1514F
  8
AM_0
 10
649.72618483488782
 20
280.33275144231271
 30
0.0
 42
0.00073754168
  0
VERTEX
  5
15150
  8
AM_0
 10
649.67136483488798
 20
280.9342914423126
 30
0.0
 42
0.00073075073
  0
VERTEX
  5
15151
  8
AM_0
 10
649.61478483488759
 20
281.53564144231268
 30
0.0
 42
0.00074550816
  0
VERTEX
  5
15152
  8
AM_0
 10
649.55644483488777
 20
282.13671144231267
 30
0.0
 42
0.00074288416
  0
VERTEX
  5
15153
  8
AM_0
 10
649.49629483488775
 20
282.73773144231268
 30
0.0
 42
0.00072504001
  0
VERTEX
  5
15154
  8
AM_0
 10
649.43438483488774
 20
283.33847144231282
 30
0.0
 42
0.00074640667
  0
VERTEX
  5
15155
  8
AM_0
 10
649.37071483488774
 20
283.93908144231273
 30
0.0
  0
SEQEND
  5
15156
  8
AM_0
  0
LINE
  5
15157
  8
AM_0
 10
666.89604483488779
 20
308.39953144231259
 30
0.0
 11
666.89604483488779
 21
265.37951144231272
 31
0.0
  0
LINE
  5
15158
  8
AM_0
 10
661.89604483488779
 20
310.37951144231272
 30
0.0
 11
661.89604483488779
 21
210.37951144231269
 31
0.0
  0
LINE
  5
15159
  8
AM_0
 10
660.89604483488768
 20
313.37951144231272
 30
0.0
 11
660.89604483488768
 21
207.37951144231269
 31
0.0
  0
LINE
  5
1515A
  8
AM_0
 10
668.39604483488768
 20
280.37951144231272
 30
0.0
 11
668.39604483488768
 21
240.37951144231269
 31
0.0
  0
LINE
  5
1515B
  8
AM_0
 10
544.89604483488756
 20
316.37951144231272
 30
0.0
 11
544.89604483488756
 21
204.37951144231269
 31
0.0
  0
LINE
  5
1515C
  8
AM_0
 10
652.89604483488768
 20
313.37951144231272
 30
0.0
 11
652.89604483488768
 21
207.37951144231269
 31
0.0
  0
LINE
  5
1515E
  8
AM_0
 10
517.39601890686515
 20
293.37901791751239
 30
0.0
 11
517.39601890686515
 21
194.380004967113
 31
0.0
  0
LINE
  5
1515F
  8
AM_0
 10
521.39601890686515
 20
293.37901791751239
 30
0.0
 11
521.39601890686515
 21
194.380004967113
 31
0.0
  0
LINE
  5
15161
  8
ﾁｭｳｼﾝｾﾝ1
 10
422.89604654852081
 20
337.41202771273811
 30
0.0
 11
422.89604654852081
 21
150.3469951718869
 31
0.0
  0
LINE
  5
15162
  8
AM_0
 10
525.3899413192629
 20
314.8789364424124
 30
0.0
 11
525.38994131926256
 21
205.88008644221259
 31
0.0
  0
ARC
  5
15163
  8
AM_0
 10
293.38995657805219
 20
260.37951144231278
 30
0.0
 40
235.99999999999989
 50
0.0000050089569452
 51
10.56397173027319
  0
LINE
  5
15164
  8
AM_0
 10
536.8960448348879
 20
316.87893644241251
 30
0.0
 11
536.8960448348879
 21
203.8800864422127
 31
0.0
  0
LINE
  5
15166
  8
ﾁｭｳｼﾝｾﾝ1
 10
504.28182685727819
 20
260.37951144231272
 30
0.0
 11
676.08719506133411
 21
260.37951144231278
 31
0.0
  0
LINE
  5
15172
  8
AM_0
 10
544.8960448348879
 20
203.8800864422127
 30
0.0
 11
536.8960448348879
 21
203.8800864422127
 31
0.0
  0
LINE
  5
15173
  8
AM_0
 10
544.89604483488756
 20
214.37951144231269
 30
0.0
 11
536.8960448348879
 21
214.37951144231269
 31
0.0
  0
LINE
  5
15174
  8
AM_0
 10
544.89604483488756
 20
228.43957144231271
 30
0.0
 11
536.8960448348879
 21
228.43957144231271
 31
0.0
  0
LINE
  5
15175
  8
0
 10
511.24675935438353
 20
178.9670516566249
 30
0.0
 11
516.63896213373437
 21
190.87332125464459
 31
0.0
  0
CIRCLE
  5
15176
  8
ｷｲﾛ
 10
508.8960465485207
 20
194.37951144231249
 30
0.0
 40
4.0
  0
ARC
  5
15177
  8
0
 10
512.05867210228212
 20
192.87951144231249
 30
0.0
 40
5.0
 50
270.0
 51
335.63481369578261
1001
GENIUS_GENODEF_13
1002
{
1000
HIER
1070
     0
1002
}
1002
{
1000
MANEDIT
1070
     0
1002
}
1002
{
1000
NOSEL
1070
     0
1002
}
1002
{
1000
BEHIND
1070
     0
1002
}
1002
{
1000
OTHER
1070
     0
1002
}
1002
{
1000
REACTOR
1002
}
1001
GENIUS_GENOBJ-N-FIL_13
1002
{
1000
OWNER
1000
GEN
1002
}
  0
ARC
  5
15178
  8
0
 10
508.89601859394082
 20
194.38000496711271
 30
0.0
 40
12.50000031292438
 50
335.63481369578261
 51
0.0
  0
LINE
  5
15179
  8
0
 10
444.39604584816658
 20
191.87951144231221
 30
0.0
 11
444.39604584816658
 21
187.80942159430799
 31
0.0
  0
LINE
  5
1517A
  8
0
 10
440.39604584816658
 20
191.87951144231221
 30
0.0
 11
440.39604584816658
 21
187.8094225742683
 31
0.0
  0
LINE
  5
1517C
  8
AM_0
 10
512.05867210228155
 20
187.87951144231249
 30
0.0
 11
444.39604584816658
 21
187.87951144231249
 31
0.0
  0
ARC
  5
1517D
  8
0
 10
442.39603187087658
 20
73.704457135044436
 30
0.0
 40
112.1750543072711
 50
65.534080667141254
 51
87.992286239871859
  0
ARC
  5
15181
  8
0
 10
446.39604584816652
 20
187.80942159430799
 30
0.0
 40
2.0
 50
180.0
 51
267.99228623987182
1001
GENIUS_GENOBJ-N-FIL_13
1002
{
1000
OWNER
1000
GEN
1002
}
1001
GENIUS_GENODEF_13
1002
{
1000
HIER
1070
     0
1002
}
1002
{
1000
MANEDIT
1070
     0
1002
}
1002
{
1000
NOSEL
1070
     0
1002
}
1002
{
1000
BEHIND
1070
     0
1002
}
1002
{
1000
OTHER
1070
     0
1002
}
1002
{
1000
REACTOR
1002
}
  0
ARC
  5
15182
  8
0
 10
438.39604584816652
 20
187.8094225742683
 30
0.0
 40
2.0
 50
272.00769972323309
 51
0.0
1001
GENIUS_GENOBJ-N-FIL_13
1002
{
1000
OWNER
1000
GEN
1002
}
1001
GENIUS_GENODEF_13
1002
{
1000
HIER
1070
     0
1002
}
1002
{
1000
MANEDIT
1070
     0
1002
}
1002
{
1000
NOSEL
1070
     0
1002
}
1002
{
1000
BEHIND
1070
     0
1002
}
1002
{
1000
OTHER
1070
     0
1002
}
1002
{
1000
REACTOR
1002
}
  0
LINE
  5
15183
  8
ﾁｭｳｼﾝｾﾝ1
 10
484.89604654852081
 20
168.87951144231269
 30
0.0
 11
510.89604654852093
 21
168.87951144231269
 31
0.0
1001
GENIUS_GENODEF_13
1002
{
1000
HIER
1070
     0
1002
}
1002
{
1000
MANEDIT
1070
     0
1002
}
1002
{
1000
NOSEL
1070
     0
1002
}
1002
{
1000
BEHIND
1070
     0
1002
}
1002
{
1000
OTHER
1070
     0
1002
}
1002
{
1000
REACTOR
1002
}
1001
GENIUS_GENOBJ-N-CEN_13
1002
{
1000
OWNER
1000
GEN
1002
}
  0
ARC
  5
15184
  8
0
 10
497.89604654852081
 20
168.87951144231289
 30
0.0
 40
12.0
 50
270.0
 51
335.63481369578261
  0
ARC
  5
15185
  8
0
 10
506.6920868515956
 20
181.02980670566629
 30
0.0
 40
5.0
 50
234.09785466296589
 51
335.63481369578261
1001
GENIUS_GENODEF_13
1002
{
1000
HIER
1070
     0
1002
}
1002
{
1000
MANEDIT
1070
     0
1002
}
1002
{
1000
NOSEL
1070
     0
1002
}
1002
{
1000
BEHIND
1070
     0
1002
}
1002
{
1000
OTHER
1070
     0
1002
}
1002
{
1000
REACTOR
1002
}
1001
GENIUS_GENOBJ-N-FIL_13
1002
{
1000
OWNER
1000
GEN
1002
}
  0
ARC
  5
15186
  8
0
 10
497.89604654852081
 20
168.87951144231249
 30
0.0
 40
10.0
 50
54.097854662965901
 51
191.53695903281809
  0
LINE
  5
15187
  8
ﾁｭｳｼﾝｾﾝ1
 10
497.89604654852081
 20
155.87951144231269
 30
0.0
 11
497.89604654852081
 21
181.87951144231269
 31
0.0
1001
GENIUS_GENODEF_13
1002
{
1000
HIER
1070
     0
1002
}
1002
{
1000
MANEDIT
1070
     0
1002
}
1002
{
1000
NOSEL
1070
     0
1002
}
1002
{
1000
BEHIND
1070
     0
1002
}
1002
{
1000
OTHER
1070
     0
1002
}
1002
{
1000
REACTOR
1002
}
1001
GENIUS_GENOBJ-N-CEN_13
1002
{
1000
OWNER
1000
GEN
1002
}
  0
CIRCLE
  5
15188
  8
0
 10
497.89604654852081
 20
168.87951144231269
 30
0.0
 40
4.5
  0
ARC
  5
15189
  8
0
 10
483.19910809182159
 20
165.87951144231269
 30
0.0
 40
5.0
 50
270.0
 51
11.536959032818149
1001
GENIUS_GENODEF_13
1002
{
1000
HIER
1070
     0
1002
}
1002
{
1000
MANEDIT
1070
     0
1002
}
1002
{
1000
NOSEL
1070
     0
1002
}
1002
{
1000
BEHIND
1070
     0
1002
}
1002
{
1000
OTHER
1070
     0
1002
}
1002
{
1000
REACTOR
1002
}
1001
GENIUS_GENOBJ-N-FIL_13
1002
{
1000
OWNER
1000
GEN
1002
}
  0
ARC
  5
1518A
  8
0
 10
486.00725536206772
 20
170.5094329511324
 30
0.0
 40
2.0
 50
352.19356800643959
 51
65.7481492359599
1001
GENIUS_GENODEF_13
1002
{
1000
HIER
1070
     0
1002
}
1002
{
1000
MANEDIT
1070
     0
1002
}
1002
{
1000
NOSEL
1070
     0
1002
}
1002
{
1000
BEHIND
1070
     0
1002
}
1002
{
1000
OTHER
1070
     0
1002
}
1002
{
1000
REACTOR
1002
}
1001
GENIUS_GENOBJ-N-FIL_13
1002
{
1000
OWNER
1000
GEN
1002
}
  0
ARC
  5
1518B
  8
0
 10
489.6818482638447
 20
177.62747958011579
 30
0.0
 40
2.0
 50
245.53408066713951
 51
313.1975963344222
1001
GENIUS_GENOBJ-N-FIL_13
1002
{
1000
OWNER
1000
GEN
1002
}
1001
GENIUS_GENODEF_13
1002
{
1000
HIER
1070
     0
1002
}
1002
{
1000
MANEDIT
1070
     0
1002
}
1002
{
1000
NOSEL
1070
     0
1002
}
1002
{
1000
BEHIND
1070
     0
1002
}
1002
{
1000
OTHER
1070
     0
1002
}
1002
{
1000
REACTOR
1002
}
  0
LINE
  5
1518C
  8
0
 10
508.82726055521209
 20
163.9288993246131
 30
0.0
 11
520.28270013596489
 21
189.22311721541141
 31
0.0
  0
ARC
  5
1518F
  8
0
 10
442.39604584816652
 20
191.87951144231221
 30
0.0
 40
2.0
 50
0.0
 51
180.0
  0
ARC
  5
15193
  8
AM_0
 10
293.38995657805219
 20
260.37951144231278
 30
0.0
 40
235.99999999999989
 50
349.4360382876414
 51
0.0000050089569452
  0
CIRCLE
  5
15194
  8
0
 10
508.8960465485207
 20
194.37951144231249
 30
0.0
 40
3.25
  0
ARC
  5
15195
  8
0
 10
508.89601859394082
 20
194.38000496711271
 30
0.0
 40
8.5000003129243851
 50
335.63481369578261
 51
0.0
  0
LINE
  5
15196
  8
AM_0
 10
536.8960448348879
 20
203.8800864422127
 30
0.0
 11
527.38994131926256
 21
203.8800864422127
 31
0.0
  0
ARC
  5
15197
  8
AM_0
 10
527.38994131926256
 20
205.88008644221259
 30
0.0
 40
1.9999999999999989
 50
180.0
 51
270.0
1001
GENIUS_GENOBJ-N-FIL_13
1002
{
1000
OWNER
1000
GEN
1002
}
1001
GENIUS_GENODEF_13
1002
{
1000
HIER
1070
     0
1002
}
1002
{
1000
MANEDIT
1070
     0
1002
}
1002
{
1000
NOSEL
1070
     0
1002
}
1002
{
1000
BEHIND
1070
     0
1002
}
1002
{
1000
OTHER
1070
     0
1002
}
1002
{
1000
REACTOR
1002
}
  0
ARC
  5
15198
  8
AM_0
 10
523.925839704125
 20
204.37951144231269
 30
0.0
 40
1.9999999999999989
 50
42.72374923871029
 51
90.0
1001
GENIUS_GENOBJ-N-FIL_13
1002
{
1000
OWNER
1000
GEN
1002
}
1001
GENIUS_GENODEF_13
1002
{
1000
HIER
1070
     0
1002
}
1002
{
1000
MANEDIT
1070
     0
1002
}
1002
{
1000
NOSEL
1070
     0
1002
}
1002
{
1000
BEHIND
1070
     0
1002
}
1002
{
1000
OTHER
1070
     0
1002
}
1002
{
1000
REACTOR
1002
}
  0
LINE
  5
15199
  8
AM_0
 10
521.39604483488768
 20
206.37951144231289
 30
0.0
 11
523.925839704125
 21
206.37951144231289
 31
0.0
  0
ARC
  5
1519A
  8
0
 10
513.39607115033732
 20
223.87951144231249
 30
0.0
 40
2.0
 50
90.0
 51
270.0
  0
ARC
  5
1519B
  8
0
 10
515.39607115033732
 20
219.87951144231249
 30
0.0
 40
2.0
 50
0.0
 51
90.0
1001
GENIUS_GENODEF_13
1002
{
1000
HIER
1070
     0
1002
}
1002
{
1000
MANEDIT
1070
     0
1002
}
1002
{
1000
NOSEL
1070
     0
1002
}
1002
{
1000
BEHIND
1070
     0
1002
}
1002
{
1000
OTHER
1070
     0
1002
}
1002
{
1000
REACTOR
1002
}
1001
GENIUS_GENOBJ-N-FIL_13
1002
{
1000
OWNER
1000
GEN
1002
}
  0
LINE
  5
1519C
  8
0
 10
513.39607115033755
 20
221.87951144231249
 30
0.0
 11
515.39607115033732
 21
221.87951144231249
 31
0.0
  0
ARC
  5
1519D
  8
0
 10
515.39607115033732
 20
227.87951144231249
 30
0.0
 40
2.0
 50
270.0
 51
0.0
1001
GENIUS_GENOBJ-N-FIL_13
1002
{
1000
OWNER
1000
GEN
1002
}
1001
GENIUS_GENODEF_13
1002
{
1000
HIER
1070
     0
1002
}
1002
{
1000
MANEDIT
1070
     0
1002
}
1002
{
1000
NOSEL
1070
     0
1002
}
1002
{
1000
BEHIND
1070
     0
1002
}
1002
{
1000
OTHER
1070
     0
1002
}
1002
{
1000
REACTOR
1002
}
  0
LINE
  5
1519E
  8
0
 10
513.39607115033755
 20
225.87951144231249
 30
0.0
 11
515.39607115033732
 21
225.87951144231249
 31
0.0
  0
LINE
  5
1519F
  8
AM_0
 10
536.8960448348879
 20
214.37951144231269
 30
0.0
 11
525.38994131926256
 21
214.37951144231269
 31
0.0
  0
LINE
  5
151A0
  8
AM_0
 10
524.88994131926256
 20
217.1128946210238
 30
0.0
 11
521.39601890686538
 21
217.11289462102391
 31
0.0
  0
LINE
  5
151A1
  8
AM_0
 10
536.8960448348879
 20
228.43956144231279
 30
0.0
 11
527.29002869892497
 21
228.43956144231279
 31
0.0
  0
ARC
  5
151A2
  8
0
 10
515.39607115033732
 20
267.87951144231249
 30
0.0
 40
2.0
 50
270.0
 51
0.0
1001
GENIUS_GENODEF_13
1002
{
1000
HIER
1070
     0
1002
}
1002
{
1000
MANEDIT
1070
     0
1002
}
1002
{
1000
NOSEL
1070
     0
1002
}
1002
{
1000
BEHIND
1070
     0
1002
}
1002
{
1000
OTHER
1070
     0
1002
}
1002
{
1000
REACTOR
1002
}
1001
GENIUS_GENOBJ-N-FIL_13
1002
{
1000
OWNER
1000
GEN
1002
}
  0
ARC
  5
151A3
  8
0
 10
513.39607115033732
 20
263.87951144231249
 30
0.0
 40
2.0
 50
90.0
 51
270.0
  0
ARC
  5
151A4
  8
0
 10
515.39607115033732
 20
259.87951144231249
 30
0.0
 40
2.0
 50
0.0
 51
90.0
1001
GENIUS_GENOBJ-N-FIL_13
1002
{
1000
OWNER
1000
GEN
1002
}
1001
GENIUS_GENODEF_13
1002
{
1000
HIER
1070
     0
1002
}
1002
{
1000
MANEDIT
1070
     0
1002
}
1002
{
1000
NOSEL
1070
     0
1002
}
1002
{
1000
BEHIND
1070
     0
1002
}
1002
{
1000
OTHER
1070
     0
1002
}
1002
{
1000
REACTOR
1002
}
  0
LINE
  5
151A5
  8
0
 10
513.39607115033755
 20
261.87951144231249
 30
0.0
 11
515.39607115033732
 21
261.87951144231249
 31
0.0
  0
LINE
  5
151A6
  8
0
 10
513.39607115033755
 20
265.87951144231249
 30
0.0
 11
515.39607115033732
 21
265.87951144231249
 31
0.0
  0
LINE
  5
151A7
  8
AM_0
 10
644.39604483488768
 20
194.37951144231249
 30
0.0
 11
644.39604483488768
 21
174.87951144231269
 31
0.0
  0
LINE
  5
151A8
  8
AM_0
 10
635.39604483488768
 20
190.87951144231269
 30
0.0
 11
635.39604483488768
 21
183.37951144231269
 31
0.0
  0
LINE
  5
151A9
  8
AM_0
 10
638.89604483488768
 20
190.87951144231269
 30
0.0
 11
638.89604483488768
 21
183.37951144231269
 31
0.0
  0
LINE
  5
151AA
  8
AM_0
 10
623.89604483488768
 20
183.37951144231269
 30
0.0
 11
623.89604483488768
 21
190.87951144231269
 31
0.0
  0
LINE
  5
151AB
  8
AM_0
 10
627.39604483488768
 20
190.87951144231269
 30
0.0
 11
627.39604483488768
 21
183.37951144231269
 31
0.0
  0
LINE
  5
151AC
  8
AM_0
 10
564.39604483488768
 20
194.37951144231249
 30
0.0
 11
564.39604483488768
 21
187.37951144231269
 31
0.0
  0
LINE
  5
151AD
  8
AM_0
 10
566.89604483488779
 20
170.87951144231269
 30
0.0
 11
641.89604483488779
 21
170.87951144231269
 31
0.0
  0
LINE
  5
151AE
  8
AM_0
 10
578.09204483488782
 20
167.87951144231269
 30
0.0
 11
613.70004483488765
 21
167.87951144231269
 31
0.0
  0
LINE
  5
151AF
  8
AM_0
 10
564.39604483488768
 20
187.37951144231269
 30
0.0
 11
621.89604483488779
 21
187.37951144231269
 31
0.0
  0
LINE
  5
151B0
  8
AM_0
 10
565.89604483488768
 20
187.37951144231269
 30
0.0
 11
565.89604483488768
 21
171.87951144231269
 31
0.0
  0
ARC
  5
151B1
  8
AM_0
 10
566.89604483488779
 20
171.87951144231249
 30
0.0
 40
1.0
 50
180.0
 51
270.0
  0
LINE
  5
151B2
  8
AM_0
 10
572.89604483488768
 20
170.87951144231269
 30
0.0
 11
578.09204483488782
 21
167.87951144231269
 31
0.0
  0
ARC
  5
151B3
  8
AM_0
 10
631.39604483488768
 20
183.37951144231269
 30
0.0
 40
7.5000000000000018
 50
180.0
 51
0.0
  0
ARC
  5
151B4
  8
AM_0
 10
632.39604483488768
 20
182.37951144231269
 30
0.0
 40
7.499999999999992
 50
270.0
 51
0.0
  0
LINE
  5
151B5
  8
AM_0
 10
613.70004483488765
 20
167.87951144231269
 30
0.0
 11
618.88882034509072
 21
170.87951144231269
 31
0.0
  0
ARC
  5
151B6
  8
AM_0
 10
630.39604483488779
 20
182.37951144231269
 30
0.0
 40
7.4999999999999956
 50
180.0
 51
270.0
  0
ARC
  5
151B7
  8
AM_0
 10
631.39604483488768
 20
183.37951144231269
 30
0.0
 40
3.999999999999996
 50
180.0
 51
0.0
  0
LINE
  5
151B8
  8
AM_0
 10
630.39604483488779
 20
174.87951144231269
 30
0.0
 11
632.39604483488768
 21
174.87951144231269
 31
0.0
  0
ARC
  5
151B9
  8
AM_0
 10
621.89604483488779
 20
186.37951144231261
 30
0.0
 40
1.0
 50
0.0
 51
90.0
  0
LINE
  5
151BA
  8
AM_0
 10
622.89604483488768
 20
182.37951144231269
 30
0.0
 11
622.89604483488768
 21
186.37951144231261
 31
0.0
  0
LINE
  5
151BB
  8
AM_0
 10
642.89604483488779
 20
187.37951144231269
 30
0.0
 11
642.89604483488779
 21
171.87951144231269
 31
0.0
  0
LINE
  5
151BC
  8
AM_0
 10
644.39604483488768
 20
174.87951144231269
 30
0.0
 11
642.89604483488779
 21
174.87951144231269
 31
0.0
  0
ARC
  5
151BD
  8
AM_0
 10
641.89604483488779
 20
171.87951144231269
 30
0.0
 40
1.0
 50
270.0
 51
0.0
  0
LINE
  5
151BE
  8
AM_0
 10
644.39604483488768
 20
187.37951144231269
 30
0.0
 11
640.89604483488779
 21
187.37951144231269
 31
0.0
  0
LINE
  5
151BF
  8
AM_0
 10
639.89604483488768
 20
186.37951144231261
 30
0.0
 11
639.89604483488768
 21
182.37951144231269
 31
0.0
  0
ARC
  5
151C0
  8
AM_0
 10
640.89604483488779
 20
186.37951144231261
 30
0.0
 40
1.0
 50
90.0
 51
180.0
  0
LINE
  5
151C1
  8
AM_0
 10
649.6860248348878
 20
204.09948144231271
 30
0.0
 11
552.76603483488782
 21
204.09948144231271
 31
0.0
  0
LINE
  5
151C2
  8
AM_0
 10
551.56321483488784
 20
236.37951144231269
 30
0.0
 11
650.53605483488775
 21
236.37951144231269
 31
0.0
  0
LINE
  5
151C3
  8
AM_0
 10
651.21605483488781
 20
227.00951144231269
 30
0.0
 11
583.87602483488774
 21
227.00951144231269
 31
0.0
  0
LINE
  5
151C4
  8
AM_0
 10
595.89604483488779
 20
224.37951144231269
 30
0.0
 11
650.53605483488775
 21
224.37951144231269
 31
0.0
  0
LINE
  5
151C5
  8
AM_0
 10
595.89604483488779
 20
226.37951144231269
 30
0.0
 11
650.53605483488775
 21
226.37951144231269
 31
0.0
  0
LINE
  5
151C6
  8
AM_0
 10
651.21605483488781
 20
223.6595414423127
 30
0.0
 11
595.89604483488779
 21
223.6595414423127
 31
0.0
  0
LINE
  5
151C7
  8
AM_0
 10
651.4360248348878
 20
233.88952144231271
 30
0.0
 11
583.89604483488779
 21
233.88952144231271
 31
0.0
  0
LINE
  5
151C8
  8
AM_0
 10
564.39604483488768
 20
194.37951144231249
 30
0.0
 11
644.39604483488768
 21
194.37951144231249
 31
0.0
  0
LINE
  5
151C9
  8
AM_0
 10
644.39604483488768
 20
190.87951144231269
 30
0.0
 11
564.39604483488768
 21
190.87951144231269
 31
0.0
  0
LINE
  5
151CA
  8
AM_0
 10
583.89604483488779
 20
234.37951144231269
 30
0.0
 11
650.53605483488775
 21
234.37951144231269
 31
0.0
  0
LINE
  5
151CB
  8
AM_0
 10
651.4360248348878
 20
236.8194514423127
 30
0.0
 11
547.86180483488783
 21
236.8194514423127
 31
0.0
  0
ARC
  5
151CC
  8
AM_0
 10
583.89604483488779
 20
232.87951144231269
 30
0.0
 40
1.5
 50
89.999996999999041
 51
180.0
  0
ARC
  5
151CD
  8
AM_0
 10
565.89604483488768
 20
232.87951144231269
 30
0.0
 40
1.5
 50
359.999989999999
 51
89.999996999999041
  0
ARC
  5
151CE
  8
AM_0
 10
547.85606483488755
 20
235.34948144231271
 30
0.0
 40
1.460011199999999
 50
89.775249999999915
 51
270.22475000000009
  0
LINE
  5
151CF
  8
AM_0
 10
595.89604483488779
 20
223.6595414423127
 30
0.0
 11
548.07603483488776
 21
223.6595414423127
 31
0.0
  0
LINE
  5
151D0
  8
AM_0
 10
551.55601483488783
 20
224.37951144231269
 30
0.0
 11
595.89604483488779
 21
224.37951144231269
 31
0.0
  0
LINE
  5
151D1
  8
AM_0
 10
551.55601483488783
 20
226.37951144231269
 30
0.0
 11
595.89604483488779
 21
226.37951144231269
 31
0.0
  0
LINE
  5
151D2
  8
AM_0
 10
548.06067715533868
 20
215.94342821811361
 30
0.0
 11
550.83604483488784
 21
205.57952144231271
 31
0.0
  0
LINE
  5
151D3
  8
AM_0
 10
564.31694602695165
 20
197.87951144231269
 30
0.0
 11
552.87980483488775
 21
197.87951144231269
 31
0.0
  0
LINE
  5
151D4
  8
AM_0
 10
545.8960448348879
 20
207.37951144231269
 30
0.0
 11
551.62178483488765
 21
198.56261144231269
 31
0.0
  0
ARC
  5
151D5
  8
AM_0
 10
552.87980483488775
 20
199.37951144231269
 30
0.0
 40
1.5
 50
213.00000000000151
 51
270.000010000001
  0
LINE
  5
151D6
  8
AM_0
 10
550.35399483488754
 20
207.37951144231269
 30
0.0
 11
544.89604483488756
 21
207.37951144231269
 31
0.0
  0
ARC
  5
151D7
  8
AM_0
 10
552.7708648348879
 20
206.10424144231271
 30
0.0
 40
2.0047290000000002
 50
195.173499999998
 51
269.86167999999901
  0
LINE
  5
151D8
  8
AM_0
 10
565.86982942120005
 20
194.37951144231249
 30
0.0
 11
565.61531562113225
 21
204.09948144231271
 31
0.0
  0
ARC
  5
151D9
  8
AM_0
 10
564.31694602695165
 20
196.37951144231269
 30
0.0
 40
1.5
 50
1.4999259432500831
 51
90.0
1001
GENIUS_GENODEF_13
1002
{
1000
HIER
1070
     0
1002
}
1002
{
1000
MANEDIT
1070
     0
1002
}
1002
{
1000
NOSEL
1070
     0
1002
}
1002
{
1000
BEHIND
1070
     0
1002
}
1002
{
1000
REACTOR
1002
}
1001
GENIUS_GENOBJ-N-FIL_13
1002
{
1000
OWNER
1000
GEN
1002
}
  0
LINE
  5
151DA
  8
AM_0
 10
548.07603483488776
 20
227.00951144231269
 30
0.0
 11
565.91600483488764
 21
227.00951144231269
 31
0.0
  0
LINE
  5
151DB
  8
AM_0
 10
565.89604483488768
 20
233.89953144231259
 30
0.0
 11
547.86180483488783
 21
233.89953144231259
 31
0.0
  0
LINE
  5
151DC
  8
AM_0
 10
545.8960448348879
 20
222.3795114423128
 30
0.0
 11
546.79604483488743
 21
222.3795114423128
 31
0.0
  0
LINE
  5
151DD
  8
AM_0
 10
545.8960448348879
 20
215.37951144231269
 30
0.0
 11
546.79604483488743
 21
215.37951144231269
 31
0.0
  0
LINE
  5
151DE
  8
AM_0
 10
545.8960448348879
 20
222.67953144231279
 30
0.0
 11
544.89604483488756
 21
222.67953144231279
 31
0.0
  0
LINE
  5
151DF
  8
AM_0
 10
544.89604483488756
 20
218.65688144231271
 30
0.0
 11
545.8960448348879
 21
218.0795214423126
 31
0.0
  0
LINE
  5
151E0
  8
AM_0
 10
544.89604483488756
 20
219.65688144231271
 30
0.0
 11
545.8960448348879
 21
219.0795214423126
 31
0.0
  0
LINE
  5
151E1
  8
AM_0
 10
545.8960448348879
 20
215.0795214423126
 30
0.0
 11
544.89604483488756
 21
215.0795214423126
 31
0.0
  0
LINE
  5
151E2
  8
AM_0
 10
544.89604483488756
 20
222.67953144231279
 30
0.0
 11
544.89604483488756
 21
215.0795214423126
 31
0.0
  0
LINE
  5
151E3
  8
AM_0
 10
545.8960448348879
 20
222.67953144231279
 30
0.0
 11
545.8960448348879
 21
215.0795214423126
 31
0.0
  0
ARC
  5
151E4
  8
AM_0
 10
546.79604483488743
 20
220.67953144231259
 30
0.0
 40
1.699996899999999
 50
0.0000199999954991
 51
89.999996999999041
  0
ARC
  5
151E5
  8
AM_0
 10
546.79604483488743
 20
217.07952144231251
 30
0.0
 40
1.7000007999999991
 50
270.0000199999987
 51
359.999989999999
  0
LINE
  5
151E6
  8
AM_0
 10
548.49602483488775
 20
220.67953144231259
 30
0.0
 11
548.49602483488775
 21
217.07952144231251
 31
0.0
  0
ARC
  5
151E7
  8
AM_0
 10
551.55601483488783
 20
225.37951144231269
 30
0.0
 40
1.0
 50
89.999996999999041
 51
270.000010000001
  0
ARC
  5
151E8
  8
AM_0
 10
548.07603483488776
 20
225.33446144231269
 30
0.0
 40
1.6750020000000001
 50
89.999996999999041
 51
270.000010000001
  0
ARC
  5
151E9
  8
AM_0
 10
565.89604483488768
 20
232.87951144231269
 30
0.0
 40
1.02
 50
359.999989999999
 51
89.999996999999041
  0
ARC
  5
151EA
  8
AM_0
 10
565.89604483488768
 20
227.87951144231269
 30
0.0
 40
1.5
 50
270.0
 51
0.0000100000010064
  0
ARC
  5
151EB
  8
AM_0
 10
565.91600483488764
 20
228.01952144231271
 30
0.0
 40
1.0
 50
270.0
 51
0.0000100000010064
  0
LINE
  5
151EC
  8
AM_0
 10
567.39604483488779
 20
232.87951144231269
 30
0.0
 11
567.39604483488779
 21
227.87951144231269
 31
0.0
  0
LINE
  5
151ED
  8
AM_0
 10
566.91600483488764
 20
232.87951144231269
 30
0.0
 11
566.91600483488764
 21
228.01952144231271
 31
0.0
  0
CIRCLE
  5
151EE
  8
AM_0
 10
577.39604483488768
 20
231.87951144231269
 30
0.0
 40
1.1000000000000001
  0
CIRCLE
  5
151EF
  8
AM_0
 10
577.39604483488768
 20
231.87951144231269
 30
0.0
 40
1.149999999999999
  0
CIRCLE
  5
151F0
  8
AM_0
 10
572.39604483488768
 20
231.87951144231269
 30
0.0
 40
1.0
  0
ARC
  5
151F1
  8
AM_0
 10
583.89604483488779
 20
232.87951144231269
 30
0.0
 40
1.02
 50
89.999996999999041
 51
180.0
  0
ARC
  5
151F2
  8
AM_0
 10
583.89604483488779
 20
227.87951144231269
 30
0.0
 40
1.5
 50
179.99999931675049
 51
270.000010000001
  0
ARC
  5
151F3
  8
AM_0
 10
583.87602483488774
 20
228.01952144231271
 30
0.0
 40
1.0
 50
179.99999931675049
 51
270.000010000001
  0
LINE
  5
151F4
  8
AM_0
 10
582.87602483488774
 20
232.87951144231269
 30
0.0
 11
582.87602483488774
 21
228.01952144231271
 31
0.0
  0
LINE
  5
151F5
  8
AM_0
 10
582.39604483488768
 20
232.87951144231269
 30
0.0
 11
582.39604483488768
 21
227.87951144231269
 31
0.0
  0
LINE
  5
151F6
  8
AM_0
 10
551.56321483488784
 20
234.37951144231269
 30
0.0
 11
565.89604483488768
 21
234.37951144231269
 31
0.0
  0
ARC
  5
151F7
  8
AM_0
 10
551.55607483488757
 20
235.37951144231269
 30
0.0
 40
1.0000255999999981
 50
89.589468999998957
 51
270.41053000000011
  0
ARC
  5
151F8
  8
AM_0
 10
662.89586483488767
 20
233.3796314423127
 30
0.0
 40
0.9998239899999999
 50
89.989922999999536
 51
180.01008000000471
  0
ARC
  5
151F9
  8
AM_0
 10
651.4360248348878
 20
235.3544814423127
 30
0.0
 40
1.465004
 50
270.0
 51
89.999996999999041
  0
LINE
  5
151FA
  8
AM_0
 10
666.89604483488779
 20
212.3594914423127
 30
0.0
 11
666.89604483488779
 21
255.37951144231269
 31
0.0
  0
LINE
  5
151FB
  8
AM_0
 10
649.98979483488779
 20
201.24950144231269
 30
0.0
 11
627.56333201353596
 21
201.24950144231269
 31
0.0
  0
LINE
  5
151FC
  8
AM_0
 10
625.92222590899166
 20
194.37951144231269
 30
0.0
 11
626.17670516385101
 21
204.09948144231259
 31
0.0
  0
ARC
  5
151FD
  8
AM_0
 10
627.56333201353596
 20
199.74950144231269
 30
0.0
 40
1.5
 50
90.0
 51
178.5002775490122
1001
GENIUS_GENODEF_13
1002
{
1000
HIER
1070
     0
1002
}
1002
{
1000
MANEDIT
1070
     0
1002
}
1002
{
1000
NOSEL
1070
     0
1002
}
1002
{
1000
BEHIND
1070
     0
1002
}
1002
{
1000
REACTOR
1002
}
1001
GENIUS_GENOBJ-N-FIL_13
1002
{
1000
OWNER
1000
GEN
1002
}
  0
LINE
  5
151FE
  8
AM_0
 10
665.10606483488766
 20
211.8894914423127
 30
0.0
 11
666.34605483488781
 21
212.5194914423127
 31
0.0
  0
ARC
  5
151FF
  8
AM_0
 10
665.90031483488781
 20
213.4099014423127
 30
0.0
 40
0.9956849800000001
 50
296.59085999999968
 51
359.97886999999997
  0
LINE
  5
15200
  8
AM_0
 10
647.53605483488775
 20
223.7294814423127
 30
0.0
 11
652.89598483488783
 21
212.28957144231271
 31
0.0
  0
LINE
  5
15201
  8
AM_0
 10
660.89604483488768
 20
207.37951144231269
 30
0.0
 11
652.89604483488768
 21
207.37951144231269
 31
0.0
  0
ARC
  5
15202
  8
AM_0
 10
649.98979483488779
 20
203.24950144231269
 30
0.0
 40
2.0
 50
270.000010000001
 51
352.04955999999657
  0
ARC
  5
15203
  8
AM_0
 10
649.9094148348878
 20
203.24950144231269
 30
0.0
 40
2.0
 50
270.000010000001
 51
351.3703800000024
  0
ARC
  5
15204
  8
AM_0
 10
649.63981483488772
 20
203.2498714423127
 30
0.0
 40
2.000420099999999
 50
270.1772900000006
 51
351.07317999999862
  0
ARC
  5
15205
  8
AM_0
 10
649.69114483488761
 20
206.09874144231259
 30
0.0
 40
1.9992490000000001
 50
269.85256999999859
 51
349.35689999999892
  0
LINE
  5
15206
  8
AM_0
 10
652.89604483488768
 20
210.93947144231279
 30
0.0
 11
651.61601483488789
 21
202.93956144231271
 31
0.0
  0
LINE
  5
15207
  8
AM_0
 10
652.89604483488768
 20
212.28948144231259
 30
0.0
 11
651.65599483488768
 21
205.7294814423127
 31
0.0
  0
LINE
  5
15208
  8
AM_0
 10
652.89598483488783
 20
209.5995414423127
 30
0.0
 11
651.97056483488768
 21
202.97295144231271
 31
0.0
  0
LINE
  5
15209
  8
AM_0
 10
652.89604483488768
 20
209.59957144231271
 30
0.0
 11
651.88676483488757
 21
202.9493914423127
 31
0.0
  0
LINE
  5
1520A
  8
AM_0
 10
664.62602483488786
 20
210.62951144231269
 30
0.0
 11
662.39604483488779
 21
210.62951144231269
 31
0.0
  0
LINE
  5
1520B
  8
AM_0
 10
664.65605483488775
 20
211.77953144231259
 30
0.0
 11
662.39604483488779
 21
211.77953144231259
 31
0.0
  0
ARC
  5
1520C
  8
AM_0
 10
662.39555483488766
 20
210.1299914423127
 30
0.0
 40
0.49952301
 50
89.945226000000403
 51
180.0547699999986
  0
ARC
  5
1520D
  8
AM_0
 10
662.39940483488783
 20
212.28295144231271
 30
0.0
 40
0.5033929900000002
 50
180.38490000000181
 51
269.61508999999938
  0
LINE
  5
1520E
  8
AM_0
 10
661.89604483488779
 20
210.37951144231269
 30
0.0
 11
660.89604483488768
 21
210.37951144231269
 31
0.0
  0
LINE
  5
1520F
  8
AM_0
 10
664.89604483488768
 20
210.87951144231269
 30
0.0
 11
664.89604483488768
 21
211.4095414423127
 31
0.0
  0
LINE
  5
15210
  8
AM_0
 10
665.12602483488774
 20
210.76952144231271
 30
0.0
 11
666.39598483488783
 21
211.49950144231269
 31
0.0
  0
ARC
  5
15211
  8
AM_0
 10
665.89842483488746
 20
212.36412144231269
 30
0.0
 40
0.9976310099999999
 50
299.92075999999929
 51
359.73219000000142
  0
ARC
  5
15212
  8
AM_0
 10
664.61534483488776
 20
211.6306014423127
 30
0.0
 40
1.001123999999999
 50
270.61232000000132
 51
300.67217999999917
  0
ARC
  5
15213
  8
AM_0
 10
664.650194834888
 20
212.7788014423127
 30
0.0
 40
0.9993420200000001
 50
270.3345399999983
 51
297.1380000000006
  0
LINE
  5
15214
  8
AM_0
 10
660.19603483488766
 20
217.18956144231279
 30
0.0
 11
653.9660548348877
 21
217.18956144231279
 31
0.0
  0
ARC
  5
15215
  8
AM_0
 10
650.35142483488755
 20
225.37951144231269
 30
0.0
 40
1.0000138999999999
 50
269.69165999999939
 51
90.308340000000754
  0
ARC
  5
15216
  8
AM_0
 10
651.22288483488785
 20
225.33446144231269
 30
0.0
 40
1.675014
 50
269.7664900000006
 51
90.233500999999919
  0
POLYLINE
  5
15217
  8
AM_0
 66
     1
 10
0.0
 20
0.0
 30
0.0
  0
VERTEX
  5
15218
  8
AM_0
 10
649.03514483488755
 20
233.89647144231279
 30
0.0
 42
-0.0006890001
  0
VERTEX
  5
15219
  8
AM_0
 10
648.9642648348879
 20
233.32172144231279
 30
0.0
 42
-0.00070644651
  0
VERTEX
  5
1521A
  8
AM_0
 10
648.89176483488745
 20
232.74704144231271
 30
0.0
 42
-0.0006924559
  0
VERTEX
  5
1521B
  8
AM_0
 10
648.81767483488761
 20
232.17272144231279
 30
0.0
 42
-0.00069587797
  0
VERTEX
  5
1521C
  8
AM_0
 10
648.74199483488746
 20
231.59858144231271
 30
0.0
 42
-0.00071687041
  0
VERTEX
  5
1521D
  8
AM_0
 10
648.66468483488802
 20
231.02458144231261
 30
0.0
 42
-0.00069759113
  0
VERTEX
  5
1521E
  8
AM_0
 10
648.58574483488781
 20
230.45079144231269
 30
0.0
 42
-0.00071003142
  0
VERTEX
  5
1521F
  8
AM_0
 10
648.50520483488765
 20
229.87732144231271
 30
0.0
 42
-0.00069954544
  0
VERTEX
  5
15220
  8
AM_0
 10
648.42306483488767
 20
229.30422144231269
 30
0.0
 42
-0.0007188852
  0
VERTEX
  5
15221
  8
AM_0
 10
648.33928483488774
 20
228.73119144231271
 30
0.0
 42
-0.00071266165
  0
VERTEX
  5
15222
  8
AM_0
 10
648.25385483488765
 20
228.15843144231269
 30
0.0
 42
-0.00071614577
  0
VERTEX
  5
15223
  8
AM_0
 10
648.16682483488762
 20
227.5860814423126
 30
0.0
 42
-0.00072290806
  0
VERTEX
  5
15224
  8
AM_0
 10
648.07811483488763
 20
227.01378144231271
 30
0.0
  0
SEQEND
  5
15225
  8
AM_0
  0
LINE
  5
15226
  8
AM_0
 10
664.62602483488786
 20
218.39953144231259
 30
0.0
 11
662.89604483488779
 21
218.39953144231259
 31
0.0
  0
LINE
  5
15227
  8
AM_0
 10
664.59599483488785
 20
217.25951144231269
 30
0.0
 11
661.89604483488779
 21
217.25951144231269
 31
0.0
  0
LINE
  5
15228
  8
AM_0
 10
664.61601483488789
 20
212.7394914423127
 30
0.0
 11
661.89604483488779
 21
212.7394914423127
 31
0.0
  0
LINE
  5
15229
  8
AM_0
 10
664.64604483488779
 20
213.87951144231269
 30
0.0
 11
662.89604483488779
 21
213.87951144231269
 31
0.0
  0
ARC
  5
1522A
  8
AM_0
 10
662.898484834888
 20
219.40197144231271
 30
0.0
 40
1.002470999999999
 50
180.14107000000001
 51
269.85892999999987
  0
ARC
  5
1522B
  8
AM_0
 10
662.89927483488759
 20
219.40624144231271
 30
0.0
 40
1.0032760000000001
 50
180.38188999999531
 51
205.80189999999499
  0
ARC
  5
1522C
  8
AM_0
 10
662.90013483488781
 20
214.8836614423127
 30
0.0
 40
1.0041199999999999
 50
180.23461
 51
269.76539000000002
  0
LINE
  5
1522D
  8
AM_0
 10
665.14610483488764
 20
217.4194814423127
 30
0.0
 11
666.4460948348875
 21
218.2694914423127
 31
0.0
  0
LINE
  5
1522E
  8
AM_0
 10
664.89604483488768
 20
217.54955144231269
 30
0.0
 11
664.89604483488768
 21
218.01952144231271
 31
0.0
  0
LINE
  5
1522F
  8
AM_0
 10
665.12602483488774
 20
218.52956144231271
 30
0.0
 11
666.40599483488779
 21
219.27953144231259
 31
0.0
  0
ARC
  5
15230
  8
AM_0
 10
665.89695483488742
 20
219.10424144231271
 30
0.0
 40
0.9990889999999998
 50
303.33790999999752
 51
0.3049100000035238
  0
LINE
  5
15231
  8
AM_0
 10
666.40605483488775
 20
219.27950144231269
 30
0.0
 11
666.42607483488746
 21
219.28948144231271
 31
0.0
  0
ARC
  5
15232
  8
AM_0
 10
665.89756483488736
 20
220.13878144231279
 30
0.0
 40
0.9984580299999999
 50
300.61343000000079
 51
0.0404200000014761
  0
ARC
  5
15233
  8
AM_0
 10
665.89756483488736
 20
220.13878144231279
 30
0.0
 40
0.9984580299999999
 50
300.61343000000079
 51
0.0404200000014761
  0
ARC
  5
15234
  8
AM_0
 10
664.63267483488755
 20
219.4005014423127
 30
0.0
 40
1.001044999999998
 50
269.62029000000052
 51
299.52812999999918
  0
LINE
  5
15235
  8
AM_0
 10
665.11601483488778
 20
213.99950144231269
 30
0.0
 11
666.36601483488789
 21
214.65950144231269
 31
0.0
  0
LINE
  5
15236
  8
AM_0
 10
665.13597483488786
 20
212.87951144231269
 30
0.0
 11
666.41600483488764
 21
213.64953144231271
 31
0.0
  0
ARC
  5
15237
  8
AM_0
 10
665.89726483488778
 20
214.50304144231271
 30
0.0
 40
0.9987969999999998
 50
301.2920499999999
 51
0.3727199999990191
  0
ARC
  5
15238
  8
AM_0
 10
665.89830483488743
 20
215.54076144231269
 30
0.0
 40
0.9977070099999998
 50
297.95518999999922
 51
359.925979999996
  0
LINE
  5
15239
  8
AM_0
 10
664.89604483488768
 20
212.9794814423127
 30
0.0
 11
664.89604483488768
 21
213.52953144231259
 31
0.0
  0
ARC
  5
1523A
  8
AM_0
 10
664.64085483488782
 20
214.8801214423128
 30
0.0
 40
1.0006820000000001
 50
270.29607000000112
 51
298.34937999999829
  0
ARC
  5
1523B
  8
AM_0
 10
664.62462483488775
 20
213.74315144231269
 30
0.0
 40
1.003743999999998
 50
269.50809999999939
 51
300.62887000000268
  0
ARC
  5
1523C
  8
AM_0
 10
664.60325483488782
 20
218.2600014423127
 30
0.0
 40
1.000521999999999
 50
269.58655999999962
 51
302.85382000000021
  0
LINE
  5
1523D
  8
AM_0
 10
664.69603483488766
 20
224.68956144231279
 30
0.0
 11
662.59605483488781
 21
224.68956144231279
 31
0.0
  0
LINE
  5
1523E
  8
AM_0
 10
664.746014834888
 20
226.63952144231271
 30
0.0
 11
662.89604483488779
 21
226.63952144231271
 31
0.0
  0
ARC
  5
1523F
  8
AM_0
 10
662.59550483488761
 20
223.99010144231269
 30
0.0
 40
0.6994530000000001
 50
89.95517099999924
 51
180.04482999999919
  0
ARC
  5
15240
  8
AM_0
 10
662.89940483488783
 20
227.64281144231271
 30
0.0
 40
1.003352
 50
180.1910999999989
 51
269.80888999999979
  0
ARC
  5
15241
  8
AM_0
 10
665.89952483488764
 20
226.20800144231271
 30
0.0
 40
0.9965090199999998
 50
292.82154999999977
 51
0.086250000003428
  0
LINE
  5
15242
  8
AM_0
 10
665.08598483488777
 20
224.76955144231269
 30
0.0
 11
666.28599483488745
 21
225.28957144231279
 31
0.0
  0
LINE
  5
15243
  8
AM_0
 10
664.89604483488768
 20
224.9894914423127
 30
0.0
 11
664.89604483488768
 21
226.04955144231269
 31
0.0
  0
LINE
  5
15244
  8
AM_0
 10
665.03605483488775
 20
226.6794914423127
 30
0.0
 11
666.1860248348878
 21
227.03951144231269
 31
0.0
  0
ARC
  5
15245
  8
AM_0
 10
665.89964483488779
 20
227.9938914423127
 30
0.0
 40
0.99638802
 50
286.70335999999969
 51
359.75009000000108
  0
ARC
  5
15246
  8
AM_0
 10
664.69304483488781
 20
225.69469144231269
 30
0.0
 40
1.005233
 50
270.17075000000051
 51
293.0136099999998
  0
ARC
  5
15247
  8
AM_0
 10
664.75547483488765
 20
227.64220144231271
 30
0.0
 40
1.002699
 50
269.45935999999892
 51
286.24727999999777
  0
LINE
  5
15248
  8
AM_0
 10
651.62602483488774
 20
264.11950144231281
 30
0.0
 11
615.17735483488764
 21
264.11950144231281
 31
0.0
  0
LINE
  5
15249
  8
AM_0
 10
651.62602483488774
 20
266.64953144231259
 30
0.0
 11
615.17735483488764
 21
266.64953144231259
 31
0.0
  0
LINE
  5
1524A
  8
AM_0
 10
616.4573248348878
 20
264.37951144231272
 30
0.0
 11
650.53605483488775
 21
264.37951144231272
 31
0.0
  0
LINE
  5
1524B
  8
AM_0
 10
616.4573248348878
 20
266.37951144231272
 30
0.0
 11
650.53605483488775
 21
266.37951144231272
 31
0.0
  0
LINE
  5
1524C
  8
AM_0
 10
651.56602483488768
 20
274.05956144231283
 30
0.0
 11
615.23735483488758
 21
274.05956144231283
 31
0.0
  0
LINE
  5
1524D
  8
AM_0
 10
616.4573248348878
 20
274.37951144231272
 30
0.0
 11
650.53605483488775
 21
274.37951144231272
 31
0.0
  0
LINE
  5
1524E
  8
AM_0
 10
651.56602483488768
 20
276.71947144231268
 30
0.0
 11
615.23735483488758
 21
276.71947144231268
 31
0.0
  0
LINE
  5
1524F
  8
AM_0
 10
616.4573248348878
 20
276.37951144231272
 30
0.0
 11
650.53605483488775
 21
276.37951144231272
 31
0.0
  0
LINE
  5
15250
  8
AM_0
 10
616.4573248348878
 20
256.37951144231272
 30
0.0
 11
650.53605483488775
 21
256.37951144231272
 31
0.0
  0
LINE
  5
15251
  8
AM_0
 10
651.62602483488774
 20
256.64953144231259
 30
0.0
 11
615.17735483488764
 21
256.64953144231259
 31
0.0
  0
LINE
  5
15252
  8
AM_0
 10
651.56602483488768
 20
244.0395414423127
 30
0.0
 11
615.22477483488785
 21
244.0395414423127
 31
0.0
  0
LINE
  5
15253
  8
AM_0
 10
616.4573248348878
 20
244.37951144231269
 30
0.0
 11
650.53605483488775
 21
244.37951144231269
 31
0.0
  0
LINE
  5
15254
  8
AM_0
 10
616.4573248348878
 20
246.37951144231269
 30
0.0
 11
650.53605483488775
 21
246.37951144231269
 31
0.0
  0
LINE
  5
15255
  8
AM_0
 10
651.56602483488768
 20
246.69945144231269
 30
0.0
 11
615.23735483488758
 21
246.69945144231269
 31
0.0
  0
LINE
  5
15256
  8
AM_0
 10
651.62602483488774
 20
254.1094914423127
 30
0.0
 11
615.17735483488764
 21
254.1094914423127
 31
0.0
  0
LINE
  5
15257
  8
AM_0
 10
616.4573248348878
 20
254.37951144231269
 30
0.0
 11
650.53605483488775
 21
254.37951144231269
 31
0.0
  0
ARC
  5
15258
  8
AM_0
 10
616.4573248348878
 20
255.37951144231269
 30
0.0
 40
1.000005699999998
 50
89.999996999999041
 51
270.000010000001
  0
ARC
  5
15259
  8
AM_0
 10
615.16911483488798
 20
255.37951144231269
 30
0.0
 40
1.2700266
 50
89.629330000001815
 51
270.37067999999999
  0
ARC
  5
1525A
  8
AM_0
 10
616.4573248348878
 20
245.37951144231269
 30
0.0
 40
1.000005699999998
 50
89.999996999999041
 51
270.000010000001
  0
ARC
  5
1525B
  8
AM_0
 10
615.23106483488766
 20
245.36950144231281
 30
0.0
 40
1.3300148000000001
 50
89.729432999998977
 51
270.2705800000013
  0
ARC
  5
1525C
  8
AM_0
 10
616.4573248348878
 20
265.37951144231272
 30
0.0
 40
1.000005699999998
 50
89.999996999999041
 51
270.000010000001
  0
ARC
  5
1525D
  8
AM_0
 10
615.16911483488798
 20
265.38952144231268
 30
0.0
 40
1.2700266
 50
89.629330000001815
 51
270.37067999999999
  0
ARC
  5
1525E
  8
AM_0
 10
616.4573248348878
 20
275.37951144231272
 30
0.0
 40
1.000005699999998
 50
89.999996999999041
 51
270.000010000001
  0
ARC
  5
1525F
  8
AM_0
 10
615.23106483488766
 20
275.39452144231268
 30
0.0
 40
1.3350147999999999
 50
89.730443999998613
 51
270.2695700000001
  0
ARC
  5
15260
  8
AM_0
 10
665.90092483488775
 20
255.3843914423127
 30
0.0
 40
0.9950770099999999
 50
359.7158599999994
 51
90.284140000000534
  0
LINE
  5
15261
  8
AM_0
 10
664.89604483488768
 20
254.76952144231271
 30
0.0
 11
664.89604483488768
 21
255.92955144231269
 31
0.0
  0
ARC
  5
15262
  8
AM_0
 10
650.35142483488755
 20
255.37951144231269
 30
0.0
 40
1.0000138999999999
 50
269.69165999999939
 51
90.308340000000754
  0
ARC
  5
15263
  8
AM_0
 10
651.63188483488761
 20
255.37951144231269
 30
0.0
 40
1.2700129999999981
 50
269.73663000000079
 51
90.263383000001653
  0
LINE
  5
15264
  8
AM_0
 10
669.38994131926268
 20
245.15767916692209
 30
0.0
 11
669.38994131926268
 21
275.60131320012522
 31
0.0
  0
ARC
  5
15265
  8
AM_0
 10
650.35142483488755
 20
245.37951144231269
 30
0.0
 40
1.0000138999999999
 50
269.69165999999939
 51
90.308340000000754
  0
ARC
  5
15266
  8
AM_0
 10
651.56602483488768
 20
245.36950144231281
 30
0.0
 40
1.3300049999999981
 50
270.0
 51
89.999996999999041
  0
ARC
  5
15267
  8
AM_0
 10
650.35142483488755
 20
235.37951144231269
 30
0.0
 40
1.0000138999999999
 50
269.69165999999939
 51
90.308340000000754
  0
POLYLINE
  5
15268
  8
AM_0
 66
     1
 10
0.0
 20
0.0
 30
0.0
  0
VERTEX
  5
15269
  8
AM_0
 10
650.01780483488767
 20
244.0389314423127
 30
0.0
 42
-0.00073721992
  0
VERTEX
  5
1526A
  8
AM_0
 10
649.97365483488761
 20
243.43652144231271
 30
0.0
 42
-0.00074398496
  0
VERTEX
  5
1526B
  8
AM_0
 10
649.92772483488773
 20
242.83425144231271
 30
0.0
 42
-0.00073322625
  0
VERTEX
  5
1526C
  8
AM_0
 10
649.87999483488738
 20
242.23192144231271
 30
0.0
 42
-0.00073594289
  0
VERTEX
  5
1526D
  8
AM_0
 10
649.83051483488782
 20
241.62993144231271
 30
0.0
 42
-0.00074742568
  0
VERTEX
  5
1526E
  8
AM_0
 10
649.77924483488744
 20
241.02807144231269
 30
0.0
 42
-0.00073216749
  0
VERTEX
  5
1526F
  8
AM_0
 10
649.72618483488782
 20
240.42626144231269
 30
0.0
 42
-0.00074184065
  0
VERTEX
  5
15270
  8
AM_0
 10
649.67136483488798
 20
239.8247314423127
 30
0.0
 42
-0.00072077528
  0
VERTEX
  5
15271
  8
AM_0
 10
649.61478483488759
 20
239.22350144231271
 30
0.0
 42
-0.00074978179
  0
VERTEX
  5
15272
  8
AM_0
 10
649.55644483488777
 20
238.6223014423127
 30
0.0
 42
-0.00074288888
  0
VERTEX
  5
15273
  8
AM_0
 10
649.49629483488775
 20
238.0212814423127
 30
0.0
 42
-0.00072503679
  0
VERTEX
  5
15274
  8
AM_0
 10
649.43438483488774
 20
237.4205414423127
 30
0.0
 42
-0.00074640584
  0
VERTEX
  5
15275
  8
AM_0
 10
649.37071483488774
 20
236.81994144231271
 30
0.0
  0
SEQEND
  5
15276
  8
AM_0
  0
POLYLINE
  5
15277
  8
AM_0
 66
     1
 10
0.0
 20
0.0
 30
0.0
  0
VERTEX
  5
15278
  8
AM_0
 10
650.49199483488746
 20
254.1091214423127
 30
0.0
 42
-0.00076695232
  0
VERTEX
  5
15279
  8
AM_0
 10
650.47719483488765
 20
253.49136144231269
 30
0.0
 42
-0.00073263044
  0
VERTEX
  5
1527A
  8
AM_0
 10
650.46055483488783
 20
252.87376144231271
 30
0.0
 42
-0.0007652599
  0
VERTEX
  5
1527B
  8
AM_0
 10
650.44206483488801
 20
252.25609144231271
 30
0.0
 42
-0.00075144485
  0
VERTEX
  5
1527C
  8
AM_0
 10
650.42169483488772
 20
251.6384914423127
 30
0.0
 42
-0.00078594403
  0
VERTEX
  5
1527D
  8
AM_0
 10
650.39944483488773
 20
251.0210614423128
 30
0.0
 42
-0.00073349202
  0
VERTEX
  5
1527E
  8
AM_0
 10
650.37529483488765
 20
250.4036814423126
 30
0.0
 42
-0.0007358075
  0
VERTEX
  5
1527F
  8
AM_0
 10
650.34935483488778
 20
249.78628144231271
 30
0.0
 42
-0.00078592699
  0
VERTEX
  5
15280
  8
AM_0
 10
650.32152483488755
 20
249.1688914423126
 30
0.0
 42
-0.00074823144
  0
VERTEX
  5
15281
  8
AM_0
 10
650.29179483488781
 20
248.55150144231271
 30
0.0
 42
-0.00074896603
  0
VERTEX
  5
15282
  8
AM_0
 10
650.2602348348878
 20
247.93437144231271
 30
0.0
 42
-0.00076039765
  0
VERTEX
  5
15283
  8
AM_0
 10
650.22681483488782
 20
247.31734144231271
 30
0.0
 42
-0.00075616128
  0
VERTEX
  5
15284
  8
AM_0
 10
650.19151483488781
 20
246.70031144231271
 30
0.0
  0
SEQEND
  5
15285
  8
AM_0
  0
LINE
  5
15286
  8
AM_0
 10
669.38991080168466
 20
245.15767916692209
 30
0.0
 11
668.88991080168478
 21
242.38769015325019
 31
0.0
  0
ARC
  5
15287
  8
AM_0
 10
665.89579483488774
 20
245.37975144231271
 30
0.0
 40
1.000199999999998
 50
270.01145999999858
 51
359.98854000000131
  0
LINE
  5
15288
  8
AM_0
 10
664.89604483488768
 20
244.76952144231271
 30
0.0
 11
664.89604483488768
 21
245.9894914423127
 31
0.0
  0
LINE
  5
15289
  8
AM_0
 10
662.89604483488779
 20
244.37951144231269
 30
0.0
 11
665.89604483488779
 21
244.37951144231269
 31
0.0
  0
LINE
  5
1528A
  8
AM_0
 10
662.89604483488779
 20
236.37951144231269
 30
0.0
 11
665.89604483488779
 21
236.37951144231269
 31
0.0
  0
LINE
  5
1528B
  8
AM_0
 10
662.89604483488779
 20
234.37951144231269
 30
0.0
 11
665.89604483488779
 21
234.37951144231269
 31
0.0
  0
ARC
  5
1528C
  8
AM_0
 10
662.89586483488767
 20
243.37963144231259
 30
0.0
 40
0.9998210099999999
 50
89.989718000001702
 51
180.01028000000201
  0
ARC
  5
1528D
  8
AM_0
 10
662.90098483488759
 20
237.3843914423127
 30
0.0
 40
1.0049469
 50
180.2813699999993
 51
269.71863000000081
  0
LINE
  5
1528E
  8
AM_0
 10
668.88994131926268
 20
242.38769015325019
 30
0.0
 11
668.38991080168455
 21
242.42769869817209
 31
0.0
  0
LINE
  5
1528F
  8
AM_0
 10
668.39604483488768
 20
240.37948144231271
 30
0.0
 11
666.89604483488779
 21
240.24947144231271
 31
0.0
  0
LINE
  5
15290
  8
AM_0
 10
668.39604483488768
 20
243.09948144231271
 30
0.0
 11
666.89604483488779
 21
243.09948144231271
 31
0.0
  0
ARC
  5
15291
  8
AM_0
 10
665.89579483488774
 20
235.37975144231271
 30
0.0
 40
1.0001959999999981
 50
270.01124999999951
 51
359.98875000000061
  0
ARC
  5
15292
  8
AM_0
 10
665.90092483488775
 20
235.3843914423127
 30
0.0
 40
0.9950849999999999
 50
359.71628000000078
 51
90.283717000000564
  0
LINE
  5
15293
  8
AM_0
 10
664.89604483488768
 20
234.74950144231269
 30
0.0
 11
664.89604483488768
 21
236.1195014423127
 31
0.0
  0
LINE
  5
15294
  8
AM_0
 10
662.89604483488779
 20
254.37951144231269
 30
0.0
 11
665.89604483488779
 21
254.37951144231269
 31
0.0
  0
LINE
  5
15295
  8
AM_0
 10
662.89604483488779
 20
246.37951144231269
 30
0.0
 11
665.89604483488779
 21
246.37951144231269
 31
0.0
  0
ARC
  5
15296
  8
AM_0
 10
662.89586483488767
 20
253.37963144231259
 30
0.0
 40
0.9998279799999998
 50
89.990161999999827
 51
180.00984000000301
  0
ARC
  5
15297
  8
AM_0
 10
662.90098483488759
 20
247.3843914423127
 30
0.0
 40
1.004939
 50
180.28092999999899
 51
269.71906000000018
  0
ARC
  5
15298
  8
AM_0
 10
665.89579483488774
 20
255.37975144231271
 30
0.0
 40
1.0002040000000001
 50
270.01167999999927
 51
359.98834000000318
  0
ARC
  5
15299
  8
AM_0
 10
665.90092483488775
 20
245.3843914423127
 30
0.0
 40
0.9950810099999999
 50
359.71607999999549
 51
90.283927999999861
  0
LINE
  5
1529A
  8
AM_0
 10
668.39604483488768
 20
245.2294814423127
 30
0.0
 11
666.89604483488779
 21
245.2294814423127
 31
0.0
  0
POLYLINE
  5
1529B
  8
AM_0
 66
     1
 10
0.0
 20
0.0
 30
0.0
  0
VERTEX
  5
1529C
  8
AM_0
 10
650.49199483488746
 20
266.64989144231259
 30
0.0
 42
0.00076691987
  0
VERTEX
  5
1529D
  8
AM_0
 10
650.47719483488765
 20
267.26765144231268
 30
0.0
 42
0.00073262795
  0
VERTEX
  5
1529E
  8
AM_0
 10
650.46055483488783
 20
267.88525144231272
 30
0.0
 42
0.0007652954
  0
VERTEX
  5
1529F
  8
AM_0
 10
650.44206483488801
 20
268.50292144231281
 30
0.0
 42
0.00077334627
  0
VERTEX
  5
152A0
  8
AM_0
 10
650.42165483488782
 20
269.12052144231268
 30
0.0
 42
0.00073282897
  0
VERTEX
  5
152A1
  8
AM_0
 10
650.39939483488774
 20
269.73794144231272
 30
0.0
 42
0.0007571179
  0
VERTEX
  5
152A2
  8
AM_0
 10
650.37529483488765
 20
270.35546144231267
 30
0.0
 42
0.00073783152
  0
VERTEX
  5
152A3
  8
AM_0
 10
650.34935483488778
 20
270.97285144231267
 30
0.0
 42
0.0007835518
  0
VERTEX
  5
152A4
  8
AM_0
 10
650.32152483488755
 20
271.59012144231269
 30
0.0
 42
0.00074826133
  0
VERTEX
  5
152A5
  8
AM_0
 10
650.29179483488781
 20
272.20751144231269
 30
0.0
 42
0.00074893555
  0
VERTEX
  5
152A6
  8
AM_0
 10
650.2602348348878
 20
272.82464144231272
 30
0.0
 42
0.00076039841
  0
VERTEX
  5
152A7
  8
AM_0
 10
650.22681483488782
 20
273.44167144231272
 30
0.0
 42
0.00075618789
  0
VERTEX
  5
152A8
  8
AM_0
 10
650.19151483488781
 20
274.05870144231272
 30
0.0
  0
SEQEND
  5
152A9
  8
AM_0
  0
ARC
  5
152AA
  8
AM_0
 10
650.35142483488755
 20
265.37951144231272
 30
0.0
 40
1.0000138999999999
 50
269.69165999999939
 51
90.308340000000754
  0
ARC
  5
152AB
  8
AM_0
 10
651.63188483488761
 20
265.38451144231271
 30
0.0
 40
1.2650129999999991
 50
269.73559000000068
 51
90.264420999998222
  0
POLYLINE
  5
152AC
  8
AM_0
 66
     1
 10
0.0
 20
0.0
 30
0.0
  0
VERTEX
  5
152AD
  8
AM_0
 10
650.53605483488775
 20
260.37951144231272
 30
0.0
 42
-0.00039106593
  0
VERTEX
  5
152AE
  8
AM_0
 10
650.53841483488782
 20
260.0683714423127
 30
0.0
 42
-0.00040574899
  0
VERTEX
  5
152AF
  8
AM_0
 10
650.54028483488787
 20
259.75726144231271
 30
0.0
 42
-0.0003534546
  0
VERTEX
  5
152B0
  8
AM_0
 10
650.54167483488777
 20
259.4461614423127
 30
0.0
 42
-0.00034407327
  0
VERTEX
  5
152B1
  8
AM_0
 10
650.54265483488734
 20
259.13502144231268
 30
0.0
 42
-0.00045699408
  0
VERTEX
  5
152B2
  8
AM_0
 10
650.54311483488766
 20
258.82391144231269
 30
0.0
 42
-0.00035571853
  0
VERTEX
  5
152B3
  8
AM_0
 10
650.54307483488765
 20
258.51281144231268
 30
0.0
 42
-0.00038547362
  0
VERTEX
  5
152B4
  8
AM_0
 10
650.54258483488775
 20
258.20167144231277
 30
0.0
 42
-0.00035501498
  0
VERTEX
  5
152B5
  8
AM_0
 10
650.54162483488756
 20
257.89057144231271
 30
0.0
 42
-0.00040118614
  0
VERTEX
  5
152B6
  8
AM_0
 10
650.54020483488762
 20
257.57933144231271
 30
0.0
 42
-0.00038319871
  0
VERTEX
  5
152B7
  8
AM_0
 10
650.53829483488755
 20
257.26820144231272
 30
0.0
 42
-0.00040742136
  0
VERTEX
  5
152B8
  8
AM_0
 10
650.5358948348877
 20
256.95697144231269
 30
0.0
 42
-0.0003578071
  0
VERTEX
  5
152B9
  8
AM_0
 10
650.53300483488738
 20
256.64586144231271
 30
0.0
  0
SEQEND
  5
152BA
  8
AM_0
  0
POLYLINE
  5
152BB
  8
AM_0
 66
     1
 10
0.0
 20
0.0
 30
0.0
  0
VERTEX
  5
152BC
  8
AM_0
 10
650.53605483488775
 20
260.37951144231272
 30
0.0
 42
0.00039106653
  0
VERTEX
  5
152BD
  8
AM_0
 10
650.53841483488782
 20
260.6906414423126
 30
0.0
 42
0.00040574511
  0
VERTEX
  5
152BE
  8
AM_0
 10
650.54028483488787
 20
261.00175144231281
 30
0.0
 42
0.00035346331
  0
VERTEX
  5
152BF
  8
AM_0
 10
650.54167483488777
 20
261.31286144231279
 30
0.0
 42
0.00034406545
  0
VERTEX
  5
152C0
  8
AM_0
 10
650.54265483488734
 20
261.6240014423127
 30
0.0
 42
0.00045699059
  0
VERTEX
  5
152C1
  8
AM_0
 10
650.54311483488766
 20
261.93510144231271
 30
0.0
 42
0.00035573431
  0
VERTEX
  5
152C2
  8
AM_0
 10
650.54307483488765
 20
262.24620144231272
 30
0.0
 42
0.00038545888
  0
VERTEX
  5
152C3
  8
AM_0
 10
650.54258483488775
 20
262.55734144231269
 30
0.0
 42
0.00035501203
  0
VERTEX
  5
152C4
  8
AM_0
 10
650.54162483488756
 20
262.86845144231268
 30
0.0
 42
0.00040120778
  0
VERTEX
  5
152C5
  8
AM_0
 10
650.54020483488762
 20
263.1796814423127
 30
0.0
 42
0.00038317821
  0
VERTEX
  5
152C6
  8
AM_0
 10
650.53829483488755
 20
263.4908114423128
 30
0.0
 42
0.00040741862
  0
VERTEX
  5
152C7
  8
AM_0
 10
650.5358948348877
 20
263.8020414423126
 30
0.0
 42
0.00035783324
  0
VERTEX
  5
152C8
  8
AM_0
 10
650.53300483488738
 20
264.11315144231281
 30
0.0
  0
SEQEND
  5
152C9
  8
AM_0
  0
ARC
  5
152CA
  8
AM_0
 10
650.35142483488755
 20
275.37951144231272
 30
0.0
 40
1.0000138999999999
 50
269.69165999999939
 51
90.308340000000754
  0
ARC
  5
152CB
  8
AM_0
 10
651.56602483488768
 20
275.38952144231268
 30
0.0
 40
1.3300049999999981
 50
270.0
 51
89.999996999999041
  0
ARC
  5
152CC
  8
AM_0
 10
662.90098483488759
 20
267.38439144231268
 30
0.0
 40
1.0049469
 50
180.28133999999929
 51
269.71864999999963
  0
LINE
  5
152CD
  8
AM_0
 10
662.89604483488779
 20
266.37951144231272
 30
0.0
 11
665.89604483488779
 21
266.37951144231272
 31
0.0
  0
LINE
  5
152CE
  8
AM_0
 10
662.89604483488779
 20
264.37951144231272
 30
0.0
 11
665.89604483488779
 21
264.37951144231272
 31
0.0
  0
LINE
  5
152CF
  8
AM_0
 10
662.89604483488779
 20
256.37951144231272
 30
0.0
 11
665.89604483488779
 21
256.37951144231272
 31
0.0
  0
ARC
  5
152D0
  8
AM_0
 10
662.89586483488767
 20
263.37963144231259
 30
0.0
 40
0.9998249999999999
 50
89.989949999998785
 51
180.01005000000109
  0
ARC
  5
152D1
  8
AM_0
 10
662.90098483488759
 20
257.38439144231268
 30
0.0
 40
1.004942999999999
 50
180.28113000000181
 51
269.71886000000057
  0
ARC
  5
152D2
  8
AM_0
 10
665.90092483488775
 20
265.38439144231268
 30
0.0
 40
0.9950849999999999
 50
359.71631000000031
 51
90.283688999999086
  0
ARC
  5
152D3
  8
AM_0
 10
665.89579483488774
 20
265.37975144231268
 30
0.0
 40
1.0001959999999981
 50
270.01121999999913
 51
359.98878000000411
  0
LINE
  5
152D4
  8
AM_0
 10
664.89604483488768
 20
265.98949144231261
 30
0.0
 11
664.89604483488768
 21
264.82946144231261
 31
0.0
  0
LINE
  5
152D5
  8
AM_0
 10
662.89604483488779
 20
274.37951144231272
 30
0.0
 11
665.89604483488779
 21
274.37951144231272
 31
0.0
  0
LINE
  5
152D6
  8
AM_0
 10
662.89604483488779
 20
276.37951144231272
 30
0.0
 11
665.89604483488779
 21
276.37951144231272
 31
0.0
  0
ARC
  5
152D7
  8
AM_0
 10
662.89586483488767
 20
273.37963144231259
 30
0.0
 40
0.9998210099999999
 50
89.989745000000994
 51
180.01024999999851
  0
ARC
  5
152D8
  8
AM_0
 10
662.90098483488759
 20
277.38439144231268
 30
0.0
 40
1.004939
 50
180.2809000000002
 51
269.71908999999908
  0
ARC
  5
152D9
  8
AM_0
 10
665.89579483488774
 20
275.37975144231268
 30
0.0
 40
1.000199999999998
 50
270.01143000000161
 51
359.98856999999839
  0
LINE
  5
152DA
  8
AM_0
 10
664.89604483488768
 20
275.98949144231273
 30
0.0
 11
664.89604483488768
 21
274.7795314423127
 31
0.0
  0
ARC
  5
152DB
  8
AM_0
 10
665.90092483488775
 20
275.38439144231268
 30
0.0
 40
0.99508202
 50
359.716090000002
 51
90.283901000001777
  0
LINE
  5
152DC
  8
AM_0
 10
668.39604483488768
 20
275.52953144231259
 30
0.0
 11
666.89604483488779
 21
275.52953144231259
 31
0.0
  0
LINE
  5
152E9
  8
AM_0
 10
544.89604483488756
 20
292.3194514423127
 30
0.0
 11
536.8960448348879
 21
292.3194514423127
 31
0.0
  0
LINE
  5
152EA
  8
AM_0
 10
544.89604483488756
 20
306.37951144231272
 30
0.0
 11
536.8960448348879
 21
306.37951144231272
 31
0.0
  0
LINE
  5
152EB
  8
AM_0
 10
544.89604483488756
 20
316.87893644241251
 30
0.0
 11
536.8960448348879
 21
316.87893644241251
 31
0.0
  0
LINE
  5
152EC
  8
AM_0
 10
512.05867210228234
 20
299.87951144231232
 30
0.0
 11
444.39604584816658
 21
299.87951144231232
 31
0.0
  0
ARC
  5
152ED
  8
0
 10
442.39603187087658
 20
414.05456574958049
 30
0.0
 40
112.1750543072711
 50
272.00771376012813
 51
294.46591933285879
  0
LINE
  5
152EE
  8
0
 10
444.39604584816658
 20
295.87951144231272
 30
0.0
 11
444.39604584816658
 21
299.94960129031682
 31
0.0
  0
LINE
  5
152EF
  8
0
 10
440.39604584816658
 20
295.87951144231272
 30
0.0
 11
440.39604584816658
 21
299.94960031035669
 31
0.0
  0
ARC
  5
152F0
  8
0
 10
442.39604584816652
 20
295.87951144231272
 30
0.0
 40
2.0
 50
180.0
 51
0.0
  0
ARC
  5
152F1
  8
0
 10
446.39604584816652
 20
299.94960129031682
 30
0.0
 40
2.0
 50
92.007713760129676
 51
180.0
1001
GENIUS_GENODEF_13
1002
{
1000
HIER
1070
     0
1002
}
1002
{
1000
MANEDIT
1070
     0
1002
}
1002
{
1000
NOSEL
1070
     0
1002
}
1002
{
1000
BEHIND
1070
     0
1002
}
1002
{
1000
OTHER
1070
     0
1002
}
1002
{
1000
REACTOR
1002
}
1001
GENIUS_GENOBJ-N-FIL_13
1002
{
1000
OWNER
1000
GEN
1002
}
  0
ARC
  5
152F2
  8
0
 10
438.39604584816652
 20
299.94960031035669
 30
0.0
 40
2.0
 50
0.0
 51
87.992300276766798
1001
GENIUS_GENOBJ-N-FIL_13
1002
{
1000
OWNER
1000
GEN
1002
}
1001
GENIUS_GENODEF_13
1002
{
1000
HIER
1070
     0
1002
}
1002
{
1000
MANEDIT
1070
     0
1002
}
1002
{
1000
NOSEL
1070
     0
1002
}
1002
{
1000
BEHIND
1070
     0
1002
}
1002
{
1000
OTHER
1070
     0
1002
}
1002
{
1000
REACTOR
1002
}
  0
ARC
  5
152F4
  8
0
 10
497.89604654852081
 20
318.87951144231232
 30
0.0
 40
10.0
 50
168.4630409671818
 51
305.90214533703409
  0
LINE
  5
152F5
  8
0
 10
508.82726055521209
 20
323.83012356001228
 30
0.0
 11
520.28270013596489
 21
298.535905669214
 31
0.0
  0
CIRCLE
  5
152F6
  8
0
 10
497.89604654852081
 20
318.87951144231232
 30
0.0
 40
4.5
  0
LINE
  5
152F7
  8
ﾁｭｳｼﾝｾﾝ1
 10
497.89604654852081
 20
331.87951144231272
 30
0.0
 11
497.89604654852081
 21
305.87951144231272
 31
0.0
1001
GENIUS_GENODEF_13
1002
{
1000
HIER
1070
     0
1002
}
1002
{
1000
MANEDIT
1070
     0
1002
}
1002
{
1000
NOSEL
1070
     0
1002
}
1002
{
1000
BEHIND
1070
     0
1002
}
1002
{
1000
OTHER
1070
     0
1002
}
1002
{
1000
REACTOR
1002
}
1001
GENIUS_GENOBJ-N-CEN_13
1002
{
1000
OWNER
1000
GEN
1002
}
  0
ARC
  5
152F8
  8
0
 10
506.69208685159577
 20
306.72921617895861
 30
0.0
 40
5.0
 50
24.365186304217399
 51
125.902145337034
1001
GENIUS_GENOBJ-N-FIL_13
1002
{
1000
OWNER
1000
GEN
1002
}
1001
GENIUS_GENODEF_13
1002
{
1000
HIER
1070
     0
1002
}
1002
{
1000
MANEDIT
1070
     0
1002
}
1002
{
1000
NOSEL
1070
     0
1002
}
1002
{
1000
BEHIND
1070
     0
1002
}
1002
{
1000
OTHER
1070
     0
1002
}
1002
{
1000
REACTOR
1002
}
  0
LINE
  5
152F9
  8
ﾁｭｳｼﾝｾﾝ1
 10
510.89604654852093
 20
318.87951144231272
 30
0.0
 11
484.89604654852081
 21
318.87951144231272
 31
0.0
1001
GENIUS_GENODEF_13
1002
{
1000
HIER
1070
     0
1002
}
1002
{
1000
MANEDIT
1070
     0
1002
}
1002
{
1000
NOSEL
1070
     0
1002
}
1002
{
1000
BEHIND
1070
     0
1002
}
1002
{
1000
OTHER
1070
     0
1002
}
1002
{
1000
REACTOR
1002
}
1001
GENIUS_GENOBJ-N-CEN_13
1002
{
1000
OWNER
1000
GEN
1002
}
  0
ARC
  5
152FA
  8
0
 10
486.00725536206772
 20
317.24958993349247
 30
0.0
 40
2.0
 50
294.25185076404
 51
7.8064319935604116
1001
GENIUS_GENODEF_13
1002
{
1000
HIER
1070
     0
1002
}
1002
{
1000
MANEDIT
1070
     0
1002
}
1002
{
1000
NOSEL
1070
     0
1002
}
1002
{
1000
BEHIND
1070
     0
1002
}
1002
{
1000
OTHER
1070
     0
1002
}
1002
{
1000
REACTOR
1002
}
1001
GENIUS_GENOBJ-N-FIL_13
1002
{
1000
OWNER
1000
GEN
1002
}
  0
ARC
  5
152FB
  8
0
 10
489.6818482638447
 20
310.13154330450908
 30
0.0
 40
2.0
 50
46.802403665578197
 51
114.46591933286049
1001
GENIUS_GENOBJ-N-FIL_13
1002
{
1000
OWNER
1000
GEN
1002
}
1001
GENIUS_GENODEF_13
1002
{
1000
HIER
1070
     0
1002
}
1002
{
1000
MANEDIT
1070
     0
1002
}
1002
{
1000
NOSEL
1070
     0
1002
}
1002
{
1000
BEHIND
1070
     0
1002
}
1002
{
1000
OTHER
1070
     0
1002
}
1002
{
1000
REACTOR
1002
}
  0
LINE
  5
152FC
  8
0
 10
511.24675935438381
 20
308.79197122800031
 30
0.0
 11
516.63896213373437
 21
296.8857016299807
 31
0.0
  0
ARC
  5
152FD
  8
0
 10
512.05867210228234
 20
294.87951144231232
 30
0.0
 40
5.0
 50
24.365186304217399
 51
90.0
1001
GENIUS_GENODEF_13
1002
{
1000
HIER
1070
     0
1002
}
1002
{
1000
MANEDIT
1070
     0
1002
}
1002
{
1000
NOSEL
1070
     0
1002
}
1002
{
1000
BEHIND
1070
     0
1002
}
1002
{
1000
OTHER
1070
     0
1002
}
1002
{
1000
REACTOR
1002
}
1001
GENIUS_GENOBJ-N-FIL_13
1002
{
1000
OWNER
1000
GEN
1002
}
  0
ARC
  5
152FE
  8
0
 10
508.89601859394082
 20
293.37901791751239
 30
0.0
 40
12.50000031292438
 50
0.0
 51
24.365186304217399
  0
CIRCLE
  5
152FF
  8
0
 10
508.8960465485207
 20
293.37951144231232
 30
0.0
 40
3.25
  0
CIRCLE
  5
15300
  8
ｷｲﾛ
 10
508.8960465485207
 20
293.37951144231232
 30
0.0
 40
4.0
  0
ARC
  5
15301
  8
0
 10
508.89601859394082
 20
293.37901791751239
 30
0.0
 40
8.5000003129243851
 50
0.0
 51
24.365186304217399
  0
LINE
  5
15302
  8
AM_0
 10
536.8960448348879
 20
292.31945144231258
 30
0.0
 11
527.21529447389423
 21
292.31945144231258
 31
0.0
  0
LINE
  5
15303
  8
AM_0
 10
522.38994131926268
 20
303.87891323043391
 30
0.0
 11
517.86291785365415
 21
303.87891323043391
 31
0.0
  0
LINE
  5
15304
  8
AM_0
 10
536.8960448348879
 20
306.37951144231261
 30
0.0
 11
525.3899413192629
 21
306.37951144231261
 31
0.0
  0
ARC
  5
15305
  8
AM_0
 10
522.38994131926268
 20
306.87891323043391
 30
0.0
 40
3.0
 50
270.0
 51
0.0
1001
GENIUS_GENODEF_13
1002
{
1000
HIER
1070
     0
1002
}
1002
{
1000
MANEDIT
1070
     0
1002
}
1002
{
1000
NOSEL
1070
     0
1002
}
1002
{
1000
BEHIND
1070
     0
1002
}
1002
{
1000
OTHER
1070
     0
1002
}
1002
{
1000
REACTOR
1002
}
1001
GENIUS_GENOBJ-N-FIL_13
1002
{
1000
OWNER
1000
GEN
1002
}
  0
LINE
  5
15306
  8
AM_0
 10
536.8960448348879
 20
316.87893644241251
 30
0.0
 11
527.3899413192629
 21
316.87893644241228
 31
0.0
  0
ARC
  5
15307
  8
AM_0
 10
527.3899413192629
 20
314.8789364424124
 30
0.0
 40
1.9999999999999989
 50
90.0
 51
180.0
1001
GENIUS_GENOBJ-N-FIL_13
1002
{
1000
OWNER
1000
GEN
1002
}
1001
GENIUS_GENODEF_13
1002
{
1000
HIER
1070
     0
1002
}
1002
{
1000
MANEDIT
1070
     0
1002
}
1002
{
1000
NOSEL
1070
     0
1002
}
1002
{
1000
BEHIND
1070
     0
1002
}
1002
{
1000
OTHER
1070
     0
1002
}
1002
{
1000
REACTOR
1002
}
  0
ARC
  5
15308
  8
0
 10
497.89604654852081
 20
318.87951144231232
 30
0.0
 40
12.0
 50
24.365186304217399
 51
90.0
  0
ARC
  5
15309
  8
0
 10
483.19910809182193
 20
321.87951144231272
 30
0.0
 40
5.0
 50
348.46304096718188
 51
90.0
1001
GENIUS_GENOBJ-N-FIL_13
1002
{
1000
OWNER
1000
GEN
1002
}
1001
GENIUS_GENODEF_13
1002
{
1000
HIER
1070
     0
1002
}
1002
{
1000
MANEDIT
1070
     0
1002
}
1002
{
1000
NOSEL
1070
     0
1002
}
1002
{
1000
BEHIND
1070
     0
1002
}
1002
{
1000
OTHER
1070
     0
1002
}
1002
{
1000
REACTOR
1002
}
  0
LINE
  5
1530C
  8
AM_0
 10
651.4360248348878
 20
283.93956144231282
 30
0.0
 11
547.86180483488783
 21
283.93956144231282
 31
0.0
  0
LINE
  5
1530D
  8
AM_0
 10
651.21605483488781
 20
297.09948144231271
 30
0.0
 11
548.07603483488776
 21
297.09948144231271
 31
0.0
  0
LINE
  5
1530E
  8
AM_0
 10
551.56321483488784
 20
284.37951144231272
 30
0.0
 11
650.53605483488775
 21
284.37951144231272
 31
0.0
  0
LINE
  5
1530F
  8
AM_0
 10
551.55601483488783
 20
294.37951144231272
 30
0.0
 11
650.53605483488775
 21
294.37951144231272
 31
0.0
  0
LINE
  5
15310
  8
AM_0
 10
551.55601483488783
 20
296.37951144231272
 30
0.0
 11
650.53605483488775
 21
296.37951144231272
 31
0.0
  0
LINE
  5
15311
  8
AM_0
 10
651.4360248348878
 20
286.86950144231281
 30
0.0
 11
583.89604483488779
 21
286.86950144231281
 31
0.0
  0
LINE
  5
15312
  8
AM_0
 10
651.21605483488781
 20
293.74950144231269
 30
0.0
 11
583.87602483488774
 21
293.74950144231269
 31
0.0
  0
LINE
  5
15313
  8
AM_0
 10
583.89604483488779
 20
286.37951144231272
 30
0.0
 11
650.53605483488775
 21
286.37951144231272
 31
0.0
  0
LINE
  5
15314
  8
AM_0
 10
649.60600483488781
 20
322.26952144231268
 30
0.0
 11
552.76597483488763
 21
322.26952144231268
 31
0.0
  0
LINE
  5
15315
  8
AM_0
 10
649.62602483488774
 20
321.35949144231279
 30
0.0
 11
552.76603483488782
 21
321.35949144231279
 31
0.0
  0
LINE
  5
15316
  8
AM_0
 10
649.6860248348878
 20
316.65954144231267
 30
0.0
 11
552.76603483488782
 21
316.65954144231267
 31
0.0
  0
LINE
  5
15317
  8
AM_0
 10
649.64604483488768
 20
319.50951144231271
 30
0.0
 11
552.76603483488782
 21
319.50951144231271
 31
0.0
  0
ARC
  5
15318
  8
AM_0
 10
552.7708648348879
 20
320.26476144231259
 30
0.0
 40
2.0047290000000002
 50
90.138321999999846
 51
164.8265040000035
  0
ARC
  5
15319
  8
AM_0
 10
552.7708648348879
 20
319.35473144231258
 30
0.0
 40
2.0047290000000002
 50
90.138321999999846
 51
164.8265040000035
  0
ARC
  5
1531A
  8
AM_0
 10
546.79604483488765
 20
300.07949144231281
 30
0.0
 40
1.699996899999999
 50
270.00000300000102
 51
359.99998000000448
  0
LINE
  5
1531B
  8
AM_0
 10
544.89604483488756
 20
298.0794914423127
 30
0.0
 11
544.89604483488756
 21
305.6795014423127
 31
0.0
  0
LINE
  5
1531C
  8
AM_0
 10
545.8960448348879
 20
298.0794914423127
 30
0.0
 11
545.8960448348879
 21
305.6795014423127
 31
0.0
  0
LINE
  5
1531D
  8
AM_0
 10
565.89604483488768
 20
286.86950144231281
 30
0.0
 11
547.85032483488772
 21
286.86950144231281
 31
0.0
  0
LINE
  5
1531E
  8
AM_0
 10
565.91600483488764
 20
293.73949144231273
 30
0.0
 11
548.07603483488776
 21
293.73949144231273
 31
0.0
  0
LINE
  5
1531F
  8
AM_0
 10
551.5488748348879
 20
286.37951144231272
 30
0.0
 11
565.89604483488768
 21
286.37951144231272
 31
0.0
  0
ARC
  5
15320
  8
AM_0
 10
551.55607483488757
 20
285.37951144231272
 30
0.0
 40
1.0000255999999981
 50
89.589468999998957
 51
270.41053000000011
  0
ARC
  5
15321
  8
AM_0
 10
547.85606483488755
 20
285.40954144231267
 30
0.0
 40
1.460011199999999
 50
89.775249999999915
 51
270.22475000000009
  0
LINE
  5
15322
  8
AM_0
 10
545.8960448348879
 20
298.37951144231261
 30
0.0
 11
546.79604483488765
 21
298.37951144231261
 31
0.0
  0
LINE
  5
15323
  8
AM_0
 10
545.8960448348879
 20
298.0794914423127
 30
0.0
 11
544.89604483488756
 21
298.0794914423127
 31
0.0
  0
ARC
  5
15324
  8
AM_0
 10
551.55601483488783
 20
295.37951144231272
 30
0.0
 40
1.0
 50
89.999996999999041
 51
270.000010000001
  0
ARC
  5
15325
  8
AM_0
 10
548.07603483488776
 20
295.42455144231269
 30
0.0
 40
1.6750020000000001
 50
89.999996999999041
 51
270.000010000001
  0
LINE
  5
15326
  8
AM_0
 10
567.39604483488779
 20
287.87951144231272
 30
0.0
 11
567.39604483488779
 21
292.87951144231272
 31
0.0
  0
LINE
  5
15327
  8
AM_0
 10
566.91600483488764
 20
287.87951144231272
 30
0.0
 11
566.91600483488764
 21
292.73949144231273
 31
0.0
  0
ARC
  5
15328
  8
AM_0
 10
565.89604483488768
 20
287.87951144231272
 30
0.0
 40
1.5
 50
270.0
 51
0.0000100000010064
  0
ARC
  5
15329
  8
AM_0
 10
565.89604483488768
 20
287.87951144231272
 30
0.0
 40
1.02
 50
270.0
 51
0.0000100000010064
  0
ARC
  5
1532A
  8
AM_0
 10
565.89604483488768
 20
292.87951144231272
 30
0.0
 40
1.5
 50
359.999989999999
 51
89.999996999999041
  0
ARC
  5
1532B
  8
AM_0
 10
565.91600483488764
 20
292.73949144231273
 30
0.0
 40
1.0
 50
359.999989999999
 51
89.999996999999041
  0
LINE
  5
1532C
  8
AM_0
 10
546.6902948348876
 20
305.3084014423128
 30
0.0
 11
550.83601483488746
 21
320.78951144231269
 31
0.0
  0
LINE
  5
1532D
  8
AM_0
 10
547.41700751149835
 20
305.2620336139467
 30
0.0
 11
550.83604483488784
 21
318.02956144231268
 31
0.0
  0
LINE
  5
1532E
  8
AM_0
 10
546.95115697899075
 20
305.37241105087202
 30
0.0
 11
550.83604483488784
 21
319.87951144231272
 31
0.0
  0
LINE
  5
1532F
  8
AM_0
 10
548.06066100759983
 20
304.81561264097019
 30
0.0
 11
550.835984834888
 21
315.17949144231272
 31
0.0
  0
LINE
  5
15330
  8
AM_0
 10
545.8960448348879
 20
305.37951144231272
 30
0.0
 11
546.79604483488765
 21
305.37951144231272
 31
0.0
  0
LINE
  5
15331
  8
AM_0
 10
545.8960448348879
 20
305.6795014423127
 30
0.0
 11
544.89604483488756
 21
305.6795014423127
 31
0.0
  0
LINE
  5
15332
  8
AM_0
 10
544.89604483488756
 20
302.1021414423127
 30
0.0
 11
545.8960448348879
 21
302.6795014423127
 31
0.0
  0
LINE
  5
15333
  8
AM_0
 10
544.89604483488756
 20
301.1021414423127
 30
0.0
 11
545.8960448348879
 21
301.6795014423127
 31
0.0
  0
LINE
  5
15334
  8
AM_0
 10
548.49602483488775
 20
300.07949144231281
 30
0.0
 11
548.49602483488775
 21
303.6795014423127
 31
0.0
  0
ARC
  5
15335
  8
AM_0
 10
546.79604483488765
 20
303.6795014423127
 30
0.0
 40
1.7000007999999991
 50
0.0000100000010064
 51
89.999979999998004
  0
LINE
  5
15336
  8
AM_0
 10
548.85167487476838
 20
313.37951144231272
 30
0.0
 11
544.89604483488756
 21
313.37951144231272
 31
0.0
  0
ARC
  5
15337
  8
AM_0
 10
552.76591483488767
 20
314.66124144231281
 30
0.0
 40
1.9982919999999991
 50
89.997367999998644
 51
164.96745200000379
  0
ARC
  5
15338
  8
AM_0
 10
552.7708648348879
 20
317.50475144231268
 30
0.0
 40
2.0047290000000002
 50
90.138321999999846
 51
164.8265040000035
  0
LINE
  5
15339
  8
AM_0
 10
582.87602483488774
 20
287.87951144231272
 30
0.0
 11
582.87602483488774
 21
292.73949144231273
 31
0.0
  0
LINE
  5
1533A
  8
AM_0
 10
582.39604483488768
 20
287.87951144231272
 30
0.0
 11
582.39604483488768
 21
292.87951144231272
 31
0.0
  0
CIRCLE
  5
1533B
  8
AM_0
 10
577.39604483488768
 20
288.87951144231272
 30
0.0
 40
1.149999999999999
  0
CIRCLE
  5
1533C
  8
AM_0
 10
577.39604483488768
 20
288.87951144231272
 30
0.0
 40
1.1000000000000001
  0
CIRCLE
  5
1533D
  8
AM_0
 10
572.39604483488768
 20
288.87951144231272
 30
0.0
 40
1.0
  0
ARC
  5
1533E
  8
AM_0
 10
583.89604483488779
 20
287.87951144231272
 30
0.0
 40
1.5
 50
179.99999931675049
 51
270.000010000001
  0
ARC
  5
1533F
  8
AM_0
 10
583.89604483488779
 20
287.87951144231272
 30
0.0
 40
1.02
 50
179.999999316757
 51
270.000010000001
  0
ARC
  5
15340
  8
AM_0
 10
583.89604483488779
 20
292.87951144231272
 30
0.0
 40
1.5
 50
89.999996999999041
 51
180.0
  0
ARC
  5
15341
  8
AM_0
 10
583.87602483488774
 20
292.73949144231273
 30
0.0
 40
1.0
 50
89.999996999999041
 51
180.0
  0
ARC
  5
15342
  8
AM_0
 10
649.63145483488745
 20
319.36278144231272
 30
0.0
 40
1.9967330000000001
 50
8.5461199999961224
 51
90.156033000001074
  0
ARC
  5
15343
  8
AM_0
 10
649.60954483488763
 20
320.27391144231262
 30
0.0
 40
1.995633
 50
7.9388700000004286
 51
90.100292000000948
  0
LINE
  5
15344
  8
AM_0
 10
647.53599483488745
 20
297.02953144231259
 30
0.0
 11
652.89598483488783
 21
308.47951144231263
 31
0.0
  0
POLYLINE
  5
15345
  8
AM_0
 66
     1
 10
0.0
 20
0.0
 30
0.0
  0
VERTEX
  5
15346
  8
AM_0
 10
649.03514483488755
 20
286.8625414423127
 30
0.0
 42
0.00068898283
  0
VERTEX
  5
15347
  8
AM_0
 10
648.9642648348879
 20
287.4372914423127
 30
0.0
 42
0.00070644357
  0
VERTEX
  5
15348
  8
AM_0
 10
648.89176483488745
 20
288.01198144231267
 30
0.0
 42
0.00069248074
  0
VERTEX
  5
15349
  8
AM_0
 10
648.81767483488761
 20
288.5862914423127
 30
0.0
 42
0.0006958566
  0
VERTEX
  5
1534A
  8
AM_0
 10
648.74199483488746
 20
289.16043144231259
 30
0.0
 42
0.00071687219
  0
VERTEX
  5
1534B
  8
AM_0
 10
648.66468483488802
 20
289.73443144231271
 30
0.0
 42
0.00069760022
  0
VERTEX
  5
1534C
  8
AM_0
 10
648.58574483488781
 20
290.30822144231269
 30
0.0
 42
0.00071002302
  0
VERTEX
  5
1534D
  8
AM_0
 10
648.50520483488765
 20
290.88169144231267
 30
0.0
 42
0.00069954889
  0
VERTEX
  5
1534E
  8
AM_0
 10
648.42306483488767
 20
291.4547914423128
 30
0.0
 42
0.00071887947
  0
VERTEX
  5
1534F
  8
AM_0
 10
648.33928483488774
 20
292.0278214423127
 30
0.0
 42
0.00071266929
  0
VERTEX
  5
15350
  8
AM_0
 10
648.25385483488765
 20
292.60059144231269
 30
0.0
 42
0.00071614429
  0
VERTEX
  5
15351
  8
AM_0
 10
648.16682483488762
 20
293.17293144231269
 30
0.0
 42
0.00072288978
  0
VERTEX
  5
15352
  8
AM_0
 10
648.07811483488763
 20
293.74523144231267
 30
0.0
  0
SEQEND
  5
15353
  8
AM_0
  0
ARC
  5
15354
  8
AM_0
 10
650.35142483488755
 20
285.37951144231272
 30
0.0
 40
1.0000138999999999
 50
269.69165999999939
 51
90.308340000000754
  0
ARC
  5
15355
  8
AM_0
 10
651.4360248348878
 20
285.40453144231259
 30
0.0
 40
1.465004
 50
270.0
 51
89.999996999999041
  0
ARC
  5
15356
  8
AM_0
 10
650.35142483488755
 20
295.37951144231272
 30
0.0
 40
1.0000138999999999
 50
269.69165999999939
 51
90.308340000000754
  0
ARC
  5
15357
  8
AM_0
 10
651.22343483488783
 20
295.42455144231269
 30
0.0
 40
1.6750160000000001
 50
269.74612999999908
 51
90.253854999998765
  0
LINE
  5
15358
  8
AM_0
 10
662.89604483488779
 20
284.37951144231272
 30
0.0
 11
665.89604483488779
 21
284.37951144231272
 31
0.0
  0
LINE
  5
15359
  8
AM_0
 10
662.89604483488779
 20
286.37951144231272
 30
0.0
 11
665.89604483488779
 21
286.37951144231272
 31
0.0
  0
ARC
  5
1535A
  8
AM_0
 10
662.89586483488767
 20
283.3796314423127
 30
0.0
 40
0.9998289899999999
 50
89.990188999999049
 51
180.00980999999959
  0
ARC
  5
1535B
  8
AM_0
 10
662.90098483488759
 20
287.38439144231268
 30
0.0
 40
1.004942999999999
 50
180.28111000000001
 51
269.71888999999999
  0
ARC
  5
1535C
  8
AM_0
 10
665.89579483488774
 20
285.37975144231268
 30
0.0
 40
1.000203
 50
270.01164999999878
 51
359.98835000000429
  0
ARC
  5
1535D
  8
AM_0
 10
665.90092483488775
 20
285.38439144231268
 30
0.0
 40
0.99507803
 50
359.71589000000017
 51
90.284112999998655
  0
LINE
  5
1535E
  8
AM_0
 10
664.89604483488768
 20
286.00951144231271
 30
0.0
 11
664.89604483488768
 21
284.63952144231268
 31
0.0
  0
LINE
  5
1535F
  8
AM_0
 10
668.88991080168478
 20
278.37133273137522
 30
0.0
 11
668.38994131926268
 21
278.33132418645329
 31
0.0
  0
LINE
  5
15360
  8
AM_0
 10
668.39604483488768
 20
277.65954144231267
 30
0.0
 11
666.89604483488779
 21
277.65954144231267
 31
0.0
  0
LINE
  5
15361
  8
AM_0
 10
668.39604483488768
 20
280.37948144231268
 30
0.0
 11
666.89604483488779
 21
280.50948144231268
 31
0.0
  0
LINE
  5
15362
  8
AM_0
 10
664.69603483488766
 20
296.0694514423127
 30
0.0
 11
662.59605483488781
 21
296.0694514423127
 31
0.0
  0
LINE
  5
15363
  8
AM_0
 10
664.746014834888
 20
294.11950144231281
 30
0.0
 11
662.89604483488779
 21
294.11950144231281
 31
0.0
  0
ARC
  5
15364
  8
AM_0
 10
662.60057483488777
 20
296.77404144231269
 30
0.0
 40
0.704566
 50
180.37009000000211
 51
269.62990000000002
  0
ARC
  5
15365
  8
AM_0
 10
662.89433483488779
 20
293.12120144231272
 30
0.0
 40
0.9982839799999999
 50
89.901423999998656
 51
180.09857999999991
  0
LINE
  5
15366
  8
AM_0
 10
665.03605483488775
 20
294.07955144231272
 30
0.0
 11
666.1860248348878
 21
293.72954144231272
 31
0.0
  0
LINE
  5
15367
  8
AM_0
 10
665.08604483488773
 20
295.98952144231271
 30
0.0
 11
666.28599483488745
 21
295.47951144231268
 31
0.0
  0
ARC
  5
15368
  8
AM_0
 10
665.89964483488779
 20
294.56102144231272
 30
0.0
 40
0.9963999999999998
 50
359.9095800000004
 51
67.182639999998941
  0
LINE
  5
15369
  8
AM_0
 10
664.89604483488768
 20
295.76952144231268
 30
0.0
 11
664.89604483488768
 21
294.70946144231272
 31
0.0
  0
ARC
  5
1536A
  8
AM_0
 10
664.75688483488761
 20
293.12682144231269
 30
0.0
 40
0.9927430199999999
 50
73.667929999997895
 51
90.625445000001221
  0
ARC
  5
1536B
  8
AM_0
 10
664.69505483488751
 20
295.07409144231269
 30
0.0
 40
0.9954450099999999
 50
66.872549999999563
 51
89.943095000000326
  0
ARC
  5
1536C
  8
AM_0
 10
665.89976483488783
 20
292.77526144231268
 30
0.0
 40
0.9962710099999999
 50
359.66994999999997
 51
73.302080000000245
  0
LINE
  5
1536D
  8
AM_0
 10
660.89604483488768
 20
313.37951144231272
 30
0.0
 11
652.89604483488768
 21
313.37951144231272
 31
0.0
  0
LINE
  5
1536E
  8
AM_0
 10
660.19603483488766
 20
303.5694514423127
 30
0.0
 11
653.9660548348877
 21
303.5694514423127
 31
0.0
  0
LINE
  5
1536F
  8
AM_0
 10
652.89598483488783
 20
309.8195414423127
 30
0.0
 11
651.61601483488789
 21
317.8294914423127
 31
0.0
  0
LINE
  5
15370
  8
AM_0
 10
652.89604483488768
 20
308.4795714423127
 30
0.0
 11
651.65605483488775
 21
315.03957144231282
 31
0.0
  0
ARC
  5
15371
  8
AM_0
 10
649.69731483488772
 20
314.6653914423128
 30
0.0
 40
1.994108999999999
 50
10.81223000000116
 51
90.324452000000534
  0
ARC
  5
15372
  8
AM_0
 10
649.64579483488774
 20
317.51427144231269
 30
0.0
 40
1.9952829999999999
 50
9.0916499999993174
 51
89.993795999999861
  0
LINE
  5
15373
  8
AM_0
 10
652.89604483488768
 20
311.16951144231268
 30
0.0
 11
651.58604483488773
 21
320.54955144231269
 31
0.0
  0
LINE
  5
15374
  8
AM_0
 10
652.89598483488783
 20
311.1694814423127
 30
0.0
 11
651.60600483488781
 21
319.65957144231282
 31
0.0
  0
ARC
  5
15375
  8
AM_0
 10
664.63401483488781
 20
309.1336614423127
 30
0.0
 40
0.9959030199999999
 50
60.392830000001112
 51
90.458733000000876
  0
LINE
  5
15376
  8
AM_0
 10
664.64604483488779
 20
306.87951144231272
 30
0.0
 11
662.89604483488779
 21
306.87951144231272
 31
0.0
  0
LINE
  5
15377
  8
AM_0
 10
664.65605483488775
 20
308.9794814423127
 30
0.0
 11
662.39604483488779
 21
308.9794814423127
 31
0.0
  0
LINE
  5
15378
  8
AM_0
 10
664.61601483488789
 20
308.01952144231268
 30
0.0
 11
661.89604483488779
 21
308.01952144231268
 31
0.0
  0
LINE
  5
15379
  8
AM_0
 10
664.59599483488785
 20
303.50951144231271
 30
0.0
 11
661.89604483488779
 21
303.50951144231271
 31
0.0
  0
LINE
  5
1537A
  8
AM_0
 10
664.62602483488786
 20
302.36950144231281
 30
0.0
 11
662.89604483488779
 21
302.36950144231281
 31
0.0
  0
ARC
  5
1537B
  8
AM_0
 10
662.89506483488799
 20
305.88048144231271
 30
0.0
 40
0.9990100299999999
 50
89.943190999999956
 51
180.05680999999871
  0
ARC
  5
1537C
  8
AM_0
 10
662.39433483488779
 20
308.48119144231271
 30
0.0
 40
0.4983060100000002
 50
89.804892999999964
 51
180.1951100000021
  0
ARC
  5
1537D
  8
AM_0
 10
662.89836483488773
 20
301.3671814423127
 30
0.0
 40
1.002353
 50
90.134327000000596
 51
179.86567318000149
  0
LINE
  5
1537E
  8
AM_0
 10
665.13609483488779
 20
307.87957144231268
 30
0.0
 11
666.41606483488772
 21
307.10955144231281
 31
0.0
  0
ARC
  5
1537F
  8
AM_0
 10
665.90043483488773
 20
307.35924144231268
 30
0.0
 40
0.995579
 50
0.0173600000000184
 51
63.412910000002221
  0
LINE
  5
15380
  8
AM_0
 10
664.89604483488768
 20
307.7795314423127
 30
0.0
 11
664.89604483488768
 21
307.2294814423127
 31
0.0
  0
LINE
  5
15381
  8
AM_0
 10
665.11601483488778
 20
306.76955144231272
 30
0.0
 11
666.36601483488789
 21
306.09954144231278
 31
0.0
  0
ARC
  5
15382
  8
AM_0
 10
665.90159483488765
 20
306.25853144231269
 30
0.0
 40
0.9944329899999999
 50
0.0594900000009355
 51
58.847870000000363
  0
ARC
  5
15383
  8
AM_0
 10
665.90281483488775
 20
305.22094144231278
 30
0.0
 40
0.9932109699999999
 50
359.91813000000002
 51
62.200680000000879
  0
ARC
  5
15384
  8
AM_0
 10
665.90281483488775
 20
308.39745144231267
 30
0.0
 40
0.99319202
 50
0.1204100000019381
 51
60.226619999999812
  0
LINE
  5
15385
  8
AM_0
 10
665.10606483488766
 20
308.87951144231272
 30
0.0
 11
666.34605483488781
 21
308.24950144231269
 31
0.0
  0
LINE
  5
15386
  8
AM_0
 10
665.12602483488774
 20
309.99947144231271
 30
0.0
 11
666.39598483488783
 21
309.25948144231268
 31
0.0
  0
LINE
  5
15387
  8
AM_0
 10
664.89604483488768
 20
309.87951144231272
 30
0.0
 11
664.89604483488768
 21
309.34948144231271
 31
0.0
  0
ARC
  5
15388
  8
AM_0
 10
664.66093483488783
 20
305.88414144231268
 30
0.0
 40
0.99545902
 50
62.796180000001051
 51
90.858709000000076
  0
ARC
  5
15389
  8
AM_0
 10
664.67125483488735
 20
307.98546144231261
 30
0.0
 40
0.99411702
 50
64.065019999999919
 51
90.877356000001427
  0
ARC
  5
1538A
  8
AM_0
 10
664.62718483488754
 20
307.02526144231263
 30
0.0
 40
0.99427301
 50
59.219089999998332
 51
90.643933999999973
  0
LINE
  5
1538B
  8
AM_0
 10
665.12608483488771
 20
302.22954144231278
 30
0.0
 11
666.40605483488775
 21
301.47954144231289
 31
0.0
  0
LINE
  5
1538C
  8
AM_0
 10
665.14610483488764
 20
303.3395314423127
 30
0.0
 11
666.4460948348875
 21
302.48955144231269
 31
0.0
  0
ARC
  5
1538D
  8
AM_0
 10
665.90196483488774
 20
300.62267144231271
 30
0.0
 40
0.99404597
 50
359.81435999999962
 51
59.531799999999571
  0
ARC
  5
1538E
  8
AM_0
 10
665.90123483488765
 20
301.65709144231278
 30
0.0
 40
0.9948369899999999
 50
359.56214000000188
 51
56.795039999997378
  0
LINE
  5
1538F
  8
AM_0
 10
664.89604483488768
 20
303.2094614423126
 30
0.0
 11
664.89604483488768
 21
302.73949144231278
 31
0.0
  0
ARC
  5
15390
  8
AM_0
 10
664.61662483488783
 20
301.3730414423128
 30
0.0
 40
0.99648702
 50
59.25623000000212
 51
89.459279000001388
  0
ARC
  5
15391
  8
AM_0
 10
664.58940483488743
 20
302.51329144231272
 30
0.0
 40
0.99617702
 50
56.029510000002702
 51
89.618682000000817
  0
LINE
  5
15392
  8
AM_0
 10
664.62602483488786
 20
310.12951144231272
 30
0.0
 11
662.39604483488779
 21
310.12951144231272
 31
0.0
  0
ARC
  5
15393
  8
AM_0
 10
662.40062483488759
 20
310.63414144231268
 30
0.0
 40
0.50463498
 50
180.5238300000004
 51
269.47616999999963
  0
LINE
  5
15394
  8
AM_0
 10
661.89604483488779
 20
310.37951144231272
 30
0.0
 11
660.89604483488768
 21
310.37951144231272
 31
0.0
  0
ARC
  5
15B3A
  8
AM_0
 10
422.89604654852059
 20
243.87951144231261
 30
0.0
 40
12.0
 50
109.4712206344888
 51
70.528779365511184
  0
CIRCLE
  5
15B3B
  8
ｽﾝﾎﾟｳｾﾝ
 10
422.89604654852081
 20
243.87951144231249
 30
0.0
 40
4.0
  0
LINE
  5
15B3C
  8
AM_0
 10
418.89604654852059
 20
258.87951144231261
 30
0.0
 11
426.89604654852059
 21
258.87951144231261
 31
0.0
  0
LINE
  5
15B3D
  8
AM_0
 10
426.89604654852059
 20
251.87951144231261
 30
0.0
 11
418.89604654852059
 21
251.87951144231261
 31
0.0
  0
LINE
  5
15B3E
  8
AM_0
 10
418.89604654852059
 20
251.87951144231261
 30
0.0
 11
418.89604654852059
 21
258.87951144231261
 31
0.0
  0
LINE
  5
15B3F
  8
AM_0
 10
426.89604654852059
 20
258.87951144231261
 30
0.0
 11
426.89604654852059
 21
251.87951144231261
 31
0.0
  0
LINE
  5
15B41
  8
ｶｸﾚｾﾝ2
 10
247.46296218778289
 20
228.87951144655671
 30
0.0
 11
247.46296218778289
 21
258.87951144655671
 31
0.0
  0
LINE
  5
15B42
  8
ｶｸﾚｾﾝ2
 10
232.46296395741689
 20
263.87931207577037
 30
0.0
 11
232.46296395741689
 21
223.87971088368951
 31
0.0
  0
LINE
  5
15B43
  8
ｶｸﾚｾﾝ2
 10
232.46296395741689
 20
223.87971088368951
 30
0.0
 11
228.4629638382076
 21
223.87971088368951
 31
0.0
  0
LINE
  5
15B44
  8
ｶｸﾚｾﾝ2
 10
232.46296395741689
 20
223.87971088368951
 30
0.0
 11
247.46296218778289
 21
228.87951144655671
 31
0.0
  0
LINE
  5
15B45
  8
ｶｸﾚｾﾝ2
 10
232.46296395741689
 20
263.87931207577037
 30
0.0
 11
228.4629638382076
 21
263.87931207577037
 31
0.0
  0
LINE
  5
15B46
  8
ｶｸﾚｾﾝ2
 10
232.46296395741689
 20
263.87931207577037
 30
0.0
 11
247.46296218778289
 21
258.87951144655671
 31
0.0
  0
LINE
  5
15B47
  8
0
 10
287.46296215350958
 20
231.87951143128811
 30
0.0
 11
287.46296223062461
 21
258.87951143128811
 31
0.0
  0
LINE
  5
15B48
  8
0
 10
287.46296218778292
 20
231.87951143128831
 30
0.0
 11
249.4629621535093
 21
231.87951143128831
 31
0.0
  0
LINE
  5
15B49
  8
0
 10
287.46296218778292
 20
258.87951143128828
 30
0.0
 11
255.4629622306245
 21
258.87951143128828
 31
0.0
  0
LINE
  5
15B4A
  8
0
 10
287.46296218778292
 20
255.87951143128831
 30
0.0
 11
249.46296222205601
 21
255.879511425576
 31
0.0
  0
LINE
  5
15B4B
  8
0
 10
255.4629622306245
 20
258.87951143128828
 30
0.0
 11
255.46296223107549
 21
255.87951142647799
 31
0.0
  0
CIRCLE
  5
15C23
  8
AM_0
 10
422.89604654852081
 20
243.87951144231249
 30
0.0
 40
3.399999999999999
  0
LINE
  5
15C25
  8
ｶｸﾚｾﾝ2
 10
249.46296222205601
 20
255.879511425576
 30
0.0
 11
247.46296218778301
 21
255.87951142557611
 31
0.0
  0
LINE
  5
15C27
  8
ｶｸﾚｾﾝ2
 10
249.4629621535093
 20
231.87951143128831
 30
0.0
 11
247.46296218778289
 21
231.87951143128831
 31
0.0
  0
LINE
  5
15DFD
  8
AM_0
 10
233.46296238140701
 20
304.89161651889287
 30
0.0
 11
249.46296238140681
 21
304.89161651889287
 31
0.0
  0
LINE
  5
15DFE
  8
AM_0
 10
233.46296238140701
 20
182.86740828948621
 30
0.0
 11
249.46296238140681
 21
182.86740828948629
 31
0.0
  0
LINE
  5
15E00
  8
AM_0
 10
365.39606891844198
 20
499.25377942180842
 30
0.0
 11
519.39602534143683
 21
499.25377942180842
 31
0.0
  0
LINE
  5
15E01
  8
AM_0
 10
519.39602534143683
 20
499.25377942180842
 30
0.0
 11
521.39601890686515
 21
454.25377942180859
 31
0.0
  0
LINE
  5
15E02
  8
AM_0
 10
365.39606891844198
 20
499.25377942180842
 30
0.0
 11
363.39604483488807
 21
454.25377942180859
 31
0.0
  0
LINE
  5
15E03
  8
AM_0
 10
521.39601890686515
 20
454.25377942180859
 30
0.0
 11
363.39604483488807
 21
454.25377942180859
 31
0.0
  0
LINE
  5
15E04
  8
AM_0
 10
364.10716451066912
 20
470.25377945844991
 30
0.0
 11
520.68491008205865
 21
470.25377945653122
 31
0.0
  0
LINE
  5
15E05
  8
AM_0
 10
385.39604543093412
 20
573.25240210544655
 30
0.0
 11
460.39604766610802
 21
573.25240210544655
 31
0.0
  0
LINE
  5
15E06
  8
AM_0
 10
366.74006953314552
 20
569.25240198623715
 30
0.0
 11
518.05202472618646
 21
569.25240198623715
 31
0.0
  0
LINE
  5
15E07
  8
ﾁｭｳｼﾝｾﾝ1
 10
673.39604942444475
 20
524.25236472467304
 30
0.0
 11
360.39604483488728
 21
524.25240817424788
 31
0.0
1001
GENIUS_GENODEF_13
1002
{
1000
HIER
1070
     0
1002
}
1002
{
1000
MANEDIT
1070
     0
1002
}
1002
{
1000
NOSEL
1070
     0
1002
}
1002
{
1000
BEHIND
1070
     0
1002
}
1002
{
1000
REACTOR
1002
}
1001
GENIUS_GENOBJ-N-CEN_13
1002
{
1000
OWNER
1000
GEN
1002
}
  0
LINE
  5
15E08
  8
AM_0
 10
519.39602534143683
 20
499.25377942180842
 30
0.0
 11
518.05202472618646
 21
569.25240198623715
 31
0.0
  0
LINE
  5
15E09
  8
AM_0
 10
528.25847224892993
 20
579.78447320308351
 30
0.0
 11
528.25845699081583
 21
468.72029543060762
 31
0.0
  0
LINE
  5
15E0A
  8
AM_0
 10
536.89604942444464
 20
580.2523947246732
 30
0.0
 11
536.89604942444464
 21
468.25237372467308
 31
0.0
  0
LINE
  5
15E0B
  8
AM_0
 10
527.57441631596635
 20
469.90509069389373
 30
0.0
 11
522.19275262645215
 21
500.42604772790872
 31
0.0
1001
GENIUS_GENODEF_13
1002
{
1000
HIER
1070
     0
1002
}
1002
{
1000
MANEDIT
1070
     0
1002
}
1002
{
1000
NOSEL
1070
     0
1002
}
1002
{
1000
BEHIND
1070
     0
1002
}
1002
{
1000
REACTOR
1002
}
1001
GENIUS_GENOBJ-N-CEN_13
1002
{
1000
OWNER
1000
GEN
1002
}
  0
LINE
  5
15E0C
  8
AM_0
 10
536.89604942444464
 20
468.25238422467288
 30
0.0
 11
529.54403232003574
 21
468.25238422467288
 31
0.0
  0
ARC
  5
15E0D
  8
AM_0
 10
529.54403232003597
 20
470.25238422467299
 30
0.0
 40
2.0
 50
189.9999917840673
 51
270.0
1001
GENIUS_GENOBJ-N-CEN_13
1002
{
1000
OWNER
1000
GEN
1002
}
1001
GENIUS_GENODEF_13
1002
{
1000
HIER
1070
     0
1002
}
1002
{
1000
MANEDIT
1070
     0
1002
}
1002
{
1000
NOSEL
1070
     0
1002
}
1002
{
1000
BEHIND
1070
     0
1002
}
1002
{
1000
OTHER
1070
     0
1002
}
1002
{
1000
REACTOR
1002
}
1001
GENIUS_GENOBJ-N-FIL_13
1002
{
1000
OWNER
1000
GEN
1002
}
  0
LINE
  5
15E0E
  8
AM_0
 10
536.89604942444464
 20
492.31492672467311
 30
0.0
 11
528.25846023196675
 21
492.3127117295154
 31
0.0
  0
LINE
  5
15E0F
  8
AM_0
 10
536.89604942444464
 20
478.25235872467312
 30
0.0
 11
528.25845830034325
 21
478.2523778674327
 31
0.0
  0
LINE
  5
15E10
  8
AM_0
 10
520.37874688332067
 20
501.25239969145821
 30
0.0
 11
521.20794484853957
 21
501.25239969145821
 31
0.0
  0
ARC
  5
15E11
  8
AM_0
 10
521.20794484853991
 20
500.25239969145821
 30
0.0
 40
1.0
 50
9.9999917840689072
 51
90.0
1001
GENIUS_GENODEF_13
1002
{
1000
HIER
1070
     0
1002
}
1002
{
1000
MANEDIT
1070
     0
1002
}
1002
{
1000
NOSEL
1070
     0
1002
}
1002
{
1000
BEHIND
1070
     0
1002
}
1002
{
1000
OTHER
1070
     0
1002
}
1002
{
1000
REACTOR
1002
}
1001
GENIUS_GENOBJ-N-FIL_13
1002
{
1000
OWNER
1000
GEN
1002
}
  0
ARC
  5
15E12
  8
AM_0
 10
520.37874688332079
 20
500.25239969145821
 30
0.0
 40
1.0
 50
90.0
 51
180.9999885880236
1001
GENIUS_GENOBJ-N-FIL_13
1002
{
1000
OWNER
1000
GEN
1002
}
1001
GENIUS_GENODEF_13
1002
{
1000
HIER
1070
     0
1002
}
1002
{
1000
MANEDIT
1070
     0
1002
}
1002
{
1000
NOSEL
1070
     0
1002
}
1002
{
1000
BEHIND
1070
     0
1002
}
1002
{
1000
OTHER
1070
     0
1002
}
1002
{
1000
REACTOR
1002
}
  0
LINE
  5
15E13
  8
AM_0
 10
527.57443190223216
 20
578.59968086243998
 30
0.0
 11
525.86501523922834
 21
568.90510534847022
 31
0.0
1001
GENIUS_GENODEF_13
1002
{
1000
HIER
1070
     0
1002
}
1002
{
1000
MANEDIT
1070
     0
1002
}
1002
{
1000
NOSEL
1070
     0
1002
}
1002
{
1000
BEHIND
1070
     0
1002
}
1002
{
1000
REACTOR
1002
}
1001
GENIUS_GENOBJ-N-CEN_13
1002
{
1000
OWNER
1000
GEN
1002
}
  0
LINE
  5
15E14
  8
AM_0
 10
536.89604942444464
 20
556.19233422467278
 30
0.0
 11
528.25846900781676
 21
556.19233422467278
 31
0.0
  0
LINE
  5
15E15
  8
AM_0
 10
536.89604942444464
 20
570.25238422467305
 30
0.0
 11
528.25847093940183
 21
570.25238422467305
 31
0.0
  0
LINE
  5
15E16
  8
AM_0
 10
520.05232937532014
 20
567.25240198623715
 30
0.0
 11
523.89539978300434
 21
567.25240198623715
 31
0.0
  0
ARC
  5
15E17
  8
AM_0
 10
523.89539978300445
 20
569.25240198623715
 30
0.0
 40
2.0
 50
270.0
 51
349.99999178407012
1001
GENIUS_GENOBJ-N-CEN_13
1002
{
1000
OWNER
1000
GEN
1002
}
1001
GENIUS_GENODEF_13
1002
{
1000
HIER
1070
     0
1002
}
1002
{
1000
MANEDIT
1070
     0
1002
}
1002
{
1000
NOSEL
1070
     0
1002
}
1002
{
1000
BEHIND
1070
     0
1002
}
1002
{
1000
OTHER
1070
     0
1002
}
1002
{
1000
REACTOR
1002
}
1001
GENIUS_GENOBJ-N-FIL_13
1002
{
1000
OWNER
1000
GEN
1002
}
  0
ARC
  5
15E18
  8
AM_0
 10
520.0523293753206
 20
569.25240198623715
 30
0.0
 40
2.0
 50
180.9999885880236
 51
270.0
1001
GENIUS_GENOBJ-N-FIL_13
1002
{
1000
OWNER
1000
GEN
1002
}
1001
GENIUS_GENODEF_13
1002
{
1000
HIER
1070
     0
1002
}
1002
{
1000
MANEDIT
1070
     0
1002
}
1002
{
1000
NOSEL
1070
     0
1002
}
1002
{
1000
BEHIND
1070
     0
1002
}
1002
{
1000
OTHER
1070
     0
1002
}
1002
{
1000
REACTOR
1002
}
  0
LINE
  5
15E19
  8
AM_0
 10
536.89604942444464
 20
580.25238422467305
 30
0.0
 11
529.54404735845606
 21
580.25238422467305
 31
0.0
  0
ARC
  5
15E1A
  8
AM_0
 10
529.54404735845662
 20
578.25238422467305
 30
0.0
 40
2.0
 50
90.0
 51
169.99999178407
1001
GENIUS_GENOBJ-N-CEN_13
1002
{
1000
OWNER
1000
GEN
1002
}
1001
GENIUS_GENOBJ-N-FIL_13
1002
{
1000
OWNER
1000
GEN
1002
}
1001
GENIUS_GENODEF_13
1002
{
1000
HIER
1070
     0
1002
}
1002
{
1000
MANEDIT
1070
     0
1002
}
1002
{
1000
NOSEL
1070
     0
1002
}
1002
{
1000
BEHIND
1070
     0
1002
}
1002
{
1000
OTHER
1070
     0
1002
}
1002
{
1000
REACTOR
1002
}
  0
LINE
  5
15E1B
  8
AM_0
 10
460.39604766610802
 20
569.25240198623715
 30
0.0
 11
460.39604766610802
 21
573.25240210544655
 31
0.0
  0
LINE
  5
15E1C
  8
ﾁｭｳｼﾝｾﾝ1
 10
422.89604654852099
 20
410.51545575771212
 30
0.0
 11
422.89604654852099
 21
579.39180166427798
 31
0.0
  0
LINE
  5
15E1D
  8
AM_0
 10
365.39606891844198
 20
499.25377942180842
 30
0.0
 11
366.74010005072449
 21
569.25240198623715
 31
0.0
  0
LINE
  5
15E1E
  8
AM_0
 10
385.39604543093412
 20
569.25240198623715
 30
0.0
 11
385.39604543093412
 21
573.25240210544655
 31
0.0
  0
LINE
  5
15E1F
  8
AM_0
 10
613.89601942444472
 20
584.13734077609615
 30
0.0
 11
613.89601942444472
 21
580.53735077609633
 31
0.0
  0
ARC
  5
15E20
  8
AM_0
 10
615.89644942444488
 20
581.37693077609595
 30
0.0
 40
2.000407899999999
 50
90.011650000002106
 51
179.98835099999931
  0
LINE
  5
15E21
  8
AM_0
 10
652.89595942444475
 20
575.0373707760964
 30
0.0
 11
651.60597942444474
 21
583.52736077609632
 31
0.0
  0
LINE
  5
15E22
  8
AM_0
 10
652.89601942444472
 20
575.03733077609638
 30
0.0
 11
651.58601942444477
 21
584.41734077609624
 31
0.0
  0
ARC
  5
15E23
  8
AM_0
 10
649.64760942444525
 20
581.3842107760961
 30
0.0
 40
1.9931281000000001
 50
9.0388199999997951
 51
90.046626999999489
  0
LINE
  5
15E24
  8
AM_0
 10
649.64601942444472
 20
583.37735077609625
 30
0.0
 11
615.89601942444472
 21
583.37735077609625
 31
0.0
  0
LINE
  5
15E25
  8
AM_0
 10
649.62599942444467
 20
585.22735077609616
 30
0.0
 11
615.89601942444472
 21
585.22735077609616
 31
0.0
  0
LINE
  5
15E26
  8
AM_0
 10
649.60603942444504
 20
586.1373607760961
 30
0.0
 11
615.89601942444472
 21
586.1373607760961
 31
0.0
  0
ARC
  5
15E27
  8
AM_0
 10
649.61134942444505
 20
584.14387077609592
 30
0.0
 40
1.9934921000000001
 50
7.8852599999973876
 51
90.153908999998592
  0
ARC
  5
15E28
  8
AM_0
 10
649.63331942444529
 20
583.23278077609575
 30
0.0
 40
1.994588
 50
8.4929099999987123
 51
90.209246999997575
  0
ARC
  5
15E29
  8
AM_0
 10
615.89729942444524
 20
584.13606077609575
 30
0.0
 40
2.001287899999999
 50
90.036874000002058
 51
179.96312800099781
  0
ARC
  5
15E2A
  8
AM_0
 10
615.89760942444536
 20
583.22580077609609
 30
0.0
 40
2.0015439999999991
 50
90.044216000000915
 51
179.9557860009991
  0
LINE
  5
15E2B
  8
AM_0
 10
660.8960194244446
 20
577.25235077609625
 30
0.0
 11
652.89601942444472
 21
577.25235077609625
 31
0.0
  0
LINE
  5
15E2C
  8
AM_0
 10
660.8960194244446
 20
577.24736077609623
 30
0.0
 11
652.89601942444472
 21
577.24736077609623
 31
0.0
  0
LINE
  5
15E2D
  8
AM_0
 10
660.206019424445
 20
567.43734077609611
 30
0.0
 11
653.97603942444493
 21
567.43734077609611
 31
0.0
  0
LINE
  5
15E2E
  8
AM_0
 10
660.8960194244446
 20
471.25234677609632
 30
0.0
 11
652.89601942444472
 21
471.25234677609632
 31
0.0
  0
LINE
  5
15E2F
  8
AM_0
 10
660.8960194244446
 20
471.24735777609629
 30
0.0
 11
652.89601942444472
 21
471.24735777609629
 31
0.0
  0
LINE
  5
15E30
  8
AM_0
 10
660.206019424445
 20
481.05734677609632
 30
0.0
 11
653.97603942444493
 21
481.05734677609632
 31
0.0
  0
LINE
  5
15E31
  8
AM_0
 10
664.89604942444475
 20
518.63908409970577
 30
0.0
 11
664.89604942444475
 21
519.79997409970565
 31
0.0
  0
ARC
  5
15E32
  8
AM_0
 10
665.89604942444532
 20
519.25237409970566
 30
0.0
 40
1.0
 50
359.999989999999
 51
89.999996999995744
  0
LINE
  5
15E33
  8
AM_0
 10
660.89604942444475
 20
577.25235409970571
 30
0.0
 11
660.89604942444475
 21
471.25237309970561
 31
0.0
  0
LINE
  5
15E34
  8
AM_0
 10
668.39604942444475
 20
544.25235409970583
 30
0.0
 11
668.39604942444475
 21
504.25237409970561
 31
0.0
  0
LINE
  5
15E35
  8
AM_0
 10
661.89604942444475
 20
574.25235409970571
 30
0.0
 11
661.89604942444475
 21
473.12913509970582
 31
0.0
  0
LINE
  5
15E36
  8
AM_0
 10
669.38994590881975
 20
509.03053182431512
 30
0.0
 11
669.38994590881975
 21
539.4741658575183
 31
0.0
  0
ARC
  5
15E37
  8
AM_0
 10
662.89604942444532
 20
551.25236409970569
 30
0.0
 40
1.0
 50
180.0
 51
270.0
  0
LINE
  5
15E38
  8
AM_0
 10
666.89604942444475
 20
572.26872409970565
 30
0.0
 11
666.89604942444475
 21
529.25235409970583
 31
0.0
  0
LINE
  5
15E39
  8
AM_0
 10
664.89604942444475
 20
567.08281409970573
 30
0.0
 11
664.89604942444475
 21
566.61062409970566
 31
0.0
  0
LINE
  5
15E3A
  8
AM_0
 10
665.14579942444493
 20
567.21351409970555
 30
0.0
 11
666.44438942444503
 21
566.36195409970571
 31
0.0
  0
LINE
  5
15E3B
  8
AM_0
 10
665.12822942444473
 20
573.86747409970565
 30
0.0
 11
666.39640942444476
 21
573.13452409970569
 31
0.0
  0
LINE
  5
15E3C
  8
AM_0
 10
665.13359942444504
 20
571.75146409970557
 30
0.0
 11
666.41063942444475
 21
570.98516409970557
 31
0.0
  0
LINE
  5
15E3D
  8
AM_0
 10
665.10936942444505
 20
572.74717409970572
 30
0.0
 11
666.34861942444456
 21
572.11815409970575
 31
0.0
  0
LINE
  5
15E3E
  8
AM_0
 10
665.11570942444496
 20
570.63752409970573
 30
0.0
 11
666.36436942444493
 21
569.97566409970568
 31
0.0
  0
ARC
  5
15E3F
  8
AM_0
 10
665.89604942444532
 20
572.26872409970531
 30
0.0
 40
1.0
 50
359.999989999999
 51
59.973600000004261
  0
ARC
  5
15E40
  8
AM_0
 10
665.89604942444532
 20
571.2264240997057
 30
0.0
 40
1.0
 50
359.999989999999
 51
63.088739999997472
  0
ARC
  5
15E41
  8
AM_0
 10
665.89604942444532
 20
570.12767409970525
 30
0.0
 40
1.0
 50
359.999989999999
 51
59.033399999999602
  0
ARC
  5
15E42
  8
AM_0
 10
665.89604942444532
 20
569.09207409970554
 30
0.0
 40
1.0
 50
359.999989999999
 51
62.07339999999563
  0
ARC
  5
15E43
  8
AM_0
 10
664.62785942444532
 20
573.00174409970555
 30
0.0
 40
1.0
 50
59.973600000004261
 51
89.999996999995744
  0
ARC
  5
15E44
  8
AM_0
 10
664.65678942444515
 20
571.8554540997053
 30
0.0
 40
1.0
 50
63.088739999997472
 51
89.999996999995744
  0
ARC
  5
15E45
  8
AM_0
 10
664.61900942444515
 20
570.8939640997055
 30
0.0
 40
1.0
 50
59.033399999999602
 51
89.999996999995744
  0
ARC
  5
15E46
  8
AM_0
 10
664.64738942444524
 20
569.75399409970555
 30
0.0
 40
1.0
 50
62.07339999999563
 51
89.999996999995744
  0
LINE
  5
15E47
  8
AM_0
 10
664.89604942444475
 20
571.64891409970573
 30
0.0
 11
664.89604942444475
 21
571.10283409970566
 31
0.0
  0
LINE
  5
15E48
  8
AM_0
 10
664.89604942444475
 20
573.74852409970572
 30
0.0
 11
664.89604942444475
 21
573.22274409970566
 31
0.0
  0
ARC
  5
15E49
  8
AM_0
 10
662.39604942444498
 20
572.3554540997053
 30
0.0
 40
0.5
 50
89.999996999995744
 51
180.0
  0
ARC
  5
15E4A
  8
AM_0
 10
662.39604942444498
 20
574.50174409970555
 30
0.0
 40
0.5
 50
180.0
 51
270.0
  0
LINE
  5
15E4B
  8
AM_0
 10
664.62785942444475
 20
574.00175409970575
 30
0.0
 11
662.39604942444475
 21
574.00175409970575
 31
0.0
  0
LINE
  5
15E4C
  8
AM_0
 10
664.61900942444458
 20
571.89395409970575
 30
0.0
 11
661.89604942444475
 21
571.89395409970575
 31
0.0
  0
LINE
  5
15E4D
  8
AM_0
 10
664.64738942444501
 20
570.75401409970573
 30
0.0
 11
662.89604942444475
 21
570.75401409970573
 31
0.0
  0
LINE
  5
15E4E
  8
AM_0
 10
664.65678942444492
 20
572.85543409970569
 30
0.0
 11
662.39604942444475
 21
572.85543409970569
 31
0.0
  0
LINE
  5
15E4F
  8
AM_0
 10
661.89604942444475
 20
574.25235409970571
 30
0.0
 11
660.89604942444475
 21
574.25235409970571
 31
0.0
  0
ARC
  5
15E50
  8
AM_0
 10
664.59739942444514
 20
566.37724409970519
 30
0.0
 40
1.0
 50
56.745270000000168
 51
89.999996999995744
  0
LINE
  5
15E51
  8
AM_0
 10
664.59739942444503
 20
567.37724409970565
 30
0.0
 11
661.89604942444475
 21
567.37724409970565
 31
0.0
  0
ARC
  5
15E52
  8
AM_0
 10
662.89604942444532
 20
569.75399409970555
 30
0.0
 40
1.0
 50
89.999996999995744
 51
180.0
  0
LINE
  5
15E53
  8
AM_0
 10
664.89604942444475
 20
559.64524409970556
 30
0.0
 11
664.89604942444475
 21
558.58529409970561
 31
0.0
  0
ARC
  5
15E54
  8
AM_0
 10
665.89604942444532
 20
558.42709409970553
 30
0.0
 40
1.0
 50
359.999989999999
 51
66.872970000004372
  0
LINE
  5
15E55
  8
AM_0
 10
665.13017942444503
 20
566.10014409970563
 30
0.0
 11
666.40147942444491
 21
565.3554740997057
 31
0.0
  0
LINE
  5
15E56
  8
AM_0
 10
665.08421942444477
 20
559.86125409970566
 30
0.0
 11
666.28880942444493
 21
559.3467840997057
 31
0.0
  0
ARC
  5
15E57
  8
AM_0
 10
665.89604942444532
 20
564.49260409970532
 30
0.0
 40
1.0
 50
359.999989999999
 51
59.640499999995711
  0
ARC
  5
15E58
  8
AM_0
 10
665.89604942444532
 20
565.52568409970536
 30
0.0
 40
1.0
 50
359.999989999999
 51
56.745270000000168
  0
ARC
  5
15E59
  8
AM_0
 10
664.62474942444521
 20
565.23729409970531
 30
0.0
 40
1.0
 50
59.640499999995711
 51
89.999996999995744
  0
ARC
  5
15E5A
  8
AM_0
 10
662.89604942444532
 20
565.23729409970531
 30
0.0
 40
1.0
 50
89.999996999995744
 51
180.0
  0
LINE
  5
15E5B
  8
AM_0
 10
664.62474942444464
 20
566.2372740997057
 30
0.0
 11
662.89604942444475
 21
566.2372740997057
 31
0.0
  0
ARC
  5
15E5C
  8
AM_0
 10
664.69139942444497
 20
558.94157409970535
 30
0.0
 40
1.0
 50
66.872970000004372
 51
89.999996999995744
  0
ARC
  5
15E5D
  8
AM_0
 10
662.59605942444523
 20
560.64157409970562
 30
0.0
 40
0.6999999900000002
 50
180.0
 51
270.0
  0
LINE
  5
15E5E
  8
AM_0
 10
664.69139942444485
 20
559.94156409970583
 30
0.0
 11
662.59605942444466
 21
559.94156409970583
 31
0.0
  0
LINE
  5
15E5F
  8
AM_0
 10
665.03972942444489
 20
557.95129409970582
 30
0.0
 11
666.19004942444485
 21
557.59745409970583
 31
0.0
  0
ARC
  5
15E60
  8
AM_0
 10
665.89604942444532
 20
556.64163409970536
 30
0.0
 40
1.0
 50
359.999989999999
 51
72.902369999996452
  0
ARC
  5
15E61
  8
AM_0
 10
664.74571942444516
 20
556.99546409970526
 30
0.0
 40
1.0
 50
72.902369999996452
 51
89.999996999995744
  0
ARC
  5
15E62
  8
AM_0
 10
662.89604942444532
 20
556.99546409970526
 30
0.0
 40
1.0
 50
89.999996999995744
 51
180.0
  0
LINE
  5
15E63
  8
AM_0
 10
664.7457194244447
 20
557.99546409970571
 30
0.0
 11
662.89604942444475
 21
557.99546409970571
 31
0.0
  0
LINE
  5
15E64
  8
AM_0
 10
662.89604942444475
 20
550.25235409970583
 30
0.0
 11
665.89604942444475
 21
550.25235409970583
 31
0.0
  0
LINE
  5
15E65
  8
AM_0
 10
662.89604942444475
 20
548.25236409970557
 30
0.0
 11
665.89604942444475
 21
548.25236409970557
 31
0.0
  0
ARC
  5
15E66
  8
AM_0
 10
665.89604942444532
 20
549.25236409970535
 30
0.0
 40
1.0
 50
359.999989999999
 51
89.999996999995744
  0
ARC
  5
15E67
  8
AM_0
 10
665.89604942444532
 20
549.25236409970535
 30
0.0
 40
1.0
 50
270.0
 51
0.0000100000009873
  0
LINE
  5
15E68
  8
AM_0
 10
668.39604942444475
 20
544.25235409970583
 30
0.0
 11
666.89604942444475
 21
544.38357409970581
 31
0.0
  0
LINE
  5
15E69
  8
AM_0
 10
664.89604942444475
 20
549.87852409970583
 30
0.0
 11
664.89604942444475
 21
548.5157340997057
 31
0.0
  0
ARC
  5
15E6A
  8
AM_0
 10
662.89604942444532
 20
547.25235409970537
 30
0.0
 40
1.0
 50
89.999996999995744
 51
180.0
  0
LINE
  5
15E6B
  8
AM_0
 10
662.89604942444475
 20
540.2523640997058
 30
0.0
 11
665.89604942444475
 21
540.2523640997058
 31
0.0
  0
LINE
  5
15E6C
  8
AM_0
 10
662.89604942444475
 20
538.25235409970583
 30
0.0
 11
665.89604942444475
 21
538.25235409970583
 31
0.0
  0
LINE
  5
15E6D
  8
AM_0
 10
668.39604942444475
 20
539.40239409970559
 30
0.0
 11
663.71855942444472
 21
539.40239409970559
 31
0.0
  0
ARC
  5
15E6E
  8
AM_0
 10
665.89604942444532
 20
539.25236409970557
 30
0.0
 40
1.0
 50
359.999989999999
 51
89.999996999995744
  0
LINE
  5
15E6F
  8
AM_0
 10
668.39604942444475
 20
541.5343340997058
 30
0.0
 11
666.89604942444475
 21
541.5343340997058
 31
0.0
  0
LINE
  5
15E70
  8
AM_0
 10
669.38994590881975
 20
539.47419637509631
 30
0.0
 11
668.88994590881975
 21
542.2441853887683
 31
0.0
  0
LINE
  5
15E71
  8
AM_0
 10
668.88991539124163
 20
542.2441853887683
 30
0.0
 11
668.38994590881975
 21
542.20417684384631
 31
0.0
  0
ARC
  5
15E72
  8
AM_0
 10
665.89604942444532
 20
539.25236409970557
 30
0.0
 40
1.0
 50
270.0
 51
0.0000100000009873
  0
LINE
  5
15E73
  8
AM_0
 10
664.89604942444475
 20
539.85946409970563
 30
0.0
 11
664.89604942444475
 21
538.64804409970554
 31
0.0
  0
ARC
  5
15E74
  8
AM_0
 10
662.89604942444532
 20
541.25235409970571
 30
0.0
 40
1.0
 50
180.0
 51
270.0
  0
ARC
  5
15E75
  8
AM_0
 10
662.89604942444532
 20
537.25236409970535
 30
0.0
 40
1.0
 50
89.999996999995744
 51
180.0
  0
ARC
  5
15E76
  8
AM_0
 10
662.89604942444532
 20
527.25236409970557
 30
0.0
 40
1.0
 50
89.999996999995744
 51
180.0
  0
LINE
  5
15E77
  8
AM_0
 10
662.89604942444475
 20
530.25236409970569
 30
0.0
 11
665.89604942444475
 21
530.25236409970569
 31
0.0
  0
LINE
  5
15E78
  8
AM_0
 10
662.89604942444475
 20
528.2523640997058
 30
0.0
 11
665.89604942444475
 21
528.2523640997058
 31
0.0
  0
ARC
  5
15E79
  8
AM_0
 10
665.89604942444532
 20
529.25235409970571
 30
0.0
 40
1.0
 50
270.0
 51
0.0000100000009873
  0
ARC
  5
15E7A
  8
AM_0
 10
665.89604942444532
 20
529.25235409970571
 30
0.0
 40
1.0
 50
359.999989999999
 51
89.999996999995744
  0
LINE
  5
15E7B
  8
AM_0
 10
664.89604942444475
 20
529.86557409970555
 30
0.0
 11
664.89604942444475
 21
528.70468409970567
 31
0.0
  0
ARC
  5
15E7C
  8
AM_0
 10
662.89604942444532
 20
531.25236409970546
 30
0.0
 40
1.0
 50
180.0
 51
270.0
  0
LINE
  5
15E7D
  8
AM_0
 10
662.89604942444475
 20
520.25235409970583
 30
0.0
 11
665.89604942444475
 21
520.25235409970583
 31
0.0
  0
ARC
  5
15E7E
  8
AM_0
 10
662.89604942444532
 20
521.2523640997058
 30
0.0
 40
1.0
 50
180.0
 51
270.0
  0
LINE
  5
15E7F
  8
AM_0
 10
666.89604942444475
 20
476.23595509970562
 30
0.0
 11
666.89604942444475
 21
519.25237409970566
 31
0.0
  0
LINE
  5
15E80
  8
AM_0
 10
662.89604942444475
 20
518.25236409970557
 30
0.0
 11
665.89604942444475
 21
518.25236409970557
 31
0.0
  0
ARC
  5
15E81
  8
AM_0
 10
665.89604942444532
 20
519.25237409970566
 30
0.0
 40
1.0
 50
270.0
 51
0.0000100000009873
  0
ARC
  5
15E82
  8
AM_0
 10
662.89604942444532
 20
517.25235409970583
 30
0.0
 40
1.0
 50
89.999996999995744
 51
180.0
  0
LINE
  5
15E83
  8
AM_0
 10
662.89604942444475
 20
508.25235409970571
 30
0.0
 11
665.89604942444475
 21
508.25235409970571
 31
0.0
  0
LINE
  5
15E84
  8
AM_0
 10
662.89604942444475
 20
510.25237409970578
 30
0.0
 11
665.89604942444475
 21
510.25237409970578
 31
0.0
  0
LINE
  5
15E85
  8
AM_0
 10
668.39604942444475
 20
509.10233409970567
 30
0.0
 11
665.10234942444504
 21
509.10233409970567
 31
0.0
  0
ARC
  5
15E86
  8
AM_0
 10
665.89604942444532
 20
509.2523640997058
 30
0.0
 40
1.0
 50
270.0
 51
0.0000100000009873
  0
LINE
  5
15E87
  8
AM_0
 10
668.39604942444475
 20
506.97032409970558
 30
0.0
 11
666.89604942444475
 21
506.97032409970558
 31
0.0
  0
ARC
  5
15E88
  8
AM_0
 10
665.89604942444532
 20
509.2523640997058
 30
0.0
 40
1.0
 50
359.999989999999
 51
89.999996999995744
  0
LINE
  5
15E89
  8
AM_0
 10
668.39598942444468
 20
504.25237409970561
 30
0.0
 11
666.89604942444475
 21
504.12114409970582
 31
0.0
  0
LINE
  5
15E8A
  8
AM_0
 10
668.88994590881975
 20
506.2605428106433
 30
0.0
 11
668.38991539124163
 21
506.30055135556501
 31
0.0
  0
LINE
  5
15E8B
  8
AM_0
 10
669.38991539124163
 20
509.03053182431512
 30
0.0
 11
668.88991539124163
 21
506.2605428106433
 31
0.0
  0
LINE
  5
15E8C
  8
AM_0
 10
664.89604942444475
 20
508.6452540997056
 30
0.0
 11
664.89604942444475
 21
509.85661409970561
 31
0.0
  0
ARC
  5
15E8D
  8
AM_0
 10
662.89604942444532
 20
507.25237409970561
 30
0.0
 40
1.0
 50
89.999996999995744
 51
180.0
  0
ARC
  5
15E8E
  8
AM_0
 10
662.89604942444532
 20
511.25235409970583
 30
0.0
 40
1.0
 50
180.0
 51
270.0
  0
LINE
  5
15E8F
  8
AM_0
 10
662.89604942444475
 20
500.2523640997058
 30
0.0
 11
665.89604942444475
 21
500.2523640997058
 31
0.0
  0
LINE
  5
15E90
  8
AM_0
 10
662.89604942444475
 20
498.25237409970572
 30
0.0
 11
665.89604942444475
 21
498.25237409970572
 31
0.0
  0
ARC
  5
15E91
  8
AM_0
 10
665.89604942444532
 20
499.25235409970583
 30
0.0
 40
1.0
 50
359.999989999999
 51
89.999996999995744
  0
ARC
  5
15E92
  8
AM_0
 10
665.89604942444532
 20
499.25235409970583
 30
0.0
 40
1.0
 50
270.0
 51
0.0000100000009873
  0
ARC
  5
15E93
  8
AM_0
 10
662.89604942444532
 20
501.25237409970578
 30
0.0
 40
1.0
 50
180.0
 51
270.0
  0
LINE
  5
15E94
  8
AM_0
 10
664.89604942444475
 20
498.62613409970572
 30
0.0
 11
664.89604942444475
 21
499.98899409970562
 31
0.0
  0
ARC
  5
15E95
  8
AM_0
 10
662.89604942444532
 20
497.25236409970557
 30
0.0
 40
1.0
 50
89.999996999995744
 51
180.0
  0
LINE
  5
15E96
  8
AM_0
 10
665.03972942444489
 20
490.55342909970562
 30
0.0
 11
666.1901194244449
 21
490.90728009970582
 31
0.0
  0
LINE
  5
15E97
  8
AM_0
 10
665.08415942444469
 20
488.64346309970563
 30
0.0
 11
666.28886942444478
 21
489.1579750997056
 31
0.0
  0
ARC
  5
15E98
  8
AM_0
 10
665.89604942444532
 20
491.86309109970563
 30
0.0
 40
1.0
 50
287.09763000000362
 51
0.0000100000009873
  0
ARC
  5
15E99
  8
AM_0
 10
665.89604942444532
 20
490.07762909970558
 30
0.0
 40
1.0
 50
293.12701999999518
 51
0.0000100000009873
  0
ARC
  5
15E9A
  8
AM_0
 10
664.69139942444497
 20
489.56310309970581
 30
0.0
 40
1.0
 50
270.0
 51
293.12702999999561
  0
LINE
  5
15E9B
  8
AM_0
 10
664.89604942444475
 20
488.85947409970561
 30
0.0
 11
664.89604942444475
 21
489.91942609970579
 31
0.0
  0
ARC
  5
15E9C
  8
AM_0
 10
662.59605942444523
 20
487.86315209970559
 30
0.0
 40
0.6999999900000002
 50
89.999996999995744
 51
180.0
  0
LINE
  5
15E9D
  8
AM_0
 10
664.69139942444485
 20
488.56309509970578
 30
0.0
 11
662.59605942444466
 21
488.56309509970578
 31
0.0
  0
LINE
  5
15E9E
  8
AM_0
 10
664.7457194244447
 20
490.50920909970557
 30
0.0
 11
662.89604942444475
 21
490.50920909970557
 31
0.0
  0
ARC
  5
15E9F
  8
AM_0
 10
664.74571942444516
 20
491.50919409970561
 30
0.0
 40
1.0
 50
270.0
 51
287.09763000000362
  0
ARC
  5
15EA0
  8
AM_0
 10
662.89604942444532
 20
491.50919409970561
 30
0.0
 40
1.0
 50
180.0
 51
270.0
  0
LINE
  5
15EA1
  8
AM_0
 10
665.14579942444493
 20
481.29119909970558
 30
0.0
 11
666.44444942444488
 21
482.14276209970592
 31
0.0
  0
LINE
  5
15EA2
  8
AM_0
 10
665.13011942444484
 20
482.40453409970559
 30
0.0
 11
666.40147942444491
 21
483.1492160997056
 31
0.0
  0
ARC
  5
15EA3
  8
AM_0
 10
665.89604942444532
 20
484.0121230997056
 30
0.0
 40
1.0
 50
300.3595100000008
 51
0.0000100000009873
  0
ARC
  5
15EA4
  8
AM_0
 10
665.89604942444532
 20
484.0121230997056
 30
0.0
 40
1.0
 50
300.3595100000008
 51
0.0000100000009873
  0
LINE
  5
15EA5
  8
AM_0
 10
666.40147942444491
 20
483.14925409970567
 30
0.0
 11
666.425039424445
 21
483.16307909970573
 31
0.0
  0
ARC
  5
15EA6
  8
AM_0
 10
665.89604942444532
 20
482.97899709970562
 30
0.0
 40
1.0
 50
303.25472000000491
 51
0.0000100000009873
  0
ARC
  5
15EA7
  8
AM_0
 10
662.89604942444532
 20
483.26743309970578
 30
0.0
 40
1.0
 50
180.0
 51
205.3632400000005
  0
ARC
  5
15EA8
  8
AM_0
 10
664.59739942444514
 20
482.12741909970572
 30
0.0
 40
1.0
 50
270.0
 51
303.25472999999982
  0
ARC
  5
15EA9
  8
AM_0
 10
664.62474942444521
 20
483.26743309970578
 30
0.0
 40
1.0
 50
270.0
 51
300.35950000000429
  0
LINE
  5
15EAA
  8
AM_0
 10
664.89604942444475
 20
481.42191309970582
 30
0.0
 11
664.89604942444475
 21
481.89402809970579
 31
0.0
  0
LINE
  5
15EAB
  8
AM_0
 10
664.59739942444503
 20
481.12743409970591
 30
0.0
 11
661.89604942444475
 21
481.12743409970591
 31
0.0
  0
LINE
  5
15EAC
  8
AM_0
 10
664.62474942444464
 20
482.2674490997058
 30
0.0
 11
662.89604942444475
 21
482.2674490997058
 31
0.0
  0
ARC
  5
15EAD
  8
AM_0
 10
662.89604942444532
 20
483.26743309970578
 30
0.0
 40
1.0
 50
180.0
 51
270.0
  0
LINE
  5
15EAE
  8
AM_0
 10
665.13359942444504
 20
476.75327309970561
 30
0.0
 11
666.41050942444474
 21
477.51951609970558
 31
0.0
  0
LINE
  5
15EAF
  8
AM_0
 10
665.10942942444467
 20
475.75763009970558
 30
0.0
 11
666.34868942444484
 21
476.38665809970581
 31
0.0
  0
LINE
  5
15EB0
  8
AM_0
 10
665.11570942444496
 20
477.8671650997058
 30
0.0
 11
666.36430942444485
 21
478.52903009970578
 31
0.0
  0
LINE
  5
15EB1
  8
AM_0
 10
665.12828942444503
 20
474.63720709970568
 30
0.0
 11
666.39647942444469
 21
475.37018609970579
 31
0.0
  0
ARC
  5
15EB2
  8
AM_0
 10
665.89604942444532
 20
476.23595509970562
 30
0.0
 40
1.0
 50
300.02639000000539
 51
0.0000100000009873
  0
ARC
  5
15EB3
  8
AM_0
 10
665.89604942444532
 20
477.27830509970551
 30
0.0
 40
1.0
 50
296.91125000000312
 51
0.0000100000009873
  0
ARC
  5
15EB4
  8
AM_0
 10
665.89604942444532
 20
479.41258309970573
 30
0.0
 40
1.0
 50
297.9265899999989
 51
0.0000100000009873
  0
ARC
  5
15EB5
  8
AM_0
 10
665.89604942444532
 20
478.37700709970562
 30
0.0
 40
1.0
 50
300.96660000000043
 51
0.0000100000009873
  0
LINE
  5
15EB6
  8
AM_0
 10
664.89604942444475
 20
474.75621109970581
 30
0.0
 11
664.89604942444475
 21
475.28197509970579
 31
0.0
  0
ARC
  5
15EB7
  8
AM_0
 10
664.65678942444515
 20
476.6492690997058
 30
0.0
 40
1.0
 50
270.0
 51
296.91126000000253
  0
ARC
  5
15EB8
  8
AM_0
 10
664.61900942444515
 20
477.61071009970561
 30
0.0
 40
1.0
 50
270.0
 51
300.96660000000043
  0
ARC
  5
15EB9
  8
AM_0
 10
664.64738942444524
 20
478.75072509970562
 30
0.0
 40
1.0
 50
270.0
 51
297.92660000000438
  0
LINE
  5
15EBA
  8
AM_0
 10
664.89604942444475
 20
476.85581209970559
 30
0.0
 11
664.89604942444475
 21
477.40183309970581
 31
0.0
  0
ARC
  5
15EBB
  8
AM_0
 10
662.89604942444532
 20
478.75072509970562
 30
0.0
 40
1.0
 50
180.0
 51
270.0
  0
ARC
  5
15EBC
  8
AM_0
 10
662.39604942444498
 20
476.14927709970561
 30
0.0
 40
0.5
 50
180.0
 51
270.0
  0
LINE
  5
15EBD
  8
AM_0
 10
664.61900942444458
 20
476.61070309970557
 30
0.0
 11
661.89604942444475
 21
476.61070309970557
 31
0.0
  0
LINE
  5
15EBE
  8
AM_0
 10
664.64738942444501
 20
477.75071709970581
 30
0.0
 11
662.89604942444475
 21
477.75071709970581
 31
0.0
  0
LINE
  5
15EBF
  8
AM_0
 10
664.65678942444492
 20
475.64928509970588
 30
0.0
 11
662.39604942444475
 21
475.64928509970588
 31
0.0
  0
ARC
  5
15EC0
  8
AM_0
 10
664.62785942444532
 20
475.5029830997056
 30
0.0
 40
1.0
 50
270.0
 51
300.02639999999582
  0
ARC
  5
15EC1
  8
AM_0
 10
662.39604942444498
 20
474.0029830997056
 30
0.0
 40
0.5
 50
89.999996999995744
 51
180.0
  0
LINE
  5
15EC2
  8
AM_0
 10
664.62785942444475
 20
474.50297609970568
 30
0.0
 11
662.39604942444475
 21
474.50297609970568
 31
0.0
  0
LINE
  5
15EC3
  8
AM_0
 10
661.89604942444475
 20
474.25237309970561
 30
0.0
 11
660.89604942444475
 21
474.25237309970561
 31
0.0
  0
LINE
  5
15EC4
  8
AM_0
 10
649.69600942444504
 20
467.9673437760963
 30
0.0
 11
552.77604942444475
 21
467.9673437760963
 31
0.0
  0
LINE
  5
15EC5
  8
AM_0
 10
627.3960194244446
 20
486.02735577609627
 30
0.0
 11
544.89601942444494
 21
486.02735577609627
 31
0.0
  0
LINE
  5
15EC6
  8
AM_0
 10
627.3960194244446
 20
562.4773407760963
 30
0.0
 11
544.89601942444494
 21
562.4773407760963
 31
0.0
  0
LINE
  5
15EC7
  8
AM_0
 10
551.55601942444491
 20
488.25238268565607
 30
0.0
 11
650.53605942444472
 21
488.25238268565607
 31
0.0
  0
LINE
  5
15EC8
  8
AM_0
 10
551.55601942444491
 20
490.25238268565619
 30
0.0
 11
650.53605942444472
 21
490.25238268565619
 31
0.0
  0
LINE
  5
15EC9
  8
AM_0
 10
551.56321942444492
 20
500.25238268565607
 30
0.0
 11
650.53605942444472
 21
500.25238268565607
 31
0.0
  0
LINE
  5
15ECA
  8
AM_0
 10
651.21605942444478
 20
487.53241268565591
 30
0.0
 11
548.07603942444484
 21
487.53241268565591
 31
0.0
  0
LINE
  5
15ECB
  8
AM_0
 10
651.43602942444465
 20
500.69232268565628
 30
0.0
 11
547.86180942444457
 21
500.69232268565628
 31
0.0
  0
LINE
  5
15ECC
  8
AM_0
 10
651.43602942444465
 20
497.76239268565593
 30
0.0
 11
547.85038942444487
 21
497.76239268565593
 31
0.0
  0
LINE
  5
15ECD
  8
AM_0
 10
551.54887942444464
 20
498.25238268565607
 30
0.0
 11
650.53605942444472
 21
498.25238268565607
 31
0.0
  0
LINE
  5
15ECE
  8
AM_0
 10
651.21605942444478
 20
490.88239268565633
 30
0.0
 11
548.07603942444484
 21
490.88239268565633
 31
0.0
  0
LINE
  5
15ECF
  8
AM_0
 10
651.56602942444465
 20
507.91242268565628
 30
0.0
 11
547.56745146804451
 21
507.91242268565628
 31
0.0
  0
LINE
  5
15ED0
  8
AM_0
 10
651.56602942444465
 20
510.57233268565608
 30
0.0
 11
547.71897696645135
 21
510.57233268565608
 31
0.0
  0
LINE
  5
15ED1
  8
AM_0
 10
651.62602942444471
 20
517.9823626856562
 30
0.0
 11
547.50993017093765
 21
517.9823626856562
 31
0.0
  0
LINE
  5
15ED2
  8
AM_0
 10
651.62602942444471
 20
520.51239268565587
 30
0.0
 11
547.67321744843548
 21
520.51239268565587
 31
0.0
  0
LINE
  5
15ED3
  8
AM_0
 10
551.55268313103352
 20
520.25238268565613
 30
0.0
 11
650.53605942444472
 21
520.25238268565613
 31
0.0
  0
LINE
  5
15ED4
  8
AM_0
 10
551.55268313103352
 20
518.25238268565613
 30
0.0
 11
650.53605942444472
 21
518.25238268565613
 31
0.0
  0
LINE
  5
15ED5
  8
AM_0
 10
551.55268313103716
 20
510.25238268565607
 30
0.0
 11
650.53605942444472
 21
510.25238268565607
 31
0.0
  0
LINE
  5
15ED6
  8
AM_0
 10
551.55268313101237
 20
508.25238268565619
 30
0.0
 11
650.53605942444472
 21
508.25238268565607
 31
0.0
  0
LINE
  5
15ED7
  8
AM_0
 10
551.55268708090534
 20
540.25238104234359
 30
0.0
 11
650.53606337433462
 21
540.25235660648423
 31
0.0
  0
LINE
  5
15ED8
  8
AM_0
 10
551.55268658719342
 20
538.25238104234381
 30
0.0
 11
650.5360628805978
 21
538.25235660648423
 31
0.0
  0
LINE
  5
15ED9
  8
AM_0
 10
551.55268461224318
 20
530.25238104234393
 30
0.0
 11
650.53606090565142
 21
530.25235660648434
 31
0.0
  0
LINE
  5
15EDA
  8
AM_0
 10
551.55268411850648
 20
528.25238104234393
 30
0.0
 11
650.53606041191472
 21
528.25235660648445
 31
0.0
  0
LINE
  5
15EDB
  8
AM_0
 10
651.62603034772656
 20
527.99234633740525
 30
0.0
 11
547.6732183717204
 21
527.99237200006144
 31
0.0
  0
LINE
  5
15EDC
  8
AM_0
 10
651.6260309723109
 20
530.52237633740526
 30
0.0
 11
547.50993171880714
 21
530.5224020403715
 31
0.0
  0
LINE
  5
15EDD
  8
AM_0
 10
651.56603280161244
 20
537.93240635221707
 30
0.0
 11
547.71898034362221
 21
537.93243198876428
 31
0.0
  0
LINE
  5
15EDE
  8
AM_0
 10
651.56603345825965
 20
540.59231635221738
 30
0.0
 11
547.5674555018627
 21
540.59234202617108
 31
0.0
  0
LINE
  5
15EDF
  8
AM_0
 10
651.21606766243474
 20
557.62234643861302
 30
0.0
 11
548.07604766243799
 21
557.62237190061614
 31
0.0
  0
LINE
  5
15EE0
  8
AM_0
 10
551.5488858430208
 20
550.25238104328241
 30
0.0
 11
650.5360658430177
 21
550.25235660648354
 31
0.0
  0
LINE
  5
15EE1
  8
AM_0
 10
651.43603596398088
 20
550.74234638430971
 30
0.0
 11
547.85039596398394
 21
550.74237195632259
 31
0.0
  0
LINE
  5
15EE2
  8
AM_0
 10
651.43603524067373
 20
547.81241638430981
 30
0.0
 11
547.86181524067695
 21
547.81244195350325
 31
0.0
  0
LINE
  5
15EE3
  8
AM_0
 10
651.21606848943873
 20
560.97232643861321
 30
0.0
 11
548.07604848944175
 21
560.97235190061645
 31
0.0
  0
LINE
  5
15EE4
  8
AM_0
 10
551.56322534928415
 20
548.25238103974232
 30
0.0
 11
650.53606534928122
 21
548.25235660648389
 31
0.0
  0
LINE
  5
15EE5
  8
AM_0
 10
551.55602781796733
 20
558.25238104151936
 30
0.0
 11
650.53606781796418
 21
558.25235660648354
 31
0.0
  0
LINE
  5
15EE6
  8
AM_0
 10
551.55602831170404
 20
560.25238104151947
 30
0.0
 11
650.536068311701
 21
560.25235660648354
 31
0.0
  0
LINE
  5
15EE7
  8
AM_0
 10
649.69600942444504
 20
580.53735077609633
 30
0.0
 11
552.77604942444475
 21
580.53735077609633
 31
0.0
  0
LINE
  5
15EE8
  8
ｶｸﾚｾﾝ2
 10
564.39601942444494
 20
495.75238632594233
 30
0.0
 11
564.39601942444494
 21
552.75238632594187
 31
0.0
  0
LINE
  5
15EE9
  8
ｶｸﾚｾﾝ2
 10
644.39601942444494
 20
552.75238632594187
 30
0.0
 11
644.39601942444494
 21
495.75238632594233
 31
0.0
  0
LINE
  5
15EEA
  8
AM_0
 10
652.89601942444472
 20
577.24736077609623
 30
0.0
 11
652.89601942444472
 21
474.80736277609628
 31
0.0
  0
LINE
  5
15EEB
  8
ﾁｭｳｼﾝｾﾝ1
 10
595.89601942444506
 20
564.877377590793
 30
0.0
 11
595.89601942444506
 21
483.62737459079278
 31
0.0
  0
ARC
  5
15EEC
  8
AM_0
 10
651.63188942444515
 20
519.24738268565625
 30
0.0
 40
1.2650129999999991
 50
269.73557900000168
 51
90.264410000002485
  0
ARC
  5
15EED
  8
AM_0
 10
650.35142942444509
 20
519.25238268565613
 30
0.0
 40
1.0000138999999999
 50
269.69165999999939
 51
90.308340000000726
  0
LINE
  5
15EEE
  8
ｶｸﾚｾﾝ2
 10
567.39601942444494
 20
555.7523863259421
 30
0.0
 11
641.39601942444506
 21
555.7523863259421
 31
0.0
  0
POLYLINE
  5
15EEF
  8
AM_0
 66
     1
 10
0.0
 20
0.0
 30
0.0
  0
VERTEX
  5
15EF0
  8
AM_0
 10
649.03515596226305
 20
550.73538697701065
 30
0.0
 42
0.00068898288
  0
VERTEX
  5
15EF1
  8
AM_0
 10
648.96427610415083
 20
551.31013699450864
 30
0.0
 42
0.00070644354
  0
VERTEX
  5
15EF2
  8
AM_0
 10
648.89177624602326
 20
551.88482701240673
 30
0.0
 42
0.00069248071
  0
VERTEX
  5
15EF3
  8
AM_0
 10
648.8176863878025
 20
552.45913703069698
 30
0.0
 42
0.00069585665
  0
VERTEX
  5
15EF4
  8
AM_0
 10
648.74200652953937
 20
553.03327704937988
 30
0.0
 42
0.00068980191
  0
VERTEX
  5
15EF5
  8
AM_0
 10
648.66470667124145
 20
553.60727706846285
 30
0.0
 42
0.00072080104
  0
VERTEX
  5
15EF6
  8
AM_0
 10
648.58581681289206
 20
554.18106708793835
 30
0.0
 42
0.00071002307
  0
VERTEX
  5
15EF7
  8
AM_0
 10
648.50527695446374
 20
554.75453710782108
 30
0.0
 42
0.00072659056
  0
VERTEX
  5
15EF8
  8
AM_0
 10
648.42311709594424
 20
555.32763712810379
 30
0.0
 42
0.00069570481
  0
VERTEX
  5
15EF9
  8
AM_0
 10
648.33929723740721
 20
555.9006671487964
 30
0.0
 42
0.00071266935
  0
VERTEX
  5
15EFA
  8
AM_0
 10
648.25386737880581
 20
556.47343716988644
 30
0.0
 42
0.00071614426
  0
VERTEX
  5
15EFB
  8
AM_0
 10
648.1668375200984
 20
557.04577719137114
 30
0.0
 42
0.00072288975
  0
VERTEX
  5
15EFC
  8
AM_0
 10
648.07812766138113
 20
557.61807721327068
 30
0.0
  0
SEQEND
  5
15EFD
  8
AM_0
  0
LINE
  5
15EFE
  8
AM_0
 10
627.39607942444491
 20
562.47735077609605
 30
0.0
 11
647.57350942444475
 21
560.97735077609605
 31
0.0
  0
LINE
  5
15EFF
  8
AM_0
 10
647.57113220813289
 20
560.97232733843225
 30
0.0
 11
652.89601942444472
 21
572.34735077609639
 31
0.0
  0
LINE
  5
15F00
  8
AM_0
 10
652.89601942444472
 20
572.34736077609625
 30
0.0
 11
651.65602942444457
 21
578.90736077609631
 31
0.0
  0
LINE
  5
15F01
  8
AM_0
 10
652.89601942444472
 20
573.68736077609617
 30
0.0
 11
651.6160494244449
 21
581.6973507760963
 31
0.0
  0
ARC
  5
15F02
  8
AM_0
 10
649.69313942444523
 20
578.54045077609612
 30
0.0
 40
1.9969039999999989
 50
10.587439999998571
 51
89.916526000000346
  0
ARC
  5
15F03
  8
AM_0
 10
650.35143806483302
 20
559.25235665206264
 30
0.0
 40
1.0000138999999999
 50
269.6916458554881
 51
90.308325855489642
  0
ARC
  5
15F04
  8
AM_0
 10
651.22344807595209
 20
559.29739643679068
 30
0.0
 40
1.6750160000000001
 50
269.74611585548871
 51
90.253840855485208
  0
ARC
  5
15F05
  8
ｶｸﾚｾﾝ2
 10
641.39601942444551
 20
552.75238632594187
 30
0.0
 40
3.0
 50
0.0
 51
90.0
  0
POLYLINE
  5
15F06
  8
AM_0
 66
     1
 10
0.0
 20
0.0
 30
0.0
  0
VERTEX
  5
15F07
  8
AM_0
 10
650.49200097240009
 20
530.52273661736115
 30
0.0
 42
0.00076691992
  0
VERTEX
  5
15F08
  8
AM_0
 10
650.47720112490788
 20
531.14050662101477
 30
0.0
 42
0.00073262792
  0
VERTEX
  5
15F09
  8
AM_0
 10
650.46056127737131
 20
531.75809662512268
 30
0.0
 42
0.00076529537
  0
VERTEX
  5
15F0A
  8
AM_0
 10
650.44207142985465
 20
532.37576662968695
 30
0.0
 42
0.00075141097
  0
VERTEX
  5
15F0B
  8
AM_0
 10
650.42170158232045
 20
532.99336663471604
 30
0.0
 42
0.00075841687
  0
VERTEX
  5
15F0C
  8
AM_0
 10
650.39947173474422
 20
533.61079664020383
 30
0.0
 42
0.00075711788
  0
VERTEX
  5
15F0D
  8
AM_0
 10
650.37536188718775
 20
534.22830664615583
 30
0.0
 42
0.00075976003
  0
VERTEX
  5
15F0E
  8
AM_0
 10
650.34937203960203
 20
534.84569665257209
 30
0.0
 42
0.00075797311
  0
VERTEX
  5
15F0F
  8
AM_0
 10
650.32153219198881
 20
535.46297665944485
 30
0.0
 42
0.0007482613
  0
VERTEX
  5
15F10
  8
AM_0
 10
650.29180234440025
 20
536.08035666678416
 30
0.0
 42
0.00074893561
  0
VERTEX
  5
15F11
  8
AM_0
 10
650.26024249675038
 20
536.6974866745752
 30
0.0
 42
0.00076039839
  0
VERTEX
  5
15F12
  8
AM_0
 10
650.22682264907542
 20
537.31451668282557
 30
0.0
 42
0.00075618786
  0
VERTEX
  5
15F13
  8
AM_0
 10
650.19152280140315
 20
537.93155669153998
 30
0.0
  0
SEQEND
  5
15F14
  8
AM_0
  0
POLYLINE
  5
15F15
  8
AM_0
 66
     1
 10
0.0
 20
0.0
 30
0.0
  0
VERTEX
  5
15F16
  8
AM_0
 10
650.01781345841096
 20
540.5929267344236
 30
0.0
 42
0.0007337051
  0
VERTEX
  5
15F17
  8
AM_0
 10
649.9736736071294
 20
541.19534674532008
 30
0.0
 42
0.00075211323
  0
VERTEX
  5
15F18
  8
AM_0
 10
649.92773375584045
 20
541.79773675666138
 30
0.0
 42
0.0007297491
  0
VERTEX
  5
15F19
  8
AM_0
 10
649.88000390450452
 20
542.39993676844438
 30
0.0
 42
0.00073593041
  0
VERTEX
  5
15F1A
  8
AM_0
 10
649.83052405311673
 20
543.00192678065923
 30
0.0
 42
0.00074742739
  0
VERTEX
  5
15F1B
  8
AM_0
 10
649.77925420169925
 20
543.60379679331595
 30
0.0
 42
0.00073217363
  0
VERTEX
  5
15F1C
  8
AM_0
 10
649.7261943502649
 20
544.20559680641509
 30
0.0
 42
0.00073754168
  0
VERTEX
  5
15F1D
  8
AM_0
 10
649.67137449876577
 20
544.80713681994825
 30
0.0
 42
0.00073075073
  0
VERTEX
  5
15F1E
  8
AM_0
 10
649.61479464722254
 20
545.40849683391605
 30
0.0
 42
0.00074550816
  0
VERTEX
  5
15F1F
  8
AM_0
 10
649.55645479560542
 20
546.00955684831843
 30
0.0
 42
0.00074288416
  0
VERTEX
  5
15F20
  8
AM_0
 10
649.49630494397832
 20
546.61057686316769
 30
0.0
 42
0.00072504001
  0
VERTEX
  5
15F21
  8
AM_0
 10
649.43439509228438
 20
547.21132687845113
 30
0.0
 42
0.00074640667
  0
VERTEX
  5
15F22
  8
AM_0
 10
649.37072524055338
 20
547.81192689416935
 30
0.0
  0
SEQEND
  5
15F23
  8
AM_0
  0
ARC
  5
15F24
  8
AM_0
 10
650.35143559614994
 20
549.25235665206276
 30
0.0
 40
1.0000138999999999
 50
269.6916458554881
 51
90.308325855489642
  0
ARC
  5
15F25
  8
AM_0
 10
651.43603560232646
 20
549.27737638430949
 30
0.0
 40
1.465004
 50
269.99998585548531
 51
89.999982855487545
  0
ARC
  5
15F26
  8
AM_0
 10
650.35143312746663
 20
539.25235665206333
 30
0.0
 40
1.0000138999999999
 50
269.6916458554881
 51
90.308325855489642
  0
ARC
  5
15F27
  8
AM_0
 10
651.56603312993775
 20
539.26236635221699
 30
0.0
 40
1.3300049999999981
 50
269.99998585548531
 51
89.999982855487545
  0
POLYLINE
  5
15F28
  8
AM_0
 66
     1
 10
0.0
 20
0.0
 30
0.0
  0
VERTEX
  5
15F29
  8
AM_0
 10
650.53605942444165
 20
524.25235660648445
 30
0.0
 42
0.00039106649
  0
VERTEX
  5
15F2A
  8
AM_0
 10
650.53841950125025
 20
524.56348660590197
 30
0.0
 42
0.00035488198
  0
VERTEX
  5
15F2B
  8
AM_0
 10
650.54030957805332
 20
524.87459660543504
 30
0.0
 42
0.00039706113
  0
VERTEX
  5
15F2C
  8
AM_0
 10
650.54173965485631
 20
525.18570660508226
 30
0.0
 42
0.00038765718
  0
VERTEX
  5
15F2D
  8
AM_0
 10
650.54266973166705
 20
525.49684660485275
 30
0.0
 42
0.00040613432
  0
VERTEX
  5
15F2E
  8
AM_0
 10
650.54311980846785
 20
525.80794660474157
 30
0.0
 42
0.00035573434
  0
VERTEX
  5
15F2F
  8
AM_0
 10
650.54307988527103
 20
526.11905660475145
 30
0.0
 42
0.00038545884
  0
VERTEX
  5
15F30
  8
AM_0
 10
650.54258996207898
 20
526.43018660487235
 30
0.0
 42
0.00035501205
  0
VERTEX
  5
15F31
  8
AM_0
 10
650.54163003888232
 20
526.74129660510948
 30
0.0
 42
0.00040120779
  0
VERTEX
  5
15F32
  8
AM_0
 10
650.54021011571513
 20
527.05252660546012
 30
0.0
 42
0.00038317817
  0
VERTEX
  5
15F33
  8
AM_0
 10
650.53830019252325
 20
527.36365660593151
 30
0.0
 42
0.00035656084
  0
VERTEX
  5
15F34
  8
AM_0
 10
650.53592026935871
 20
527.67489660651904
 30
0.0
 42
0.00040143615
  0
VERTEX
  5
15F35
  8
AM_0
 10
650.53307034615932
 20
527.98599660722232
 30
0.0
  0
SEQEND
  5
15F36
  8
AM_0
  0
ARC
  5
15F37
  8
AM_0
 10
650.35143065878356
 20
529.25235665206355
 30
0.0
 40
1.0000138999999999
 50
269.6916458554881
 51
90.308325855489642
  0
ARC
  5
15F38
  8
AM_0
 10
651.6318906600178
 20
529.25735633595843
 30
0.0
 40
1.2650129999999991
 50
269.73557585548838
 51
90.264406855489256
  0
POLYLINE
  5
15F39
  8
AM_0
 66
     1
 10
0.0
 20
0.0
 30
0.0
  0
VERTEX
  5
15F3A
  8
AM_0
 10
650.53605942444506
 20
524.25238268565613
 30
0.0
 42
-0.00039106649
  0
VERTEX
  5
15F3B
  8
AM_0
 10
650.53841942444524
 20
523.94125268565585
 30
0.0
 42
-0.00035488198
  0
VERTEX
  5
15F3C
  8
AM_0
 10
650.54030942444524
 20
523.63014268565621
 30
0.0
 42
-0.00039706113
  0
VERTEX
  5
15F3D
  8
AM_0
 10
650.54173942444515
 20
523.319032685656
 30
0.0
 42
-0.00038765718
  0
VERTEX
  5
15F3E
  8
AM_0
 10
650.54266942444519
 20
523.00789268565609
 30
0.0
 42
-0.00040613432
  0
VERTEX
  5
15F3F
  8
AM_0
 10
650.54311942444531
 20
522.69679268565619
 30
0.0
 42
-0.00035573434
  0
VERTEX
  5
15F40
  8
AM_0
 10
650.54307942444507
 20
522.38568268565587
 30
0.0
 42
-0.00038545884
  0
VERTEX
  5
15F41
  8
AM_0
 10
650.54258942444505
 20
522.07455268565604
 30
0.0
 42
-0.00035501205
  0
VERTEX
  5
15F42
  8
AM_0
 10
650.54162942444509
 20
521.76344268565606
 30
0.0
 42
-0.00040120779
  0
VERTEX
  5
15F43
  8
AM_0
 10
650.54020942444515
 20
521.45221268565615
 30
0.0
 42
-0.00038317817
  0
VERTEX
  5
15F44
  8
AM_0
 10
650.53829942444509
 20
521.14108268565587
 30
0.0
 42
-0.00035656084
  0
VERTEX
  5
15F45
  8
AM_0
 10
650.53591942444507
 20
520.82984268565588
 30
0.0
 42
-0.00040143615
  0
VERTEX
  5
15F46
  8
AM_0
 10
650.5330694244451
 20
520.51874268565621
 30
0.0
  0
SEQEND
  5
15F47
  8
AM_0
  0
ARC
  5
15F48
  8
ｶｸﾚｾﾝ2
 10
567.39601942444517
 20
552.75238632594187
 30
0.0
 40
3.0
 50
90.0
 51
180.0
  0
LINE
  5
15F49
  8
ｶｸﾚｾﾝ2
 10
567.39601942444494
 20
492.75238632594221
 30
0.0
 11
641.39601942444506
 21
492.75238632594221
 31
0.0
  0
ARC
  5
15F4A
  8
AM_0
 10
651.22343942444513
 20
489.2073426856561
 30
0.0
 40
1.6750160000000001
 50
269.7461450000045
 51
90.253870000000916
  0
POLYLINE
  5
15F4B
  8
AM_0
 66
     1
 10
0.0
 20
0.0
 30
0.0
  0
VERTEX
  5
15F4C
  8
AM_0
 10
650.01780942444532
 20
507.91181268565617
 30
0.0
 42
-0.0007337051
  0
VERTEX
  5
15F4D
  8
AM_0
 10
649.97366942444523
 20
507.30939268565612
 30
0.0
 42
-0.00075211323
  0
VERTEX
  5
15F4E
  8
AM_0
 10
649.92772942444515
 20
506.70700268565611
 30
0.0
 42
-0.0007297491
  0
VERTEX
  5
15F4F
  8
AM_0
 10
649.87999942444515
 20
506.10480268565613
 30
0.0
 42
-0.00073593041
  0
VERTEX
  5
15F50
  8
AM_0
 10
649.83051942444513
 20
505.50281268565612
 30
0.0
 42
-0.00074742739
  0
VERTEX
  5
15F51
  8
AM_0
 10
649.7792494244452
 20
504.90094268565622
 30
0.0
 42
-0.00073217363
  0
VERTEX
  5
15F52
  8
AM_0
 10
649.72618942444524
 20
504.29914268565631
 30
0.0
 42
-0.00073754168
  0
VERTEX
  5
15F53
  8
AM_0
 10
649.67136942444495
 20
503.69760268565619
 30
0.0
 42
-0.00073075073
  0
VERTEX
  5
15F54
  8
AM_0
 10
649.61478942444523
 20
503.09624268565631
 30
0.0
 42
-0.00074550816
  0
VERTEX
  5
15F55
  8
AM_0
 10
649.5564494244453
 20
502.49518268565612
 30
0.0
 42
-0.00074288416
  0
VERTEX
  5
15F56
  8
AM_0
 10
649.49629942444528
 20
501.894162685656
 30
0.0
 42
-0.00072504001
  0
VERTEX
  5
15F57
  8
AM_0
 10
649.43438942444516
 20
501.29341268565622
 30
0.0
 42
-0.00074640667
  0
VERTEX
  5
15F58
  8
AM_0
 10
649.37071942444527
 20
500.69281268565612
 30
0.0
  0
SEQEND
  5
15F59
  8
AM_0
  0
POLYLINE
  5
15F5A
  8
AM_0
 66
     1
 10
0.0
 20
0.0
 30
0.0
  0
VERTEX
  5
15F5B
  8
AM_0
 10
650.49199942444511
 20
517.98200268565597
 30
0.0
 42
-0.00076691992
  0
VERTEX
  5
15F5C
  8
AM_0
 10
650.47719942444508
 20
517.36423268565636
 30
0.0
 42
-0.00073262792
  0
VERTEX
  5
15F5D
  8
AM_0
 10
650.46055942444514
 20
516.74664268565596
 30
0.0
 42
-0.00076529537
  0
VERTEX
  5
15F5E
  8
AM_0
 10
650.44206942444498
 20
516.12897268565632
 30
0.0
 42
-0.00075141097
  0
VERTEX
  5
15F5F
  8
AM_0
 10
650.42169942444525
 20
515.5113726856564
 30
0.0
 42
-0.00075841687
  0
VERTEX
  5
15F60
  8
AM_0
 10
650.39946942444521
 20
514.89394268565616
 30
0.0
 42
-0.00075711788
  0
VERTEX
  5
15F61
  8
AM_0
 10
650.37535942444515
 20
514.27643268565612
 30
0.0
 42
-0.00075976003
  0
VERTEX
  5
15F62
  8
AM_0
 10
650.34936942444517
 20
513.65904268565623
 30
0.0
 42
-0.00075797311
  0
VERTEX
  5
15F63
  8
AM_0
 10
650.32152942444498
 20
513.04176268565607
 30
0.0
 42
-0.0007482613
  0
VERTEX
  5
15F64
  8
AM_0
 10
650.29179942444512
 20
512.42438268565616
 30
0.0
 42
-0.00074893561
  0
VERTEX
  5
15F65
  8
AM_0
 10
650.26023942444522
 20
511.8072526856559
 30
0.0
 42
-0.00076039839
  0
VERTEX
  5
15F66
  8
AM_0
 10
650.22681942444524
 20
511.19022268565612
 30
0.0
 42
-0.00075618786
  0
VERTEX
  5
15F67
  8
AM_0
 10
650.19151942444523
 20
510.57318268565609
 30
0.0
  0
SEQEND
  5
15F68
  8
AM_0
  0
ARC
  5
15F69
  8
AM_0
 10
651.56602942444511
 20
509.24237268565599
 30
0.0
 40
1.3300049999999981
 50
270.00000299999761
 51
90.0
  0
ARC
  5
15F6A
  8
AM_0
 10
650.35142942444509
 20
509.25238268565607
 30
0.0
 40
1.0000138999999999
 50
269.69165999999939
 51
90.308340000000726
  0
POLYLINE
  5
15F6B
  8
AM_0
 66
     1
 10
0.0
 20
0.0
 30
0.0
  0
VERTEX
  5
15F6C
  8
AM_0
 10
649.03514942444508
 20
497.7693526856562
 30
0.0
 42
-0.00068898288
  0
VERTEX
  5
15F6D
  8
AM_0
 10
648.96426942444521
 20
497.19460268565632
 30
0.0
 42
-0.00070644354
  0
VERTEX
  5
15F6E
  8
AM_0
 10
648.8917694244451
 20
496.61991268565612
 30
0.0
 42
-0.00069248071
  0
VERTEX
  5
15F6F
  8
AM_0
 10
648.81767942444515
 20
496.04560268565609
 30
0.0
 42
-0.00069585665
  0
VERTEX
  5
15F70
  8
AM_0
 10
648.74199942444511
 20
495.47146268565621
 30
0.0
 42
-0.00068980191
  0
VERTEX
  5
15F71
  8
AM_0
 10
648.6646994244453
 20
494.89746268565619
 30
0.0
 42
-0.00072080104
  0
VERTEX
  5
15F72
  8
AM_0
 10
648.58580942444496
 20
494.32367268565628
 30
0.0
 42
-0.00071002307
  0
VERTEX
  5
15F73
  8
AM_0
 10
648.50526942444515
 20
493.75020268565612
 30
0.0
 42
-0.00072659056
  0
VERTEX
  5
15F74
  8
AM_0
 10
648.42310942444487
 20
493.17710268565588
 30
0.0
 42
-0.00069570481
  0
VERTEX
  5
15F75
  8
AM_0
 10
648.33928942444516
 20
492.60407268565621
 30
0.0
 42
-0.00071266935
  0
VERTEX
  5
15F76
  8
AM_0
 10
648.25385942444495
 20
492.03130268565621
 30
0.0
 42
-0.00071614426
  0
VERTEX
  5
15F77
  8
AM_0
 10
648.16682942444515
 20
491.45896268565599
 30
0.0
 42
-0.00072288975
  0
VERTEX
  5
15F78
  8
AM_0
 10
648.07811942444516
 20
490.88666268565618
 30
0.0
  0
SEQEND
  5
15F79
  8
AM_0
  0
ARC
  5
15F7A
  8
AM_0
 10
650.35142942444509
 20
499.25238268565607
 30
0.0
 40
1.0000138999999999
 50
269.69165999999939
 51
90.308340000000726
  0
ARC
  5
15F7B
  8
AM_0
 10
651.43602942444522
 20
499.22736268565609
 30
0.0
 40
1.465004
 50
270.00000299999761
 51
90.0
  0
ARC
  5
15F7C
  8
AM_0
 10
650.35142942444509
 20
489.25238268565607
 30
0.0
 40
1.0000138999999999
 50
269.69165999999939
 51
90.308340000000726
  0
ARC
  5
15F7D
  8
ｶｸﾚｾﾝ2
 10
641.39601942444551
 20
495.75238632594233
 30
0.0
 40
3.0
 50
270.0
 51
0.0
  0
LINE
  5
15F7E
  8
AM_0
 10
649.64601942444472
 20
465.11735277609631
 30
0.0
 11
615.89601942444472
 21
465.11735277609631
 31
0.0
  0
LINE
  5
15F7F
  8
AM_0
 10
649.62599942444467
 20
463.27734877609629
 30
0.0
 11
615.89601942444472
 21
463.27734877609629
 31
0.0
  0
LINE
  5
15F80
  8
AM_0
 10
649.60603942444504
 20
462.35735777609642
 30
0.0
 11
615.89601942444472
 21
462.35735777609642
 31
0.0
  0
LINE
  5
15F81
  8
AM_0
 10
627.3960194244446
 20
486.02735577609627
 30
0.0
 11
647.56886942444498
 21
487.52735577609627
 31
0.0
  0
LINE
  5
15F82
  8
AM_0
 10
652.89601942444472
 20
476.15733777609643
 30
0.0
 11
651.65602942444457
 21
469.59734077609642
 31
0.0
  0
LINE
  5
15F83
  8
AM_0
 10
652.89601942444472
 20
474.80734677609632
 30
0.0
 11
651.6160494244449
 21
466.80735477609647
 31
0.0
  0
LINE
  5
15F84
  8
AM_0
 10
652.89595942444475
 20
473.46735077609628
 30
0.0
 11
651.60597942444474
 21
464.96735877609632
 31
0.0
  0
LINE
  5
15F85
  8
AM_0
 10
652.89601942444472
 20
473.46737377609628
 30
0.0
 11
651.58601942444477
 21
464.0873687760963
 31
0.0
  0
LINE
  5
15F86
  8
AM_0
 10
647.56647208516085
 20
487.53241268565591
 30
0.0
 11
652.89607942444491
 21
476.15737577609627
 31
0.0
  0
ARC
  5
15F87
  8
AM_0
 10
649.60389942444522
 20
464.35783077609642
 30
0.0
 40
2.0004758999999992
 50
270.06031000000399
 51
352.22953999999908
  0
ARC
  5
15F88
  8
AM_0
 10
649.63246942444505
 20
465.27468577609642
 30
0.0
 40
1.9973480999999991
 50
269.81532000000249
 51
351.14853000000028
  0
ARC
  5
15F89
  8
AM_0
 10
649.64003942444515
 20
467.11752777609621
 30
0.0
 40
2.0001840999999998
 50
270.1714700000008
 51
351.07900000000399
  0
ARC
  5
15F8A
  8
AM_0
 10
649.69136942444516
 20
469.96635177609642
 30
0.0
 40
1.9990078999999989
 50
270.13344999999691
 51
349.36259000000302
  0
ARC
  5
15F8B
  8
AM_0
 10
615.90400942444512
 20
464.36536077609628
 30
0.0
 40
2.0080360999999991
 50
180.22878999999941
 51
269.77121000000062
  0
ARC
  5
15F8C
  8
AM_0
 10
615.89930942444505
 20
465.28063677609629
 30
0.0
 40
2.003279899999999
 50
180.09378999999711
 51
269.90621000000289
  0
ARC
  5
15F8D
  8
AM_0
 10
615.90321942444496
 20
467.12453177609632
 30
0.0
 40
2.0071799999999991
 50
180.20462000000421
 51
269.79538000000241
  0
LINE
  5
15F8E
  8
AM_0
 10
613.89601942444472
 20
464.35735077609633
 30
0.0
 11
613.89601942444472
 21
467.9673437760963
 31
0.0
  0
ARC
  5
15F8F
  8
ｶｸﾚｾﾝ2
 10
567.39601942444517
 20
495.75238632594233
 30
0.0
 40
3.0
 50
180.0
 51
270.0
  0
LINE
  5
15F90
  8
AM_0
 10
544.89601942444494
 20
580.25235077609625
 30
0.0
 11
544.89601942444494
 21
468.25234677609632
 31
0.0
  0
ARC
  5
15F91
  8
AM_0
 10
547.66912302444496
 20
519.24237268565605
 30
0.0
 40
1.2700266
 50
89.629319999999979
 51
270.37066999999809
  0
ARC
  5
15F92
  8
AM_0
 10
551.55605952444489
 20
519.25238268565613
 30
0.0
 40
1.000005699999998
 50
89.999989999999016
 51
270.00000299999761
  0
LINE
  5
15F93
  8
AM_0
 10
544.89601942444494
 20
580.25235077609625
 30
0.0
 11
536.89604942444464
 21
580.25235077609625
 31
0.0
  0
LINE
  5
15F94
  8
AM_0
 10
544.89601942444494
 20
556.19236077609639
 30
0.0
 11
536.89604942444464
 21
556.19236077609639
 31
0.0
  0
LINE
  5
15F95
  8
AM_0
 10
544.89601942444494
 20
570.25235077609636
 30
0.0
 11
536.89604942444464
 21
570.25235077609636
 31
0.0
  0
LINE
  5
15F96
  8
AM_0
 10
546.69600942444504
 20
563.58737077609624
 30
0.0
 11
550.84599942444493
 21
579.04736077609618
 31
0.0
  0
ARC
  5
15F97
  8
AM_0
 10
552.77882942444512
 20
578.53875077609632
 30
0.0
 40
1.9986041000000001
 50
90.080483999998904
 51
165.25728400000051
  0
LINE
  5
15F98
  8
AM_0
 10
550.35603942444504
 20
577.24736077609623
 30
0.0
 11
544.89601942444494
 21
577.24736077609623
 31
0.0
  0
ARC
  5
15F99
  8
AM_0
 10
551.55602806483591
 20
559.25238104151958
 30
0.0
 40
1.0
 50
89.999982855487545
 51
269.9999958554863
  0
ARC
  5
15F9A
  8
AM_0
 10
548.07606824371476
 20
559.29739790061069
 30
0.0
 40
1.675026000120903
 50
90.000672712195325
 51
269.99929599882307
  0
ARC
  5
15F9B
  8
AM_0
 10
545.24281942444532
 20
563.97512077609633
 30
0.0
 40
1.5027759999999999
 50
270.12241000000358
 51
345.24357000000072
  0
ARC
  5
15F9C
  8
AM_0
 10
551.55606322746962
 20
539.25238104151015
 30
0.0
 40
1.000005699999998
 50
89.999982855487545
 51
269.9999958554863
  0
ARC
  5
15F9D
  8
AM_0
 10
551.55608559615303
 20
549.25238104150492
 30
0.0
 40
1.0000255999999981
 50
89.589454855482614
 51
270.41051585548382
  0
ARC
  5
15F9E
  8
AM_0
 10
547.85607560356652
 20
549.28241195492024
 30
0.0
 40
1.460011199999999
 50
89.775235855483814
 51
270.22473585548403
  0
ARC
  5
15F9F
  8
AM_0
 10
547.73107673117534
 20
539.2673919857782
 30
0.0
 40
1.3350147999999999
 50
89.730429855483649
 51
270.26955585548518
  0
ARC
  5
15FA0
  8
AM_0
 10
551.55606075878643
 20
529.25238104151038
 30
0.0
 40
1.000005699999998
 50
89.999982855487545
 51
269.9999958554863
  0
ARC
  5
15FA1
  8
AM_0
 10
547.66912426125782
 20
529.26239200107182
 30
0.0
 40
1.2700266
 50
89.629315855484137
 51
270.37066585548888
  0
ARC
  5
15FA2
  8
AM_0
 10
548.07605959221087
 20
489.20736668565678
 30
0.0
 40
1.675026000120903
 50
90.000689856668657
 51
269.99931314329001
  0
LINE
  5
15FA3
  8
AM_0
 10
544.89601942444494
 20
492.31235977609629
 30
0.0
 11
536.89604942444464
 21
492.31235977609629
 31
0.0
  0
ARC
  5
15FA4
  8
AM_0
 10
551.55605952444489
 20
509.25238268565607
 30
0.0
 40
1.000005699999998
 50
89.999989999999016
 51
270.00000299999761
  0
ARC
  5
15FA5
  8
AM_0
 10
547.73107302444532
 20
509.23737268565623
 30
0.0
 40
1.3350147999999999
 50
89.730429999999885
 51
270.26955600000139
  0
ARC
  5
15FA6
  8
AM_0
 10
551.55607942444522
 20
499.25238268565607
 30
0.0
 40
1.0000255999999981
 50
89.589470000003274
 51
270.41053099999777
  0
ARC
  5
15FA7
  8
AM_0
 10
551.55601942444514
 20
489.25238268565607
 30
0.0
 40
1.0
 50
89.999989999999016
 51
270.00000299999761
  0
ARC
  5
15FA8
  8
AM_0
 10
547.8560694244452
 20
499.22235268565618
 30
0.0
 40
1.460011199999999
 50
89.77524999999666
 51
270.22475000000333
  0
LINE
  5
15FA9
  8
AM_0
 10
544.89601942444494
 20
468.25234677609632
 30
0.0
 11
536.89604942444464
 21
468.25234677609632
 31
0.0
  0
LINE
  5
15FAA
  8
AM_0
 10
544.89601942444494
 20
478.25235477609641
 30
0.0
 11
536.89604942444464
 21
478.25235477609641
 31
0.0
  0
LINE
  5
15FAB
  8
AM_0
 10
546.39601942444494
 20
486.02736377609631
 30
0.0
 11
550.84602942444485
 21
469.44736177609627
 31
0.0
  0
ARC
  5
15FAC
  8
AM_0
 10
552.7788894244452
 20
469.96948677609629
 30
0.0
 40
2.0021281000000002
 50
195.1167000000016
 51
269.9184800000001
  0
LINE
  5
15FAD
  8
AM_0
 10
550.35603942444504
 20
471.24735777609629
 30
0.0
 11
544.89601942444494
 21
471.24735777609629
 31
0.0
  0
LINE
  5
15FAE
  8
AM_0
 10
367.39604514781149
 20
570.84240198623752
 30
0.0
 11
384.39604514781172
 21
570.84240198623729
 31
0.0
  0
LINE
  5
15FAF
  8
0
 10
382.39604514781172
 20
578.84240198623695
 30
0.0
 11
369.39604514781172
 21
578.84240198623695
 31
0.0
  0
LINE
  5
15FB0
  8
0
 10
369.39604514781172
 20
578.84240198623695
 30
0.0
 11
369.39604514781172
 21
570.84240198623729
 31
0.0
  0
LINE
  5
15FB1
  8
0
 10
367.39604514781172
 20
569.25240198623715
 30
0.0
 11
367.39604514781172
 21
570.84240198623729
 31
0.0
  0
LINE
  5
15FB2
  8
0
 10
382.39604514781172
 20
570.84240198623729
 30
0.0
 11
382.39604514781172
 21
578.84240198623695
 31
0.0
  0
LINE
  5
15FB3
  8
0
 10
384.39604514781172
 20
569.25240198623715
 30
0.0
 11
384.39604514781172
 21
570.84240198623729
 31
0.0
  0
LINE
  5
15FB4
  8
AM_0
 10
500.39604911152009
 20
570.84240198623752
 30
0.0
 11
517.39604911152026
 21
570.84240198623695
 31
0.0
  0
LINE
  5
15FB5
  8
0
 10
515.39604911152037
 20
578.84240198623695
 30
0.0
 11
502.39604911152031
 21
578.84240198623695
 31
0.0
  0
LINE
  5
15FB6
  8
0
 10
502.39604911152031
 20
578.84240198623695
 30
0.0
 11
502.39604911152031
 21
570.84240198623729
 31
0.0
  0
LINE
  5
15FB7
  8
0
 10
500.3960491115202
 20
569.25240198623715
 30
0.0
 11
500.3960491115202
 21
570.84240198623729
 31
0.0
  0
LINE
  5
15FB8
  8
0
 10
515.39604911152037
 20
570.84240198623695
 30
0.0
 11
515.39604911152037
 21
578.84240198623695
 31
0.0
  0
LINE
  5
15FB9
  8
0
 10
517.39604911152026
 20
569.25240198623715
 30
0.0
 11
517.39604911152026
 21
570.84240198623695
 31
0.0
  0
LINE
  5
15FBA
  8
AM_0
 10
380.39245453159828
 20
454.2537794218083
 30
0.0
 11
380.39245453159828
 21
470.25377945824511
 31
0.0
  0
LINE
  5
15FBB
  8
AM_0
 10
504.39960921015472
 20
454.2537794218083
 30
0.0
 11
504.39960921015472
 21
470.25377945672551
 31
0.0
  0
LINE
  5
15FBC
  8
ﾁｭｳｼﾝｾﾝ1
 10
497.89604654852059
 20
449.25377942180819
 30
0.0
 11
497.89604654852059
 21
475.2537794568052
 31
0.0
  0
LINE
  5
15FBD
  8
ﾁｭｳｼﾝｾﾝ1
 10
386.8960171932323
 20
449.25377942180859
 30
0.0
 11
386.89601719323252
 21
475.25377945816552
 31
0.0
  0
LINE
  5
15FBE
  8
0
 10
410.89604650007942
 20
416.25241562357729
 30
0.0
 11
410.89604650007942
 21
454.25377942180859
 31
0.0
  0
LINE
  5
15FBF
  8
0
 10
434.89604650007931
 20
416.25241562357758
 30
0.0
 11
434.8960464943666
 21
454.25377942180842
 31
0.0
  0
LINE
  5
15FC0
  8
0
 10
410.89604650007919
 20
416.25241565785069
 30
0.0
 11
434.89604650007931
 21
416.25241558930412
 31
0.0
  0
LINE
  5
15FC1
  8
ｶｸﾚｾﾝ2
 10
442.8958471445614
 20
471.25241385394361
 30
0.0
 11
402.8962459524804
 21
471.25241385394338
 31
0.0
  0
LINE
  5
15FC2
  8
ｶｸﾚｾﾝ2
 10
407.89604651534762
 20
456.25241562357729
 30
0.0
 11
437.89604651534762
 21
456.25241562357729
 31
0.0
  0
LINE
  5
15FC3
  8
ｶｸﾚｾﾝ2
 10
402.8962459524804
 20
471.25241385394338
 30
0.0
 11
402.8962459524804
 21
475.25241397315261
 31
0.0
  0
LINE
  5
15FC4
  8
ｶｸﾚｾﾝ2
 10
402.8962459524804
 20
471.25241385394338
 30
0.0
 11
407.89604651534762
 21
456.25241562357729
 31
0.0
  0
LINE
  5
15FC5
  8
ｶｸﾚｾﾝ2
 10
442.8958471445614
 20
471.25241385394361
 30
0.0
 11
442.8958471445614
 21
475.25241397315278
 31
0.0
  0
LINE
  5
15FC6
  8
ｶｸﾚｾﾝ2
 10
442.8958471445614
 20
471.25241385394361
 30
0.0
 11
437.89604651534762
 21
456.25241562357729
 31
0.0
  0
LINE
  5
15FC7
  8
AM_0
 10
418.89604650007942
 20
416.25241562357729
 30
0.0
 11
418.89604650007942
 21
448.25241558028478
 31
0.0
  0
LINE
  5
15FC8
  8
AM_0
 10
426.89604650007942
 20
416.25241562357729
 30
0.0
 11
426.89604650007942
 21
448.25241558028478
 31
0.0
  0
LINE
  5
15FC9
  8
AM_0
 10
426.89604650007942
 20
448.25241558028478
 30
0.0
 11
418.89604650007942
 21
448.25241558028478
 31
0.0
  0
ARC
  5
15FCA
  8
AM_0
 10
422.89604650007942
 20
448.25241558028478
 30
0.0
 40
4.0
 50
0.0
 51
180.0
  0
LINE
  5
15FCC
  8
ｶｸﾚｾﾝ2
 10
455.89567269302933
 20
475.25241395378612
 30
0.0
 11
389.8964203760853
 21
475.25241395378629
 31
0.0
  0
LINE
  5
15FCD
  8
ｶｸﾚｾﾝ2
 10
434.89604649436677
 20
454.25377942180859
 30
0.0
 11
434.89604649406641
 21
456.25241562357729
 31
0.0
  0
LINE
  5
15FCF
  8
ｶｸﾚｾﾝ2
 10
410.89604650007942
 20
454.25377942180859
 30
0.0
 11
410.89604650007942
 21
456.25241562357729
 31
0.0
  0
TEXT
  5
16461
  8
AM_0
 10
81.277448933898313
 20
529.72248484930026
 30
0.0
 40
10.0
  1
VC01-080FMR~VC01-240FMR
1001
ACAD
1000
MTEXTBEGIN
1070
    73
1070
     1
1070
    44
1040
1.0
1070
    74
1070
     0
1000
MTEXTEND
  0
VIEWPORT
  5
89
 67
     1
  8
0
 10
210.0
 20
148.5
 30
0.0
 40
420.0
 41
297.0
 68
     1
 69
     1
1001
ACAD
1000
MVIEW
1002
{
1070
    16
1010
0.0
1020
0.0
1030
0.0
1010
0.0
1020
0.0
1030
1.0
1040
0.0
1040
297.0
1040
221.70154043645701
1040
148.5
1040
50.0
1040
0.0
1040
0.0
1070
     0
1070
   100
1070
     1
1070
     1
1070
     0
1070
     0
1070
     0
1070
     0
1040
0.0
1040
0.0
1040
0.0
1040
10.0
1040
10.0
1040
10.0
1040
10.0
1070
     0
1002
{
1002
}
1002
}
1001
GENIUS_GENOREF_13
1005
1B94
1001
GENIUS_GENSCREG_15
1000
PF
1040
1.0
1000
DF
1040
1.0
1000
MIN
1011
0.0
1021
0.0
1031
0.0
1021
0.0
1031
0.0
1000
MAX
1011
420.0
1021
0.0
1031
0.0
1021
297.0
1031
0.0
1000
FLAGS
1070
     4
  0
ENDSEC
  0
EOF
