  0
SECTION
  2
HEADER
  9
$ACADVER
  1
AC1009
  9
$INSBASE
 10
0.0
 20
0.0
 30
0.0
  9
$EXTMIN
 10
53.760500096670057
 20
143.24484781725431
 30
-0.0015258207003583
  9
$EXTMAX
 10
743.99945254332795
 20
614.87953584967022
 30
0.0000000349246037
  9
$LIMMIN
 10
0.0
 20
0.0
  9
$LIMMAX
 10
853.5
 20
555.00000000000011
  9
$ORTHOMODE
 70
     0
  9
$REGENMODE
 70
     1
  9
$FILLMODE
 70
     1
  9
$QTEXTMODE
 70
     0
  9
$MIRRTEXT
 70
     1
  9
$DRAGMODE
 70
     2
  9
$LTSCALE
 40
3.0
  9
$OSMODE
 70
   551
  9
$ATTMODE
 70
     1
  9
$TEXTSIZE
 40
2.5
  9
$TRACEWID
 40
1.0
  9
$TEXTSTYLE
  7
STANDARD
  9
$CLAYER
  8
AM_0
  9
$CELTYPE
  6
BYLAYER
  9
$CECOLOR
 62
   256
  9
$DIMSCALE
 40
3.0
  9
$DIMASZ
 40
2.5
  9
$DIMEXO
 40
1.0
  9
$DIMDLI
 40
7.0
  9
$DIMRND
 40
0.0
  9
$DIMDLE
 40
0.0
  9
$DIMEXE
 40
1.0
  9
$DIMTP
 40
0.1
  9
$DIMTM
 40
0.1000000001
  9
$DIMTXT
 40
2.5
  9
$DIMCEN
 40
0.0
  9
$DIMTSZ
 40
0.0
  9
$DIMTOL
 70
     0
  9
$DIMLIM
 70
     0
  9
$DIMTIH
 70
     0
  9
$DIMTOH
 70
     0
  9
$DIMSE1
 70
     0
  9
$DIMSE2
 70
     0
  9
$DIMTAD
 70
     3
  9
$DIMZIN
 70
     8
  9
$DIMBLK
  1

  9
$DIMASO
 70
     1
  9
$DIMSHO
 70
     1
  9
$DIMPOST
  1

  9
$DIMAPOST
  1
"
  9
$DIMALT
 70
     0
  9
$DIMALTD
 70
     2
  9
$DIMALTF
 40
0.0393701
  9
$DIMLFAC
 40
1.0
  9
$DIMTOFL
 70
     1
  9
$DIMTVP
 40
0.0
  9
$DIMTIX
 70
     0
  9
$DIMSOXD
 70
     0
  9
$DIMSAH
 70
     0
  9
$DIMBLK1
  1

  9
$DIMBLK2
  1

  9
$DIMSTYLE
  2
AM_JIS
  9
$DIMCLRD
 70
   256
  9
$DIMCLRE
 70
   256
  9
$DIMCLRT
 70
     4
  9
$DIMTFAC
 40
0.71
  9
$DIMGAP
 40
1.0
  9
$LUNITS
 70
     2
  9
$LUPREC
 70
     2
  9
$SKETCHINC
 40
1.0
  9
$FILLETRAD
 40
5.0
  9
$AUNITS
 70
     0
  9
$AUPREC
 70
     3
  9
$MENU
  1
.
  9
$ELEVATION
 40
0.0
  9
$PELEVATION
 40
0.0
  9
$THICKNESS
 40
0.0
  9
$LIMCHECK
 70
     0
  9
$BLIPMODE
 70
     0
  9
$CHAMFERA
 40
7.5
  9
$CHAMFERB
 40
7.5
  9
$SKPOLY
 70
     0
  9
$TDCREATE
 40
2452753.643349607
  9
$TDUPDATE
 40
2458543.44208103
  9
$TDINDWG
 40
0.4190338889
  9
$TDUSRTIMER
 40
0.4190336921
  9
$USRTIMER
 70
     1
  9
$ANGBASE
 50
0.0
  9
$ANGDIR
 70
     0
  9
$PDMODE
 70
     0
  9
$PDSIZE
 40
0.0
  9
$PLINEWID
 40
0.0
  9
$COORDS
 70
     1
  9
$SPLFRAME
 70
     0
  9
$SPLINETYPE
 70
     6
  9
$SPLINESEGS
 70
     8
  9
$ATTDIA
 70
     1
  9
$ATTREQ
 70
     1
  9
$HANDLING
 70
     1
  9
$HANDSEED
  5
167FC
  9
$SURFTAB1
 70
     6
  9
$SURFTAB2
 70
     6
  9
$SURFTYPE
 70
     6
  9
$SURFU
 70
     6
  9
$SURFV
 70
     6
  9
$UCSNAME
  2

  9
$UCSORG
 10
0.0
 20
0.0
 30
0.0
  9
$UCSXDIR
 10
1.0
 20
0.0
 30
0.0
  9
$UCSYDIR
 10
0.0
 20
1.0
 30
0.0
  9
$PUCSNAME
  2

  9
$PUCSORG
 10
0.0
 20
0.0
 30
0.0
  9
$PUCSXDIR
 10
1.0
 20
0.0
 30
0.0
  9
$PUCSYDIR
 10
0.0
 20
1.0
 30
0.0
  9
$USERI1
 70
     0
  9
$USERI2
 70
     0
  9
$USERI3
 70
     0
  9
$USERI4
 70
     0
  9
$USERI5
 70
     0
  9
$USERR1
 40
0.0
  9
$USERR2
 40
0.0
  9
$USERR3
 40
0.0
  9
$USERR4
 40
0.0
  9
$USERR5
 40
0.0
  9
$WORLDVIEW
 70
     1
  9
$SHADEDGE
 70
     3
  9
$SHADEDIF
 70
    70
  9
$TILEMODE
 70
     1
  9
$MAXACTVP
 70
    48
  9
$PLIMCHECK
 70
     0
  9
$PEXTMIN
 10
1.0000000000000000E+020
 20
1.0000000000000000E+020
 30
1.0000000000000000E+020
  9
$PEXTMAX
 10
-1.0000000000000000E+020
 20
-1.0000000000000000E+020
 30
-1.0000000000000000E+020
  9
$PLIMMIN
 10
0.0
 20
0.0
  9
$PLIMMAX
 10
420.0
 20
297.0
  9
$UNITMODE
 70
     0
  9
$VISRETAIN
 70
     1
  9
$PLINEGEN
 70
     0
  9
$PSLTSCALE
 70
     1
  0
ENDSEC
  0
SECTION
  2
TABLES
  0
TABLE
  2
VPORT
 70
     1
  0
VPORT
  2
*ACTIVE
 70
     0
 10
0.0
 20
0.0
 11
1.0
 21
1.0
 12
398.879976319999
 22
379.06219183346229
 13
0.0
 23
0.0
 14
7.5
 24
7.5
 15
30.0
 25
30.0
 16
0.0
 26
0.0
 36
1.0
 17
0.0
 27
0.0
 37
0.0
 40
474.8724547694805
 41
1.7571592210767459
 42
50.0
 43
0.0
 44
0.0
 50
0.0
 51
0.0
 71
    16
 72
   100
 73
     1
 74
     1
 75
     0
 76
     0
 77
     0
 78
     0
  0
ENDTAB
  0
TABLE
  2
LTYPE
 70
    22
  0
LTYPE
  2
CONTINUOUS
 70
     0
  3
Solid line
 72
    65
 73
     0
 40
0.0
  0
LTYPE
  2
PHANTOM2
 70
     0
  3
Phantom (.5x) ___ _ _ ___ _ _ ___ _ _ ___ _ _
 72
    65
 73
     6
 40
31.75
 49
15.875
 49
-3.174999999999998
 49
3.174999999999998
 49
-3.174999999999998
 49
3.174999999999998
 49
-3.174999999999998
  0
LTYPE
  2
CENTER
 70
     0
  3
Center ____ _ ____ _ ____ _ ____ _ ____ _ ____
 72
    65
 73
     4
 40
50.799999999999997
 49
31.75
 49
-6.3499999999999979
 49
6.3499999999999979
 49
-6.3499999999999979
  0
LTYPE
  2
ACANSTGBM
 70
     0
  3
__ . . __ . .
 72
    65
 73
     6
 40
9.0
 49
4.0
 49
-1.0
 49
1.0
 49
-1.0
 49
1.0
 49
-1.0
  0
LTYPE
  2
ACANSTGLM
 70
     0
  3
_ _ _ _ _
 72
    65
 73
     2
 40
3.0
 49
2.0
 49
-1.0
  0
LTYPE
  2
GEN3B
 70
     0
  3
 - - - - -
 72
    65
 73
     2
 40
1.0
 49
0.5
 49
-0.5
  0
LTYPE
  2
GEN7A
 70
     0
  3
__ . __ . __
 72
    65
 73
     4
 40
7.375
 49
4.75
 49
-0.875
 49
0.875
 49
-0.875
  0
LTYPE
  2
AM_ISO02W050
 70
     0
  3
__ __ __ __ __ __ __ __ __ __ __ __ __ __ __
 72
    65
 73
     2
 40
7.5
 49
6.0
 49
-1.5
  0
LTYPE
  2
AM_ISO08W050
 70
     0
  3
____ . ____ . ____ . ____ . ____ . ____ . ____
 72
    65
 73
     4
 40
18.0
 49
12.0
 49
-1.5
 49
3.0
 49
-1.5
  0
LTYPE
  2
AM_ISO09W050
 70
     0
  3
_____ . . _____ . . _____ . . ____ .. ____
 72
    65
 73
     6
 40
22.5
 49
12.0
 49
-1.5
 49
3.0
 49
-1.5
 49
3.0
 49
-1.5
  0
LTYPE
  2
AMCONSTR
 70
     0
  3
_______________________
 72
    65
 73
     2
 40
9999.0
 49
9999.0
 49
0.0
  0
LTYPE
  2
AM_ISO02W050X2
 70
     0
  3
 _ _ _ _ _ _ _ _ _ _ _ _
 72
    65
 73
     2
 40
3.75
 49
3.0
 49
-0.75
  0
LTYPE
  2
AM_ISO08W050X2
 70
     0
  3
__ . __ . __ . __ . __ . __
 72
    65
 73
     4
 40
9.0
 49
6.0
 49
-0.75
 49
1.5
 49
-0.75
  0
LTYPE
  2
AMZIGZAG
 70
     0
  3
/\/-/\/-/\/-/\/-/\/-/\/
 72
    65
 73
     2
 40
11.0001
 49
0.0001
 49
-11.0
  0
LTYPE
  2
ACJISTGB
 70
     0
  3
__ . . __ . .
 72
    65
 73
     6
 40
9.0
 49
4.0
 49
-1.0
 49
1.0
 49
-1.0
 49
1.0
 49
-1.0
  0
LTYPE
  2
ACJISTGL
 70
     0
  3
_ _ _ _ _
 72
    65
 73
     2
 40
3.0
 49
2.0
 49
-1.0
  0
LTYPE
  2
ACISOWELD
 70
     0
  3
_ _ _ _ _
 72
    65
 73
     2
 40
2.0
 49
2.0
 49
-1.0
  0
LTYPE
  2
ACISOTGB
 70
     0
  3
__ . . __ . .
 72
    65
 73
     6
 40
9.0
 49
4.0
 49
-1.0
 49
1.0
 49
-1.0
 49
1.0
 49
-1.0
  0
LTYPE
  2
ACISOTGL
 70
     0
  3
_ _ _ _ _
 72
    65
 73
     2
 40
3.0
 49
2.0
 49
-1.0
  0
LTYPE
  2
GEN7
 70
     0
  3
____ . ____ . ____ . ____ . ____ . ____ . ____
 72
    65
 73
     4
 40
14.25
 49
9.75
 49
-1.5
 49
1.5
 49
-1.5
  0
LTYPE
  2
HIDDEN
 70
     0
  3
Hidden __ __ __ __ __ __ __ __ __ __ __ __ __ _
 72
    65
 73
     2
 40
9.5249999999999968
 49
6.3499999999999979
 49
-3.174999999999998
  0
ENDTAB
  0
TABLE
  2
LAYER
 70
    11
  0
LAYER
  2
0
 70
     0
 62
     7
  6
CONTINUOUS
  0
LAYER
  2
ｽﾝﾎﾟｳｾﾝ
 70
     0
 62
     2
  6
CONTINUOUS
  0
LAYER
  2
DEFPOINTS
 70
     0
 62
     7
  6
CONTINUOUS
  0
LAYER
  2
ｷｲﾛ
 70
     0
 62
     2
  6
CONTINUOUS
  0
LAYER
  2
ｶｸﾚｾﾝ2
 70
     0
 62
     3
  6
GEN3B
  0
LAYER
  2
ﾁｭｳｼﾝｾﾝ1
 70
     0
 62
     1
  6
GEN7A
  0
LAYER
  2
AM_0
 70
     0
 62
     7
  6
CONTINUOUS
  0
LAYER
  2
AM_0N
 70
     0
 62
     7
  6
CONTINUOUS
  0
LAYER
  2
AM_5
 70
     0
 62
     2
  6
CONTINUOUS
  0
LAYER
  2
ﾁｭｳｼﾝｾﾝ
 70
     0
 62
     1
  6
GEN7
  0
LAYER
  2
AM_7
 70
     0
 62
     1
  6
AM_ISO08W050
  0
ENDTAB
  0
TABLE
  2
STYLE
 70
     8
  0
STYLE
  2
STANDARD
 70
     0
 40
0.0
 41
0.8299999999999999
 50
0.0
 71
     0
 42
2.5
  3
txt.shx
  4
bigfont.shx
  0
STYLE
  2
ACANSTS
 70
     0
 40
1.0
 41
1.0
 50
0.0
 71
     0
 42
2.5
  3
romans.shx
  4
bigfont.shx
  0
STYLE
  2
ACANSGDT
 70
     0
 40
0.0
 41
1.0
 50
0.0
 71
     0
 42
2.5
  3
amgdtans.shx
  4

  0
STYLE
  2

 70
     1
 40
0.0
 41
1.0
 50
0.0
 71
     0
 42
2.5
  3
ltypeshp.shx
  4

  0
STYLE
  2
ACJISTS
 70
     0
 40
1.0
 41
1.0
 50
0.0
 71
     0
 42
2.5
  3
isocp.shx
  4
bigfont.shx
  0
STYLE
  2
ACJISGDT
 70
     0
 40
0.0
 41
1.0
 50
0.0
 71
     0
 42
2.5
  3
amgdt.shx
  4

  0
STYLE
  2
ACISOTS
 70
     0
 40
3.0
 41
1.0
 50
0.0
 71
     0
 42
2.5
  3
isocp.shx
  4
extfont.shx
  0
STYLE
  2
ACISOGDT
 70
     0
 40
0.0
 41
1.0
 50
0.0
 71
     0
 42
2.5
  3
amgdt.shx
  4

  0
ENDTAB
  0
TABLE
  2
VIEW
 70
    12
  0
VIEW
  2
GEN1
 70
     0
 40
95.824742268041234
 10
71.5
 20
137.08762886597941
 41
143.0
 11
0.0
 21
0.0
 31
1.0
 12
0.0
 22
0.0
 32
0.0
 42
50.0
 43
0.0
 44
0.0
 50
0.0
 71
     0
  0
VIEW
  2
GEN2
 70
     0
 40
95.824742268041234
 10
214.5
 20
137.08762886597941
 41
143.0
 11
0.0
 21
0.0
 31
1.0
 12
0.0
 22
0.0
 32
0.0
 42
50.0
 43
0.0
 44
0.0
 50
0.0
 71
     0
  0
VIEW
  2
GEN3
 70
     0
 40
95.824742268041234
 10
71.5
 20
47.912371134020603
 41
143.0
 11
0.0
 21
0.0
 31
1.0
 12
0.0
 22
0.0
 32
0.0
 42
50.0
 43
0.0
 44
0.0
 50
0.0
 71
     0
  0
VIEW
  2
GEN4
 70
     0
 40
95.824742268041234
 10
214.5
 20
47.912371134020603
 41
143.0
 11
0.0
 21
0.0
 31
1.0
 12
0.0
 22
0.0
 32
0.0
 42
50.0
 43
0.0
 44
0.0
 50
0.0
 71
     0
  0
VIEW
  2
GEN5
 70
     0
 40
95.824742268041234
 10
143.0
 20
92.500000000000057
 41
143.0
 11
0.0
 21
0.0
 31
1.0
 12
0.0
 22
0.0
 32
0.0
 42
50.0
 43
0.0
 44
0.0
 50
0.0
 71
     0
  0
VIEW
  2
GEN6
 70
     0
 40
191.64756804123709
 10
143.0
 20
92.5
 41
285.99714
 11
0.0
 21
0.0
 31
1.0
 12
0.0
 22
0.0
 32
0.0
 42
50.0
 43
0.0
 44
0.0
 50
0.0
 71
     0
  0
VIEW
  2
AM_VIEW1
 70
     0
 40
277.50000000000011
 10
249.64779005524869
 20
416.25000000000011
 41
499.29558011049721
 11
0.0
 21
0.0
 31
1.0
 12
0.0
 22
0.0
 32
0.0
 42
50.0
 43
0.0
 44
0.0
 50
0.0
 71
    16
  0
VIEW
  2
AM_VIEW2
 70
     0
 40
277.50000000000011
 10
603.85220994475117
 20
416.25000000000011
 41
499.29558011049721
 11
0.0
 21
0.0
 31
1.0
 12
0.0
 22
0.0
 32
0.0
 42
50.0
 43
0.0
 44
0.0
 50
0.0
 71
    16
  0
VIEW
  2
AM_VIEW3
 70
     0
 40
277.50000000000011
 10
249.64779005524869
 20
138.75
 41
499.29558011049721
 11
0.0
 21
0.0
 31
1.0
 12
0.0
 22
0.0
 32
0.0
 42
50.0
 43
0.0
 44
0.0
 50
0.0
 71
    16
  0
VIEW
  2
AM_VIEW4
 70
     0
 40
277.50000000000011
 10
603.85220994475117
 20
138.75
 41
499.29558011049721
 11
0.0
 21
0.0
 31
1.0
 12
0.0
 22
0.0
 32
0.0
 42
50.0
 43
0.0
 44
0.0
 50
0.0
 71
    16
  0
VIEW
  2
AM_VIEW5
 70
     0
 40
277.50000000000011
 10
426.75
 20
277.50000000000011
 41
499.2955801104971
 11
0.0
 21
0.0
 31
1.0
 12
0.0
 22
0.0
 32
0.0
 42
50.0
 43
0.0
 44
0.0
 50
0.0
 71
    16
  0
VIEW
  2
AM_VIEW6
 70
     0
 40
554.99445000000014
 10
426.75
 20
277.5
 41
998.5811743093924
 11
0.0
 21
0.0
 31
1.0
 12
0.0
 22
0.0
 32
0.0
 42
50.0
 43
0.0
 44
0.0
 50
0.0
 71
    16
  0
ENDTAB
  0
TABLE
  2
UCS
 70
     0
  0
ENDTAB
  0
TABLE
  2
APPID
 70
    97
  0
APPID
  2
ACAD
 70
     0
  0
APPID
  2
MCAD_NO_VIS
 70
     0
  0
APPID
  2
ACAD_TEMP_GRAPHIC
 70
     0
  0
APPID
  2
AD_DRAW
 70
     0
  0
APPID
  2
DESIGNERASSEMBLIES
 70
     0
  0
APPID
  2
ASURF_PCURVE_APPNAME
 70
     0
  0
APPID
  2
GENIUS_GE3SECT_13
 70
     0
  0
APPID
  2
GENIUS_GENCFG_13
 70
     0
  0
APPID
  2
GENIUS_GE3CFG0_13
 70
     0
  0
APPID
  2
GENIUS_GENCFG0_13
 70
     0
  0
APPID
  2
GENIUS_GENCFG1_13
 70
     0
  0
APPID
  2
GENIUS_GENCFG2_13
 70
     0
  0
APPID
  2
GENIUS_GENCFG3_13
 70
     0
  0
APPID
  2
GENIUS_GENCFG4_13
 70
     0
  0
APPID
  2
GENIUS_GEVCFG0_13
 70
     0
  0
APPID
  2
GENIUS_GENOENT_13
 70
     0
  0
APPID
  2
GENIUS_GENREC_14
 70
     0
  0
APPID
  2
GENIUS_GENODEF_13
 70
     0
  0
APPID
  2
GENIUS_GENOBJ-N-REC_13
 70
     0
  0
APPID
  2
GENIUS_GENHINW_13
 70
     0
  0
APPID
  2
GENIUS_FIRSTVISTXT_14
 70
     0
  0
APPID
  2
GENIUS_GENOBJ-N-LEADER_13
 70
     0
  0
APPID
  2
GENIUS_GENOREF_13
 70
     0
  0
APPID
  2
GENIUS_GENOLIS_13
 70
     0
  0
APPID
  2
GEV_VCCNULL_SWITCH_OFF
 70
     0
  0
APPID
  2
GENIUS_GENDTOL_13
 70
     0
  0
APPID
  2
GENIUS_GEFCFG0_13
 70
     0
  0
APPID
  2
GENIUS_GENOBJ-N-TIT_13
 70
     0
  0
APPID
  2
GENIUS_GENTITLE_13
 70
     0
  0
APPID
  2
GENIUS_GENZVEED_13
 70
     0
  0
APPID
  2
GENIUS_GENOBJ-N-SDF_13
 70
     0
  0
APPID
  2
GENIUS_GENSCREG_13
 70
     0
  0
APPID
  2
GENIUS_DUMCFG0_13
 70
     0
  0
APPID
  2
GEVID936201362
 70
     0
  0
APPID
  2
GEVDC
 70
     0
  0
APPID
  2
GEVCON
 70
     0
  0
APPID
  2
VCC
 70
     0
  0
APPID
  2
GEVPT
 70
     0
  0
APPID
  2
GEVIT
 70
     0
  0
APPID
  2
GENBH
 70
     0
  0
APPID
  2
GEVMK
 70
     0
  0
APPID
  2
GENIUS_GENBH_13
 70
     0
  0
APPID
  2
GENIUS_GENOBJ-NBEHI-BHF_13
 70
     0
  0
APPID
  2
GENIUS_GENOBJ-NBEHI-BHB_13
 70
     0
  0
APPID
  2
GENIUS_GENOBJ-F-DESC_13
 70
     0
  0
APPID
  2
GENIUS_GEFDESC_14
 70
     0
  0
APPID
  2
GENIUS_GENOBJ-F-PART_13
 70
     0
  0
APPID
  2
GENIUS_GEFSTDP_13
 70
     0
  0
APPID
  2
GENIUS_GEFPARTINS_13
 70
     0
  0
APPID
  2
GENIUS_GENTRA_14
 70
     0
  0
APPID
  2
GENIUS_GENINF13_13
 70
     0
  0
APPID
  2
GENIUS_GENOBJ-N-INFOPT_13
 70
     0
  0
APPID
  2
GENIUS_GENOBJ-N-RSSYM_13
 70
     0
  0
APPID
  2
GENIUS_GENSYMENT_13
 70
     0
  0
APPID
  2
GENIUS_GENSCSYM_13
 70
     0
  0
APPID
  2
GENIUS_GEFINFNAM_13
 70
     0
  0
APPID
  2
GENIUS_GENSCREG_15
 70
     0
  0
APPID
  2
GENIUS_GENOBJ-N-CEN_13
 70
     0
  0
APPID
  2
GENIUS_GENOBJ-N-CRS_13
 70
     0
  0
APPID
  2
GENIUS_GENOBJ-N-CRC_13
 70
     0
  0
APPID
  2
GENIUS_GENCRC_14
 70
     0
  0
APPID
  2
GEVID942827039
 70
     0
  0
APPID
  2
GEVID942827040
 70
     0
  0
APPID
  2
GEVID942827041
 70
     0
  0
APPID
  2
GENIUS_GENOBJ-F-SCPASSM_13
 70
     0
  0
APPID
  2
GENIUS_GENDIMSH_14
 70
     0
  0
APPID
  2
GENIUS_GENFIL_13
 70
     0
  0
APPID
  2
GENIUS_GENOBJ-N-CHA_13
 70
     0
  0
APPID
  2
GENIUS_GENOBJ-N-FIL_13
 70
     0
  0
APPID
  2
GEVID942827042
 70
     0
  0
APPID
  2
GEVID946020473
 70
     0
  0
APPID
  2
GEVID946020474
 70
     0
  0
APPID
  2
GEVID946020475
 70
     0
  0
APPID
  2
GENIUS_GENOBJ-N-HTC_13
 70
     0
  0
APPID
  2
GENIUS_GENHATCH_13
 70
     0
  0
APPID
  2
GEVID948854295
 70
     0
  0
APPID
  2
GEVID939402019
 70
     0
  0
APPID
  2
GEVID952919491
 70
     0
  0
APPID
  2
GEVID952919492
 70
     0
  0
APPID
  2
GENIUS_GEFWELD_13
 70
     0
  0
APPID
  2
GENIUS_GENOBJ-F-WELS_13
 70
     0
  0
APPID
  2
GEVID952919493
 70
     0
  0
APPID
  2
GENIUS_GENOBJ-N-RSBK_13
 70
     0
  0
APPID
  2
GENIUS_GENOBJ-N-LIB_13
 70
     0
  0
APPID
  2
GENIUS_GENSCALE_13
 70
     0
  0
APPID
  2
GEVID986376691
 70
     0
  0
APPID
  2
ACATTRIBSERVICES
 70
     0
  0
APPID
  2
DCO15
 70
     0
  0
APPID
  2
GEVID1088155249
 70
     0
  0
APPID
  2
ACADM_DIM_EDIT
 70
     0
  0
APPID
  2
AMDT_DM_ADJ
 70
     0
  0
APPID
  2
ACAD_MLEADERVER
 70
     0
  0
APPID
  2
ACAD_DSTYLE_DIMBREAK
 70
     0
  0
APPID
  2
ACAD_DSTYLE_DIMJAG
 70
     0
  0
APPID
  2
ACAD_NAV_VCDISPLAY
 70
     0
  0
APPID
  2
ACADANNOPO
 70
     0
  0
APPID
  2
ACAD_EXEMPT_FROM_CAD_STANDARDS
 70
     0
  0
ENDTAB
  0
TABLE
  2
DIMSTYLE
 70
    16
  0
DIMSTYLE
  2
STANDARD
 70
     0
  3

  4

  5

  6

  7

 40
1.0
 41
0.18
 42
0.0625
 43
0.38
 44
0.18
 45
0.0
 46
0.0
 47
0.0
 48
0.0
140
0.18
141
0.09
142
0.0
143
25.399999999999999
144
1.0
145
0.0
146
1.0
147
0.09
 71
     0
 72
     0
 73
     1
 74
     1
 75
     0
 76
     0
 77
     0
 78
     0
170
     0
171
     2
172
     0
173
     0
174
     0
175
     0
176
     0
177
     0
178
     0
  0
DIMSTYLE
  2
AM_JIS
 70
     0
  3

  4
"
  5

  6

  7

 40
1.0
 41
2.5
 42
1.0
 43
7.0
 44
1.0
 45
0.0
 46
0.0
 47
0.1
 48
0.1000000001
140
2.5
141
0.0
142
0.0
143
0.0393701
144
1.0
145
0.0
146
0.71
147
1.0
 71
     0
 72
     0
 73
     0
 74
     0
 75
     0
 76
     0
 77
     3
 78
     8
170
     0
171
     2
172
     1
173
     0
174
     0
175
     0
176
   256
177
   256
178
     4
  0
DIMSTYLE
  2
AM_JIS$3
 70
     0
  3

  4
"
  5

  6

  7

 40
1.0
 41
2.5
 42
1.0
 43
7.0
 44
1.0
 45
0.0
 46
0.0
 47
0.1
 48
0.1000000001
140
2.5
141
0.0
142
0.0
143
0.0393701
144
1.0
145
0.0
146
0.71
147
1.0
 71
     0
 72
     0
 73
     0
 74
     1
 75
     0
 76
     0
 77
     3
 78
     8
170
     0
171
     2
172
     0
173
     0
174
     0
175
     0
176
   256
177
   256
178
     4
  0
DIMSTYLE
  2
AM_JIS$4
 70
     0
  3

  4
"
  5

  6

  7

 40
1.0
 41
2.5
 42
1.0
 43
7.0
 44
1.0
 45
0.0
 46
0.0
 47
0.1
 48
0.1000000001
140
2.5
141
0.0
142
0.0
143
0.0393701
144
1.0
145
0.0
146
0.71
147
1.0
 71
     0
 72
     0
 73
     0
 74
     0
 75
     0
 76
     0
 77
     3
 78
     8
170
     0
171
     2
172
     0
173
     0
174
     0
175
     0
176
   256
177
   256
178
     4
  0
DIMSTYLE
  2
AM_JIS$6
 70
     0
  3

  4
"
  5

  6

  7

 40
1.0
 41
2.5
 42
1.0
 43
7.0
 44
1.0
 45
0.0
 46
0.0
 47
0.1
 48
0.1000000001
140
2.5
141
0.0
142
0.0
143
0.0393701
144
1.0
145
0.0
146
0.71
147
1.0
 71
     0
 72
     0
 73
     0
 74
     0
 75
     0
 76
     0
 77
     0
 78
     8
170
     0
171
     2
172
     1
173
     0
174
     0
175
     0
176
   256
177
   256
178
     4
  0
DIMSTYLE
  2
AM_JIS$7
 70
     0
  3

  4
"
  5

  6

  7

 40
1.0
 41
2.5
 42
1.0
 43
7.0
 44
1.0
 45
0.0
 46
0.0
 47
0.1
 48
0.1000000001
140
2.5
141
0.0
142
0.0
143
0.0393701
144
1.0
145
0.0
146
0.71
147
1.0
 71
     0
 72
     0
 73
     0
 74
     0
 75
     0
 76
     0
 77
     3
 78
     8
170
     0
171
     2
172
     1
173
     0
174
     0
175
     0
176
   256
177
   256
178
     4
  0
DIMSTYLE
  2
AM_JIS$SF
 70
     0
  3

  4
"
  5
OPEN30
  6
OPEN30
  7
OPEN30
 40
1.0
 41
2.5
 42
1.0
 43
10.0
 44
1.0
 45
0.0
 46
0.0
 47
0.1
 48
0.1
140
3.5
141
0.0
142
0.0
143
0.0393701
144
1.0
145
0.0
146
0.71
147
1.5
 71
     0
 72
     0
 73
     0
 74
     0
 75
     1
 76
     1
 77
     3
 78
     8
170
     0
171
     2
172
     1
173
     0
174
     0
175
     0
176
   256
177
   256
178
     4
  0
DIMSTYLE
  2
AM_JIS$SH
 70
     0
  3

  4
"
  5

  6
NONE
  7

 40
1.0
 41
2.5
 42
1.0
 43
10.0
 44
1.0
 45
0.0
 46
0.0
 47
0.1
 48
0.1
140
3.5
141
0.0
142
0.0
143
0.0393701
144
1.0
145
0.0
146
0.71
147
1.5
 71
     0
 72
     0
 73
     0
 74
     0
 75
     1
 76
     0
 77
     3
 78
     8
170
     0
171
     2
172
     1
173
     1
174
     0
175
     0
176
   256
177
   256
178
     4
  0
DIMSTYLE
  2
AM_ISO
 70
     0
  3

  4
"
  5

  6

  7

 40
1.0
 41
2.5
 42
1.0
 43
10.0
 44
1.0
 45
0.0
 46
0.0
 47
0.0
 48
0.000000001
140
3.0
141
0.0
142
0.0
143
0.0393701
144
1.0
145
0.0
146
0.71
147
1.299999999999998
 71
     1
 72
     0
 73
     0
 74
     0
 75
     0
 76
     0
 77
     1
 78
     8
170
     0
171
     2
172
     1
173
     0
174
     0
175
     0
176
   256
177
   256
178
     4
  0
DIMSTYLE
  2
AM_ISO$3
 70
     0
  3

  4
"
  5

  6

  7

 40
1.0
 41
2.5
 42
1.0
 43
10.0
 44
1.0
 45
0.0
 46
0.0
 47
0.0
 48
0.000000001
140
2.5
141
0.0
142
0.0
143
0.0393701
144
1.0
145
0.0
146
0.71
147
1.299999999999998
 71
     1
 72
     0
 73
     0
 74
     1
 75
     0
 76
     0
 77
     1
 78
     8
170
     0
171
     2
172
     0
173
     0
174
     0
175
     0
176
   256
177
   256
178
     4
  0
DIMSTYLE
  2
AM_ISO$4
 70
     0
  3

  4
"
  5

  6

  7

 40
1.0
 41
2.5
 42
1.0
 43
10.0
 44
1.0
 45
0.0
 46
0.0
 47
0.0
 48
0.000000001
140
2.5
141
0.0
142
0.0
143
0.0393701
144
1.0
145
0.0
146
0.71
147
1.299999999999998
 71
     1
 72
     0
 73
     0
 74
     1
 75
     0
 76
     0
 77
     1
 78
     8
170
     0
171
     2
172
     0
173
     0
174
     0
175
     0
176
   256
177
   256
178
     4
  0
DIMSTYLE
  2
AM_ISO$6
 70
     0
  3

  4
"
  5

  6

  7

 40
1.0
 41
2.5
 42
1.0
 43
10.0
 44
1.0
 45
0.0
 46
0.0
 47
0.0
 48
0.000000001
140
2.5
141
0.0
142
0.0
143
0.0393701
144
1.0
145
0.0
146
0.71
147
1.299999999999998
 71
     1
 72
     0
 73
     0
 74
     0
 75
     0
 76
     0
 77
     0
 78
     8
170
     0
171
     2
172
     1
173
     0
174
     0
175
     0
176
   256
177
   256
178
     4
  0
DIMSTYLE
  2
AM_ISO$7
 70
     0
  3

  4
"
  5

  6

  7

 40
1.0
 41
2.5
 42
1.0
 43
10.0
 44
1.0
 45
0.0
 46
0.0
 47
0.0
 48
0.000000001
140
2.5
141
0.0
142
0.0
143
0.0393701
144
1.0
145
0.0
146
0.71
147
1.299999999999998
 71
     1
 72
     0
 73
     0
 74
     0
 75
     0
 76
     0
 77
     1
 78
     8
170
     0
171
     2
172
     1
173
     0
174
     0
175
     0
176
   256
177
   256
178
     4
  0
DIMSTYLE
  2
AM_ISO$SF
 70
     0
  3

  4
"
  5

  6

  7

 40
1.0
 41
2.5
 42
1.0
 43
10.0
 44
1.0
 45
0.0
 46
0.0
 47
0.1
 48
0.1
140
3.5
141
0.0
142
0.0
143
0.0393701
144
1.0
145
0.0
146
0.71
147
1.5
 71
     0
 72
     0
 73
     0
 74
     0
 75
     1
 76
     1
 77
     1
 78
     8
170
     0
171
     2
172
     1
173
     0
174
     0
175
     0
176
   256
177
   256
178
     4
  0
DIMSTYLE
  2
AM_ISO$SH
 70
     0
  3

  4
"
  5

  6
GENAXEH
  7

 40
1.0
 41
2.5
 42
1.0
 43
10.0
 44
1.0
 45
0.0
 46
0.0
 47
0.1
 48
0.1
140
3.5
141
0.0
142
0.0
143
0.0393701
144
2.0
145
0.0
146
0.71
147
1.5
 71
     0
 72
     0
 73
     0
 74
     0
 75
     1
 76
     1
 77
     1
 78
     8
170
     0
171
     2
172
     1
173
     1
174
     0
175
     0
176
   256
177
   256
178
     4
  0
DIMSTYLE
  2
AM_JIS$0
 70
     0
  3

  4
"
  5

  6

  7

 40
1.0
 41
2.5
 42
1.0
 43
7.0
 44
1.0
 45
0.0
 46
0.0
 47
0.1
 48
0.1000000001
140
2.5
141
0.0
142
0.0
143
0.0393701
144
1.0
145
0.0
146
0.71
147
1.0
 71
     0
 72
     0
 73
     0
 74
     0
 75
     0
 76
     0
 77
     3
 78
     8
170
     0
171
     2
172
     1
173
     0
174
     0
175
     0
176
   256
177
   256
178
     4
  0
ENDTAB
  0
ENDSEC
  0
SECTION
  2
BLOCKS
  0
BLOCK
  8
0
  2
$MODEL_SPACE
 70
     0
 10
0.0
 20
0.0
 30
0.0
  3
$MODEL_SPACE
  1

  0
ENDBLK
  5
1A
  8
0
  0
BLOCK
 67
     1
  8
0
  2
$PAPER_SPACE
 70
     0
 10
0.0
 20
0.0
 30
0.0
  3
$PAPER_SPACE
  1

  0
ENDBLK
  5
17
 67
     1
  8
0
  0
BLOCK
  8
0
  2
_OPEN30
 70
     0
 10
0.0
 20
0.0
 30
0.0
  3
_OPEN30
  1

  0
LINE
  5
21C5
  8
0
 62
     0
 10
-1.0
 20
0.26794919
 30
0.0
 11
0.0
 21
0.0
 31
0.0
  0
LINE
  5
21C6
  8
0
 62
     0
 10
0.0
 20
0.0
 30
0.0
 11
-1.0
 21
-0.26794919
 31
0.0
  0
LINE
  5
21C7
  8
0
 62
     0
 10
0.0
 20
0.0
 30
0.0
 11
-1.0
 21
0.0
 31
0.0
  0
ENDBLK
  5
21C9
  8
0
  0
BLOCK
  8
0
  2
GENAXEH
 70
     0
 10
0.0
 20
0.0
 30
0.0
  3
GENAXEH
  1

  0
LINE
  5
21D0
  8
0
 10
-1.0
 20
0.0
 30
0.0
 11
1.0
 21
0.0
 31
0.0
  0
ENDBLK
  5
21D2
  8
0
  0
BLOCK
  8
0
  2
_NONE
 70
     0
 10
0.0
 20
0.0
 30
0.0
  3
_NONE
  1

  0
ENDBLK
  5
8193
  8
0
  0
ENDSEC
  0
SECTION
  2
ENTITIES
  0
POINT
  5
1B94
  8
0
 10
0.0
 20
0.0
 30
0.0
1001
GENIUS_GENODEF_13
1002
{
1000
HIER
1070
     1
1002
}
1002
{
1000
MANEDIT
1070
     0
1002
}
1002
{
1000
NOSEL
1070
     0
1002
}
1002
{
1000
BEHIND
1070
     0
1002
}
1002
{
1000
REACTOR
1002
}
1001
GENIUS_GENOBJ-N-SDF_13
1002
{
1000
OWNER
1000
GEN
1002
}
1001
GENIUS_GENOENT_13
1002
{
1000
MYREF
1005
1B94
1002
}
1002
{
1000
GRP
1005
0
1002
}
1001
GENIUS_GENOLIS_13
1002
{
1000
ENT
1005
89
1002
}
  0
ARC
  5
1549D
  8
0
 10
413.50962176026871
 20
308.93641404048702
 30
0.0
 40
2.5
 50
224.9999999999994
 51
44.999999999999417
  0
LINE
  5
1549E
  8
0
 10
403.1452733276729
 20
322.83629637901538
 30
0.0
 11
415.27738871323498
 21
310.70418099345318
 31
0.0
  0
ARC
  5
1549F
  8
0
 10
413.50962176026871
 20
190.93641404048699
 30
0.0
 40
2.5
 50
315.00000000000063
 51
135.0000000000006
  0
LINE
  5
154A0
  8
0
 10
403.1452733276729
 20
177.03653170195849
 30
0.0
 11
415.27738871323498
 21
189.1686470875207
 31
0.0
  0
LINE
  5
154A1
  8
AM_0
 10
408.032338474055
 20
339.93641324266338
 30
0.0
 11
490.98688854441679
 21
339.93641324266338
 31
0.0
  0
LINE
  5
154A2
  8
AM_0
 10
391.5096305427752
 20
344.93641324266332
 30
0.0
 11
507.50959865428808
 21
344.93641324266332
 31
0.0
  0
LINE
  5
154A3
  8
AM_0
 10
408.032338474055
 20
159.9364148383105
 30
0.0
 11
490.98688640566229
 21
159.93641483831061
 31
0.0
  0
LINE
  5
154A4
  8
AM_0
 10
391.5096305427752
 20
154.9364077707063
 30
0.0
 11
507.50959865428769
 21
154.93640777070601
 31
0.0
  0
LINE
  5
154A5
  8
ﾁｭｳｼﾝｾﾝ1
 10
743.95849916808811
 20
249.93641404048699
 30
0.0
 11
354.02505128490861
 21
249.93641404048691
 31
0.0
  0
CIRCLE
  5
154A8
  8
AM_0
 10
426.50965204298882
 20
249.93641404048699
 30
0.0
 40
37.500001117587061
  0
CIRCLE
  5
154A9
  8
AM_0
 10
426.50965204298882
 20
249.93641404048699
 30
0.0
 40
22.50000067055224
  0
LINE
  5
154CE
  8
AM_0
 10
88.928460479848113
 20
284.1962797357055
 30
0.0
 11
88.928460479848113
 21
274.93626973570571
 31
0.0
  0
ARC
  5
154CF
  8
AM_0
 10
86.942690479848125
 20
277.8095297357055
 30
0.0
 40
0.5143923799999997
 50
181.47632999999809
 51
266.1853900000005
  0
LINE
  5
154D0
  8
AM_0
 10
366.50956776876183
 20
301.93641479238443
 30
0.0
 11
366.50956776876183
 21
197.93640622098499
 31
0.0
  0
LINE
  5
154D1
  8
AM_0
 10
361.50956776876183
 20
301.93641479238443
 30
0.0
 11
361.50956776876183
 21
197.93640622098499
 31
0.0
  0
LINE
  5
154D4
  8
AM_0
 10
220.42144439084311
 20
154.93626973570591
 30
0.0
 11
220.42144439084311
 21
344.93626973570548
 31
0.0
  0
LINE
  5
154D7
  8
AM_0
 10
101.4284413901392
 20
187.29777909940219
 30
0.0
 11
101.4284413901392
 21
312.57479088958831
 31
0.0
  0
LINE
  5
154D8
  8
AM_0
 10
179.4284513441151
 20
185.9362678283573
 30
0.0
 11
179.4284513441151
 21
313.9362716430544
 31
0.0
  0
LINE
  5
154D9
  8
ﾁｭｳｼﾝｾﾝ1
 10
150.42144439085311
 20
143.26346150304539
 30
0.0
 11
150.42144439085311
 21
325.5049232938793
 31
0.0
  0
LINE
  5
154DC
  8
AM_0
 10
97.428448900325066
 20
212.43626861811879
 30
0.0
 11
97.428448900325066
 21
287.4362708532928
 31
0.0
  0
LINE
  5
154DD
  8
ｶｸﾚｾﾝ2
 10
203.42845968876551
 20
214.4362686181187
 30
0.0
 11
203.42845968876551
 21
285.4362708532928
 31
0.0
  0
ARC
  5
154DF
  8
AM_0
 10
150.44536047984801
 20
249.92626973570569
 30
0.0
 40
64.014987999999931
 50
145.91379204811599
 51
214.08620795188389
  0
LINE
  5
154E1
  8
AM_0
 10
179.42144439085311
 20
185.93626973570559
 30
0.0
 11
157.33584387120209
 21
186.32177558364981
 31
0.0
  0
LINE
  5
154E2
  8
AM_0
 10
180.92144439085311
 20
171.43626973570571
 30
0.0
 11
119.9214443908529
 21
171.43626973570571
 31
0.0
  0
LINE
  5
154E3
  8
AM_0
 10
181.92144439085311
 20
177.93626973570559
 30
0.0
 11
118.9214443908529
 21
177.93626973570559
 31
0.0
  0
LINE
  5
154E4
  8
AM_0
 10
120.4214443908531
 20
179.93626973570559
 30
0.0
 11
180.4614243908529
 21
179.93626973570559
 31
0.0
  0
LINE
  5
154E5
  8
AM_0
 10
183.92144439085291
 20
174.93626973570559
 30
0.0
 11
116.9214443908531
 21
174.93626973570559
 31
0.0
  0
LINE
  5
154E6
  8
AM_0
 10
179.42144439085311
 20
152.93626973570591
 30
0.0
 11
121.4214443908529
 21
152.93626973570591
 31
0.0
  0
LINE
  5
154E7
  8
AM_0
 10
168.22143439085309
 20
149.93626973570559
 30
0.0
 11
132.61144439085291
 21
149.93626973570559
 31
0.0
  0
LINE
  5
154EA
  8
AM_0
 10
179.4284513441151
 20
185.9362678283573
 30
0.0
 11
101.4284413901392
 21
187.29777909940219
 31
0.0
  0
LINE
  5
154EB
  8
ﾁｭｳｼﾝｾﾝ1
 10
80.173367171920276
 20
249.93626973570571
 30
0.0
 11
266.6135457082587
 21
249.93626973570559
 31
0.0
  0
LINE
  5
154F3
  8
AM_0
 10
89.428441390139255
 20
205.93626818598469
 30
0.0
 11
89.428441390139255
 21
189.93626818598489
 31
0.0
  0
LINE
  5
154F4
  8
AM_0
 10
99.428441390139355
 20
187.4362681859848
 30
0.0
 11
99.428441390139355
 21
208.4362681859848
 31
0.0
  0
LINE
  5
154F5
  8
AM_0
 10
89.428441390139255
 20
189.93626818598489
 30
0.0
 11
99.428441390139355
 21
189.93626818598489
 31
0.0
  0
LINE
  5
154F6
  8
AM_0
 10
118.9214443908529
 20
159.93626973570559
 30
0.0
 11
118.9214443908529
 21
177.93626973570559
 31
0.0
  0
LINE
  5
154F7
  8
AM_0
 10
120.4214443908531
 20
153.93626973570571
 30
0.0
 11
120.4214443908531
 21
171.43626973570571
 31
0.0
  0
LINE
  5
154F8
  8
AM_0
 10
116.9214443908531
 20
174.93626973570559
 30
0.0
 11
116.9214443908531
 21
159.93626973570559
 31
0.0
  0
ARC
  5
154F9
  8
AM_0
 10
121.4214443908529
 20
153.93626973570571
 30
0.0
 40
0.9999999999999998
 50
180.00000299999761
 51
270.000010000001
  0
LINE
  5
154FA
  8
AM_0
 10
118.9214443908529
 20
159.93626973570559
 30
0.0
 11
116.9214443908531
 21
159.93626973570559
 31
0.0
  0
LINE
  5
154FB
  8
AM_0
 10
120.4214443908531
 20
158.93626973570571
 30
0.0
 11
119.9214443908529
 21
158.93626973570571
 31
0.0
  0
ARC
  5
154FC
  8
AM_0
 10
119.9214443908529
 20
159.93626973570559
 30
0.0
 40
0.9999999999999998
 50
180.00000299999761
 51
270.000010000001
  0
LINE
  5
154FD
  8
AM_0
 10
99.428441390139355
 20
187.4362681859848
 30
0.0
 11
101.4284413901392
 21
187.4362681859848
 31
0.0
  0
LINE
  5
154FE
  8
AM_0
 10
120.1797635720347
 20
186.97033780994099
 30
0.0
 11
120.4214459024811
 21
177.93626973570591
 31
0.0
  0
ARC
  5
154FF
  8
AM_0
 10
119.9214443908529
 20
172.43626973570559
 30
0.0
 40
0.9999999999999998
 50
180.00000299999761
 51
270.000010000001
  0
ARC
  5
15500
  8
AM_0
 10
118.25265439085319
 20
184.01391973570571
 30
0.0
 40
2.0097484999999988
 50
1.7779099999986701
 51
157.0903460000016
  0
ARC
  5
15501
  8
AM_0
 10
115.42156439085301
 20
185.04349973570581
 30
0.0
 40
1.000226099999999
 50
179.26866700000079
 51
358.43981999999937
  0
LINE
  5
15502
  8
AM_0
 10
114.3482447376757
 20
187.07212741765591
 30
0.0
 11
114.4214443908531
 21
185.01625973570569
 31
0.0
  0
LINE
  5
15503
  8
AM_0
 10
116.4808385431156
 20
187.03490282951049
 30
0.0
 11
116.4014543908531
 21
184.79626973570581
 31
0.0
  0
LINE
  5
15504
  8
AM_0
 10
127.4214443908529
 20
152.93626973570591
 30
0.0
 11
132.61144439085291
 21
149.93626973570559
 31
0.0
  0
ARC
  5
15505
  8
AM_0
 10
150.39483439085319
 20
249.9337797357058
 30
0.0
 40
63.989566999999987
 50
261.77281830828667
 51
270.02382639558658
  0
LINE
  5
15506
  8
AM_0
 10
141.23802478393961
 20
186.60276424826691
 30
0.0
 11
157.33584387120251
 21
186.32177558364981
 31
0.0
  0
ARC
  5
15507
  8
AM_0
 10
150.39483439085319
 20
249.9337797357058
 30
0.0
 40
63.989566999999987
 50
270.02382639558658
 51
276.22718035921872
  0
LINE
  5
15508
  8
AM_0
 10
96.029936728184936
 20
216.155305614074
 30
0.0
 11
89.568460479847886
 21
215.93626673570591
 31
0.0
  0
LINE
  5
15509
  8
AM_0
 10
99.428441390139355
 20
205.93626818598469
 30
0.0
 11
89.428441390139255
 21
205.93626818598469
 31
0.0
  0
LINE
  5
1550A
  8
AM_0
 10
97.428450479848294
 20
213.64980585187891
 30
0.0
 11
89.568460479847886
 21
213.93627473570561
 31
0.0
  0
ARC
  5
1550B
  8
AM_0
 10
86.202250479847876
 20
234.9364997357057
 30
0.0
 40
1.0003331999999969
 50
91.936240000000055
 51
269.20963000000029
  0
LINE
  5
1550D
  8
AM_0
 10
88.928460479848113
 20
224.93626673570591
 30
0.0
 11
88.928460479848113
 21
215.67627273570579
 31
0.0
  0
ARC
  5
1550E
  8
AM_0
 10
86.928820479848014
 20
222.05633073570559
 30
0.0
 40
0.5003520299999995
 50
92.33117
 51
180.00710999999771
  0
LINE
  5
1550F
  8
AM_0
 10
86.428460479848013
 20
221.43626673570569
 30
0.0
 11
86.428460479848013
 21
222.0562697357058
 31
0.0
  0
ARC
  5
15510
  8
AM_0
 10
86.942690479848125
 20
220.80951973570589
 30
0.0
 40
0.5143923799999997
 50
181.47632999999809
 51
266.1853900000005
  0
LINE
  5
15511
  8
AM_0
 10
86.428460479848013
 20
221.43626673570569
 30
0.0
 11
86.428460479848013
 21
220.7962677357055
 31
0.0
  0
LINE
  5
15512
  8
AM_0
 10
88.928460479848113
 20
222.6962687357059
 30
0.0
 11
86.908460479847889
 21
222.55626973570571
 31
0.0
  0
LINE
  5
15513
  8
AM_0
 10
88.928450479848152
 20
220.1562677357058
 30
0.0
 11
86.908460479847889
 21
220.29626773570561
 31
0.0
  0
ARC
  5
15514
  8
AM_0
 10
89.614350479847985
 20
214.9367857357058
 30
0.0
 40
1.000534899999999
 50
92.628309999997043
 51
269.66321999999968
  0
LINE
  5
15515
  8
AM_0
 10
88.448669783563119
 20
233.85598032360289
 30
0.0
 11
86.168450479847934
 21
233.93626973570559
 31
0.0
  0
LINE
  5
15516
  8
AM_0
 10
91.983058454736806
 20
223.7749000900566
 30
0.0
 11
89.988460479847845
 21
223.83626873570549
 31
0.0
  0
ARC
  5
15517
  8
AM_0
 10
90.031980479848116
 20
224.9266997357058
 30
0.0
 40
1.090437399999999
 50
92.287669999999167
 51
269.814680000002
  0
ARC
  5
15518
  8
AM_0
 10
87.557630479848044
 20
224.93685473570571
 30
0.0
 40
1.000625599999998
 50
92.817069999998395
 51
269.4744600000011
  0
LINE
  5
15519
  8
AM_0
 10
88.928460479848113
 20
223.87626873570551
 30
0.0
 11
87.508470479848029
 21
223.9362667357058
 31
0.0
  0
LINE
  5
1551A
  8
AM_0
 10
91.014611725637124
 20
226.05657474111979
 30
0.0
 11
87.508450479848079
 21
225.93626673570569
 31
0.0
  0
ARC
  5
1551B
  8
AM_0
 10
85.529190479848012
 20
254.93585973570561
 30
0.0
 40
1.000414699999997
 50
90.041480000001073
 51
267.66698999999528
  0
ARC
  5
1551C
  8
AM_0
 10
85.529360479847924
 20
244.9366897357057
 30
0.0
 40
1.000418199999999
 50
92.342590000002076
 51
269.94893999999681
  0
LINE
  5
1551D
  8
AM_0
 10
86.684851494325684
 20
243.89501463603901
 30
0.0
 11
85.488460479847845
 21
243.93626973570571
 31
0.0
  0
LINE
  5
1551E
  8
AM_0
 10
87.932783923661191
 20
235.9971085577385
 30
0.0
 11
86.168450479847934
 21
235.93626973570579
 31
0.0
  0
LINE
  5
1551F
  8
AM_0
 10
86.525181000013731
 20
253.89690716355059
 30
0.0
 11
85.488460479847845
 21
253.93626973570571
 31
0.0
  0
LINE
  5
15520
  8
AM_0
 10
86.52327196409874
 20
245.96246749480051
 30
0.0
 11
85.488460479847845
 21
245.93626973570551
 31
0.0
  0
LINE
  5
15521
  8
AM_0
 10
88.460171565279197
 20
266.0169635718558
 30
0.0
 11
86.168450479847934
 21
265.93626973570582
 31
0.0
  0
LINE
  5
15522
  8
AM_0
 10
87.942506402542577
 20
263.87509565722507
 30
0.0
 11
86.168450479847934
 21
263.93626973570548
 31
0.0
  0
ARC
  5
15523
  8
AM_0
 10
86.202180479848039
 20
264.93603973570549
 30
0.0
 40
1.0003311999999971
 50
90.785589999996475
 51
268.0685399999997
  0
LINE
  5
15524
  8
AM_0
 10
86.689028022292518
 20
255.9776684854595
 30
0.0
 11
85.488450479847884
 21
255.93626973570571
 31
0.0
  0
LINE
  5
15525
  8
AM_0
 10
92.000945054704744
 20
276.09367328629071
 30
0.0
 11
89.988460479847845
 21
276.01626973570541
 31
0.0
  0
LINE
  5
15526
  8
AM_0
 10
88.928460479848113
 20
275.97627973570548
 30
0.0
 11
87.508470479848029
 21
275.93626973570548
 31
0.0
  0
LINE
  5
15527
  8
AM_0
 10
88.928450479848152
 20
277.15626973570579
 30
0.0
 11
86.908460479847889
 21
277.29626973570572
 31
0.0
  0
LINE
  5
15528
  8
AM_0
 10
91.032026042588086
 20
273.81536282469551
 30
0.0
 11
87.508470479848029
 21
273.93626973570559
 31
0.0
  0
ARC
  5
15529
  8
AM_0
 10
87.557460479848118
 20
274.93568973570552
 30
0.0
 40
1.0006207999999981
 50
90.515970000001047
 51
267.19250000000471
  0
ARC
  5
1552A
  8
AM_0
 10
90.031980479848116
 20
274.9266997357056
 30
0.0
 40
1.090437399999999
 50
92.287669999999167
 51
269.81468999999669
  0
ARC
  5
1552C
  8
AM_0
 10
95.928460479847914
 20
210.95299387865029
 30
0.0
 40
2.999999999999996
 50
0.0
 51
29.631860164016139
1001
GENIUS_GENOBJ-N-FIL_13
1002
{
1000
OWNER
1000
GEN
1002
}
1001
GENIUS_GENODEF_13
1002
{
1000
HIER
1070
     0
1002
}
1002
{
1000
MANEDIT
1070
     0
1002
}
1002
{
1000
NOSEL
1070
     0
1002
}
1002
{
1000
BEHIND
1070
     0
1002
}
1002
{
1000
OTHER
1070
     0
1002
}
1002
{
1000
REACTOR
1002
}
  0
LINE
  5
1552D
  8
AM_0
 10
97.428448900325066
 20
212.43626861811879
 30
0.0
 11
101.4284490195343
 21
212.43626861811879
 31
0.0
  0
LINE
  5
1552E
  8
AM_0
 10
99.428441390139355
 20
208.4362681859848
 30
0.0
 11
101.4284413901392
 21
208.4362681859848
 31
0.0
  0
LINE
  5
1552F
  8
AM_0
 10
98.928460479847885
 20
205.9362681859848
 30
0.0
 11
98.928460479847885
 21
210.95299387865001
 31
0.0
  0
LINE
  5
15540
  8
0
 10
179.4284513441151
 20
185.9362678283569
 30
0.0
 11
201.5261428809506
 21
185.16459943589939
 31
0.0
  0
LINE
  5
15541
  8
AM_0
 10
181.92144439085311
 20
159.93626973570559
 30
0.0
 11
181.92144439085311
 21
177.93626973570559
 31
0.0
  0
LINE
  5
15542
  8
AM_0
 10
183.92144439085291
 20
174.93626973570559
 30
0.0
 11
183.92144439085291
 21
159.93626973570559
 31
0.0
  0
LINE
  5
15543
  8
AM_0
 10
180.42144439085311
 20
153.93626973570571
 30
0.0
 11
180.42144439085311
 21
171.43626973570571
 31
0.0
  0
LINE
  5
15544
  8
AM_0
 10
173.42144439085311
 20
152.9362897357058
 30
0.0
 11
168.22143439085309
 21
149.93626973570559
 31
0.0
  0
ARC
  5
15545
  8
AM_0
 10
179.42144439085311
 20
153.93626973570571
 30
0.0
 40
0.9999999999999998
 50
269.999989999999
 51
0.0
  0
LINE
  5
15546
  8
AM_0
 10
181.92144439085311
 20
159.93626973570559
 30
0.0
 11
183.92144439085291
 21
159.93626973570559
 31
0.0
  0
LINE
  5
15547
  8
AM_0
 10
180.92144439085311
 20
158.93626973570571
 30
0.0
 11
180.42144439085311
 21
158.93626973570571
 31
0.0
  0
ARC
  5
15548
  8
AM_0
 10
180.92144439085311
 20
159.93626973570559
 30
0.0
 40
0.9999999999999998
 50
269.999989999999
 51
0.0
  0
LINE
  5
15549
  8
AM_0
 10
180.62578575663809
 20
185.95729188164839
 30
0.0
 11
180.42142235597629
 21
177.93626973570591
 31
0.0
  0
ARC
  5
1554A
  8
AM_0
 10
180.92144439085311
 20
172.43626973570559
 30
0.0
 40
0.9999999999999998
 50
269.999989999999
 51
0.0
  0
ARC
  5
1554B
  8
AM_0
 10
185.42129439085301
 20
185.0441797357058
 30
0.0
 40
1.000231299999998
 50
181.598942999999
 51
0.6925799999989853
  0
ARC
  5
1554C
  8
AM_0
 10
182.57980439085301
 20
184.01828973570591
 30
0.0
 40
1.9992131999999989
 50
113.34186017824941
 51
178.3379780000044
  0
ARC
  5
1554D
  8
AM_0
 10
182.57980439085301
 20
184.01828973570591
 30
0.0
 40
1.9992131999999989
 50
22.901329999994228
 51
62.658139821750957
  0
LINE
  5
1554E
  8
AM_0
 10
184.38713024053391
 20
185.76310694563139
 30
0.0
 11
184.42141439085319
 21
184.79626973570581
 31
0.0
  0
LINE
  5
1554F
  8
AM_0
 10
186.44440186057719
 20
185.69126543760609
 30
0.0
 11
186.42141439085299
 21
185.01626973570581
 31
0.0
  0
LINE
  5
15550
  8
AM_0
 10
204.42144439084311
 20
182.16642695484211
 30
0.0
 11
204.42144439084311
 21
157.4263795971878
 31
0.0
  0
LINE
  5
15553
  8
0
 10
206.35164539743801
 20
155.42759794314969
 30
0.0
 11
220.42144439084311
 21
154.93626973570591
 31
0.0
  0
ARC
  5
15554
  8
0
 10
206.42144439084319
 20
157.4263795971878
 30
0.0
 40
1.9999999999999989
 50
180.0
 51
267.99999999999642
1001
GENIUS_GENOBJ-N-FIL_13
1002
{
1000
OWNER
1000
GEN
1002
}
1001
GENIUS_GENODEF_13
1002
{
1000
HIER
1070
     0
1002
}
1002
{
1000
MANEDIT
1070
     0
1002
}
1002
{
1000
NOSEL
1070
     0
1002
}
1002
{
1000
BEHIND
1070
     0
1002
}
1002
{
1000
OTHER
1070
     0
1002
}
1002
{
1000
REACTOR
1002
}
  0
ARC
  5
1555A
  8
0
 10
201.42144439084311
 20
182.16642695484211
 30
0.0
 40
3.0
 50
0.0
 51
88.000000000002856
1001
GENIUS_GENOBJ-N-FIL_13
1002
{
1000
OWNER
1000
GEN
1002
}
1001
GENIUS_GENODEF_13
1002
{
1000
HIER
1070
     0
1002
}
1002
{
1000
MANEDIT
1070
     0
1002
}
1002
{
1000
NOSEL
1070
     0
1002
}
1002
{
1000
BEHIND
1070
     0
1002
}
1002
{
1000
OTHER
1070
     0
1002
}
1002
{
1000
REACTOR
1002
}
  0
ARC
  5
1556C
  8
0
 10
376.5095677687616
 20
200.93641951244459
 30
0.0
 40
10.0
 50
180.0
 51
270.0
1001
GENIUS_GENODEF_13
1002
{
1000
HIER
1070
     0
1002
}
1002
{
1000
MANEDIT
1070
     0
1002
}
1002
{
1000
NOSEL
1070
     0
1002
}
1002
{
1000
BEHIND
1070
     0
1002
}
1002
{
1000
OTHER
1070
     0
1002
}
1002
{
1000
REACTOR
1002
}
1001
GENIUS_GENOBJ-N-FIL_13
1002
{
1000
OWNER
1000
GEN
1002
}
  0
LINE
  5
1556D
  8
0
 10
399.6097400545425
 20
180.57206624069349
 30
0.0
 11
411.74185480730239
 21
192.70418099345341
 31
0.0
  0
LINE
  5
1556F
  8
0
 10
379.25151965734022
 20
162.17331569587759
 30
0.0
 11
363.25148653985588
 21
191.1733118233401
 31
0.0
  0
LINE
  5
15570
  8
0
 10
375.64765197831252
 20
179.0556105317097
 30
0.0
 11
367.62937270892849
 21
193.58870261794129
 31
0.0
  0
ARC
  5
15574
  8
0
 10
380.02553814738508
 20
181.47100132631061
 30
0.0
 40
5.0
 50
208.8866351646578
 51
312.49568953477728
1001
GENIUS_GENOBJ-N-FIL_13
1002
{
1000
OWNER
1000
GEN
1002
}
1001
GENIUS_GENODEF_13
1002
{
1000
HIER
1070
     0
1002
}
1002
{
1000
MANEDIT
1070
     0
1002
}
1002
{
1000
NOSEL
1070
     0
1002
}
1002
{
1000
BEHIND
1070
     0
1002
}
1002
{
1000
OTHER
1070
     0
1002
}
1002
{
1000
REACTOR
1002
}
  0
LINE
  5
15575
  8
ﾁｭｳｼﾝｾﾝ
 10
404.9368704215243
 20
168.93641404048711
 30
0.0
 11
378.37287042152468
 21
168.93641404048711
 31
0.0
1001
GENIUS_GENODEF_13
1002
{
1000
HIER
1070
     0
1002
}
1002
{
1000
MANEDIT
1070
     0
1002
}
1002
{
1000
NOSEL
1070
     0
1002
}
1002
{
1000
BEHIND
1070
     0
1002
}
1002
{
1000
OTHER
1070
     0
1002
}
1002
{
1000
REACTOR
1002
}
1001
GENIUS_GENOBJ-N-CEN_13
1002
{
1000
OWNER
1000
GEN
1002
}
  0
ARC
  5
15576
  8
0
 10
391.5096371433674
 20
168.93641193004709
 30
0.0
 40
14.00000415934085
 50
208.8866351646578
 51
270.0
  0
CIRCLE
  5
15577
  8
0
 10
391.50963410559478
 20
168.93641324266369
 30
0.0
 40
5.4999999999999973
  0
LINE
  5
15578
  8
ﾁｭｳｼﾝｾﾝ
 10
391.50968393147582
 20
182.43641404048711
 30
0.0
 11
391.50968393147582
 21
155.799600530536
 31
0.0
1001
GENIUS_GENODEF_13
1002
{
1000
HIER
1070
     0
1002
}
1002
{
1000
MANEDIT
1070
     0
1002
}
1002
{
1000
NOSEL
1070
     0
1002
}
1002
{
1000
BEHIND
1070
     0
1002
}
1002
{
1000
OTHER
1070
     0
1002
}
1002
{
1000
REACTOR
1002
}
1001
GENIUS_GENOBJ-N-CEN_13
1002
{
1000
OWNER
1000
GEN
1002
}
  0
ARC
  5
15579
  8
0
  6
CONTINUOUS
 62
     7
 10
391.50962871030009
 20
168.93642259614299
 30
0.0
 40
12.0
 50
346.39101246739449
 51
132.4956895347776
  0
ARC
  5
1557A
  8
0
 10
408.032338474055
 20
164.9364148383105
 30
0.0
 40
5.0
 50
166.39101246739449
 51
270.0
1001
GENIUS_GENODEF_13
1002
{
1000
HIER
1070
     0
1002
}
1002
{
1000
MANEDIT
1070
     0
1002
}
1002
{
1000
NOSEL
1070
     0
1002
}
1002
{
1000
BEHIND
1070
     0
1002
}
1002
{
1000
OTHER
1070
     0
1002
}
1002
{
1000
REACTOR
1002
}
1001
GENIUS_GENOBJ-N-FIL_13
1002
{
1000
OWNER
1000
GEN
1002
}
  0
ARC
  5
1557B
  8
0
  6
CONTINUOUS
 62
     7
 10
397.48841971098273
 20
182.69338658425309
 30
0.0
 40
3.0
 50
246.51018360552641
 51
315.00000000000063
1001
GENIUS_GENODEF_13
1002
{
1000
HIER
1070
     0
1002
}
1002
{
1000
MANEDIT
1070
     0
1002
}
1002
{
1000
NOSEL
1070
     0
1002
}
1002
{
1000
BEHIND
1070
     0
1002
}
1002
{
1000
OTHER
1070
     0
1002
}
1002
{
1000
REACTOR
1002
}
1001
GENIUS_GENOBJ-N-FIL_13
1002
{
1000
OWNER
1000
GEN
1002
}
  0
ARC
  5
1557C
  8
0
  6
CONTINUOUS
 62
     7
 10
405.26659367123261
 20
174.91521135839881
 30
0.0
 40
3.0
 50
135.0000000000006
 51
203.48980707174991
1001
GENIUS_GENODEF_13
1002
{
1000
HIER
1070
     0
1002
}
1002
{
1000
MANEDIT
1070
     0
1002
}
1002
{
1000
NOSEL
1070
     0
1002
}
1002
{
1000
BEHIND
1070
     0
1002
}
1002
{
1000
OTHER
1070
     0
1002
}
1002
{
1000
REACTOR
1002
}
1001
GENIUS_GENOBJ-N-FIL_13
1002
{
1000
OWNER
1000
GEN
1002
}
  0
LINE
  5
1557F
  8
0
 10
409.97408785433578
 20
190.9364195124445
 30
0.0
 11
376.50956776876183
 21
190.9364195124445
 31
0.0
  0
ARC
  5
15580
  8
AM_0
 10
375.50956812638992
 20
197.93640622098511
 30
0.0
 40
14.00000035762786
 50
180.0
 51
208.8866351646578
  0
CIRCLE
  5
15581
  8
0
 10
375.50960305471222
 20
197.93641951244459
 30
0.0
 40
4.0
  0
CIRCLE
  5
15582
  8
ｷｲﾛ
 10
375.50956812638992
 20
197.9364187605469
 30
0.0
 40
5.0
  0
ARC
  5
15583
  8
AM_0
 10
375.50956812638992
 20
197.93640622098511
 30
0.0
 40
9.0000003576278651
 50
180.0
 51
208.8866351646578
  0
ARC
  5
15584
  8
0
 10
369.5095677687616
 20
244.43641404048699
 30
0.0
 40
3.0
 50
90.0
 51
180.0
1001
GENIUS_GENOBJ-N-FIL_13
1002
{
1000
OWNER
1000
GEN
1002
}
1001
GENIUS_GENODEF_13
1002
{
1000
HIER
1070
     0
1002
}
1002
{
1000
MANEDIT
1070
     0
1002
}
1002
{
1000
NOSEL
1070
     0
1002
}
1002
{
1000
BEHIND
1070
     0
1002
}
1002
{
1000
OTHER
1070
     0
1002
}
1002
{
1000
REACTOR
1002
}
  0
ARC
  5
15585
  8
0
 10
371.0095677687616
 20
249.93641404048699
 30
0.0
 40
2.5
 50
270.0
 51
90.0
  0
LINE
  5
15586
  8
0
 10
371.00956776876183
 20
252.43641404048699
 30
0.0
 11
369.50956776876183
 21
252.43641404048699
 31
0.0
  0
LINE
  5
15587
  8
0
 10
371.00956776876183
 20
247.43641404048691
 30
0.0
 11
369.50956776876183
 21
247.43641404048691
 31
0.0
  0
ARC
  5
15588
  8
0
 10
369.5095677687616
 20
255.43641404048699
 30
0.0
 40
3.0
 50
180.0
 51
270.0
1001
GENIUS_GENOBJ-N-FIL_13
1002
{
1000
OWNER
1000
GEN
1002
}
1001
GENIUS_GENODEF_13
1002
{
1000
HIER
1070
     0
1002
}
1002
{
1000
MANEDIT
1070
     0
1002
}
1002
{
1000
NOSEL
1070
     0
1002
}
1002
{
1000
BEHIND
1070
     0
1002
}
1002
{
1000
OTHER
1070
     0
1002
}
1002
{
1000
REACTOR
1002
}
  0
LINE
  5
1558A
  8
AM_0
 10
179.4284513441151
 20
313.9362716430544
 30
0.0
 11
101.4284413901392
 21
312.57479088958831
 31
0.0
  0
LINE
  5
1558E
  8
AM_0
 10
96.045516870289021
 20
283.69841139670888
 30
0.0
 11
89.568460479847886
 21
283.93626973570582
 31
0.0
  0
LINE
  5
15590
  8
AM_0
 10
89.428441390139255
 20
293.93627128542659
 30
0.0
 11
99.428441390139355
 21
293.93627128542659
 31
0.0
  0
LINE
  5
15591
  8
AM_0
 10
99.428441390139355
 20
309.93627128542659
 30
0.0
 11
89.428441390139255
 21
309.93627128542659
 31
0.0
  0
LINE
  5
15592
  8
AM_0
 10
97.428450479847925
 20
286.20483373833417
 30
0.0
 11
89.568450479847897
 21
285.93626973570559
 31
0.0
  0
LINE
  5
15593
  8
AM_0
 10
89.428441390139255
 20
309.93627128542659
 30
0.0
 11
89.428441390139255
 21
293.93627128542659
 31
0.0
  0
ARC
  5
15594
  8
AM_0
 10
86.928820479848014
 20
279.05633973570559
 30
0.0
 40
0.5003520299999995
 50
92.33117
 51
180.00710999999771
  0
LINE
  5
15595
  8
AM_0
 10
86.428460479848013
 20
278.43626973570571
 30
0.0
 11
86.428460479848013
 21
279.0562597357054
 31
0.0
  0
LINE
  5
15596
  8
AM_0
 10
86.428460479848013
 20
278.43626973570571
 30
0.0
 11
86.428460479848013
 21
277.79626973570561
 31
0.0
  0
LINE
  5
15597
  8
AM_0
 10
88.928450479848152
 20
279.71626973570551
 30
0.0
 11
86.908460479847889
 21
279.55625973570568
 31
0.0
  0
ARC
  5
15598
  8
AM_0
 10
89.614180479848045
 20
284.93574973570549
 30
0.0
 40
1.000530599999998
 50
90.327200000001014
 51
267.38127000000111
  0
LINE
  5
1559A
  8
AM_0
 10
99.428441390139355
 20
291.43627128542653
 30
0.0
 11
99.428441390139355
 21
312.43627128542653
 31
0.0
  0
ARC
  5
1559B
  8
AM_0
 10
95.928460479847914
 20
288.899545592761
 30
0.0
 40
2.999999999999996
 50
330.80663173194762
 51
0.0
1001
GENIUS_GENOBJ-N-FIL_13
1002
{
1000
OWNER
1000
GEN
1002
}
1001
GENIUS_GENODEF_13
1002
{
1000
HIER
1070
     0
1002
}
1002
{
1000
MANEDIT
1070
     0
1002
}
1002
{
1000
NOSEL
1070
     0
1002
}
1002
{
1000
BEHIND
1070
     0
1002
}
1002
{
1000
OTHER
1070
     0
1002
}
1002
{
1000
REACTOR
1002
}
  0
LINE
  5
1559C
  8
AM_0
 10
97.428448900325066
 20
287.4362708532928
 30
0.0
 11
101.4284490195343
 21
287.4362708532928
 31
0.0
  0
LINE
  5
1559D
  8
AM_0
 10
99.428441390139355
 20
291.43627128542653
 30
0.0
 11
101.4284413901392
 21
291.43627128542653
 31
0.0
  0
LINE
  5
1559E
  8
AM_0
 10
98.928460479847885
 20
288.899545592761
 30
0.0
 11
98.928460479847885
 21
293.93627128542653
 31
0.0
  0
LINE
  5
1559F
  8
AM_0
 10
99.428441390139355
 20
312.43627128542653
 30
0.0
 11
101.4284413901392
 21
312.43627128542653
 31
0.0
  0
ARC
  5
155A0
  8
AM_0
 10
125.4286904798482
 20
312.82005773570529
 30
0.0
 40
1.000393499999997
 50
10.993529635258341
 51
179.0714379999965
  0
ARC
  5
155A1
  8
AM_0
 10
150.41841047984801
 20
249.92991973570531
 30
0.0
 40
64.00635100000008
 50
89.991012616410785
 51
98.280567367617166
  0
ARC
  5
155A2
  8
AM_0
 10
135.42885047984811
 20
314.1755797357057
 30
0.0
 40
1.000413999999999
 50
2.3310499999979508
 51
179.96048300000029
  0
LINE
  5
155A3
  8
AM_0
 10
134.39090638822751
 20
313.15012714502018
 30
0.0
 11
134.42845047984801
 21
314.21627573570549
 31
0.0
  0
LINE
  5
155A4
  8
AM_0
 10
136.4639451298049
 20
313.1863126005054
 30
0.0
 11
136.428420479848
 21
314.2162717357055
 31
0.0
  0
ARC
  5
155A5
  8
AM_0
 10
150.41841047984801
 20
249.92991973570531
 30
0.0
 40
64.00635100000008
 50
83.719456375074628
 51
89.991012616410785
  0
LINE
  5
155A6
  8
AM_0
 10
144.3859562433218
 20
313.66393416820603
 30
0.0
 11
144.4284504798481
 21
314.89626773570558
 31
0.0
  0
LINE
  5
155A7
  8
AM_0
 10
146.4554953509533
 20
313.82746357072028
 30
0.0
 11
146.42845047984801
 21
314.89627173570562
 31
0.0
  0
ARC
  5
155A8
  8
AM_0
 10
145.4290004798481
 20
314.8485267357056
 30
0.0
 40
1.0005847999999991
 50
2.7350400000044188
 51
179.5564910000007
  0
LINE
  5
155A9
  8
AM_0
 10
156.4707309205219
 20
313.67013636551218
 30
0.0
 11
156.4284504798479
 21
314.89626773570558
 31
0.0
  0
LINE
  5
155AA
  8
AM_0
 10
154.3880481307956
 20
313.832340557409
 30
0.0
 11
154.4284504798481
 21
314.89626773570558
 31
0.0
  0
ARC
  5
155AB
  8
AM_0
 10
155.42787047984811
 20
314.84784773570573
 30
0.0
 40
1.000603799999999
 50
0.4821899999981744
 51
177.2262829999969
  0
LINE
  5
155B0
  8
AM_0
 10
204.42144439084311
 20
317.70611251656931
 30
0.0
 11
204.42144439084311
 21
342.44615987422338
 31
0.0
  0
LINE
  5
155B1
  8
0
 10
179.4284513441151
 20
313.9362716430544
 30
0.0
 11
201.5261428809506
 21
314.70794003551208
 31
0.0
  0
ARC
  5
155B2
  8
AM_0
 10
165.4280204798481
 20
314.17490473570558
 30
0.0
 40
1.0004281999999971
 50
0.078219999997982
 51
177.63024800000301
  0
LINE
  5
155B3
  8
AM_0
 10
166.4462906134724
 20
313.70966260168211
 30
0.0
 11
166.4284504798479
 21
314.2162717357055
 31
0.0
  0
LINE
  5
155B4
  8
AM_0
 10
164.40975776726691
 20
313.67411436653703
 30
0.0
 11
164.42845047984801
 21
314.2162717357055
 31
0.0
  0
ARC
  5
155C2
  8
0
 10
201.42144439084311
 20
317.70611251656931
 30
0.0
 40
3.0
 50
271.9999999999971
 51
0.0
1001
GENIUS_GENODEF_13
1002
{
1000
HIER
1070
     0
1002
}
1002
{
1000
MANEDIT
1070
     0
1002
}
1002
{
1000
NOSEL
1070
     0
1002
}
1002
{
1000
BEHIND
1070
     0
1002
}
1002
{
1000
OTHER
1070
     0
1002
}
1002
{
1000
REACTOR
1002
}
1001
GENIUS_GENOBJ-N-FIL_13
1002
{
1000
OWNER
1000
GEN
1002
}
  0
ARC
  5
155C9
  8
0
 10
206.42144439084319
 20
342.44615987422338
 30
0.0
 40
1.9999999999999989
 50
92.000000000003624
 51
180.0
1001
GENIUS_GENOBJ-N-FIL_13
1002
{
1000
OWNER
1000
GEN
1002
}
1001
GENIUS_GENODEF_13
1002
{
1000
HIER
1070
     0
1002
}
1002
{
1000
MANEDIT
1070
     0
1002
}
1002
{
1000
NOSEL
1070
     0
1002
}
1002
{
1000
BEHIND
1070
     0
1002
}
1002
{
1000
OTHER
1070
     0
1002
}
1002
{
1000
REACTOR
1002
}
  0
LINE
  5
155CC
  8
0
 10
206.35164539743801
 20
344.44494152826172
 30
0.0
 11
220.42144439084311
 21
344.93626973570548
 31
0.0
  0
ARC
  5
155CF
  8
0
 10
380.02553814738508
 20
318.40182675466338
 30
0.0
 40
5.0
 50
47.50431046522236
 51
151.11336483534211
1001
GENIUS_GENOBJ-N-FIL_13
1002
{
1000
OWNER
1000
GEN
1002
}
1001
GENIUS_GENODEF_13
1002
{
1000
HIER
1070
     0
1002
}
1002
{
1000
MANEDIT
1070
     0
1002
}
1002
{
1000
NOSEL
1070
     0
1002
}
1002
{
1000
BEHIND
1070
     0
1002
}
1002
{
1000
OTHER
1070
     0
1002
}
1002
{
1000
REACTOR
1002
}
  0
LINE
  5
155D0
  8
ﾁｭｳｼﾝｾﾝ
 10
391.5096864629532
 20
317.43640988114601
 30
0.0
 11
391.50968746192302
 21
344.0732233910968
 31
0.0
1001
GENIUS_GENODEF_13
1002
{
1000
HIER
1070
     0
1002
}
1002
{
1000
MANEDIT
1070
     0
1002
}
1002
{
1000
NOSEL
1070
     0
1002
}
1002
{
1000
BEHIND
1070
     0
1002
}
1002
{
1000
OTHER
1070
     0
1002
}
1002
{
1000
REACTOR
1002
}
1001
GENIUS_GENOBJ-N-CEN_13
1002
{
1000
OWNER
1000
GEN
1002
}
  0
LINE
  5
155D1
  8
0
 10
379.25151965734022
 20
337.69950531749191
 30
0.0
 11
363.25148653985588
 21
308.69950919002952
 31
0.0
  0
ARC
  5
155D2
  8
0
  6
CONTINUOUS
 62
     7
 10
391.50962871030009
 20
330.9364054848308
 30
0.0
 40
12.0
 50
227.5043104652224
 51
13.6089875326055
  0
LINE
  5
155D3
  8
0
 10
409.97408785433578
 20
308.93641404048702
 30
0.0
 11
376.50956776876183
 21
308.93641404048668
 31
0.0
  0
CIRCLE
  5
155D4
  8
0
 10
375.50960305471222
 20
301.93641404048702
 30
0.0
 40
4.0
  0
CIRCLE
  5
155D5
  8
ｷｲﾛ
 10
375.50956812638992
 20
301.93641479238448
 30
0.0
 40
5.0
  0
ARC
  5
155D6
  8
0
 10
376.5095677687616
 20
298.9364140404868
 30
0.0
 40
10.0
 50
90.0
 51
180.0
1001
GENIUS_GENODEF_13
1002
{
1000
HIER
1070
     0
1002
}
1002
{
1000
MANEDIT
1070
     0
1002
}
1002
{
1000
NOSEL
1070
     0
1002
}
1002
{
1000
BEHIND
1070
     0
1002
}
1002
{
1000
OTHER
1070
     0
1002
}
1002
{
1000
REACTOR
1002
}
1001
GENIUS_GENOBJ-N-FIL_13
1002
{
1000
OWNER
1000
GEN
1002
}
  0
ARC
  5
155D7
  8
AM_0
 10
375.50956812638992
 20
301.93641479238448
 30
0.0
 40
14.00000035762786
 50
151.11336483534211
 51
180.0
  0
LINE
  5
155D8
  8
0
 10
375.64765197831252
 20
320.81721754926423
 30
0.0
 11
367.62937270892849
 21
306.28411839542838
 31
0.0
  0
ARC
  5
155D9
  8
AM_0
 10
375.50956812638992
 20
301.93641479238448
 30
0.0
 40
9.0000003576278651
 50
151.11336483534211
 51
180.0
  0
ARC
  5
155DA
  8
0
  6
CONTINUOUS
 62
     7
 10
397.48841971098273
 20
317.17944149672093
 30
0.0
 40
3.0
 50
44.999999999999417
 51
113.48981639447349
1001
GENIUS_GENODEF_13
1002
{
1000
HIER
1070
     0
1002
}
1002
{
1000
MANEDIT
1070
     0
1002
}
1002
{
1000
NOSEL
1070
     0
1002
}
1002
{
1000
BEHIND
1070
     0
1002
}
1002
{
1000
OTHER
1070
     0
1002
}
1002
{
1000
REACTOR
1002
}
1001
GENIUS_GENOBJ-N-FIL_13
1002
{
1000
OWNER
1000
GEN
1002
}
  0
LINE
  5
155DB
  8
0
 10
399.6097400545425
 20
319.30076184028042
 30
0.0
 11
411.74185480730239
 21
307.16864708752053
 31
0.0
  0
ARC
  5
155DC
  8
0
 10
391.5096371433674
 20
330.93640908332281
 30
0.0
 40
14.00000415934085
 50
90.0
 51
151.11336483534211
  0
LINE
  5
155DD
  8
ﾁｭｳｼﾝｾﾝ
 10
404.93687345929681
 20
330.93640937758113
 30
0.0
 11
378.37287345929713
 21
330.93641037382059
 31
0.0
1001
GENIUS_GENODEF_13
1002
{
1000
HIER
1070
     0
1002
}
1002
{
1000
MANEDIT
1070
     0
1002
}
1002
{
1000
NOSEL
1070
     0
1002
}
1002
{
1000
BEHIND
1070
     0
1002
}
1002
{
1000
OTHER
1070
     0
1002
}
1002
{
1000
REACTOR
1002
}
1001
GENIUS_GENOBJ-N-CEN_13
1002
{
1000
OWNER
1000
GEN
1002
}
  0
CIRCLE
  5
155DE
  8
0
 10
391.50963106782228
 20
330.93640473293328
 30
0.0
 40
5.4999999999999973
  0
LINE
  5
155DF
  8
AM_7
  6
AM_ISO08W050X2
 10
391.50968696924821
 20
330.93640988114578
 30
0.0
 11
391.50968696924821
 21
330.93640988114578
 31
0.0
1001
GENIUS_GENODEF_13
1002
{
1000
HIER
1070
     0
1002
}
1002
{
1000
MANEDIT
1070
     0
1002
}
1002
{
1000
NOSEL
1070
     0
1002
}
1002
{
1000
BEHIND
1070
     0
1002
}
1002
{
1000
OTHER
1070
     0
1002
}
1002
{
1000
REACTOR
1002
}
1001
GENIUS_GENOBJ-N-CEN_13
1002
{
1000
OWNER
1000
GEN
1002
}
  0
ARC
  5
155E0
  8
0
  6
CONTINUOUS
 62
     7
 10
405.26659367123261
 20
324.95761672257498
 30
0.0
 40
3.0
 50
156.51019292825009
 51
224.9999999999994
1001
GENIUS_GENODEF_13
1002
{
1000
HIER
1070
     0
1002
}
1002
{
1000
MANEDIT
1070
     0
1002
}
1002
{
1000
NOSEL
1070
     0
1002
}
1002
{
1000
BEHIND
1070
     0
1002
}
1002
{
1000
OTHER
1070
     0
1002
}
1002
{
1000
REACTOR
1002
}
1001
GENIUS_GENOBJ-N-FIL_13
1002
{
1000
OWNER
1000
GEN
1002
}
  0
ARC
  5
155E1
  8
0
 10
408.032338474055
 20
334.93641324266349
 30
0.0
 40
5.0
 50
90.0
 51
193.60898753260551
1001
GENIUS_GENODEF_13
1002
{
1000
HIER
1070
     0
1002
}
1002
{
1000
MANEDIT
1070
     0
1002
}
1002
{
1000
NOSEL
1070
     0
1002
}
1002
{
1000
BEHIND
1070
     0
1002
}
1002
{
1000
OTHER
1070
     0
1002
}
1002
{
1000
REACTOR
1002
}
1001
GENIUS_GENOBJ-N-FIL_13
1002
{
1000
OWNER
1000
GEN
1002
}
  0
LINE
  5
155F9
  8
AM_0
 10
618.50963598314024
 20
276.93638404048681
 30
0.0
 11
618.50963598314024
 21
282.30638404048682
 31
0.0
  0
LINE
  5
155FA
  8
AM_0
 10
603.50963598314024
 20
276.93638404048681
 30
0.0
 11
603.50963598314024
 21
282.30638404048682
 31
0.0
  0
LINE
  5
155FC
  8
AM_0
 10
582.00963598314024
 20
189.4363840404867
 30
0.0
 11
582.00963623938765
 21
312.9363843407944
 31
0.0
  0
LINE
  5
155FD
  8
AM_0
 10
728.00963598314013
 20
307.35636404048682
 30
0.0
 11
728.00963598314013
 21
192.5063640404868
 31
0.0
  0
LINE
  5
155FE
  8
AM_0
 10
734.00963598314013
 20
297.95597404048681
 30
0.0
 11
734.00963598314013
 21
254.9363840404869
 31
0.0
  0
LINE
  5
15600
  8
AM_0
 10
532.50963598314092
 20
301.93641479238443
 30
0.0
 11
532.50963598314047
 21
197.93640622098499
 31
0.0
  0
LINE
  5
15601
  8
AM_0
 10
537.50963598314092
 20
301.93641479238443
 30
0.0
 11
537.50963598314092
 21
197.93640622098499
 31
0.0
  0
LINE
  5
15602
  8
ﾁｭｳｼﾝｾﾝ1
 10
426.50965204298882
 20
354.46336540522373
 30
0.0
 11
426.50965204298882
 21
145.40946267575021
 31
0.0
  0
ARC
  5
15603
  8
AM_0
 10
321.88820157343889
 20
249.93641404048699
 30
0.0
 40
224.82253876479601
 50
350.95944604092699
 51
9.0405539590730442
  0
LINE
  5
15604
  8
AM_0
 10
543.59911280889025
 20
283.53031309067779
 30
0.0
 11
543.59911280888912
 21
216.7619929400025
 31
0.0
  0
LINE
  5
15605
  8
AM_0
 10
562.00963598314013
 20
311.43640858837023
 30
0.0
 11
562.00963598314013
 21
188.43642858837021
 31
0.0
  0
LINE
  5
15606
  8
AM_0
 10
573.00963598314024
 20
185.93641858837009
 30
0.0
 11
573.00963598314024
 21
313.93640858836972
 31
0.0
  0
LINE
  5
15608
  8
AM_0
 10
619.50963598314024
 20
275.9363840404867
 30
0.0
 11
720.45961598314022
 21
275.9363840404867
 31
0.0
  0
LINE
  5
15609
  8
AM_0
 10
585.08484989661497
 20
273.93638404048681
 30
0.0
 11
720.45961598314022
 21
273.9363840404867
 31
0.0
  0
LINE
  5
1560A
  8
AM_0
 10
721.54961598314026
 20
273.5063640404868
 30
0.0
 11
584.16487983458421
 21
273.5063640404868
 31
0.0
  0
LINE
  5
1560B
  8
AM_0
 10
721.54961598314026
 20
276.42637404048691
 30
0.0
 11
618.64946751132766
 21
276.42637404048691
 31
0.0
  0
LINE
  5
1560C
  8
AM_0
 10
721.67962598314023
 20
263.6263840404867
 30
0.0
 11
649.27960931342454
 21
263.6263840404867
 31
0.0
  0
LINE
  5
1560D
  8
AM_0
 10
650.56960378869383
 20
263.93638404048681
 30
0.0
 11
720.45961598314022
 21
263.93638404048681
 31
0.0
  0
LINE
  5
1560E
  8
AM_0
 10
650.56960378869383
 20
265.93638404048681
 30
0.0
 11
720.45961598314022
 21
265.93638404048681
 31
0.0
  0
LINE
  5
1560F
  8
AM_0
 10
721.67962598314023
 20
266.28636404048677
 30
0.0
 11
649.27960931342454
 21
266.28636404048677
 31
0.0
  0
LINE
  5
15610
  8
AM_0
 10
681.00963598314024
 20
203.58637404048679
 30
0.0
 11
718.00963598314013
 21
205.73237587991699
 31
0.0
  0
LINE
  5
15612
  8
AM_0
 10
682.00963598314013
 20
203.59644404048669
 30
0.0
 11
588.1896259831401
 21
203.59644404048669
 31
0.0
  0
LINE
  5
15613
  8
AM_0
 10
619.49868169631281
 20
223.93638404048679
 30
0.0
 11
711.45961598314045
 21
223.9363840404867
 31
0.0
  0
LINE
  5
15614
  8
AM_0
 10
585.08484989661497
 20
225.93638404048679
 30
0.0
 11
711.45961598314045
 21
225.9363840404867
 31
0.0
  0
LINE
  5
15615
  8
AM_0
 10
712.54961598314014
 20
223.4463640404868
 30
0.0
 11
618.64941415500505
 21
223.4463640404868
 31
0.0
  0
LINE
  5
15616
  8
AM_0
 10
712.54961598314014
 20
226.3763840404867
 30
0.0
 11
583.99484994897477
 21
226.37638404048681
 31
0.0
  0
LINE
  5
15617
  8
AM_0
 10
712.32961598314023
 20
213.2163840404869
 30
0.0
 11
648.00963598314024
 21
213.2163840404869
 31
0.0
  0
LINE
  5
15618
  8
AM_0
 10
703.00963598314013
 20
184.0163740404866
 30
0.0
 11
662.00963598314024
 21
184.0163740404866
 31
0.0
  0
LINE
  5
15619
  8
AM_0
 10
703.00963598314013
 20
184.69636404048671
 30
0.0
 11
662.00963598314024
 21
184.69636404048671
 31
0.0
  0
LINE
  5
1561A
  8
AM_0
 10
703.00963598314013
 20
186.04637404048671
 30
0.0
 11
662.00963598314024
 21
186.04637404048671
 31
0.0
  0
LINE
  5
1561B
  8
AM_0
 10
703.00963598314013
 20
188.07636404048679
 30
0.0
 11
648.00963598314024
 21
188.07636404048679
 31
0.0
  0
LINE
  5
1561C
  8
AM_0
 10
648.00963598314024
 20
213.93638404048679
 30
0.0
 11
711.45961598314045
 21
213.93638404048679
 31
0.0
  0
LINE
  5
1561D
  8
AM_0
 10
721.74962598314005
 20
253.67637404048679
 30
0.0
 11
649.27960931342454
 21
253.67637404048679
 31
0.0
  0
LINE
  5
1561E
  8
AM_0
 10
650.56960378869383
 20
253.93638404048679
 30
0.0
 11
720.45961598314022
 21
253.93638404048679
 31
0.0
  0
LINE
  5
1561F
  8
AM_0
 10
650.56960378869383
 20
255.93638404048679
 30
0.0
 11
720.45961598314022
 21
255.93638404048679
 31
0.0
  0
LINE
  5
15620
  8
AM_0
 10
721.74962598314005
 20
256.21638404048679
 30
0.0
 11
649.27960931342454
 21
256.21638404048679
 31
0.0
  0
LINE
  5
15621
  8
AM_0
 10
650.56787603952716
 20
233.93638404048679
 30
0.0
 11
720.44960598314015
 21
233.93638404048679
 31
0.0
  0
LINE
  5
15622
  8
AM_0
 10
650.56695253976079
 20
235.93638404048679
 30
0.0
 11
720.44960598314015
 21
235.93638404048679
 31
0.0
  0
LINE
  5
15623
  8
AM_0
 10
650.5696071941303
 20
243.93638404048679
 30
0.0
 11
720.44960598314015
 21
243.93638404048679
 31
0.0
  0
LINE
  5
15624
  8
AM_0
 10
650.56960719413178
 20
245.93638404048679
 30
0.0
 11
720.44960598314015
 21
245.93638404048679
 31
0.0
  0
LINE
  5
15625
  8
AM_0
 10
712.32961598314023
 20
216.56639404048681
 30
0.0
 11
648.00963598314024
 21
216.56639404048681
 31
0.0
  0
LINE
  5
15626
  8
AM_0
 10
721.67962598314023
 20
233.59638404048681
 30
0.0
 11
649.4744227156034
 21
233.59638404048681
 31
0.0
  0
LINE
  5
15627
  8
AM_0
 10
721.67962598314023
 20
236.2563640404868
 30
0.0
 11
649.4744227156034
 21
236.2563640404868
 31
0.0
  0
LINE
  5
15628
  8
AM_0
 10
721.73961598314031
 20
243.6663640404868
 30
0.0
 11
649.4744227156034
 21
243.6663640404868
 31
0.0
  0
LINE
  5
15629
  8
AM_0
 10
721.73961598314031
 20
246.1963640404868
 30
0.0
 11
649.4744227156034
 21
246.1963640404868
 31
0.0
  0
LINE
  5
1562A
  8
AM_0
 10
648.00963598314024
 20
215.93638404048679
 30
0.0
 11
711.45961598314045
 21
215.93638404048679
 31
0.0
  0
LINE
  5
15635
  8
AM_0
 10
559.00963598314036
 20
188.43642858837021
 30
0.0
 11
534.25770934150285
 21
188.43642858837049
 31
0.0
  0
ARC
  5
15636
  8
0
 10
522.5096359831407
 20
200.93641951244459
 30
0.0
 40
10.0
 50
270.0
 51
0.0
1001
GENIUS_GENODEF_13
1002
{
1000
HIER
1070
     0
1002
}
1002
{
1000
MANEDIT
1070
     0
1002
}
1002
{
1000
NOSEL
1070
     0
1002
}
1002
{
1000
BEHIND
1070
     0
1002
}
1002
{
1000
OTHER
1070
     0
1002
}
1002
{
1000
REACTOR
1002
}
1001
GENIUS_GENOBJ-N-FIL_13
1002
{
1000
OWNER
1000
GEN
1002
}
  0
POLYLINE
  5
15637
  8
AM_0
 66
     1
 10
0.0
 20
0.0
 30
0.0
 70
     1
  0
VERTEX
  5
15638
  8
AM_0
 10
458.06622738173809
 20
195.43641404048699
 30
0.0
  0
VERTEX
  5
15639
  8
AM_0
 10
456.6228517087639
 20
192.93641404048699
 30
0.0
  0
VERTEX
  5
1563A
  8
AM_0
 10
458.06622738173809
 20
190.43641404048699
 30
0.0
  0
VERTEX
  5
1563B
  8
AM_0
 10
460.95297872768612
 20
190.43641404048699
 30
0.0
  0
VERTEX
  5
1563C
  8
AM_0
 10
462.39635440066041
 20
192.93641404048699
 30
0.0
  0
VERTEX
  5
1563D
  8
AM_0
 10
460.95297872768612
 20
195.43641404048699
 30
0.0
  0
SEQEND
  5
1563E
  8
AM_0
  0
CIRCLE
  5
1563F
  8
AM_0
 10
459.50960305471222
 20
192.93641404048699
 30
0.0
 40
5.0
  0
ARC
  5
15640
  8
0
 10
473.18439738588972
 20
195.93641404048699
 30
0.0
 40
5.0
 50
192.37362511619239
 51
270.0
1001
GENIUS_GENODEF_13
1002
{
1000
HIER
1070
     0
1002
}
1002
{
1000
MANEDIT
1070
     0
1002
}
1002
{
1000
NOSEL
1070
     0
1002
}
1002
{
1000
BEHIND
1070
     0
1002
}
1002
{
1000
OTHER
1070
     0
1002
}
1002
{
1000
REACTOR
1002
}
1001
GENIUS_GENOBJ-N-FIL_13
1002
{
1000
OWNER
1000
GEN
1002
}
  0
ARC
  5
15641
  8
0
 10
445.83480872353482
 20
195.93641404048699
 30
0.0
 40
5.0
 50
270.0
 51
347.62637488380761
1001
GENIUS_GENOBJ-N-FIL_13
1002
{
1000
OWNER
1000
GEN
1002
}
1001
GENIUS_GENODEF_13
1002
{
1000
HIER
1070
     0
1002
}
1002
{
1000
MANEDIT
1070
     0
1002
}
1002
{
1000
NOSEL
1070
     0
1002
}
1002
{
1000
BEHIND
1070
     0
1002
}
1002
{
1000
OTHER
1070
     0
1002
}
1002
{
1000
REACTOR
1002
}
  0
ARC
  5
15642
  8
0
 10
485.50958199163392
 20
190.93641404048699
 30
0.0
 40
2.5
 50
44.999999999999417
 51
224.9999999999994
  0
CIRCLE
  5
15643
  8
AM_0
 10
459.50960305471222
 20
192.93641404048699
 30
0.0
 40
6.0
  0
LINE
  5
15644
  8
0
 10
519.76768409456247
 20
162.17331569587739
 30
0.0
 11
535.7677172120467
 21
191.1733118233401
 31
0.0
  0
LINE
  5
15645
  8
0
 10
499.40946369736008
 20
180.57206624069349
 30
0.0
 11
487.27734894460031
 21
192.70418099345341
 31
0.0
  0
LINE
  5
15646
  8
0
 10
523.37155855937749
 20
179.05561576331809
 30
0.0
 11
531.38983104297404
 21
193.58870261794129
 31
0.0
  0
ARC
  5
1564C
  8
0
 10
507.50959917933528
 20
168.9364189976512
 30
0.0
 40
12.0
 50
47.504389781222649
 51
193.60897505411901
  0
ARC
  5
1564D
  8
0
 10
507.50959917933488
 20
168.936411930047
 30
0.0
 40
14.00000415934085
 50
270.0
 51
331.11336483534222
  0
LINE
  5
1564E
  8
ﾁｭｳｼﾝｾﾝ
 10
494.08246555293988
 20
168.93641404048711
 30
0.0
 11
520.64646555293984
 21
168.93641404048711
 31
0.0
1001
GENIUS_GENODEF_13
1002
{
1000
HIER
1070
     0
1002
}
1002
{
1000
MANEDIT
1070
     0
1002
}
1002
{
1000
NOSEL
1070
     0
1002
}
1002
{
1000
BEHIND
1070
     0
1002
}
1002
{
1000
OTHER
1070
     0
1002
}
1002
{
1000
REACTOR
1002
}
1001
GENIUS_GENOBJ-N-CEN_13
1002
{
1000
OWNER
1000
GEN
1002
}
  0
CIRCLE
  5
1564F
  8
0
 10
507.50960221710801
 20
168.9364132426636
 30
0.0
 40
5.4999999999999973
  0
LINE
  5
15650
  8
ﾁｭｳｼﾝｾﾝ
 10
507.50965204298831
 20
182.43641404048711
 30
0.0
 11
507.50965204298831
 21
155.799600530536
 31
0.0
1001
GENIUS_GENODEF_13
1002
{
1000
HIER
1070
     0
1002
}
1002
{
1000
MANEDIT
1070
     0
1002
}
1002
{
1000
NOSEL
1070
     0
1002
}
1002
{
1000
BEHIND
1070
     0
1002
}
1002
{
1000
OTHER
1070
     0
1002
}
1002
{
1000
REACTOR
1002
}
1001
GENIUS_GENOBJ-N-CEN_13
1002
{
1000
OWNER
1000
GEN
1002
}
  0
ARC
  5
15651
  8
0
 10
490.98688854441667
 20
164.93641483831021
 30
0.0
 40
5.0
 50
270.0
 51
13.60897505411906
1001
GENIUS_GENOBJ-N-FIL_13
1002
{
1000
OWNER
1000
GEN
1002
}
1001
GENIUS_GENODEF_13
1002
{
1000
HIER
1070
     0
1002
}
1002
{
1000
MANEDIT
1070
     0
1002
}
1002
{
1000
NOSEL
1070
     0
1002
}
1002
{
1000
BEHIND
1070
     0
1002
}
1002
{
1000
OTHER
1070
     0
1002
}
1002
{
1000
REACTOR
1002
}
  0
LINE
  5
15652
  8
AM_7
  6
AM_ISO08W050X2
 10
507.50960221710801
 20
168.9364132426636
 30
0.0
 11
507.50960221710801
 21
168.9364132426636
 31
0.0
1001
GENIUS_GENODEF_13
1002
{
1000
HIER
1070
     0
1002
}
1002
{
1000
MANEDIT
1070
     0
1002
}
1002
{
1000
NOSEL
1070
     0
1002
}
1002
{
1000
BEHIND
1070
     0
1002
}
1002
{
1000
OTHER
1070
     0
1002
}
1002
{
1000
REACTOR
1002
}
1001
GENIUS_GENOBJ-N-CEN_13
1002
{
1000
OWNER
1000
GEN
1002
}
  0
LINE
  5
15653
  8
AM_7
  6
AM_ISO08W050X2
 10
507.50965204298871
 20
168.93641404048711
 30
0.0
 11
507.50965204298871
 21
168.93641404048711
 31
0.0
1001
GENIUS_GENODEF_13
1002
{
1000
HIER
1070
     0
1002
}
1002
{
1000
MANEDIT
1070
     0
1002
}
1002
{
1000
NOSEL
1070
     0
1002
}
1002
{
1000
BEHIND
1070
     0
1002
}
1002
{
1000
OTHER
1070
     0
1002
}
1002
{
1000
REACTOR
1002
}
1001
GENIUS_GENOBJ-N-CEN_13
1002
{
1000
OWNER
1000
GEN
1002
}
  0
LINE
  5
15654
  8
0
 10
495.87393042422963
 20
177.03653170195849
 30
0.0
 11
483.74181503866748
 21
189.1686470875205
 31
0.0
  0
ARC
  5
15655
  8
0
  6
CONTINUOUS
 62
     7
 10
493.75261008066991
 20
174.91521135839881
 30
0.0
 40
3.0
 50
336.51019292825021
 51
44.999999999999417
1001
GENIUS_GENODEF_13
1002
{
1000
HIER
1070
     0
1002
}
1002
{
1000
MANEDIT
1070
     0
1002
}
1002
{
1000
NOSEL
1070
     0
1002
}
1002
{
1000
BEHIND
1070
     0
1002
}
1002
{
1000
OTHER
1070
     0
1002
}
1002
{
1000
REACTOR
1002
}
1001
GENIUS_GENOBJ-N-FIL_13
1002
{
1000
OWNER
1000
GEN
1002
}
  0
ARC
  5
15656
  8
0
  6
CONTINUOUS
 62
     7
 10
501.5307840409198
 20
182.69338658425309
 30
0.0
 40
3.0
 50
224.9999999999994
 51
293.48981639447351
1001
GENIUS_GENODEF_13
1002
{
1000
HIER
1070
     0
1002
}
1002
{
1000
MANEDIT
1070
     0
1002
}
1002
{
1000
NOSEL
1070
     0
1002
}
1002
{
1000
BEHIND
1070
     0
1002
}
1002
{
1000
OTHER
1070
     0
1002
}
1002
{
1000
REACTOR
1002
}
1001
GENIUS_GENOBJ-N-FIL_13
1002
{
1000
OWNER
1000
GEN
1002
}
  0
ARC
  5
15657
  8
0
 10
518.99367239030482
 20
181.4710136255236
 30
0.0
 40
5.0
 50
227.50438978122301
 51
331.11336483534222
1001
GENIUS_GENOBJ-N-FIL_13
1002
{
1000
OWNER
1000
GEN
1002
}
1001
GENIUS_GENODEF_13
1002
{
1000
HIER
1070
     0
1002
}
1002
{
1000
MANEDIT
1070
     0
1002
}
1002
{
1000
NOSEL
1070
     0
1002
}
1002
{
1000
BEHIND
1070
     0
1002
}
1002
{
1000
OTHER
1070
     0
1002
}
1002
{
1000
REACTOR
1002
}
  0
LINE
  5
15658
  8
0
 10
483.00958199163392
 20
190.93641404048699
 30
0.0
 11
473.18439738588972
 21
190.93641404048699
 31
0.0
  0
LINE
  5
15659
  8
0
 10
445.83480872353482
 20
190.93641404048699
 30
0.0
 11
416.00962176026877
 21
190.93641404048699
 31
0.0
  0
ARC
  5
1565A
  8
0
 10
459.50960305471222
 20
192.93641404048699
 30
0.0
 40
9.0
 50
12.373625116192381
 51
90.0
  0
ARC
  5
1565B
  8
0
 10
459.50960305471222
 20
192.93641404048699
 30
0.0
 40
9.0
 50
90.0
 51
167.62637488380761
  0
LINE
  5
1565F
  8
0
 10
522.5096359831407
 20
190.9364195124445
 30
0.0
 11
489.04511589756657
 21
190.9364195124445
 31
0.0
  0
ARC
  5
15660
  8
AM_0
 10
540.9381016294526
 20
214.9572281958356
 30
0.0
 40
2.999999999999996
 50
270.0
 51
353.33928567968309
1001
GENIUS_GENODEF_13
1002
{
1000
HIER
1070
     0
1002
}
1002
{
1000
MANEDIT
1070
     0
1002
}
1002
{
1000
NOSEL
1070
     0
1002
}
1002
{
1000
BEHIND
1070
     0
1002
}
1002
{
1000
OTHER
1070
     0
1002
}
1002
{
1000
REACTOR
1002
}
1001
GENIUS_GENOBJ-N-FIL_13
1002
{
1000
OWNER
1000
GEN
1002
}
  0
ARC
  5
15661
  8
AM_0
 10
523.5096356255126
 20
197.93640622098511
 30
0.0
 40
9.0000003576278651
 50
331.11336483534222
 51
0.0
  0
CIRCLE
  5
15662
  8
0
 10
523.50960305471222
 20
197.93641404048699
 30
0.0
 40
4.0
  0
CIRCLE
  5
15663
  8
ｷｲﾛ
 10
523.50956812638981
 20
197.9364147923844
 30
0.0
 40
5.0
  0
ARC
  5
15664
  8
AM_0
 10
523.5096356255126
 20
197.93640622098511
 30
0.0
 40
14.00000035762786
 50
331.11336483534222
 51
0.0
  0
LINE
  5
15665
  8
AM_0
 10
540.9381016294526
 20
211.9572281958356
 30
0.0
 11
537.50963598314092
 21
211.9572281958358
 31
0.0
  0
ARC
  5
15666
  8
0
 10
529.5096359831407
 20
244.43641404048699
 30
0.0
 40
3.0
 50
0.0
 51
90.0
1001
GENIUS_GENOBJ-N-FIL_13
1002
{
1000
OWNER
1000
GEN
1002
}
1001
GENIUS_GENODEF_13
1002
{
1000
HIER
1070
     0
1002
}
1002
{
1000
MANEDIT
1070
     0
1002
}
1002
{
1000
NOSEL
1070
     0
1002
}
1002
{
1000
BEHIND
1070
     0
1002
}
1002
{
1000
OTHER
1070
     0
1002
}
1002
{
1000
REACTOR
1002
}
  0
ARC
  5
15667
  8
0
 10
529.5096359831407
 20
255.43641404048699
 30
0.0
 40
3.0
 50
270.0
 51
0.0
1001
GENIUS_GENOBJ-N-FIL_13
1002
{
1000
OWNER
1000
GEN
1002
}
1001
GENIUS_GENODEF_13
1002
{
1000
HIER
1070
     0
1002
}
1002
{
1000
MANEDIT
1070
     0
1002
}
1002
{
1000
NOSEL
1070
     0
1002
}
1002
{
1000
BEHIND
1070
     0
1002
}
1002
{
1000
OTHER
1070
     0
1002
}
1002
{
1000
REACTOR
1002
}
  0
LINE
  5
15668
  8
0
 10
528.00963598314092
 20
252.43641404048699
 30
0.0
 11
529.50963598314092
 21
252.43641404048699
 31
0.0
  0
LINE
  5
15669
  8
0
 10
528.00963598314092
 20
247.43641404048691
 30
0.0
 11
529.50963598314092
 21
247.43641404048691
 31
0.0
  0
ARC
  5
1566A
  8
0
 10
528.00963598314047
 20
249.93641404048699
 30
0.0
 40
2.5
 50
90.0
 51
270.0
  0
LINE
  5
1566B
  8
AM_0
 10
586.24962598314016
 20
189.57644404048679
 30
0.0
 11
583.51381598314015
 21
199.77644404048681
 31
0.0
  0
LINE
  5
1566C
  8
AM_0
 10
648.00963598314024
 20
188.0764540404866
 30
0.0
 11
588.1896259831401
 21
188.0764540404866
 31
0.0
  0
LINE
  5
1566D
  8
AM_0
 10
614.20563598314027
 20
149.9364140404868
 30
0.0
 11
649.81363598314022
 21
149.93641404048671
 31
0.0
  0
LINE
  5
1566E
  8
AM_0
 10
600.50963598314036
 20
169.4364140404868
 30
0.0
 11
658.00963598314036
 21
169.4364140404868
 31
0.0
  0
LINE
  5
1566F
  8
AM_0
 10
603.00963598314047
 20
152.93641404048671
 30
0.0
 11
678.00963598314047
 21
152.93641404048671
 31
0.0
  0
LINE
  5
15670
  8
AM_0
 10
680.50963598314036
 20
172.9364140404866
 30
0.0
 11
600.50963598314036
 21
172.9364140404866
 31
0.0
  0
LINE
  5
15671
  8
AM_0
 10
600.50963598314024
 20
176.43641404048671
 30
0.0
 11
680.50963598314036
 21
176.43641404048671
 31
0.0
  0
ARC
  5
15672
  8
AM_0
 10
581.00963598314024
 20
186.9363840404869
 30
0.0
 40
0.9999999999999998
 50
270.00000299999761
 51
0.000010000000991
  0
LINE
  5
15673
  8
0
  6
CONTINUOUS
 62
     7
 10
582.00969757773885
 20
185.93638310526919
 30
0.0
 11
573.00963598314024
 21
185.93638310526919
 31
0.0
  0
LINE
  5
15674
  8
AM_0
 10
573.00963598314024
 20
185.93642858837001
 30
0.0
 11
563.88303315554458
 21
185.93642858837001
 31
0.0
  0
ARC
  5
15675
  8
AM_0
 10
563.88303315554458
 20
188.93642858837009
 30
0.0
 40
2.999999999999996
 50
215.68533471265459
 51
270.0
1001
GENIUS_GENOBJ-N-FIL_13
1002
{
1000
OWNER
1000
GEN
1002
}
1001
GENIUS_GENODEF_13
1002
{
1000
HIER
1070
     0
1002
}
1002
{
1000
MANEDIT
1070
     0
1002
}
1002
{
1000
NOSEL
1070
     0
1002
}
1002
{
1000
BEHIND
1070
     0
1002
}
1002
{
1000
OTHER
1070
     0
1002
}
1002
{
1000
REACTOR
1002
}
  0
ARC
  5
15676
  8
AM_0
 10
559.00963598314036
 20
185.43642858837009
 30
0.0
 40
2.999999999999996
 50
35.68533471265463
 51
90.0
1001
GENIUS_GENOBJ-N-FIL_13
1002
{
1000
OWNER
1000
GEN
1002
}
1001
GENIUS_GENODEF_13
1002
{
1000
HIER
1070
     0
1002
}
1002
{
1000
MANEDIT
1070
     0
1002
}
1002
{
1000
NOSEL
1070
     0
1002
}
1002
{
1000
BEHIND
1070
     0
1002
}
1002
{
1000
OTHER
1070
     0
1002
}
1002
{
1000
REACTOR
1002
}
  0
LINE
  5
15677
  8
AM_0
 10
573.00963598314024
 20
185.93638858836979
 30
0.0
 11
573.00963598314024
 21
189.93638858836991
 31
0.0
  0
LINE
  5
15678
  8
AM_0
 10
602.00963598314047
 20
169.4364140404868
 30
0.0
 11
602.00963598314047
 21
153.9364140404868
 31
0.0
  0
ARC
  5
15679
  8
AM_0
 10
603.00963598314047
 20
153.93641404048671
 30
0.0
 40
1.0
 50
180.0
 51
270.0
  0
LINE
  5
1567A
  8
AM_0
 10
609.00963598314024
 20
152.93641404048671
 30
0.0
 11
614.20563598314027
 21
149.9364140404868
 31
0.0
  0
LINE
  5
1567B
  8
AM_0
 10
602.00963598314024
 20
180.9364140404866
 30
0.0
 11
589.70891468689194
 21
180.9364140404866
 31
0.0
  0
ARC
  5
1567C
  8
AM_0
 10
588.1992759831403
 20
190.0934440404867
 30
0.0
 40
2.0170177999999992
 50
194.85160000000491
 51
269.7262999999972
  0
LINE
  5
1567D
  8
AM_0
 10
582.00963598314024
 20
186.9363840404869
 30
0.0
 11
582.00963598314024
 21
189.4363840404867
 31
0.0
  0
LINE
  5
1567E
  8
AM_0
 10
582.00963598314024
 20
185.93638409284699
 30
0.0
 11
589.70891468689194
 21
180.9364140404866
 31
0.0
  0
LINE
  5
1567F
  8
AM_0
 10
586.28963598314022
 20
189.43645404048681
 30
0.0
 11
582.00963598314047
 21
189.43645404048681
 31
0.0
  0
LINE
  5
15680
  8
AM_0
 10
602.00963598314024
 20
176.43641404048671
 30
0.0
 11
602.00963598314024
 21
180.9364140404866
 31
0.0
  0
LINE
  5
15681
  8
AM_0
 10
600.50963598314036
 20
176.43641404048671
 30
0.0
 11
600.50963598314036
 21
169.4364140404868
 31
0.0
  0
ARC
  5
15682
  8
AM_0
 10
677.00963598314047
 20
168.4364140404868
 30
0.0
 40
1.0
 50
89.999999999999986
 51
180.0
  0
LINE
  5
15683
  8
AM_0
 10
679.00963598314036
 20
169.4364140404868
 30
0.0
 11
679.00963598314024
 21
153.9364140404868
 31
0.0
  0
LINE
  5
15684
  8
AM_0
 10
675.00963598314036
 20
172.9364140404866
 30
0.0
 11
675.00963598314036
 21
165.43641404048671
 31
0.0
  0
LINE
  5
15685
  8
AM_0
 10
680.50963598314036
 20
176.43641404048671
 30
0.0
 11
680.50963598314036
 21
156.9364140404868
 31
0.0
  0
ARC
  5
15686
  8
AM_0
 10
667.50963598314036
 20
165.43641404048671
 30
0.0
 40
3.9999999999999978
 50
180.0
 51
0.0
  0
ARC
  5
15687
  8
AM_0
 10
658.00963598314036
 20
168.4364140404868
 30
0.0
 40
1.0
 50
0.0
 51
89.999999999999986
  0
LINE
  5
15688
  8
AM_0
 10
671.50963598314036
 20
172.9364140404866
 30
0.0
 11
671.50963598314036
 21
165.43641404048671
 31
0.0
  0
LINE
  5
15689
  8
AM_0
 10
660.00963598314036
 20
165.43641404048671
 30
0.0
 11
660.00963598314036
 21
172.9364140404866
 31
0.0
  0
LINE
  5
1568A
  8
AM_0
 10
663.50963598314036
 20
172.9364140404866
 30
0.0
 11
663.50963598314036
 21
165.43641404048671
 31
0.0
  0
ARC
  5
1568B
  8
AM_0
 10
667.50963598314036
 20
165.43641404048671
 30
0.0
 40
7.5000000000000018
 50
180.0
 51
0.0
  0
ARC
  5
1568C
  8
AM_0
 10
666.50963598314036
 20
164.4364140404868
 30
0.0
 40
7.4999999999999956
 50
180.0
 51
270.0
  0
LINE
  5
1568D
  8
AM_0
 10
649.81363598314022
 20
149.93641404048671
 30
0.0
 11
655.00241149334352
 21
152.93641404048671
 31
0.0
  0
LINE
  5
1568E
  8
AM_0
 10
659.00963598314036
 20
164.4364140404868
 30
0.0
 11
659.00963598314036
 21
168.4364140404868
 31
0.0
  0
ARC
  5
1568F
  8
AM_0
 10
668.50963598314047
 20
164.4364140404868
 30
0.0
 40
7.499999999999992
 50
270.0
 51
0.0
  0
LINE
  5
15690
  8
AM_0
 10
666.50963598314024
 20
156.9364140404868
 30
0.0
 11
668.50963598314047
 21
156.9364140404868
 31
0.0
  0
ARC
  5
15691
  8
AM_0
 10
678.00963598314047
 20
153.9364140404868
 30
0.0
 40
1.0
 50
270.0
 51
0.0
  0
LINE
  5
15692
  8
AM_0
 10
680.50963598314036
 20
156.9364140404868
 30
0.0
 11
679.00963598314024
 21
156.9364140404868
 31
0.0
  0
LINE
  5
15693
  8
AM_0
 10
676.00963598314036
 20
168.4364140404868
 30
0.0
 11
676.00963598314036
 21
164.4364140404868
 31
0.0
  0
LINE
  5
15694
  8
AM_0
 10
662.00963598314024
 20
176.43641404048651
 30
0.0
 11
662.00963598314024
 21
188.0764540404864
 31
0.0
  0
LINE
  5
15695
  8
AM_0
 10
680.50963598314036
 20
169.4364140404868
 30
0.0
 11
677.00963598314047
 21
169.4364140404868
 31
0.0
  0
LINE
  5
15696
  8
AM_0
 10
603.50963598314024
 20
216.56644404048691
 30
0.0
 11
618.50963598314024
 21
216.56644404048691
 31
0.0
  0
LINE
  5
15697
  8
AM_0
 10
603.50963598314024
 20
216.56644404048669
 30
0.0
 11
618.50963598314024
 21
216.56644404048669
 31
0.0
  0
LINE
  5
15698
  8
AM_0
 10
588.1896259831401
 20
215.9364440404868
 30
0.0
 11
648.00963598314024
 21
215.9364440404868
 31
0.0
  0
LINE
  5
15699
  8
AM_0
 10
588.1896259831401
 20
213.9364440404868
 30
0.0
 11
648.00963598314024
 21
213.9364440404868
 31
0.0
  0
LINE
  5
1569A
  8
AM_0
 10
648.00963598314024
 20
213.20646404048679
 30
0.0
 11
588.1896259831401
 21
213.20646404048679
 31
0.0
  0
ARC
  5
1569B
  8
AM_0
 10
581.00121598314024
 20
198.90485404048681
 30
0.0
 40
1.008444499999998
 50
270.4777999999996
 51
350.45392999999598
  0
LINE
  5
1569C
  8
AM_0
 10
573.00963598314024
 20
197.8964285883701
 30
0.0
 11
563.00963598314024
 21
197.8964285883701
 31
0.0
  0
LINE
  5
1569D
  8
AM_0
 10
573.00969380535776
 20
197.89641858840179
 30
0.0
 11
563.0096938053639
 21
197.8964074772905
 31
0.0
  0
LINE
  5
1569E
  8
0
  6
CONTINUOUS
 62
     7
 10
581.00963598314024
 20
197.89645276773891
 30
0.0
 11
573.00963598314024
 21
197.89645276773891
 31
0.0
  0
LINE
  5
1569F
  8
AM_0
 10
573.00963598314024
 20
212.79643858837019
 30
0.0
 11
563.00963598314024
 21
212.79643858837019
 31
0.0
  0
LINE
  5
156A0
  8
AM_0
 10
573.00967724979068
 20
212.7964285883927
 30
0.0
 11
563.00967724979694
 21
212.7964174772813
 31
0.0
  0
LINE
  5
156A1
  8
0
  6
CONTINUOUS
 62
     7
 10
581.00963598314024
 20
212.796462767739
 30
0.0
 11
573.00963598314024
 21
212.796462767739
 31
0.0
  0
LINE
  5
156A2
  8
AM_0
 10
582.00963598314024
 20
207.07645404048671
 30
0.0
 11
582.00963598314024
 21
199.4764540404868
 31
0.0
  0
LINE
  5
156A3
  8
AM_0
 10
583.00963598314024
 20
207.07645404048671
 30
0.0
 11
583.00963598314024
 21
199.4764540404868
 31
0.0
  0
LINE
  5
156A4
  8
AM_0
 10
585.60961598314032
 20
205.07645404048679
 30
0.0
 11
585.60961598314032
 21
201.4764540404868
 31
0.0
  0
ARC
  5
156A5
  8
AM_0
 10
583.90963598314022
 20
201.4764540404868
 30
0.0
 40
1.7000007999999991
 50
270.000020000002
 51
359.999989999999
  0
LINE
  5
156A6
  8
AM_0
 10
583.00963598314024
 20
199.4764540404868
 30
0.0
 11
582.00963598314024
 21
199.4764540404868
 31
0.0
  0
LINE
  5
156A7
  8
AM_0
 10
583.00963598314024
 20
199.77645404048661
 30
0.0
 11
583.90963598314022
 21
199.77645404048661
 31
0.0
  0
LINE
  5
156A8
  8
AM_0
 10
588.1896259831401
 20
203.59644404048669
 30
0.0
 11
585.60961598314032
 21
203.59644404048669
 31
0.0
  0
ARC
  5
156A9
  8
AM_0
 10
583.90963598314022
 20
205.07645404048679
 30
0.0
 40
1.699996899999999
 50
0.0000199999954837
 51
89.999996999995773
  0
LINE
  5
156AA
  8
AM_0
 10
583.00963598314024
 20
207.07645404048671
 30
0.0
 11
582.00963598314024
 21
207.07645404048671
 31
0.0
  0
LINE
  5
156AB
  8
AM_0
 10
582.00963598314024
 20
204.05381404048671
 30
0.0
 11
583.00963598314024
 21
203.47648404048689
 31
0.0
  0
LINE
  5
156AC
  8
AM_0
 10
582.00963598314024
 20
203.0538140404868
 30
0.0
 11
583.00963598314024
 21
202.47645404048669
 31
0.0
  0
ARC
  5
156AD
  8
AM_0
 10
581.34877598314017
 20
202.10966404048679
 30
0.0
 40
1.4868058999999989
 50
14.282739999999089
 51
63.610220000000879
  0
LINE
  5
156AE
  8
AM_0
 10
583.00963598314024
 20
206.77644404048669
 30
0.0
 11
583.90963598314022
 21
206.77644404048669
 31
0.0
  0
LINE
  5
156AF
  8
AM_0
 10
603.36985781127521
 20
223.4463640404868
 30
0.0
 11
583.99593253849775
 21
223.4463640404868
 31
0.0
  0
LINE
  5
156B0
  8
AM_0
 10
585.08484989661497
 20
223.93638404048679
 30
0.0
 11
602.52059026996494
 21
223.93638404048679
 31
0.0
  0
LINE
  5
156B1
  8
AM_0
 10
588.1896259831401
 20
216.56644404048691
 30
0.0
 11
602.50963598314024
 21
216.56644404048691
 31
0.0
  0
ARC
  5
156B2
  8
AM_0
 10
587.66961598314015
 20
214.93644404048669
 30
0.0
 40
1.0000073999999981
 50
89.999996999995773
 51
270.0
  0
LINE
  5
156B3
  8
AM_0
 10
584.1896259831401
 20
216.56644404048691
 30
0.0
 11
588.1896259831401
 21
216.56644404048691
 31
0.0
  0
LINE
  5
156B4
  8
AM_0
 10
587.66961598314015
 20
213.9364440404868
 30
0.0
 11
588.1896259831401
 21
213.9364440404868
 31
0.0
  0
LINE
  5
156B5
  8
AM_0
 10
587.66961598314015
 20
215.9364440404868
 30
0.0
 11
588.1896259831401
 21
215.9364440404868
 31
0.0
  0
LINE
  5
156B6
  8
AM_0
 10
588.1896259831401
 20
213.20646404048679
 30
0.0
 11
582.00963603246021
 21
213.20646404048679
 31
0.0
  0
ARC
  5
156B7
  8
AM_0
 10
584.19573598314025
 20
214.8864540404868
 30
0.0
 40
1.680010999999999
 50
90.208030999999565
 51
269.79197000000192
  0
ARC
  5
156B8
  8
AM_0
 10
585.08484994897481
 20
224.9363840404869
 30
0.0
 40
1.0000031999999981
 50
89.999999999999986
 51
269.99999700000228
  0
ARC
  5
156B9
  8
AM_0
 10
583.99484994897477
 20
224.9113640404868
 30
0.0
 40
1.465000399999999
 50
89.999999999999986
 51
269.99999700000228
  0
ARC
  5
156BA
  8
AM_0
 10
602.50963598314024
 20
222.93644404048669
 30
0.0
 40
0.9999999999999998
 50
0.0
 51
89.999999999999986
1001
GENIUS_GENOBJ-N-FIL_13
1002
{
1000
OWNER
1000
GEN
1002
}
1001
GENIUS_GENODEF_13
1002
{
1000
HIER
1070
     0
1002
}
1002
{
1000
MANEDIT
1070
     0
1002
}
1002
{
1000
NOSEL
1070
     0
1002
}
1002
{
1000
BEHIND
1070
     0
1002
}
1002
{
1000
OTHER
1070
     0
1002
}
1002
{
1000
REACTOR
1002
}
  0
ARC
  5
156BB
  8
AM_0
 10
602.50963598314024
 20
217.56644404048669
 30
0.0
 40
0.9999999999999998
 50
270.0
 51
0.0
1001
GENIUS_GENOBJ-N-FIL_13
1002
{
1000
OWNER
1000
GEN
1002
}
1001
GENIUS_GENODEF_13
1002
{
1000
HIER
1070
     0
1002
}
1002
{
1000
MANEDIT
1070
     0
1002
}
1002
{
1000
NOSEL
1070
     0
1002
}
1002
{
1000
BEHIND
1070
     0
1002
}
1002
{
1000
OTHER
1070
     0
1002
}
1002
{
1000
REACTOR
1002
}
  0
LINE
  5
156BC
  8
AM_0
 10
603.50963598314024
 20
222.93644404048669
 30
0.0
 11
603.50963598314024
 21
217.56644404048669
 31
0.0
  0
CIRCLE
  5
156BD
  8
AM_0
 10
613.50963598314024
 20
221.4364140404868
 30
0.0
 40
0.75
  0
CIRCLE
  5
156BE
  8
AM_0
 10
608.50963598314024
 20
221.4364140404868
 30
0.0
 40
0.75
  0
LINE
  5
156BF
  8
AM_0
 10
603.3698044549526
 20
276.42637404048691
 30
0.0
 11
584.01112458875139
 21
276.42637404048691
 31
0.0
  0
LINE
  5
156C0
  8
AM_0
 10
585.08484989661497
 20
275.93638404048681
 30
0.0
 11
602.50963598314024
 21
275.93638404048681
 31
0.0
  0
ARC
  5
156C1
  8
AM_0
 10
585.08484994897481
 20
274.93644404048678
 30
0.0
 40
1.0000031999999981
 50
90.000002999997605
 51
270.0
  0
ARC
  5
156C2
  8
AM_0
 10
583.99484994897477
 20
274.96146404048682
 30
0.0
 40
1.465000399999999
 50
90.000002999997605
 51
270.0
  0
ARC
  5
156C3
  8
AM_0
 10
602.50963598314024
 20
276.93638404048681
 30
0.0
 40
0.9999999999999998
 50
270.0
 51
0.0
1001
GENIUS_GENOBJ-N-FIL_13
1002
{
1000
OWNER
1000
GEN
1002
}
1001
GENIUS_GENODEF_13
1002
{
1000
HIER
1070
     0
1002
}
1002
{
1000
MANEDIT
1070
     0
1002
}
1002
{
1000
NOSEL
1070
     0
1002
}
1002
{
1000
BEHIND
1070
     0
1002
}
1002
{
1000
OTHER
1070
     0
1002
}
1002
{
1000
REACTOR
1002
}
  0
ARC
  5
156C4
  8
AM_0
 10
649.33959931342406
 20
234.92637404048679
 30
0.0
 40
1.330000999999998
 50
89.999999999999986
 51
269.99999700000228
  0
ARC
  5
156C5
  8
AM_0
 10
650.56088931342458
 20
234.9363840404867
 30
0.0
 40
1.000037999999998
 50
89.500710000004887
 51
270.49928399999988
  0
LINE
  5
156C6
  8
AM_0
 10
619.50963598314024
 20
216.56644404048691
 30
0.0
 11
648.00963598314024
 21
216.56644404048691
 31
0.0
  0
ARC
  5
156C7
  8
AM_0
 10
619.50963598314024
 20
222.9364440404868
 30
0.0
 40
0.9999999999999998
 50
89.999999999999986
 51
180.0
1001
GENIUS_GENOBJ-N-FIL_13
1002
{
1000
OWNER
1000
GEN
1002
}
1001
GENIUS_GENODEF_13
1002
{
1000
HIER
1070
     0
1002
}
1002
{
1000
MANEDIT
1070
     0
1002
}
1002
{
1000
NOSEL
1070
     0
1002
}
1002
{
1000
BEHIND
1070
     0
1002
}
1002
{
1000
OTHER
1070
     0
1002
}
1002
{
1000
REACTOR
1002
}
  0
ARC
  5
156C8
  8
AM_0
 10
619.50963598314024
 20
217.56644404048669
 30
0.0
 40
0.9999999999999998
 50
180.0
 51
270.0
1001
GENIUS_GENOBJ-N-FIL_13
1002
{
1000
OWNER
1000
GEN
1002
}
1001
GENIUS_GENODEF_13
1002
{
1000
HIER
1070
     0
1002
}
1002
{
1000
MANEDIT
1070
     0
1002
}
1002
{
1000
NOSEL
1070
     0
1002
}
1002
{
1000
BEHIND
1070
     0
1002
}
1002
{
1000
OTHER
1070
     0
1002
}
1002
{
1000
REACTOR
1002
}
  0
LINE
  5
156C9
  8
AM_0
 10
618.50963598314024
 20
222.93644404048669
 30
0.0
 11
618.50963598314024
 21
217.56644404048669
 31
0.0
  0
ARC
  5
156CA
  8
AM_0
 10
650.56088931342435
 20
224.9363840404869
 30
0.0
 40
1.000037999999998
 50
89.500710000004887
 51
270.49928399999988
  0
ARC
  5
156CB
  8
AM_0
 10
649.33959931342406
 20
264.94645404048669
 30
0.0
 40
1.330000999999998
 50
90.000002999997605
 51
270.0
  0
ARC
  5
156CC
  8
AM_0
 10
649.27960931342454
 20
254.94144404048669
 30
0.0
 40
1.265004999999999
 50
90.000002999997605
 51
270.0
  0
ARC
  5
156CD
  8
AM_0
 10
649.27960931342454
 20
244.93138404048679
 30
0.0
 40
1.265004999999999
 50
89.999999999999986
 51
269.99999700000228
  0
ARC
  5
156CE
  8
AM_0
 10
619.50963598314024
 20
276.93638404048681
 30
0.0
 40
0.9999999999999998
 50
180.0
 51
270.0
1001
GENIUS_GENOBJ-N-FIL_13
1002
{
1000
OWNER
1000
GEN
1002
}
1001
GENIUS_GENODEF_13
1002
{
1000
HIER
1070
     0
1002
}
1002
{
1000
MANEDIT
1070
     0
1002
}
1002
{
1000
NOSEL
1070
     0
1002
}
1002
{
1000
BEHIND
1070
     0
1002
}
1002
{
1000
OTHER
1070
     0
1002
}
1002
{
1000
REACTOR
1002
}
  0
ARC
  5
156CF
  8
AM_0
 10
650.56088931342458
 20
254.93644404048669
 30
0.0
 40
1.000037999999998
 50
89.500716000000111
 51
270.49928999999509
  0
ARC
  5
156D0
  8
AM_0
 10
650.56088931342458
 20
244.9363840404869
 30
0.0
 40
1.000037999999998
 50
89.500710000004887
 51
270.49928399999988
  0
ARC
  5
156D1
  8
AM_0
 10
650.56088931342458
 20
264.93644404048672
 30
0.0
 40
1.000037999999998
 50
89.500716000000111
 51
270.49928999999509
  0
ARC
  5
156D2
  8
AM_0
 10
650.56088931342458
 20
274.9363840098917
 30
0.0
 40
1.000037999999998
 50
89.500716000000111
 51
270.49928999999509
  0
LINE
  5
156D4
  8
AM_0
 10
721.81960598314015
 20
189.80638404048671
 30
0.0
 11
722.7396159831402
 21
193.68638404048679
 31
0.0
  0
LINE
  5
156D5
  8
AM_0
 10
721.83959598314016
 20
188.14637404048679
 30
0.0
 11
722.71959598314015
 21
191.67637404048659
 31
0.0
  0
LINE
  5
156D6
  8
AM_0
 10
705.00963598314024
 20
188.04637404048691
 30
0.0
 11
705.00963598314024
 21
195.45637404048659
 31
0.0
  0
ARC
  5
156D7
  8
AM_0
 10
706.51140598314009
 20
190.16456404048679
 30
0.0
 40
1.5017978999999979
 50
90.068549999998893
 51
179.93145000000101
  0
LINE
  5
156D8
  8
AM_0
 10
719.86962598314005
 20
188.2663740404868
 30
0.0
 11
706.50963598314013
 21
188.2663740404868
 31
0.0
  0
LINE
  5
156D9
  8
AM_0
 10
719.89962598314014
 20
186.6363640404868
 30
0.0
 11
706.39962598314014
 21
186.6363640404868
 31
0.0
  0
ARC
  5
156DA
  8
AM_0
 10
703.01241598314027
 20
188.04359404048679
 30
0.0
 40
1.9972083999999981
 50
269.91985700000038
 51
0.0801399999989048
  0
ARC
  5
156DB
  8
AM_0
 10
703.00713598313996
 20
186.01121404048681
 30
0.0
 40
1.994845199999999
 50
270.07165800000439
 51
345.63719999999978
  0
ARC
  5
156DC
  8
AM_0
 10
703.01506598314018
 20
186.69093404048681
 30
0.0
 40
1.9945768999999991
 50
269.84400800000009
 51
0.1559900000027699
  0
ARC
  5
156DD
  8
AM_0
 10
703.01323598314013
 20
190.07276404048679
 30
0.0
 40
1.9963852999999989
 50
269.896163
 51
0.1038400000025922
  0
ARC
  5
156DE
  8
AM_0
 10
706.39598598314012
 20
185.12950404048681
 30
0.0
 40
1.5068882999999991
 50
89.862229999999485
 51
165.12307000000069
  0
ARC
  5
156DF
  8
AM_0
 10
706.51345598314026
 20
186.7625240404868
 30
0.0
 40
1.5038474999999989
 50
90.146399999996433
 51
179.85360000000341
  0
ARC
  5
156E0
  8
AM_0
 10
719.90230598314031
 20
188.63417404048681
 30
0.0
 40
1.9977811999999979
 50
269.92308099999781
 51
345.86776999999688
  0
ARC
  5
156E1
  8
AM_0
 10
719.87682598314018
 20
190.26185404048681
 30
0.0
 40
1.995482299999999
 50
269.79345799999908
 51
346.80592000000109
  0
LINE
  5
156E9
  8
AM_0
 10
736.50353598313995
 20
234.7145540404868
 30
0.0
 11
736.00353598314007
 21
231.9445640404866
 31
0.0
  0
ARC
  5
156EA
  8
AM_0
 10
729.00060598314008
 20
232.94541404048661
 30
0.0
 40
0.9910124499999998
 50
89.478000000004286
 51
180.5220023800002
  0
ARC
  5
156EB
  8
AM_0
 10
720.45833598314005
 20
234.9363840404867
 30
0.0
 40
1.000037999999998
 50
269.50071600000012
 51
90.499289999994986
  0
ARC
  5
156EC
  8
AM_0
 10
721.67962598314023
 20
234.92637404048679
 30
0.0
 40
1.330000999999998
 50
270.00000299999761
 51
89.999999999999986
  0
ARC
  5
156ED
  8
AM_0
 10
733.00054598314011
 20
234.94547404048669
 30
0.0
 40
1.009131199999999
 50
270.51612600000101
 51
359.48387000000042
  0
ARC
  5
156EE
  8
AM_0
 10
704.00963598314024
 20
234.9363840404867
 30
0.0
 40
1.0000031999999981
 50
270.00000299999761
 51
89.999999999999986
  0
LINE
  5
156EF
  8
AM_0
 10
734.00963598314013
 20
201.91676404048681
 30
0.0
 11
734.00963598314013
 21
244.9363840404869
 31
0.0
  0
LINE
  5
156F0
  8
AM_0
 10
735.50963598314013
 20
269.93638404048693
 30
0.0
 11
735.50963598314013
 21
229.93638404048679
 31
0.0
  0
ARC
  5
156F1
  8
AM_0
 10
718.38843998378718
 20
212.26832404048679
 30
0.0
 40
6.0039071999999978
 50
225.22369300000389
 51
266.3827139999957
  0
LINE
  5
156F2
  8
AM_0
 10
719.83962598313997
 20
191.66636404048691
 30
0.0
 11
706.50963598314013
 21
191.66636404048691
 31
0.0
  0
LINE
  5
156F3
  8
AM_0
 10
719.77962598314025
 20
196.95637404048691
 30
0.0
 11
706.50963598314013
 21
196.95637404048691
 31
0.0
  0
ARC
  5
156F4
  8
AM_0
 10
718.84466998378707
 20
208.3386040404869
 30
0.0
 40
5.0078935999999974
 50
99.598720000001094
 51
174.52532000000039
  0
ARC
  5
156F5
  8
AM_0
 10
706.51528598314007
 20
195.45069404048681
 30
0.0
 40
1.5056744999999989
 50
90.215519999998804
 51
179.78447000000099
  0
ARC
  5
156F6
  8
AM_0
 10
714.85971998378727
 20
208.72621404048689
 30
0.0
 40
1.0041366999999981
 50
174.84883999999539
 51
225.7974360000041
  0
ARC
  5
156F7
  8
AM_0
 10
704.00963598314024
 20
214.9363840404869
 30
0.0
 40
1.0000031999999981
 50
270.00000299999761
 51
89.999999999999986
  0
ARC
  5
156F8
  8
AM_0
 10
711.45961598314045
 20
214.9363840404869
 30
0.0
 40
1.0000031999999981
 50
270.00000299999761
 51
89.999999999999986
  0
ARC
  5
156F9
  8
AM_0
 10
712.32961598314023
 20
214.8913740404868
 30
0.0
 40
1.6750062999999991
 50
270.00000299999761
 51
89.999999999999986
  0
ARC
  5
156FA
  8
AM_0
 10
704.00963598314024
 20
224.9363840404869
 30
0.0
 40
1.0000031999999981
 50
270.00000299999761
 51
89.999999999999986
  0
ARC
  5
156FB
  8
AM_0
 10
712.54961598314014
 20
224.9113640404868
 30
0.0
 40
1.465000399999999
 50
270.00000299999761
 51
89.999999999999986
  0
ARC
  5
156FC
  8
AM_0
 10
711.45961598314045
 20
224.9363840404869
 30
0.0
 40
1.0000031999999981
 50
270.00000299999761
 51
89.999999999999986
  0
LINE
  5
156FD
  8
AM_0
 10
718.00963598314013
 20
201.58637404048679
 30
0.0
 11
718.00963598314013
 21
215.6263840404867
 31
0.0
  0
ARC
  5
156FE
  8
AM_0
 10
731.70397598314014
 20
207.82667404048681
 30
0.0
 40
1.0103179999999981
 50
270.32013999999481
 51
302.6885800000012
  0
ARC
  5
156FF
  8
AM_0
 10
731.7173759831403
 20
208.9630240404868
 30
0.0
 40
1.0067359999999981
 50
270.69806099999852
 51
300.58643000000149
  0
ARC
  5
15700
  8
AM_0
 10
731.75133598314005
 20
204.44956404048679
 30
0.0
 40
1.0131911999999981
 50
269.90372399999882
 51
298.1687600000007
  0
ARC
  5
15701
  8
AM_0
 10
731.71874598314025
 20
201.19813404048679
 30
0.0
 40
1.001807999999998
 50
270.62281999999732
 51
300.66166999999479
  0
ARC
  5
15702
  8
AM_0
 10
731.7320459831401
 20
202.3408040404868
 30
0.0
 40
1.005138299999998
 50
272.14229099999739
 51
298.36794000000208
  0
ARC
  5
15703
  8
AM_0
 10
731.71611598314007
 20
203.3074740404868
 30
0.0
 40
1.0112084999999991
 50
270.7656869999991
 51
300.5188099999977
  0
LINE
  5
15704
  8
AM_0
 10
724.2196259831403
 20
198.89637404048679
 30
0.0
 11
721.79961598314014
 21
198.89637404048679
 31
0.0
  0
ARC
  5
15705
  8
AM_0
 10
724.18132598314014
 20
191.30927404048671
 30
0.0
 40
1.507096899999999
 50
90.064819999995194
 51
165.90217999999581
  0
LINE
  5
15706
  8
AM_0
 10
724.17962598314011
 20
192.81639404048661
 30
0.0
 11
722.52962598314014
 21
192.81639404048661
 31
0.0
  0
ARC
  5
15707
  8
AM_0
 10
724.20043598314021
 20
193.33357404048689
 30
0.0
 40
1.5028080999999991
 50
90.03078999999498
 51
166.4221799999971
  0
LINE
  5
15708
  8
AM_0
 10
724.19960598314015
 20
194.83637404048679
 30
0.0
 11
722.13961598314017
 21
194.83637404048679
 31
0.0
  0
ARC
  5
15709
  8
AM_0
 10
724.21840598314009
 20
197.39222404048661
 30
0.0
 40
1.504139799999999
 50
89.954249999998524
 51
167.5552500000029
  0
LINE
  5
1570A
  8
AM_0
 10
728.00963598314013
 20
201.5863740404867
 30
0.0
 11
718.00963598314013
 21
201.58637404048679
 31
0.0
  0
LINE
  5
1570B
  8
AM_0
 10
728.00963598314013
 20
192.55599634263049
 30
0.0
 11
723.18962598314022
 21
192.43638404048679
 31
0.0
  0
ARC
  5
1570C
  8
AM_0
 10
719.78777598314025
 20
198.94978404048689
 30
0.0
 40
1.9934333999999989
 50
269.76588399999918
 51
349.78803000000022
  0
LINE
  5
1570D
  8
AM_0
 10
722.28960598313995
 20
201.58634404048669
 30
0.0
 11
721.74959598314024
 21
198.59635404048669
 31
0.0
  0
LINE
  5
1570E
  8
AM_0
 10
721.78960598313995
 20
193.24638404048679
 30
0.0
 11
722.74962598314016
 21
197.7163840404869
 31
0.0
  0
ARC
  5
1570F
  8
AM_0
 10
719.83794598314012
 20
193.66175404048661
 30
0.0
 40
1.995389499999999
 50
270.04806699999779
 51
347.98461999999989
  0
LINE
  5
15710
  8
AM_0
 10
731.76961598314017
 20
201.33637404048679
 30
0.0
 11
728.50963598314036
 21
201.33637404048679
 31
0.0
  0
LINE
  5
15711
  8
AM_0
 10
731.72963598314016
 20
200.1963640404866
 30
0.0
 11
728.50963598314036
 21
200.1963640404866
 31
0.0
  0
LINE
  5
15712
  8
AM_0
 10
728.00963598314013
 20
207.24638404048679
 30
0.0
 11
718.00963598314013
 21
207.24638404048679
 31
0.0
  0
LINE
  5
15713
  8
AM_0
 10
731.70961598314022
 20
206.8163940404867
 30
0.0
 11
728.00963598314013
 21
206.8163940404867
 31
0.0
  0
ARC
  5
15714
  8
AM_0
 10
729.01503598314014
 20
208.9617740404868
 30
0.0
 40
1.005422699999998
 50
180.30819238000211
 51
269.69181099999952
  0
LINE
  5
15715
  8
AM_0
 10
731.72963598314016
 20
202.2963740404868
 30
0.0
 11
728.00963598314013
 21
202.2963740404868
 31
0.0
  0
ARC
  5
15716
  8
AM_0
 10
729.01668598313995
 20
204.44343404048681
 30
0.0
 40
1.0070831999999981
 50
180.40157798000081
 51
269.59842200000139
  0
LINE
  5
15717
  8
AM_0
 10
731.72963598314016
 20
207.95637404048671
 30
0.0
 11
729.00963598314013
 21
207.95637404048671
 31
0.0
  0
LINE
  5
15718
  8
AM_0
 10
731.74962598314005
 20
203.4363840404867
 30
0.0
 11
729.00963598314013
 21
203.4363840404867
 31
0.0
  0
ARC
  5
15719
  8
AM_0
 10
733.00246598314016
 20
201.92655404048679
 30
0.0
 40
1.007194199999998
 50
300.23341999999798
 51
0.5576799999999365
  0
LINE
  5
1571A
  8
AM_0
 10
732.20961598314045
 20
201.45637404048671
 30
0.0
 11
733.44963598313996
 21
202.07636404048671
 31
0.0
  0
LINE
  5
1571B
  8
AM_0
 10
732.00963598314013
 20
200.45637404048671
 30
0.0
 11
732.00963598314013
 21
200.97636404048691
 31
0.0
  0
LINE
  5
1571C
  8
AM_0
 10
732.22960598314023
 20
200.3363740404867
 30
0.0
 11
733.5096059831402
 21
201.05638404048671
 31
0.0
  0
ARC
  5
1571D
  8
AM_0
 10
733.00789598314032
 20
208.6790040404868
 30
0.0
 40
1.0017338999999981
 50
302.73763000000417
 51
359.85046000000261
  0
ARC
  5
1571E
  8
AM_0
 10
733.00408598314016
 20
209.7056440404867
 30
0.0
 40
1.005592899999999
 50
300.18133000000012
 51
359.47162000000122
  0
ARC
  5
1571F
  8
AM_0
 10
733.00463598314025
 20
205.1074040404867
 30
0.0
 40
1.0050607999999981
 50
297.55881000000392
 51
359.37160000000108
  0
ARC
  5
15720
  8
AM_0
 10
733.01064598314019
 20
204.0818340404868
 30
0.0
 40
0.9989832599999996
 50
299.96536000000339
 51
359.68761000000097
  0
LINE
  5
15721
  8
AM_0
 10
732.00963598314013
 20
207.1163740404869
 30
0.0
 11
732.00963598314013
 21
207.5963840404867
 31
0.0
  0
LINE
  5
15722
  8
AM_0
 10
732.00963598314013
 20
202.55638404048679
 30
0.0
 11
732.00963598314013
 21
203.09638404048681
 31
0.0
  0
LINE
  5
15723
  8
AM_0
 10
732.22960598314023
 20
208.0963840404867
 30
0.0
 11
733.5096059831402
 21
208.8364140404868
 31
0.0
  0
LINE
  5
15724
  8
AM_0
 10
732.22963598314038
 20
202.4363540404868
 30
0.0
 11
733.50963598314013
 21
203.21635404048681
 31
0.0
  0
LINE
  5
15725
  8
AM_0
 10
732.24962598314016
 20
206.9763640404868
 30
0.0
 11
733.54964598314029
 21
207.83634404048669
 31
0.0
  0
LINE
  5
15726
  8
AM_0
 10
732.22963598314038
 20
203.55638404048671
 30
0.0
 11
733.46962598313996
 21
204.21635404048669
 31
0.0
  0
ARC
  5
15727
  8
AM_0
 10
733.0065859831401
 20
202.97627404048669
 30
0.0
 40
1.003051899999998
 50
296.21265000000159
 51
0.0057699999976855
  0
LINE
  5
15728
  8
AM_0
 10
729.00963598314013
 20
225.9363840404867
 30
0.0
 11
733.00963598314013
 21
225.9363840404867
 31
0.0
  0
LINE
  5
15729
  8
AM_0
 10
729.00963598314013
 20
233.93638404048679
 30
0.0
 11
733.00963598314013
 21
233.93638404048679
 31
0.0
  0
ARC
  5
1572A
  8
AM_0
 10
731.79638598314023
 20
215.2625840404867
 30
0.0
 40
1.0062370999999981
 50
269.61524400000241
 51
293.00461999999879
  0
ARC
  5
1572B
  8
AM_0
 10
731.86696598313995
 20
217.2113740404867
 30
0.0
 40
1.015145099999998
 50
269.02161899999908
 51
286.1676699999993
  0
LINE
  5
1572C
  8
AM_0
 10
729.00963598314013
 20
223.9363840404867
 30
0.0
 11
733.00963598314013
 21
223.9363840404867
 31
0.0
  0
ARC
  5
1572D
  8
AM_0
 10
729.00060598314008
 20
222.9454140404867
 30
0.0
 40
0.9910124499999998
 50
89.478000000004286
 51
180.5220023800002
  0
LINE
  5
1572E
  8
AM_0
 10
728.00963598314013
 20
215.6263840404867
 30
0.0
 11
718.00963598314013
 21
215.6263840404867
 31
0.0
  0
LINE
  5
1572F
  8
AM_0
 10
731.78963598314022
 20
214.25636404048669
 30
0.0
 11
728.70961598314022
 21
214.25636404048669
 31
0.0
  0
ARC
  5
15730
  8
AM_0
 10
729.01592598314039
 20
217.2026840404869
 30
0.0
 40
1.0063294999999981
 50
180.3592537599973
 51
269.64074800000088
  0
LINE
  5
15731
  8
AM_0
 10
731.84963598314016
 20
216.1963640404868
 30
0.0
 11
729.00963598314013
 21
216.1963640404868
 31
0.0
  0
ARC
  5
15732
  8
AM_0
 10
729.01751598314013
 20
226.94425404048681
 30
0.0
 40
1.0079203999999991
 50
180.4484899600013
 51
269.55151199999528
  0
ARC
  5
15733
  8
AM_0
 10
733.01009598313999
 20
215.78105404048671
 30
0.0
 40
0.9995326999999996
 50
292.3150500000005
 51
359.73186999999979
  0
LINE
  5
15734
  8
AM_0
 10
732.00963598314013
 20
214.55638404048679
 30
0.0
 11
732.00963598314013
 21
215.61637404048679
 31
0.0
  0
LINE
  5
15735
  8
AM_0
 10
732.14962598314025
 20
216.23637404048679
 30
0.0
 11
733.28963598313999
 21
216.59635404048669
 31
0.0
  0
ARC
  5
15736
  8
AM_0
 10
733.00518598314022
 20
217.55970404048659
 30
0.0
 40
1.004450099999999
 50
286.45035000000331
 51
359.80985000000021
  0
LINE
  5
15737
  8
AM_0
 10
732.18962598314022
 20
214.3363740404867
 30
0.0
 11
733.38961598314029
 21
214.8563640404868
 31
0.0
  0
LINE
  5
15738
  8
AM_0
 10
735.50963598314013
 20
229.9363540404868
 30
0.0
 11
734.00963598314013
 21
229.8163540404868
 31
0.0
  0
LINE
  5
15739
  8
AM_0
 10
736.00353598314007
 20
231.9445640404866
 30
0.0
 11
735.50350598314014
 21
231.98457404048679
 31
0.0
  0
LINE
  5
1573A
  8
AM_0
 10
732.00963598314013
 20
224.3163940404867
 30
0.0
 11
732.00963598314013
 21
225.67637404048679
 31
0.0
  0
ARC
  5
1573B
  8
AM_0
 10
733.01741598314015
 20
224.94419404048671
 30
0.0
 40
0.9922232599999995
 50
359.54915999999707
 51
90.450850000000827
  0
ARC
  5
1573C
  8
AM_0
 10
733.00054598314011
 20
224.9454740404868
 30
0.0
 40
1.009131199999999
 50
270.51612600000101
 51
359.48387000000042
  0
ARC
  5
1573D
  8
AM_0
 10
704.00963598314024
 20
254.9363840404869
 30
0.0
 40
1.000000699999998
 50
270.00000299999761
 51
89.999999999999986
  0
ARC
  5
1573E
  8
AM_0
 10
704.00963598314024
 20
244.9363840404869
 30
0.0
 40
1.0000031999999981
 50
270.00000299999761
 51
89.999999999999986
  0
ARC
  5
1573F
  8
AM_0
 10
704.00963598314024
 20
264.9363840404867
 30
0.0
 40
1.000000699999998
 50
270.00000299999761
 51
89.999999999999986
  0
ARC
  5
15740
  8
AM_0
 10
704.00963598314024
 20
274.93638404048693
 30
0.0
 40
1.000000699999998
 50
270.00000299999761
 51
89.999999999999986
  0
ARC
  5
15741
  8
AM_0
 10
733.00054598314011
 20
254.92729404048669
 30
0.0
 40
1.009131199999999
 50
0.5161299999995606
 51
89.483870000000366
  0
ARC
  5
15742
  8
AM_0
 10
721.73949598314005
 20
254.92637404048679
 30
0.0
 40
1.270038399999998
 50
269.5548109999998
 51
90.445189999999073
  0
ARC
  5
15743
  8
AM_0
 10
720.44960598314015
 20
254.9363840404869
 30
0.0
 40
1.000012399999999
 50
270.00000299999761
 51
89.999999999999986
  0
ARC
  5
15744
  8
AM_0
 10
729.00060598314008
 20
256.92735404048682
 30
0.0
 40
0.9910124499999998
 50
179.47800000000419
 51
270.52199999999573
  0
LINE
  5
15745
  8
AM_0
 10
736.50353598313995
 20
234.71452404048671
 30
0.0
 11
736.50353598313995
 21
265.15815404048692
 31
0.0
  0
LINE
  5
15746
  8
AM_0
 10
729.00963598314013
 20
245.93638404048679
 30
0.0
 11
733.00963598314013
 21
245.93638404048679
 31
0.0
  0
LINE
  5
15747
  8
AM_0
 10
729.00963598314013
 20
253.93638404048679
 30
0.0
 11
733.00963598314013
 21
253.93638404048679
 31
0.0
  0
LINE
  5
15748
  8
AM_0
 10
729.00963598314013
 20
243.93638404048679
 30
0.0
 11
733.00963598314013
 21
243.93638404048679
 31
0.0
  0
LINE
  5
15749
  8
AM_0
 10
729.00963598314013
 20
235.93638404048679
 30
0.0
 11
733.00963598314013
 21
235.93638404048679
 31
0.0
  0
ARC
  5
1574A
  8
AM_0
 10
720.45833598314005
 20
244.9363840404869
 30
0.0
 40
1.000037999999998
 50
269.50071600000012
 51
90.499289999994986
  0
ARC
  5
1574B
  8
AM_0
 10
721.73961598314031
 20
244.93138404048679
 30
0.0
 40
1.265004999999999
 50
270.00000299999761
 51
89.999999999999986
  0
ARC
  5
1574C
  8
AM_0
 10
729.01751598314013
 20
236.94425404048681
 30
0.0
 40
1.0079203999999991
 50
180.4484899600013
 51
269.55151199999528
  0
ARC
  5
1574D
  8
AM_0
 10
729.00060598314008
 20
242.9454140404867
 30
0.0
 40
0.9910124499999998
 50
89.478000000004286
 51
180.5220023800002
  0
ARC
  5
1574E
  8
AM_0
 10
729.01751598314013
 20
252.92848404048689
 30
0.0
 40
1.0079203999999991
 50
90.448489999997136
 51
179.55151000000279
  0
ARC
  5
1574F
  8
AM_0
 10
729.01751598314013
 20
246.94425404048681
 30
0.0
 40
1.0079203999999991
 50
180.4484899600013
 51
269.55151199999528
  0
LINE
  5
15750
  8
AM_0
 10
732.00963598314013
 20
244.3363740404867
 30
0.0
 11
732.00963598314013
 21
245.49638404048679
 31
0.0
  0
ARC
  5
15751
  8
AM_0
 10
733.01741598314015
 20
244.94419404048671
 30
0.0
 40
0.9922232599999995
 50
359.54915999999707
 51
90.450850000000827
  0
ARC
  5
15752
  8
AM_0
 10
733.01741598314015
 20
234.94419404048691
 30
0.0
 40
0.9922232599999995
 50
359.54915999999707
 51
90.450850000000827
  0
ARC
  5
15753
  8
AM_0
 10
733.00054598314011
 20
244.9454740404868
 30
0.0
 40
1.009131199999999
 50
270.51612600000101
 51
359.48387000000042
  0
LINE
  5
15754
  8
AM_0
 10
732.00963598314013
 20
234.3363740404869
 30
0.0
 11
732.00963598314013
 21
235.55638404048679
 31
0.0
  0
POINT
  5
15755
  8
AM_0
 10
736.50353598313995
 20
249.9363840404869
 30
0.0
  0
LINE
  5
15756
  8
AM_0
 10
732.00963598314013
 20
255.5363640404868
 30
0.0
 11
732.00963598314013
 21
254.3763840404869
 31
0.0
  0
ARC
  5
15757
  8
AM_0
 10
733.01741598314015
 20
254.92857404048681
 30
0.0
 40
0.9922232599999995
 50
269.54915499999811
 51
0.4508500000008747
  0
LINE
  5
15758
  8
AM_0
 10
729.00963598314013
 20
273.9363840404867
 30
0.0
 11
733.00963598314013
 21
273.9363840404867
 31
0.0
  0
LINE
  5
15759
  8
AM_0
 10
729.00963598314013
 20
275.9363840404867
 30
0.0
 11
733.00963598314013
 21
275.9363840404867
 31
0.0
  0
LINE
  5
1575A
  8
AM_0
 10
729.00963598314013
 20
263.93638404048681
 30
0.0
 11
733.00963598314013
 21
263.93638404048681
 31
0.0
  0
LINE
  5
1575B
  8
AM_0
 10
729.00963598314013
 20
265.93638404048681
 30
0.0
 11
733.00963598314013
 21
265.93638404048681
 31
0.0
  0
LINE
  5
1575C
  8
AM_0
 10
729.00963598314013
 20
255.93638404048679
 30
0.0
 11
733.00963598314013
 21
255.93638404048679
 31
0.0
  0
ARC
  5
1575D
  8
AM_0
 10
729.00060598314008
 20
266.92735404048682
 30
0.0
 40
0.9910124499999998
 50
179.47800000000419
 51
270.52199999999573
  0
ARC
  5
1575E
  8
AM_0
 10
721.67748598313995
 20
264.9463640404868
 30
0.0
 40
1.3300231999999981
 50
269.66153200000082
 51
90.338480000003955
  0
ARC
  5
1575F
  8
AM_0
 10
720.44960598314015
 20
264.9363840404867
 30
0.0
 40
1.000012399999999
 50
270.00000299999761
 51
89.999999999999986
  0
ARC
  5
15760
  8
AM_0
 10
729.01751598314013
 20
262.92848404048681
 30
0.0
 40
1.0079203999999991
 50
90.448489999997136
 51
179.55151000000279
  0
ARC
  5
15761
  8
AM_0
 10
720.45842598314027
 20
274.93638404048693
 30
0.0
 40
1.0000386999999991
 50
269.4956679999986
 51
90.504339999996859
  0
ARC
  5
15762
  8
AM_0
 10
721.54692598314023
 20
274.95637404048682
 30
0.0
 40
1.460102599999999
 50
269.32100700000188
 51
90.678999999997785
  0
ARC
  5
15763
  8
AM_0
 10
729.00060598314008
 20
276.92735404048682
 30
0.0
 40
0.9910124499999998
 50
179.47800000000419
 51
270.52199999999573
  0
ARC
  5
15764
  8
AM_0
 10
729.01751598314013
 20
272.92848404048692
 30
0.0
 40
1.0079203999999991
 50
90.448489999997136
 51
179.55151000000279
  0
LINE
  5
15765
  8
AM_0
 10
736.50353598313995
 20
265.15815404048692
 30
0.0
 11
736.00353598314007
 21
267.92817404048679
 31
0.0
  0
LINE
  5
15766
  8
AM_0
 10
732.00963598314013
 20
265.53636404048677
 30
0.0
 11
732.00963598314013
 21
264.3163940404869
 31
0.0
  0
ARC
  5
15767
  8
AM_0
 10
733.01741598314015
 20
264.92857404048681
 30
0.0
 40
0.9922232599999995
 50
269.54915499999811
 51
0.4508500000008747
  0
ARC
  5
15768
  8
AM_0
 10
733.00054598314011
 20
264.9272940404868
 30
0.0
 40
1.009131199999999
 50
0.5161299999995606
 51
89.483870000000366
  0
LINE
  5
15769
  8
AM_0
 10
736.00353598314007
 20
267.92817404048679
 30
0.0
 11
735.50353598314007
 21
267.88816404048669
 31
0.0
  0
LINE
  5
1576A
  8
AM_0
 10
735.50963598314013
 20
269.93638404048693
 30
0.0
 11
734.00963598314013
 21
270.05638404048688
 31
0.0
  0
LINE
  5
1576B
  8
AM_0
 10
732.00963598314013
 20
275.55638404048682
 30
0.0
 11
732.00963598314013
 21
274.1963640404868
 31
0.0
  0
ARC
  5
1576C
  8
AM_0
 10
733.00054598314011
 20
274.9272940404868
 30
0.0
 40
1.009131199999999
 50
0.5161299999995606
 51
89.483870000000366
  0
ARC
  5
1576D
  8
AM_0
 10
733.01741598314015
 20
274.92857404048681
 30
0.0
 40
0.9922232599999995
 50
269.54915499999811
 51
0.4508500000008747
  0
LINE
  5
15770
  8
AM_0
 10
682.00963598314013
 20
296.2763840404869
 30
0.0
 11
588.1896259831401
 21
296.2763840404869
 31
0.0
  0
LINE
  5
15771
  8
AM_0
 10
703.00963598314024
 20
313.81637404048678
 30
0.0
 11
588.20986585643664
 21
313.81637404048689
 31
0.0
  0
LINE
  5
15772
  8
AM_0
 10
703.00963598314024
 20
315.17637404048668
 30
0.0
 11
588.20986585643664
 21
315.17637404048679
 31
0.0
  0
LINE
  5
15773
  8
AM_0
 10
703.00963598314024
 20
315.83637404048682
 30
0.0
 11
588.20986585643664
 21
315.83637404048682
 31
0.0
  0
LINE
  5
15774
  8
AM_0
 10
720.44962350223955
 20
283.9363840815729
 30
0.0
 11
648.00963598314024
 21
283.9363840815729
 31
0.0
  0
LINE
  5
15775
  8
AM_0
 10
721.33962598314019
 20
283.30638404048682
 30
0.0
 11
648.00963598314024
 21
283.30638404048682
 31
0.0
  0
LINE
  5
15776
  8
AM_0
 10
721.33962598314019
 20
286.66636404048683
 30
0.0
 11
648.00963598314024
 21
286.66636404048683
 31
0.0
  0
LINE
  5
15777
  8
AM_0
 10
648.00963598314024
 20
285.9363840404867
 30
0.0
 11
720.45961598314022
 21
285.9363840404867
 31
0.0
  0
LINE
  5
15778
  8
AM_0
 10
703.00963598314024
 20
311.7963740404868
 30
0.0
 11
648.00963598314024
 21
311.7963740404868
 31
0.0
  0
LINE
  5
1577D
  8
AM_0
 10
559.00963598314036
 20
311.43640858837023
 30
0.0
 11
534.25770042376155
 21
311.43640858836989
 31
0.0
  0
LINE
  5
1577F
  8
0
 10
483.00958199163392
 20
308.93641404048668
 30
0.0
 11
473.18439738588972
 21
308.93641404048702
 31
0.0
  0
ARC
  5
15780
  8
0
 10
445.83480872353482
 20
303.93641404048702
 30
0.0
 40
5.0
 50
12.373625116192381
 51
90.0
1001
GENIUS_GENOBJ-N-FIL_13
1002
{
1000
OWNER
1000
GEN
1002
}
1001
GENIUS_GENODEF_13
1002
{
1000
HIER
1070
     0
1002
}
1002
{
1000
MANEDIT
1070
     0
1002
}
1002
{
1000
NOSEL
1070
     0
1002
}
1002
{
1000
BEHIND
1070
     0
1002
}
1002
{
1000
OTHER
1070
     0
1002
}
1002
{
1000
REACTOR
1002
}
  0
LINE
  5
15781
  8
0
 10
445.83480872353482
 20
308.93641404048702
 30
0.0
 11
416.00962176026877
 21
308.93641404048702
 31
0.0
  0
ARC
  5
15782
  8
0
 10
459.50960305471222
 20
306.93641404048702
 30
0.0
 40
9.0
 50
270.0
 51
347.62637488380761
  0
ARC
  5
15783
  8
0
 10
459.50960305471222
 20
306.93641404048702
 30
0.0
 40
9.0
 50
192.37362511619239
 51
270.0
  0
CIRCLE
  5
15784
  8
AM_0
 10
459.50960305471222
 20
306.93641404048708
 30
0.0
 40
6.0
  0
CIRCLE
  5
15785
  8
AM_0
 10
459.50960305471222
 20
306.93641404048708
 30
0.0
 40
5.0
  0
POLYLINE
  5
15786
  8
AM_0
 66
     1
 10
0.0
 20
0.0
 30
0.0
 70
     1
  0
VERTEX
  5
15787
  8
AM_0
 10
458.06622738173809
 20
304.43641404048719
 30
0.0
  0
VERTEX
  5
15788
  8
AM_0
 10
456.6228517087639
 20
306.93641404048708
 30
0.0
  0
VERTEX
  5
15789
  8
AM_0
 10
458.06622738173809
 20
309.43641404048708
 30
0.0
  0
VERTEX
  5
1578A
  8
AM_0
 10
460.95297872768612
 20
309.43641404048708
 30
0.0
  0
VERTEX
  5
1578B
  8
AM_0
 10
462.39635440066041
 20
306.93641404048708
 30
0.0
  0
VERTEX
  5
1578C
  8
AM_0
 10
460.95297872768612
 20
304.43641404048719
 30
0.0
  0
SEQEND
  5
1578D
  8
AM_0
  0
ARC
  5
1578E
  8
0
 10
473.18439738588972
 20
303.93641404048702
 30
0.0
 40
5.0
 50
90.0
 51
167.62637488380761
1001
GENIUS_GENODEF_13
1002
{
1000
HIER
1070
     0
1002
}
1002
{
1000
MANEDIT
1070
     0
1002
}
1002
{
1000
NOSEL
1070
     0
1002
}
1002
{
1000
BEHIND
1070
     0
1002
}
1002
{
1000
OTHER
1070
     0
1002
}
1002
{
1000
REACTOR
1002
}
1001
GENIUS_GENOBJ-N-FIL_13
1002
{
1000
OWNER
1000
GEN
1002
}
  0
ARC
  5
1578F
  8
0
 10
518.99367239030505
 20
318.40181445545028
 30
0.0
 40
5.0
 50
28.886635164657829
 51
132.49561021877699
1001
GENIUS_GENOBJ-N-FIL_13
1002
{
1000
OWNER
1000
GEN
1002
}
1001
GENIUS_GENODEF_13
1002
{
1000
HIER
1070
     0
1002
}
1002
{
1000
MANEDIT
1070
     0
1002
}
1002
{
1000
NOSEL
1070
     0
1002
}
1002
{
1000
BEHIND
1070
     0
1002
}
1002
{
1000
OTHER
1070
     0
1002
}
1002
{
1000
REACTOR
1002
}
  0
LINE
  5
15790
  8
ﾁｭｳｼﾝｾﾝ
 10
507.50965457446551
 20
317.4364055307567
 30
0.0
 11
507.50965557343579
 21
344.07321904070773
 31
0.0
1001
GENIUS_GENODEF_13
1002
{
1000
HIER
1070
     0
1002
}
1002
{
1000
MANEDIT
1070
     0
1002
}
1002
{
1000
NOSEL
1070
     0
1002
}
1002
{
1000
BEHIND
1070
     0
1002
}
1002
{
1000
OTHER
1070
     0
1002
}
1002
{
1000
REACTOR
1002
}
1001
GENIUS_GENOBJ-N-CEN_13
1002
{
1000
OWNER
1000
GEN
1002
}
  0
ARC
  5
15791
  8
0
 10
507.50959917933528
 20
330.93640908332247
 30
0.0
 40
12.0
 50
166.3910249458809
 51
312.4956102187773
  0
LINE
  5
15792
  8
0
 10
519.76768409456247
 20
337.69950531749191
 30
0.0
 11
535.7677172120467
 21
308.69950919002929
 31
0.0
  0
LINE
  5
15793
  8
0
 10
495.87393042422963
 20
322.83629637901538
 30
0.0
 11
483.74181503866748
 21
310.70418099345318
 31
0.0
  0
LINE
  5
15794
  8
0
 10
522.50963598314092
 20
308.93641404048668
 30
0.0
 11
489.04511589756657
 21
308.93641404048668
 31
0.0
  0
LINE
  5
15795
  8
0
 10
499.40946369736008
 20
319.30076184028042
 30
0.0
 11
487.27734894460031
 21
307.16864708752053
 31
0.0
  0
ARC
  5
15796
  8
0
 10
485.50958199163392
 20
308.9364140404868
 30
0.0
 40
2.5
 50
135.0000000000006
 51
315.00000000000063
  0
ARC
  5
15797
  8
0
  6
CONTINUOUS
 62
     7
 10
501.5307840409198
 20
317.1794414967207
 30
0.0
 40
3.0
 50
66.510183605526422
 51
135.0000000000006
1001
GENIUS_GENODEF_13
1002
{
1000
HIER
1070
     0
1002
}
1002
{
1000
MANEDIT
1070
     0
1002
}
1002
{
1000
NOSEL
1070
     0
1002
}
1002
{
1000
BEHIND
1070
     0
1002
}
1002
{
1000
OTHER
1070
     0
1002
}
1002
{
1000
REACTOR
1002
}
1001
GENIUS_GENOBJ-N-FIL_13
1002
{
1000
OWNER
1000
GEN
1002
}
  0
CIRCLE
  5
15798
  8
0
 10
523.50960305471233
 20
301.9364140404868
 30
0.0
 40
4.0
  0
ARC
  5
15799
  8
0
 10
522.50963598314092
 20
298.93641404048702
 30
0.0
 40
10.0
 50
0.0
 51
90.0
1001
GENIUS_GENOBJ-N-FIL_13
1002
{
1000
OWNER
1000
GEN
1002
}
1001
GENIUS_GENODEF_13
1002
{
1000
HIER
1070
     0
1002
}
1002
{
1000
MANEDIT
1070
     0
1002
}
1002
{
1000
NOSEL
1070
     0
1002
}
1002
{
1000
BEHIND
1070
     0
1002
}
1002
{
1000
OTHER
1070
     0
1002
}
1002
{
1000
REACTOR
1002
}
  0
CIRCLE
  5
1579A
  8
ｷｲﾛ
 10
523.50956812638981
 20
301.93641479238448
 30
0.0
 40
5.0
  0
ARC
  5
1579B
  8
AM_0
 10
540.9381016294526
 20
284.91559988513848
 30
0.0
 40
2.999999999999996
 50
6.6607143203167842
 51
90.0
1001
GENIUS_GENODEF_13
1002
{
1000
HIER
1070
     0
1002
}
1002
{
1000
MANEDIT
1070
     0
1002
}
1002
{
1000
NOSEL
1070
     0
1002
}
1002
{
1000
BEHIND
1070
     0
1002
}
1002
{
1000
OTHER
1070
     0
1002
}
1002
{
1000
REACTOR
1002
}
1001
GENIUS_GENOBJ-N-FIL_13
1002
{
1000
OWNER
1000
GEN
1002
}
  0
LINE
  5
1579C
  8
AM_0
 10
540.9381016294526
 20
287.91559988513842
 30
0.0
 11
537.50963598314092
 21
287.91559988513808
 31
0.0
  0
ARC
  5
1579D
  8
AM_0
 10
523.5096356255126
 20
301.93641479238448
 30
0.0
 40
9.0000003576278651
 50
0.0
 51
28.886635164657829
  0
LINE
  5
1579E
  8
0
 10
523.37155855937749
 20
320.81720525005119
 30
0.0
 11
531.38983104297415
 21
306.28411839542838
 31
0.0
  0
ARC
  5
1579F
  8
AM_0
 10
523.5096356255126
 20
301.93641479238448
 30
0.0
 40
14.00000035762786
 50
0.0
 51
28.886635164657829
  0
ARC
  5
157A0
  8
0
 10
507.50959917933488
 20
330.93640908332247
 30
0.0
 40
14.00000415934085
 50
28.886635164657829
 51
90.0
  0
LINE
  5
157A1
  8
ﾁｭｳｼﾝｾﾝ
 10
494.08246859071238
 20
330.93640603432129
 30
0.0
 11
520.64646859071206
 21
330.93640503808177
 31
0.0
1001
GENIUS_GENODEF_13
1002
{
1000
HIER
1070
     0
1002
}
1002
{
1000
MANEDIT
1070
     0
1002
}
1002
{
1000
NOSEL
1070
     0
1002
}
1002
{
1000
BEHIND
1070
     0
1002
}
1002
{
1000
OTHER
1070
     0
1002
}
1002
{
1000
REACTOR
1002
}
1001
GENIUS_GENOBJ-N-CEN_13
1002
{
1000
OWNER
1000
GEN
1002
}
  0
ARC
  5
157A2
  8
0
  6
CONTINUOUS
 62
     7
 10
493.75261008066991
 20
324.95761672257498
 30
0.0
 40
3.0
 50
315.00000000000063
 51
23.489807071749912
1001
GENIUS_GENODEF_13
1002
{
1000
HIER
1070
     0
1002
}
1002
{
1000
MANEDIT
1070
     0
1002
}
1002
{
1000
NOSEL
1070
     0
1002
}
1002
{
1000
BEHIND
1070
     0
1002
}
1002
{
1000
OTHER
1070
     0
1002
}
1002
{
1000
REACTOR
1002
}
1001
GENIUS_GENOBJ-N-FIL_13
1002
{
1000
OWNER
1000
GEN
1002
}
  0
ARC
  5
157A3
  8
0
 10
490.98688854441667
 20
334.93641324266349
 30
0.0
 40
5.0
 50
346.39102494588087
 51
90.0
1001
GENIUS_GENOBJ-N-FIL_13
1002
{
1000
OWNER
1000
GEN
1002
}
1001
GENIUS_GENODEF_13
1002
{
1000
HIER
1070
     0
1002
}
1002
{
1000
MANEDIT
1070
     0
1002
}
1002
{
1000
NOSEL
1070
     0
1002
}
1002
{
1000
BEHIND
1070
     0
1002
}
1002
{
1000
OTHER
1070
     0
1002
}
1002
{
1000
REACTOR
1002
}
  0
CIRCLE
  5
157A4
  8
0
 10
507.50959917933528
 20
330.93640908332247
 30
0.0
 40
5.4999999999999973
  0
LINE
  5
157A5
  8
AM_7
  6
AM_ISO08W050X2
 10
507.50959917933528
 20
330.93640908332247
 30
0.0
 11
507.50959917933528
 21
330.93640908332247
 31
0.0
1001
GENIUS_GENODEF_13
1002
{
1000
HIER
1070
     0
1002
}
1002
{
1000
MANEDIT
1070
     0
1002
}
1002
{
1000
NOSEL
1070
     0
1002
}
1002
{
1000
BEHIND
1070
     0
1002
}
1002
{
1000
OTHER
1070
     0
1002
}
1002
{
1000
REACTOR
1002
}
1001
GENIUS_GENOBJ-N-CEN_13
1002
{
1000
OWNER
1000
GEN
1002
}
  0
LINE
  5
157A8
  8
AM_0
 10
603.50963598314024
 20
283.30638404048682
 30
0.0
 11
618.50963598314024
 21
283.30638404048682
 31
0.0
  0
LINE
  5
157A9
  8
AM_0
 10
588.1896259831401
 20
285.93638404048681
 30
0.0
 11
648.00963598314024
 21
285.9363840404867
 31
0.0
  0
LINE
  5
157AA
  8
AM_0
 10
588.1896259831401
 20
283.93638404048681
 30
0.0
 11
648.00963598314024
 21
283.93638404048681
 31
0.0
  0
LINE
  5
157AB
  8
AM_0
 10
648.00963598314024
 20
311.7963740404868
 30
0.0
 11
588.1896259831401
 21
311.79637404048691
 31
0.0
  0
LINE
  5
157AC
  8
AM_0
 10
648.00963598314024
 20
286.66636404048683
 30
0.0
 11
588.1896259831401
 21
286.66636404048683
 31
0.0
  0
ARC
  5
157AD
  8
AM_0
 10
581.00054598314023
 20
312.9272940404868
 30
0.0
 40
1.009131199999999
 50
0.5161299999995606
 51
89.483870000000366
  0
ARC
  5
157AE
  8
AM_0
 10
581.00121598314024
 20
300.96797404048681
 30
0.0
 40
1.008444499999998
 50
9.546070000003926
 51
89.522200000000396
  0
LINE
  5
157AF
  8
AM_0
 10
573.00963598314024
 20
287.07639858836978
 30
0.0
 11
563.00963598314024
 21
287.07639858836978
 31
0.0
  0
LINE
  5
157B0
  8
0
  6
CONTINUOUS
 62
     7
 10
581.00963598314024
 20
287.07636310526942
 30
0.0
 11
573.00963598314024
 21
287.07636310526942
 31
0.0
  0
LINE
  5
157B1
  8
AM_0
 10
573.00963598314024
 20
301.97640858837002
 30
0.0
 11
563.00963598314024
 21
301.97640858837002
 31
0.0
  0
LINE
  5
157B2
  8
AM_0
 10
573.00963598314024
 20
313.93640858837028
 30
0.0
 11
563.88303315554458
 21
313.93640858837028
 31
0.0
  0
ARC
  5
157B3
  8
AM_0
 10
563.88303315554458
 20
310.93640858837028
 30
0.0
 40
2.999999999999996
 50
90.0
 51
144.31466528734541
1001
GENIUS_GENOBJ-N-FIL_13
1002
{
1000
OWNER
1000
GEN
1002
}
1001
GENIUS_GENODEF_13
1002
{
1000
HIER
1070
     0
1002
}
1002
{
1000
MANEDIT
1070
     0
1002
}
1002
{
1000
NOSEL
1070
     0
1002
}
1002
{
1000
BEHIND
1070
     0
1002
}
1002
{
1000
OTHER
1070
     0
1002
}
1002
{
1000
REACTOR
1002
}
  0
ARC
  5
157B4
  8
AM_0
 10
559.00963598314036
 20
314.43640858836989
 30
0.0
 40
2.999999999999996
 50
270.0
 51
324.31466528734541
1001
GENIUS_GENOBJ-N-FIL_13
1002
{
1000
OWNER
1000
GEN
1002
}
1001
GENIUS_GENODEF_13
1002
{
1000
HIER
1070
     0
1002
}
1002
{
1000
MANEDIT
1070
     0
1002
}
1002
{
1000
NOSEL
1070
     0
1002
}
1002
{
1000
BEHIND
1070
     0
1002
}
1002
{
1000
OTHER
1070
     0
1002
}
1002
{
1000
REACTOR
1002
}
  0
LINE
  5
157B5
  8
0
  6
CONTINUOUS
 62
     7
 10
581.00963598314024
 20
301.97637310526949
 30
0.0
 11
573.00963598314024
 21
301.97637310526949
 31
0.0
  0
LINE
  5
157B6
  8
0
  6
CONTINUOUS
 62
     7
 10
581.00963598314024
 20
313.93637310526952
 30
0.0
 11
573.00963598314024
 21
313.93637310526952
 31
0.0
  0
LINE
  5
157B7
  8
AM_0
 10
583.00963598314024
 20
292.79637404048691
 30
0.0
 11
583.00963598314024
 21
300.39637404048688
 31
0.0
  0
LINE
  5
157B8
  8
AM_0
 10
582.00963598314024
 20
292.79637404048691
 30
0.0
 11
582.00963598314024
 21
300.39637404048688
 31
0.0
  0
ARC
  5
157B9
  8
AM_0
 10
583.90963598314022
 20
298.39637404048682
 30
0.0
 40
1.7000007999999991
 50
0.000010000000991
 51
89.999979999997976
  0
LINE
  5
157BA
  8
AM_0
 10
588.1896259831401
 20
283.30638404048682
 30
0.0
 11
602.50963598314024
 21
283.30638404048682
 31
0.0
  0
ARC
  5
157BB
  8
AM_0
 10
587.66961598314026
 20
284.93638404048693
 30
0.0
 40
1.0000073999999981
 50
89.999999999999986
 51
270.00000299999761
  0
LINE
  5
157BC
  8
AM_0
 10
584.1896259831401
 20
283.30638404048682
 30
0.0
 11
588.1896259831401
 21
283.30638404048682
 31
0.0
  0
LINE
  5
157BD
  8
AM_0
 10
587.66961598314026
 20
285.93638404048681
 30
0.0
 11
588.1896259831401
 21
285.93638404048681
 31
0.0
  0
LINE
  5
157BE
  8
AM_0
 10
587.66961598314026
 20
283.93638404048681
 30
0.0
 11
588.1896259831401
 21
283.93638404048681
 31
0.0
  0
LINE
  5
157BF
  8
AM_0
 10
588.1896259831401
 20
286.66636404048683
 30
0.0
 11
582.00963618488072
 21
286.66636404048683
 31
0.0
  0
ARC
  5
157C0
  8
AM_0
 10
584.19573598314025
 20
284.98637404048691
 30
0.0
 40
1.680010999999999
 50
90.208029999998075
 51
269.79196900000039
  0
LINE
  5
157C1
  8
AM_0
 10
588.1896259831401
 20
296.2763840404869
 30
0.0
 11
585.60961598314032
 21
296.2763840404869
 31
0.0
  0
ARC
  5
157C2
  8
AM_0
 10
583.90963598314022
 20
294.79637404048691
 30
0.0
 40
1.699996899999999
 50
270.00000299999761
 51
359.99998000000448
  0
LINE
  5
157C3
  8
AM_0
 10
585.60961598314032
 20
294.79637404048691
 30
0.0
 11
585.60961598314032
 21
298.39637404048682
 31
0.0
  0
LINE
  5
157C4
  8
AM_0
 10
583.00963598314024
 20
292.79637404048691
 30
0.0
 11
582.00963598314024
 21
292.79637404048691
 31
0.0
  0
LINE
  5
157C5
  8
AM_0
 10
582.00963598314024
 20
295.81901404048688
 30
0.0
 11
583.00963598314024
 21
296.39634404048672
 31
0.0
  0
ARC
  5
157C6
  8
AM_0
 10
581.34877598314017
 20
297.7631640404868
 30
0.0
 40
1.4868058999999989
 50
296.38977999999901
 51
345.71726000000092
  0
LINE
  5
157C7
  8
AM_0
 10
582.00963598314024
 20
296.81901404048682
 30
0.0
 11
583.00963598314024
 21
297.39637404048688
 31
0.0
  0
LINE
  5
157C8
  8
AM_0
 10
583.00963598314024
 20
293.0963840404869
 30
0.0
 11
583.90963598314022
 21
293.0963840404869
 31
0.0
  0
ARC
  5
157C9
  8
AM_0
 10
602.50963598314024
 20
282.30638404048682
 30
0.0
 40
0.9999999999999998
 50
0.0
 51
89.999999999999986
1001
GENIUS_GENOBJ-N-FIL_13
1002
{
1000
OWNER
1000
GEN
1002
}
1001
GENIUS_GENODEF_13
1002
{
1000
HIER
1070
     0
1002
}
1002
{
1000
MANEDIT
1070
     0
1002
}
1002
{
1000
NOSEL
1070
     0
1002
}
1002
{
1000
BEHIND
1070
     0
1002
}
1002
{
1000
OTHER
1070
     0
1002
}
1002
{
1000
REACTOR
1002
}
  0
CIRCLE
  5
157CA
  8
AM_0
 10
613.50963598314024
 20
278.43641404048668
 30
0.0
 40
0.75
  0
CIRCLE
  5
157CB
  8
AM_0
 10
608.50963598314024
 20
278.43641404048668
 30
0.0
 40
0.75
  0
LINE
  5
157CC
  8
AM_0
 10
586.24962598314016
 20
310.29638404048683
 30
0.0
 11
583.51381598314015
 21
300.09638404048678
 31
0.0
  0
LINE
  5
157CD
  8
AM_0
 10
586.24962598314016
 20
314.33638404048668
 30
0.0
 11
584.69447352393172
 21
308.53826389181819
 31
0.0
  0
LINE
  5
157CE
  8
AM_0
 10
586.24962598314016
 20
313.67638404048671
 30
0.0
 11
584.32433184176466
 21
306.49825389181819
 31
0.0
  0
LINE
  5
157CF
  8
AM_0
 10
586.24962598314016
 20
312.3163840404867
 30
0.0
 11
583.60014684176485
 21
302.43825389181831
 31
0.0
  0
LINE
  5
157D0
  8
AM_0
 10
583.00963598314024
 20
300.39637404048688
 30
0.0
 11
582.00963598314024
 21
300.39637404048688
 31
0.0
  0
ARC
  5
157D1
  8
AM_0
 10
582.76275110299616
 20
309.05638404048682
 30
0.0
 40
2.0
 50
270.0
 51
344.98570240157682
1001
GENIUS_GENOBJ-N-FIL_13
1002
{
1000
OWNER
1000
GEN
1002
}
1001
GENIUS_GENODEF_13
1002
{
1000
HIER
1070
     0
1002
}
1002
{
1000
MANEDIT
1070
     0
1002
}
1002
{
1000
NOSEL
1070
     0
1002
}
1002
{
1000
BEHIND
1070
     0
1002
}
1002
{
1000
OTHER
1070
     0
1002
}
1002
{
1000
REACTOR
1002
}
  0
LINE
  5
157D2
  8
AM_0
 10
584.29164163430698
 20
305.01637404048682
 30
0.0
 11
582.39260942082956
 21
305.01637404048682
 31
0.0
  0
LINE
  5
157D3
  8
AM_0
 10
584.47403164980665
 20
307.05638404048682
 30
0.0
 11
582.76275110299616
 21
307.05638404048682
 31
0.0
  0
ARC
  5
157D4
  8
AM_0
 10
581.66842442082964
 20
302.95637404048682
 30
0.0
 40
2.0
 50
279.82304903972192
 51
344.98570240157682
1001
GENIUS_GENOBJ-N-FIL_13
1002
{
1000
OWNER
1000
GEN
1002
}
1001
GENIUS_GENODEF_13
1002
{
1000
HIER
1070
     0
1002
}
1002
{
1000
MANEDIT
1070
     0
1002
}
1002
{
1000
NOSEL
1070
     0
1002
}
1002
{
1000
BEHIND
1070
     0
1002
}
1002
{
1000
OTHER
1070
     0
1002
}
1002
{
1000
REACTOR
1002
}
  0
LINE
  5
157D5
  8
AM_0
 10
583.74447963430691
 20
300.95637404048682
 30
0.0
 11
582.0096362145307
 21
300.95637404048688
 31
0.0
  0
LINE
  5
157D6
  8
AM_0
 10
583.00963598314024
 20
300.09637404048681
 30
0.0
 11
583.90963598314022
 21
300.09637404048681
 31
0.0
  0
ARC
  5
157D7
  8
AM_0
 10
582.39260942082979
 20
307.01637404048682
 30
0.0
 40
2.0
 50
270.0
 51
344.98570240157682
1001
GENIUS_GENODEF_13
1002
{
1000
HIER
1070
     0
1002
}
1002
{
1000
MANEDIT
1070
     0
1002
}
1002
{
1000
NOSEL
1070
     0
1002
}
1002
{
1000
BEHIND
1070
     0
1002
}
1002
{
1000
OTHER
1070
     0
1002
}
1002
{
1000
REACTOR
1002
}
1001
GENIUS_GENOBJ-N-FIL_13
1002
{
1000
OWNER
1000
GEN
1002
}
  0
ARC
  5
157D8
  8
AM_0
 10
588.1992759831403
 20
313.81938404048668
 30
0.0
 40
2.0170177999999992
 50
90.273700000002734
 51
165.14839999999501
  0
ARC
  5
157D9
  8
AM_0
 10
588.1992759831403
 20
313.15938404048683
 30
0.0
 40
2.0170177999999992
 50
90.273700000002734
 51
165.14839999999501
  0
ARC
  5
157DA
  8
AM_0
 10
588.1992759831403
 20
311.79938404048681
 30
0.0
 40
2.0170177999999992
 50
90.273700000002734
 51
165.14839999999501
  0
LINE
  5
157DB
  8
AM_0
 10
585.2035783009735
 20
310.43637404048673
 30
0.0
 11
582.00963623420046
 21
310.43637404048673
 31
0.0
  0
ARC
  5
157DC
  8
AM_0
 10
588.1992759831403
 20
309.77938404048678
 30
0.0
 40
2.0170177999999992
 50
90.273700000002734
 51
165.14839999999501
  0
LINE
  5
157DD
  8
AM_0
 10
619.50963598314024
 20
283.30638404048682
 30
0.0
 11
648.00963598314024
 21
283.30638404048682
 31
0.0
  0
ARC
  5
157DE
  8
AM_0
 10
619.50963598314024
 20
282.30638404048682
 30
0.0
 40
0.9999999999999998
 50
89.999999999999986
 51
180.0
1001
GENIUS_GENOBJ-N-FIL_13
1002
{
1000
OWNER
1000
GEN
1002
}
1001
GENIUS_GENODEF_13
1002
{
1000
HIER
1070
     0
1002
}
1002
{
1000
MANEDIT
1070
     0
1002
}
1002
{
1000
NOSEL
1070
     0
1002
}
1002
{
1000
BEHIND
1070
     0
1002
}
1002
{
1000
OTHER
1070
     0
1002
}
1002
{
1000
REACTOR
1002
}
  0
LINE
  5
15819
  8
AM_0
 10
719.82961598314023
 20
308.19638404048669
 30
0.0
 11
706.50963598314024
 21
308.19638404048669
 31
0.0
  0
LINE
  5
1581A
  8
AM_0
 10
719.76961598314017
 20
302.91638404048672
 30
0.0
 11
706.50963598314024
 21
302.91638404048672
 31
0.0
  0
LINE
  5
1581B
  8
AM_0
 10
719.88961598313995
 20
313.23637404048668
 30
0.0
 11
706.38961598314017
 21
313.23637404048668
 31
0.0
  0
LINE
  5
1581C
  8
AM_0
 10
719.86962598314005
 20
311.59637404048669
 30
0.0
 11
706.50963598314024
 21
311.59637404048669
 31
0.0
  0
ARC
  5
1581D
  8
AM_0
 10
718.37024998378695
 20
287.57582404048691
 30
0.0
 40
6.0113901999999966
 50
93.439150000000865
 51
134.59596000000141
  0
ARC
  5
1581E
  8
AM_0
 10
718.8260599837871
 20
291.52796404048678
 30
0.0
 40
4.9987220999999984
 50
185.4135635000037
 51
260.5999409999983
  0
LINE
  5
1581F
  8
AM_0
 10
682.00963598314013
 20
296.2763840404869
 30
0.0
 11
718.00963598314013
 21
294.62364375865729
 31
0.0
  0
ARC
  5
15820
  8
AM_0
 10
704.00963598314024
 20
284.93638404048693
 30
0.0
 40
1.000000699999998
 50
270.00000299999761
 51
89.999999999999986
  0
ARC
  5
15821
  8
AM_0
 10
714.85940998378703
 20
291.1339540404868
 30
0.0
 40
1.0127640999999981
 50
134.49466000000089
 51
184.39325279999781
  0
ARC
  5
15822
  8
AM_0
 10
703.00029598313995
 20
309.78704404048671
 30
0.0
 40
2.0093488999999991
 50
0.2659600000003289
 51
89.734039999999638
  0
LINE
  5
15823
  8
AM_0
 10
705.00963598314024
 20
311.81637404048678
 30
0.0
 11
705.00963598314024
 21
304.41638404048678
 31
0.0
  0
ARC
  5
15824
  8
AM_0
 10
706.50231598314031
 20
304.40907404048681
 30
0.0
 40
1.4927157999999989
 50
179.71971999999951
 51
270.28027900000012
  0
ARC
  5
15825
  8
AM_0
 10
706.50347598314022
 20
309.69021404048681
 30
0.0
 40
1.4938501999999989
 50
179.7636399999989
 51
270.23636099999788
  0
ARC
  5
15826
  8
AM_0
 10
703.00170598314025
 20
313.84069404048682
 30
0.0
 40
1.9956942999999989
 50
14.97487999999842
 51
89.772649999998436
  0
ARC
  5
15827
  8
AM_0
 10
703.0021259831401
 20
313.16888404048677
 30
0.0
 40
2.007501099999998
 50
0.213699999997808
 51
89.78631000000108
  0
ARC
  5
15828
  8
AM_0
 10
703.00447598314031
 20
311.81121404048668
 30
0.0
 40
2.0051612999999988
 50
0.1472899999997176
 51
89.852710000000229
  0
ARC
  5
15829
  8
AM_0
 10
706.50548598314015
 20
313.09225404048681
 30
0.0
 40
1.4958794999999989
 50
179.84196000000071
 51
270.1580459999978
  0
ARC
  5
1582A
  8
AM_0
 10
706.37770598314034
 20
314.73243404048679
 30
0.0
 40
1.4961156999999989
 50
194.55818600000069
 51
270.45650499999601
  0
LINE
  5
1582B
  8
AM_0
 10
732.00963598314013
 20
299.41638404048678
 30
0.0
 11
732.00963598314013
 21
298.89637404048671
 31
0.0
  0
LINE
  5
1582C
  8
AM_0
 10
732.22963598314038
 20
299.53637404048681
 30
0.0
 11
733.5096059831402
 21
298.81639404048673
 31
0.0
  0
LINE
  5
1582D
  8
AM_0
 10
722.26961598314028
 20
298.27638404048668
 30
0.0
 11
721.74962598314005
 21
301.25637404048678
 31
0.0
  0
ARC
  5
1582E
  8
AM_0
 10
731.71611598314007
 20
296.5652640404868
 30
0.0
 40
1.0112084999999991
 50
59.481190000002343
 51
89.234310000002381
  0
ARC
  5
1582F
  8
AM_0
 10
731.7320459831401
 20
297.53193404048682
 30
0.0
 40
1.005138299999998
 50
61.6320599999979
 51
87.857709999999315
  0
ARC
  5
15830
  8
AM_0
 10
731.7173759831403
 20
290.90971404048679
 30
0.0
 40
1.0067359999999981
 50
59.413569999998458
 51
89.301939999998908
  0
ARC
  5
15831
  8
AM_0
 10
731.70397598314014
 20
292.04606404048678
 30
0.0
 40
1.0103179999999981
 50
57.311419999998783
 51
89.679859999998698
  0
ARC
  5
15832
  8
AM_0
 10
731.75133598314005
 20
295.4231740404868
 30
0.0
 40
1.0131911999999981
 50
61.831239999999241
 51
90.096279999999368
  0
ARC
  5
15833
  8
AM_0
 10
731.79638598314023
 20
284.61015404048692
 30
0.0
 40
1.0062370999999981
 50
66.995380000001106
 51
90.384759999995637
  0
ARC
  5
15834
  8
AM_0
 10
731.86696598313995
 20
282.66139404048681
 30
0.0
 40
1.015145099999998
 50
73.832330000000681
 51
90.978379999996932
  0
LINE
  5
15835
  8
AM_0
 10
718.00963598314013
 20
289.43638404048693
 30
0.0
 11
718.00963598314013
 21
286.65638404048678
 31
0.0
  0
LINE
  5
15836
  8
AM_0
 10
718.00963598314013
 20
298.27638404048668
 30
0.0
 11
718.00963598314013
 21
286.66636404048683
 31
0.0
  0
LINE
  5
15837
  8
AM_0
 10
728.00963598314013
 20
284.23637404048679
 30
0.0
 11
722.83786512432994
 21
284.23637404048679
 31
0.0
  0
ARC
  5
15838
  8
AM_0
 10
720.45842598314027
 20
284.93638404048693
 30
0.0
 40
1.0000386999999991
 50
269.4956679999986
 51
90.504339999996859
  0
ARC
  5
15839
  8
AM_0
 10
721.32961598314012
 20
284.97636404048683
 30
0.0
 40
1.6800001999999989
 50
270.00000299999761
 51
89.999999999999986
  0
LINE
  5
1583A
  8
AM_0
 10
731.78963598314022
 20
285.61637404048679
 30
0.0
 11
728.70961598314022
 21
285.61637404048679
 31
0.0
  0
ARC
  5
1583B
  8
AM_0
 10
729.01592598314039
 20
282.67005404048678
 30
0.0
 40
1.0063294999999981
 50
90.359249999995995
 51
179.640750000004
  0
LINE
  5
1583C
  8
AM_0
 10
731.84963598314016
 20
283.67637404048679
 30
0.0
 11
729.00963598314013
 21
283.67637404048679
 31
0.0
  0
ARC
  5
1583D
  8
AM_0
 10
728.70519598314024
 20
286.31193404048679
 30
0.0
 40
0.69557893
 50
179.63466000000051
 51
270.36533599999723
  0
LINE
  5
1583E
  8
AM_0
 10
728.00963598314013
 20
292.61637404048679
 30
0.0
 11
718.00963598314013
 21
292.61637404048679
 31
0.0
  0
LINE
  5
1583F
  8
AM_0
 10
728.00963598314013
 20
298.27638404048668
 30
0.0
 11
718.00963598314013
 21
298.27638404048668
 31
0.0
  0
LINE
  5
15840
  8
AM_0
 10
731.76961598314017
 20
298.53637404048692
 30
0.0
 11
728.50963598314036
 21
298.53637404048692
 31
0.0
  0
LINE
  5
15841
  8
AM_0
 10
731.72963598314016
 20
297.57636404048679
 30
0.0
 11
728.00963598314013
 21
297.57636404048679
 31
0.0
  0
ARC
  5
15842
  8
AM_0
 10
729.01668598313995
 20
295.42930404048678
 30
0.0
 40
1.0070831999999981
 50
90.401579999998404
 51
179.59842000000151
  0
LINE
  5
15843
  8
AM_0
 10
731.70961598314022
 20
293.05638404048682
 30
0.0
 11
728.00963598314013
 21
293.05638404048682
 31
0.0
  0
ARC
  5
15844
  8
AM_0
 10
729.01503598314014
 20
290.9109640404867
 30
0.0
 40
1.005422699999998
 50
90.308189999996685
 51
179.69181000000319
  0
LINE
  5
15845
  8
AM_0
 10
731.72963598314016
 20
291.91636404048671
 30
0.0
 11
729.00963598314013
 21
291.91636404048671
 31
0.0
  0
LINE
  5
15846
  8
AM_0
 10
731.74962598314005
 20
296.43638404048681
 30
0.0
 11
729.00963598314013
 21
296.43638404048681
 31
0.0
  0
ARC
  5
15847
  8
AM_0
 10
728.51598598314024
 20
298.03001404048672
 30
0.0
 40
0.50640076
 50
90.719699999998198
 51
179.28029999999521
  0
ARC
  5
15848
  8
AM_0
 10
733.01009598313999
 20
284.09168404048688
 30
0.0
 40
0.9995326999999996
 50
0.2681300000001308
 51
67.684949999999489
  0
LINE
  5
15849
  8
AM_0
 10
732.00963598314013
 20
285.31639404048678
 30
0.0
 11
732.00963598314013
 21
284.25636404048669
 31
0.0
  0
LINE
  5
1584A
  8
AM_0
 10
732.14965598314029
 20
283.6363640404868
 30
0.0
 11
733.28963598313999
 21
283.27635404048681
 31
0.0
  0
ARC
  5
1584B
  8
AM_0
 10
733.00518598314022
 20
282.3130340404868
 30
0.0
 40
1.004450099999999
 50
0.1901499999997262
 51
73.549649999996703
  0
LINE
  5
1584C
  8
AM_0
 10
732.18962598314022
 20
285.53636404048677
 30
0.0
 11
733.38961598314029
 21
285.01637404048682
 31
0.0
  0
ARC
  5
1584D
  8
AM_0
 10
733.00246598314016
 20
297.9461840404868
 30
0.0
 40
1.007194199999998
 50
359.44232
 51
59.766580000002023
  0
ARC
  5
1584E
  8
AM_0
 10
733.00463598314025
 20
294.76536404048682
 30
0.0
 40
1.0050607999999981
 50
0.6283999999989116
 51
62.441189999996062
  0
ARC
  5
1584F
  8
AM_0
 10
733.00789598314032
 20
291.1937740404868
 30
0.0
 40
1.0017338999999981
 50
0.1495399999973931
 51
57.262370000003038
  0
ARC
  5
15850
  8
AM_0
 10
733.00408598314016
 20
290.16709404048669
 30
0.0
 40
1.005592899999999
 50
0.5283799999988388
 51
59.818669999999848
  0
ARC
  5
15851
  8
AM_0
 10
733.01064598314019
 20
295.79093404048677
 30
0.0
 40
0.9989832599999996
 50
0.3123899999989832
 51
60.034639999996749
  0
ARC
  5
15852
  8
AM_0
 10
733.0065859831401
 20
296.89646404048682
 30
0.0
 40
1.003051899999998
 50
359.99423000000229
 51
63.787349999998312
  0
LINE
  5
15853
  8
AM_0
 10
732.00963598314013
 20
292.75636404048669
 30
0.0
 11
732.00963598314013
 21
292.27638404048679
 31
0.0
  0
LINE
  5
15854
  8
AM_0
 10
732.00963598314013
 20
297.3163940404869
 30
0.0
 11
732.00963598314013
 21
296.77638404048679
 31
0.0
  0
LINE
  5
15855
  8
AM_0
 10
732.22960598314023
 20
296.31639404048678
 30
0.0
 11
733.46962598313996
 21
295.6563540404868
 31
0.0
  0
LINE
  5
15856
  8
AM_0
 10
732.22963598314038
 20
291.77638404048679
 30
0.0
 11
733.50963598314013
 21
291.03636404048672
 31
0.0
  0
LINE
  5
15857
  8
AM_0
 10
732.24962598314016
 20
292.89634404048672
 30
0.0
 11
733.54964598314029
 21
292.03636404048677
 31
0.0
  0
LINE
  5
15858
  8
AM_0
 10
732.20961598314045
 20
298.41638404048672
 30
0.0
 11
733.44960598314015
 21
297.79640404048678
 31
0.0
  0
LINE
  5
15859
  8
AM_0
 10
732.22963598314038
 20
297.43635404048678
 30
0.0
 11
733.5096059831402
 21
296.65638404048678
 31
0.0
  0
ARC
  5
1585A
  8
AM_0
 10
731.71874598314025
 20
298.67462404048689
 30
0.0
 40
1.001807999999998
 50
59.338330000005243
 51
89.37717999999613
  0
LINE
  5
1585B
  8
AM_0
 10
721.80962598313999
 20
310.05638404048671
 30
0.0
 11
722.72960598314023
 21
306.17637404048679
 31
0.0
  0
LINE
  5
1585C
  8
AM_0
 10
721.82961598314023
 20
311.71635404048681
 30
0.0
 11
722.70961598314045
 21
308.1763640404867
 31
0.0
  0
ARC
  5
1585D
  8
AM_0
 10
724.15978598314007
 20
308.5551440404866
 30
0.0
 40
1.4987989999999991
 50
194.6381350000004
 51
270.37655799999698
  0
LINE
  5
1585E
  8
AM_0
 10
724.16961598314015
 20
307.05638404048682
 30
0.0
 11
722.52962598314014
 21
307.05638404048682
 31
0.0
  0
LINE
  5
1585F
  8
AM_0
 10
724.18962598314022
 20
305.01637404048671
 30
0.0
 11
722.12963598314013
 21
305.01637404048671
 31
0.0
  0
ARC
  5
15860
  8
AM_0
 10
724.21846598314005
 20
302.4553240404868
 30
0.0
 40
1.498966199999999
 50
191.5036759999999
 51
269.66153200000082
  0
LINE
  5
15861
  8
AM_0
 10
724.20961598314022
 20
300.95637404048682
 30
0.0
 11
721.78963598313999
 21
300.95637404048682
 31
0.0
  0
ARC
  5
15862
  8
AM_0
 10
724.19329598314027
 20
306.51977404048682
 30
0.0
 40
1.5034073999999991
 50
193.20385600000469
 51
269.86041400000022
  0
LINE
  5
15863
  8
AM_0
 10
728.00963598314013
 20
307.31411037057939
 30
0.0
 11
723.16964598313996
 21
307.41636404048683
 31
0.0
  0
ARC
  5
15864
  8
AM_0
 10
719.83052598314009
 20
306.1918040404866
 30
0.0
 40
2.0045697999999992
 50
12.227909999996781
 51
90.025959999996459
  0
ARC
  5
15865
  8
AM_0
 10
719.77321598314029
 20
300.90982404048668
 30
0.0
 40
2.0065659999999981
 50
9.9456800000009853
 51
90.102469999995733
  0
LINE
  5
15866
  8
AM_0
 10
721.78960598313995
 20
306.61636404048681
 30
0.0
 11
722.74962598314016
 21
302.15637404048681
 31
0.0
  0
LINE
  5
15867
  8
AM_0
 10
731.72963598314016
 20
299.67637404048679
 30
0.0
 11
728.50963598314036
 21
299.67637404048679
 31
0.0
  0
ARC
  5
15868
  8
AM_0
 10
728.50527598314022
 20
300.1720240404868
 30
0.0
 40
0.4956644499999998
 50
179.49662000000049
 51
270.5033810000005
  0
ARC
  5
15869
  8
AM_0
 10
719.88234598314023
 20
311.22904404048671
 30
0.0
 40
2.007332599999998
 50
14.05006000000024
 51
89.792179999998822
  0
ARC
  5
1586A
  8
AM_0
 10
719.86333598314013
 20
309.59649404048668
 30
0.0
 40
1.9998908999999989
 50
13.29430000000143
 51
89.819579999998538
  0
LINE
  5
15D2C
  8
ｶｸﾚｾﾝ2
 10
218.42144439084299
 20
267.43626973570559
 30
0.0
 11
218.42144439084299
 21
232.43626973570559
 31
0.0
  0
LINE
  5
15D2D
  8
ｶｸﾚｾﾝ2
 10
207.4284598079748
 20
272.43627040625802
 30
0.0
 11
207.4284598079748
 21
227.43626906515371
 31
0.0
  0
LINE
  5
15D2F
  8
ｶｸﾚｾﾝ2
 10
207.4284598079748
 20
227.43626906515371
 30
0.0
 11
203.42845968876551
 21
227.43626906515371
 31
0.0
  0
LINE
  5
15D30
  8
ｶｸﾚｾﾝ2
 10
207.4284598079748
 20
227.43626906515351
 30
0.0
 11
203.42845968876551
 21
227.43626906515351
 31
0.0
  0
LINE
  5
15D31
  8
ｶｸﾚｾﾝ2
 10
218.42144439084299
 20
232.43626973570559
 30
0.0
 11
207.4284598079748
 21
227.43626906515351
 31
0.0
  0
LINE
  5
15D32
  8
0
 10
260.42144439084302
 20
263.93626973570571
 30
0.0
 11
220.42144439084299
 21
263.93626973570571
 31
0.0
  0
LINE
  5
15D33
  8
0
 10
260.42144439084302
 20
235.93626973570559
 30
0.0
 11
220.42144439084299
 21
235.93626973570559
 31
0.0
  0
LINE
  5
15D36
  8
ｶｸﾚｾﾝ2
 10
207.4284598079748
 20
272.43627040625802
 30
0.0
 11
203.42845968876551
 21
272.43627040625802
 31
0.0
  0
LINE
  5
15D37
  8
ｶｸﾚｾﾝ2
 10
207.4284598079748
 20
272.43627040625802
 30
0.0
 11
203.42845968876551
 21
272.43627040625802
 31
0.0
  0
LINE
  5
15D38
  8
ｶｸﾚｾﾝ2
 10
207.4284598079748
 20
272.43627040625802
 30
0.0
 11
218.42144439084299
 21
267.43626973570559
 31
0.0
  0
LINE
  5
15D39
  8
0
 10
260.42144439084302
 20
266.93626973570571
 30
0.0
 11
228.42144439084299
 21
266.93626973570571
 31
0.0
  0
LINE
  5
15D3A
  8
0
 10
228.42144439084299
 20
266.93626973570571
 30
0.0
 11
228.42144439084299
 21
263.93626973570571
 31
0.0
  0
LINE
  5
15D3B
  8
AM_0
 10
260.42144439084302
 20
235.93626973570559
 30
0.0
 11
260.42144439084302
 21
266.93626973570571
 31
0.0
  0
ARC
  5
15D7B
  8
AM_0
 10
426.50965204298882
 20
249.93641404048699
 30
0.0
 40
14.0
 50
106.6015495990211
 51
73.398450400978902
  0
CIRCLE
  5
15D7C
  8
ｽﾝﾎﾟｳｾﾝ
 10
426.50965204298882
 20
249.93641404048699
 30
0.0
 40
4.0
  0
LINE
  5
15D7D
  8
AM_0
 10
422.50965204298882
 20
266.93641404048702
 30
0.0
 11
430.50965204298882
 21
266.93641404048702
 31
0.0
  0
LINE
  5
15D7E
  8
AM_0
 10
430.50965204298882
 20
259.93641404048691
 30
0.0
 11
422.50965204298882
 21
259.93641404048691
 31
0.0
  0
LINE
  5
15D7F
  8
AM_0
 10
422.50965204298882
 20
259.93641404048691
 30
0.0
 11
422.50965204298882
 21
266.93641404048702
 31
0.0
  0
LINE
  5
15D80
  8
AM_0
 10
430.50965204298882
 20
266.93641404048702
 30
0.0
 11
430.50965204298882
 21
259.93641404048691
 31
0.0
  0
CIRCLE
  5
15E98
  8
AM_0
 10
426.50965204298882
 20
249.93641404048691
 30
0.0
 40
3.399999999999999
  0
LINE
  5
15EA4
  8
ｶｸﾚｾﾝ2
 10
220.42144439084299
 20
263.93626973570571
 30
0.0
 11
218.42144439084299
 21
263.93626973570571
 31
0.0
  0
LINE
  5
15EA6
  8
ｶｸﾚｾﾝ2
 10
220.42144439084299
 20
235.93626973570559
 30
0.0
 11
218.42144439084299
 21
235.93626973570559
 31
0.0
  0
LINE
  5
160AA
  8
AM_0
 10
204.42144439084311
 20
314.8090461921484
 30
0.0
 11
220.42144439084311
 21
314.8090461921484
 31
0.0
  0
LINE
  5
160AB
  8
AM_0
 10
204.42144439084311
 20
185.0634932792631
 30
0.0
 11
220.42144439084311
 21
185.0634932792631
 31
0.0
  0
LINE
  5
160AD
  8
AM_0
 10
464.00965316057602
 20
601.94077813279773
 30
0.0
 11
389.00965092540201
 21
601.94077813279773
 31
0.0
  0
LINE
  5
160AE
  8
AM_0
 10
534.14817453797627
 20
597.94078564298366
 30
0.0
 11
364.87113091890882
 21
597.94078564298343
 31
0.0
  0
LINE
  5
160AF
  8
AM_0
 10
535.50968580902122
 20
519.9407756890073
 30
0.0
 11
363.50965016544279
 21
519.9407756890073
 31
0.0
  0
LINE
  5
160B0
  8
ﾁｭｳｼﾝｾﾝ1
 10
742.75358580902105
 20
548.94077655327465
 30
0.0
 11
357.25965016544268
 21
548.94077655327465
 31
0.0
1001
GENIUS_GENODEF_13
1002
{
1000
HIER
1070
     0
1002
}
1002
{
1000
MANEDIT
1070
     0
1002
}
1002
{
1000
NOSEL
1070
     0
1002
}
1002
{
1000
BEHIND
1070
     0
1002
}
1002
{
1000
REACTOR
1002
}
1001
GENIUS_GENOBJ-N-CEN_13
1002
{
1000
OWNER
1000
GEN
1002
}
  0
LINE
  5
160B1
  8
AM_0
 10
562.00968580902122
 20
610.44077155327523
 30
0.0
 11
562.00968580902122
 21
487.44079155327478
 31
0.0
  0
LINE
  5
160B2
  8
AM_0
 10
535.50968580894505
 20
519.9407756890073
 30
0.0
 11
534.14817453797627
 21
597.94078564298343
 31
0.0
  0
LINE
  5
160B3
  8
AM_0
 10
573.00968580902122
 20
612.94080655327502
 30
0.0
 11
573.00968580902122
 21
484.94079155327478
 31
0.0
  0
LINE
  5
160B4
  8
AM_0
 10
573.00968580902122
 20
511.80080155327482
 30
0.0
 11
563.00968580902122
 21
511.80080155327482
 31
0.0
  0
LINE
  5
160B5
  8
AM_0
 10
573.00972707567155
 20
511.8007915532973
 30
0.0
 11
563.00972707567769
 21
511.80078044218612
 31
0.0
  0
LINE
  5
160B6
  8
AM_0
 10
573.00968580902122
 20
496.90079155327481
 30
0.0
 11
563.00968580902122
 21
496.90079155327481
 31
0.0
  0
LINE
  5
160B7
  8
AM_0
 10
573.00974363123828
 20
496.9007815533065
 30
0.0
 11
563.00974363124465
 21
496.90077044219532
 31
0.0
  0
LINE
  5
160B8
  8
AM_0
 10
573.00968580902122
 20
484.94079155327478
 30
0.0
 11
563.88308298142545
 21
484.94079155327478
 31
0.0
  0
LINE
  5
160B9
  8
AM_0
 10
543.15105535346902
 20
520.11508717450272
 30
0.0
 11
545.84995876087237
 21
489.26648006777958
 31
0.0
  0
LINE
  5
160BA
  8
AM_0
 10
559.00968580902122
 20
487.44079155327478
 30
0.0
 11
547.84234815705577
 21
487.44079155327489
 31
0.0
  0
ARC
  5
160BB
  8
AM_0
 10
559.00968580902133
 20
484.44079155327461
 30
0.0
 40
2.9999999999999978
 50
35.685334712654601
 51
90.0
1001
GENIUS_GENOBJ-N-FIL_13
1002
{
1000
OWNER
1000
GEN
1002
}
1001
GENIUS_GENODEF_13
1002
{
1000
HIER
1070
     0
1002
}
1002
{
1000
MANEDIT
1070
     0
1002
}
1002
{
1000
NOSEL
1070
     0
1002
}
1002
{
1000
BEHIND
1070
     0
1002
}
1002
{
1000
OTHER
1070
     0
1002
}
1002
{
1000
REACTOR
1002
}
  0
ARC
  5
160BC
  8
AM_0
 10
563.88308298142567
 20
487.94079155327461
 30
0.0
 40
2.9999999999999978
 50
215.68533471265459
 51
270.0
1001
GENIUS_GENOBJ-N-FIL_13
1002
{
1000
OWNER
1000
GEN
1002
}
1001
GENIUS_GENODEF_13
1002
{
1000
HIER
1070
     0
1002
}
1002
{
1000
MANEDIT
1070
     0
1002
}
1002
{
1000
NOSEL
1070
     0
1002
}
1002
{
1000
BEHIND
1070
     0
1002
}
1002
{
1000
OTHER
1070
     0
1002
}
1002
{
1000
REACTOR
1002
}
  0
ARC
  5
160BD
  8
AM_0
 10
547.84234815705622
 20
489.44079155327501
 30
0.0
 40
2.0
 50
184.99999999999969
 51
270.0
1001
GENIUS_GENOBJ-N-FIL_13
1002
{
1000
OWNER
1000
GEN
1002
}
1001
GENIUS_GENODEF_13
1002
{
1000
HIER
1070
     0
1002
}
1002
{
1000
MANEDIT
1070
     0
1002
}
1002
{
1000
NOSEL
1070
     0
1002
}
1002
{
1000
BEHIND
1070
     0
1002
}
1002
{
1000
OTHER
1070
     0
1002
}
1002
{
1000
REACTOR
1002
}
  0
ARC
  5
160BE
  8
AM_0
 10
541.15866595728562
 20
519.9407756890073
 30
0.0
 40
2.0
 50
4.9999999999997407
 51
90.0
1001
GENIUS_GENOBJ-N-FIL_13
1002
{
1000
OWNER
1000
GEN
1002
}
1001
GENIUS_GENODEF_13
1002
{
1000
HIER
1070
     0
1002
}
1002
{
1000
MANEDIT
1070
     0
1002
}
1002
{
1000
NOSEL
1070
     0
1002
}
1002
{
1000
BEHIND
1070
     0
1002
}
1002
{
1000
OTHER
1070
     0
1002
}
1002
{
1000
REACTOR
1002
}
  0
ARC
  5
160BF
  8
AM_0
 10
536.49238287009939
 20
520.94077568900718
 30
0.0
 40
1.0
 50
90.0
 51
181.00001177349739
1001
GENIUS_GENOBJ-N-FIL_13
1002
{
1000
OWNER
1000
GEN
1002
}
1001
GENIUS_GENODEF_13
1002
{
1000
HIER
1070
     0
1002
}
1002
{
1000
MANEDIT
1070
     0
1002
}
1002
{
1000
NOSEL
1070
     0
1002
}
1002
{
1000
BEHIND
1070
     0
1002
}
1002
{
1000
OTHER
1070
     0
1002
}
1002
{
1000
REACTOR
1002
}
  0
LINE
  5
160C0
  8
AM_0
 10
541.15866595728562
 20
521.94077568900718
 30
0.0
 11
536.49238287009905
 21
521.94077568900718
 31
0.0
  0
LINE
  5
160C1
  8
AM_0
 10
573.00968580902122
 20
612.94077155327489
 30
0.0
 11
563.88308298142545
 21
612.94077155327489
 31
0.0
  0
LINE
  5
160C2
  8
AM_0
 10
573.00968580902122
 20
600.98077155327485
 30
0.0
 11
563.00968580902122
 21
600.98077155327485
 31
0.0
  0
LINE
  5
160C3
  8
AM_0
 10
573.00968580902122
 20
586.08076155327467
 30
0.0
 11
563.00968580902122
 21
586.08076155327467
 31
0.0
  0
LINE
  5
160C4
  8
AM_0
 10
549.17698969495405
 20
595.94078564298366
 30
0.0
 11
536.14847920123862
 21
595.94078564298366
 31
0.0
  0
LINE
  5
160C5
  8
AM_0
 10
552.1185093832762
 20
608.61508303877008
 30
0.0
 11
551.16937909113744
 21
597.76647415748812
 31
0.0
  0
ARC
  5
160C6
  8
AM_0
 10
549.17698969495416
 20
597.94078564298343
 30
0.0
 40
2.0
 50
270.0
 51
355.00000000000028
1001
GENIUS_GENOBJ-N-FIL_13
1002
{
1000
OWNER
1000
GEN
1002
}
1001
GENIUS_GENODEF_13
1002
{
1000
HIER
1070
     0
1002
}
1002
{
1000
MANEDIT
1070
     0
1002
}
1002
{
1000
NOSEL
1070
     0
1002
}
1002
{
1000
BEHIND
1070
     0
1002
}
1002
{
1000
OTHER
1070
     0
1002
}
1002
{
1000
REACTOR
1002
}
  0
LINE
  5
160C7
  8
AM_0
 10
559.00968580902122
 20
610.440771553275
 30
0.0
 11
554.11089877945983
 21
610.440771553275
 31
0.0
  0
ARC
  5
160C8
  8
AM_0
 10
563.88308298142567
 20
609.94077155327466
 30
0.0
 40
2.9999999999999978
 50
90.0
 51
144.31466528734541
1001
GENIUS_GENOBJ-N-FIL_13
1002
{
1000
OWNER
1000
GEN
1002
}
1001
GENIUS_GENODEF_13
1002
{
1000
HIER
1070
     0
1002
}
1002
{
1000
MANEDIT
1070
     0
1002
}
1002
{
1000
NOSEL
1070
     0
1002
}
1002
{
1000
BEHIND
1070
     0
1002
}
1002
{
1000
OTHER
1070
     0
1002
}
1002
{
1000
REACTOR
1002
}
  0
ARC
  5
160C9
  8
AM_0
 10
559.00968580902133
 20
613.44077155327477
 30
0.0
 40
2.9999999999999978
 50
270.0
 51
324.31466528734541
1001
GENIUS_GENOBJ-N-FIL_13
1002
{
1000
OWNER
1000
GEN
1002
}
1001
GENIUS_GENODEF_13
1002
{
1000
HIER
1070
     0
1002
}
1002
{
1000
MANEDIT
1070
     0
1002
}
1002
{
1000
NOSEL
1070
     0
1002
}
1002
{
1000
BEHIND
1070
     0
1002
}
1002
{
1000
OTHER
1070
     0
1002
}
1002
{
1000
REACTOR
1002
}
  0
ARC
  5
160CA
  8
AM_0
 10
554.11089877945994
 20
608.44077155327489
 30
0.0
 40
2.0
 50
90.0
 51
175.00000000000031
1001
GENIUS_GENOBJ-N-FIL_13
1002
{
1000
OWNER
1000
GEN
1002
}
1001
GENIUS_GENODEF_13
1002
{
1000
HIER
1070
     0
1002
}
1002
{
1000
MANEDIT
1070
     0
1002
}
1002
{
1000
NOSEL
1070
     0
1002
}
1002
{
1000
BEHIND
1070
     0
1002
}
1002
{
1000
OTHER
1070
     0
1002
}
1002
{
1000
REACTOR
1002
}
  0
ARC
  5
160CB
  8
AM_0
 10
536.14847920123873
 20
597.94078564298343
 30
0.0
 40
2.0
 50
181.00001177355611
 51
270.0
1001
GENIUS_GENOBJ-N-FIL_13
1002
{
1000
OWNER
1000
GEN
1002
}
1001
GENIUS_GENODEF_13
1002
{
1000
HIER
1070
     0
1002
}
1002
{
1000
MANEDIT
1070
     0
1002
}
1002
{
1000
NOSEL
1070
     0
1002
}
1002
{
1000
BEHIND
1070
     0
1002
}
1002
{
1000
OTHER
1070
     0
1002
}
1002
{
1000
REACTOR
1002
}
  0
LINE
  5
160CC
  8
AM_0
 10
464.00965316057602
 20
601.94077813279773
 30
0.0
 11
464.00965316057602
 21
597.94077801358844
 31
0.0
  0
LINE
  5
160CD
  8
ﾁｭｳｼﾝｾﾝ1
 10
426.50965204298899
 20
432.59499688362013
 30
0.0
 11
426.50965204298859
 21
609.5893325549996
 31
0.0
  0
LINE
  5
160CE
  8
AM_0
 10
363.50965016544279
 20
519.9407756890073
 30
0.0
 11
364.87113091890882
 21
597.94078564298343
 31
0.0
  0
LINE
  5
160CF
  8
AM_0
 10
389.00965092540201
 20
601.94077813279773
 30
0.0
 11
389.00965092540201
 21
597.94077801358844
 31
0.0
  0
LINE
  5
160D0
  8
ｶｸﾚｾﾝ2
 10
604.50974580902118
 20
517.44077655327465
 30
0.0
 11
678.50974580902096
 21
517.44077655327465
 31
0.0
  0
LINE
  5
160D1
  8
ｶｸﾚｾﾝ2
 10
601.50974580902107
 20
520.44077655327465
 30
0.0
 11
601.50974580902107
 21
577.44077655327465
 31
0.0
  0
ARC
  5
160D2
  8
ｶｸﾚｾﾝ2
 10
604.50974580902118
 20
520.44077655327465
 30
0.0
 40
3.0
 50
180.0
 51
270.0
  0
LINE
  5
160D3
  8
ｶｸﾚｾﾝ2
 10
604.50974580902118
 20
580.44077655327465
 30
0.0
 11
678.50974580902096
 21
580.44077655327465
 31
0.0
  0
ARC
  5
160D4
  8
ｶｸﾚｾﾝ2
 10
604.50974580902118
 20
577.44077655327465
 30
0.0
 40
3.0
 50
90.0
 51
180.0
  0
LINE
  5
160D5
  8
ｶｸﾚｾﾝ2
 10
681.50974580902096
 20
577.44077655327465
 30
0.0
 11
681.50974580902096
 21
520.44077655327465
 31
0.0
  0
ARC
  5
160D6
  8
ｶｸﾚｾﾝ2
 10
678.50974580902118
 20
577.44077655327419
 30
0.0
 40
3.0
 50
0.0
 51
90.0
  0
ARC
  5
160D7
  8
ｶｸﾚｾﾝ2
 10
678.50974580902118
 20
520.44077655327442
 30
0.0
 40
3.0
 50
270.0
 51
0.0
  0
LINE
  5
160D8
  8
AM_0
 10
706.00971580902115
 20
612.8307565532748
 30
0.0
 11
653.00971580902115
 21
612.8307565532748
 31
0.0
  0
LINE
  5
160D9
  8
AM_0
 10
706.00971580902115
 20
614.18076655327479
 30
0.0
 11
653.00971580902115
 21
614.18076655327479
 31
0.0
  0
LINE
  5
160DA
  8
AM_0
 10
706.00971580902115
 20
614.86075655327465
 30
0.0
 11
653.00971580902115
 21
614.86075655327465
 31
0.0
  0
LINE
  5
160DB
  8
AM_0
 10
706.00971580902115
 20
485.0507655532744
 30
0.0
 11
653.00971580902115
 21
485.0507655532744
 31
0.0
  0
LINE
  5
160DC
  8
AM_0
 10
706.00971580902115
 20
483.70075155327459
 30
0.0
 11
653.00971580902115
 21
483.70075155327459
 31
0.0
  0
LINE
  5
160DD
  8
AM_0
 10
706.00971580902115
 20
483.03076955327452
 30
0.0
 11
653.00971580902115
 21
483.03076955327452
 31
0.0
  0
LINE
  5
160DE
  8
AM_0
 10
684.00971580902115
 20
502.59075655327462
 30
0.0
 11
582.00971580902115
 21
502.59075655327462
 31
0.0
  0
LINE
  5
160DF
  8
AM_0
 10
684.00971580902126
 20
595.29076655327469
 30
0.0
 11
582.00971580902115
 21
595.29076655327469
 31
0.0
  0
LINE
  5
160E0
  8
AM_0
 10
588.6596858090212
 20
512.94077655327453
 30
0.0
 11
723.4596658090212
 21
512.94077655327453
 31
0.0
  0
LINE
  5
160E1
  8
AM_0
 10
706.00971580902115
 20
610.80075655327471
 30
0.0
 11
589.19972580902117
 21
610.80075655327471
 31
0.0
  0
LINE
  5
160E2
  8
AM_0
 10
706.00971580902115
 20
487.08076455327461
 30
0.0
 11
589.19972580902117
 21
487.08076455327461
 31
0.0
  0
LINE
  5
160E3
  8
AM_0
 10
715.32972580902117
 20
585.66075655327472
 30
0.0
 11
585.18971580902121
 21
585.66075655327472
 31
0.0
  0
LINE
  5
160E4
  8
AM_0
 10
588.6596858090212
 20
584.94077655327465
 30
0.0
 11
714.45966580902086
 21
584.94077655327465
 31
0.0
  0
LINE
  5
160E5
  8
AM_0
 10
588.6596858090212
 20
514.94076655327456
 30
0.0
 11
723.4596658090212
 21
514.94076655327456
 31
0.0
  0
LINE
  5
160E6
  8
AM_0
 10
585.18971580902121
 20
515.57076655327455
 30
0.0
 11
724.32972580902128
 21
515.57076655327455
 31
0.0
  0
LINE
  5
160E7
  8
AM_0
 10
724.32972580902128
 20
512.22075655327455
 30
0.0
 11
585.18971580902121
 21
512.22075655327455
 31
0.0
  0
LINE
  5
160E8
  8
AM_0
 10
585.18971580902121
 20
582.3107565532747
 30
0.0
 11
715.32972580902117
 21
582.3107565532747
 31
0.0
  0
LINE
  5
160E9
  8
AM_0
 10
586.06474580902113
 20
522.94076245327426
 30
0.0
 11
723.4596658090212
 21
522.94075655327458
 31
0.0
  0
LINE
  5
160EA
  8
AM_0
 10
586.06474575666095
 20
524.94077065327463
 30
0.0
 11
723.4596658090212
 21
524.94077655327453
 31
0.0
  0
LINE
  5
160EB
  8
AM_0
 10
724.54969580902105
 20
522.46076655327454
 30
0.0
 11
584.97471580902095
 21
522.46075655327445
 31
0.0
  0
LINE
  5
160EC
  8
AM_0
 10
724.54969580902105
 20
525.38077655327447
 30
0.0
 11
584.97471573257565
 21
525.38075655327464
 31
0.0
  0
LINE
  5
160ED
  8
AM_0
 10
724.67970580902136
 20
532.60075655327455
 30
0.0
 11
584.84470580902109
 21
532.60077655327461
 31
0.0
  0
LINE
  5
160EE
  8
AM_0
 10
586.07474026686214
 20
532.9407785235162
 30
0.0
 11
723.44972580902106
 21
532.94077655327453
 31
0.0
  0
LINE
  5
160EF
  8
AM_0
 10
586.07474016214258
 20
534.94077458394543
 30
0.0
 11
723.44972580902106
 21
534.94075655327458
 31
0.0
  0
LINE
  5
160F0
  8
AM_0
 10
724.67970580902136
 20
535.26076655327449
 30
0.0
 11
584.84470573938245
 21
535.26077655327435
 31
0.0
  0
LINE
  5
160F1
  8
AM_0
 10
724.73969580902133
 20
542.67076655327446
 30
0.0
 11
584.78471580902101
 21
542.67075255327472
 31
0.0
  0
LINE
  5
160F2
  8
AM_0
 10
586.07474026686214
 20
542.94075852351625
 30
0.0
 11
723.44972580902106
 21
542.94077655327465
 31
0.0
  0
LINE
  5
160F3
  8
AM_0
 10
586.07474016214258
 20
544.94075458394559
 30
0.0
 11
723.44972580902106
 21
544.94077655327465
 31
0.0
  0
LINE
  5
160F4
  8
AM_0
 10
724.73969580902133
 20
545.21076655327465
 30
0.0
 11
584.78471574252376
 21
545.21076055327455
 31
0.0
  0
LINE
  5
160F5
  8
AM_0
 10
724.73969580902133
 20
552.68076655327457
 30
0.0
 11
584.78471580902101
 21
552.68074255327474
 31
0.0
  0
LINE
  5
160F6
  8
AM_0
 10
586.07474026686214
 20
552.94075852351648
 30
0.0
 11
723.44972580902106
 21
552.94075655327447
 31
0.0
  0
LINE
  5
160F7
  8
AM_0
 10
586.07474016214258
 20
554.94075458394536
 30
0.0
 11
723.44972580902106
 21
554.94077655327465
 31
0.0
  0
LINE
  5
160F8
  8
AM_0
 10
724.73969580902133
 20
555.21076655327465
 30
0.0
 11
584.78471574278569
 21
555.21075055327447
 31
0.0
  0
LINE
  5
160F9
  8
AM_0
 10
724.67970580902136
 20
562.62076655327473
 30
0.0
 11
584.84470580902109
 21
562.62076655327473
 31
0.0
  0
LINE
  5
160FA
  8
AM_0
 10
586.07474026686214
 20
562.94077852351643
 30
0.0
 11
723.44972580902106
 21
562.9407565532747
 31
0.0
  0
LINE
  5
160FB
  8
AM_0
 10
586.07474016214258
 20
564.94077458394543
 30
0.0
 11
723.44972580902106
 21
564.94075655327458
 31
0.0
  0
LINE
  5
160FC
  8
AM_0
 10
724.67970580902136
 20
565.28075655327461
 30
0.0
 11
584.84470573938245
 21
565.28076655327459
 31
0.0
  0
LINE
  5
160FD
  8
AM_0
 10
715.54969580902116
 20
572.5007665532745
 30
0.0
 11
584.97970580902086
 21
572.5007665532745
 31
0.0
  0
LINE
  5
160FE
  8
AM_0
 10
586.06973580902115
 20
572.94075245327463
 30
0.0
 11
714.45966580902086
 21
572.94077655327465
 31
0.0
  0
LINE
  5
160FF
  8
AM_0
 10
586.06973575666109
 20
574.94076065327476
 30
0.0
 11
714.45966580902086
 21
574.94075655327481
 31
0.0
  0
LINE
  5
16100
  8
AM_0
 10
715.54969580902116
 20
575.43074655327473
 30
0.0
 11
584.97970573231385
 21
575.43076655327457
 31
0.0
  0
LINE
  5
16101
  8
AM_0
 10
588.65970480914325
 20
582.94075819900672
 30
0.0
 11
714.45966580902086
 21
582.94075655327447
 31
0.0
  0
LINE
  5
16102
  8
AM_0
 10
734.00968580902133
 20
500.35076655327458
 30
0.0
 11
734.00968580902133
 21
543.94078655327462
 31
0.0
  0
LINE
  5
16103
  8
AM_0
 10
729.00974580902096
 20
491.51077755327452
 30
0.0
 11
729.00974580902096
 21
548.94077655327465
 31
0.0
  0
LINE
  5
16104
  8
AM_0
 10
735.50968580902133
 20
568.94076655327478
 30
0.0
 11
735.50968580902133
 21
528.94078655327462
 31
0.0
  0
LINE
  5
16105
  8
AM_0
 10
736.50358580902105
 20
533.71888655327439
 30
0.0
 11
736.50358580902105
 21
564.1625165532746
 31
0.0
  0
LINE
  5
16106
  8
AM_0
 10
725.28968580902119
 20
597.29076655327481
 30
0.0
 11
724.7496458090211
 21
600.28076655327482
 31
0.0
  0
LINE
  5
16107
  8
AM_0
 10
732.00974580902096
 20
598.44077655327465
 30
0.0
 11
732.00974580902096
 21
597.91077655327445
 31
0.0
  0
LINE
  5
16108
  8
AM_0
 10
732.23972580902114
 20
598.56077655327476
 30
0.0
 11
733.50974580902096
 21
597.82076655327478
 31
0.0
  0
LINE
  5
16109
  8
AM_0
 10
729.00974580902096
 20
606.37076655327473
 30
0.0
 11
729.00974580902096
 21
548.94077655327465
 31
0.0
  0
ARC
  5
1610A
  8
AM_0
 10
706.01515580902151
 20
612.18619655327416
 30
0.0
 40
1.9945760999999991
 50
359.84400999999718
 51
90.15599200000004
  0
ARC
  5
1610B
  8
AM_0
 10
706.00721580902132
 20
612.86591655327425
 30
0.0
 40
1.994844099999999
 50
14.362799999999609
 51
89.928342000002075
  0
LINE
  5
1610C
  8
AM_0
 10
722.89973580902131
 20
612.24075655327465
 30
0.0
 11
709.39973580902131
 21
612.24075655327465
 31
0.0
  0
LINE
  5
1610D
  8
AM_0
 10
722.8697058090213
 20
610.61075655327465
 30
0.0
 11
709.50971580902115
 21
610.61075655327465
 31
0.0
  0
LINE
  5
1610E
  8
AM_0
 10
722.83967580902117
 20
607.21076655327465
 30
0.0
 11
709.50971580902115
 21
607.21076655327465
 31
0.0
  0
LINE
  5
1610F
  8
AM_0
 10
722.7797358090213
 20
601.92075655327471
 30
0.0
 11
709.50971580902115
 21
601.92075655327471
 31
0.0
  0
ARC
  5
16110
  8
AM_0
 10
722.83802580902125
 20
605.21536655327418
 30
0.0
 40
1.9953879999999991
 50
12.01538000000024
 51
89.951933000002214
  0
LINE
  5
16111
  8
AM_0
 10
724.81971580902132
 20
609.07076655327478
 30
0.0
 11
725.73975580902129
 21
605.19077655327465
 31
0.0
  0
ARC
  5
16112
  8
AM_0
 10
727.18141580902125
 20
607.56786655327448
 30
0.0
 40
1.5070961
 50
194.09782000000331
 51
269.9351799999983
  0
LINE
  5
16113
  8
AM_0
 10
727.17970580902136
 20
606.06076655327479
 30
0.0
 11
725.52967580902134
 21
606.06076655327479
 31
0.0
  0
LINE
  5
16114
  8
AM_0
 10
729.00977580902133
 20
606.37076655327473
 30
0.0
 11
726.18971580902132
 21
606.44075655327458
 31
0.0
  0
ARC
  5
16115
  8
AM_0
 10
722.90241580902125
 20
610.24298655327436
 30
0.0
 40
1.9977800999999991
 50
14.13223000000314
 51
90.076919000002306
  0
LINE
  5
16116
  8
AM_0
 10
724.83973580902125
 20
610.73077655327461
 30
0.0
 11
725.71974580902088
 21
607.20078655327461
 31
0.0
  0
ARC
  5
16117
  8
AM_0
 10
722.87690580902131
 20
608.61530655327419
 30
0.0
 40
1.9954841000000001
 50
13.19407999999857
 51
90.206542000000866
  0
LINE
  5
16118
  8
AM_0
 10
727.21974580902111
 20
599.9807465532748
 30
0.0
 11
724.79969580902127
 21
599.9807465532748
 31
0.0
  0
ARC
  5
16119
  8
AM_0
 10
727.21851580902148
 20
601.48489655327421
 30
0.0
 40
1.50414
 50
192.44475000000341
 51
270.04575000000148
  0
LINE
  5
1611A
  8
AM_0
 10
727.19972580902129
 20
604.04074655327463
 30
0.0
 11
725.13972580902134
 21
604.04074655327463
 31
0.0
  0
ARC
  5
1611B
  8
AM_0
 10
727.20051580902134
 20
605.54356655327433
 30
0.0
 40
1.5028081
 50
193.57782000000239
 51
269.96920999999838
  0
ARC
  5
1611C
  8
AM_0
 10
731.74771580902132
 20
597.69489655327425
 30
0.0
 40
0.9959119600000002
 50
60.393009999996252
 51
90.45855599999615
  0
ARC
  5
1611D
  8
AM_0
 10
729.51432580902133
 20
599.19539655327435
 30
0.0
 40
0.5046359900000002
 50
180.5237599999995
 51
269.47624000000047
  0
LINE
  5
1611E
  8
AM_0
 10
731.73972580902114
 20
598.69077655327465
 30
0.0
 11
729.50968580902133
 21
598.69077655327465
 31
0.0
  0
ARC
  5
1611F
  8
AM_0
 10
722.78785580902149
 20
599.92732655327416
 30
0.0
 40
1.993431999999999
 50
10.21196999999983
 51
90.234116000000725
  0
LINE
  5
16120
  8
AM_0
 10
724.78968580902131
 20
605.63075655327475
 30
0.0
 11
725.74970580902129
 21
601.16075655327472
 31
0.0
  0
LINE
  5
16121
  8
AM_0
 10
708.00971580902115
 20
610.83075655327468
 30
0.0
 11
708.00971580902115
 21
603.42075655327471
 31
0.0
  0
ARC
  5
16122
  8
AM_0
 10
706.01246580902125
 20
610.83354655327446
 30
0.0
 40
1.9972080000000001
 50
359.91986000000099
 51
90.080142999999566
  0
ARC
  5
16123
  8
AM_0
 10
706.01331580902115
 20
608.80437655327444
 30
0.0
 40
1.996383999999999
 50
359.89615999999739
 51
90.103836999999984
  0
ARC
  5
16124
  8
AM_0
 10
709.39607580902134
 20
613.74765655327417
 30
0.0
 40
1.506888
 50
194.87693000000499
 51
270.1377700000005
  0
ARC
  5
16125
  8
AM_0
 10
709.51356580902132
 20
612.11459655327417
 30
0.0
 40
1.503848099999999
 50
180.14640000000301
 51
269.85359999999702
  0
ARC
  5
16126
  8
AM_0
 10
709.51148580902134
 20
608.71254655327425
 30
0.0
 40
1.5017959999999979
 50
180.06854999999891
 51
269.93145000000101
  0
ARC
  5
16127
  8
AM_0
 10
709.51539580902136
 20
603.42642655327415
 30
0.0
 40
1.505676
 50
180.21552999999901
 51
269.78448000000111
  0
LINE
  5
16128
  8
AM_0
 10
735.50968580902133
 20
564.09078655327471
 30
0.0
 11
731.22971580902117
 21
564.09078655327471
 31
0.0
  0
LINE
  5
16129
  8
AM_0
 10
730.00974580902118
 20
564.94077655327465
 30
0.0
 11
733.00974580902096
 21
564.94077655327465
 31
0.0
  0
LINE
  5
1612A
  8
AM_0
 10
730.00974580902118
 20
562.94076655327456
 30
0.0
 11
733.00974580902096
 21
562.94076655327456
 31
0.0
  0
LINE
  5
1612B
  8
AM_0
 10
730.00974580902118
 20
574.94076655327456
 30
0.0
 11
733.00974580902096
 21
574.94076655327456
 31
0.0
  0
LINE
  5
1612C
  8
AM_0
 10
730.00974580902118
 20
572.94077655327465
 30
0.0
 11
733.00974580902096
 21
572.94077655327465
 31
0.0
  0
LINE
  5
1612D
  8
AM_0
 10
732.19974580902112
 20
584.55079655327472
 30
0.0
 11
733.39975580902114
 21
584.04079655327462
 31
0.0
  0
LINE
  5
1612E
  8
AM_0
 10
732.14969580902095
 20
582.64077655327469
 30
0.0
 11
733.2997258090212
 21
582.29076655327458
 31
0.0
  0
LINE
  5
1612F
  8
AM_0
 10
732.2497358090211
 20
596.44077655327465
 30
0.0
 11
733.529765809021
 21
595.67078655327464
 31
0.0
  0
LINE
  5
16130
  8
AM_0
 10
732.25974580902118
 20
591.90073655327467
 30
0.0
 11
733.55973580902105
 21
591.05074655327462
 31
0.0
  0
LINE
  5
16131
  8
AM_0
 10
732.23972580902114
 20
590.79075655327438
 30
0.0
 11
733.51975580902104
 21
590.0407565532746
 31
0.0
  0
LINE
  5
16132
  8
AM_0
 10
732.21970580902098
 20
597.44080655327446
 30
0.0
 11
733.45969580902135
 21
596.8108065532748
 31
0.0
  0
LINE
  5
16133
  8
AM_0
 10
732.22971580902106
 20
595.33079655327447
 30
0.0
 11
733.47977580902102
 21
594.66079655327462
 31
0.0
  0
LINE
  5
16134
  8
AM_0
 10
730.00974580902118
 20
542.94077655327465
 30
0.0
 11
733.00974580902096
 21
542.94077655327465
 31
0.0
  0
LINE
  5
16135
  8
AM_0
 10
730.00974580902118
 20
544.94076655327467
 30
0.0
 11
733.00974580902096
 21
544.94076655327467
 31
0.0
  0
LINE
  5
16136
  8
AM_0
 10
730.00974580902118
 20
554.94077655327465
 30
0.0
 11
733.00974580902096
 21
554.94077655327465
 31
0.0
  0
LINE
  5
16137
  8
AM_0
 10
730.00974580902118
 20
552.94077655327465
 30
0.0
 11
733.00974580902096
 21
552.94077655327465
 31
0.0
  0
LINE
  5
16138
  8
AM_0
 10
734.00968580902133
 20
596.96078655327437
 30
0.0
 11
734.00968580902133
 21
553.94076655327456
 31
0.0
  0
ARC
  5
16139
  8
AM_0
 10
733.01493580902127
 20
590.2183765532742
 30
0.0
 40
0.9948279899999999
 50
359.56186999999977
 51
56.795310000000541
  0
ARC
  5
1613A
  8
AM_0
 10
733.01651580902114
 20
596.95869655327454
 30
0.0
 40
0.99319202
 50
0.1204399999996219
 51
60.22660000000247
  0
ARC
  5
1613B
  8
AM_0
 10
733.01413580902135
 20
595.92046655327442
 30
0.0
 40
0.99558806
 50
0.0177499999989372
 51
63.412509999995592
  0
ARC
  5
1613C
  8
AM_0
 10
733.01529580902115
 20
594.81974655327451
 30
0.0
 40
0.9944360299999999
 50
0.0595100000006976
 51
58.847830000000307
  0
ARC
  5
1613D
  8
AM_0
 10
733.01651580902114
 20
593.78220655327459
 30
0.0
 40
0.9932120399999999
 50
359.91816999999918
 51
62.200659999996311
  0
ARC
  5
1613E
  8
AM_0
 10
733.01566580902136
 20
589.18397655327419
 30
0.0
 40
0.99407601
 50
359.81535999999909
 51
59.530799999997029
  0
ARC
  5
1613F
  8
AM_0
 10
733.01334580902119
 20
583.12235655327424
 30
0.0
 40
0.99640006
 50
359.90960000000132
 51
67.18261000000129
  0
ARC
  5
16140
  8
AM_0
 10
733.01346580902134
 20
581.33652655327421
 30
0.0
 40
0.9962600499999998
 50
359.66950999999978
 51
73.302510000000041
  0
ARC
  5
16141
  8
AM_0
 10
733.01468580902133
 20
573.94570655327425
 30
0.0
 40
0.9950800499999999
 50
359.7159300000007
 51
90.284078999998727
  0
ARC
  5
16142
  8
AM_0
 10
733.00956580902141
 20
573.94099655327409
 30
0.0
 40
1.0002040000000001
 50
270.01167999999927
 51
359.9883299999953
  0
LINE
  5
16143
  8
AM_0
 10
735.50974580902096
 20
568.94079655327459
 30
0.0
 11
734.00974580902118
 21
569.07079655327448
 31
0.0
  0
ARC
  5
16144
  8
AM_0
 10
733.01468580902133
 20
563.94568655327419
 30
0.0
 40
0.99508399
 50
359.71612999999547
 51
90.283867000002516
  0
LINE
  5
16145
  8
AM_0
 10
735.50968580902133
 20
566.22077655327462
 30
0.0
 11
734.00968580902133
 21
566.22077655327462
 31
0.0
  0
LINE
  5
16146
  8
AM_0
 10
736.00358580902116
 20
566.93253655327453
 30
0.0
 11
735.50358580902105
 21
566.89252655327437
 31
0.0
  0
LINE
  5
16147
  8
AM_0
 10
736.50358580902105
 20
564.1625165532746
 30
0.0
 11
736.00358580902116
 21
566.93253655327453
 31
0.0
  0
ARC
  5
16148
  8
AM_0
 10
733.00956580902141
 20
563.94097655327425
 30
0.0
 40
1.000199999999998
 50
270.01146999999992
 51
359.98853000000008
  0
ARC
  5
16149
  8
AM_0
 10
733.01468580902133
 20
553.94570655327414
 30
0.0
 40
0.9950879799999999
 50
359.71634999999952
 51
90.283654999997125
  0
ARC
  5
1614A
  8
AM_0
 10
733.00956580902141
 20
553.94097655327425
 30
0.0
 40
1.0001959999999981
 50
270.01126000000068
 51
359.98875000000061
  0
ARC
  5
1614B
  8
AM_0
 10
733.01468580902133
 20
543.94570655327414
 30
0.0
 40
0.9950800499999999
 50
359.71590000000032
 51
90.284105999997195
  0
POINT
  5
1614C
  8
AM_0
 10
736.50358580902105
 20
548.94074655327427
 30
0.0
  0
ARC
  5
1614D
  8
AM_0
 10
733.00956580902141
 20
543.94099655327432
 30
0.0
 40
1.0002040000000001
 50
270.01170000000161
 51
359.98829999999828
  0
LINE
  5
1614E
  8
AM_0
 10
684.00971580902126
 20
595.29074655327463
 30
0.0
 11
719.00971580902115
 21
593.26074655327454
 31
0.0
  0
ARC
  5
1614F
  8
AM_0
 10
707.00971580902115
 20
583.94075655327424
 30
0.0
 40
1.0000040999999991
 50
270.0
 51
89.999997000002296
  0
ARC
  5
16150
  8
AM_0
 10
714.45966580902132
 20
583.94075655327424
 30
0.0
 40
1.0000040999999991
 50
270.0
 51
89.999997000002296
  0
ARC
  5
16151
  8
AM_0
 10
715.3297258090214
 20
583.98575655327409
 30
0.0
 40
1.6750081000000001
 50
270.0
 51
89.999997000002296
  0
LINE
  5
16152
  8
AM_0
 10
729.00971580902115
 20
583.25075655327464
 30
0.0
 11
719.00971580902115
 21
583.25075655327464
 31
0.0
  0
LINE
  5
16153
  8
AM_0
 10
729.00971580902115
 20
597.29074655327463
 30
0.0
 11
719.00971580902115
 21
597.29074655327463
 31
0.0
  0
LINE
  5
16154
  8
AM_0
 10
729.00971580902115
 20
591.63075655327475
 30
0.0
 11
719.00971580902115
 21
591.63075655327475
 31
0.0
  0
ARC
  5
16155
  8
AM_0
 10
730.01212580902131
 20
589.92840655327416
 30
0.0
 40
1.002375999999999
 50
90.135590000000704
 51
179.864408009996
  0
ARC
  5
16156
  8
AM_0
 10
731.7849558090212
 20
596.54674655327437
 30
0.0
 40
0.9941280500000002
 50
64.065190000001365
 51
90.877191999997962
  0
ARC
  5
16157
  8
AM_0
 10
731.74088580902117
 20
595.58657655327454
 30
0.0
 40
0.9942600099999999
 50
59.218909999997692
 51
90.644117999997505
  0
ARC
  5
16158
  8
AM_0
 10
731.77463580902133
 20
594.44541655327441
 30
0.0
 40
0.99546796
 50
62.796340000000029
 51
90.858551999998383
  0
ARC
  5
16159
  8
AM_0
 10
730.00870580902131
 20
594.44176655327453
 30
0.0
 40
0.9990080599999998
 50
89.943157000003893
 51
180.05685000000281
  0
ARC
  5
1615A
  8
AM_0
 10
729.50809580902126
 20
597.04241655327439
 30
0.0
 40
0.4983640000000002
 50
89.811401999999163
 51
180.18859000000501
  0
LINE
  5
1615B
  8
AM_0
 10
731.72971580902106
 20
596.58076655327466
 30
0.0
 11
729.00974580902096
 21
596.58076655327466
 31
0.0
  0
LINE
  5
1615C
  8
AM_0
 10
731.75968580902133
 20
595.44077655327465
 30
0.0
 11
730.00974580902118
 21
595.44077655327465
 31
0.0
  0
LINE
  5
1615D
  8
AM_0
 10
731.76975580902104
 20
597.54076655327447
 30
0.0
 11
729.50968580902133
 21
597.54076655327447
 31
0.0
  0
LINE
  5
1615E
  8
AM_0
 10
732.00974580902096
 20
596.3407865532746
 30
0.0
 11
732.00974580902096
 21
595.79078655327476
 31
0.0
  0
ARC
  5
1615F
  8
AM_0
 10
731.70310580902117
 20
591.07458655327423
 30
0.0
 40
0.9962120099999999
 50
56.030099999999067
 51
89.618093999998152
  0
ARC
  5
16160
  8
AM_0
 10
731.73032580902134
 20
589.93429655327441
 30
0.0
 40
0.9965200400000001
 50
59.256719999997742
 51
89.45878700000047
  0
LINE
  5
16161
  8
AM_0
 10
731.70969580902135
 20
592.07078655327462
 30
0.0
 11
729.00974580902096
 21
592.07078655327462
 31
0.0
  0
LINE
  5
16162
  8
AM_0
 10
731.73972580902114
 20
590.93076655327479
 30
0.0
 11
730.00974580902118
 21
590.93076655327479
 31
0.0
  0
LINE
  5
16163
  8
AM_0
 10
732.00974580902096
 20
591.7707665532746
 30
0.0
 11
732.00974580902096
 21
591.30077655327466
 31
0.0
  0
ARC
  5
16164
  8
AM_0
 10
731.80875580902125
 20
583.63529655327443
 30
0.0
 40
0.99548006
 50
66.872969999997721
 51
89.942679000001277
  0
ARC
  5
16165
  8
AM_0
 10
729.71427580902116
 20
585.3353265532744
 30
0.0
 40
0.7045519900000002
 50
180.36910999999949
 51
269.63089000000048
  0
LINE
  5
16166
  8
AM_0
 10
731.80973580902105
 20
584.63077655327459
 30
0.0
 11
729.7097558090212
 21
584.63077655327459
 31
0.0
  0
LINE
  5
16167
  8
AM_0
 10
732.00974580902096
 20
584.33077655327475
 30
0.0
 11
732.00974580902096
 21
583.2707765532748
 31
0.0
  0
ARC
  5
16168
  8
AM_0
 10
715.85981580902126
 20
590.15091655327421
 30
0.0
 40
1.004135999999999
 50
134.20256399999701
 51
185.1511600000043
  0
LINE
  5
16169
  8
AM_0
 10
719.00971580902115
 20
597.29074655327463
 30
0.0
 11
719.00971580902115
 21
583.25075655327464
 31
0.0
  0
ARC
  5
1616A
  8
AM_0
 10
719.38850580902135
 20
586.60881655327421
 30
0.0
 40
6.0039081999999979
 50
93.61728599999789
 51
134.7763069999971
  0
ARC
  5
1616B
  8
AM_0
 10
719.8448058090213
 20
590.53853655327407
 30
0.0
 40
5.0078917000000001
 50
185.4746799999993
 51
260.40127999999891
  0
ARC
  5
1616C
  8
AM_0
 10
730.01462580902125
 20
575.94568655327407
 30
0.0
 40
1.0049318999999981
 50
180.28041999999689
 51
269.71958000000308
  0
ARC
  5
1616D
  8
AM_0
 10
731.87058580902135
 20
581.68806655327421
 30
0.0
 40
0.99277198
 50
73.668180000000461
 51
90.625191999999998
  0
ARC
  5
1616E
  8
AM_0
 10
730.00803580902129
 20
581.68247655327423
 30
0.0
 40
0.99829602
 50
89.902039000000997
 51
180.09796000000259
  0
LINE
  5
1616F
  8
AM_0
 10
731.85971580902128
 20
582.68076655327445
 30
0.0
 11
730.00974580902118
 21
582.68076655327445
 31
0.0
  0
ARC
  5
16170
  8
AM_0
 10
730.0095658090213
 20
571.94092655327427
 30
0.0
 40
0.99985206
 50
89.991452999997875
 51
180.00854999999979
  0
LINE
  5
16171
  8
AM_0
 10
732.00974580902096
 20
574.57078655327473
 30
0.0
 11
732.00974580902096
 21
573.20078655327461
 31
0.0
  0
ARC
  5
16172
  8
AM_0
 10
715.54969580902116
 20
573.96576655327419
 30
0.0
 40
1.4650000000000001
 50
270.0
 51
89.999997000002296
  0
ARC
  5
16173
  8
AM_0
 10
714.45966580902132
 20
573.94075655327424
 30
0.0
 40
1.0000040999999991
 50
270.0
 51
89.999997000002296
  0
ARC
  5
16174
  8
AM_0
 10
707.00971580902115
 20
573.94075655327424
 30
0.0
 40
1.0000040999999991
 50
270.0
 51
89.999997000002296
  0
ARC
  5
16175
  8
AM_0
 10
730.0095658090213
 20
551.94092655327415
 30
0.0
 40
0.99984801
 50
89.991221000001829
 51
180.00877999999949
  0
ARC
  5
16176
  8
AM_0
 10
724.67970580902147
 20
563.95076655327409
 30
0.0
 40
1.3300000000000001
 50
270.0
 51
89.999997000002296
  0
ARC
  5
16177
  8
AM_0
 10
730.01462580902125
 20
565.94568655327407
 30
0.0
 40
1.004928
 50
180.28021999999979
 51
269.71978000000018
  0
ARC
  5
16178
  8
AM_0
 10
730.0095658090213
 20
561.94091655327429
 30
0.0
 40
0.9998440099999999
 50
89.991009000001426
 51
180.00898999999711
  0
LINE
  5
16179
  8
AM_0
 10
732.00974580902096
 20
564.5507665532748
 30
0.0
 11
732.00974580902096
 21
563.34078655327448
 31
0.0
  0
ARC
  5
1617A
  8
AM_0
 10
723.45838580902125
 20
563.94077655327419
 30
0.0
 40
1.000035999999999
 50
269.50070999999838
 51
90.499283999999903
  0
ARC
  5
1617B
  8
AM_0
 10
724.73969580902133
 20
553.94574655327415
 30
0.0
 40
1.265004
 50
270.0
 51
89.999997000002296
  0
LINE
  5
1617C
  8
AM_0
 10
732.00974580902096
 20
554.55077655327477
 30
0.0
 11
732.00974580902096
 21
553.39075655327474
 31
0.0
  0
ARC
  5
1617D
  8
AM_0
 10
730.01462580902125
 20
555.94567655327421
 30
0.0
 40
1.0049238999999981
 50
180.2800099999962
 51
269.71998999999721
  0
ARC
  5
1617E
  8
AM_0
 10
723.45838580902125
 20
553.94075655327413
 30
0.0
 40
1.000035999999999
 50
269.50070999999838
 51
90.499283999999903
  0
ARC
  5
1617F
  8
AM_0
 10
707.00971580902115
 20
563.94077655327419
 30
0.0
 40
1.0000040999999991
 50
270.0
 51
89.999997000002296
  0
ARC
  5
16180
  8
AM_0
 10
707.00971580902115
 20
553.94075655327413
 30
0.0
 40
1.0000040999999991
 50
270.0
 51
89.999997000002296
  0
ARC
  5
16181
  8
AM_0
 10
723.45838580902125
 20
543.94075655327413
 30
0.0
 40
1.000035999999999
 50
269.50070999999838
 51
90.499283999999903
  0
ARC
  5
16182
  8
AM_0
 10
724.73969580902133
 20
543.94075655327413
 30
0.0
 40
1.270003999999999
 50
270.0
 51
89.999997000002296
  0
ARC
  5
16183
  8
AM_0
 10
730.01468580902133
 20
545.94569655327416
 30
0.0
 40
1.0049318999999981
 50
180.280450000001
 51
269.719549999999
  0
ARC
  5
16184
  8
AM_0
 10
730.0095658090213
 20
541.94092655327415
 30
0.0
 40
0.99985206
 50
89.991425999998739
 51
180.00857000000201
  0
LINE
  5
16185
  8
AM_0
 10
732.00974580902096
 20
543.33076655327488
 30
0.0
 11
732.00974580902096
 21
544.49078655327446
 31
0.0
  0
ARC
  5
16186
  8
AM_0
 10
707.00971580902115
 20
543.94075655327413
 30
0.0
 40
1.0000040999999991
 50
270.0
 51
89.999997000002296
  0
LINE
  5
16187
  8
AM_0
 10
732.23972580902114
 20
499.33080755327472
 30
0.0
 11
733.50974580902096
 21
500.06080355327458
 31
0.0
  0
LINE
  5
16188
  8
AM_0
 10
732.21976580902094
 20
500.45080255327463
 30
0.0
 11
733.45975580902098
 21
501.0808005532744
 31
0.0
  0
LINE
  5
16189
  8
AM_0
 10
732.25974580902118
 20
505.98078655327458
 30
0.0
 11
733.55973580902105
 21
506.83079255327459
 31
0.0
  0
LINE
  5
1618A
  8
AM_0
 10
732.2497358090211
 20
501.44080855327462
 30
0.0
 11
733.529765809021
 21
502.21082055327457
 31
0.0
  0
LINE
  5
1618B
  8
AM_0
 10
732.23972580902114
 20
507.09079455327452
 30
0.0
 11
733.5196958090213
 21
507.84077955327461
 31
0.0
  0
LINE
  5
1618C
  8
AM_0
 10
732.22971580902106
 20
502.56077355327449
 30
0.0
 11
733.47971580902117
 21
503.22076155327471
 31
0.0
  0
LINE
  5
1618D
  8
AM_0
 10
732.19974580902112
 20
513.33080055327457
 30
0.0
 11
733.39969580902095
 21
513.85076655327464
 31
0.0
  0
LINE
  5
1618E
  8
AM_0
 10
732.14969580902095
 20
515.24079655327455
 30
0.0
 11
733.2997258090212
 21
515.60079655327445
 31
0.0
  0
LINE
  5
1618F
  8
AM_0
 10
735.50968580902133
 20
533.79076655327447
 30
0.0
 11
730.92972580902131
 21
533.79076655327447
 31
0.0
  0
LINE
  5
16190
  8
AM_0
 10
730.00974580902118
 20
522.94078655327462
 30
0.0
 11
733.00974580902096
 21
522.94078655327462
 31
0.0
  0
LINE
  5
16191
  8
AM_0
 10
730.00974580902118
 20
524.94077655327465
 30
0.0
 11
733.00974580902096
 21
524.94077655327465
 31
0.0
  0
LINE
  5
16192
  8
AM_0
 10
730.00974580902118
 20
532.94076655327456
 30
0.0
 11
733.00974580902096
 21
532.94076655327456
 31
0.0
  0
LINE
  5
16193
  8
AM_0
 10
730.00974580902118
 20
534.94078655327462
 30
0.0
 11
733.00974580902096
 21
534.94078655327462
 31
0.0
  0
ARC
  5
16194
  8
AM_0
 10
733.01468580902133
 20
533.94569655327405
 30
0.0
 40
0.99508399
 50
359.71611000000212
 51
90.283894000000515
  0
LINE
  5
16195
  8
AM_0
 10
735.50968580902133
 20
531.66077655327445
 30
0.0
 11
734.00968580902133
 21
531.66077655327445
 31
0.0
  0
LINE
  5
16196
  8
AM_0
 10
736.00358580902116
 20
530.9489265532743
 30
0.0
 11
735.50355580902101
 21
530.98893655327436
 31
0.0
  0
ARC
  5
16197
  8
AM_0
 10
733.00956580902141
 20
533.94098655327434
 30
0.0
 40
1.000199999999998
 50
270.01149000000231
 51
359.98849999999652
  0
LINE
  5
16198
  8
AM_0
 10
736.50358580902105
 20
533.71891655327443
 30
0.0
 11
736.00358580902116
 21
530.9489265532743
 31
0.0
  0
LINE
  5
16199
  8
AM_0
 10
735.50968580902133
 20
528.94077655327465
 30
0.0
 11
734.00974580902118
 21
528.81077655327465
 31
0.0
  0
ARC
  5
1619A
  8
AM_0
 10
733.00956580902141
 20
523.94097655327437
 30
0.0
 40
1.0001959999999981
 50
270.01128000000313
 51
359.98871999999687
  0
ARC
  5
1619B
  8
AM_0
 10
733.01468580902133
 20
523.94571655327411
 30
0.0
 40
0.99508399
 50
359.71632000000022
 51
90.283675999997385
  0
ARC
  5
1619C
  8
AM_0
 10
733.01322580902126
 20
514.76924655327434
 30
0.0
 40
0.9964760499999998
 50
292.82034000000061
 51
0.0874199999992698
  0
ARC
  5
1619D
  8
AM_0
 10
733.01334580902119
 20
516.55511955327415
 30
0.0
 40
0.9963800299999999
 50
286.70292999999862
 51
359.75050999999979
  0
ARC
  5
1619E
  8
AM_0
 10
733.01065580902116
 20
507.66546355327432
 30
0.0
 40
0.9991000299999999
 50
303.33823000000388
 51
0.3045799999989818
  0
ARC
  5
1619F
  8
AM_0
 10
733.01126580902132
 20
508.7000785532743
 30
0.0
 40
0.9984599899999999
 50
300.6134499999975
 51
0.0403800000005283
  0
ARC
  5
161A0
  8
AM_0
 10
733.01200580902116
 20
504.10207055327419
 30
0.0
 40
0.99770796
 50
297.95523999999818
 51
359.9259500000004
  0
ARC
  5
161A1
  8
AM_0
 10
733.01407580902116
 20
501.97113555327411
 30
0.0
 40
0.99566799
 50
296.5901699999992
 51
359.97956999999923
  0
ARC
  5
161A2
  8
AM_0
 10
733.01212580902131
 20
500.92544255327408
 30
0.0
 40
0.9976240400000001
 50
299.92046000000101
 51
359.73248999999612
  0
ARC
  5
161A3
  8
AM_0
 10
733.01096580902117
 20
503.06427455327429
 30
0.0
 40
0.9987800700000001
 50
301.29145000000108
 51
0.3733299999999318
  0
ARC
  5
161A4
  8
AM_0
 10
719.37946580902133
 20
511.28726655327409
 30
0.0
 40
6.007896399999999
 50
225.3827300000045
 51
266.47155000000168
  0
LINE
  5
161A5
  8
AM_0
 10
719.00971580902115
 20
500.59076655327448
 30
0.0
 11
719.0097158090208
 21
512.28076694114316
 31
0.0
  0
ARC
  5
161A6
  8
AM_0
 10
730.0095658090213
 20
521.94093655327413
 30
0.0
 40
0.99984801
 50
89.991193000001289
 51
180.00881000000291
  0
ARC
  5
161A7
  8
AM_0
 10
724.67970580902147
 20
533.93077655327409
 30
0.0
 40
1.3300000000000001
 50
270.0
 51
89.999997000002296
  0
ARC
  5
161A8
  8
AM_0
 10
730.01462580902125
 20
535.9456865532743
 30
0.0
 40
1.004928
 50
180.28023999999991
 51
269.71976000000001
  0
LINE
  5
161A9
  8
AM_0
 10
732.00974580902096
 20
533.33078655327461
 30
0.0
 11
732.00974580902096
 21
534.55076655327446
 31
0.0
  0
ARC
  5
161AA
  8
AM_0
 10
730.0095658090213
 20
531.94092655327415
 30
0.0
 40
0.9998440099999999
 50
89.99098200000229
 51
180.0090200000005
  0
ARC
  5
161AB
  8
AM_0
 10
723.45838580902125
 20
533.94077655327408
 30
0.0
 40
1.000035999999999
 50
269.50070999999838
 51
90.499283999999903
  0
ARC
  5
161AC
  8
AM_0
 10
724.54969580902116
 20
523.92075655327415
 30
0.0
 40
1.4599999999999991
 50
270.0
 51
89.999997000002296
  0
LINE
  5
161AD
  8
AM_0
 10
732.00974580902096
 20
523.31077655327465
 30
0.0
 11
732.00974580902096
 21
524.68076655327445
 31
0.0
  0
ARC
  5
161AE
  8
AM_0
 10
730.01462580902125
 20
525.9456865532743
 30
0.0
 40
1.0049238999999981
 50
180.28002999999609
 51
269.7199600000007
  0
ARC
  5
161AF
  8
AM_0
 10
723.45966580902132
 20
523.94076655327399
 30
0.0
 40
1.0000040999999991
 50
270.0
 51
89.999997000002296
  0
ARC
  5
161B0
  8
AM_0
 10
707.00971580902115
 20
533.94077655327408
 30
0.0
 40
1.0000040999999991
 50
270.0
 51
89.999997000002296
  0
ARC
  5
161B1
  8
AM_0
 10
707.00971580902115
 20
523.94076655327399
 30
0.0
 40
1.0000040999999991
 50
270.0
 51
89.999997000002296
  0
ARC
  5
161B2
  8
AM_0
 10
723.45966317909961
 20
513.94075950327419
 30
0.0
 40
1.000007050003423
 50
270.00015068234609
 51
89.999849317653869
  0
ARC
  5
161B3
  8
AM_0
 10
724.3297258090214
 20
513.89575655327405
 30
0.0
 40
1.6750081000000001
 50
270.0
 51
89.999997000002296
  0
LINE
  5
161B4
  8
AM_0
 10
732.00974580902096
 20
513.55077055327445
 30
0.0
 11
732.00974580902096
 21
514.61076855327462
 31
0.0
  0
LINE
  5
161B5
  8
AM_0
 10
729.00971580902115
 20
514.6407665532746
 30
0.0
 11
725.83967580902129
 21
514.6407665532746
 31
0.0
  0
ARC
  5
161B6
  8
AM_0
 10
730.01303580902118
 20
516.20412955327413
 30
0.0
 40
1.003363999999999
 50
180.1917200000035
 51
269.80829000000131
  0
ARC
  5
161B7
  8
AM_0
 10
731.86917580902127
 20
516.2034655532741
 30
0.0
 40
1.0027280000000001
 50
269.45960000000059
 51
286.24702999999778
  0
LINE
  5
161B8
  8
AM_0
 10
731.85971580902128
 20
515.20078055327463
 30
0.0
 11
730.00974580902118
 21
515.20078055327463
 31
0.0
  0
ARC
  5
161B9
  8
AM_0
 10
729.70914580902115
 20
512.55133555327438
 30
0.0
 40
0.69944
 50
89.954159999999803
 51
180.04584000000011
  0
ARC
  5
161BA
  8
AM_0
 10
731.80674580902121
 20
514.25600155327413
 30
0.0
 40
1.005223999999999
 50
270.1706399999963
 51
293.01371000000171
  0
LINE
  5
161BB
  8
AM_0
 10
731.80973580902105
 20
513.25077555327459
 30
0.0
 11
729.7097558090212
 21
513.25077555327459
 31
0.0
  0
ARC
  5
161BC
  8
AM_0
 10
731.74637580902117
 20
507.96177455327421
 30
0.0
 40
1.001012
 50
269.6198000000029
 51
299.52863999999818
  0
ARC
  5
161BD
  8
AM_0
 10
730.01218580902116
 20
507.96323855327432
 30
0.0
 40
1.0024599999999999
 50
180.14038000000539
 51
269.85962000000097
  0
LINE
  5
161BE
  8
AM_0
 10
731.73972580902114
 20
506.96078255327461
 30
0.0
 11
730.00974580902118
 21
506.96078255327461
 31
0.0
  0
ARC
  5
161BF
  8
AM_0
 10
707.00971580902115
 20
513.94075655327413
 30
0.0
 40
1.0000040999999991
 50
270.0
 51
89.999997000002296
  0
ARC
  5
161C0
  8
AM_0
 10
715.8631758090213
 20
507.7318565532741
 30
0.0
 40
1.007376
 50
174.93659510000259
 51
225.70967999999871
  0
ARC
  5
161C1
  8
AM_0
 10
719.83949580902117
 20
507.34788655327418
 30
0.0
 40
5.0021839000000003
 50
99.548574999998621
 51
174.57547400000249
  0
LINE
  5
161C2
  8
AM_0
 10
684.00965580902096
 20
502.59076655327459
 30
0.0
 11
719.00965580902096
 21
504.62076655327462
 31
0.0
  0
ARC
  5
161C3
  8
AM_0
 10
722.83778580902128
 20
492.67646755327422
 30
0.0
 40
1.995695899999999
 50
270.05521999999718
 51
347.9774699999997
  0
LINE
  5
161C4
  8
AM_0
 10
729.00971580902115
 20
491.51075755327457
 30
0.0
 11
726.18971580902132
 21
491.44075755327469
 31
0.0
  0
ARC
  5
161C5
  8
AM_0
 10
727.17475580902135
 20
490.31898455327411
 30
0.0
 40
1.501779999999999
 50
89.810617000000875
 51
165.6671640000005
  0
LINE
  5
161C6
  8
AM_0
 10
708.00971580902115
 20
487.0507585532747
 30
0.0
 11
708.00971580902115
 21
494.46076155327461
 31
0.0
  0
LINE
  5
161C7
  8
AM_0
 10
724.8197158090212
 20
488.81075255327448
 30
0.0
 11
725.73975580902129
 21
492.69074955327432
 31
0.0
  0
LINE
  5
161C8
  8
AM_0
 10
729.00971580902115
 20
500.59076655327448
 30
0.0
 11
719.00971580902115
 21
500.59076655327448
 31
0.0
  0
LINE
  5
161C9
  8
AM_0
 10
722.7797358090213
 20
495.96076155327449
 30
0.0
 11
709.50971580902115
 21
495.96076155327449
 31
0.0
  0
LINE
  5
161CA
  8
AM_0
 10
729.00971580902115
 20
506.2507665532745
 30
0.0
 11
719.00971580902115
 21
506.2507665532745
 31
0.0
  0
LINE
  5
161CB
  8
AM_0
 10
725.28968580902097
 20
500.59076655327448
 30
0.0
 11
724.7496458090211
 21
497.60074555327441
 31
0.0
  0
ARC
  5
161CC
  8
AM_0
 10
729.50931580902147
 20
498.69121255327411
 30
0.0
 40
0.49955601
 50
89.949105999995879
 51
180.0508899999968
  0
ARC
  5
161CD
  8
AM_0
 10
731.71695580902133
 20
506.82127855327423
 30
0.0
 40
1.0005360000000001
 50
269.58677999999787
 51
302.85359999999991
  0
LINE
  5
161CE
  8
AM_0
 10
731.70969580902135
 20
505.82076755327461
 30
0.0
 11
729.00974580902096
 21
505.82076755327461
 31
0.0
  0
LINE
  5
161CF
  8
AM_0
 10
732.00974580902096
 20
506.11078355327447
 30
0.0
 11
732.00974580902096
 21
506.58076955327459
 31
0.0
  0
ARC
  5
161D0
  8
AM_0
 10
731.7290458090215
 20
500.19185355327431
 30
0.0
 40
1.001135899999998
 50
270.61249000000061
 51
300.67199999999718
  0
ARC
  5
161D1
  8
AM_0
 10
731.76389580902128
 20
501.3400395532741
 30
0.0
 40
0.99928796
 50
270.33380999999872
 51
297.13873000000171
  0
ARC
  5
161D2
  8
AM_0
 10
729.5131658090213
 20
500.84416655327431
 30
0.0
 40
0.50340396
 50
180.3861300000047
 51
269.61387000000178
  0
LINE
  5
161D3
  8
AM_0
 10
731.73972580902114
 20
499.1907705532746
 30
0.0
 11
729.50968580902133
 21
499.1907705532746
 31
0.0
  0
LINE
  5
161D4
  8
AM_0
 10
731.76975580902104
 20
500.34078755327459
 30
0.0
 11
729.50968580902133
 21
500.34078755327459
 31
0.0
  0
LINE
  5
161D5
  8
AM_0
 10
732.00974580902096
 20
499.44077755327459
 30
0.0
 11
732.00974580902096
 21
499.97077655327462
 31
0.0
  0
ARC
  5
161D6
  8
AM_0
 10
731.73838580902134
 20
502.30443355327429
 30
0.0
 40
1.003687999999999
 50
269.5072500000025
 51
300.6297299999992
  0
LINE
  5
161D7
  8
AM_0
 10
731.72971580902106
 20
501.30078655327458
 30
0.0
 11
729.00974580902096
 21
501.30078655327458
 31
0.0
  0
LINE
  5
161D8
  8
AM_0
 10
731.75968580902133
 20
502.44077755327447
 30
0.0
 11
730.00974580902118
 21
502.44077755327447
 31
0.0
  0
LINE
  5
161D9
  8
AM_0
 10
732.00974580902096
 20
501.5407685532744
 30
0.0
 11
732.00974580902096
 21
502.09077155327458
 31
0.0
  0
ARC
  5
161DA
  8
AM_0
 10
731.75455580902133
 20
503.44140355327409
 30
0.0
 40
1.0006280000000001
 50
270.29529000000059
 51
298.35013999999779
  0
ARC
  5
161DB
  8
AM_0
 10
730.01377580902135
 20
503.44485955327411
 30
0.0
 40
1.004083999999998
 50
180.23263000000361
 51
269.76737000000293
  0
LINE
  5
161DC
  8
AM_0
 10
727.17970580902136
 20
491.82076955327449
 30
0.0
 11
725.529675809021
 21
491.82076955327449
 31
0.0
  0
LINE
  5
161DD
  8
AM_0
 10
727.19972580902129
 20
493.84076655327459
 30
0.0
 11
725.13972580902134
 21
493.84076655327459
 31
0.0
  0
ARC
  5
161DE
  8
AM_0
 10
727.19538580902133
 20
492.3444285532741
 30
0.0
 40
1.4963319999999991
 50
89.835409999999186
 51
166.61756199999849
  0
LINE
  5
161DF
  8
AM_0
 10
727.21974580902111
 20
497.91076655327458
 30
0.0
 11
724.79969580902127
 21
497.91076655327458
 31
0.0
  0
ARC
  5
161E0
  8
AM_0
 10
727.21955580902136
 20
496.4079735532743
 30
0.0
 40
1.5027881000000001
 50
89.995332000003117
 51
167.98665799999739
  0
ARC
  5
161E1
  8
AM_0
 10
722.78272580902149
 20
497.96038755327442
 30
0.0
 40
1.9996280999999989
 50
269.91467
 51
349.63923999999753
  0
LINE
  5
161E2
  8
AM_0
 10
724.78968580902085
 20
492.26075755327457
 30
0.0
 11
725.74970580902107
 21
496.72077155327457
 31
0.0
  0
ARC
  5
161E3
  8
AM_0
 10
709.51008580902135
 20
494.46039555327422
 30
0.0
 40
1.5003600999999991
 50
90.013814999999965
 51
179.9861839999985
  0
LINE
  5
161E4
  8
AM_0
 10
722.8697058090213
 20
487.2707595532745
 30
0.0
 11
709.50971580902115
 21
487.2707595532745
 31
0.0
  0
LINE
  5
161E5
  8
AM_0
 10
722.89973580902131
 20
485.64075455327458
 30
0.0
 11
709.39973580902131
 21
485.64075455327458
 31
0.0
  0
LINE
  5
161E6
  8
AM_0
 10
722.83967580902106
 20
490.68075555327471
 30
0.0
 11
709.50971580902115
 21
490.68075555327471
 31
0.0
  0
ARC
  5
161E7
  8
AM_0
 10
722.87177580902141
 20
489.2726975532741
 30
0.0
 40
2.001947899999998
 50
269.94051999999903
 51
346.6588600000016
  0
ARC
  5
161E8
  8
AM_0
 10
722.89729580902133
 20
487.6450725532743
 30
0.0
 40
2.0043239999999991
 50
270.0689100000011
 51
345.72195000000022
  0
LINE
  5
161E9
  8
AM_0
 10
724.83967580902106
 20
487.15077155327469
 30
0.0
 11
725.71967580902094
 21
490.69077255327448
 31
0.0
  0
ARC
  5
161EA
  8
AM_0
 10
706.00861580902131
 20
485.02719055327429
 30
0.0
 40
1.996427999999999
 50
270.0323900000019
 51
345.3053699999997
  0
ARC
  5
161EB
  8
AM_0
 10
706.00990580902135
 20
485.7005845532741
 30
0.0
 40
1.999824
 50
269.99493999999879
 51
0.0050600000012402
  0
ARC
  5
161EC
  8
AM_0
 10
706.00807580902119
 20
489.08240455327427
 30
0.0
 40
2.001640099999999
 50
270.04695999999808
 51
359.95303999999533
  0
ARC
  5
161ED
  8
AM_0
 10
709.5083158090215
 20
485.77220155327421
 30
0.0
 40
1.498559999999999
 50
89.944884999996916
 51
180.05511999999939
  0
ARC
  5
161EE
  8
AM_0
 10
709.51124580902126
 20
489.17924455327409
 30
0.0
 40
1.5015080999999979
 50
90.057548999996854
 51
179.94245300200021
  0
ARC
  5
161EF
  8
AM_0
 10
706.00721580902132
 20
487.0532755532742
 30
0.0
 40
2.0025157999999981
 50
270.0718999999998
 51
359.92810000000009
  0
ARC
  5
161F0
  8
AM_0
 10
709.39100580902118
 20
484.14047955327408
 30
0.0
 40
1.5003120000000001
 50
89.668336999999084
 51
165.31696600000029
  0
LINE
  5
161F1
  8
AM_0
 10
582.00971580902115
 20
611.940771553275
 30
0.0
 11
582.00971579282805
 21
485.9408025774398
 31
0.0
  0
LINE
  5
161F2
  8
ﾁｭｳｼﾝｾﾝ1
 10
633.00974580902096
 20
583.44077655327465
 30
0.0
 11
633.00974580902096
 21
514.44077655327465
 31
0.0
1001
GENIUS_GENODEF_13
1002
{
1000
HIER
1070
     0
1002
}
1002
{
1000
MANEDIT
1070
     0
1002
}
1002
{
1000
NOSEL
1070
     0
1002
}
1002
{
1000
BEHIND
1070
     0
1002
}
1002
{
1000
REACTOR
1002
}
1001
GENIUS_GENOBJ-N-CEN_13
1002
{
1000
OWNER
1000
GEN
1002
}
  0
LINE
  5
161F3
  8
AM_0
 10
587.26969580902107
 20
609.32076655327467
 30
0.0
 11
583.80970580902112
 21
596.40074655327464
 31
0.0
  0
ARC
  5
161F4
  8
AM_0
 10
653.01032580902108
 20
612.8601465532746
 30
0.0
 40
2.000623899999999
 50
90.017824000002122
 51
179.9821759990013
  0
ARC
  5
161F5
  8
AM_0
 10
653.00678580902127
 20
612.18367655327427
 30
0.0
 40
1.9970881
 50
89.916374999999235
 51
180.08362000000139
  0
ARC
  5
161F6
  8
AM_0
 10
653.00947580902118
 20
610.8310265532748
 30
0.0
 40
1.9997199999999991
 50
89.991937999999706
 51
180.00806000000401
  0
LINE
  5
161F7
  8
AM_0
 10
651.00971580902115
 20
612.86075655327465
 30
0.0
 11
651.00971580902115
 21
610.80075655327471
 31
0.0
  0
LINE
  5
161F8
  8
AM_0
 10
582.29969580902105
 20
599.9807465532748
 30
0.0
 11
584.70969580902124
 21
599.9807465532748
 31
0.0
  0
LINE
  5
161F9
  8
AM_0
 10
587.2997258090212
 20
609.44075655327481
 30
0.0
 11
582.00971580902115
 21
609.44075655327481
 31
0.0
  0
ARC
  5
161FA
  8
AM_0
 10
582.30387580902118
 20
601.48123655327481
 30
0.0
 40
1.500475999999999
 50
269.84172000000018
 51
347.66777000000133
  0
LINE
  5
161FB
  8
AM_0
 10
585.19972580902117
 20
607.86079655327455
 30
0.0
 11
583.75971580902115
 21
601.16080655327471
 31
0.0
  0
ARC
  5
161FC
  8
AM_0
 10
587.15525580902124
 20
607.44058655327456
 30
0.0
 40
2.0001799999999981
 50
89.872485000002044
 51
167.87364800000211
  0
ARC
  5
161FD
  8
AM_0
 10
589.19926580902109
 20
608.80295655327461
 30
0.0
 40
1.997795899999999
 50
89.986419000002854
 51
164.97840299999831
  0
LINE
  5
161FE
  8
AM_0
 10
581.00971580902115
 20
612.94077155327489
 30
0.0
 11
573.00968580902122
 21
612.94077155327489
 31
0.0
  0
ARC
  5
161FF
  8
AM_0
 10
581.01466580902127
 20
611.94573155327475
 30
0.0
 40
0.9950640200000001
 50
359.714940000002
 51
90.285061999999584
  0
LINE
  5
16200
  8
AM_0
 10
581.00971580902115
 20
600.98076655327463
 30
0.0
 11
573.00968580902122
 21
600.98076655327463
 31
0.0
  0
ARC
  5
16201
  8
AM_0
 10
581.01530580902136
 20
599.98637655327457
 30
0.0
 40
0.9944000200000001
 50
359.67649000000222
 51
90.323509000000016
  0
ARC
  5
16202
  8
AM_0
 10
588.6678958090215
 20
583.94075655327435
 30
0.0
 40
1.000031899999998
 50
90.469299999997844
 51
269.53070000000201
  0
ARC
  5
16203
  8
AM_0
 10
585.18971580902132
 20
583.98575655327454
 30
0.0
 40
1.675
 50
89.999997000002296
 51
270.0
  0
ARC
  5
16204
  8
AM_0
 10
582.35944580902117
 20
596.79315655327457
 30
0.0
 40
1.502391899999999
 50
270.00936000000007
 51
344.85998999999862
  0
LINE
  5
16205
  8
AM_0
 10
582.00971580902115
 20
586.09076655327476
 30
0.0
 11
573.00968580902122
 21
586.09076655327476
 31
0.0
  0
ARC
  5
16206
  8
AM_0
 10
584.9797058090212
 20
573.96576655327453
 30
0.0
 40
1.4650000000000001
 50
90.00000299999769
 51
270.0
  0
ARC
  5
16207
  8
AM_0
 10
586.06973580902149
 20
573.94075655327447
 30
0.0
 40
1.0000040999999991
 50
90.00000299999769
 51
270.0
  0
ARC
  5
16208
  8
AM_0
 10
584.84470580902143
 20
563.95076655327443
 30
0.0
 40
1.3300000000000001
 50
90.00000299999769
 51
270.0
  0
ARC
  5
16209
  8
AM_0
 10
586.0660258090212
 20
563.94077655327442
 30
0.0
 40
1.000035999999999
 50
89.500716000000082
 51
270.49929000000162
  0
ARC
  5
1620A
  8
AM_0
 10
586.0660258090212
 20
553.94075655327435
 30
0.0
 40
1.000035999999999
 50
89.500716000000082
 51
270.49929000000162
  0
ARC
  5
1620B
  8
AM_0
 10
584.78471580902124
 20
553.9457465532746
 30
0.0
 40
1.265004
 50
90.00000299999769
 51
270.0
  0
ARC
  5
1620C
  8
AM_0
 10
584.78471580902124
 20
543.94075655327458
 30
0.0
 40
1.270003999999999
 50
90.00000299999769
 51
270.0
  0
ARC
  5
1620D
  8
AM_0
 10
586.0660258090212
 20
543.94075655327458
 30
0.0
 40
1.000035999999999
 50
89.500716000000082
 51
270.49929000000162
  0
ARC
  5
1620E
  8
AM_0
 10
653.01057580902125
 20
485.03163155327462
 30
0.0
 40
2.0008759
 50
180.0251100000024
 51
269.97488999999757
  0
ARC
  5
1620F
  8
AM_0
 10
653.01203580902109
 20
485.70310155327462
 30
0.0
 40
2.002332
 50
180.06674000000129
 51
269.93325999999871
  0
ARC
  5
16210
  8
AM_0
 10
653.01472580902134
 20
487.05577055327439
 30
0.0
 40
2.0050240000000001
 50
180.1434100000013
 51
269.85658999999868
  0
LINE
  5
16211
  8
AM_0
 10
651.00971580902115
 20
485.0307615532746
 30
0.0
 11
651.00971580902115
 21
487.08076455327461
 31
0.0
  0
ARC
  5
16212
  8
AM_0
 10
584.84470580902143
 20
533.93077655327443
 30
0.0
 40
1.3300000000000001
 50
90.00000299999769
 51
270.0
  0
ARC
  5
16213
  8
AM_0
 10
586.0660258090212
 20
533.94077655327442
 30
0.0
 40
1.000035999999999
 50
89.500716000000082
 51
270.49929000000162
  0
ARC
  5
16214
  8
AM_0
 10
586.06474580902125
 20
523.94076655327433
 30
0.0
 40
1.0000040999999991
 50
90.00000299999769
 51
270.0
  0
ARC
  5
16215
  8
AM_0
 10
584.97471580902106
 20
523.92075655327426
 30
0.0
 40
1.4599999999999991
 50
90.00000299999769
 51
270.0
  0
ARC
  5
16216
  8
AM_0
 10
588.6678958090215
 20
513.94075655327435
 30
0.0
 40
1.000031899999998
 50
90.469299999997844
 51
269.53070000000201
  0
ARC
  5
16217
  8
AM_0
 10
585.18971580902132
 20
513.89575655327417
 30
0.0
 40
1.675
 50
89.999997000002296
 51
270.0
  0
LINE
  5
16218
  8
AM_0
 10
582.00971580902115
 20
511.79075655327432
 30
0.0
 11
573.00968580902122
 21
511.79075655327432
 31
0.0
  0
LINE
  5
16219
  8
AM_0
 10
585.19969580902102
 20
490.02075155327458
 30
0.0
 11
583.75968580902122
 21
496.72074855327452
 31
0.0
  0
LINE
  5
1621A
  8
AM_0
 10
587.26969580902107
 20
488.56075255327471
 30
0.0
 11
583.80970580902112
 21
501.48075855327448
 31
0.0
  0
LINE
  5
1621B
  8
AM_0
 10
582.29969580902105
 20
497.91076655327458
 30
0.0
 11
584.70969580902124
 21
497.91076655327458
 31
0.0
  0
ARC
  5
1621C
  8
AM_0
 10
582.36439580902118
 20
501.0947645532745
 30
0.0
 40
1.495995999999999
 50
14.95233999999475
 51
90.178293000000224
  0
ARC
  5
1621D
  8
AM_0
 10
582.30262580902115
 20
496.41143055327439
 30
0.0
 40
1.499328
 50
11.906159999999311
 51
90.111848999999921
  0
LINE
  5
1621E
  8
AM_0
 10
581.00971580902115
 20
496.90075655327462
 30
0.0
 11
573.00968580902122
 21
496.90075655327462
 31
0.0
  0
ARC
  5
1621F
  8
AM_0
 10
581.0102358090212
 20
497.90023755327462
 30
0.0
 40
0.9994760199999999
 50
269.9700799999996
 51
0.0299099999979458
  0
LINE
  5
16220
  8
AM_0
 10
587.2997258090212
 20
488.44075755327469
 30
0.0
 11
582.00971580902115
 21
488.44075755327469
 31
0.0
  0
ARC
  5
16221
  8
AM_0
 10
589.20429580902135
 20
489.08517455327461
 30
0.0
 40
2.0044159999999991
 50
195.1666599999993
 51
269.86852000000118
  0
ARC
  5
16222
  8
AM_0
 10
587.16038580902125
 20
490.4472955532745
 30
0.0
 40
2.0065319999999991
 50
192.27313000000419
 51
269.98073000000318
  0
LINE
  5
16223
  8
AM_0
 10
581.0097158090208
 20
484.94079155327478
 30
0.0
 11
573.00968580902122
 21
484.94079155327478
 31
0.0
  0
ARC
  5
16224
  8
AM_0
 10
581.00953580902114
 20
485.94098255327458
 30
0.0
 40
1.000179999999999
 50
270.01032000000009
 51
359.98968999999448
  0
LINE
  5
16225
  8
AM_0
 10
365.00965057407069
 20
599.94078556498312
 30
0.0
 11
386.0096505740708
 21
599.94078556498312
 31
0.0
  0
LINE
  5
16226
  8
AM_0
 10
383.5096505740708
 20
609.94078556498323
 30
0.0
 11
367.50965057407092
 21
609.94078556498323
 31
0.0
  0
LINE
  5
16227
  8
AM_0
 10
365.00965057407069
 20
599.94078556498312
 30
0.0
 11
365.00965057407069
 21
597.94078556498323
 31
0.0
  0
LINE
  5
16228
  8
AM_0
 10
367.50965057407092
 20
609.94078556498323
 30
0.0
 11
367.50965057407092
 21
599.94078556498312
 31
0.0
  0
LINE
  5
16229
  8
AM_0
 10
386.0096505740708
 20
599.94078556498312
 30
0.0
 11
386.0096505740708
 21
597.94078556498323
 31
0.0
  0
LINE
  5
1622A
  8
AM_0
 10
383.5096505740708
 20
599.94078556498312
 30
0.0
 11
383.5096505740708
 21
609.94078556498323
 31
0.0
  0
LINE
  5
1622B
  8
AM_0
 10
513.00968535439347
 20
599.94078556498312
 30
0.0
 11
534.00968535439347
 21
599.94078556498312
 31
0.0
  0
LINE
  5
1622C
  8
AM_0
 10
531.50968535439335
 20
609.94078556498323
 30
0.0
 11
515.50968535439335
 21
609.94078556498323
 31
0.0
  0
LINE
  5
1622D
  8
AM_0
 10
513.00968535439347
 20
599.94078556498312
 30
0.0
 11
513.00968535439347
 21
597.94078556498323
 31
0.0
  0
LINE
  5
1622E
  8
AM_0
 10
515.50968535439335
 20
609.94078556498323
 30
0.0
 11
515.50968535439335
 21
599.94078556498312
 31
0.0
  0
LINE
  5
1622F
  8
AM_0
 10
534.00968535439347
 20
599.94078556498312
 30
0.0
 11
534.00968535439347
 21
597.94078556498323
 31
0.0
  0
LINE
  5
16230
  8
AM_0
 10
531.50968535439335
 20
599.94078556498312
 30
0.0
 11
531.50968535439335
 21
609.94078556498323
 31
0.0
  0
LINE
  5
16231
  8
AM_0
 10
535.50968570002124
 20
519.9407756890073
 30
0.0
 11
537.50963598314115
 21
478.9407756890073
 31
0.0
  0
LINE
  5
16232
  8
AM_0
 10
361.50956776876188
 20
478.94077568900758
 30
0.0
 11
537.50963598314115
 21
478.9407756890073
 31
0.0
  0
LINE
  5
16233
  8
AM_0
 10
363.75597432138801
 20
519.9407756890073
 30
0.0
 11
361.50956776876188
 21
478.94077568900758
 31
0.0
  0
LINE
  5
16234
  8
AM_0
 10
536.729167579972
 20
494.94077568900758
 30
0.0
 11
362.38621422832341
 21
494.94077568900758
 31
0.0
  0
LINE
  5
16235
  8
AM_0
 10
384.39216775273547
 20
478.94077568900758
 30
0.0
 11
384.39216775273559
 21
494.94077568900758
 31
0.0
  0
LINE
  5
16236
  8
ﾁｭｳｼﾝｾﾝ1
 10
391.50968746192331
 20
473.94077568900758
 30
0.0
 11
391.50968746192342
 21
499.94077568900758
 31
0.0
  0
LINE
  5
16237
  8
ﾁｭｳｼﾝｾﾝ1
 10
507.50965557343602
 20
473.94077568900758
 30
0.0
 11
507.50965557343602
 21
499.94077568900758
 31
0.0
  0
LINE
  5
16238
  8
AM_0
 10
514.62706856996715
 20
478.9407756890073
 30
0.0
 11
514.62706856996715
 21
494.94077568900758
 31
0.0
  0
LINE
  5
1623D
  8
0
 10
440.5096520429891
 20
438.93377046428981
 30
0.0
 11
440.5096520429891
 21
478.94077568900741
 31
0.0
  0
LINE
  5
1623E
  8
0
 10
412.50965204298899
 20
438.93377046428981
 30
0.0
 11
412.50965204298882
 21
478.94077568900741
 31
0.0
  0
LINE
  5
1623F
  8
AM_0
 10
412.50965204298899
 20
438.93377046428981
 30
0.0
 11
440.5096520429891
 21
438.93377046428969
 31
0.0
  0
LINE
  5
16242
  8
AM_0
 10
430.50965204298899
 20
438.93377046428969
 30
0.0
 11
430.50965204298899
 21
470.93377046428981
 31
0.0
  0
LINE
  5
16243
  8
AM_0
 10
422.50965204298899
 20
438.93377046428969
 30
0.0
 11
422.50965204298899
 21
470.93377046428981
 31
0.0
  0
LINE
  5
16244
  8
AM_0
 10
430.50965204298899
 20
470.93377046428981
 30
0.0
 11
422.50965204298899
 21
470.93377046428981
 31
0.0
  0
ARC
  5
16245
  8
AM_0
 10
426.50965204298899
 20
470.93377046428981
 30
0.0
 40
4.0
 50
0.0
 51
180.0
  0
LINE
  5
16247
  8
ｶｸﾚｾﾝ2
 10
391.00965092540179
 20
495.93376039108517
 30
0.0
 11
462.00965316057579
 21
495.93376039108517
 31
0.0
  0
LINE
  5
16248
  8
ｶｸﾚｾﾝ2
 10
444.00965204298882
 20
480.94077568900769
 30
0.0
 11
409.00965204298882
 21
480.94077568900769
 31
0.0
  0
LINE
  5
16249
  8
ｶｸﾚｾﾝ2
 10
449.00965271354119
 20
491.93376027187583
 30
0.0
 11
404.00965137243679
 21
491.93376027187583
 31
0.0
  0
LINE
  5
1624A
  8
ｶｸﾚｾﾝ2
 10
404.00965137243679
 20
491.93376027187583
 30
0.0
 11
404.00965137243679
 21
495.93376039108517
 31
0.0
  0
LINE
  5
1624B
  8
ｶｸﾚｾﾝ2
 10
404.00965137243679
 20
491.93376027187583
 30
0.0
 11
404.00965137243679
 21
495.93376039108517
 31
0.0
  0
LINE
  5
1624C
  8
ｶｸﾚｾﾝ2
 10
409.00965204298882
 20
480.94077568900769
 30
0.0
 11
404.00965137243679
 21
491.93376027187583
 31
0.0
  0
LINE
  5
1624D
  8
ｶｸﾚｾﾝ2
 10
449.00965271354119
 20
491.93376027187583
 30
0.0
 11
449.00965271354119
 21
495.93376039108517
 31
0.0
  0
LINE
  5
1624E
  8
ｶｸﾚｾﾝ2
 10
449.00965271354119
 20
491.93376027187583
 30
0.0
 11
449.00965271354119
 21
495.93376039108517
 31
0.0
  0
LINE
  5
1624F
  8
ｶｸﾚｾﾝ2
 10
449.00965271354119
 20
491.93376027187583
 30
0.0
 11
444.00965204298882
 21
480.94077568900769
 31
0.0
  0
LINE
  5
16250
  8
ｶｸﾚｾﾝ2
 10
440.50965204298882
 20
478.94077568900769
 30
0.0
 11
440.50965204298882
 21
480.94077568900769
 31
0.0
  0
LINE
  5
16251
  8
ｶｸﾚｾﾝ2
 10
412.50965204298882
 20
478.94077568900769
 30
0.0
 11
412.50965204298882
 21
480.94077568900769
 31
0.0
  0
LINE
  5
164BD
  8
ﾁｭｳｼﾝｾﾝ1
 10
225.42144439084311
 20
168.93626973570571
 30
0.0
 11
199.42144439084311
 21
168.93626973570571
 31
0.0
1001
GENIUS_GENODEF_13
1002
{
1000
HIER
1070
     0
1002
}
1002
{
1000
MANEDIT
1070
     0
1002
}
1002
{
1000
NOSEL
1070
     0
1002
}
1002
{
1000
BEHIND
1070
     0
1002
}
1002
{
1000
OTHER
1070
     0
1002
}
1002
{
1000
REACTOR
1002
}
1001
GENIUS_GENOBJ-N-CEN_13
1002
{
1000
OWNER
1000
GEN
1002
}
  0
LINE
  5
164BE
  8
ﾁｭｳｼﾝｾﾝ1
 10
225.42144439084311
 20
330.93626557091972
 30
0.0
 11
199.42144439084311
 21
330.93626617097351
 31
0.0
1001
GENIUS_GENODEF_13
1002
{
1000
HIER
1070
     0
1002
}
1002
{
1000
MANEDIT
1070
     0
1002
}
1002
{
1000
NOSEL
1070
     0
1002
}
1002
{
1000
BEHIND
1070
     0
1002
}
1002
{
1000
OTHER
1070
     0
1002
}
1002
{
1000
REACTOR
1002
}
1001
GENIUS_GENOBJ-N-CEN_13
1002
{
1000
OWNER
1000
GEN
1002
}
  0
TEXT
  5
1679F
  8
AM_0
 10
53.787622439456072
 20
546.17537791677751
 30
0.0
 40
10.0
  1
VC04-007FMR~VC04-060FMR
1001
ACAD
1000
MTEXTBEGIN
1070
    73
1070
     1
1070
    44
1040
1.0
1070
    74
1070
     0
1000
MTEXTEND
  0
VIEWPORT
  5
89
 67
     1
  8
0
 10
210.0
 20
148.5
 30
0.0
 40
420.0
 41
297.0
 68
     1
 69
     1
1001
ACAD
1000
MVIEW
1002
{
1070
    16
1010
0.0
1020
0.0
1030
0.0
1010
0.0
1020
0.0
1030
1.0
1040
0.0
1040
297.0
1040
221.70154043645701
1040
148.5
1040
50.0
1040
0.0
1040
0.0
1070
     0
1070
   100
1070
     1
1070
     1
1070
     0
1070
     0
1070
     0
1070
     0
1040
0.0
1040
0.0
1040
0.0
1040
10.0
1040
10.0
1040
10.0
1040
10.0
1070
     0
1002
{
1002
}
1002
}
1001
GENIUS_GENOREF_13
1005
1B94
1001
GENIUS_GENSCREG_15
1000
PF
1040
1.0
1000
DF
1040
1.0
1000
MIN
1011
0.0
1021
0.0
1031
0.0
1021
0.0
1031
0.0
1000
MAX
1011
420.0
1021
0.0
1031
0.0
1021
297.0
1031
0.0
1000
FLAGS
1070
     4
  0
ENDSEC
  0
EOF
