  0
SECTION
  2
HEADER
  9
$ACADVER
  1
AC1009
  9
$INSBASE
 10
0.0
 20
0.0
 30
0.0
  9
$EXTMIN
 10
73.156649463293888
 20
189.43497245118101
 30
-0.0015258207003583
  9
$EXTMAX
 10
891.02469108279865
 20
743.2909732108626
 30
0.0000000349246037
  9
$LIMMIN
 10
0.0
 20
0.0
  9
$LIMMAX
 10
1138.0
 20
740.00000000000011
  9
$ORTHOMODE
 70
     0
  9
$REGENMODE
 70
     1
  9
$FILLMODE
 70
     1
  9
$QTEXTMODE
 70
     0
  9
$MIRRTEXT
 70
     1
  9
$DRAGMODE
 70
     2
  9
$LTSCALE
 40
4.0
  9
$OSMODE
 70
   551
  9
$ATTMODE
 70
     1
  9
$TEXTSIZE
 40
2.5
  9
$TRACEWID
 40
1.0
  9
$TEXTSTYLE
  7
STANDARD
  9
$CLAYER
  8
AM_0
  9
$CELTYPE
  6
BYLAYER
  9
$CECOLOR
 62
   256
  9
$DIMSCALE
 40
4.0
  9
$DIMASZ
 40
2.5
  9
$DIMEXO
 40
1.0
  9
$DIMDLI
 40
7.0
  9
$DIMRND
 40
0.0
  9
$DIMDLE
 40
0.0
  9
$DIMEXE
 40
1.0
  9
$DIMTP
 40
0.1
  9
$DIMTM
 40
0.1000000001
  9
$DIMTXT
 40
2.5
  9
$DIMCEN
 40
0.0
  9
$DIMTSZ
 40
0.0
  9
$DIMTOL
 70
     0
  9
$DIMLIM
 70
     0
  9
$DIMTIH
 70
     0
  9
$DIMTOH
 70
     0
  9
$DIMSE1
 70
     0
  9
$DIMSE2
 70
     0
  9
$DIMTAD
 70
     3
  9
$DIMZIN
 70
     8
  9
$DIMBLK
  1

  9
$DIMASO
 70
     1
  9
$DIMSHO
 70
     1
  9
$DIMPOST
  1

  9
$DIMAPOST
  1
"
  9
$DIMALT
 70
     0
  9
$DIMALTD
 70
     2
  9
$DIMALTF
 40
0.0393701
  9
$DIMLFAC
 40
1.0
  9
$DIMTOFL
 70
     1
  9
$DIMTVP
 40
0.0
  9
$DIMTIX
 70
     0
  9
$DIMSOXD
 70
     0
  9
$DIMSAH
 70
     0
  9
$DIMBLK1
  1

  9
$DIMBLK2
  1

  9
$DIMSTYLE
  2
AM_JIS
  9
$DIMCLRD
 70
   256
  9
$DIMCLRE
 70
   256
  9
$DIMCLRT
 70
     4
  9
$DIMTFAC
 40
0.71
  9
$DIMGAP
 40
1.0
  9
$LUNITS
 70
     2
  9
$LUPREC
 70
     2
  9
$SKETCHINC
 40
1.0
  9
$FILLETRAD
 40
10.0
  9
$AUNITS
 70
     0
  9
$AUPREC
 70
     3
  9
$MENU
  1
.
  9
$ELEVATION
 40
0.0
  9
$PELEVATION
 40
0.0
  9
$THICKNESS
 40
0.0
  9
$LIMCHECK
 70
     0
  9
$BLIPMODE
 70
     0
  9
$CHAMFERA
 40
10.0
  9
$CHAMFERB
 40
10.0
  9
$SKPOLY
 70
     0
  9
$TDCREATE
 40
2452753.643349607
  9
$TDUPDATE
 40
2458543.4426690391
  9
$TDINDWG
 40
0.6229436574
  9
$TDUSRTIMER
 40
0.6229434606000001
  9
$USRTIMER
 70
     1
  9
$ANGBASE
 50
0.0
  9
$ANGDIR
 70
     0
  9
$PDMODE
 70
     0
  9
$PDSIZE
 40
0.0
  9
$PLINEWID
 40
0.0
  9
$COORDS
 70
     1
  9
$SPLFRAME
 70
     0
  9
$SPLINETYPE
 70
     6
  9
$SPLINESEGS
 70
     8
  9
$ATTDIA
 70
     1
  9
$ATTREQ
 70
     1
  9
$HANDLING
 70
     1
  9
$HANDSEED
  5
1A087
  9
$SURFTAB1
 70
     6
  9
$SURFTAB2
 70
     6
  9
$SURFTYPE
 70
     6
  9
$SURFU
 70
     6
  9
$SURFV
 70
     6
  9
$UCSNAME
  2

  9
$UCSORG
 10
0.0
 20
0.0
 30
0.0
  9
$UCSXDIR
 10
1.0
 20
0.0
 30
0.0
  9
$UCSYDIR
 10
0.0
 20
1.0
 30
0.0
  9
$PUCSNAME
  2

  9
$PUCSORG
 10
0.0
 20
0.0
 30
0.0
  9
$PUCSXDIR
 10
1.0
 20
0.0
 30
0.0
  9
$PUCSYDIR
 10
0.0
 20
1.0
 30
0.0
  9
$USERI1
 70
     0
  9
$USERI2
 70
     0
  9
$USERI3
 70
     0
  9
$USERI4
 70
     0
  9
$USERI5
 70
     0
  9
$USERR1
 40
0.0
  9
$USERR2
 40
0.0
  9
$USERR3
 40
0.0
  9
$USERR4
 40
0.0
  9
$USERR5
 40
0.0
  9
$WORLDVIEW
 70
     1
  9
$SHADEDGE
 70
     3
  9
$SHADEDIF
 70
    70
  9
$TILEMODE
 70
     1
  9
$MAXACTVP
 70
    48
  9
$PLIMCHECK
 70
     0
  9
$PEXTMIN
 10
1.0000000000000000E+020
 20
1.0000000000000000E+020
 30
1.0000000000000000E+020
  9
$PEXTMAX
 10
-1.0000000000000000E+020
 20
-1.0000000000000000E+020
 30
-1.0000000000000000E+020
  9
$PLIMMIN
 10
0.0
 20
0.0
  9
$PLIMMAX
 10
420.0
 20
297.0
  9
$UNITMODE
 70
     0
  9
$VISRETAIN
 70
     1
  9
$PLINEGEN
 70
     0
  9
$PSLTSCALE
 70
     1
  0
ENDSEC
  0
SECTION
  2
TABLES
  0
TABLE
  2
VPORT
 70
     1
  0
VPORT
  2
*ACTIVE
 70
     0
 10
0.0
 20
0.0
 11
1.0
 21
1.0
 12
482.09067027304633
 22
466.36297283102181
 13
0.0
 23
0.0
 14
10.0
 24
10.0
 15
40.0
 25
40.0
 16
0.0
 26
0.0
 36
1.0
 17
0.0
 27
0.0
 37
0.0
 40
557.6582158678716
 41
1.7571592210767459
 42
50.0
 43
0.0
 44
0.0
 50
0.0
 51
0.0
 71
     0
 72
   100
 73
     1
 74
     1
 75
     0
 76
     0
 77
     0
 78
     0
  0
ENDTAB
  0
TABLE
  2
LTYPE
 70
    21
  0
LTYPE
  2
CONTINUOUS
 70
     0
  3
Solid line
 72
    65
 73
     0
 40
0.0
  0
LTYPE
  2
PHANTOM2
 70
     0
  3
Phantom (.5x) ___ _ _ ___ _ _ ___ _ _ ___ _ _
 72
    65
 73
     6
 40
31.75
 49
15.875
 49
-3.174999999999998
 49
3.174999999999998
 49
-3.174999999999998
 49
3.174999999999998
 49
-3.174999999999998
  0
LTYPE
  2
CENTER
 70
     0
  3
Center ____ _ ____ _ ____ _ ____ _ ____ _ ____
 72
    65
 73
     4
 40
50.799999999999997
 49
31.75
 49
-6.3499999999999979
 49
6.3499999999999979
 49
-6.3499999999999979
  0
LTYPE
  2
ACANSTGBM
 70
     0
  3
__ . . __ . .
 72
    65
 73
     6
 40
9.0
 49
4.0
 49
-1.0
 49
1.0
 49
-1.0
 49
1.0
 49
-1.0
  0
LTYPE
  2
ACANSTGLM
 70
     0
  3
_ _ _ _ _
 72
    65
 73
     2
 40
3.0
 49
2.0
 49
-1.0
  0
LTYPE
  2
GEN3B
 70
     0
  3
 - - - - -
 72
    65
 73
     2
 40
1.0
 49
0.5
 49
-0.5
  0
LTYPE
  2
GEN7A
 70
     0
  3
__ . __ . __
 72
    65
 73
     4
 40
7.375
 49
4.75
 49
-0.875
 49
0.875
 49
-0.875
  0
LTYPE
  2
AM_ISO02W050
 70
     0
  3
__ __ __ __ __ __ __ __ __ __ __ __ __ __ __
 72
    65
 73
     2
 40
7.5
 49
6.0
 49
-1.5
  0
LTYPE
  2
AM_ISO08W050
 70
     0
  3
____ . ____ . ____ . ____ . ____ . ____ . ____
 72
    65
 73
     4
 40
18.0
 49
12.0
 49
-1.5
 49
3.0
 49
-1.5
  0
LTYPE
  2
AM_ISO09W050
 70
     0
  3
_____ . . _____ . . _____ . . ____ .. ____
 72
    65
 73
     6
 40
22.5
 49
12.0
 49
-1.5
 49
3.0
 49
-1.5
 49
3.0
 49
-1.5
  0
LTYPE
  2
AMCONSTR
 70
     0
  3
_______________________
 72
    65
 73
     2
 40
9999.0
 49
9999.0
 49
0.0
  0
LTYPE
  2
AM_ISO02W050X2
 70
     0
  3
 _ _ _ _ _ _ _ _ _ _ _ _
 72
    65
 73
     2
 40
3.75
 49
3.0
 49
-0.75
  0
LTYPE
  2
AM_ISO08W050X2
 70
     0
  3
__ . __ . __ . __ . __ . __
 72
    65
 73
     4
 40
9.0
 49
6.0
 49
-0.75
 49
1.5
 49
-0.75
  0
LTYPE
  2
AMZIGZAG
 70
     0
  3
/\/-/\/-/\/-/\/-/\/-/\/
 72
    65
 73
     2
 40
11.0001
 49
0.0001
 49
-11.0
  0
LTYPE
  2
ACJISTGB
 70
     0
  3
__ . . __ . .
 72
    65
 73
     6
 40
9.0
 49
4.0
 49
-1.0
 49
1.0
 49
-1.0
 49
1.0
 49
-1.0
  0
LTYPE
  2
ACJISTGL
 70
     0
  3
_ _ _ _ _
 72
    65
 73
     2
 40
3.0
 49
2.0
 49
-1.0
  0
LTYPE
  2
ACISOWELD
 70
     0
  3
_ _ _ _ _
 72
    65
 73
     2
 40
2.0
 49
2.0
 49
-1.0
  0
LTYPE
  2
ACISOTGB
 70
     0
  3
__ . . __ . .
 72
    65
 73
     6
 40
9.0
 49
4.0
 49
-1.0
 49
1.0
 49
-1.0
 49
1.0
 49
-1.0
  0
LTYPE
  2
ACISOTGL
 70
     0
  3
_ _ _ _ _
 72
    65
 73
     2
 40
3.0
 49
2.0
 49
-1.0
  0
LTYPE
  2
HIDDEN
 70
     0
  3
Hidden __ __ __ __ __ __ __ __ __ __ __ __ __ _
 72
    65
 73
     2
 40
9.5249999999999968
 49
6.3499999999999979
 49
-3.174999999999998
  0
ENDTAB
  0
TABLE
  2
LAYER
 70
     9
  0
LAYER
  2
0
 70
     0
 62
     7
  6
CONTINUOUS
  0
LAYER
  2
ｽﾝﾎﾟｳｾﾝ
 70
     0
 62
     2
  6
CONTINUOUS
  0
LAYER
  2
DEFPOINTS
 70
     0
 62
     7
  6
CONTINUOUS
  0
LAYER
  2
ｷｲﾛ
 70
     0
 62
     2
  6
CONTINUOUS
  0
LAYER
  2
ｶｸﾚｾﾝ2
 70
     0
 62
     3
  6
GEN3B
  0
LAYER
  2
ﾁｭｳｼﾝｾﾝ1
 70
     0
 62
     1
  6
GEN7A
  0
LAYER
  2
AM_0
 70
     0
 62
     7
  6
CONTINUOUS
  0
LAYER
  2
AM_0N
 70
     0
 62
     7
  6
CONTINUOUS
  0
LAYER
  2
AM_5
 70
     0
 62
     2
  6
CONTINUOUS
  0
ENDTAB
  0
TABLE
  2
STYLE
 70
     8
  0
STYLE
  2
STANDARD
 70
     0
 40
0.0
 41
0.8299999999999999
 50
0.0
 71
     0
 42
2.5
  3
txt.shx
  4
bigfont.shx
  0
STYLE
  2
ACANSTS
 70
     0
 40
1.0
 41
1.0
 50
0.0
 71
     0
 42
2.5
  3
romans.shx
  4
bigfont.shx
  0
STYLE
  2
ACANSGDT
 70
     0
 40
0.0
 41
1.0
 50
0.0
 71
     0
 42
2.5
  3
amgdtans.shx
  4

  0
STYLE
  2

 70
     1
 40
0.0
 41
1.0
 50
0.0
 71
     0
 42
2.5
  3
ltypeshp.shx
  4

  0
STYLE
  2
ACJISTS
 70
     0
 40
1.0
 41
1.0
 50
0.0
 71
     0
 42
2.5
  3
isocp.shx
  4
bigfont.shx
  0
STYLE
  2
ACJISGDT
 70
     0
 40
0.0
 41
1.0
 50
0.0
 71
     0
 42
2.5
  3
amgdt.shx
  4

  0
STYLE
  2
ACISOTS
 70
     0
 40
3.0
 41
1.0
 50
0.0
 71
     0
 42
2.5
  3
isocp.shx
  4
extfont.shx
  0
STYLE
  2
ACISOGDT
 70
     0
 40
0.0
 41
1.0
 50
0.0
 71
     0
 42
2.5
  3
amgdt.shx
  4

  0
ENDTAB
  0
TABLE
  2
VIEW
 70
    12
  0
VIEW
  2
GEN1
 70
     0
 40
95.824742268041234
 10
71.5
 20
137.08762886597941
 41
143.0
 11
0.0
 21
0.0
 31
1.0
 12
0.0
 22
0.0
 32
0.0
 42
50.0
 43
0.0
 44
0.0
 50
0.0
 71
     0
  0
VIEW
  2
GEN2
 70
     0
 40
95.824742268041234
 10
214.5
 20
137.08762886597941
 41
143.0
 11
0.0
 21
0.0
 31
1.0
 12
0.0
 22
0.0
 32
0.0
 42
50.0
 43
0.0
 44
0.0
 50
0.0
 71
     0
  0
VIEW
  2
GEN3
 70
     0
 40
95.824742268041234
 10
71.5
 20
47.912371134020603
 41
143.0
 11
0.0
 21
0.0
 31
1.0
 12
0.0
 22
0.0
 32
0.0
 42
50.0
 43
0.0
 44
0.0
 50
0.0
 71
     0
  0
VIEW
  2
GEN4
 70
     0
 40
95.824742268041234
 10
214.5
 20
47.912371134020603
 41
143.0
 11
0.0
 21
0.0
 31
1.0
 12
0.0
 22
0.0
 32
0.0
 42
50.0
 43
0.0
 44
0.0
 50
0.0
 71
     0
  0
VIEW
  2
GEN5
 70
     0
 40
95.824742268041234
 10
143.0
 20
92.500000000000057
 41
143.0
 11
0.0
 21
0.0
 31
1.0
 12
0.0
 22
0.0
 32
0.0
 42
50.0
 43
0.0
 44
0.0
 50
0.0
 71
     0
  0
VIEW
  2
GEN6
 70
     0
 40
191.64756804123709
 10
143.0
 20
92.5
 41
285.99714
 11
0.0
 21
0.0
 31
1.0
 12
0.0
 22
0.0
 32
0.0
 42
50.0
 43
0.0
 44
0.0
 50
0.0
 71
     0
  0
VIEW
  2
AM_VIEW1
 70
     0
 40
370.00000000000023
 10
332.86372007366492
 20
555.00000000000011
 41
665.72744014732973
 11
0.0
 21
0.0
 31
1.0
 12
0.0
 22
0.0
 32
0.0
 42
50.0
 43
0.0
 44
0.0
 50
0.0
 71
     0
  0
VIEW
  2
AM_VIEW2
 70
     0
 40
370.00000000000023
 10
805.13627992633508
 20
555.00000000000011
 41
665.72744014732973
 11
0.0
 21
0.0
 31
1.0
 12
0.0
 22
0.0
 32
0.0
 42
50.0
 43
0.0
 44
0.0
 50
0.0
 71
     0
  0
VIEW
  2
AM_VIEW3
 70
     0
 40
370.00000000000023
 10
332.86372007366492
 20
185.0
 41
665.72744014732973
 11
0.0
 21
0.0
 31
1.0
 12
0.0
 22
0.0
 32
0.0
 42
50.0
 43
0.0
 44
0.0
 50
0.0
 71
     0
  0
VIEW
  2
AM_VIEW4
 70
     0
 40
370.00000000000023
 10
805.13627992633508
 20
185.0
 41
665.72744014732973
 11
0.0
 21
0.0
 31
1.0
 12
0.0
 22
0.0
 32
0.0
 42
50.0
 43
0.0
 44
0.0
 50
0.0
 71
     0
  0
VIEW
  2
AM_VIEW5
 70
     0
 40
370.00000000000023
 10
569.0
 20
370.00000000000023
 41
665.72744014732962
 11
0.0
 21
0.0
 31
1.0
 12
0.0
 22
0.0
 32
0.0
 42
50.0
 43
0.0
 44
0.0
 50
0.0
 71
     0
  0
VIEW
  2
AM_VIEW6
 70
     0
 40
739.99260000000015
 10
569.0
 20
370.00000000000023
 41
1331.4415657458569
 11
0.0
 21
0.0
 31
1.0
 12
0.0
 22
0.0
 32
0.0
 42
50.0
 43
0.0
 44
0.0
 50
0.0
 71
     0
  0
ENDTAB
  0
TABLE
  2
UCS
 70
     0
  0
ENDTAB
  0
TABLE
  2
APPID
 70
    96
  0
APPID
  2
ACAD
 70
     0
  0
APPID
  2
MCAD_NO_VIS
 70
     0
  0
APPID
  2
ACAD_TEMP_GRAPHIC
 70
     0
  0
APPID
  2
AD_DRAW
 70
     0
  0
APPID
  2
DESIGNERASSEMBLIES
 70
     0
  0
APPID
  2
ASURF_PCURVE_APPNAME
 70
     0
  0
APPID
  2
GENIUS_GE3SECT_13
 70
     0
  0
APPID
  2
GENIUS_GENCFG_13
 70
     0
  0
APPID
  2
GENIUS_GE3CFG0_13
 70
     0
  0
APPID
  2
GENIUS_GENCFG0_13
 70
     0
  0
APPID
  2
GENIUS_GENCFG1_13
 70
     0
  0
APPID
  2
GENIUS_GENCFG2_13
 70
     0
  0
APPID
  2
GENIUS_GENCFG3_13
 70
     0
  0
APPID
  2
GENIUS_GENCFG4_13
 70
     0
  0
APPID
  2
GENIUS_GEVCFG0_13
 70
     0
  0
APPID
  2
GENIUS_GENOENT_13
 70
     0
  0
APPID
  2
GENIUS_GENREC_14
 70
     0
  0
APPID
  2
GENIUS_GENODEF_13
 70
     0
  0
APPID
  2
GENIUS_GENOBJ-N-REC_13
 70
     0
  0
APPID
  2
GENIUS_GENHINW_13
 70
     0
  0
APPID
  2
GENIUS_FIRSTVISTXT_14
 70
     0
  0
APPID
  2
GENIUS_GENOBJ-N-LEADER_13
 70
     0
  0
APPID
  2
GENIUS_GENOREF_13
 70
     0
  0
APPID
  2
GENIUS_GENOLIS_13
 70
     0
  0
APPID
  2
GEV_VCCNULL_SWITCH_OFF
 70
     0
  0
APPID
  2
GENIUS_GENDTOL_13
 70
     0
  0
APPID
  2
GENIUS_GEFCFG0_13
 70
     0
  0
APPID
  2
GENIUS_GENOBJ-N-TIT_13
 70
     0
  0
APPID
  2
GENIUS_GENTITLE_13
 70
     0
  0
APPID
  2
GENIUS_GENZVEED_13
 70
     0
  0
APPID
  2
GENIUS_GENOBJ-N-SDF_13
 70
     0
  0
APPID
  2
GENIUS_GENSCREG_13
 70
     0
  0
APPID
  2
GENIUS_DUMCFG0_13
 70
     0
  0
APPID
  2
GEVID936201362
 70
     0
  0
APPID
  2
GEVDC
 70
     0
  0
APPID
  2
GEVCON
 70
     0
  0
APPID
  2
VCC
 70
     0
  0
APPID
  2
GEVPT
 70
     0
  0
APPID
  2
GEVIT
 70
     0
  0
APPID
  2
GENBH
 70
     0
  0
APPID
  2
GEVMK
 70
     0
  0
APPID
  2
GENIUS_GENBH_13
 70
     0
  0
APPID
  2
GENIUS_GENOBJ-NBEHI-BHF_13
 70
     0
  0
APPID
  2
GENIUS_GENOBJ-NBEHI-BHB_13
 70
     0
  0
APPID
  2
GENIUS_GENOBJ-F-DESC_13
 70
     0
  0
APPID
  2
GENIUS_GEFDESC_14
 70
     0
  0
APPID
  2
GENIUS_GENOBJ-F-PART_13
 70
     0
  0
APPID
  2
GENIUS_GEFSTDP_13
 70
     0
  0
APPID
  2
GENIUS_GEFPARTINS_13
 70
     0
  0
APPID
  2
GENIUS_GENTRA_14
 70
     0
  0
APPID
  2
GENIUS_GENINF13_13
 70
     0
  0
APPID
  2
GENIUS_GENOBJ-N-INFOPT_13
 70
     0
  0
APPID
  2
GENIUS_GENOBJ-N-RSSYM_13
 70
     0
  0
APPID
  2
GENIUS_GENSYMENT_13
 70
     0
  0
APPID
  2
GENIUS_GENSCSYM_13
 70
     0
  0
APPID
  2
GENIUS_GEFINFNAM_13
 70
     0
  0
APPID
  2
GENIUS_GENSCREG_15
 70
     0
  0
APPID
  2
GENIUS_GENOBJ-N-CEN_13
 70
     0
  0
APPID
  2
GENIUS_GENOBJ-N-CRS_13
 70
     0
  0
APPID
  2
GENIUS_GENOBJ-N-CRC_13
 70
     0
  0
APPID
  2
GENIUS_GENCRC_14
 70
     0
  0
APPID
  2
GEVID942827039
 70
     0
  0
APPID
  2
GEVID942827040
 70
     0
  0
APPID
  2
GEVID942827041
 70
     0
  0
APPID
  2
GENIUS_GENOBJ-F-SCPASSM_13
 70
     0
  0
APPID
  2
GENIUS_GENDIMSH_14
 70
     0
  0
APPID
  2
GENIUS_GENFIL_13
 70
     0
  0
APPID
  2
GENIUS_GENOBJ-N-CHA_13
 70
     0
  0
APPID
  2
GENIUS_GENOBJ-N-FIL_13
 70
     0
  0
APPID
  2
GEVID942827042
 70
     0
  0
APPID
  2
GEVID946020473
 70
     0
  0
APPID
  2
GEVID946020474
 70
     0
  0
APPID
  2
GEVID946020475
 70
     0
  0
APPID
  2
GENIUS_GENOBJ-N-HTC_13
 70
     0
  0
APPID
  2
GENIUS_GENHATCH_13
 70
     0
  0
APPID
  2
GEVID948854295
 70
     0
  0
APPID
  2
GEVID939402019
 70
     0
  0
APPID
  2
GEVID952919491
 70
     0
  0
APPID
  2
GEVID952919492
 70
     0
  0
APPID
  2
GENIUS_GEFWELD_13
 70
     0
  0
APPID
  2
GENIUS_GENOBJ-F-WELS_13
 70
     0
  0
APPID
  2
GEVID952919493
 70
     0
  0
APPID
  2
GENIUS_GENOBJ-N-RSBK_13
 70
     0
  0
APPID
  2
GENIUS_GENOBJ-N-LIB_13
 70
     0
  0
APPID
  2
GENIUS_GENSCALE_13
 70
     0
  0
APPID
  2
GEVID986376691
 70
     0
  0
APPID
  2
ACATTRIBSERVICES
 70
     0
  0
APPID
  2
DCO15
 70
     0
  0
APPID
  2
ACADM_DIM_EDIT
 70
     0
  0
APPID
  2
AMDT_DM_ADJ
 70
     0
  0
APPID
  2
ACAD_MLEADERVER
 70
     0
  0
APPID
  2
ACAD_DSTYLE_DIMBREAK
 70
     0
  0
APPID
  2
ACAD_DSTYLE_DIMJAG
 70
     0
  0
APPID
  2
ACAD_NAV_VCDISPLAY
 70
     0
  0
APPID
  2
ACADANNOPO
 70
     0
  0
APPID
  2
ACAD_EXEMPT_FROM_CAD_STANDARDS
 70
     0
  0
ENDTAB
  0
TABLE
  2
DIMSTYLE
 70
    16
  0
DIMSTYLE
  2
STANDARD
 70
     0
  3

  4

  5

  6

  7

 40
1.0
 41
0.18
 42
0.0625
 43
0.38
 44
0.18
 45
0.0
 46
0.0
 47
0.0
 48
0.0
140
0.18
141
0.09
142
0.0
143
25.399999999999999
144
1.0
145
0.0
146
1.0
147
0.09
 71
     0
 72
     0
 73
     1
 74
     1
 75
     0
 76
     0
 77
     0
 78
     0
170
     0
171
     2
172
     0
173
     0
174
     0
175
     0
176
     0
177
     0
178
     0
  0
DIMSTYLE
  2
AM_JIS
 70
     0
  3

  4
"
  5

  6

  7

 40
1.0
 41
2.5
 42
1.0
 43
7.0
 44
1.0
 45
0.0
 46
0.0
 47
0.1
 48
0.1000000001
140
2.5
141
0.0
142
0.0
143
0.0393701
144
1.0
145
0.0
146
0.71
147
1.0
 71
     0
 72
     0
 73
     0
 74
     0
 75
     0
 76
     0
 77
     3
 78
     8
170
     0
171
     2
172
     1
173
     0
174
     0
175
     0
176
   256
177
   256
178
     4
  0
DIMSTYLE
  2
AM_JIS$3
 70
     0
  3

  4
"
  5

  6

  7

 40
1.0
 41
2.5
 42
1.0
 43
7.0
 44
1.0
 45
0.0
 46
0.0
 47
0.1
 48
0.1000000001
140
2.5
141
0.0
142
0.0
143
0.0393701
144
1.0
145
0.0
146
0.71
147
1.0
 71
     0
 72
     0
 73
     0
 74
     1
 75
     0
 76
     0
 77
     3
 78
     8
170
     0
171
     2
172
     0
173
     0
174
     0
175
     0
176
   256
177
   256
178
     4
  0
DIMSTYLE
  2
AM_JIS$4
 70
     0
  3

  4
"
  5

  6

  7

 40
1.0
 41
2.5
 42
1.0
 43
7.0
 44
1.0
 45
0.0
 46
0.0
 47
0.1
 48
0.1000000001
140
2.5
141
0.0
142
0.0
143
0.0393701
144
1.0
145
0.0
146
0.71
147
1.0
 71
     0
 72
     0
 73
     0
 74
     0
 75
     0
 76
     0
 77
     3
 78
     8
170
     0
171
     2
172
     0
173
     0
174
     0
175
     0
176
   256
177
   256
178
     4
  0
DIMSTYLE
  2
AM_JIS$6
 70
     0
  3

  4
"
  5

  6

  7

 40
1.0
 41
2.5
 42
1.0
 43
7.0
 44
1.0
 45
0.0
 46
0.0
 47
0.1
 48
0.1000000001
140
2.5
141
0.0
142
0.0
143
0.0393701
144
1.0
145
0.0
146
0.71
147
1.0
 71
     0
 72
     0
 73
     0
 74
     0
 75
     0
 76
     0
 77
     0
 78
     8
170
     0
171
     2
172
     1
173
     0
174
     0
175
     0
176
   256
177
   256
178
     4
  0
DIMSTYLE
  2
AM_JIS$7
 70
     0
  3

  4
"
  5

  6

  7

 40
1.0
 41
2.5
 42
1.0
 43
7.0
 44
1.0
 45
0.0
 46
0.0
 47
0.1
 48
0.1000000001
140
2.5
141
0.0
142
0.0
143
0.0393701
144
1.0
145
0.0
146
0.71
147
1.0
 71
     0
 72
     0
 73
     0
 74
     0
 75
     0
 76
     0
 77
     3
 78
     8
170
     0
171
     2
172
     1
173
     0
174
     0
175
     0
176
   256
177
   256
178
     4
  0
DIMSTYLE
  2
AM_JIS$SF
 70
     0
  3

  4
"
  5
OPEN30
  6
OPEN30
  7
OPEN30
 40
1.0
 41
2.5
 42
1.0
 43
10.0
 44
1.0
 45
0.0
 46
0.0
 47
0.1
 48
0.1
140
3.5
141
0.0
142
0.0
143
0.0393701
144
1.0
145
0.0
146
0.71
147
1.5
 71
     0
 72
     0
 73
     0
 74
     0
 75
     1
 76
     1
 77
     3
 78
     8
170
     0
171
     2
172
     1
173
     0
174
     0
175
     0
176
   256
177
   256
178
     4
  0
DIMSTYLE
  2
AM_JIS$SH
 70
     0
  3

  4
"
  5

  6
NONE
  7

 40
1.0
 41
2.5
 42
1.0
 43
10.0
 44
1.0
 45
0.0
 46
0.0
 47
0.1
 48
0.1
140
3.5
141
0.0
142
0.0
143
0.0393701
144
1.0
145
0.0
146
0.71
147
1.5
 71
     0
 72
     0
 73
     0
 74
     0
 75
     1
 76
     0
 77
     3
 78
     8
170
     0
171
     2
172
     1
173
     1
174
     0
175
     0
176
   256
177
   256
178
     4
  0
DIMSTYLE
  2
AM_ISO
 70
     0
  3

  4
"
  5

  6

  7

 40
1.0
 41
2.5
 42
1.0
 43
10.0
 44
1.0
 45
0.0
 46
0.0
 47
0.0
 48
0.000000001
140
3.0
141
0.0
142
0.0
143
0.0393701
144
1.0
145
0.0
146
0.71
147
1.299999999999998
 71
     1
 72
     0
 73
     0
 74
     0
 75
     0
 76
     0
 77
     1
 78
     8
170
     0
171
     2
172
     1
173
     0
174
     0
175
     0
176
   256
177
   256
178
     4
  0
DIMSTYLE
  2
AM_ISO$3
 70
     0
  3

  4
"
  5

  6

  7

 40
1.0
 41
2.5
 42
1.0
 43
10.0
 44
1.0
 45
0.0
 46
0.0
 47
0.0
 48
0.000000001
140
2.5
141
0.0
142
0.0
143
0.0393701
144
1.0
145
0.0
146
0.71
147
1.299999999999998
 71
     1
 72
     0
 73
     0
 74
     1
 75
     0
 76
     0
 77
     1
 78
     8
170
     0
171
     2
172
     0
173
     0
174
     0
175
     0
176
   256
177
   256
178
     4
  0
DIMSTYLE
  2
AM_ISO$4
 70
     0
  3

  4
"
  5

  6

  7

 40
1.0
 41
2.5
 42
1.0
 43
10.0
 44
1.0
 45
0.0
 46
0.0
 47
0.0
 48
0.000000001
140
2.5
141
0.0
142
0.0
143
0.0393701
144
1.0
145
0.0
146
0.71
147
1.299999999999998
 71
     1
 72
     0
 73
     0
 74
     1
 75
     0
 76
     0
 77
     1
 78
     8
170
     0
171
     2
172
     0
173
     0
174
     0
175
     0
176
   256
177
   256
178
     4
  0
DIMSTYLE
  2
AM_ISO$6
 70
     0
  3

  4
"
  5

  6

  7

 40
1.0
 41
2.5
 42
1.0
 43
10.0
 44
1.0
 45
0.0
 46
0.0
 47
0.0
 48
0.000000001
140
2.5
141
0.0
142
0.0
143
0.0393701
144
1.0
145
0.0
146
0.71
147
1.299999999999998
 71
     1
 72
     0
 73
     0
 74
     0
 75
     0
 76
     0
 77
     0
 78
     8
170
     0
171
     2
172
     1
173
     0
174
     0
175
     0
176
   256
177
   256
178
     4
  0
DIMSTYLE
  2
AM_ISO$7
 70
     0
  3

  4
"
  5

  6

  7

 40
1.0
 41
2.5
 42
1.0
 43
10.0
 44
1.0
 45
0.0
 46
0.0
 47
0.0
 48
0.000000001
140
2.5
141
0.0
142
0.0
143
0.0393701
144
1.0
145
0.0
146
0.71
147
1.299999999999998
 71
     1
 72
     0
 73
     0
 74
     0
 75
     0
 76
     0
 77
     1
 78
     8
170
     0
171
     2
172
     1
173
     0
174
     0
175
     0
176
   256
177
   256
178
     4
  0
DIMSTYLE
  2
AM_ISO$SF
 70
     0
  3

  4
"
  5

  6

  7

 40
1.0
 41
2.5
 42
1.0
 43
10.0
 44
1.0
 45
0.0
 46
0.0
 47
0.1
 48
0.1
140
3.5
141
0.0
142
0.0
143
0.0393701
144
1.0
145
0.0
146
0.71
147
1.5
 71
     0
 72
     0
 73
     0
 74
     0
 75
     1
 76
     1
 77
     1
 78
     8
170
     0
171
     2
172
     1
173
     0
174
     0
175
     0
176
   256
177
   256
178
     4
  0
DIMSTYLE
  2
AM_ISO$SH
 70
     0
  3

  4
"
  5

  6
GENAXEH
  7

 40
1.0
 41
2.5
 42
1.0
 43
10.0
 44
1.0
 45
0.0
 46
0.0
 47
0.1
 48
0.1
140
3.5
141
0.0
142
0.0
143
0.0393701
144
2.0
145
0.0
146
0.71
147
1.5
 71
     0
 72
     0
 73
     0
 74
     0
 75
     1
 76
     1
 77
     1
 78
     8
170
     0
171
     2
172
     1
173
     1
174
     0
175
     0
176
   256
177
   256
178
     4
  0
DIMSTYLE
  2
AM_JIS$0
 70
     0
  3

  4
"
  5

  6

  7

 40
1.0
 41
2.5
 42
1.0
 43
7.0
 44
1.0
 45
0.0
 46
0.0
 47
0.1
 48
0.1000000001
140
2.5
141
0.0
142
0.0
143
0.0393701
144
1.0
145
0.0
146
0.71
147
1.0
 71
     0
 72
     0
 73
     0
 74
     0
 75
     0
 76
     0
 77
     3
 78
     8
170
     0
171
     2
172
     1
173
     0
174
     0
175
     0
176
   256
177
   256
178
     4
  0
ENDTAB
  0
ENDSEC
  0
SECTION
  2
BLOCKS
  0
BLOCK
  8
0
  2
$MODEL_SPACE
 70
     0
 10
0.0
 20
0.0
 30
0.0
  3
$MODEL_SPACE
  1

  0
ENDBLK
  5
1A
  8
0
  0
BLOCK
 67
     1
  8
0
  2
$PAPER_SPACE
 70
     0
 10
0.0
 20
0.0
 30
0.0
  3
$PAPER_SPACE
  1

  0
ENDBLK
  5
17
 67
     1
  8
0
  0
BLOCK
  8
0
  2
_OPEN30
 70
     0
 10
0.0
 20
0.0
 30
0.0
  3
_OPEN30
  1

  0
LINE
  5
21C5
  8
0
 62
     0
 10
-1.0
 20
0.26794919
 30
0.0
 11
0.0
 21
0.0
 31
0.0
  0
LINE
  5
21C6
  8
0
 62
     0
 10
0.0
 20
0.0
 30
0.0
 11
-1.0
 21
-0.26794919
 31
0.0
  0
LINE
  5
21C7
  8
0
 62
     0
 10
0.0
 20
0.0
 30
0.0
 11
-1.0
 21
0.0
 31
0.0
  0
ENDBLK
  5
21C9
  8
0
  0
BLOCK
  8
0
  2
GENAXEH
 70
     0
 10
0.0
 20
0.0
 30
0.0
  3
GENAXEH
  1

  0
LINE
  5
21D0
  8
0
 10
-1.0
 20
0.0
 30
0.0
 11
1.0
 21
0.0
 31
0.0
  0
ENDBLK
  5
21D2
  8
0
  0
BLOCK
  8
0
  2
_NONE
 70
     0
 10
0.0
 20
0.0
 30
0.0
  3
_NONE
  1

  0
ENDBLK
  5
8193
  8
0
  0
ENDSEC
  0
SECTION
  2
ENTITIES
  0
POINT
  5
1B94
  8
0
 10
0.0
 20
0.0
 30
0.0
1001
GENIUS_GENODEF_13
1002
{
1000
HIER
1070
     1
1002
}
1002
{
1000
MANEDIT
1070
     0
1002
}
1002
{
1000
NOSEL
1070
     0
1002
}
1002
{
1000
BEHIND
1070
     0
1002
}
1002
{
1000
REACTOR
1002
}
1001
GENIUS_GENOBJ-N-SDF_13
1002
{
1000
OWNER
1000
GEN
1002
}
1001
GENIUS_GENOENT_13
1002
{
1000
MYREF
1005
1B94
1002
}
1002
{
1000
GRP
1005
0
1002
}
1001
GENIUS_GENOLIS_13
1002
{
1000
ENT
1005
89
1002
}
  0
ARC
  5
18E0A
  8
0
 10
497.0332789791521
 20
364.62265412234348
 30
0.0
 40
5.0
 50
69.332681879990645
 51
180.0
1001
GENIUS_GENOBJ-N-FIL_13
1002
{
1000
OWNER
1000
GEN
1002
}
1001
GENIUS_GENODEF_13
1002
{
1000
HIER
1070
     0
1002
}
1002
{
1000
MANEDIT
1070
     0
1002
}
1002
{
1000
NOSEL
1070
     0
1002
}
1002
{
1000
BEHIND
1070
     0
1002
}
1002
{
1000
OTHER
1070
     0
1002
}
1002
{
1000
REACTOR
1002
}
  0
ARC
  5
18E0B
  8
0
 10
502.03327897915187
 20
379.52862571595261
 30
0.0
 40
10.0
 50
90.0
 51
180.0
1001
GENIUS_GENODEF_13
1002
{
1000
HIER
1070
     0
1002
}
1002
{
1000
MANEDIT
1070
     0
1002
}
1002
{
1000
NOSEL
1070
     0
1002
}
1002
{
1000
BEHIND
1070
     0
1002
}
1002
{
1000
OTHER
1070
     0
1002
}
1002
{
1000
REACTOR
1002
}
1001
GENIUS_GENOBJ-N-FIL_13
1002
{
1000
OWNER
1000
GEN
1002
}
  0
LINE
  5
18E0C
  8
0
 10
500.82118349641581
 20
403.29160463551102
 30
0.0
 11
492.92268099472102
 21
384.86173385644071
 31
0.0
  0
LINE
  5
18E0D
  8
0
 10
502.40778270614982
 20
422.22524408881418
 30
0.0
 11
487.40780934693561
 21
387.22524622333339
 31
0.0
  0
ARC
  5
18E0E
  8
0
 10
495.0332789791521
 20
340.52862571595313
 30
0.0
 40
3.0000000000000631
 50
270.0
 51
89.999999999998366
  0
ARC
  5
18E0F
  8
0
 10
495.03551823126048
 20
290.52862655166138
 30
0.0
 40
3.0000000000000631
 50
270.0
 51
89.999999999998366
  0
ARC
  5
18E10
  8
0
 10
497.0332789791521
 20
266.43459730956272
 30
0.0
 40
5.0
 50
180.0
 51
290.66731812000938
1001
GENIUS_GENOBJ-N-FIL_13
1002
{
1000
OWNER
1000
GEN
1002
}
1001
GENIUS_GENODEF_13
1002
{
1000
HIER
1070
     0
1002
}
1002
{
1000
MANEDIT
1070
     0
1002
}
1002
{
1000
NOSEL
1070
     0
1002
}
1002
{
1000
BEHIND
1070
     0
1002
}
1002
{
1000
OTHER
1070
     0
1002
}
1002
{
1000
REACTOR
1002
}
  0
LINE
  5
18E11
  8
0
 10
502.40778270614948
 20
208.83200734309199
 30
0.0
 11
487.40780934693561
 21
243.83200520857301
 31
0.0
  0
LINE
  5
18E13
  8
0
 10
500.82118349641581
 20
227.76564679639449
 30
0.0
 11
492.92268099472079
 21
246.19551757546529
 31
0.0
  0
ARC
  5
18E14
  8
0
 10
502.03327897915187
 20
251.5286257159531
 30
0.0
 40
10.0
 50
180.0
 51
270.0
1001
GENIUS_GENOBJ-N-FIL_13
1002
{
1000
OWNER
1000
GEN
1002
}
1001
GENIUS_GENODEF_13
1002
{
1000
HIER
1070
     0
1002
}
1002
{
1000
MANEDIT
1070
     0
1002
}
1002
{
1000
NOSEL
1070
     0
1002
}
1002
{
1000
BEHIND
1070
     0
1002
}
1002
{
1000
OTHER
1070
     0
1002
}
1002
{
1000
REACTOR
1002
}
  0
LINE
  5
18E20
  8
ﾁｭｳｼﾝｾﾝ1
 10
696.23180205481822
 20
315.5286257159529
 30
0.0
 11
478.35111427205851
 21
315.52862571595278
 31
0.0
  0
LINE
  5
18E3D
  8
0
 10
171.08462588834229
 20
368.52862767260359
 30
0.0
 11
171.08462588834229
 21
392.5286276726037
 31
0.0
  0
LINE
  5
18E3F
  8
ﾁｭｳｼﾝｾﾝ1
 10
232.58462766437901
 20
224.71006092116389
 30
0.0
 11
232.5846276643789
 21
406.34719051074109
 31
0.0
  0
LINE
  5
18E41
  8
AM_0
 10
173.58462588834229
 20
237.2741372763266
 30
0.0
 11
173.58462588834229
 21
393.7831141555788
 31
0.0
  0
LINE
  5
18E43
  8
AM_0
 10
266.58462889857469
 20
235.650809281888
 30
0.0
 11
266.58462889857469
 21
395.40644215001731
 31
0.0
  0
LINE
  5
18E44
  8
AM_0
 10
332.58462766437901
 20
198.52862571595281
 30
0.0
 11
332.58462766437901
 21
432.5286257159525
 31
0.0
  0
LINE
  5
18E46
  8
AM_0
 10
486.03327897915221
 20
380.52862767260439
 30
0.0
 11
486.03327897915221
 21
250.52862375930241
 31
0.0
  0
LINE
  5
18E47
  8
AM_0
 10
492.03327897915221
 20
380.52862767260439
 30
0.0
 11
492.03327897915221
 21
250.52862375930241
 31
0.0
  0
LINE
  5
18E48
  8
AM_0
 10
209.58462766391901
 20
236.52898999434271
 30
0.0
 11
214.77462766402249
 21
233.52898999428271
 31
0.0
  0
LINE
  5
18E49
  8
ﾁｭｳｼﾝｾﾝ1
 10
166.21786190389011
 20
333.52898999628269
 30
0.0
 11
298.95139342486777
 21
333.52898999628252
 31
0.0
  0
LINE
  5
18E4B
  8
AM_0
 10
173.58462588834229
 20
237.2741372763266
 30
0.0
 11
266.58462889857469
 21
235.650809281888
 31
0.0
  0
LINE
  5
18E4D
  8
ﾁｭｳｼﾝｾﾝ1
 10
397.14219179106971
 20
315.52862571595227
 30
0.0
 11
157.76828240043409
 21
315.5286257159525
 31
0.0
  0
LINE
  5
18E55
  8
0
 10
171.08462588834229
 20
262.52862375930169
 30
0.0
 11
171.08462588834229
 21
238.52862375930169
 31
0.0
  0
LINE
  5
18E56
  8
0
 10
159.08462588834229
 20
259.52862375930169
 30
0.0
 11
159.08462588834229
 21
241.52862375930169
 31
0.0
  0
LINE
  5
18E57
  8
0
 10
159.08462588834229
 20
241.52862375930169
 30
0.0
 11
171.08462588834229
 21
241.52862375930169
 31
0.0
  0
LINE
  5
18E58
  8
0
 10
171.08462588834229
 20
238.52862375930169
 30
0.0
 11
173.58462588834229
 21
238.52862375930169
 31
0.0
  0
LINE
  5
18E5C
  8
AM_0
 10
168.58462573783049
 20
365.52862692304541
 30
0.0
 11
168.58462573783001
 21
265.52862450885982
 31
0.0
  0
LINE
  5
18E5D
  8
0
 10
168.58462573783001
 20
265.52862450885982
 30
0.0
 11
173.58462588834229
 21
265.52862450885982
 31
0.0
  0
LINE
  5
18E5E
  8
0
 10
171.08462588834229
 20
259.52862375930169
 30
0.0
 11
159.08462588834229
 21
259.52862375930169
 31
0.0
  0
LINE
  5
18E60
  8
0
 10
173.58462588834229
 20
262.52862375930169
 30
0.0
 11
171.08462588834229
 21
262.52862375930169
 31
0.0
  0
LINE
  5
18E61
  8
0
 10
168.58462573783049
 20
365.52862692304541
 30
0.0
 11
173.58462588834229
 21
365.52862692304541
 31
0.0
  0
ARC
  5
18E63
  8
AM_0
 10
168.36536375337371
 20
348.52875999628259
 30
0.0
 40
1.0003311999999971
 50
90.785589999996475
 51
268.0685399999997
  0
LINE
  5
18E64
  8
AM_0
 10
168.58462573783001
 20
347.52026617235219
 30
0.0
 11
168.33163375337361
 21
347.52898999628269
 31
0.0
  0
LINE
  5
18E65
  8
AM_0
 10
168.58462573783001
 20
349.53789810201653
 30
0.0
 11
168.33163375337361
 21
349.5289899962828
 31
0.0
  0
LINE
  5
18E66
  8
AM_0
 10
173.58462588834229
 20
367.46094253363208
 30
0.0
 11
171.7316437533739
 21
367.52898999628258
 31
0.0
  0
LINE
  5
18E67
  8
AM_0
 10
171.091643753374
 20
367.78899999628271
 30
0.0
 11
171.091643753374
 21
365.52862692304541
 31
0.0
  0
ARC
  5
18E68
  8
AM_0
 10
171.77736375337389
 20
368.52846999628269
 30
0.0
 40
1.000530599999998
 50
133.81804811085581
 51
267.38127000000162
  0
LINE
  5
18E69
  8
0
 10
173.58462588834229
 20
368.52862767260359
 30
0.0
 11
171.08462588834229
 21
368.52862767260359
 31
0.0
  0
LINE
  5
18E75
  8
AM_0
 10
266.58462889857469
 20
235.650809281888
 30
0.0
 11
304.63698699970911
 21
234.98658046847621
 31
0.0
  0
LINE
  5
18E77
  8
AM_0
 10
250.3846176647348
 20
233.52898999428271
 30
0.0
 11
214.77462766402249
 21
233.52898999428271
 31
0.0
  0
LINE
  5
18E78
  8
AM_0
 10
254.22520584510221
 20
235.74472445495999
 30
0.0
 11
250.3846176647348
 21
233.52898999428271
 31
0.0
  0
LINE
  5
18E7C
  8
AM_0
 10
307.58462766437901
 20
201.33302250286059
 30
0.0
 11
307.58462766437901
 21
231.98703741994279
 31
0.0
  0
LINE
  5
18E7D
  8
AM_0
 10
332.58462766437901
 20
198.52862571595281
 30
0.0
 11
309.51482867097388
 21
199.33424084882239
 31
0.0
  0
LINE
  5
18E7F
  8
ﾁｭｳｼﾝｾﾝ1
 10
304.57783831465372
 20
215.5286257159519
 30
0.0
 11
336.21883156942181
 21
215.52862571595199
 31
0.0
  0
ARC
  5
18E81
  8
0
 10
309.58462766437901
 20
201.33302250286059
 30
0.0
 40
1.9999999999999989
 50
180.0
 51
267.99999999999642
1001
GENIUS_GENOBJ-N-FIL_13
1002
{
1000
OWNER
1000
GEN
1002
}
1001
GENIUS_GENODEF_13
1002
{
1000
HIER
1070
     0
1002
}
1002
{
1000
MANEDIT
1070
     0
1002
}
1002
{
1000
NOSEL
1070
     0
1002
}
1002
{
1000
BEHIND
1070
     0
1002
}
1002
{
1000
OTHER
1070
     0
1002
}
1002
{
1000
REACTOR
1002
}
  0
ARC
  5
18E88
  8
AM_0
 10
304.58462766437901
 20
231.98703741994279
 30
0.0
 40
2.9999999999999978
 50
0.0
 51
88.999959580877544
1001
GENIUS_GENOBJ-N-FIL_13
1002
{
1000
OWNER
1000
GEN
1002
}
1001
GENIUS_GENODEF_13
1002
{
1000
HIER
1070
     0
1002
}
1002
{
1000
MANEDIT
1070
     0
1002
}
1002
{
1000
NOSEL
1070
     0
1002
}
1002
{
1000
BEHIND
1070
     0
1002
}
1002
{
1000
OTHER
1070
     0
1002
}
1002
{
1000
REACTOR
1002
}
  0
LINE
  5
18E90
  8
ｶｸﾚｾﾝ2
 10
296.58462959092799
 20
353.52862692304541
 30
0.0
 11
296.58462959092799
 21
277.52862450885982
 31
0.0
  0
ARC
  5
18E9E
  8
AM_0
 10
503.03327943068672
 20
250.5286237593026
 30
0.0
 40
11.000000451534831
 50
180.0
 51
203.19855493455009
  0
ARC
  5
18E9F
  8
AM_0
 10
503.03327943068672
 20
250.5286237593026
 30
0.0
 40
17.000000451534831
 50
180.0
 51
203.19855493455009
  0
ARC
  5
18EA1
  8
0
 10
495.0332789791521
 20
296.52862571595313
 30
0.0
 40
3.0
 50
180.0
 51
270.0
1001
GENIUS_GENODEF_13
1002
{
1000
HIER
1070
     0
1002
}
1002
{
1000
MANEDIT
1070
     0
1002
}
1002
{
1000
NOSEL
1070
     0
1002
}
1002
{
1000
BEHIND
1070
     0
1002
}
1002
{
1000
OTHER
1070
     0
1002
}
1002
{
1000
REACTOR
1002
}
1001
GENIUS_GENOBJ-N-FIL_13
1002
{
1000
OWNER
1000
GEN
1002
}
  0
ARC
  5
18EA2
  8
0
 10
495.0332789791521
 20
284.52862571595313
 30
0.0
 40
3.0
 50
90.0
 51
180.0
1001
GENIUS_GENODEF_13
1002
{
1000
HIER
1070
     0
1002
}
1002
{
1000
MANEDIT
1070
     0
1002
}
1002
{
1000
NOSEL
1070
     0
1002
}
1002
{
1000
BEHIND
1070
     0
1002
}
1002
{
1000
OTHER
1070
     0
1002
}
1002
{
1000
REACTOR
1002
}
1001
GENIUS_GENOBJ-N-FIL_13
1002
{
1000
OWNER
1000
GEN
1002
}
  0
ARC
  5
18EA4
  8
0
 10
495.0332789791521
 20
334.52862571595313
 30
0.0
 40
3.0
 50
90.0
 51
180.0
1001
GENIUS_GENODEF_13
1002
{
1000
HIER
1070
     0
1002
}
1002
{
1000
MANEDIT
1070
     0
1002
}
1002
{
1000
NOSEL
1070
     0
1002
}
1002
{
1000
BEHIND
1070
     0
1002
}
1002
{
1000
OTHER
1070
     0
1002
}
1002
{
1000
REACTOR
1002
}
1001
GENIUS_GENOBJ-N-FIL_13
1002
{
1000
OWNER
1000
GEN
1002
}
  0
ARC
  5
18EA5
  8
0
 10
495.0332789791521
 20
346.52862571595313
 30
0.0
 40
3.0
 50
180.0
 51
270.0
1001
GENIUS_GENODEF_13
1002
{
1000
HIER
1070
     0
1002
}
1002
{
1000
MANEDIT
1070
     0
1002
}
1002
{
1000
NOSEL
1070
     0
1002
}
1002
{
1000
BEHIND
1070
     0
1002
}
1002
{
1000
OTHER
1070
     0
1002
}
1002
{
1000
REACTOR
1002
}
1001
GENIUS_GENOBJ-N-FIL_13
1002
{
1000
OWNER
1000
GEN
1002
}
  0
LINE
  5
18EA7
  8
AM_0
 10
173.58462588834229
 20
393.7831141555788
 30
0.0
 11
266.58462889857469
 21
395.40644215001731
 31
0.0
  0
LINE
  5
18EA9
  8
0
 10
159.08462588834229
 20
389.5286276726037
 30
0.0
 11
171.08462588834229
 21
389.5286276726037
 31
0.0
  0
LINE
  5
18EAA
  8
0
 10
171.08462588834229
 20
371.5286276726037
 30
0.0
 11
159.08462588834229
 21
371.5286276726037
 31
0.0
  0
LINE
  5
18EAB
  8
0
 10
159.08462588834229
 20
371.5286276726037
 30
0.0
 11
159.08462588834229
 21
389.5286276726037
 31
0.0
  0
LINE
  5
18EAC
  8
0
 10
171.08462588834229
 20
392.5286276726037
 30
0.0
 11
173.58462588834229
 21
392.5286276726037
 31
0.0
  0
ARC
  5
18EAD
  8
AM_0
 10
197.5848086643789
 20
394.36191599628302
 30
0.0
 40
1.0001850000000001
 50
1.551130999995167
 51
180.16761299999791
  0
LINE
  5
18EAE
  8
AM_0
 10
196.57697128522449
 20
394.21583800912367
 30
0.0
 11
196.5846279441464
 21
394.35899006053842
 31
0.0
  0
LINE
  5
18EAF
  8
AM_0
 10
198.589418864414
 20
394.2535756520877
 30
0.0
 11
198.58462766437901
 21
394.38898999628282
 31
0.0
  0
LINE
  5
18EB0
  8
AM_0
 10
208.65385006145041
 20
394.44230499593618
 30
0.0
 11
208.5846276638988
 21
396.44898699754123
 31
0.0
  0
LINE
  5
18EB1
  8
AM_0
 10
206.5119289624383
 20
394.40213945099123
 30
0.0
 11
206.5845976638586
 21
396.44899499754121
 31
0.0
  0
ARC
  5
18EB2
  8
AM_0
 10
207.58486766387861
 20
396.41277799754027
 30
0.0
 40
1.000393500020007
 50
2.0744399999949339
 51
179.0714379999965
  0
LINE
  5
18EBA
  8
AM_0
 10
266.58462889857469
 20
395.40644215001731
 30
0.0
 11
304.63698191576918
 21
396.07061822787449
 31
0.0
  0
ARC
  5
18EBB
  8
AM_0
 10
257.58435766487878
 20
396.41243899754068
 30
0.0
 40
1.000402500020007
 50
0.9479099999998869
 51
177.90620799999991
  0
ARC
  5
18EBC
  8
AM_0
 10
237.5840476644787
 20
398.4405679975809
 30
0.0
 40
1.0006038000200119
 50
0.4821899999981778
 51
177.2262829999969
  0
ARC
  5
18EBD
  8
AM_0
 10
227.58517766427869
 20
398.441246997581
 30
0.0
 40
1.0005848000200099
 50
2.7350399999978938
 51
179.5564910000007
  0
ARC
  5
18EBE
  8
AM_0
 10
232.58462766437901
 20
333.52898999628269
 30
0.0
 40
63.503836254666012
 50
76.113685254996739
 51
106.0348967062143
  0
LINE
  5
18EBF
  8
AM_0
 10
216.48422816987551
 20
394.95792743766151
 30
0.0
 11
216.5846276640589
 21
397.8089959975685
 31
0.0
  0
ARC
  5
18EC0
  8
AM_0
 10
217.58502766407889
 20
397.76829999756768
 30
0.0
 40
1.000414000020007
 50
2.331049999997969
 51
179.96048300000029
  0
LINE
  5
18EC1
  8
AM_0
 10
218.6646372220296
 20
395.4884209583592
 30
0.0
 11
218.58459766409871
 21
397.80899199756851
 31
0.0
  0
LINE
  5
18EC2
  8
AM_0
 10
226.5244212315404
 20
396.74300044531861
 30
0.0
 11
226.5846276642589
 21
398.48898799758223
 31
0.0
  0
LINE
  5
18EC3
  8
AM_0
 10
228.6246014738183
 20
396.90923464419728
 30
0.0
 11
228.58462766429849
 21
398.4889919975821
 31
0.0
  0
ARC
  5
18EC4
  8
AM_0
 10
247.58419766467861
 20
397.76762499756768
 30
0.0
 40
1.0004282000200071
 50
0.0782200000044953
 51
177.6302479999965
  0
LINE
  5
18EC5
  8
AM_0
 10
246.5046181140039
 20
395.48842095672472
 30
0.0
 11
246.58462766465871
 21
397.80899199756851
 31
0.0
  0
LINE
  5
18EC6
  8
AM_0
 10
236.52468421644491
 20
396.91047919798848
 30
0.0
 11
236.58462766445859
 21
398.48898799758223
 31
0.0
  0
LINE
  5
18EC7
  8
AM_0
 10
238.64483420136571
 20
396.74300043533412
 30
0.0
 11
238.58462766449861
 21
398.48898799758223
 31
0.0
  0
LINE
  5
18EC8
  8
AM_0
 10
256.54099085087609
 20
395.34029003682298
 30
0.0
 11
256.58459766485851
 21
396.44899499754121
 31
0.0
  0
LINE
  5
18EC9
  8
AM_0
 10
248.67675564356
 20
395.1928190152131
 30
0.0
 11
248.5846276646987
 21
397.80899199756851
 31
0.0
  0
LINE
  5
18ECA
  8
AM_0
 10
258.61848598707837
 20
395.37924745887972
 30
0.0
 11
258.58462766489879
 21
396.44899099754122
 31
0.0
  0
LINE
  5
18ECD
  8
AM_0
 10
307.58462766437901
 20
399.0701613651475
 30
0.0
 11
307.58462766437901
 21
429.72422892904478
 31
0.0
  0
ARC
  5
18ECF
  8
AM_0
 10
304.58462766437901
 20
399.0701613651475
 30
0.0
 40
2.9999999999999978
 50
270.9999433082416
 51
0.0
1001
GENIUS_GENOBJ-N-FIL_13
1002
{
1000
OWNER
1000
GEN
1002
}
1001
GENIUS_GENODEF_13
1002
{
1000
HIER
1070
     0
1002
}
1002
{
1000
MANEDIT
1070
     0
1002
}
1002
{
1000
NOSEL
1070
     0
1002
}
1002
{
1000
BEHIND
1070
     0
1002
}
1002
{
1000
OTHER
1070
     0
1002
}
1002
{
1000
REACTOR
1002
}
  0
LINE
  5
18EDC
  8
ﾁｭｳｼﾝｾﾝ1
 10
304.57783831465372
 20
415.5286257159525
 30
0.0
 11
336.21883156942181
 21
415.5286257159525
 31
0.0
  0
LINE
  5
18EDF
  8
AM_0
 10
332.58462766437901
 20
432.5286257159525
 30
0.0
 11
309.51482867097388
 21
431.72301058308312
 31
0.0
  0
ARC
  5
18EE0
  8
0
 10
309.58462766437901
 20
429.72422892904478
 30
0.0
 40
1.9999999999999989
 50
92.000000000003624
 51
180.0
1001
GENIUS_GENODEF_13
1002
{
1000
HIER
1070
     0
1002
}
1002
{
1000
MANEDIT
1070
     0
1002
}
1002
{
1000
NOSEL
1070
     0
1002
}
1002
{
1000
BEHIND
1070
     0
1002
}
1002
{
1000
OTHER
1070
     0
1002
}
1002
{
1000
REACTOR
1002
}
1001
GENIUS_GENOBJ-N-FIL_13
1002
{
1000
OWNER
1000
GEN
1002
}
  0
ARC
  5
18EE1
  8
AM_0
 10
503.03327943068672
 20
380.52862767260399
 30
0.0
 40
11.000000451534831
 50
156.80144506544991
 51
180.0
  0
ARC
  5
18EE2
  8
AM_0
 10
503.03327943068672
 20
380.52862767260399
 30
0.0
 40
17.000000451534831
 50
156.80144506544991
 51
180.0
  0
ARC
  5
18EE3
  8
AM_0
 10
868.35323459965548
 20
368.56893474879541
 30
0.0
 40
1.6800002000336001
 50
270.00000299999761
 51
89.999999999999986
  0
ARC
  5
18EE4
  8
AM_0
 10
865.84966459960538
 20
375.1205347489265
 30
0.0
 40
4.9987221000999753
 50
185.4135635000037
 51
260.59994100000478
  0
ARC
  5
18EE5
  8
AM_0
 10
731.21935459691269
 20
368.57894474879578
 30
0.0
 40
1.680011000033599
 50
90.208029999998075
 51
269.79196900000039
  0
LINE
  5
18EE6
  8
AM_0
 10
875.03325459978896
 20
390.94893474924311
 30
0.0
 11
875.03325459978896
 21
276.0989347469461
 31
0.0
  0
LINE
  5
18EE7
  8
AM_0
 10
729.03325459686891
 20
273.02895474688461
 30
0.0
 11
729.0332548531162
 21
396.52895504966239
 31
0.0
  0
LINE
  5
18EE8
  8
AM_0
 10
881.03325459990901
 20
381.54854474905511
 30
0.0
 11
881.03325459990901
 21
338.52895474819462
 31
0.0
  0
ARC
  5
18EEA
  8
0
 10
678.03325418101417
 20
380.52862767260359
 30
0.0
 40
12.0
 50
166.39104615428531
 51
290.66731812000938
  0
ARC
  5
18EEB
  8
0
 10
684.03325463254885
 20
364.62265412234348
 30
0.0
 40
5.0
 50
0.0
 51
110.6673181200093
1001
GENIUS_GENODEF_13
1002
{
1000
HIER
1070
     0
1002
}
1002
{
1000
MANEDIT
1070
     0
1002
}
1002
{
1000
NOSEL
1070
     0
1002
}
1002
{
1000
BEHIND
1070
     0
1002
}
1002
{
1000
OTHER
1070
     0
1002
}
1002
{
1000
REACTOR
1002
}
1001
GENIUS_GENOBJ-N-FIL_13
1002
{
1000
OWNER
1000
GEN
1002
}
  0
LINE
  5
18EED
  8
ﾁｭｳｼﾝｾﾝ1
 10
563.0332812368265
 20
441.60534163690011
 30
0.0
 11
563.03328123682638
 21
189.45190979500541
 31
0.0
  0
LINE
  5
18EEE
  8
AM_0
 10
709.03325459646885
 20
272.02899625153498
 30
0.0
 11
709.03325459646885
 21
395.02897625399521
 31
0.0
  0
LINE
  5
18EEF
  8
AM_0
 10
720.03325459668883
 20
269.5289899962828
 30
0.0
 11
720.03325459668883
 21
397.52897999628271
 31
0.0
  0
LINE
  5
18EF0
  8
AM_0
 10
695.03325463254907
 20
380.52862767260439
 30
0.0
 11
695.03325463254896
 21
250.52862375930241
 31
0.0
  0
LINE
  5
18EF1
  8
AM_0
 10
689.0332546325493
 20
380.52862767260439
 30
0.0
 11
689.03325463254885
 21
250.52862375930241
 31
0.0
  0
ARC
  5
18EF2
  8
0
 10
503.03327943068672
 20
380.52862767260359
 30
0.0
 40
12.0
 50
249.33268187999059
 51
13.6089538457147
  0
ARC
  5
18EF4
  8
AM_0
 10
851.03325459930898
 20
368.5289547487946
 30
0.0
 40
1.0000007000199991
 50
270.00000299999761
 51
89.999999999999986
  0
ARC
  5
18EF5
  8
AM_0
 10
851.03325459930898
 20
358.52895474859457
 30
0.0
 40
1.0000007000199991
 50
270.00000299999761
 51
89.999999999999986
  0
LINE
  5
18EF6
  8
AM_0
 10
867.47324211873706
 20
367.52895478986079
 30
0.0
 11
795.03325459818893
 21
367.52895478986079
 31
0.0
  0
LINE
  5
18EF7
  8
AM_0
 10
868.36324459965556
 20
366.89895474876221
 30
0.0
 11
795.03325459818893
 21
366.89895474876221
 31
0.0
  0
LINE
  5
18EF8
  8
AM_0
 10
795.03325459818893
 20
369.52895474881478
 30
0.0
 11
867.48323459963763
 21
369.52895474881473
 31
0.0
  0
LINE
  5
18EF9
  8
AM_0
 10
766.53325459761868
 20
359.52895474861458
 30
0.0
 11
867.48323459963763
 21
359.52895474861458
 31
0.0
  0
LINE
  5
18EFA
  8
AM_0
 10
868.5732345996596
 20
360.01894474862428
 30
0.0
 11
765.67308612578915
 21
360.01894474862428
 31
0.0
  0
LINE
  5
18EFB
  8
AM_0
 10
732.10846851040515
 20
357.52895474857479
 30
0.0
 11
867.48323459963763
 21
357.52895474857479
 31
0.0
  0
LINE
  5
18EFC
  8
AM_0
 10
868.5732345996596
 20
357.09893474856602
 30
0.0
 11
731.18849844835631
 21
357.09893474856602
 31
0.0
  0
ARC
  5
18EFD
  8
AM_0
 10
851.03325459930898
 20
348.5289547483946
 30
0.0
 40
1.0000007000199991
 50
270.00000299999761
 51
89.999999999999986
  0
ARC
  5
18EFE
  8
AM_0
 10
851.03325459930898
 20
338.52895474819462
 30
0.0
 40
1.0000007000199991
 50
270.00000299999761
 51
89.999999999999986
  0
ARC
  5
18EFF
  8
AM_0
 10
851.03325459930898
 20
328.5289547479947
 30
0.0
 40
1.0000032000200001
 50
270.00000299999761
 51
89.999999999999986
  0
ARC
  5
18F00
  8
AM_0
 10
851.03325459930898
 20
318.52895474779461
 30
0.0
 40
1.0000032000200001
 50
270.00000299999761
 51
89.999999999999986
  0
ARC
  5
18F01
  8
AM_0
 10
851.03325459930875
 20
298.52895474739461
 30
0.0
 40
1.0000032000200001
 50
270.00000299999761
 51
89.999999999999986
  0
ARC
  5
18F02
  8
AM_0
 10
851.03325459930898
 20
308.52895474759458
 30
0.0
 40
1.0000032000200001
 50
270.00000299999761
 51
89.999999999999986
  0
ARC
  5
18F03
  8
AM_0
 10
850.03685459928874
 20
273.66533474689732
 30
0.0
 40
1.9963853000399261
 50
269.8961630000066
 51
0.1038400000026171
  0
ARC
  5
18F04
  8
AM_0
 10
850.03075459928868
 20
269.60378474681619
 30
0.0
 40
1.9948452000398971
 50
270.07165800000439
 51
345.63719999999978
  0
ARC
  5
18F05
  8
AM_0
 10
850.03868459928879
 20
270.28350474682981
 30
0.0
 40
1.9945769000398901
 50
269.84400800000009
 51
0.1559899999962555
  0
ARC
  5
18F06
  8
AM_0
 10
850.03603459928877
 20
271.63616474685682
 30
0.0
 40
1.9972084000399439
 50
269.91985700000038
 51
0.0801399999989042
  0
LINE
  5
18F07
  8
AM_0
 10
828.03325459884888
 20
287.17894474716769
 30
0.0
 11
865.03325459958887
 21
289.32494658664058
 31
0.0
  0
LINE
  5
18F08
  8
AM_0
 10
868.70324459966207
 20
347.21895474836839
 30
0.0
 11
796.3032279284987
 21
347.2189547483685
 31
0.0
  0
LINE
  5
18F09
  8
AM_0
 10
797.59322240379367
 20
347.5289547483747
 30
0.0
 11
867.48323459963763
 21
347.52895474837459
 31
0.0
  0
LINE
  5
18F0A
  8
AM_0
 10
797.59322240379367
 20
349.52895474841461
 30
0.0
 11
867.48323459963763
 21
349.52895474841461
 31
0.0
  0
LINE
  5
18F0B
  8
AM_0
 10
868.70324459966207
 20
349.87893474842173
 30
0.0
 11
796.3032279284987
 21
349.87893474842173
 31
0.0
  0
LINE
  5
18F0C
  8
AM_0
 10
859.3532345994754
 20
300.15896474742721
 30
0.0
 11
795.03325459818882
 21
300.15896474742721
 31
0.0
  0
LINE
  5
18F0D
  8
AM_0
 10
795.03325459818882
 20
297.5289547473746
 30
0.0
 11
858.48323459945811
 21
297.5289547473746
 31
0.0
  0
LINE
  5
18F0E
  8
AM_0
 10
795.03325459818882
 20
299.52895474741467
 30
0.0
 11
858.48323459945811
 21
299.52895474741467
 31
0.0
  0
LINE
  5
18F0F
  8
AM_0
 10
859.3532345994754
 20
296.80895474736019
 30
0.0
 11
795.03325459818882
 21
296.80895474736019
 31
0.0
  0
LINE
  5
18F10
  8
AM_0
 10
797.59149465462724
 20
317.52895474777461
 30
0.0
 11
867.47322459963789
 21
317.52895474777461
 31
0.0
  0
LINE
  5
18F11
  8
AM_0
 10
797.59057115486053
 20
319.52895474781479
 30
0.0
 11
867.47322459963789
 21
319.52895474781468
 31
0.0
  0
LINE
  5
18F12
  8
AM_0
 10
797.59322580923015
 20
327.52895474797481
 30
0.0
 11
867.47322459963789
 21
327.52895474797469
 31
0.0
  0
LINE
  5
18F13
  8
AM_0
 10
797.59322580923174
 20
329.52895474801483
 30
0.0
 11
867.47322459963789
 21
329.5289547480146
 31
0.0
  0
LINE
  5
18F14
  8
AM_0
 10
868.70324459966207
 20
317.18895474776792
 30
0.0
 11
796.4980413306813
 21
317.18895474776792
 31
0.0
  0
LINE
  5
18F15
  8
AM_0
 10
868.70324459966207
 20
319.84893474782109
 30
0.0
 11
796.4980413306813
 21
319.84893474782109
 31
0.0
  0
LINE
  5
18F16
  8
AM_0
 10
868.76323459966375
 20
327.25893474796919
 30
0.0
 11
796.4980413306813
 21
327.25893474796919
 31
0.0
  0
LINE
  5
18F17
  8
AM_0
 10
868.76323459966375
 20
329.78893474801981
 30
0.0
 11
796.4980413306813
 21
329.78893474801981
 31
0.0
  0
LINE
  5
18F18
  8
AM_0
 10
868.77324459966394
 20
337.26894474816947
 30
0.0
 11
796.3032279284987
 21
337.26894474816947
 31
0.0
  0
LINE
  5
18F19
  8
AM_0
 10
797.59322240379367
 20
337.52895474817473
 30
0.0
 11
867.48323459963763
 21
337.52895474817473
 31
0.0
  0
LINE
  5
18F1A
  8
AM_0
 10
797.59322240379367
 20
339.52895474821457
 30
0.0
 11
867.48323459963763
 21
339.52895474821457
 31
0.0
  0
LINE
  5
18F1B
  8
AM_0
 10
868.77324459966394
 20
339.8089547482204
 30
0.0
 11
796.3032279284987
 21
339.8089547482204
 31
0.0
  0
LINE
  5
18F1C
  8
AM_0
 10
766.52230031079137
 20
307.52895474757469
 30
0.0
 11
858.48323459945823
 21
307.52895474757457
 31
0.0
  0
LINE
  5
18F1D
  8
AM_0
 10
859.57323459947975
 20
307.03893474756478
 30
0.0
 11
765.67303276946654
 21
307.03893474756478
 31
0.0
  0
LINE
  5
18F1E
  8
AM_0
 10
732.1084685104048
 20
309.52895474761459
 30
0.0
 11
858.48323459945823
 21
309.52895474761459
 31
0.0
  0
LINE
  5
18F1F
  8
AM_0
 10
859.57323459947975
 20
309.96895474762351
 30
0.0
 11
731.01846856274324
 21
309.96895474762351
 31
0.0
  0
LINE
  5
18F21
  8
ﾁｭｳｼﾝｾﾝ1
 10
891.00528778211719
 20
333.52898012351301
 30
0.0
 11
673.95681730246088
 21
333.5289855401133
 31
0.0
  0
CIRCLE
  5
18F2C
  8
0
 10
678.03325418101417
 20
250.52862375930209
 30
0.0
 40
5.0
  0
ARC
  5
18F2D
  8
0
 10
678.03325418101417
 20
250.52862375930229
 30
0.0
 40
12.0
 50
69.332681879990645
 51
193.60895384571469
  0
ARC
  5
18F2F
  8
0
 10
675.64962374213064
 20
229.7352404354715
 30
0.0
 40
5.0
 50
228.39296489486389
 51
336.80144506544991
1001
GENIUS_GENOBJ-N-FIL_13
1002
{
1000
OWNER
1000
GEN
1002
}
1001
GENIUS_GENODEF_13
1002
{
1000
HIER
1070
     0
1002
}
1002
{
1000
MANEDIT
1070
     0
1002
}
1002
{
1000
NOSEL
1070
     0
1002
}
1002
{
1000
BEHIND
1070
     0
1002
}
1002
{
1000
OTHER
1070
     0
1002
}
1002
{
1000
REACTOR
1002
}
  0
ARC
  5
18F31
  8
0
 10
663.0332812368265
 20
215.5286257159535
 30
0.0
 40
16.999999999999709
 50
270.0
 51
336.80144506544991
  0
LINE
  5
18F32
  8
0
  6
CONTINUOUS
 62
     7
 10
679.03325463254885
 20
241.52862571595301
 30
0.0
 11
641.27592192394604
 21
241.52862571595301
 31
0.0
  0
CIRCLE
  5
18F33
  8
ｷｲﾛ
 10
678.03325418101417
 20
250.52862375930209
 30
0.0
 40
6.0
  0
ARC
  5
18F35
  8
0
 10
598.03328123682627
 20
243.5286257159533
 30
0.0
 40
11.0
 50
90.0
 51
169.19307712513961
  0
ARC
  5
18F36
  8
0
 10
598.03328123682627
 20
243.5286257159533
 30
0.0
 40
11.0
 50
10.806922874860341
 51
90.0
  0
CIRCLE
  5
18F37
  8
0
 10
503.03327943068672
 20
250.52862375930229
 30
0.0
 40
5.0
  0
CIRCLE
  5
18F38
  8
ｷｲﾛ
 10
503.03327943068672
 20
250.52862375930229
 30
0.0
 40
6.0
  0
ARC
  5
18F39
  8
0
 10
503.03327943068672
 20
250.52862375930229
 30
0.0
 40
12.0
 50
346.39104615428528
 51
110.6673181200093
  0
LINE
  5
18F3B
  8
0
 10
518.03325237487479
 20
198.52862571595341
 30
0.0
 11
663.0332812368265
 21
198.52862571595341
 31
0.0
  0
LINE
  5
18F3C
  8
0
 10
536.06100875219499
 20
204.52862571595341
 30
0.0
 11
645.00552485950607
 21
204.52862571595341
 31
0.0
  0
ARC
  5
18F3D
  8
0
 10
582.31704759132481
 20
246.5286257159533
 30
0.0
 40
5.0
 50
270.0
 51
349.19307712513972
1001
GENIUS_GENOBJ-N-FIL_13
1002
{
1000
OWNER
1000
GEN
1002
}
1001
GENIUS_GENODEF_13
1002
{
1000
HIER
1070
     0
1002
}
1002
{
1000
MANEDIT
1070
     0
1002
}
1002
{
1000
NOSEL
1070
     0
1002
}
1002
{
1000
BEHIND
1070
     0
1002
}
1002
{
1000
OTHER
1070
     0
1002
}
1002
{
1000
REACTOR
1002
}
  0
ARC
  5
18F3F
  8
0
 10
518.03325237487479
 20
215.5286257159535
 30
0.0
 40
16.999999999999709
 50
203.19855493455009
 51
270.0
  0
LINE
  5
18F42
  8
0
 10
531.40179459763635
 20
224.6545272515954
 30
0.0
 11
546.15457271843479
 21
239.40730537239389
 31
0.0
  0
LINE
  5
18F43
  8
0
 10
527.15915391051692
 20
228.89716793871469
 30
0.0
 11
541.91193203131547
 21
243.64994605951341
 31
0.0
  0
ARC
  5
18F45
  8
0
 10
505.41690986957008
 20
229.73524043547181
 30
0.0
 40
5.0
 50
203.19855493455009
 51
311.60703510513611
1001
GENIUS_GENOBJ-N-FIL_13
1002
{
1000
OWNER
1000
GEN
1002
}
1001
GENIUS_GENODEF_13
1002
{
1000
HIER
1070
     0
1002
}
1002
{
1000
MANEDIT
1070
     0
1002
}
1002
{
1000
NOSEL
1070
     0
1002
}
1002
{
1000
BEHIND
1070
     0
1002
}
1002
{
1000
OTHER
1070
     0
1002
}
1002
{
1000
REACTOR
1002
}
  0
ARC
  5
18F46
  8
0
 10
518.03325237487479
 20
215.5286257159529
 30
0.0
 40
14.0
 50
341.59151982941722
 51
131.60703510513599
  0
CIRCLE
  5
18F48
  8
0
 10
518.03325237487479
 20
215.5286257159535
 30
0.0
 40
7.0
  0
ARC
  5
18F49
  8
0
 10
536.06100875219499
 20
209.5286257159535
 30
0.0
 40
5.0
 50
161.59151982941691
 51
270.0
1001
GENIUS_GENOBJ-N-FIL_13
1002
{
1000
OWNER
1000
GEN
1002
}
1001
GENIUS_GENODEF_13
1002
{
1000
HIER
1070
     0
1002
}
1002
{
1000
MANEDIT
1070
     0
1002
}
1002
{
1000
NOSEL
1070
     0
1002
}
1002
{
1000
BEHIND
1070
     0
1002
}
1002
{
1000
OTHER
1070
     0
1002
}
1002
{
1000
REACTOR
1002
}
  0
ARC
  5
18F4A
  8
0
 10
533.5231149411959
 20
222.53320690803619
 30
0.0
 40
3.0
 50
135.0000000000046
 51
204.3326835064922
1001
GENIUS_GENOBJ-N-FIL_13
1002
{
1000
OWNER
1000
GEN
1002
}
1001
GENIUS_GENODEF_13
1002
{
1000
HIER
1070
     0
1002
}
1002
{
1000
MANEDIT
1070
     0
1002
}
1002
{
1000
NOSEL
1070
     0
1002
}
1002
{
1000
BEHIND
1070
     0
1002
}
1002
{
1000
OTHER
1070
     0
1002
}
1002
{
1000
REACTOR
1002
}
  0
ARC
  5
18F4B
  8
0
 10
519.55599154623246
 20
246.5286257159533
 30
0.0
 40
5.0
 50
166.39104615428531
 51
270.0
1001
GENIUS_GENOBJ-N-FIL_13
1002
{
1000
OWNER
1000
GEN
1002
}
1001
GENIUS_GENODEF_13
1002
{
1000
HIER
1070
     0
1002
}
1002
{
1000
MANEDIT
1070
     0
1002
}
1002
{
1000
NOSEL
1070
     0
1002
}
1002
{
1000
BEHIND
1070
     0
1002
}
1002
{
1000
OTHER
1070
     0
1002
}
1002
{
1000
REACTOR
1002
}
  0
LINE
  5
18F4C
  8
0
  6
CONTINUOUS
 62
     7
 10
539.79061168775524
 20
241.52862571595301
 30
0.0
 11
502.03327897915221
 21
241.52862571595301
 31
0.0
  0
ARC
  5
18F4D
  8
0
 10
525.03783356695715
 20
231.01848828227489
 30
0.0
 40
3.0
 50
245.66731649351581
 51
315.0000000000046
1001
GENIUS_GENODEF_13
1002
{
1000
HIER
1070
     0
1002
}
1002
{
1000
MANEDIT
1070
     0
1002
}
1002
{
1000
NOSEL
1070
     0
1002
}
1002
{
1000
BEHIND
1070
     0
1002
}
1002
{
1000
OTHER
1070
     0
1002
}
1002
{
1000
REACTOR
1002
}
1001
GENIUS_GENOBJ-N-FIL_13
1002
{
1000
OWNER
1000
GEN
1002
}
  0
LINE
  5
18F4E
  8
0
  6
CONTINUOUS
 62
     7
 10
582.31704759132481
 20
241.52862571595301
 30
0.0
 11
547.03325237487513
 21
241.52862571595301
 31
0.0
  0
ARC
  5
18F4F
  8
0
 10
544.03325237487513
 20
241.52862571595401
 30
0.0
 40
3.0000000000000631
 50
315.0000000000046
 51
135.0000000000046
  0
LINE
  5
18F52
  8
0
  6
CONTINUOUS
 62
     7
 10
634.03328123682604
 20
241.52862571595301
 30
0.0
 11
613.74951488232819
 21
241.52862571595301
 31
0.0
  0
CIRCLE
  5
18F53
  8
AM_0
 10
598.03328123682627
 20
243.52862571595259
 30
0.0
 40
6.5
  0
CIRCLE
  5
18F54
  8
AM_0
 10
598.03328123682627
 20
243.52862571595259
 30
0.0
 40
8.5
  0
POLYLINE
  5
18F55
  8
AM_0
 66
     1
 10
0.0
 20
0.0
 30
0.0
 70
     1
  0
VERTEX
  5
18F56
  8
AM_0
 10
596.30123042925754
 20
240.5286257159531
 30
0.0
  0
VERTEX
  5
18F57
  8
AM_0
 10
594.56917962168882
 20
243.5286257159531
 30
0.0
  0
VERTEX
  5
18F58
  8
AM_0
 10
596.30123042925754
 20
246.5286257159531
 30
0.0
  0
VERTEX
  5
18F59
  8
AM_0
 10
599.76533204439511
 20
246.5286257159531
 30
0.0
  0
VERTEX
  5
18F5A
  8
AM_0
 10
601.49738285196429
 20
243.5286257159531
 30
0.0
  0
VERTEX
  5
18F5B
  8
AM_0
 10
599.76533204439511
 20
240.5286257159531
 30
0.0
  0
SEQEND
  5
18F5C
  8
AM_0
  0
ARC
  5
18F5D
  8
0
 10
613.74951488232819
 20
246.5286257159533
 30
0.0
 40
5.0
 50
190.80692287486031
 51
269.99999999999841
1001
GENIUS_GENOBJ-N-FIL_13
1002
{
1000
OWNER
1000
GEN
1002
}
1001
GENIUS_GENODEF_13
1002
{
1000
HIER
1070
     0
1002
}
1002
{
1000
MANEDIT
1070
     0
1002
}
1002
{
1000
NOSEL
1070
     0
1002
}
1002
{
1000
BEHIND
1070
     0
1002
}
1002
{
1000
OTHER
1070
     0
1002
}
1002
{
1000
REACTOR
1002
}
  0
ARC
  5
18F5F
  8
0
 10
663.0332812368265
 20
215.5286257159529
 30
0.0
 40
14.0
 50
48.392964894863901
 51
198.408480170583
  0
LINE
  5
18F60
  8
0
 10
649.66473901406482
 20
224.6545272515954
 30
0.0
 11
634.9119608932665
 21
239.40730537239389
 31
0.0
  0
ARC
  5
18F61
  8
0
 10
645.00552485950607
 20
209.5286257159535
 30
0.0
 40
5.0
 50
270.0
 51
18.408480170583069
1001
GENIUS_GENOBJ-N-FIL_13
1002
{
1000
OWNER
1000
GEN
1002
}
1001
GENIUS_GENODEF_13
1002
{
1000
HIER
1070
     0
1002
}
1002
{
1000
MANEDIT
1070
     0
1002
}
1002
{
1000
NOSEL
1070
     0
1002
}
1002
{
1000
BEHIND
1070
     0
1002
}
1002
{
1000
OTHER
1070
     0
1002
}
1002
{
1000
REACTOR
1002
}
  0
ARC
  5
18F62
  8
0
 10
647.54341867050505
 20
222.53320690803619
 30
0.0
 40
3.0
 50
335.66731649350783
 51
44.999999999995389
1001
GENIUS_GENOBJ-N-FIL_13
1002
{
1000
OWNER
1000
GEN
1002
}
1001
GENIUS_GENODEF_13
1002
{
1000
HIER
1070
     0
1002
}
1002
{
1000
MANEDIT
1070
     0
1002
}
1002
{
1000
NOSEL
1070
     0
1002
}
1002
{
1000
BEHIND
1070
     0
1002
}
1002
{
1000
OTHER
1070
     0
1002
}
1002
{
1000
REACTOR
1002
}
  0
CIRCLE
  5
18F63
  8
0
 10
663.0332812368265
 20
215.5286257159535
 30
0.0
 40
7.0
  0
LINE
  5
18F64
  8
0
 10
653.90737970118425
 20
228.89716793871469
 30
0.0
 11
639.15460158038547
 21
243.64994605951341
 31
0.0
  0
ARC
  5
18F65
  8
0
 10
637.03328123682604
 20
241.52862571595401
 30
0.0
 40
3.0000000000000631
 50
44.999999999995389
 51
224.9999999999954
  0
ARC
  5
18F66
  8
0
 10
656.02870004474369
 20
231.01848828227489
 30
0.0
 40
3.0
 50
224.9999999999954
 51
294.33268350648422
1001
GENIUS_GENODEF_13
1002
{
1000
HIER
1070
     0
1002
}
1002
{
1000
MANEDIT
1070
     0
1002
}
1002
{
1000
NOSEL
1070
     0
1002
}
1002
{
1000
BEHIND
1070
     0
1002
}
1002
{
1000
OTHER
1070
     0
1002
}
1002
{
1000
REACTOR
1002
}
1001
GENIUS_GENOBJ-N-FIL_13
1002
{
1000
OWNER
1000
GEN
1002
}
  0
ARC
  5
18F67
  8
0
 10
661.51054206546848
 20
246.5286257159533
 30
0.0
 40
5.0
 50
270.0
 51
13.6089538457147
1001
GENIUS_GENODEF_13
1002
{
1000
HIER
1070
     0
1002
}
1002
{
1000
MANEDIT
1070
     0
1002
}
1002
{
1000
NOSEL
1070
     0
1002
}
1002
{
1000
BEHIND
1070
     0
1002
}
1002
{
1000
OTHER
1070
     0
1002
}
1002
{
1000
REACTOR
1002
}
1001
GENIUS_GENOBJ-N-FIL_13
1002
{
1000
OWNER
1000
GEN
1002
}
  0
POLYLINE
  5
18F68
  8
AM_0
 10
538.0332804912681
 20
315.5286257159529
 30
0.0
 66
     1
 70
     8
  0
VERTEX
  8
AM_0
  5
1A005
 10
538.033
 20
315.529
 30
0.000000
  70
    32
  0
VERTEX
  8
AM_0
  5
1A006
 10
538.063
 20
316.755
 30
0.000000
  70
    32
  0
VERTEX
  8
AM_0
  5
1A007
 10
538.154
 20
317.979
 30
0.000000
  70
    32
  0
VERTEX
  8
AM_0
  5
1A008
 10
538.304
 20
319.197
 30
0.000000
  70
    32
  0
VERTEX
  8
AM_0
  5
1A009
 10
538.514
 20
320.406
 30
0.000000
  70
    32
  0
VERTEX
  8
AM_0
  5
1A00A
 10
538.782
 20
321.603
 30
0.000000
  70
    32
  0
VERTEX
  8
AM_0
  5
1A00B
 10
539.110
 20
322.786
 30
0.000000
  70
    32
  0
VERTEX
  8
AM_0
  5
1A00C
 10
539.495
 20
323.951
 30
0.000000
  70
    32
  0
VERTEX
  8
AM_0
  5
1A00D
 10
539.936
 20
325.096
 30
0.000000
  70
    32
  0
VERTEX
  8
AM_0
  5
1A00E
 10
540.434
 20
326.218
 30
0.000000
  70
    32
  0
VERTEX
  8
AM_0
  5
1A00F
 10
540.985
 20
327.314
 30
0.000000
  70
    32
  0
VERTEX
  8
AM_0
  5
1A010
 10
541.590
 20
328.381
 30
0.000000
  70
    32
  0
VERTEX
  8
AM_0
  5
1A011
 10
542.247
 20
329.418
 30
0.000000
  70
    32
  0
VERTEX
  8
AM_0
  5
1A012
 10
542.953
 20
330.421
 30
0.000000
  70
    32
  0
VERTEX
  8
AM_0
  5
1A013
 10
543.708
 20
331.389
 30
0.000000
  70
    32
  0
VERTEX
  8
AM_0
  5
1A014
 10
544.510
 20
332.318
 30
0.000000
  70
    32
  0
VERTEX
  8
AM_0
  5
1A015
 10
545.356
 20
333.207
 30
0.000000
  70
    32
  0
VERTEX
  8
AM_0
  5
1A016
 10
546.244
 20
334.053
 30
0.000000
  70
    32
  0
VERTEX
  8
AM_0
  5
1A017
 10
547.173
 20
334.854
 30
0.000000
  70
    32
  0
VERTEX
  8
AM_0
  5
1A018
 10
548.141
 20
335.609
 30
0.000000
  70
    32
  0
VERTEX
  8
AM_0
  5
1A019
 10
549.144
 20
336.316
 30
0.000000
  70
    32
  0
VERTEX
  8
AM_0
  5
1A01A
 10
550.181
 20
336.972
 30
0.000000
  70
    32
  0
VERTEX
  8
AM_0
  5
1A01B
 10
551.248
 20
337.577
 30
0.000000
  70
    32
  0
VERTEX
  8
AM_0
  5
1A01C
 10
552.344
 20
338.129
 30
0.000000
  70
    32
  0
VERTEX
  8
AM_0
  5
1A01D
 10
553.466
 20
338.626
 30
0.000000
  70
    32
  0
VERTEX
  8
AM_0
  5
1A01E
 10
554.611
 20
339.068
 30
0.000000
  70
    32
  0
VERTEX
  8
AM_0
  5
1A01F
 10
555.776
 20
339.453
 30
0.000000
  70
    32
  0
VERTEX
  8
AM_0
  5
1A020
 10
556.959
 20
339.780
 30
0.000000
  70
    32
  0
VERTEX
  8
AM_0
  5
1A021
 10
558.156
 20
340.049
 30
0.000000
  70
    32
  0
VERTEX
  8
AM_0
  5
1A022
 10
559.365
 20
340.259
 30
0.000000
  70
    32
  0
VERTEX
  8
AM_0
  5
1A023
 10
560.583
 20
340.409
 30
0.000000
  70
    32
  0
VERTEX
  8
AM_0
  5
1A024
 10
561.807
 20
340.499
 30
0.000000
  70
    32
  0
VERTEX
  8
AM_0
  5
1A025
 10
563.033
 20
340.529
 30
0.000000
  70
    32
  0
VERTEX
  8
AM_0
  5
1A026
 10
564.260
 20
340.499
 30
0.000000
  70
    32
  0
VERTEX
  8
AM_0
  5
1A027
 10
565.484
 20
340.409
 30
0.000000
  70
    32
  0
VERTEX
  8
AM_0
  5
1A028
 10
566.702
 20
340.259
 30
0.000000
  70
    32
  0
VERTEX
  8
AM_0
  5
1A029
 10
567.911
 20
340.049
 30
0.000000
  70
    32
  0
VERTEX
  8
AM_0
  5
1A02A
 10
569.108
 20
339.780
 30
0.000000
  70
    32
  0
VERTEX
  8
AM_0
  5
1A02B
 10
570.290
 20
339.453
 30
0.000000
  70
    32
  0
VERTEX
  8
AM_0
  5
1A02C
 10
571.456
 20
339.068
 30
0.000000
  70
    32
  0
VERTEX
  8
AM_0
  5
1A02D
 10
572.600
 20
338.626
 30
0.000000
  70
    32
  0
VERTEX
  8
AM_0
  5
1A02E
 10
573.722
 20
338.129
 30
0.000000
  70
    32
  0
VERTEX
  8
AM_0
  5
1A02F
 10
574.818
 20
337.577
 30
0.000000
  70
    32
  0
VERTEX
  8
AM_0
  5
1A030
 10
575.886
 20
336.972
 30
0.000000
  70
    32
  0
VERTEX
  8
AM_0
  5
1A031
 10
576.923
 20
336.316
 30
0.000000
  70
    32
  0
VERTEX
  8
AM_0
  5
1A032
 10
577.926
 20
335.609
 30
0.000000
  70
    32
  0
VERTEX
  8
AM_0
  5
1A033
 10
578.893
 20
334.854
 30
0.000000
  70
    32
  0
VERTEX
  8
AM_0
  5
1A034
 10
579.822
 20
334.053
 30
0.000000
  70
    32
  0
VERTEX
  8
AM_0
  5
1A035
 10
580.711
 20
333.207
 30
0.000000
  70
    32
  0
VERTEX
  8
AM_0
  5
1A036
 10
581.557
 20
332.318
 30
0.000000
  70
    32
  0
VERTEX
  8
AM_0
  5
1A037
 10
582.359
 20
331.389
 30
0.000000
  70
    32
  0
VERTEX
  8
AM_0
  5
1A038
 10
583.113
 20
330.421
 30
0.000000
  70
    32
  0
VERTEX
  8
AM_0
  5
1A039
 10
583.820
 20
329.418
 30
0.000000
  70
    32
  0
VERTEX
  8
AM_0
  5
1A03A
 10
584.476
 20
328.381
 30
0.000000
  70
    32
  0
VERTEX
  8
AM_0
  5
1A03B
 10
585.081
 20
327.314
 30
0.000000
  70
    32
  0
VERTEX
  8
AM_0
  5
1A03C
 10
585.633
 20
326.218
 30
0.000000
  70
    32
  0
VERTEX
  8
AM_0
  5
1A03D
 10
586.130
 20
325.096
 30
0.000000
  70
    32
  0
VERTEX
  8
AM_0
  5
1A03E
 10
586.572
 20
323.951
 30
0.000000
  70
    32
  0
VERTEX
  8
AM_0
  5
1A03F
 10
586.957
 20
322.786
 30
0.000000
  70
    32
  0
VERTEX
  8
AM_0
  5
1A040
 10
587.284
 20
321.603
 30
0.000000
  70
    32
  0
VERTEX
  8
AM_0
  5
1A041
 10
587.553
 20
320.406
 30
0.000000
  70
    32
  0
VERTEX
  8
AM_0
  5
1A042
 10
587.763
 20
319.197
 30
0.000000
  70
    32
  0
VERTEX
  8
AM_0
  5
1A043
 10
587.913
 20
317.979
 30
0.000000
  70
    32
  0
VERTEX
  8
AM_0
  5
1A044
 10
588.003
 20
316.755
 30
0.000000
  70
    32
  0
VERTEX
  8
AM_0
  5
1A045
 10
588.033
 20
315.529
 30
0.000000
  70
    32
  0
VERTEX
  8
AM_0
  5
1A046
 10
588.003
 20
314.302
 30
0.000000
  70
    32
  0
VERTEX
  8
AM_0
  5
1A047
 10
587.913
 20
313.078
 30
0.000000
  70
    32
  0
VERTEX
  8
AM_0
  5
1A048
 10
587.763
 20
311.860
 30
0.000000
  70
    32
  0
VERTEX
  8
AM_0
  5
1A049
 10
587.553
 20
310.651
 30
0.000000
  70
    32
  0
VERTEX
  8
AM_0
  5
1A04A
 10
587.284
 20
309.454
 30
0.000000
  70
    32
  0
VERTEX
  8
AM_0
  5
1A04B
 10
586.957
 20
308.271
 30
0.000000
  70
    32
  0
VERTEX
  8
AM_0
  5
1A04C
 10
586.572
 20
307.106
 30
0.000000
  70
    32
  0
VERTEX
  8
AM_0
  5
1A04D
 10
586.130
 20
305.961
 30
0.000000
  70
    32
  0
VERTEX
  8
AM_0
  5
1A04E
 10
585.633
 20
304.840
 30
0.000000
  70
    32
  0
VERTEX
  8
AM_0
  5
1A04F
 10
585.081
 20
303.743
 30
0.000000
  70
    32
  0
VERTEX
  8
AM_0
  5
1A050
 10
584.476
 20
302.676
 30
0.000000
  70
    32
  0
VERTEX
  8
AM_0
  5
1A051
 10
583.820
 20
301.639
 30
0.000000
  70
    32
  0
VERTEX
  8
AM_0
  5
1A052
 10
583.113
 20
300.636
 30
0.000000
  70
    32
  0
VERTEX
  8
AM_0
  5
1A053
 10
582.359
 20
299.668
 30
0.000000
  70
    32
  0
VERTEX
  8
AM_0
  5
1A054
 10
581.557
 20
298.739
 30
0.000000
  70
    32
  0
VERTEX
  8
AM_0
  5
1A055
 10
580.711
 20
297.851
 30
0.000000
  70
    32
  0
VERTEX
  8
AM_0
  5
1A056
 10
579.822
 20
297.004
 30
0.000000
  70
    32
  0
VERTEX
  8
AM_0
  5
1A057
 10
578.893
 20
296.203
 30
0.000000
  70
    32
  0
VERTEX
  8
AM_0
  5
1A058
 10
577.926
 20
295.448
 30
0.000000
  70
    32
  0
VERTEX
  8
AM_0
  5
1A059
 10
576.923
 20
294.741
 30
0.000000
  70
    32
  0
VERTEX
  8
AM_0
  5
1A05A
 10
575.886
 20
294.085
 30
0.000000
  70
    32
  0
VERTEX
  8
AM_0
  5
1A05B
 10
574.818
 20
293.480
 30
0.000000
  70
    32
  0
VERTEX
  8
AM_0
  5
1A05C
 10
573.722
 20
292.928
 30
0.000000
  70
    32
  0
VERTEX
  8
AM_0
  5
1A05D
 10
572.600
 20
292.431
 30
0.000000
  70
    32
  0
VERTEX
  8
AM_0
  5
1A05E
 10
571.456
 20
291.990
 30
0.000000
  70
    32
  0
VERTEX
  8
AM_0
  5
1A05F
 10
570.290
 20
291.605
 30
0.000000
  70
    32
  0
VERTEX
  8
AM_0
  5
1A060
 10
569.108
 20
291.277
 30
0.000000
  70
    32
  0
VERTEX
  8
AM_0
  5
1A061
 10
567.911
 20
291.009
 30
0.000000
  70
    32
  0
VERTEX
  8
AM_0
  5
1A062
 10
566.702
 20
290.799
 30
0.000000
  70
    32
  0
VERTEX
  8
AM_0
  5
1A063
 10
565.484
 20
290.649
 30
0.000000
  70
    32
  0
VERTEX
  8
AM_0
  5
1A064
 10
564.260
 20
290.558
 30
0.000000
  70
    32
  0
VERTEX
  8
AM_0
  5
1A065
 10
563.033
 20
290.528
 30
0.000000
  70
    32
  0
VERTEX
  8
AM_0
  5
1A066
 10
561.807
 20
290.558
 30
0.000000
  70
    32
  0
VERTEX
  8
AM_0
  5
1A067
 10
560.583
 20
290.649
 30
0.000000
  70
    32
  0
VERTEX
  8
AM_0
  5
1A068
 10
559.365
 20
290.799
 30
0.000000
  70
    32
  0
VERTEX
  8
AM_0
  5
1A069
 10
558.156
 20
291.009
 30
0.000000
  70
    32
  0
VERTEX
  8
AM_0
  5
1A06A
 10
556.959
 20
291.277
 30
0.000000
  70
    32
  0
VERTEX
  8
AM_0
  5
1A06B
 10
555.776
 20
291.605
 30
0.000000
  70
    32
  0
VERTEX
  8
AM_0
  5
1A06C
 10
554.611
 20
291.990
 30
0.000000
  70
    32
  0
VERTEX
  8
AM_0
  5
1A06D
 10
553.466
 20
292.431
 30
0.000000
  70
    32
  0
VERTEX
  8
AM_0
  5
1A06E
 10
552.344
 20
292.928
 30
0.000000
  70
    32
  0
VERTEX
  8
AM_0
  5
1A06F
 10
551.248
 20
293.480
 30
0.000000
  70
    32
  0
VERTEX
  8
AM_0
  5
1A070
 10
550.181
 20
294.085
 30
0.000000
  70
    32
  0
VERTEX
  8
AM_0
  5
1A071
 10
549.144
 20
294.741
 30
0.000000
  70
    32
  0
VERTEX
  8
AM_0
  5
1A072
 10
548.141
 20
295.448
 30
0.000000
  70
    32
  0
VERTEX
  8
AM_0
  5
1A073
 10
547.173
 20
296.203
 30
0.000000
  70
    32
  0
VERTEX
  8
AM_0
  5
1A074
 10
546.244
 20
297.004
 30
0.000000
  70
    32
  0
VERTEX
  8
AM_0
  5
1A075
 10
545.356
 20
297.851
 30
0.000000
  70
    32
  0
VERTEX
  8
AM_0
  5
1A076
 10
544.510
 20
298.739
 30
0.000000
  70
    32
  0
VERTEX
  8
AM_0
  5
1A077
 10
543.708
 20
299.668
 30
0.000000
  70
    32
  0
VERTEX
  8
AM_0
  5
1A078
 10
542.953
 20
300.636
 30
0.000000
  70
    32
  0
VERTEX
  8
AM_0
  5
1A079
 10
542.247
 20
301.639
 30
0.000000
  70
    32
  0
VERTEX
  8
AM_0
  5
1A07A
 10
541.590
 20
302.676
 30
0.000000
  70
    32
  0
VERTEX
  8
AM_0
  5
1A07B
 10
540.985
 20
303.743
 30
0.000000
  70
    32
  0
VERTEX
  8
AM_0
  5
1A07C
 10
540.434
 20
304.840
 30
0.000000
  70
    32
  0
VERTEX
  8
AM_0
  5
1A07D
 10
539.936
 20
305.961
 30
0.000000
  70
    32
  0
VERTEX
  8
AM_0
  5
1A07E
 10
539.495
 20
307.106
 30
0.000000
  70
    32
  0
VERTEX
  8
AM_0
  5
1A07F
 10
539.110
 20
308.271
 30
0.000000
  70
    32
  0
VERTEX
  8
AM_0
  5
1A080
 10
538.782
 20
309.454
 30
0.000000
  70
    32
  0
VERTEX
  8
AM_0
  5
1A081
 10
538.514
 20
310.651
 30
0.000000
  70
    32
  0
VERTEX
  8
AM_0
  5
1A082
 10
538.304
 20
311.860
 30
0.000000
  70
    32
  0
VERTEX
  8
AM_0
  5
1A083
 10
538.154
 20
313.078
 30
0.000000
  70
    32
  0
VERTEX
  8
AM_0
  5
1A084
 10
538.063
 20
314.302
 30
0.000000
  70
    32
  0
VERTEX
  8
AM_0
  5
1A085
 10
538.033
 20
315.529
 30
0.000000
  70
    32
  0
SEQEND
  8
AM_0
  5
1A086
  0
CIRCLE
  5
18F69
  8
0
 10
563.0332812368265
 20
315.5286257159529
 30
0.0
 40
50.0
  0
LINE
  5
18F6F
  8
AM_0
 10
822.03325459872894
 20
256.5289847465545
 30
0.0
 11
822.03325459872894
 21
249.0289847464044
 31
0.0
  0
LINE
  5
18F70
  8
AM_0
 10
827.53325459883911
 20
260.0289847466243
 30
0.0
 11
827.53325459883911
 21
240.5289847462345
 31
0.0
  0
LINE
  5
18F71
  8
AM_0
 10
818.53325459865891
 20
256.5289847465545
 30
0.0
 11
818.53325459865891
 21
249.0289847464044
 31
0.0
  0
LINE
  5
18F72
  8
AM_0
 10
807.03325459842915
 20
249.0289847464044
 30
0.0
 11
807.03325459842915
 21
256.5289847465545
 31
0.0
  0
LINE
  5
18F73
  8
AM_0
 10
810.53325459849907
 20
256.5289847465545
 30
0.0
 11
810.53325459849907
 21
249.0289847464044
 31
0.0
  0
ARC
  5
18F74
  8
AM_0
 10
814.53325459857911
 20
249.0289847464044
 30
0.0
 40
7.5000000001500027
 50
180.0
 51
0.0
  0
LINE
  5
18F75
  8
AM_0
 10
747.53325459723919
 20
260.0289847466243
 30
0.0
 11
747.53325459723919
 21
253.0289847464845
 31
0.0
  0
LINE
  5
18F76
  8
AM_0
 10
761.22925459751298
 20
233.52898474609449
 30
0.0
 11
796.83725459822494
 21
233.52898474609449
 31
0.0
  0
LINE
  5
18F77
  8
AM_0
 10
747.53325459723919
 20
253.0289847464845
 30
0.0
 11
805.03325459838914
 21
253.0289847464845
 31
0.0
  0
LINE
  5
18F78
  8
AM_0
 10
750.0332545972891
 20
236.52898474615441
 30
0.0
 11
825.03325459878909
 21
236.52898474615441
 31
0.0
  0
LINE
  5
18F79
  8
0
 10
678.65875090555164
 20
208.83200734309199
 30
0.0
 11
693.52872132544485
 21
243.52866449657421
 31
0.0
  0
LINE
  5
18F7A
  8
0
 10
680.24535011528531
 20
227.76564679639449
 30
0.0
 11
688.14385261698044
 21
246.19551757546509
 31
0.0
  0
ARC
  5
18F7B
  8
0
 10
679.03325463254885
 20
251.5286257159533
 30
0.0
 40
10.0
 50
270.0
 51
0.0
1001
GENIUS_GENODEF_13
1002
{
1000
HIER
1070
     0
1002
}
1002
{
1000
MANEDIT
1070
     0
1002
}
1002
{
1000
NOSEL
1070
     0
1002
}
1002
{
1000
BEHIND
1070
     0
1002
}
1002
{
1000
OTHER
1070
     0
1002
}
1002
{
1000
REACTOR
1002
}
1001
GENIUS_GENOBJ-N-FIL_13
1002
{
1000
OWNER
1000
GEN
1002
}
  0
ARC
  5
18F7C
  8
AM_0
 10
678.03325418101417
 20
250.5286237593026
 30
0.0
 40
17.000000451534831
 50
336.80144506544991
 51
0.0
  0
ARC
  5
18F7D
  8
AM_0
 10
678.03325418101417
 20
250.5286237593026
 30
0.0
 40
11.000000451534831
 50
336.80144506544991
 51
0.0
  0
LINE
  5
18F7E
  8
AM_0
 10
749.03325459726909
 20
253.0289847464845
 30
0.0
 11
749.03325459726909
 21
237.5289847461745
 31
0.0
  0
ARC
  5
18F7F
  8
AM_0
 10
750.0332545972891
 20
237.52898474617439
 30
0.0
 40
1.00000000002
 50
180.0
 51
270.0
  0
LINE
  5
18F80
  8
AM_0
 10
756.03325459740904
 20
236.52898474615441
 30
0.0
 11
761.22925459751298
 21
233.52898474609449
 31
0.0
  0
ARC
  5
18F81
  8
AM_0
 10
813.53325459855887
 20
248.02898474638471
 30
0.0
 40
7.5000000001499956
 50
180.0
 51
270.0
  0
LINE
  5
18F82
  8
AM_0
 10
796.83725459822494
 20
233.52898474609449
 30
0.0
 11
802.02603010853215
 21
236.52898474615441
 31
0.0
  0
ARC
  5
18F83
  8
AM_0
 10
805.03325459838914
 20
252.02898474646469
 30
0.0
 40
1.00000000002
 50
0.0
 51
89.999999999999986
  0
LINE
  5
18F84
  8
AM_0
 10
806.03325459840914
 20
248.02898474638471
 30
0.0
 11
806.03325459840914
 21
252.02898474646469
 31
0.0
  0
LINE
  5
18F85
  8
AM_0
 10
826.03325459880921
 20
253.0289847464845
 30
0.0
 11
826.03325459880921
 21
237.5289847461745
 31
0.0
  0
ARC
  5
18F86
  8
AM_0
 10
815.53325459859877
 20
248.02898474638471
 30
0.0
 40
7.500000000149992
 50
270.0
 51
0.0
  0
ARC
  5
18F87
  8
AM_0
 10
825.03325459878909
 20
237.5289847461745
 30
0.0
 40
1.00000000002
 50
270.0
 51
0.0
  0
ARC
  5
18F88
  8
AM_0
 10
814.53325459857911
 20
249.0289847464044
 30
0.0
 40
4.0000000000799973
 50
180.0
 51
0.0
  0
LINE
  5
18F89
  8
AM_0
 10
813.53325459855887
 20
240.5289847462345
 30
0.0
 11
815.53325459859877
 21
240.5289847462345
 31
0.0
  0
LINE
  5
18F8A
  8
AM_0
 10
827.53325459883911
 20
253.0289847464845
 30
0.0
 11
824.03325459876919
 21
253.0289847464845
 31
0.0
  0
ARC
  5
18F8B
  8
AM_0
 10
824.03325459876919
 20
252.02898474646469
 30
0.0
 40
1.00000000002
 50
89.999999999999986
 51
180.0
  0
LINE
  5
18F8C
  8
AM_0
 10
827.53325459883911
 20
240.5289847462345
 30
0.0
 11
826.03325459880921
 21
240.5289847462345
 31
0.0
  0
LINE
  5
18F8D
  8
AM_0
 10
823.03325459874895
 20
252.02898474646469
 30
0.0
 11
823.03325459874895
 21
248.02898474638471
 31
0.0
  0
LINE
  5
18F8E
  8
AM_0
 10
735.21324459699224
 20
369.52895474881478
 30
0.0
 11
795.03325459818893
 21
369.52895474881478
 31
0.0
  0
LINE
  5
18F8F
  8
AM_0
 10
735.21324459699224
 20
367.52895474877459
 30
0.0
 11
795.03325459818893
 21
367.52895474877459
 31
0.0
  0
LINE
  5
18F90
  8
AM_0
 10
750.53325459729865
 20
366.89895474876221
 30
0.0
 11
765.53325459759901
 21
366.89895474876221
 31
0.0
  0
LINE
  5
18F91
  8
AM_0
 10
735.21324459699224
 20
299.52901474741458
 30
0.0
 11
795.03325459818882
 21
299.52901474741458
 31
0.0
  0
LINE
  5
18F92
  8
AM_0
 10
735.21324459699224
 20
297.52901474737462
 30
0.0
 11
795.03325459818882
 21
297.52901474737462
 31
0.0
  0
LINE
  5
18F93
  8
AM_0
 10
795.03325459818882
 20
296.79903474736
 30
0.0
 11
735.21324459699224
 21
296.79903474736
 31
0.0
  0
LINE
  5
18F94
  8
AM_0
 10
750.53325459729865
 20
300.15901474742719
 30
0.0
 11
765.5332545975989
 21
300.15901474742719
 31
0.0
  0
LINE
  5
18F95
  8
AM_0
 10
750.53325459729865
 20
300.15901474742719
 30
0.0
 11
765.5332545975989
 21
300.15901474742719
 31
0.0
  0
LINE
  5
18F96
  8
AM_0
 10
795.03325459818882
 20
271.66902474685747
 30
0.0
 11
735.21324459699224
 21
271.66902474685747
 31
0.0
  0
LINE
  5
18F97
  8
AM_0
 10
829.03325459886855
 20
287.18901474716779
 30
0.0
 11
735.21324459699224
 21
287.18901474716779
 31
0.0
  0
LINE
  5
18F98
  8
AM_0
 10
747.53325459723885
 20
260.0289847466243
 30
0.0
 11
827.53325459883911
 21
260.0289847466243
 31
0.0
  0
LINE
  5
18F99
  8
AM_0
 10
827.53325459883911
 20
256.5289847465545
 30
0.0
 11
747.53325459723919
 21
256.5289847465545
 31
0.0
  0
LINE
  5
18F9A
  8
AM_0
 10
698.49870124097674
 20
302.45229843001772
 30
0.0
 11
698.49870124097811
 21
364.60567407551281
 31
0.0
  0
ARC
  5
18F9B
  8
AM_0
 10
385.75098117208682
 20
333.5289879372109
 30
0.0
 40
316.22122811834902
 50
354.36014466263379
 51
5.639854129946368
  0
LINE
  5
18F9C
  8
AM_0
 10
720.03325459668883
 20
281.48899625172459
 30
0.0
 11
710.03325459648875
 21
281.48899625172459
 31
0.0
  0
LINE
  5
18F9D
  8
AM_0
 10
720.03325459668883
 20
296.38900625202228
 30
0.0
 11
710.03325459648875
 21
296.38900625202228
 31
0.0
  0
LINE
  5
18F9E
  8
AM_0
 10
720.03325459668883
 20
269.52899625148513
 30
0.0
 11
710.90665176891071
 21
269.52899625148513
 31
0.0
  0
ARC
  5
18F9F
  8
AM_0
 10
696.03325459620896
 20
269.02899625147541
 30
0.0
 40
3.000000000059996
 50
90.0
 51
109.4712198979468
1001
GENIUS_GENODEF_13
1002
{
1000
HIER
1070
     0
1002
}
1002
{
1000
MANEDIT
1070
     0
1002
}
1002
{
1000
NOSEL
1070
     0
1002
}
1002
{
1000
BEHIND
1070
     0
1002
}
1002
{
1000
OTHER
1070
     0
1002
}
1002
{
1000
REACTOR
1002
}
1001
GENIUS_GENOBJ-N-FIL_13
1002
{
1000
OWNER
1000
GEN
1002
}
  0
ARC
  5
18FA0
  8
0
 10
684.03325463254885
 20
266.43459730956272
 30
0.0
 40
5.0
 50
249.33268187999059
 51
0.0
1001
GENIUS_GENOBJ-N-FIL_13
1002
{
1000
OWNER
1000
GEN
1002
}
1001
GENIUS_GENODEF_13
1002
{
1000
HIER
1070
     0
1002
}
1002
{
1000
MANEDIT
1070
     0
1002
}
1002
{
1000
NOSEL
1070
     0
1002
}
1002
{
1000
BEHIND
1070
     0
1002
}
1002
{
1000
OTHER
1070
     0
1002
}
1002
{
1000
REACTOR
1002
}
  0
ARC
  5
18FA1
  8
AM_0
 10
706.03325459640871
 20
269.02899625147518
 30
0.0
 40
3.000000000059996
 50
35.685334712656889
 51
90.0
1001
GENIUS_GENOBJ-N-FIL_13
1002
{
1000
OWNER
1000
GEN
1002
}
1001
GENIUS_GENODEF_13
1002
{
1000
HIER
1070
     0
1002
}
1002
{
1000
MANEDIT
1070
     0
1002
}
1002
{
1000
NOSEL
1070
     0
1002
}
1002
{
1000
BEHIND
1070
     0
1002
}
1002
{
1000
OTHER
1070
     0
1002
}
1002
{
1000
REACTOR
1002
}
  0
LINE
  5
18FA2
  8
AM_0
 10
706.03325459640871
 20
272.02899625153498
 30
0.0
 11
696.03325459620896
 21
272.0289962515352
 31
0.0
  0
ARC
  5
18FA3
  8
AM_0
 10
710.90665176891071
 20
272.5289962515451
 30
0.0
 40
3.000000000059996
 50
215.6853347126569
 51
270.0
1001
GENIUS_GENOBJ-N-FIL_13
1002
{
1000
OWNER
1000
GEN
1002
}
1001
GENIUS_GENODEF_13
1002
{
1000
HIER
1070
     0
1002
}
1002
{
1000
MANEDIT
1070
     0
1002
}
1002
{
1000
NOSEL
1070
     0
1002
}
1002
{
1000
BEHIND
1070
     0
1002
}
1002
{
1000
OTHER
1070
     0
1002
}
1002
{
1000
REACTOR
1002
}
  0
LINE
  5
18FA4
  8
AM_0
 10
697.46172024254975
 20
299.80026761369669
 30
0.0
 11
695.03325463254896
 21
299.80026761369669
 31
0.0
  0
ARC
  5
18FA5
  8
0
 10
686.03101538044075
 20
290.52862655166138
 30
0.0
 40
3.0000000000000631
 50
90.000000000001606
 51
270.0
  0
ARC
  5
18FA6
  8
0
 10
686.03325463254885
 20
296.52862571595313
 30
0.0
 40
3.0
 50
270.0
 51
0.0
1001
GENIUS_GENODEF_13
1002
{
1000
HIER
1070
     0
1002
}
1002
{
1000
MANEDIT
1070
     0
1002
}
1002
{
1000
NOSEL
1070
     0
1002
}
1002
{
1000
BEHIND
1070
     0
1002
}
1002
{
1000
OTHER
1070
     0
1002
}
1002
{
1000
REACTOR
1002
}
1001
GENIUS_GENOBJ-N-FIL_13
1002
{
1000
OWNER
1000
GEN
1002
}
  0
ARC
  5
18FA7
  8
0
 10
686.03325463254885
 20
284.52862571595313
 30
0.0
 40
3.0
 50
0.0
 51
90.0
1001
GENIUS_GENODEF_13
1002
{
1000
HIER
1070
     0
1002
}
1002
{
1000
MANEDIT
1070
     0
1002
}
1002
{
1000
NOSEL
1070
     0
1002
}
1002
{
1000
BEHIND
1070
     0
1002
}
1002
{
1000
OTHER
1070
     0
1002
}
1002
{
1000
REACTOR
1002
}
1001
GENIUS_GENOBJ-N-FIL_13
1002
{
1000
OWNER
1000
GEN
1002
}
  0
ARC
  5
18FA8
  8
AM_0
 10
697.46172024254975
 20
302.80026761375672
 30
0.0
 40
3.000000000059996
 50
270.0
 51
353.33928567968309
1001
GENIUS_GENODEF_13
1002
{
1000
HIER
1070
     0
1002
}
1002
{
1000
MANEDIT
1070
     0
1002
}
1002
{
1000
NOSEL
1070
     0
1002
}
1002
{
1000
BEHIND
1070
     0
1002
}
1002
{
1000
OTHER
1070
     0
1002
}
1002
{
1000
REACTOR
1002
}
1001
GENIUS_GENOBJ-N-FIL_13
1002
{
1000
OWNER
1000
GEN
1002
}
  0
LINE
  5
18FA9
  8
AM_0
 10
729.03325459686891
 20
290.66902474723742
 30
0.0
 11
729.03325459686891
 21
283.06902474708539
 31
0.0
  0
LINE
  5
18FAA
  8
AM_0
 10
730.0332545968887
 20
290.66902474723742
 30
0.0
 11
730.0332545968887
 21
283.06902474708539
 31
0.0
  0
LINE
  5
18FAB
  8
AM_0
 10
733.27324459695365
 20
273.1690147468874
 30
0.0
 11
730.53743459689895
 21
283.3690147470914
 31
0.0
  0
ARC
  5
18FAC
  8
AM_0
 10
730.93325459690675
 20
285.06902474712552
 30
0.0
 40
1.700000800033999
 50
270.000020000002
 51
359.999989999999
  0
LINE
  5
18FAD
  8
AM_0
 10
749.03325459726909
 20
264.5289847467144
 30
0.0
 11
736.73253330077455
 21
264.5289847467144
 31
0.0
  0
LINE
  5
18FAE
  8
AM_0
 10
729.03325459686891
 20
269.52895479917458
 30
0.0
 11
736.73253330077455
 21
264.5289847467144
 31
0.0
  0
LINE
  5
18FAF
  8
AM_0
 10
730.0332545968887
 20
283.06902474708539
 30
0.0
 11
729.03325459686891
 21
283.06902474708539
 31
0.0
  0
ARC
  5
18FB0
  8
AM_0
 10
728.02483459684868
 20
282.49742474707392
 30
0.0
 40
1.0084445000201681
 50
270.4777999999996
 51
350.45392999999711
  0
ARC
  5
18FB1
  8
AM_0
 10
728.03325459684891
 20
270.5289547468347
 30
0.0
 40
1.00000000002
 50
270.00000299999761
 51
0.0000100000009905
  0
LINE
  5
18FB2
  8
AM_0
 10
733.31325459695449
 20
273.02902474688449
 30
0.0
 11
729.03325459686891
 21
273.02902474688449
 31
0.0
  0
LINE
  5
18FB3
  8
AM_0
 10
729.03325459686891
 20
270.5289547468347
 30
0.0
 11
729.03325459686891
 21
273.02895474688461
 31
0.0
  0
LINE
  5
18FB4
  8
0
  6
CONTINUOUS
 62
     7
 10
728.03325459668883
 20
281.48902417565171
 30
0.0
 11
720.03325459668883
 21
281.48902417565171
 31
0.0
  0
LINE
  5
18FB5
  8
AM_0
 10
720.03325459668883
 20
269.52895999628282
 30
0.0
 11
720.03325459668883
 21
273.52895999628288
 31
0.0
  0
LINE
  5
18FB6
  8
0
  6
CONTINUOUS
 62
     7
 10
729.03331619128755
 20
269.52895451318233
 30
0.0
 11
720.03325459668883
 21
269.52895451318233
 31
0.0
  0
ARC
  5
18FB7
  8
AM_0
 10
735.22289459699255
 20
273.68601474689768
 30
0.0
 40
2.0170178000403398
 50
194.8516000000017
 51
269.72630000000368
  0
LINE
  5
18FB8
  8
AM_0
 10
749.03325459726909
 20
260.0289847466243
 30
0.0
 11
749.03325459726909
 21
264.5289847467144
 31
0.0
  0
LINE
  5
18FB9
  8
AM_0
 10
732.1084685104048
 20
307.52895474757469
 30
0.0
 11
749.54420888410368
 21
307.52895474757469
 31
0.0
  0
LINE
  5
18FBA
  8
AM_0
 10
735.21324459699224
 20
300.15901474742719
 30
0.0
 11
749.53325459727887
 21
300.15901474742719
 31
0.0
  0
LINE
  5
18FBB
  8
AM_0
 10
750.39347642543112
 20
307.03893474756478
 30
0.0
 11
731.01955115226622
 21
307.03893474756478
 31
0.0
  0
ARC
  5
18FBC
  8
AM_0
 10
734.69323459698194
 20
298.52901474739463
 30
0.0
 40
1.0000074000200001
 50
89.999997000002296
 51
270.0
  0
ARC
  5
18FBD
  8
AM_0
 10
731.21935459691247
 20
298.47902474739368
 30
0.0
 40
1.680011000033599
 50
90.208030999999565
 51
269.79197000000192
  0
LINE
  5
18FBE
  8
AM_0
 10
735.21324459699224
 20
296.79903474736
 30
0.0
 11
729.03325464618865
 21
296.79903474736
 31
0.0
  0
LINE
  5
18FBF
  8
AM_0
 10
729.03325459686891
 20
287.6463847471768
 30
0.0
 11
730.0332545968887
 21
287.06905474716552
 31
0.0
  0
LINE
  5
18FC0
  8
AM_0
 10
729.03325459686891
 20
286.64638474715679
 30
0.0
 11
730.0332545968887
 21
286.06902474714531
 31
0.0
  0
ARC
  5
18FC1
  8
AM_0
 10
728.37239459685566
 20
285.70223474713799
 30
0.0
 40
1.4868059000297349
 50
14.282739999999089
 51
63.610220000000879
  0
LINE
  5
18FC2
  8
AM_0
 10
730.0332545968887
 20
290.66902474723742
 30
0.0
 11
729.03325459686891
 21
290.66902474723742
 31
0.0
  0
LINE
  5
18FC3
  8
0
  6
CONTINUOUS
 62
     7
 10
728.03325459668883
 20
296.389034175652
 30
0.0
 11
720.03325459668883
 21
296.389034175652
 31
0.0
  0
LINE
  5
18FC4
  8
AM_0
 10
734.69323459698194
 20
297.52901474737462
 30
0.0
 11
735.21324459699224
 21
297.52901474737462
 31
0.0
  0
LINE
  5
18FC5
  8
AM_0
 10
735.21324459699224
 20
287.18901474716779
 30
0.0
 11
732.63323459694072
 21
287.18901474716779
 31
0.0
  0
LINE
  5
18FC6
  8
AM_0
 10
732.63323459694072
 20
288.6690247471974
 30
0.0
 11
732.63323459694072
 21
285.06902474712552
 31
0.0
  0
LINE
  5
18FC7
  8
AM_0
 10
730.0332545968887
 20
283.36902474709137
 30
0.0
 11
730.93325459690675
 21
283.36902474709137
 31
0.0
  0
LINE
  5
18FC8
  8
AM_0
 10
730.0332545968887
 20
290.3690147472314
 30
0.0
 11
730.93325459690675
 21
290.3690147472314
 31
0.0
  0
ARC
  5
18FC9
  8
AM_0
 10
730.93325459690675
 20
288.6690247471974
 30
0.0
 40
1.6999969000339989
 50
0.0000200000019969
 51
89.999997000002296
  0
LINE
  5
18FCA
  8
AM_0
 10
734.69323459698194
 20
299.52901474741458
 30
0.0
 11
735.21324459699224
 21
299.52901474741458
 31
0.0
  0
ARC
  5
18FCB
  8
AM_0
 10
731.01846856274324
 20
308.5039347475942
 30
0.0
 40
1.465000400029298
 50
89.999999999999986
 51
269.99999700000228
  0
ARC
  5
18FCC
  8
AM_0
 10
732.10846856276521
 20
308.5289547475947
 30
0.0
 40
1.0000032000200001
 50
89.999999999999986
 51
269.99999700000228
  0
LINE
  5
18FCD
  8
AM_0
 10
731.21324459691243
 20
300.15901474742719
 30
0.0
 11
735.21324459699224
 21
300.15901474742719
 31
0.0
  0
ARC
  5
18FCE
  8
AM_0
 10
749.53325459727887
 20
306.52901474755458
 30
0.0
 40
1.00000000002
 50
0.0
 51
89.999999999999986
1001
GENIUS_GENOBJ-N-FIL_13
1002
{
1000
OWNER
1000
GEN
1002
}
1001
GENIUS_GENODEF_13
1002
{
1000
HIER
1070
     0
1002
}
1002
{
1000
MANEDIT
1070
     0
1002
}
1002
{
1000
NOSEL
1070
     0
1002
}
1002
{
1000
BEHIND
1070
     0
1002
}
1002
{
1000
OTHER
1070
     0
1002
}
1002
{
1000
REACTOR
1002
}
  0
ARC
  5
18FCF
  8
AM_0
 10
749.53325459727887
 20
301.1590147474472
 30
0.0
 40
1.00000000002
 50
270.0
 51
0.0
1001
GENIUS_GENOBJ-N-FIL_13
1002
{
1000
OWNER
1000
GEN
1002
}
1001
GENIUS_GENODEF_13
1002
{
1000
HIER
1070
     0
1002
}
1002
{
1000
MANEDIT
1070
     0
1002
}
1002
{
1000
NOSEL
1070
     0
1002
}
1002
{
1000
BEHIND
1070
     0
1002
}
1002
{
1000
OTHER
1070
     0
1002
}
1002
{
1000
REACTOR
1002
}
  0
LINE
  5
18FD0
  8
AM_0
 10
750.53325459729865
 20
306.52901474755458
 30
0.0
 11
750.53325459729865
 21
301.1590147474472
 31
0.0
  0
CIRCLE
  5
18FD1
  8
AM_0
 10
760.53325459749874
 20
305.0289847475247
 30
0.0
 40
0.750000000015
  0
CIRCLE
  5
18FD2
  8
AM_0
 10
755.53325459739858
 20
305.0289847475247
 30
0.0
 40
0.750000000015
  0
ARC
  5
18FD3
  8
0
 10
686.03325463254885
 20
340.52862571595313
 30
0.0
 40
3.0000000000000631
 50
90.000000000001606
 51
270.0
  0
ARC
  5
18FD4
  8
0
 10
686.03325463254885
 20
334.52862571595313
 30
0.0
 40
3.0
 50
0.0
 51
90.0
1001
GENIUS_GENODEF_13
1002
{
1000
HIER
1070
     0
1002
}
1002
{
1000
MANEDIT
1070
     0
1002
}
1002
{
1000
NOSEL
1070
     0
1002
}
1002
{
1000
BEHIND
1070
     0
1002
}
1002
{
1000
OTHER
1070
     0
1002
}
1002
{
1000
REACTOR
1002
}
1001
GENIUS_GENOBJ-N-FIL_13
1002
{
1000
OWNER
1000
GEN
1002
}
  0
LINE
  5
18FD5
  8
AM_0
 10
697.46172024255111
 20
367.25770489183373
 30
0.0
 11
694.94509344592336
 21
367.25770489183373
 31
0.0
  0
ARC
  5
18FD6
  8
0
 10
686.03325463254885
 20
346.52862571595313
 30
0.0
 40
3.0
 50
270.0
 51
0.0
1001
GENIUS_GENODEF_13
1002
{
1000
HIER
1070
     0
1002
}
1002
{
1000
MANEDIT
1070
     0
1002
}
1002
{
1000
NOSEL
1070
     0
1002
}
1002
{
1000
BEHIND
1070
     0
1002
}
1002
{
1000
OTHER
1070
     0
1002
}
1002
{
1000
REACTOR
1002
}
1001
GENIUS_GENOBJ-N-FIL_13
1002
{
1000
OWNER
1000
GEN
1002
}
  0
ARC
  5
18FD7
  8
AM_0
 10
697.46172024255111
 20
364.2577048917737
 30
0.0
 40
3.000000000059996
 50
6.6607143203167842
 51
90.0
1001
GENIUS_GENOBJ-N-FIL_13
1002
{
1000
OWNER
1000
GEN
1002
}
1001
GENIUS_GENODEF_13
1002
{
1000
HIER
1070
     0
1002
}
1002
{
1000
MANEDIT
1070
     0
1002
}
1002
{
1000
NOSEL
1070
     0
1002
}
1002
{
1000
BEHIND
1070
     0
1002
}
1002
{
1000
OTHER
1070
     0
1002
}
1002
{
1000
REACTOR
1002
}
  0
LINE
  5
18FD8
  8
AM_0
 10
735.21324459699224
 20
366.89895474876221
 30
0.0
 11
749.53325459727887
 21
366.89895474876221
 31
0.0
  0
LINE
  5
18FD9
  8
AM_0
 10
732.10846851040515
 20
359.52895474861458
 30
0.0
 11
749.53325459727887
 21
359.52895474861458
 31
0.0
  0
LINE
  5
18FDA
  8
AM_0
 10
750.39342306910839
 20
360.01894474862428
 30
0.0
 11
731.03474320251985
 21
360.01894474862428
 31
0.0
  0
LINE
  5
18FDB
  8
AM_0
 10
734.69323459698205
 20
369.52895474881478
 30
0.0
 11
735.21324459699224
 21
369.52895474881478
 31
0.0
  0
LINE
  5
18FDC
  8
AM_0
 10
734.69323459698205
 20
367.52895474877459
 30
0.0
 11
735.21324459699224
 21
367.52895474877459
 31
0.0
  0
ARC
  5
18FDD
  8
AM_0
 10
734.69323459698205
 20
368.52895474879472
 30
0.0
 40
1.0000074000200001
 50
89.999999999999986
 51
270.00000299999761
  0
ARC
  5
18FDE
  8
AM_0
 10
731.01846856274335
 20
358.55403474859509
 30
0.0
 40
1.465000400029298
 50
90.000002999997605
 51
270.0
  0
ARC
  5
18FDF
  8
AM_0
 10
732.10846856276521
 20
358.5290147485947
 30
0.0
 40
1.0000032000200001
 50
90.000002999997605
 51
270.0
  0
LINE
  5
18FE0
  8
AM_0
 10
731.21324459691255
 20
366.89895474876221
 30
0.0
 11
735.21324459699224
 21
366.89895474876221
 31
0.0
  0
LINE
  5
18FE1
  8
AM_0
 10
750.53325459729865
 20
360.5289547486347
 30
0.0
 11
750.53325459729865
 21
365.89895474874203
 31
0.0
  0
ARC
  5
18FE2
  8
AM_0
 10
749.53325459727887
 20
360.5289547486347
 30
0.0
 40
1.00000000002
 50
270.0
 51
0.0
1001
GENIUS_GENOBJ-N-FIL_13
1002
{
1000
OWNER
1000
GEN
1002
}
1001
GENIUS_GENODEF_13
1002
{
1000
HIER
1070
     0
1002
}
1002
{
1000
MANEDIT
1070
     0
1002
}
1002
{
1000
NOSEL
1070
     0
1002
}
1002
{
1000
BEHIND
1070
     0
1002
}
1002
{
1000
OTHER
1070
     0
1002
}
1002
{
1000
REACTOR
1002
}
  0
ARC
  5
18FE3
  8
AM_0
 10
749.53325459727887
 20
365.89895474874203
 30
0.0
 40
1.00000000002
 50
0.0
 51
89.999999999999986
1001
GENIUS_GENOBJ-N-FIL_13
1002
{
1000
OWNER
1000
GEN
1002
}
1001
GENIUS_GENODEF_13
1002
{
1000
HIER
1070
     0
1002
}
1002
{
1000
MANEDIT
1070
     0
1002
}
1002
{
1000
NOSEL
1070
     0
1002
}
1002
{
1000
BEHIND
1070
     0
1002
}
1002
{
1000
OTHER
1070
     0
1002
}
1002
{
1000
REACTOR
1002
}
  0
CIRCLE
  5
18FE4
  8
AM_0
 10
760.53325459749885
 20
362.02898474866458
 30
0.0
 40
0.750000000015
  0
CIRCLE
  5
18FE5
  8
AM_0
 10
755.53325459739881
 20
362.02898474866458
 30
0.0
 40
0.750000000015
  0
LINE
  5
18FE6
  8
AM_0
 10
850.03325459928897
 20
271.6689347468573
 30
0.0
 11
795.03325459818882
 21
271.66893474685742
 31
0.0
  0
LINE
  5
18FE7
  8
AM_0
 10
828.03325459884888
 20
287.17894474716769
 30
0.0
 11
795.03325459818882
 21
287.17894474716769
 31
0.0
  0
LINE
  5
18FE8
  8
AM_0
 10
766.53325459761868
 20
300.15901474742719
 30
0.0
 11
795.03325459818882
 21
300.15901474742719
 31
0.0
  0
ARC
  5
18FE9
  8
AM_0
 10
766.53325459761868
 20
306.52901474755458
 30
0.0
 40
1.00000000002
 50
89.999999999999986
 51
180.00000000000651
1001
GENIUS_GENOBJ-N-FIL_13
1002
{
1000
OWNER
1000
GEN
1002
}
1001
GENIUS_GENODEF_13
1002
{
1000
HIER
1070
     0
1002
}
1002
{
1000
MANEDIT
1070
     0
1002
}
1002
{
1000
NOSEL
1070
     0
1002
}
1002
{
1000
BEHIND
1070
     0
1002
}
1002
{
1000
OTHER
1070
     0
1002
}
1002
{
1000
REACTOR
1002
}
  0
ARC
  5
18FEA
  8
AM_0
 10
766.53325459761868
 20
301.1590147474472
 30
0.0
 40
1.00000000002
 50
180.0
 51
270.0
1001
GENIUS_GENOBJ-N-FIL_13
1002
{
1000
OWNER
1000
GEN
1002
}
1001
GENIUS_GENODEF_13
1002
{
1000
HIER
1070
     0
1002
}
1002
{
1000
MANEDIT
1070
     0
1002
}
1002
{
1000
NOSEL
1070
     0
1002
}
1002
{
1000
BEHIND
1070
     0
1002
}
1002
{
1000
OTHER
1070
     0
1002
}
1002
{
1000
REACTOR
1002
}
  0
LINE
  5
18FEB
  8
AM_0
 10
765.5332545975989
 20
306.52901474755458
 30
0.0
 11
765.5332545975989
 21
301.1590147474472
 31
0.0
  0
ARC
  5
18FEC
  8
AM_0
 10
797.58450792852432
 20
308.5289547475947
 30
0.0
 40
1.0000380000199991
 50
89.500710000004887
 51
270.49928400000641
  0
LINE
  5
18FED
  8
AM_0
 10
850.03325459928897
 20
267.60894474677627
 30
0.0
 11
809.03325459846917
 21
267.60894474677627
 31
0.0
  0
LINE
  5
18FEE
  8
AM_0
 10
850.03325459928897
 20
268.28893474678978
 30
0.0
 11
809.03325459846917
 21
268.28893474678978
 31
0.0
  0
LINE
  5
18FEF
  8
AM_0
 10
850.03325459928897
 20
269.63894474681689
 30
0.0
 11
809.03325459846917
 21
269.638944746817
 31
0.0
  0
LINE
  5
18FF0
  8
AM_0
 10
809.03325459846917
 20
260.0289847466243
 30
0.0
 11
809.03325459846917
 21
271.66902474685702
 31
0.0
  0
ARC
  5
18FF1
  8
AM_0
 10
796.36321792850003
 20
318.51894474779448
 30
0.0
 40
1.3300010000266
 50
89.999999999999986
 51
269.99999700000228
  0
ARC
  5
18FF2
  8
AM_0
 10
797.58450792852432
 20
318.52895474779473
 30
0.0
 40
1.0000380000199991
 50
89.500710000004887
 51
270.49928400000641
  0
ARC
  5
18FF3
  8
AM_0
 10
796.3032279284987
 20
328.52395474799459
 30
0.0
 40
1.2650050000252999
 50
89.999999999999986
 51
269.99999700000228
  0
ARC
  5
18FF4
  8
AM_0
 10
796.3032279284987
 20
338.53401474819469
 30
0.0
 40
1.2650050000252999
 50
90.000002999997605
 51
270.0
  0
ARC
  5
18FF5
  8
AM_0
 10
797.58450792852432
 20
328.52895474799482
 30
0.0
 40
1.0000380000199991
 50
89.500710000004887
 51
270.49928400000641
  0
ARC
  5
18FF6
  8
AM_0
 10
797.58450792852432
 20
338.5290147481947
 30
0.0
 40
1.0000380000199991
 50
89.500715999993588
 51
270.49928999999509
  0
LINE
  5
18FF7
  8
AM_0
 10
766.53325459761868
 20
366.89895474876221
 30
0.0
 11
795.03325459818893
 21
366.89895474876221
 31
0.0
  0
LINE
  5
18FF8
  8
AM_0
 10
765.53325459759901
 20
360.5289547486347
 30
0.0
 11
765.53325459759901
 21
365.89895474874203
 31
0.0
  0
ARC
  5
18FF9
  8
AM_0
 10
766.53325459761868
 20
360.5289547486347
 30
0.0
 40
1.00000000002
 50
180.0
 51
270.0
1001
GENIUS_GENOBJ-N-FIL_13
1002
{
1000
OWNER
1000
GEN
1002
}
1001
GENIUS_GENODEF_13
1002
{
1000
HIER
1070
     0
1002
}
1002
{
1000
MANEDIT
1070
     0
1002
}
1002
{
1000
NOSEL
1070
     0
1002
}
1002
{
1000
BEHIND
1070
     0
1002
}
1002
{
1000
OTHER
1070
     0
1002
}
1002
{
1000
REACTOR
1002
}
  0
ARC
  5
18FFA
  8
AM_0
 10
766.53325459761868
 20
365.89895474874203
 30
0.0
 40
1.00000000002
 50
89.999999999999986
 51
180.0
1001
GENIUS_GENOBJ-N-FIL_13
1002
{
1000
OWNER
1000
GEN
1002
}
1001
GENIUS_GENODEF_13
1002
{
1000
HIER
1070
     0
1002
}
1002
{
1000
MANEDIT
1070
     0
1002
}
1002
{
1000
NOSEL
1070
     0
1002
}
1002
{
1000
BEHIND
1070
     0
1002
}
1002
{
1000
OTHER
1070
     0
1002
}
1002
{
1000
REACTOR
1002
}
  0
ARC
  5
18FFB
  8
AM_0
 10
796.36321792850003
 20
348.53902474839481
 30
0.0
 40
1.3300010000266
 50
90.000002999997605
 51
270.0
  0
ARC
  5
18FFC
  8
AM_0
 10
797.58450792852432
 20
348.5290147483945
 30
0.0
 40
1.0000380000199991
 50
89.500715999993588
 51
270.49928999999509
  0
ARC
  5
18FFD
  8
AM_0
 10
797.58450792852432
 20
358.52895471799968
 30
0.0
 40
1.0000380000199991
 50
89.500715999993588
 51
270.49928999999509
  0
LINE
  5
19006
  8
AM_0
 10
881.03325459990879
 20
285.50933474713418
 30
0.0
 11
881.03325459990901
 21
328.5289547479947
 31
0.0
  0
LINE
  5
19007
  8
AM_0
 10
869.31322459967453
 20
285.17891474712758
 30
0.0
 11
868.77321459966367
 21
282.18892474706769
 31
0.0
  0
LINE
  5
19008
  8
AM_0
 10
875.03325459978896
 20
276.14856704909113
 30
0.0
 11
870.21324459969208
 21
276.02895474694469
 31
0.0
  0
LINE
  5
19009
  8
AM_0
 10
866.86324459962555
 20
275.25893474692919
 30
0.0
 11
853.53325459935877
 21
275.25893474692919
 31
0.0
  0
LINE
  5
1900A
  8
AM_0
 10
866.80324459962435
 20
280.54894474703502
 30
0.0
 11
853.53325459935877
 21
280.54894474703502
 31
0.0
  0
LINE
  5
1900B
  8
AM_0
 10
866.89324459962631
 20
271.8589447468612
 30
0.0
 11
853.53325459935877
 21
271.8589447468612
 31
0.0
  0
LINE
  5
1900C
  8
AM_0
 10
866.92324459962663
 20
270.2289347468286
 30
0.0
 11
853.42324459935662
 21
270.2289347468286
 31
0.0
  0
LINE
  5
1900D
  8
AM_0
 10
852.03325459932887
 20
271.63894474685679
 30
0.0
 11
852.03325459932887
 21
279.0489447470049
 31
0.0
  0
ARC
  5
1900E
  8
AM_0
 10
853.53502459935885
 20
273.75713474689923
 30
0.0
 40
1.501797900030035
 50
90.068549999998893
 51
179.93145000000101
  0
ARC
  5
1900F
  8
AM_0
 10
853.41960459935649
 20
268.7220747467984
 30
0.0
 40
1.5068883000301361
 50
89.862229999999485
 51
165.1230700000024
  0
ARC
  5
19010
  8
AM_0
 10
853.53707459935868
 20
270.3550947468313
 30
0.0
 40
1.5038475000300759
 50
90.146399999989924
 51
179.85360000000341
  0
ARC
  5
19011
  8
AM_0
 10
853.53890459935872
 20
279.04326474700503
 30
0.0
 40
1.505674500030113
 50
90.215519999992296
 51
179.78447000000099
  0
LINE
  5
19012
  8
AM_0
 10
871.24324459971342
 20
282.48894474707379
 30
0.0
 11
868.82323459966472
 21
282.48894474707379
 31
0.0
  0
ARC
  5
19013
  8
AM_0
 10
871.24202459971309
 20
280.98479474704379
 30
0.0
 40
1.504139800030081
 50
89.954250000005032
 51
167.5552499999952
  0
ARC
  5
19014
  8
AM_0
 10
866.81139459962458
 20
282.5423547470748
 30
0.0
 40
1.9934334000398679
 50
269.76588400000571
 51
349.78803000000022
  0
ARC
  5
19015
  8
AM_0
 10
871.22405459971264
 20
276.92614474696251
 30
0.0
 40
1.502808100030055
 50
90.03078999999498
 51
166.42217999999869
  0
ARC
  5
19016
  8
AM_0
 10
871.20494459971235
 20
274.90184474692222
 30
0.0
 40
1.5070969000301411
 50
90.064820000001674
 51
165.90218000000371
  0
LINE
  5
19017
  8
AM_0
 10
871.20324459971198
 20
276.40896474695239
 30
0.0
 11
869.55324459967926
 21
276.40896474695239
 31
0.0
  0
LINE
  5
19018
  8
AM_0
 10
871.22322459971258
 20
278.42894474699273
 30
0.0
 11
869.16323459967145
 21
278.42894474699273
 31
0.0
  0
ARC
  5
19019
  8
AM_0
 10
866.86156459962524
 20
277.25432474696908
 30
0.0
 40
1.9953895000399069
 50
270.04806699999131
 51
347.98461999999989
  0
ARC
  5
1901A
  8
AM_0
 10
866.90044459962633
 20
273.85442474690097
 30
0.0
 40
1.9954823000399089
 50
269.79345799999908
 51
346.80592000000257
  0
LINE
  5
1901B
  8
AM_0
 10
868.84322459966506
 20
273.39895474689212
 30
0.0
 11
869.76323459968353
 21
277.2789547469697
 31
0.0
  0
LINE
  5
1901C
  8
AM_0
 10
868.86321459966541
 20
271.73894474685881
 30
0.0
 11
869.74321459968291
 21
275.26894474692938
 31
0.0
  0
ARC
  5
1901D
  8
AM_0
 10
866.9259245996268
 20
272.22674474686858
 30
0.0
 40
1.9977812000399551
 50
269.92308099999781
 51
345.86776999999688
  0
LINE
  5
1901E
  8
AM_0
 10
868.8132245996643
 20
276.83895474696078
 30
0.0
 11
869.77324459968372
 21
281.30895474705028
 31
0.0
  0
LINE
  5
1901F
  8
AM_0
 10
875.03325459978896
 20
299.2189547474083
 30
0.0
 11
865.03325459958887
 21
299.2189547474083
 31
0.0
  0
LINE
  5
19020
  8
AM_0
 10
875.03325459978896
 20
290.83895474724062
 30
0.0
 11
865.03325459958887
 21
290.83895474724062
 31
0.0
  0
LINE
  5
19021
  8
AM_0
 10
875.03325459978896
 20
285.17894474712762
 30
0.0
 11
865.03325459958887
 21
285.17894474712762
 31
0.0
  0
ARC
  5
19022
  8
AM_0
 10
859.3532345994754
 20
298.48394474739371
 30
0.0
 40
1.6750063000334989
 50
270.00000299999761
 51
89.999999999999986
  0
ARC
  5
19023
  8
AM_0
 10
858.48323459945811
 20
298.52895474739461
 30
0.0
 40
1.0000032000200001
 50
270.00000299999761
 51
89.999999999999986
  0
LINE
  5
19024
  8
AM_0
 10
865.03325459958887
 20
285.17894474712762
 30
0.0
 11
865.03325459958887
 21
299.2189547474083
 31
0.0
  0
ARC
  5
19025
  8
AM_0
 10
865.41204459959624
 20
295.86089474734138
 30
0.0
 40
6.0039072001200786
 50
225.22369300001091
 51
266.38271400000212
  0
ARC
  5
19026
  8
AM_0
 10
865.86827459960546
 20
291.93117474726262
 30
0.0
 40
5.0078936001001573
 50
99.598719999994145
 51
174.52532000000039
  0
LINE
  5
19027
  8
AM_0
 10
852.03325459932887
 20
296.2889347473498
 30
0.0
 11
852.03325459932887
 21
296.35894474735119
 31
0.0
  0
ARC
  5
19028
  8
AM_0
 10
861.88332459952596
 20
292.3187847472704
 30
0.0
 40
1.004136700020082
 50
174.84883999999599
 51
225.7974360000018
  0
ARC
  5
19029
  8
AM_0
 10
859.57323459947975
 20
308.50393474759409
 30
0.0
 40
1.465000400029298
 50
270.00000299999761
 51
89.999999999999986
  0
ARC
  5
1902A
  8
AM_0
 10
858.48323459945823
 20
308.52895474759458
 30
0.0
 40
1.0000032000200001
 50
270.00000299999761
 51
89.999999999999986
  0
LINE
  5
1902B
  8
AM_0
 10
878.77324459986369
 20
287.02895474716462
 30
0.0
 11
876.03325459980886
 21
287.02895474716462
 31
0.0
  0
LINE
  5
1902C
  8
AM_0
 10
879.25325459987323
 20
287.14895474716701
 30
0.0
 11
880.49324459989816
 21
287.80892474718041
 31
0.0
  0
ARC
  5
1902D
  8
AM_0
 10
880.03426459988896
 20
287.67440474717762
 30
0.0
 40
0.99898326001998
 50
299.96535999999588
 51
359.68761000000097
  0
ARC
  5
1902E
  8
AM_0
 10
880.02825459988878
 20
288.69997474719821
 30
0.0
 40
1.0050608000201
 50
297.55880999999511
 51
359.37160000000102
  0
LINE
  5
1902F
  8
AM_0
 10
879.25325459987323
 20
286.02892474714457
 30
0.0
 11
880.53325459989856
 21
286.80892474716018
 31
0.0
  0
LINE
  5
19030
  8
AM_0
 10
879.03325459986888
 20
286.148954747147
 30
0.0
 11
879.03325459986888
 21
286.68895474715782
 31
0.0
  0
ARC
  5
19031
  8
AM_0
 10
878.73973459986303
 20
286.90004474716199
 30
0.0
 40
1.011208500020224
 50
270.76568699999262
 51
300.51881000001219
  0
ARC
  5
19032
  8
AM_0
 10
878.77495459986358
 20
288.042134747185
 30
0.0
 40
1.0131912000202621
 50
269.90372399999882
 51
298.1687600000007
  0
ARC
  5
19033
  8
AM_0
 10
880.02608459988858
 20
285.51912474713453
 30
0.0
 40
1.007194200020143
 50
300.23341999999798
 51
0.557679999999936
  0
LINE
  5
19034
  8
AM_0
 10
879.23323459987284
 20
285.04894474712501
 30
0.0
 11
880.47325459989747
 21
285.66893474713743
 31
0.0
  0
LINE
  5
19035
  8
AM_0
 10
879.25322459987319
 20
283.92894474710261
 30
0.0
 11
880.53322459989863
 21
284.64895474711722
 31
0.0
  0
LINE
  5
19036
  8
AM_0
 10
879.03325459986888
 20
284.048944747105
 30
0.0
 11
879.03325459986888
 21
284.56893474711541
 31
0.0
  0
ARC
  5
19037
  8
AM_0
 10
878.74236459986287
 20
284.79070474711989
 30
0.0
 40
1.001808000020036
 50
270.62281999999078
 51
300.66166999999638
  0
ARC
  5
19038
  8
AM_0
 10
878.75566459986339
 20
285.93337474714281
 30
0.0
 40
1.005138300020102
 50
272.14229099999102
 51
298.36793999999628
  0
ARC
  5
19039
  8
AM_0
 10
880.03020459988875
 20
286.56884474715531
 30
0.0
 40
1.0030519000200611
 50
296.21265000000881
 51
0.005769999997685
  0
LINE
  5
1903A
  8
AM_0
 10
878.75325459986311
 20
291.54894474725501
 30
0.0
 11
876.03325459980886
 21
291.54894474725501
 31
0.0
  0
ARC
  5
1903B
  8
AM_0
 10
880.03151459988874
 20
292.27157474726943
 30
0.0
 40
1.001733900020034
 50
302.73763000000417
 51
359.85046000000261
  0
LINE
  5
1903C
  8
AM_0
 10
879.27324459987369
 20
290.56893474723529
 30
0.0
 11
880.57326459989974
 21
291.42891474725258
 31
0.0
  0
LINE
  5
1903D
  8
AM_0
 10
879.03325459986888
 20
290.70894474723832
 30
0.0
 11
879.03325459986888
 21
291.18895474724792
 31
0.0
  0
LINE
  5
1903E
  8
AM_0
 10
879.25322459987319
 20
291.68895474725792
 30
0.0
 11
880.53322459989863
 21
292.42898474727269
 31
0.0
  0
ARC
  5
1903F
  8
AM_0
 10
878.72759459986275
 20
291.41924474725238
 30
0.0
 40
1.010318000020205
 50
270.32013999999481
 51
302.68858000000671
  0
ARC
  5
19040
  8
AM_0
 10
878.74099459986303
 20
292.55559474727522
 30
0.0
 40
1.0067360000201351
 50
270.69806099999852
 51
300.58643000000149
  0
ARC
  5
19041
  8
AM_0
 10
880.02770459988869
 20
293.29821474728988
 30
0.0
 40
1.00559290002011
 50
300.18133000000728
 51
359.47162000000122
  0
LINE
  5
19042
  8
AM_0
 10
878.75325459986311
 20
285.88894474714181
 30
0.0
 11
875.03325459978896
 21
285.88894474714181
 31
0.0
  0
ARC
  5
19043
  8
AM_0
 10
876.04030459980868
 20
288.03600474718468
 30
0.0
 40
1.0070832000201411
 50
180.40157798000081
 51
269.59842200000139
  0
LINE
  5
19044
  8
AM_0
 10
878.79323459986404
 20
284.92894474712261
 30
0.0
 11
875.53325459979874
 21
284.92894474712261
 31
0.0
  0
LINE
  5
19045
  8
AM_0
 10
878.75325459986311
 20
283.7889347470998
 30
0.0
 11
875.53325459979874
 21
283.7889347470998
 31
0.0
  0
LINE
  5
19046
  8
AM_0
 10
878.73323459986284
 20
290.40896474723218
 30
0.0
 11
875.03325459978896
 21
290.40896474723218
 31
0.0
  0
ARC
  5
19047
  8
AM_0
 10
876.03865459980909
 20
292.55434474727508
 30
0.0
 40
1.005422700020107
 50
180.30819238000211
 51
269.69181100000611
  0
LINE
  5
19048
  8
AM_0
 10
876.03325459980886
 20
309.52895474761459
 30
0.0
 11
880.03325459988866
 21
309.52895474761459
 31
0.0
  0
ARC
  5
19049
  8
AM_0
 10
880.04103459988914
 20
308.53676474759482
 30
0.0
 40
0.9922232600198446
 50
359.54915999999707
 51
90.450850000007364
  0
ARC
  5
1904A
  8
AM_0
 10
876.04113459980908
 20
310.5368247476348
 30
0.0
 40
1.007920400020158
 50
180.44848996000141
 51
269.55151199999528
  0
LINE
  5
1904B
  8
AM_0
 10
876.03325459980886
 20
307.52895474757457
 30
0.0
 11
880.03325459988866
 21
307.52895474757457
 31
0.0
  0
ARC
  5
1904C
  8
AM_0
 10
880.02880459988876
 20
301.152274747447
 30
0.0
 40
1.0044501000200889
 50
286.45034999999609
 51
359.80985000000021
  0
LINE
  5
1904D
  8
AM_0
 10
878.8732545998655
 20
299.78893474741989
 30
0.0
 11
876.03325459980886
 21
299.78893474741989
 31
0.0
  0
ARC
  5
1904E
  8
AM_0
 10
880.03371459988875
 20
299.37362474741138
 30
0.0
 40
0.999532700019991
 50
292.3150500000005
 51
359.73186999999979
  0
LINE
  5
1904F
  8
AM_0
 10
879.21324459987238
 20
297.92894474738262
 30
0.0
 11
880.41323459989655
 21
298.44893474739308
 31
0.0
  0
LINE
  5
19050
  8
AM_0
 10
879.03325459986888
 20
298.14895474738699
 30
0.0
 11
879.03325459986888
 21
299.20894474740822
 31
0.0
  0
ARC
  5
19051
  8
AM_0
 10
878.8905845998662
 20
300.8039447474402
 30
0.0
 40
1.015145100020302
 50
269.02161899999908
 51
286.16767000000561
  0
LINE
  5
19052
  8
AM_0
 10
879.1732445998714
 20
299.82894474742068
 30
0.0
 11
880.31325459989455
 21
300.1889247474279
 31
0.0
  0
ARC
  5
19053
  8
AM_0
 10
878.82000459986477
 20
298.85515474740117
 30
0.0
 40
1.006237100020124
 50
269.61524400000241
 51
293.00462000000022
  0
ARC
  5
19054
  8
AM_0
 10
876.02422459980835
 20
306.5379847475549
 30
0.0
 40
0.9910124500198204
 50
89.478000000004286
 51
180.5220023800002
  0
ARC
  5
19055
  8
AM_0
 10
876.03954459980901
 20
300.79525474743991
 30
0.0
 40
1.0063295000201249
 50
180.35925376000381
 51
269.640748000001
  0
LINE
  5
19056
  8
AM_0
 10
878.81325459986419
 20
297.84893474738101
 30
0.0
 11
875.73323459980259
 21
297.84893474738101
 31
0.0
  0
LINE
  5
19057
  8
AM_0
 10
879.03325459986888
 20
307.90896474758227
 30
0.0
 11
879.03325459986888
 21
309.26894474760928
 31
0.0
  0
ARC
  5
19058
  8
AM_0
 10
880.02416459988865
 20
308.53804474759488
 30
0.0
 40
1.0091312000201811
 50
270.51612600000101
 51
359.48387000000042
  0
LINE
  5
1905A
  8
AM_0
 10
883.52715459995875
 20
318.30709474779019
 30
0.0
 11
883.52715459995875
 21
348.75072474839908
 31
0.0
  0
LINE
  5
1905B
  8
AM_0
 10
882.53325459993869
 20
353.5289547484947
 30
0.0
 11
882.53325459993869
 21
313.52895474769468
 31
0.0
  0
ARC
  5
1905C
  8
AM_0
 10
868.70324459966207
 20
318.51894474779442
 30
0.0
 40
1.3300010000266
 50
270.00000299999761
 51
89.999999999999986
  0
ARC
  5
1905D
  8
AM_0
 10
867.4819545996379
 20
318.52895474779461
 30
0.0
 40
1.0000380000199991
 50
269.50071599999359
 51
90.499289999995057
  0
ARC
  5
1905E
  8
AM_0
 10
867.47322459963789
 20
338.52895474819462
 30
0.0
 40
1.0000124000199999
 50
270.00000299999761
 51
89.999999999999986
  0
ARC
  5
1905F
  8
AM_0
 10
868.76323459966375
 20
328.52395474799459
 30
0.0
 40
1.2650050000252999
 50
270.00000299999761
 51
89.999999999999986
  0
ARC
  5
19060
  8
AM_0
 10
867.4819545996379
 20
328.5289547479947
 30
0.0
 40
1.0000380000199991
 50
269.50071599999359
 51
90.499289999995057
  0
ARC
  5
19061
  8
AM_0
 10
868.7631145996636
 20
338.51894474819449
 30
0.0
 40
1.270038400025399
 50
269.55481099999332
 51
90.445190000005567
  0
ARC
  5
19062
  8
AM_0
 10
876.02422459980835
 20
326.53798474795491
 30
0.0
 40
0.9910124500198204
 50
89.478000000004286
 51
180.5220023800002
  0
LINE
  5
19063
  8
AM_0
 10
882.53325459993869
 20
313.5289247476947
 30
0.0
 11
881.03325459990901
 21
313.4089247476922
 31
0.0
  0
LINE
  5
19064
  8
AM_0
 10
883.52715459995875
 20
318.30712474779023
 30
0.0
 11
883.02715459994874
 21
315.53713474773468
 31
0.0
  0
LINE
  5
19065
  8
AM_0
 10
883.02715459994874
 20
315.53713474773468
 30
0.0
 11
882.52712459993882
 21
315.5771447477357
 31
0.0
  0
LINE
  5
19066
  8
AM_0
 10
876.03325459980886
 20
319.52895474781468
 30
0.0
 11
880.03325459988866
 21
319.52895474781468
 31
0.0
  0
ARC
  5
19067
  8
AM_0
 10
880.04103459988914
 20
318.53676474779479
 30
0.0
 40
0.9922232600198446
 50
359.54915999999707
 51
90.450850000007364
  0
LINE
  5
19068
  8
AM_0
 10
876.03325459980886
 20
317.52895474777461
 30
0.0
 11
880.03325459988866
 21
317.52895474777461
 31
0.0
  0
ARC
  5
19069
  8
AM_0
 10
880.02416459988865
 20
318.53804474779491
 30
0.0
 40
1.0091312000201811
 50
270.51612600000101
 51
359.48387000000042
  0
LINE
  5
1906A
  8
AM_0
 10
879.03325459986888
 20
317.92894474778268
 30
0.0
 11
879.03325459986888
 21
319.14895474780701
 31
0.0
  0
ARC
  5
1906B
  8
AM_0
 10
876.04113459980908
 20
320.53682474783483
 30
0.0
 40
1.007920400020158
 50
180.44848996000141
 51
269.55151199999528
  0
ARC
  5
1906C
  8
AM_0
 10
876.02422459980835
 20
316.53798474775488
 30
0.0
 40
0.9910124500198204
 50
89.478000000004286
 51
180.5220023800002
  0
LINE
  5
1906D
  8
AM_0
 10
876.03325459980886
 20
339.52895474821457
 30
0.0
 11
880.03325459988866
 21
339.52895474821457
 31
0.0
  0
LINE
  5
1906E
  8
AM_0
 10
876.03325459980886
 20
337.52895474817473
 30
0.0
 11
880.03325459988866
 21
337.52895474817473
 31
0.0
  0
ARC
  5
1906F
  8
AM_0
 10
880.02416459988865
 20
338.51986474819438
 30
0.0
 40
1.0091312000201811
 50
0.5161299999996111
 51
89.483870000000422
  0
LINE
  5
19070
  8
AM_0
 10
879.03325459986888
 20
339.12893474820658
 30
0.0
 11
879.03325459986888
 21
337.96895474818348
 31
0.0
  0
ARC
  5
19071
  8
AM_0
 10
876.02422459980835
 20
340.51992474823447
 30
0.0
 40
0.9910124500198204
 50
179.47800000000419
 51
270.52199999999573
  0
POINT
  5
19072
  8
AM_0
 10
883.52715459995875
 20
333.52895474809441
 30
0.0
  0
LINE
  5
19073
  8
AM_0
 10
876.03325459980886
 20
329.5289547480146
 30
0.0
 11
880.03325459988866
 21
329.5289547480146
 31
0.0
  0
LINE
  5
19074
  8
AM_0
 10
876.03325459980886
 20
327.52895474797469
 30
0.0
 11
880.03325459988866
 21
327.52895474797469
 31
0.0
  0
ARC
  5
19075
  8
AM_0
 10
880.02416459988865
 20
328.53804474799489
 30
0.0
 40
1.0091312000201811
 50
270.51612600000101
 51
359.48387000000042
  0
LINE
  5
19076
  8
AM_0
 10
879.03325459986888
 20
327.92894474798248
 30
0.0
 11
879.03325459986888
 21
329.0889547480059
 31
0.0
  0
ARC
  5
19077
  8
AM_0
 10
880.04103459988914
 20
328.53676474799488
 30
0.0
 40
0.9922232600198446
 50
359.54915999999707
 51
90.450850000007364
  0
ARC
  5
19078
  8
AM_0
 10
876.04113459980908
 20
330.53682474803492
 30
0.0
 40
1.007920400020158
 50
180.44848996000141
 51
269.55151199999528
  0
ARC
  5
19079
  8
AM_0
 10
880.04103459988914
 20
338.5211447481945
 30
0.0
 40
0.9922232600198446
 50
269.54915500000459
 51
0.4508500000008742
  0
ARC
  5
1907A
  8
AM_0
 10
876.04113459980908
 20
336.52105474815471
 30
0.0
 40
1.007920400020158
 50
90.448489999990585
 51
179.55151000000271
  0
ARC
  5
1907B
  8
AM_0
 10
867.47322459963789
 20
348.5289547483946
 30
0.0
 40
1.0000124000199999
 50
270.00000299999761
 51
89.999999999999986
  0
ARC
  5
1907C
  8
AM_0
 10
868.70110459966213
 20
348.53893474839469
 30
0.0
 40
1.3300232000265999
 50
269.6615320000073
 51
90.338480000010406
  0
LINE
  5
1907D
  8
AM_0
 10
873.03325459974872
 20
367.82894474878071
 30
0.0
 11
869.85323459968538
 21
367.82894474878071
 31
0.0
  0
ARC
  5
1907E
  8
AM_0
 10
867.4820445996379
 20
368.5289547487946
 30
0.0
 40
1.0000387000199991
 50
269.4956680000052
 51
90.504340000003268
  0
ARC
  5
1907F
  8
AM_0
 10
867.4820445996379
 20
358.52895474859457
 30
0.0
 40
1.0000387000199991
 50
269.4956680000052
 51
90.504340000003268
  0
ARC
  5
19080
  8
AM_0
 10
868.57054459965957
 20
358.54894474859509
 30
0.0
 40
1.460102600029201
 50
269.32100699999552
 51
90.679000000004308
  0
LINE
  5
19081
  8
AM_0
 10
882.53325459993869
 20
353.5289547484947
 30
0.0
 11
881.03325459990901
 21
353.6489547484972
 31
0.0
  0
LINE
  5
19082
  8
AM_0
 10
883.52715459995875
 20
348.75072474839908
 30
0.0
 11
883.02715459994874
 21
351.52074474845449
 31
0.0
  0
LINE
  5
19083
  8
AM_0
 10
883.02715459994874
 20
351.52074474845449
 30
0.0
 11
882.52715459993863
 21
351.48073474845359
 31
0.0
  0
LINE
  5
19084
  8
AM_0
 10
876.03325459980886
 20
347.52895474837459
 30
0.0
 11
880.03325459988866
 21
347.52895474837459
 31
0.0
  0
LINE
  5
19085
  8
AM_0
 10
876.03325459980886
 20
349.52895474841461
 30
0.0
 11
880.03325459988866
 21
349.52895474841461
 31
0.0
  0
ARC
  5
19086
  8
AM_0
 10
880.02416459988865
 20
348.51986474839441
 30
0.0
 40
1.0091312000201811
 50
0.5161299999996111
 51
89.483870000000422
  0
ARC
  5
19087
  8
AM_0
 10
880.04103459988914
 20
348.52114474839459
 30
0.0
 40
0.9922232600198446
 50
269.54915500000459
 51
0.4508500000008742
  0
LINE
  5
19088
  8
AM_0
 10
879.03325459986888
 20
349.12893474840661
 30
0.0
 11
879.03325459986888
 21
347.90896474838218
 31
0.0
  0
ARC
  5
19089
  8
AM_0
 10
876.02422459980835
 20
350.51992474843451
 30
0.0
 40
0.9910124500198204
 50
179.47800000000419
 51
270.52199999999573
  0
ARC
  5
1908A
  8
AM_0
 10
876.04113459980908
 20
346.52105474835457
 30
0.0
 40
1.007920400020158
 50
90.448489999990585
 51
179.55151000000271
  0
ARC
  5
1908B
  8
AM_0
 10
878.82000459986477
 20
368.20272474878823
 30
0.0
 40
1.006237100020124
 50
66.995379999999813
 51
90.384760000002103
  0
LINE
  5
1908C
  8
AM_0
 10
878.87325459986573
 20
367.2689447487694
 30
0.0
 11
876.03325459980886
 21
367.2689447487694
 31
0.0
  0
ARC
  5
1908D
  8
AM_0
 10
880.03371459988909
 20
367.68425474877768
 30
0.0
 40
0.999532700019991
 50
0.2681300000001557
 51
67.684949999999489
  0
LINE
  5
1908E
  8
AM_0
 10
879.17327459987177
 20
367.22893474876838
 30
0.0
 11
880.31325459989466
 21
366.8689247487614
 31
0.0
  0
ARC
  5
1908F
  8
AM_0
 10
878.8905845998662
 20
366.25396474874918
 30
0.0
 40
1.015145100020302
 50
73.832329999994457
 51
90.978379999990494
  0
LINE
  5
19090
  8
AM_0
 10
879.21324459987238
 20
369.12893474880661
 30
0.0
 11
880.41323459989667
 21
368.60894474879632
 31
0.0
  0
LINE
  5
19091
  8
AM_0
 10
879.03325459986888
 20
368.90896474880219
 30
0.0
 11
879.03325459986888
 21
367.84893474878112
 31
0.0
  0
ARC
  5
19092
  8
AM_0
 10
875.72881459980294
 20
369.90450474882221
 30
0.0
 40
0.6955789300139117
 50
179.63466000000051
 51
270.3653360000103
  0
LINE
  5
19093
  8
AM_0
 10
878.81325459986419
 20
369.20894474880822
 30
0.0
 11
875.73323459980304
 21
369.20894474880822
 31
0.0
  0
LINE
  5
19094
  8
AM_0
 10
876.03325459980886
 20
359.52895474861458
 30
0.0
 11
880.03325459988866
 21
359.52895474861458
 31
0.0
  0
ARC
  5
19095
  8
AM_0
 10
880.02416459988865
 20
358.5198647485945
 30
0.0
 40
1.0091312000201811
 50
0.5161299999996111
 51
89.483870000000422
  0
LINE
  5
19096
  8
AM_0
 10
876.03325459980886
 20
357.52895474857479
 30
0.0
 11
880.03325459988866
 21
357.52895474857479
 31
0.0
  0
ARC
  5
19097
  8
AM_0
 10
880.04103459988914
 20
358.52114474859439
 30
0.0
 40
0.9922232600198446
 50
269.54915500000459
 51
0.4508500000008742
  0
LINE
  5
19098
  8
AM_0
 10
879.03325459986888
 20
359.14895474860708
 30
0.0
 11
879.03325459986888
 21
357.78893474857978
 31
0.0
  0
ARC
  5
19099
  8
AM_0
 10
876.02422459980835
 20
360.51992474863471
 30
0.0
 40
0.9910124500198204
 50
179.47800000000419
 51
270.52199999999573
  0
ARC
  5
1909A
  8
AM_0
 10
876.04113459980908
 20
356.52105474855472
 30
0.0
 40
1.007920400020158
 50
90.448489999990585
 51
179.55151000000271
  0
ARC
  5
1909B
  8
AM_0
 10
880.02880459988876
 20
365.90560474874218
 30
0.0
 40
1.0044501000200889
 50
0.1901499999997002
 51
73.549650000003865
  0
ARC
  5
1909C
  8
AM_0
 10
876.03954459980923
 20
366.26262474874932
 30
0.0
 40
1.0063295000201249
 50
90.359249999995924
 51
179.640750000004
  0
ARC
  5
1909E
  8
AM_0
 10
850.02574459928883
 20
396.76145474935942
 30
0.0
 40
2.007501100040149
 50
0.2137000000042958
 51
89.78631000000108
  0
ARC
  5
1909F
  8
AM_0
 10
850.02809459928915
 20
395.4037847493322
 30
0.0
 40
2.0051613000401018
 50
0.147289999999717
 51
89.852710000006766
  0
ARC
  5
190A0
  8
AM_0
 10
850.02532459928875
 20
397.43326474937271
 30
0.0
 40
1.995694300039913
 50
14.97487999999842
 51
89.772649999998436
  0
ARC
  5
190A1
  8
AM_0
 10
850.0239145992889
 20
393.37961474929159
 30
0.0
 40
2.0093489000401861
 50
0.2659600000002775
 51
89.734039999999638
  0
LINE
  5
190A2
  8
AM_0
 10
829.03325459886901
 20
379.86895474902161
 30
0.0
 11
865.03325459958887
 21
378.21621446715881
 31
0.0
  0
LINE
  5
190A3
  8
AM_0
 10
868.36324459965556
 20
370.25893474882929
 30
0.0
 11
795.03325459818893
 21
370.25893474882929
 31
0.0
  0
ARC
  5
190B8
  8
0
 10
663.0332812368265
 20
415.52862571595301
 30
0.0
 40
16.999999999999709
 50
23.198554934550121
 51
90.0
  0
ARC
  5
190B9
  8
0
 10
675.64962374213064
 20
401.32201099643419
 30
0.0
 40
5.0
 50
23.198554934550121
 51
131.60703510513599
1001
GENIUS_GENOBJ-N-FIL_13
1002
{
1000
OWNER
1000
GEN
1002
}
1001
GENIUS_GENODEF_13
1002
{
1000
HIER
1070
     0
1002
}
1002
{
1000
MANEDIT
1070
     0
1002
}
1002
{
1000
NOSEL
1070
     0
1002
}
1002
{
1000
BEHIND
1070
     0
1002
}
1002
{
1000
OTHER
1070
     0
1002
}
1002
{
1000
REACTOR
1002
}
  0
LINE
  5
190BA
  8
ﾁｭｳｼﾝｾﾝ1
 10
678.03328123682627
 20
415.5286257159525
 30
0.0
 11
648.03328123682627
 21
415.5286257159525
 31
0.0
  0
CIRCLE
  5
190BB
  8
0
 10
678.03325418101417
 20
380.52862767260359
 30
0.0
 40
5.0
  0
CIRCLE
  5
190BC
  8
ｷｲﾛ
 10
678.03325418101417
 20
380.52862767260359
 30
0.0
 40
6.0
  0
LINE
  5
190BD
  8
0
  6
CONTINUOUS
 62
     7
 10
679.03325463254885
 20
389.52862571595261
 30
0.0
 11
641.27592192394559
 21
389.52862571595261
 31
0.0
  0
ARC
  5
190BF
  8
0
 10
582.31704759132481
 20
384.52862571595261
 30
0.0
 40
5.0
 50
10.806922874860341
 51
90.0
1001
GENIUS_GENOBJ-N-FIL_13
1002
{
1000
OWNER
1000
GEN
1002
}
1001
GENIUS_GENODEF_13
1002
{
1000
HIER
1070
     0
1002
}
1002
{
1000
MANEDIT
1070
     0
1002
}
1002
{
1000
NOSEL
1070
     0
1002
}
1002
{
1000
BEHIND
1070
     0
1002
}
1002
{
1000
OTHER
1070
     0
1002
}
1002
{
1000
REACTOR
1002
}
  0
LINE
  5
190C0
  8
0
 10
518.03325237487479
 20
432.5286257159529
 30
0.0
 11
663.03328123682661
 21
432.52862571595261
 31
0.0
  0
LINE
  5
190C1
  8
0
 10
536.06100875219499
 20
426.52862571595199
 30
0.0
 11
645.00552485950607
 21
426.52862571595199
 31
0.0
  0
ARC
  5
190C2
  8
0
 10
518.03325237487479
 20
415.52862571595301
 30
0.0
 40
16.999999999999709
 50
90.0
 51
156.80144506544991
  0
LINE
  5
190C3
  8
0
 10
531.40179459763669
 20
406.4027241803106
 30
0.0
 11
546.15457271843502
 21
391.6499460595121
 31
0.0
  0
LINE
  5
190C4
  8
0
 10
527.15915391051692
 20
402.16008349319111
 30
0.0
 11
541.91193203131547
 21
387.40730537239301
 31
0.0
  0
ARC
  5
190C5
  8
0
 10
518.03325237487479
 20
415.52862571595301
 30
0.0
 40
14.0
 50
228.39296489486389
 51
18.408480170583069
  0
ARC
  5
190C6
  8
0
 10
519.55599154623246
 20
384.52862571595261
 30
0.0
 40
5.0
 50
90.0
 51
193.60895384571469
1001
GENIUS_GENOBJ-N-FIL_13
1002
{
1000
OWNER
1000
GEN
1002
}
1001
GENIUS_GENODEF_13
1002
{
1000
HIER
1070
     0
1002
}
1002
{
1000
MANEDIT
1070
     0
1002
}
1002
{
1000
NOSEL
1070
     0
1002
}
1002
{
1000
BEHIND
1070
     0
1002
}
1002
{
1000
OTHER
1070
     0
1002
}
1002
{
1000
REACTOR
1002
}
  0
LINE
  5
190C7
  8
0
  6
CONTINUOUS
 62
     7
 10
539.79061168775615
 20
389.52862571595261
 30
0.0
 11
502.03327897915221
 21
389.52862571595261
 31
0.0
  0
CIRCLE
  5
190C8
  8
0
 10
503.03327943068672
 20
380.5286276726045
 30
0.0
 40
5.0
  0
CIRCLE
  5
190C9
  8
ｷｲﾛ
 10
503.03327943068672
 20
380.5286276726045
 30
0.0
 40
6.0
  0
CIRCLE
  5
190CB
  8
0
 10
518.03325237487479
 20
415.52862571595301
 30
0.0
 40
7.0
  0
CIRCLE
  5
190CC
  8
0
 10
518.03325237487479
 20
415.52862571595301
 30
0.0
 40
7.0
  0
ARC
  5
190CD
  8
0
 10
505.4169098695703
 20
401.32201099643419
 30
0.0
 40
5.0
 50
48.392964894863901
 51
156.80144506544991
1001
GENIUS_GENOBJ-N-FIL_13
1002
{
1000
OWNER
1000
GEN
1002
}
1001
GENIUS_GENODEF_13
1002
{
1000
HIER
1070
     0
1002
}
1002
{
1000
MANEDIT
1070
     0
1002
}
1002
{
1000
NOSEL
1070
     0
1002
}
1002
{
1000
BEHIND
1070
     0
1002
}
1002
{
1000
OTHER
1070
     0
1002
}
1002
{
1000
REACTOR
1002
}
  0
ARC
  5
190CF
  8
0
 10
525.03783356695715
 20
400.03876314963162
 30
0.0
 40
3.0
 50
44.999999999995389
 51
114.3326835064841
1001
GENIUS_GENODEF_13
1002
{
1000
HIER
1070
     0
1002
}
1002
{
1000
MANEDIT
1070
     0
1002
}
1002
{
1000
NOSEL
1070
     0
1002
}
1002
{
1000
BEHIND
1070
     0
1002
}
1002
{
1000
OTHER
1070
     0
1002
}
1002
{
1000
REACTOR
1002
}
1001
GENIUS_GENOBJ-N-FIL_13
1002
{
1000
OWNER
1000
GEN
1002
}
  0
ARC
  5
190D0
  8
0
 10
533.5231149411959
 20
408.52404452387032
 30
0.0
 40
3.0
 50
155.6673164935078
 51
224.9999999999954
1001
GENIUS_GENOBJ-N-FIL_13
1002
{
1000
OWNER
1000
GEN
1002
}
1001
GENIUS_GENODEF_13
1002
{
1000
HIER
1070
     0
1002
}
1002
{
1000
MANEDIT
1070
     0
1002
}
1002
{
1000
NOSEL
1070
     0
1002
}
1002
{
1000
BEHIND
1070
     0
1002
}
1002
{
1000
OTHER
1070
     0
1002
}
1002
{
1000
REACTOR
1002
}
  0
ARC
  5
190D1
  8
0
 10
536.06100875219499
 20
421.52862571595261
 30
0.0
 40
5.0
 50
90.0
 51
198.408480170583
1001
GENIUS_GENOBJ-N-FIL_13
1002
{
1000
OWNER
1000
GEN
1002
}
1001
GENIUS_GENODEF_13
1002
{
1000
HIER
1070
     0
1002
}
1002
{
1000
MANEDIT
1070
     0
1002
}
1002
{
1000
NOSEL
1070
     0
1002
}
1002
{
1000
BEHIND
1070
     0
1002
}
1002
{
1000
OTHER
1070
     0
1002
}
1002
{
1000
REACTOR
1002
}
  0
LINE
  5
190D2
  8
0
  6
CONTINUOUS
 62
     7
 10
582.31704759132504
 20
389.52862571595261
 30
0.0
 11
547.03325237487525
 21
389.52862571595261
 31
0.0
  0
ARC
  5
190D3
  8
0
 10
544.03325237487513
 20
389.52862571595261
 30
0.0
 40
3.0000000000000631
 50
224.9999999999954
 51
44.999999999995389
  0
LINE
  5
190D4
  8
0
  6
CONTINUOUS
 62
     7
 10
634.03328123682604
 20
389.52862571595261
 30
0.0
 11
613.74951488232819
 21
389.52862571595261
 31
0.0
  0
ARC
  5
190D5
  8
0
 10
598.03328123682627
 20
387.52862571595261
 30
0.0
 40
11.0
 50
270.0
 51
349.19307712513972
  0
ARC
  5
190D6
  8
0
 10
598.03328123682627
 20
387.52862571595261
 30
0.0
 40
11.0
 50
190.80692287486031
 51
270.0
  0
CIRCLE
  5
190D7
  8
AM_0
 10
598.03328123682627
 20
387.52862571595313
 30
0.0
 40
8.5
  0
CIRCLE
  5
190D8
  8
AM_0
 10
598.03328123682627
 20
387.52862571595313
 30
0.0
 40
6.5
  0
POLYLINE
  5
190D9
  8
AM_0
 66
     1
 10
0.0
 20
0.0
 30
0.0
 70
     1
  0
VERTEX
  5
190DA
  8
AM_0
 10
596.30123042925754
 20
390.52862571595261
 30
0.0
  0
VERTEX
  5
190DB
  8
AM_0
 10
594.56917962168882
 20
387.52862571595261
 30
0.0
  0
VERTEX
  5
190DC
  8
AM_0
 10
596.30123042925754
 20
384.52862571595261
 30
0.0
  0
VERTEX
  5
190DD
  8
AM_0
 10
599.76533204439511
 20
384.52862571595261
 30
0.0
  0
VERTEX
  5
190DE
  8
AM_0
 10
601.49738285196429
 20
387.52862571595261
 30
0.0
  0
VERTEX
  5
190DF
  8
AM_0
 10
599.76533204439511
 20
390.52862571595261
 30
0.0
  0
SEQEND
  5
190E0
  8
AM_0
  0
ARC
  5
190E1
  8
0
 10
613.74951488232819
 20
384.52862571595261
 30
0.0
 40
5.0
 50
90.000000000001606
 51
169.19307712513961
1001
GENIUS_GENOBJ-N-FIL_13
1002
{
1000
OWNER
1000
GEN
1002
}
1001
GENIUS_GENODEF_13
1002
{
1000
HIER
1070
     0
1002
}
1002
{
1000
MANEDIT
1070
     0
1002
}
1002
{
1000
NOSEL
1070
     0
1002
}
1002
{
1000
BEHIND
1070
     0
1002
}
1002
{
1000
OTHER
1070
     0
1002
}
1002
{
1000
REACTOR
1002
}
  0
LINE
  5
190E2
  8
0
 10
649.66473901406505
 20
406.4027241803106
 30
0.0
 11
634.9119608932665
 21
391.6499460595121
 31
0.0
  0
LINE
  5
190E3
  8
0
 10
653.90737970118425
 20
402.16008349319111
 30
0.0
 11
639.15460158038559
 21
387.40730537239301
 31
0.0
  0
ARC
  5
190E4
  8
0
 10
663.0332812368265
 20
415.52862571595301
 30
0.0
 40
14.0
 50
161.59151982941691
 51
311.60703510513611
  0
ARC
  5
190E5
  8
0
 10
637.03328123682604
 20
389.52862571595261
 30
0.0
 40
3.0000000000000631
 50
135.0000000000046
 51
315.0000000000046
  0
ARC
  5
190E6
  8
0
 10
661.51054206546848
 20
384.52862571595261
 30
0.0
 40
5.0
 50
346.39104615428528
 51
90.0
1001
GENIUS_GENODEF_13
1002
{
1000
HIER
1070
     0
1002
}
1002
{
1000
MANEDIT
1070
     0
1002
}
1002
{
1000
NOSEL
1070
     0
1002
}
1002
{
1000
BEHIND
1070
     0
1002
}
1002
{
1000
OTHER
1070
     0
1002
}
1002
{
1000
REACTOR
1002
}
1001
GENIUS_GENOBJ-N-FIL_13
1002
{
1000
OWNER
1000
GEN
1002
}
  0
ARC
  5
190E7
  8
0
 10
645.00552485950607
 20
421.52862571595261
 30
0.0
 40
5.0
 50
341.59151982941722
 51
90.0
1001
GENIUS_GENOBJ-N-FIL_13
1002
{
1000
OWNER
1000
GEN
1002
}
1001
GENIUS_GENODEF_13
1002
{
1000
HIER
1070
     0
1002
}
1002
{
1000
MANEDIT
1070
     0
1002
}
1002
{
1000
NOSEL
1070
     0
1002
}
1002
{
1000
BEHIND
1070
     0
1002
}
1002
{
1000
OTHER
1070
     0
1002
}
1002
{
1000
REACTOR
1002
}
  0
ARC
  5
190E8
  8
0
 10
647.54341867050505
 20
408.52404452387032
 30
0.0
 40
3.0
 50
315.0000000000046
 51
24.332683506492181
1001
GENIUS_GENOBJ-N-FIL_13
1002
{
1000
OWNER
1000
GEN
1002
}
1001
GENIUS_GENODEF_13
1002
{
1000
HIER
1070
     0
1002
}
1002
{
1000
MANEDIT
1070
     0
1002
}
1002
{
1000
NOSEL
1070
     0
1002
}
1002
{
1000
BEHIND
1070
     0
1002
}
1002
{
1000
OTHER
1070
     0
1002
}
1002
{
1000
REACTOR
1002
}
  0
LINE
  5
190E9
  8
ﾁｭｳｼﾝｾﾝ1
 10
663.0332812368265
 20
400.52862571595227
 30
0.0
 11
663.0332812368265
 21
430.5286257159525
 31
0.0
  0
CIRCLE
  5
190EA
  8
0
 10
663.0332812368265
 20
415.52862571595301
 30
0.0
 40
7.0
  0
ARC
  5
190EB
  8
0
 10
656.02870004474369
 20
400.03876314963162
 30
0.0
 40
3.0
 50
65.667316493515841
 51
135.0000000000046
1001
GENIUS_GENODEF_13
1002
{
1000
HIER
1070
     0
1002
}
1002
{
1000
MANEDIT
1070
     0
1002
}
1002
{
1000
NOSEL
1070
     0
1002
}
1002
{
1000
BEHIND
1070
     0
1002
}
1002
{
1000
OTHER
1070
     0
1002
}
1002
{
1000
REACTOR
1002
}
1001
GENIUS_GENOBJ-N-FIL_13
1002
{
1000
OWNER
1000
GEN
1002
}
  0
LINE
  5
190F0
  8
AM_0
 10
795.03325459818893
 20
370.25893474882929
 30
0.0
 11
735.21324459699224
 21
370.25893474882929
 31
0.0
  0
LINE
  5
190F1
  8
AM_0
 10
795.03325459818893
 20
395.38894474933193
 30
0.0
 11
735.21324459699224
 21
395.38894474933193
 31
0.0
  0
LINE
  5
190F2
  8
AM_0
 10
850.03325459928919
 20
397.40894474937232
 30
0.0
 11
735.23348422661343
 21
397.40894474937232
 31
0.0
  0
LINE
  5
190F3
  8
AM_0
 10
850.03325459928919
 20
398.76894474939951
 30
0.0
 11
735.23348422142465
 21
398.76894474939951
 31
0.0
  0
LINE
  5
190F4
  8
AM_0
 10
850.03325459928919
 20
399.42894474941272
 30
0.0
 11
735.23348421892229
 21
399.42894474941249
 31
0.0
  0
LINE
  5
190F5
  8
AM_0
 10
829.03325459886901
 20
379.86895474902161
 30
0.0
 11
735.21324459699224
 21
379.86895474902161
 31
0.0
  0
LINE
  5
190F6
  8
AM_0
 10
720.03325459668883
 20
397.52897625404518
 30
0.0
 11
710.90665176891071
 21
397.52897625404518
 31
0.0
  0
LINE
  5
190F7
  8
AM_0
 10
720.03325459668883
 20
370.66896625350802
 30
0.0
 11
710.03325459648875
 21
370.66896625350802
 31
0.0
  0
LINE
  5
190F8
  8
AM_0
 10
720.03325459668883
 20
385.568976253806
 30
0.0
 11
710.03325459648875
 21
385.568976253806
 31
0.0
  0
LINE
  5
190F9
  8
0
 10
680.24535011528565
 20
403.29160463551102
 30
0.0
 11
688.14385261698044
 21
384.86173385644071
 31
0.0
  0
LINE
  5
190FA
  8
0
 10
678.65875090555176
 20
422.22524408881418
 30
0.0
 11
693.65872426476574
 21
387.2252462233335
 31
0.0
  0
LINE
  5
190FB
  8
AM_0
 10
690.10013915686295
 20
395.52862571595261
 30
0.0
 11
705.61475170046219
 21
395.52862571595261
 31
0.0
  0
ARC
  5
190FC
  8
AM_0
 10
678.03325418101417
 20
380.52862767260399
 30
0.0
 40
17.000000451534831
 50
0.0
 51
23.198554934550121
  0
ARC
  5
190FD
  8
AM_0
 10
678.03325418101417
 20
380.52862767260399
 30
0.0
 40
11.000000451534831
 50
0.0
 51
23.198554934550121
  0
ARC
  5
190FE
  8
0
 10
679.03325463254885
 20
379.52862571595261
 30
0.0
 40
10.0
 50
0.0
 51
90.0
1001
GENIUS_GENOBJ-N-FIL_13
1002
{
1000
OWNER
1000
GEN
1002
}
1001
GENIUS_GENODEF_13
1002
{
1000
HIER
1070
     0
1002
}
1002
{
1000
MANEDIT
1070
     0
1002
}
1002
{
1000
NOSEL
1070
     0
1002
}
1002
{
1000
BEHIND
1070
     0
1002
}
1002
{
1000
OTHER
1070
     0
1002
}
1002
{
1000
REACTOR
1002
}
  0
ARC
  5
190FF
  8
AM_0
 10
705.61475170046219
 20
400.52862571595261
 30
0.0
 40
5.0
 50
270.0
 51
311.41341755255212
1001
GENIUS_GENOBJ-N-FIL_13
1002
{
1000
OWNER
1000
GEN
1002
}
1001
GENIUS_GENODEF_13
1002
{
1000
HIER
1070
     0
1002
}
1002
{
1000
MANEDIT
1070
     0
1002
}
1002
{
1000
NOSEL
1070
     0
1002
}
1002
{
1000
BEHIND
1070
     0
1002
}
1002
{
1000
OTHER
1070
     0
1002
}
1002
{
1000
REACTOR
1002
}
  0
ARC
  5
19100
  8
AM_0
 10
710.90665176891071
 20
394.52897625398521
 30
0.0
 40
3.000000000059996
 50
90.0
 51
131.41341755255209
1001
GENIUS_GENOBJ-N-FIL_13
1002
{
1000
OWNER
1000
GEN
1002
}
1001
GENIUS_GENODEF_13
1002
{
1000
HIER
1070
     0
1002
}
1002
{
1000
MANEDIT
1070
     0
1002
}
1002
{
1000
NOSEL
1070
     0
1002
}
1002
{
1000
BEHIND
1070
     0
1002
}
1002
{
1000
OTHER
1070
     0
1002
}
1002
{
1000
REACTOR
1002
}
  0
ARC
  5
19101
  8
AM_0
 10
735.22289459668889
 20
396.75195474809448
 30
0.0
 40
2.0170177999999992
 50
90.273699999996154
 51
165.14839999999819
  0
ARC
  5
19102
  8
AM_0
 10
735.22289459668889
 20
397.4119547480945
 30
0.0
 40
2.0170177999999992
 50
90.273699999996154
 51
165.14839999999819
  0
ARC
  5
19103
  8
AM_0
 10
728.69204303437834
 20
386.5489447480947
 30
0.0
 40
2.0
 50
279.8230490397213
 51
344.98570240157858
1001
GENIUS_GENOBJ-N-FIL_13
1002
{
1000
OWNER
1000
GEN
1002
}
1001
GENIUS_GENODEF_13
1002
{
1000
HIER
1070
     0
1002
}
1002
{
1000
MANEDIT
1070
     0
1002
}
1002
{
1000
NOSEL
1070
     0
1002
}
1002
{
1000
BEHIND
1070
     0
1002
}
1002
{
1000
OTHER
1070
     0
1002
}
1002
{
1000
REACTOR
1002
}
  0
LINE
  5
19104
  8
AM_0
 10
733.27324459695365
 20
393.88895474930212
 30
0.0
 11
730.53743459689895
 21
383.68895474909789
 31
0.0
  0
LINE
  5
19105
  8
AM_0
 10
730.03325459688892
 20
383.98894474910378
 30
0.0
 11
729.03325459686903
 21
383.98894474910378
 31
0.0
  0
LINE
  5
19106
  8
AM_0
 10
730.03325459688892
 20
376.38894474895187
 30
0.0
 11
729.03325459686903
 21
376.38894474895187
 31
0.0
  0
LINE
  5
19107
  8
AM_0
 10
729.03325459686903
 20
379.41158474901232
 30
0.0
 11
730.03325459688892
 21
379.98891474902388
 31
0.0
  0
LINE
  5
19108
  8
AM_0
 10
735.21324459699224
 20
370.25893474882929
 30
0.0
 11
729.03325479860928
 21
370.25893474882929
 31
0.0
  0
ARC
  5
19109
  8
AM_0
 10
728.37239459685566
 20
381.35573474905118
 30
0.0
 40
1.4868059000297349
 50
296.38977999999901
 51
345.71726000000092
  0
LINE
  5
1910A
  8
AM_0
 10
729.03325459686903
 20
380.41158474903227
 30
0.0
 11
730.03325459688892
 21
380.98894474904392
 31
0.0
  0
LINE
  5
1910B
  8
AM_0
 10
729.03325459686903
 20
376.38894474895187
 30
0.0
 11
729.03325459686903
 21
383.98894474910378
 31
0.0
  0
LINE
  5
1910C
  8
0
  6
CONTINUOUS
 62
     7
 10
728.03325459668883
 20
370.66893451318202
 30
0.0
 11
720.03325459668883
 21
370.66893451318202
 31
0.0
  0
LINE
  5
1910D
  8
AM_0
 10
730.03325459688892
 20
383.68894474909791
 30
0.0
 11
730.93325459690675
 21
383.68894474909791
 31
0.0
  0
ARC
  5
1910E
  8
AM_0
 10
730.93325459690675
 20
381.98894474906388
 30
0.0
 40
1.700000800033999
 50
0.0000100000009905
 51
89.999979999997976
  0
LINE
  5
1910F
  8
AM_0
 10
735.21324459699224
 20
379.86895474902161
 30
0.0
 11
732.63323459694072
 21
379.86895474902161
 31
0.0
  0
LINE
  5
19110
  8
AM_0
 10
730.03325459688892
 20
376.688954748958
 30
0.0
 11
730.93325459690675
 21
376.688954748958
 31
0.0
  0
ARC
  5
19111
  8
AM_0
 10
730.93325459690675
 20
378.388944748992
 30
0.0
 40
1.6999969000339989
 50
270.00000299999761
 51
359.99998000000448
  0
LINE
  5
19112
  8
AM_0
 10
732.63323459694072
 20
378.388944748992
 30
0.0
 11
732.63323459694072
 21
381.98894474906388
 31
0.0
  0
LINE
  5
19113
  8
AM_0
 10
730.03325459688892
 20
376.38894474895187
 30
0.0
 11
730.03325459688892
 21
383.98894474910378
 31
0.0
  0
ARC
  5
19114
  8
AM_0
 10
728.02416459684866
 20
396.51986474935472
 30
0.0
 40
1.0091312000201811
 50
0.5161299999996111
 51
89.483870000000422
  0
ARC
  5
19115
  8
AM_0
 10
728.02483459684868
 20
384.56054474911531
 30
0.0
 40
1.0084445000201681
 50
9.5460700000028318
 51
89.522200000000396
  0
LINE
  5
19116
  8
AM_0
 10
730.76809824785573
 20
384.5489447480943
 30
0.0
 11
729.03325482807941
 21
384.5489447480947
 31
0.0
  0
LINE
  5
19117
  8
AM_0
 10
732.22719691452244
 20
394.02894474809449
 30
0.0
 11
729.03325484774916
 21
394.02894474809449
 31
0.0
  0
LINE
  5
19118
  8
0
  6
CONTINUOUS
 62
     7
 10
728.03325459668883
 20
397.52894451318213
 30
0.0
 11
720.03325459668883
 21
397.52894451318213
 31
0.0
  0
LINE
  5
19119
  8
0
  6
CONTINUOUS
 62
     7
 10
728.03325459668883
 20
385.56894451318232
 30
0.0
 11
720.03325459668883
 21
385.56894451318232
 31
0.0
  0
ARC
  5
1911A
  8
AM_0
 10
735.22289459668889
 20
395.39195474809441
 30
0.0
 40
2.0170177999999992
 50
90.273699999996154
 51
165.14839999999819
  0
ARC
  5
1911B
  8
AM_0
 10
735.22289459699266
 20
393.37195474929172
 30
0.0
 40
2.0170178000403398
 50
90.273699999996154
 51
165.14839999999819
  0
LINE
  5
1911C
  8
AM_0
 10
733.27324459668898
 20
397.92895474809433
 30
0.0
 11
731.71809213748031
 21
392.13083459942601
 31
0.0
  0
LINE
  5
1911D
  8
AM_0
 10
731.49765026335547
 20
390.64895474809452
 30
0.0
 11
729.78636971654521
 21
390.64895474809452
 31
0.0
  0
LINE
  5
1911E
  8
AM_0
 10
731.31526024785569
 20
388.60894474809447
 30
0.0
 11
729.41622803437826
 21
388.60894474809447
 31
0.0
  0
LINE
  5
1911F
  8
AM_0
 10
733.27324459668898
 20
395.90895474809429
 30
0.0
 11
730.62376545531345
 21
386.0308245994259
 31
0.0
  0
LINE
  5
19120
  8
AM_0
 10
733.27324459668898
 20
397.26895474809442
 30
0.0
 11
731.34795045531359
 21
390.0908245994259
 31
0.0
  0
ARC
  5
19121
  8
AM_0
 10
729.41622803437826
 20
390.6089447480943
 30
0.0
 40
2.0
 50
270.0
 51
344.98570240157858
1001
GENIUS_GENODEF_13
1002
{
1000
HIER
1070
     0
1002
}
1002
{
1000
MANEDIT
1070
     0
1002
}
1002
{
1000
NOSEL
1070
     0
1002
}
1002
{
1000
BEHIND
1070
     0
1002
}
1002
{
1000
OTHER
1070
     0
1002
}
1002
{
1000
REACTOR
1002
}
1001
GENIUS_GENOBJ-N-FIL_13
1002
{
1000
OWNER
1000
GEN
1002
}
  0
ARC
  5
19122
  8
AM_0
 10
729.78636971654521
 20
392.64895474809452
 30
0.0
 40
2.0
 50
270.0
 51
344.98570240157858
1001
GENIUS_GENOBJ-N-FIL_13
1002
{
1000
OWNER
1000
GEN
1002
}
1001
GENIUS_GENODEF_13
1002
{
1000
HIER
1070
     0
1002
}
1002
{
1000
MANEDIT
1070
     0
1002
}
1002
{
1000
NOSEL
1070
     0
1002
}
1002
{
1000
BEHIND
1070
     0
1002
}
1002
{
1000
OTHER
1070
     0
1002
}
1002
{
1000
REACTOR
1002
}
  0
LINE
  5
19123
  8
AM_0
 10
850.03325459928919
 20
395.38894474933181
 30
0.0
 11
795.03325459818893
 21
395.38894474933193
 31
0.0
  0
LINE
  5
19162
  8
AM_0
 10
875.03325459978896
 20
390.90668107933482
 30
0.0
 11
870.19326459969238
 21
391.00893474924419
 31
0.0
  0
LINE
  5
19163
  8
AM_0
 10
875.03325459978896
 20
381.86895474906152
 30
0.0
 11
865.03325459958887
 21
381.86895474906152
 31
0.0
  0
LINE
  5
19164
  8
AM_0
 10
875.03325459978896
 20
376.20894474894828
 30
0.0
 11
865.03325459958887
 21
376.20894474894828
 31
0.0
  0
ARC
  5
19165
  8
AM_0
 10
871.24208459971283
 20
386.0478947491452
 30
0.0
 40
1.498966200029979
 50
191.50367599999859
 51
269.6615320000073
  0
LINE
  5
19166
  8
AM_0
 10
869.29323459967407
 20
381.86895474906152
 30
0.0
 11
868.77324459966394
 21
384.84894474912107
 31
0.0
  0
ARC
  5
19167
  8
AM_0
 10
865.39385459959635
 20
371.1683947488475
 30
0.0
 40
6.0113902001202266
 50
93.439149999994356
 51
134.59596000000829
  0
ARC
  5
19168
  8
AM_0
 10
861.88301459952595
 20
374.72652474891862
 30
0.0
 40
1.0127641000202541
 50
134.4946600000055
 51
184.39325279999781
  0
LINE
  5
19169
  8
AM_0
 10
865.03325459958887
 20
373.0289547488847
 30
0.0
 11
865.03325459958887
 21
370.24895474882908
 31
0.0
  0
LINE
  5
1916A
  8
AM_0
 10
865.03325459958887
 20
381.86895474906152
 30
0.0
 11
865.03325459958887
 21
370.25893474882929
 31
0.0
  0
LINE
  5
1916B
  8
AM_0
 10
866.91323459962666
 20
396.82894474936069
 30
0.0
 11
853.41323459935666
 21
396.82894474936069
 31
0.0
  0
LINE
  5
1916C
  8
AM_0
 10
866.89324459962631
 20
395.18894474932779
 30
0.0
 11
853.533254599359
 21
395.18894474932779
 31
0.0
  0
LINE
  5
1916D
  8
AM_0
 10
866.85323459962558
 20
391.7889547492598
 30
0.0
 11
853.533254599359
 21
391.7889547492598
 31
0.0
  0
LINE
  5
1916E
  8
AM_0
 10
866.79323459962416
 20
386.50895474915433
 30
0.0
 11
853.533254599359
 21
386.50895474915433
 31
0.0
  0
ARC
  5
1916F
  8
AM_0
 10
853.40132459935626
 20
398.32500474939047
 30
0.0
 40
1.496115700029921
 50
194.55818600000069
 51
270.45650500000249
  0
ARC
  5
19170
  8
AM_0
 10
853.52709459935875
 20
393.28278474928982
 30
0.0
 40
1.4938502000298759
 50
179.7636399999989
 51
270.23636099999129
  0
ARC
  5
19171
  8
AM_0
 10
853.52593459935895
 20
388.00164474918421
 30
0.0
 40
1.492715800029853
 50
179.7197199999994
 51
270.28027900000671
  0
ARC
  5
19172
  8
AM_0
 10
853.52910459935879
 20
396.68482474935792
 30
0.0
 40
1.4958795000299161
 50
179.8419600000008
 51
270.15804599999137
  0
LINE
  5
19173
  8
AM_0
 10
852.0332545993291
 20
395.40894474933231
 30
0.0
 11
852.0332545993291
 21
388.00895474918428
 31
0.0
  0
ARC
  5
19174
  8
AM_0
 10
866.90596459962626
 20
394.82161474932042
 30
0.0
 40
2.0073326000401459
 50
14.05006000000181
 51
89.792179999998822
  0
LINE
  5
19175
  8
AM_0
 10
871.19323459971235
 20
390.64895474923702
 30
0.0
 11
869.55324459967926
 21
390.64895474923702
 31
0.0
  0
LINE
  5
19176
  8
AM_0
 10
871.23323459971266
 20
384.54894474911498
 30
0.0
 11
868.81325459966456
 21
384.54894474911498
 31
0.0
  0
ARC
  5
19177
  8
AM_0
 10
871.2169145997126
 20
390.11234474922628
 30
0.0
 40
1.5034074000300679
 50
193.20385600000469
 51
269.86041400000022
  0
LINE
  5
19178
  8
AM_0
 10
871.21324459971254
 20
388.60894474919633
 30
0.0
 11
869.1532545996713
 21
388.60894474919633
 31
0.0
  0
ARC
  5
19179
  8
AM_0
 10
871.18340459971159
 20
392.14771474926692
 30
0.0
 40
1.4987990000299749
 50
194.63813500000211
 51
270.3765580000034
  0
LINE
  5
1917A
  8
AM_0
 10
868.8132245996643
 20
390.20893474922832
 30
0.0
 11
869.77324459968372
 21
385.74894474913913
 31
0.0
  0
ARC
  5
1917B
  8
AM_0
 10
866.79683459962405
 20
384.50239474911422
 30
0.0
 40
2.00656600004013
 50
9.9456799999998662
 51
90.102469999995733
  0
LINE
  5
1917C
  8
AM_0
 10
868.83324459966502
 20
393.6489547492971
 30
0.0
 11
869.75322459968345
 21
389.76894474921949
 31
0.0
  0
ARC
  5
1917D
  8
AM_0
 10
866.85414459962522
 20
389.78437474921958
 30
0.0
 40
2.0045698000400902
 50
12.22791000000317
 51
90.025959999996459
  0
LINE
  5
1917E
  8
AM_0
 10
868.85323459966548
 20
395.30892474933017
 30
0.0
 11
869.73323459968299
 21
391.76893474925942
 31
0.0
  0
ARC
  5
1917F
  8
AM_0
 10
866.88695459962605
 20
393.18906474928781
 30
0.0
 40
1.999890900039996
 50
13.29430000000143
 51
89.819579999998567
  0
ARC
  5
19180
  8
AM_0
 10
880.02608459988858
 20
381.53875474905487
 30
0.0
 40
1.007194200020143
 50
359.44232
 51
59.766580000002023
  0
LINE
  5
19181
  8
AM_0
 10
879.23323459987296
 20
382.00895474906429
 30
0.0
 11
880.47322459989766
 21
381.38897474905178
 31
0.0
  0
ARC
  5
19182
  8
AM_0
 10
878.73973459986303
 20
380.15783474902719
 30
0.0
 40
1.011208500020224
 50
59.481189999987812
 51
89.234310000002381
  0
LINE
  5
19183
  8
AM_0
 10
879.25325459987346
 20
383.12894474908671
 30
0.0
 11
880.53322459989897
 21
382.40896474907231
 31
0.0
  0
LINE
  5
19184
  8
AM_0
 10
879.03325459986888
 20
383.0089547490843
 30
0.0
 11
879.03325459986888
 21
382.48894474907388
 31
0.0
  0
ARC
  5
19185
  8
AM_0
 10
878.75566459986362
 20
381.12450474904648
 30
0.0
 40
1.005138300020102
 50
61.632060000003641
 51
87.857709999999443
  0
ARC
  5
19186
  8
AM_0
 10
878.74236459986309
 20
382.26719474906929
 30
0.0
 40
1.001808000020036
 50
59.338330000003573
 51
89.377179999996088
  0
ARC
  5
19187
  8
AM_0
 10
875.53960459979896
 20
381.62258474905661
 30
0.0
 40
0.506400760010128
 50
90.719699999998198
 51
179.28029999999521
  0
ARC
  5
19188
  8
AM_0
 10
875.52889459979872
 20
383.76459474909927
 30
0.0
 40
0.4956644500099134
 50
179.49662000000049
 51
270.5033810000005
  0
LINE
  5
19189
  8
AM_0
 10
878.79323459986404
 20
382.1289447490667
 30
0.0
 11
875.53325459979885
 21
382.1289447490667
 31
0.0
  0
LINE
  5
1918A
  8
AM_0
 10
878.75325459986311
 20
383.26894474908971
 30
0.0
 11
875.53325459979885
 21
383.26894474908971
 31
0.0
  0
LINE
  5
1918B
  8
AM_0
 10
878.75325459986311
 20
381.16893474904742
 30
0.0
 11
875.03325459978896
 21
381.16893474904742
 31
0.0
  0
LINE
  5
1918C
  8
AM_0
 10
878.77324459986392
 20
380.02895474902471
 30
0.0
 11
876.03325459980886
 21
380.02895474902471
 31
0.0
  0
ARC
  5
1918D
  8
AM_0
 10
878.77495459986358
 20
379.01574474900428
 30
0.0
 40
1.0131912000202621
 50
61.831239999999241
 51
90.096279999999368
  0
LINE
  5
1918E
  8
AM_0
 10
879.27324459987369
 20
376.48891474895379
 30
0.0
 11
880.57326459989986
 21
375.62893474893667
 31
0.0
  0
LINE
  5
1918F
  8
AM_0
 10
879.03325459986888
 20
376.34893474895102
 30
0.0
 11
879.03325459986888
 21
375.86895474894152
 31
0.0
  0
LINE
  5
19190
  8
AM_0
 10
878.75325459986311
 20
375.50893474893428
 30
0.0
 11
876.03325459980886
 21
375.50893474893428
 31
0.0
  0
ARC
  5
19191
  8
AM_0
 10
880.03151459988896
 20
374.78634474891982
 30
0.0
 40
1.001733900020034
 50
0.1495400000039063
 51
57.262369999995776
  0
ARC
  5
19192
  8
AM_0
 10
880.02770459988892
 20
373.7596647488993
 30
0.0
 40
1.00559290002011
 50
0.5283799999988892
 51
59.818669999992579
  0
LINE
  5
19193
  8
AM_0
 10
879.25325459987346
 20
375.36895474893163
 30
0.0
 11
880.53325459989878
 21
374.62893474891672
 31
0.0
  0
ARC
  5
19194
  8
AM_0
 10
878.74099459986303
 20
374.50228474891418
 30
0.0
 40
1.0067360000201351
 50
59.413569999998458
 51
89.301940000005473
  0
ARC
  5
19195
  8
AM_0
 10
880.0282545998889
 20
378.35793474899123
 30
0.0
 40
1.0050608000201
 50
0.6283999999989876
 51
62.441190000004852
  0
ARC
  5
19196
  8
AM_0
 10
878.72759459986275
 20
375.63863474893668
 30
0.0
 40
1.010318000020205
 50
57.311419999993312
 51
89.67986000000522
  0
ARC
  5
19197
  8
AM_0
 10
880.03426459988918
 20
379.38350474901182
 30
0.0
 40
0.99898326001998
 50
0.3123899999989826
 51
60.034640000004039
  0
LINE
  5
19198
  8
AM_0
 10
879.25322459987353
 20
379.90896474902229
 30
0.0
 11
880.49324459989839
 21
379.24892474900901
 31
0.0
  0
ARC
  5
19199
  8
AM_0
 10
876.03865459980909
 20
374.50353474891421
 30
0.0
 40
1.005422700020107
 50
90.308189999990176
 51
179.69180999999671
  0
LINE
  5
1919A
  8
AM_0
 10
878.73323459986307
 20
376.64895474895701
 30
0.0
 11
875.03325459978896
 21
376.64895474895701
 31
0.0
  0
ARC
  5
1919B
  8
AM_0
 10
876.04030459980891
 20
379.02187474900438
 30
0.0
 40
1.0070832000201411
 50
90.401579999998404
 51
179.5984200000016
  0
ARC
  5
1919C
  8
AM_0
 10
880.03020459988898
 20
380.48903474903392
 30
0.0
 40
1.0030519000200611
 50
359.99423000000229
 51
63.787349999991029
  0
LINE
  5
1919D
  8
AM_0
 10
879.25325459987346
 20
381.02892474904468
 30
0.0
 11
880.53322459989897
 21
380.248954749029
 31
0.0
  0
LINE
  5
1919E
  8
AM_0
 10
879.03325459986888
 20
380.90896474904201
 30
0.0
 11
879.03325459986888
 21
380.3689547490315
 31
0.0
  0
CIRCLE
  5
1964E
  8
ｽﾝﾎﾟｳｾﾝ
 10
563.0332812368265
 20
315.52862571595278
 30
0.0
 40
4.0
  0
ARC
  5
1964F
  8
AM_0
 10
563.0332812368265
 20
315.52862571595278
 30
0.0
 40
16.0
 50
108.2099568642828
 51
71.790043135717227
  0
LINE
  5
19650
  8
AM_0
 10
568.0332812368265
 20
334.52862571595278
 30
0.0
 11
568.0332812368265
 21
326.52862571595278
 31
0.0
  0
LINE
  5
19651
  8
AM_0
 10
558.0332812368265
 20
326.52862571595278
 30
0.0
 11
558.0332812368265
 21
334.52862571595278
 31
0.0
  0
LINE
  5
19652
  8
AM_0
 10
568.0332812368265
 20
326.52862571595278
 30
0.0
 11
558.0332812368265
 21
326.52862571595278
 31
0.0
  0
LINE
  5
19653
  8
AM_0
 10
558.0332812368265
 20
334.52862571595278
 30
0.0
 11
568.0332812368265
 21
334.52862571595278
 31
0.0
  0
LINE
  5
19670
  8
ｶｸﾚｾﾝ2
 10
329.58462766437918
 20
335.52862571595222
 30
0.0
 11
329.58462766437918
 21
295.52862571595222
 31
0.0
  0
LINE
  5
19671
  8
AM_0
 10
387.58462766437941
 20
299.52862571595222
 30
0.0
 11
387.58462766437941
 21
334.52862571595222
 31
0.0
  0
LINE
  5
19672
  8
ｶｸﾚｾﾝ2
 10
301.58462974143941
 20
340.52862646851088
 30
0.0
 11
301.58462974143941
 21
290.5286249633948
 31
0.0
  0
LINE
  5
19673
  8
ｶｸﾚｾﾝ2
 10
301.58462974143958
 20
340.52862646851088
 30
0.0
 11
301.58462974143958
 21
290.52862496339452
 31
0.0
  0
LINE
  5
19674
  8
ｶｸﾚｾﾝ2
 10
301.58462974143953
 20
340.52862646851088
 30
0.0
 11
301.58462974143953
 21
290.52862496339452
 31
0.0
  0
LINE
  5
19676
  8
ｶｸﾚｾﾝ2
 10
329.58462766437918
 20
295.52862571595222
 30
0.0
 11
301.58462974143958
 21
290.52862496339452
 31
0.0
  0
LINE
  5
19677
  8
ｶｸﾚｾﾝ2
 10
296.58462959092799
 20
290.5286249633948
 30
0.0
 11
301.58462974143941
 21
290.5286249633948
 31
0.0
  0
LINE
  5
19678
  8
ｶｸﾚｾﾝ2
 10
296.58462959092799
 20
290.52862496339452
 30
0.0
 11
301.58462974143958
 21
290.52862496339452
 31
0.0
  0
LINE
  5
19679
  8
ｶｸﾚｾﾝ2
 10
296.58462959092788
 20
290.52862496339452
 30
0.0
 11
301.58462974143953
 21
290.52862496339452
 31
0.0
  0
LINE
  5
1967A
  8
0
 10
387.58462766437941
 20
299.52862571595222
 30
0.0
 11
332.5846276643793
 21
299.52862571595222
 31
0.0
  0
LINE
  5
1967B
  8
ｶｸﾚｾﾝ2
 10
329.58462766437918
 20
335.52862571595222
 30
0.0
 11
301.58462974143958
 21
340.52862646851088
 31
0.0
  0
LINE
  5
1967C
  8
ｶｸﾚｾﾝ2
 10
296.58462959092799
 20
340.52862646851088
 30
0.0
 11
301.58462974143941
 21
340.52862646851088
 31
0.0
  0
LINE
  5
1967D
  8
ｶｸﾚｾﾝ2
 10
296.58462959092799
 20
340.52862646851088
 30
0.0
 11
301.58462974143958
 21
340.52862646851088
 31
0.0
  0
LINE
  5
1967E
  8
ｶｸﾚｾﾝ2
 10
296.58462959092788
 20
340.52862646851088
 30
0.0
 11
301.58462974143953
 21
340.52862646851088
 31
0.0
  0
LINE
  5
1967F
  8
0
 10
387.58462766437941
 20
334.52862571595222
 30
0.0
 11
342.58462766437941
 21
334.52862571595222
 31
0.0
  0
LINE
  5
19680
  8
0
 10
387.58462766437941
 20
331.52862571595222
 30
0.0
 11
332.5846276643793
 21
331.52862571595222
 31
0.0
  0
LINE
  5
19681
  8
0
 10
342.58462766437941
 20
334.52862571595222
 30
0.0
 11
342.58462766437941
 21
331.52862571595222
 31
0.0
  0
CIRCLE
  5
19799
  8
AM_0
 10
563.0332812368265
 20
315.5286257159529
 30
0.0
 40
3.399999999999999
  0
LINE
  5
1979B
  8
ｶｸﾚｾﾝ2
 10
332.58462766437901
 20
331.52862571595222
 30
0.0
 11
329.58462766437918
 21
331.52862571595222
 31
0.0
  0
LINE
  5
1979D
  8
ｶｸﾚｾﾝ2
 10
332.5846276643793
 20
299.52862571595222
 30
0.0
 11
329.5846276643793
 21
299.52862571595227
 31
0.0
  0
LINE
  5
197A0
  8
ﾁｭｳｼﾝｾﾝ1
 10
533.03325237487456
 20
415.52862571595301
 30
0.0
 11
503.03325237487468
 21
415.52862571595301
 31
0.0
  0
LINE
  5
197A1
  8
ﾁｭｳｼﾝｾﾝ1
 10
518.03325237487479
 20
400.52862571595301
 30
0.0
 11
518.03325237487479
 21
430.5286257159529
 31
0.0
  0
LINE
  5
197A2
  8
ﾁｭｳｼﾝｾﾝ1
 10
533.03325237487456
 20
215.5286257159535
 30
0.0
 11
503.03325237487468
 21
215.5286257159535
 31
0.0
  0
LINE
  5
197A3
  8
ﾁｭｳｼﾝｾﾝ1
 10
518.03325237487479
 20
200.5286257159535
 30
0.0
 11
518.03325237487479
 21
230.5286257159535
 31
0.0
  0
LINE
  5
197A4
  8
ﾁｭｳｼﾝｾﾝ1
 10
678.03328123682627
 20
215.5286257159535
 30
0.0
 11
648.03328123682627
 21
215.5286257159535
 31
0.0
  0
LINE
  5
197A5
  8
ﾁｭｳｼﾝｾﾝ1
 10
663.0332812368265
 20
200.5286257159535
 30
0.0
 11
663.0332812368265
 21
230.5286257159535
 31
0.0
  0
LINE
  5
19949
  8
AM_0
 10
307.58462766437901
 20
396.12206665834191
 30
0.0
 11
332.58462766437901
 21
396.12206665834191
 31
0.0
  0
LINE
  5
1994A
  8
AM_0
 10
307.58462766437901
 20
234.93518477356301
 30
0.0
 11
332.58462766437901
 21
234.93518477356301
 31
0.0
  0
LINE
  5
1994B
  8
AM_0
 10
691.29131944778237
 20
727.96484912061464
 30
0.0
 11
489.78083922425259
 21
727.96484912061464
 31
0.0
  0
LINE
  5
1994C
  8
AM_0
 10
613.0340824299434
 20
732.96484926972641
 30
0.0
 11
513.03248004370982
 21
732.96484926972641
 31
0.0
  0
LINE
  5
1994D
  8
AM_0
 10
693.03686832613209
 20
634.96484634713875
 30
0.0
 11
488.03689273013561
 21
634.96484634713863
 31
0.0
  0
LINE
  5
1994E
  8
AM_0
 10
695.03325463254941
 20
568.96484634713875
 30
0.0
 11
486.03327897915182
 21
568.96484634713863
 31
0.0
  0
LINE
  5
1994F
  8
AM_0
 10
694.27704769830063
 20
593.96484634713875
 30
0.0
 11
486.79222358179737
 21
593.96484634713863
 31
0.0
  0
LINE
  5
19950
  8
ﾁｭｳｼﾝｾﾝ1
 10
889.78076832667193
 20
668.96484736109721
 30
0.0
 11
483.03689273013561
 21
668.96484736109767
 31
0.0
1001
GENIUS_GENODEF_13
1002
{
1000
HIER
1070
     0
1002
}
1002
{
1000
MANEDIT
1070
     0
1002
}
1002
{
1000
NOSEL
1070
     0
1002
}
1002
{
1000
BEHIND
1070
     0
1002
}
1002
{
1000
REACTOR
1002
}
1001
GENIUS_GENOBJ-N-CEN_13
1002
{
1000
OWNER
1000
GEN
1002
}
  0
LINE
  5
19951
  8
AM_0
 10
691.29131944778237
 20
727.96484912061464
 30
0.0
 11
693.03686832628432
 21
634.96484634713875
 31
0.0
  0
LINE
  5
19952
  8
AM_0
 10
709.03686832667211
 20
730.46484236109802
 30
0.0
 11
709.03686832667211
 21
607.46486236109774
 31
0.0
  0
LINE
  5
19953
  8
AM_0
 10
720.03686832667211
 20
732.96487736109805
 30
0.0
 11
720.03686832667211
 21
604.96486236109774
 31
0.0
  0
ARC
  5
19954
  8
AM_0
 10
706.03686832667279
 20
604.46486236109763
 30
0.0
 40
2.9999999999999978
 50
35.685334712659163
 51
90.0
1001
GENIUS_GENOBJ-N-FIL_13
1002
{
1000
OWNER
1000
GEN
1002
}
1001
GENIUS_GENODEF_13
1002
{
1000
HIER
1070
     0
1002
}
1002
{
1000
MANEDIT
1070
     0
1002
}
1002
{
1000
NOSEL
1070
     0
1002
}
1002
{
1000
BEHIND
1070
     0
1002
}
1002
{
1000
OTHER
1070
     0
1002
}
1002
{
1000
REACTOR
1002
}
  0
LINE
  5
19955
  8
AM_0
 10
720.03686832667211
 20
604.96486236109774
 30
0.0
 11
710.91026549907656
 21
604.96486236109774
 31
0.0
  0
ARC
  5
19956
  8
AM_0
 10
710.91026549907701
 20
607.9648623610974
 30
0.0
 40
2.9999999999999978
 50
215.68533471265911
 51
270.0
1001
GENIUS_GENOBJ-N-FIL_13
1002
{
1000
OWNER
1000
GEN
1002
}
1001
GENIUS_GENODEF_13
1002
{
1000
HIER
1070
     0
1002
}
1002
{
1000
MANEDIT
1070
     0
1002
}
1002
{
1000
NOSEL
1070
     0
1002
}
1002
{
1000
BEHIND
1070
     0
1002
}
1002
{
1000
OTHER
1070
     0
1002
}
1002
{
1000
REACTOR
1002
}
  0
LINE
  5
19957
  8
AM_0
 10
720.03686832667211
 20
616.92486236109755
 30
0.0
 11
710.03686832667199
 21
616.92486236109755
 31
0.0
  0
LINE
  5
19958
  8
AM_0
 10
720.03692614888962
 20
616.92485236112941
 30
0.0
 11
710.03692614889565
 21
616.92484125001818
 31
0.0
  0
LINE
  5
19959
  8
AM_0
 10
720.03686832667211
 20
631.82487236109773
 30
0.0
 11
710.03686832667199
 21
631.82487236109773
 31
0.0
  0
LINE
  5
1995A
  8
AM_0
 10
720.03690959332255
 20
631.82486236112038
 30
0.0
 11
710.0369095933288
 21
631.82485125000881
 31
0.0
  0
ARC
  5
1995B
  8
AM_0
 10
703.45044484768209
 20
609.46486236109763
 30
0.0
 40
2.0
 50
184.99999999999969
 51
270.0
1001
GENIUS_GENODEF_13
1002
{
1000
HIER
1070
     0
1002
}
1002
{
1000
MANEDIT
1070
     0
1002
}
1002
{
1000
NOSEL
1070
     0
1002
}
1002
{
1000
BEHIND
1070
     0
1002
}
1002
{
1000
OTHER
1070
     0
1002
}
1002
{
1000
REACTOR
1002
}
1001
GENIUS_GENOBJ-N-FIL_13
1002
{
1000
OWNER
1000
GEN
1002
}
  0
LINE
  5
1995C
  8
AM_0
 10
706.03686832667222
 20
607.46486236109774
 30
0.0
 11
703.45044484768209
 21
607.46486236109774
 31
0.0
  0
LINE
  5
1995D
  8
AM_0
 10
699.19659537482084
 20
635.13915783263406
 30
0.0
 11
701.45805545149824
 21
609.29055087560232
 31
0.0
  0
ARC
  5
1995E
  8
AM_0
 10
694.0182751126581
 20
635.96484634713852
 30
0.0
 40
1.0
 50
90.0
 51
181.0752778360611
1001
GENIUS_GENODEF_13
1002
{
1000
HIER
1070
     0
1002
}
1002
{
1000
MANEDIT
1070
     0
1002
}
1002
{
1000
NOSEL
1070
     0
1002
}
1002
{
1000
BEHIND
1070
     0
1002
}
1002
{
1000
OTHER
1070
     0
1002
}
1002
{
1000
REACTOR
1002
}
1001
GENIUS_GENOBJ-N-FIL_13
1002
{
1000
OWNER
1000
GEN
1002
}
  0
ARC
  5
1995F
  8
AM_0
 10
697.2042059786379
 20
634.96484634713852
 30
0.0
 40
2.0
 50
4.9999999999997407
 51
90.0
1001
GENIUS_GENOBJ-N-FIL_13
1002
{
1000
OWNER
1000
GEN
1002
}
1001
GENIUS_GENODEF_13
1002
{
1000
HIER
1070
     0
1002
}
1002
{
1000
MANEDIT
1070
     0
1002
}
1002
{
1000
NOSEL
1070
     0
1002
}
1002
{
1000
BEHIND
1070
     0
1002
}
1002
{
1000
OTHER
1070
     0
1002
}
1002
{
1000
REACTOR
1002
}
  0
LINE
  5
19960
  8
AM_0
 10
697.20420597863722
 20
636.96484634713886
 30
0.0
 11
694.01827511265765
 21
636.96484634713886
 31
0.0
  0
ARC
  5
19961
  8
AM_0
 10
706.03686832667279
 20
733.46484236109768
 30
0.0
 40
2.9999999999999978
 50
270.0
 51
324.3146652873408
1001
GENIUS_GENOBJ-N-FIL_13
1002
{
1000
OWNER
1000
GEN
1002
}
1001
GENIUS_GENODEF_13
1002
{
1000
HIER
1070
     0
1002
}
1002
{
1000
MANEDIT
1070
     0
1002
}
1002
{
1000
NOSEL
1070
     0
1002
}
1002
{
1000
BEHIND
1070
     0
1002
}
1002
{
1000
OTHER
1070
     0
1002
}
1002
{
1000
REACTOR
1002
}
  0
LINE
  5
19962
  8
AM_0
 10
720.03686832667211
 20
706.10483236109746
 30
0.0
 11
710.03686832667199
 21
706.10483236109746
 31
0.0
  0
LINE
  5
19963
  8
AM_0
 10
720.03686832667211
 20
721.00484236109764
 30
0.0
 11
710.03686832667199
 21
721.00484236109764
 31
0.0
  0
LINE
  5
19964
  8
AM_0
 10
720.03686832667211
 20
732.96484236109802
 30
0.0
 11
710.91026549907656
 21
732.96484236109802
 31
0.0
  0
ARC
  5
19965
  8
AM_0
 10
710.91026549907701
 20
729.96484236109745
 30
0.0
 40
2.9999999999999978
 50
90.0
 51
144.3146652873408
1001
GENIUS_GENOBJ-N-FIL_13
1002
{
1000
OWNER
1000
GEN
1002
}
1001
GENIUS_GENODEF_13
1002
{
1000
HIER
1070
     0
1002
}
1002
{
1000
MANEDIT
1070
     0
1002
}
1002
{
1000
NOSEL
1070
     0
1002
}
1002
{
1000
BEHIND
1070
     0
1002
}
1002
{
1000
OTHER
1070
     0
1002
}
1002
{
1000
REACTOR
1002
}
  0
ARC
  5
19966
  8
AM_0
 10
693.29167170496873
 20
727.9648491206143
 30
0.0
 40
2.0
 50
181.07527783597001
 51
270.0
1001
GENIUS_GENODEF_13
1002
{
1000
HIER
1070
     0
1002
}
1002
{
1000
MANEDIT
1070
     0
1002
}
1002
{
1000
NOSEL
1070
     0
1002
}
1002
{
1000
BEHIND
1070
     0
1002
}
1002
{
1000
OTHER
1070
     0
1002
}
1002
{
1000
REACTOR
1002
}
1001
GENIUS_GENOBJ-N-FIL_13
1002
{
1000
OWNER
1000
GEN
1002
}
  0
LINE
  5
19967
  8
AM_0
 10
699.27083967300905
 20
728.63915384659322
 30
0.0
 11
699.19659537482084
 21
727.79053763511934
 31
0.0
  0
ARC
  5
19968
  8
AM_0
 10
697.2042059786379
 20
727.9648491206143
 30
0.0
 40
2.0
 50
270.0
 51
355.00000000000028
1001
GENIUS_GENODEF_13
1002
{
1000
HIER
1070
     0
1002
}
1002
{
1000
MANEDIT
1070
     0
1002
}
1002
{
1000
NOSEL
1070
     0
1002
}
1002
{
1000
BEHIND
1070
     0
1002
}
1002
{
1000
OTHER
1070
     0
1002
}
1002
{
1000
REACTOR
1002
}
1001
GENIUS_GENOBJ-N-FIL_13
1002
{
1000
OWNER
1000
GEN
1002
}
  0
LINE
  5
19969
  8
AM_0
 10
697.20420597863722
 20
725.96484912061476
 30
0.0
 11
693.29167170496851
 21
725.96484912061476
 31
0.0
  0
ARC
  5
1996A
  8
AM_0
 10
701.26322906919313
 20
728.46484236109768
 30
0.0
 40
2.0
 50
90.0
 51
175.00000000000031
1001
GENIUS_GENOBJ-N-FIL_13
1002
{
1000
OWNER
1000
GEN
1002
}
1001
GENIUS_GENODEF_13
1002
{
1000
HIER
1070
     0
1002
}
1002
{
1000
MANEDIT
1070
     0
1002
}
1002
{
1000
NOSEL
1070
     0
1002
}
1002
{
1000
BEHIND
1070
     0
1002
}
1002
{
1000
OTHER
1070
     0
1002
}
1002
{
1000
REACTOR
1002
}
  0
LINE
  5
1996B
  8
AM_0
 10
706.03686832667245
 20
730.46484236109802
 30
0.0
 11
701.26322906919279
 21
730.46484236109757
 31
0.0
  0
LINE
  5
1996C
  8
AM_0
 10
613.0340824299434
 20
732.96484926972641
 30
0.0
 11
613.0340824299434
 21
727.96484912061464
 31
0.0
  0
LINE
  5
1996D
  8
ﾁｭｳｼﾝｾﾝ1
 10
563.0332812368265
 20
743.26828873221041
 30
0.0
 11
563.03328123682616
 21
505.05264818601682
 31
0.0
  0
LINE
  5
1996E
  8
AM_0
 10
489.78083922425259
 20
727.96484912061464
 30
0.0
 11
488.03689273013561
 21
634.96484634713863
 31
0.0
  0
LINE
  5
1996F
  8
AM_0
 10
513.03248004370982
 20
732.96484926972641
 30
0.0
 11
513.03248004370982
 21
730.46484912061476
 31
0.0
  0
LINE
  5
19970
  8
ｶｸﾚｾﾝ2
 10
751.53692832667241
 20
637.46484736109744
 30
0.0
 11
825.53692832667218
 21
637.46484736109744
 31
0.0
  0
LINE
  5
19971
  8
ｶｸﾚｾﾝ2
 10
751.53692832667241
 20
700.46484736109744
 30
0.0
 11
825.53692832667218
 21
700.46484736109744
 31
0.0
  0
LINE
  5
19972
  8
AM_0
 10
853.03689832667214
 20
605.07483636109725
 30
0.0
 11
800.03689832667226
 21
605.07483636109725
 31
0.0
  0
LINE
  5
19973
  8
AM_0
 10
853.03689832667214
 20
603.72482236109749
 30
0.0
 11
800.03689832667226
 21
603.72482236109749
 31
0.0
  0
LINE
  5
19974
  8
AM_0
 10
853.03689832667214
 20
603.05484036109749
 30
0.0
 11
800.03689832667226
 21
603.05484036109749
 31
0.0
  0
LINE
  5
19975
  8
AM_0
 10
831.03689832667226
 20
622.61482736109747
 30
0.0
 11
729.03689832667226
 21
622.61482736109747
 31
0.0
  0
LINE
  5
19976
  8
AM_0
 10
831.03689832667226
 20
715.31483736109749
 30
0.0
 11
729.03689832667226
 21
715.31483736109749
 31
0.0
  0
LINE
  5
19977
  8
AM_0
 10
735.68686832667197
 20
632.96484736109744
 30
0.0
 11
870.4868483266722
 21
632.96484736109744
 31
0.0
  0
LINE
  5
19978
  8
AM_0
 10
853.03689832667214
 20
607.10483536109768
 30
0.0
 11
736.22690832667206
 21
607.10483536109768
 31
0.0
  0
LINE
  5
19979
  8
AM_0
 10
862.35690832667206
 20
705.68482736109752
 30
0.0
 11
732.21689832667198
 21
705.68482736109752
 31
0.0
  0
LINE
  5
1997A
  8
AM_0
 10
735.68686832667197
 20
704.96484736109744
 30
0.0
 11
861.4868483266722
 21
704.96484736109744
 31
0.0
  0
LINE
  5
1997B
  8
AM_0
 10
735.68686832667197
 20
634.96483736109747
 30
0.0
 11
870.4868483266722
 21
634.96483736109747
 31
0.0
  0
LINE
  5
1997C
  8
AM_0
 10
732.21689832667198
 20
635.59483736109735
 30
0.0
 11
871.35690832667206
 21
635.59483736109735
 31
0.0
  0
LINE
  5
1997D
  8
AM_0
 10
871.35690832667206
 20
632.24482736109735
 30
0.0
 11
732.21689832667198
 21
632.24482736109735
 31
0.0
  0
LINE
  5
1997E
  8
AM_0
 10
732.21689832667198
 20
702.33482736109761
 30
0.0
 11
862.35690832667206
 21
702.33482736109761
 31
0.0
  0
LINE
  5
1997F
  8
AM_0
 10
733.09192832667225
 20
642.96483326109717
 30
0.0
 11
870.4868483266722
 21
642.96482736109749
 31
0.0
  0
LINE
  5
19980
  8
AM_0
 10
733.09192827431207
 20
644.96484146109754
 30
0.0
 11
870.4868483266722
 21
644.96484736109744
 31
0.0
  0
LINE
  5
19981
  8
AM_0
 10
871.57687832667204
 20
642.48483736109745
 30
0.0
 11
732.0018983266724
 21
642.48482736109725
 31
0.0
  0
LINE
  5
19982
  8
AM_0
 10
871.57687832667204
 20
645.40484736109727
 30
0.0
 11
732.00189825022699
 21
645.40482736109743
 31
0.0
  0
LINE
  5
19983
  8
AM_0
 10
871.7068883266719
 20
652.62482736109735
 30
0.0
 11
731.87188832667198
 21
652.62484736109752
 31
0.0
  0
LINE
  5
19984
  8
AM_0
 10
733.10192278451325
 20
652.96484933133922
 30
0.0
 11
870.47690832667251
 21
652.96484736109744
 31
0.0
  0
LINE
  5
19985
  8
AM_0
 10
733.10192267979346
 20
654.96484539176822
 30
0.0
 11
870.47690832667251
 21
654.96482736109749
 31
0.0
  0
LINE
  5
19986
  8
AM_0
 10
871.7068883266719
 20
655.2848373610974
 30
0.0
 11
731.87188825703379
 21
655.28484736109715
 31
0.0
  0
LINE
  5
19987
  8
AM_0
 10
871.76687832667244
 20
662.69483736109726
 30
0.0
 11
731.81189832667224
 21
662.69482336109752
 31
0.0
  0
LINE
  5
19988
  8
AM_0
 10
733.10192278451325
 20
662.96482933133916
 30
0.0
 11
870.47690832667251
 21
662.96484736109744
 31
0.0
  0
LINE
  5
19989
  8
AM_0
 10
733.10192267979346
 20
664.96482539176839
 30
0.0
 11
870.47690832667251
 21
664.96484736109744
 31
0.0
  0
LINE
  5
1998A
  8
AM_0
 10
871.76687832667244
 20
665.23483736109745
 30
0.0
 11
731.81189826017521
 21
665.23483136109735
 31
0.0
  0
LINE
  5
1998B
  8
AM_0
 10
871.76687832667244
 20
672.70483736109736
 30
0.0
 11
731.81189832667224
 21
672.70481336109754
 31
0.0
  0
LINE
  5
1998C
  8
AM_0
 10
733.10192278451325
 20
672.96482933133927
 30
0.0
 11
870.47690832667251
 21
672.96482736109726
 31
0.0
  0
LINE
  5
1998D
  8
AM_0
 10
733.10192267979346
 20
674.96482539176816
 30
0.0
 11
870.47690832667251
 21
674.96484736109744
 31
0.0
  0
LINE
  5
1998E
  8
AM_0
 10
871.76687832667244
 20
675.23483736109745
 30
0.0
 11
731.81189826043703
 21
675.23482136109726
 31
0.0
  0
LINE
  5
1998F
  8
AM_0
 10
871.7068883266719
 20
682.64483736109753
 30
0.0
 11
731.87188832667198
 21
682.64483736109753
 31
0.0
  0
LINE
  5
19990
  8
AM_0
 10
733.10192278451325
 20
682.96484933133922
 30
0.0
 11
870.47690832667251
 21
682.96482736109749
 31
0.0
  0
LINE
  5
19991
  8
AM_0
 10
733.10192267979346
 20
684.96484539176822
 30
0.0
 11
870.47690832667251
 21
684.96482736109738
 31
0.0
  0
LINE
  5
19992
  8
AM_0
 10
871.7068883266719
 20
685.30482736109741
 30
0.0
 11
731.87188825703379
 21
685.30483736109738
 31
0.0
  0
LINE
  5
19993
  8
AM_0
 10
862.57687832667204
 20
692.52483736109741
 30
0.0
 11
732.0068883266722
 21
692.52483736109741
 31
0.0
  0
LINE
  5
19994
  8
AM_0
 10
733.09691832667204
 20
692.96482326109742
 30
0.0
 11
861.4868483266722
 21
692.96484736109744
 31
0.0
  0
LINE
  5
19995
  8
AM_0
 10
733.09691827431186
 20
694.96483146109745
 30
0.0
 11
861.4868483266722
 21
694.9648273610976
 31
0.0
  0
LINE
  5
19996
  8
AM_0
 10
862.57687832667204
 20
695.45481736109753
 30
0.0
 11
732.00688824996507
 21
695.45483736109736
 31
0.0
  0
LINE
  5
19997
  8
AM_0
 10
735.68688732679459
 20
702.96482900682952
 30
0.0
 11
861.4868483266722
 21
702.96482736109726
 31
0.0
  0
LINE
  5
19998
  8
AM_0
 10
853.03689832667214
 20
732.85482736109759
 30
0.0
 11
800.03689832667226
 21
732.85482736109759
 31
0.0
  0
LINE
  5
19999
  8
AM_0
 10
853.03689832667214
 20
734.20483736109759
 30
0.0
 11
800.03689832667226
 21
734.20483736109759
 31
0.0
  0
LINE
  5
1999A
  8
AM_0
 10
853.03689832667214
 20
734.88482736109745
 30
0.0
 11
800.03689832667226
 21
734.88482736109745
 31
0.0
  0
LINE
  5
1999B
  8
AM_0
 10
853.03689832667214
 20
730.82482736109762
 30
0.0
 11
736.22690832667206
 21
730.82482736109762
 31
0.0
  0
LINE
  5
1999C
  8
ｶｸﾚｾﾝ2
 10
828.53692832667241
 20
697.46484736109744
 30
0.0
 11
828.53692832667241
 21
640.46484736109744
 31
0.0
  0
LINE
  5
1999D
  8
AM_0
 10
881.03686832667211
 20
620.37483736109743
 30
0.0
 11
881.03686832667211
 21
663.96485736109742
 31
0.0
  0
LINE
  5
1999E
  8
AM_0
 10
876.03692832667241
 20
611.53484836109749
 30
0.0
 11
876.03692832667241
 21
668.96484736109744
 31
0.0
  0
LINE
  5
1999F
  8
AM_0
 10
882.53686832667199
 20
688.96483736109724
 30
0.0
 11
882.53686832667199
 21
648.96485736109719
 31
0.0
  0
LINE
  5
199A0
  8
AM_0
 10
883.5307683266725
 20
653.74295736109696
 30
0.0
 11
883.5307683266725
 21
684.18658736109728
 31
0.0
  0
LINE
  5
199A1
  8
AM_0
 10
872.31686832667219
 20
717.3148373610976
 30
0.0
 11
871.77682832667244
 21
720.3048373610975
 31
0.0
  0
LINE
  5
199A2
  8
AM_0
 10
879.03692832667218
 20
718.46484736109744
 30
0.0
 11
879.03692832667218
 21
717.93484736109735
 31
0.0
  0
LINE
  5
199A3
  8
AM_0
 10
879.26690832667248
 20
718.58484736109745
 30
0.0
 11
880.53692832667241
 21
717.84483736109758
 31
0.0
  0
LINE
  5
199A4
  8
AM_0
 10
876.03692832667241
 20
726.39483736109753
 30
0.0
 11
876.03692832667241
 21
668.96484736109744
 31
0.0
  0
ARC
  5
199A5
  8
AM_0
 10
853.04233832667285
 20
732.21026736109695
 30
0.0
 40
1.9945760999999991
 50
359.84400999999718
 51
90.15599200000004
  0
ARC
  5
199A6
  8
AM_0
 10
853.03439832667254
 20
732.88998736109716
 30
0.0
 40
1.994844099999999
 50
14.36279999999921
 51
89.928341999995624
  0
LINE
  5
199A7
  8
AM_0
 10
869.80691832667219
 20
721.94482736109751
 30
0.0
 11
856.53689832667214
 21
721.94482736109751
 31
0.0
  0
LINE
  5
199A8
  8
AM_0
 10
869.92691832667197
 20
732.26482736109745
 30
0.0
 11
856.42691832667197
 21
732.26482736109745
 31
0.0
  0
LINE
  5
199A9
  8
AM_0
 10
869.89688832667218
 20
730.63482736109745
 30
0.0
 11
856.53689832667214
 21
730.63482736109745
 31
0.0
  0
LINE
  5
199AA
  8
AM_0
 10
869.86685832667206
 20
727.23483736109745
 30
0.0
 11
856.53689832667214
 21
727.23483736109745
 31
0.0
  0
ARC
  5
199AB
  8
AM_0
 10
869.8652083266727
 20
725.23943736109709
 30
0.0
 40
1.9953879999999991
 50
12.01538000000024
 51
89.951933000008765
  0
LINE
  5
199AC
  8
AM_0
 10
871.8468983266722
 20
729.09483736109758
 30
0.0
 11
872.76693832667218
 21
725.21484736109744
 31
0.0
  0
ARC
  5
199AD
  8
AM_0
 10
874.2085983266727
 20
727.59193736109728
 30
0.0
 40
1.5070961
 50
194.09782000000331
 51
269.9351799999983
  0
LINE
  5
199AE
  8
AM_0
 10
874.2068883266719
 20
726.08483736109758
 30
0.0
 11
872.55685832667223
 21
726.08483736109758
 31
0.0
  0
LINE
  5
199AF
  8
AM_0
 10
876.03695832667199
 20
726.39483736109753
 30
0.0
 11
873.21689832667209
 21
726.46482736109738
 31
0.0
  0
LINE
  5
199B0
  8
AM_0
 10
871.86691832667213
 20
730.7548473610974
 30
0.0
 11
872.74692832667233
 21
727.22485736109741
 31
0.0
  0
ARC
  5
199B1
  8
AM_0
 10
869.90408832667254
 20
728.6393773610971
 30
0.0
 40
1.9954841000000001
 50
13.19407999999817
 51
90.206542000000866
  0
ARC
  5
199B2
  8
AM_0
 10
869.9295983266727
 20
730.26705736109716
 30
0.0
 40
1.9977800999999991
 50
14.13223000000314
 51
90.076919000002306
  0
LINE
  5
199B3
  8
AM_0
 10
874.24692832667245
 20
720.00481736109759
 30
0.0
 11
871.82687832667204
 21
720.00481736109759
 31
0.0
  0
ARC
  5
199B4
  8
AM_0
 10
874.24569832667294
 20
721.50896736109712
 30
0.0
 40
1.50414
 50
192.44475000000341
 51
270.04574999999488
  0
LINE
  5
199B5
  8
AM_0
 10
874.22690832667251
 20
724.06481736109743
 30
0.0
 11
872.16690832667211
 21
724.06481736109743
 31
0.0
  0
ARC
  5
199B6
  8
AM_0
 10
874.22769832667279
 20
725.56763736109724
 30
0.0
 40
1.5028081
 50
193.57782000000279
 51
269.96921000000498
  0
ARC
  5
199B7
  8
AM_0
 10
878.77489832667266
 20
717.71896736109716
 30
0.0
 40
0.9959119600000002
 50
60.39301000000998
 51
90.458556000002645
  0
ARC
  5
199B8
  8
AM_0
 10
876.54150832667256
 20
719.21946736109714
 30
0.0
 40
0.5046359900000002
 50
180.5237599999995
 51
269.47624000000047
  0
LINE
  5
199B9
  8
AM_0
 10
878.76690832667236
 20
718.71484736109744
 30
0.0
 11
876.53686832667211
 21
718.71484736109744
 31
0.0
  0
ARC
  5
199BA
  8
AM_0
 10
869.81503832667295
 20
719.95139736109707
 30
0.0
 40
1.993431999999999
 50
10.21196999999983
 51
90.234116000007205
  0
LINE
  5
199BB
  8
AM_0
 10
871.81686832667208
 20
725.65482736109755
 30
0.0
 11
872.77688832667206
 21
721.18482736109752
 31
0.0
  0
LINE
  5
199BC
  8
AM_0
 10
855.03689832667214
 20
730.85482736109748
 30
0.0
 11
855.03689832667214
 21
723.44482736109751
 31
0.0
  0
ARC
  5
199BD
  8
AM_0
 10
856.53866832667279
 20
728.73661736109705
 30
0.0
 40
1.5017959999999979
 50
180.06854999999891
 51
269.93145000000101
  0
ARC
  5
199BE
  8
AM_0
 10
856.42325832667268
 20
733.77172736109696
 30
0.0
 40
1.506888
 50
194.8769300000055
 51
270.1377700000005
  0
ARC
  5
199BF
  8
AM_0
 10
853.0396483266727
 20
730.85761736109725
 30
0.0
 40
1.9972080000000001
 50
359.91986000000099
 51
90.080142999999566
  0
ARC
  5
199C0
  8
AM_0
 10
853.04049832667249
 20
728.82844736109723
 30
0.0
 40
1.996383999999999
 50
359.89615999999739
 51
90.103836999993419
  0
ARC
  5
199C1
  8
AM_0
 10
856.54074832667266
 20
732.13866736109696
 30
0.0
 40
1.503848099999999
 50
180.14640000000301
 51
269.85359999999702
  0
ARC
  5
199C2
  8
AM_0
 10
856.54257832667292
 20
723.45049736109695
 30
0.0
 40
1.505676
 50
180.21552999999901
 51
269.78448000000759
  0
LINE
  5
199C3
  8
AM_0
 10
882.53686832667199
 20
684.11485736109739
 30
0.0
 11
878.25689832667263
 21
684.11485736109751
 31
0.0
  0
LINE
  5
199C4
  8
AM_0
 10
877.03692832667241
 20
684.96484736109744
 30
0.0
 11
880.03692832667207
 21
684.96484736109744
 31
0.0
  0
LINE
  5
199C5
  8
AM_0
 10
877.03692832667241
 20
682.96483736109735
 30
0.0
 11
880.03692832667207
 21
682.96483736109735
 31
0.0
  0
LINE
  5
199C6
  8
AM_0
 10
877.03692832667241
 20
694.96483736109735
 30
0.0
 11
880.03692832667207
 21
694.96483736109735
 31
0.0
  0
LINE
  5
199C7
  8
AM_0
 10
877.03692832667241
 20
692.96484736109744
 30
0.0
 11
880.03692832667207
 21
692.96484736109744
 31
0.0
  0
LINE
  5
199C8
  8
AM_0
 10
879.22692832667235
 20
704.57486736109752
 30
0.0
 11
880.42693832667214
 21
704.06486736109753
 31
0.0
  0
LINE
  5
199C9
  8
AM_0
 10
879.17687832667195
 20
702.66484736109749
 30
0.0
 11
880.32690832667254
 21
702.31483736109737
 31
0.0
  0
LINE
  5
199CA
  8
AM_0
 10
879.27691832667244
 20
716.46484736109744
 30
0.0
 11
880.55694832667223
 21
715.69485736109743
 31
0.0
  0
LINE
  5
199CB
  8
AM_0
 10
879.28692832667207
 20
711.92480736109746
 30
0.0
 11
880.58691832667216
 21
711.07481736109742
 31
0.0
  0
LINE
  5
199CC
  8
AM_0
 10
879.26690832667248
 20
710.81482736109717
 30
0.0
 11
880.54693832667226
 21
710.0648273610974
 31
0.0
  0
LINE
  5
199CD
  8
AM_0
 10
879.24688832667209
 20
717.46487736109725
 30
0.0
 11
880.4868783266719
 21
716.8348773610976
 31
0.0
  0
LINE
  5
199CE
  8
AM_0
 10
879.25689832667251
 20
715.35486736109726
 30
0.0
 11
880.50695832667225
 21
714.68486736109742
 31
0.0
  0
LINE
  5
199CF
  8
AM_0
 10
877.03692832667241
 20
662.96484736109744
 30
0.0
 11
880.03692832667207
 21
662.96484736109744
 31
0.0
  0
LINE
  5
199D0
  8
AM_0
 10
877.03692832667241
 20
664.96483736109747
 30
0.0
 11
880.03692832667207
 21
664.96483736109747
 31
0.0
  0
LINE
  5
199D1
  8
AM_0
 10
877.03692832667241
 20
674.96484736109744
 30
0.0
 11
880.03692832667207
 21
674.96484736109744
 31
0.0
  0
LINE
  5
199D2
  8
AM_0
 10
877.03692832667241
 20
672.96484736109744
 30
0.0
 11
880.03692832667207
 21
672.96484736109744
 31
0.0
  0
LINE
  5
199D3
  8
AM_0
 10
881.03686832667211
 20
716.98485736109717
 30
0.0
 11
881.03686832667211
 21
673.96483736109735
 31
0.0
  0
ARC
  5
199D4
  8
AM_0
 10
880.04211832667283
 20
710.24244736109722
 30
0.0
 40
0.9948279899999999
 50
359.56186999999977
 51
56.795310000000541
  0
ARC
  5
199D5
  8
AM_0
 10
880.04369832667271
 20
713.80627736109727
 30
0.0
 40
0.9932120399999999
 50
359.91816999999918
 51
62.200660000010139
  0
ARC
  5
199D6
  8
AM_0
 10
880.04369832667271
 20
716.98276736109722
 30
0.0
 40
0.99319202
 50
0.1204399999996219
 51
60.226600000010528
  0
ARC
  5
199D7
  8
AM_0
 10
880.04131832667281
 20
715.94453736109722
 30
0.0
 40
0.99558806
 50
0.0177499999989372
 51
63.41251000000279
  0
ARC
  5
199D8
  8
AM_0
 10
880.04247832667249
 20
714.84381736109731
 30
0.0
 40
0.9944360299999999
 50
0.0595100000006976
 51
58.847829999992172
  0
ARC
  5
199D9
  8
AM_0
 10
880.04052832667264
 20
703.14642736109715
 30
0.0
 40
0.99640006
 50
359.90960000000132
 51
67.18261000000129
  0
ARC
  5
199DA
  8
AM_0
 10
880.04284832667281
 20
709.2080473610971
 30
0.0
 40
0.99407601
 50
359.81535999999909
 51
59.530799999997029
  0
ARC
  5
199DB
  8
AM_0
 10
880.04064832667279
 20
701.36059736109723
 30
0.0
 40
0.9962600499999998
 50
359.66950999999978
 51
73.302510000000041
  0
LINE
  5
199DC
  8
AM_0
 10
882.53692832667241
 20
688.96486736109716
 30
0.0
 11
881.03692832667207
 21
689.09486736109727
 31
0.0
  0
ARC
  5
199DD
  8
AM_0
 10
880.04186832667256
 20
693.96977736109704
 30
0.0
 40
0.9950800499999999
 50
359.7159300000007
 51
90.284078999992232
  0
ARC
  5
199DE
  8
AM_0
 10
880.03674832667286
 20
693.96506736109723
 30
0.0
 40
1.0002040000000001
 50
270.01168000000581
 51
359.9883299999953
  0
ARC
  5
199DF
  8
AM_0
 10
880.04186832667256
 20
683.96975736109721
 30
0.0
 40
0.99508399
 50
359.71612999999547
 51
90.283866999995979
  0
ARC
  5
199E0
  8
AM_0
 10
880.03674832667286
 20
683.96504736109728
 30
0.0
 40
1.000199999999998
 50
270.0114700000064
 51
359.98853000000008
  0
LINE
  5
199E1
  8
AM_0
 10
882.53686832667199
 20
686.2448473610973
 30
0.0
 11
881.03686832667211
 21
686.24484736109741
 31
0.0
  0
LINE
  5
199E2
  8
AM_0
 10
883.03076832667205
 20
686.95660736109721
 30
0.0
 11
882.53076832667205
 21
686.91659736109705
 31
0.0
  0
LINE
  5
199E3
  8
AM_0
 10
883.5307683266725
 20
684.18658736109728
 30
0.0
 11
883.03076832667205
 21
686.95660736109721
 31
0.0
  0
ARC
  5
199E4
  8
AM_0
 10
880.04186832667256
 20
673.96977736109704
 30
0.0
 40
0.9950879799999999
 50
359.71634999999952
 51
90.283654999990674
  0
ARC
  5
199E5
  8
AM_0
 10
880.03674832667286
 20
673.96504736109716
 30
0.0
 40
1.0001959999999981
 50
270.01125999999419
 51
359.98875000000061
  0
ARC
  5
199E6
  8
AM_0
 10
880.04186832667256
 20
663.96977736109704
 30
0.0
 40
0.9950800499999999
 50
359.71590000000032
 51
90.284105999990715
  0
POINT
  5
199E7
  8
AM_0
 10
883.53076832667193
 20
668.96481736109695
 30
0.0
  0
ARC
  5
199E8
  8
AM_0
 10
880.03674832667286
 20
663.96506736109723
 30
0.0
 40
1.0002040000000001
 50
270.01169999999519
 51
359.98829999999828
  0
LINE
  5
199E9
  8
AM_0
 10
831.03689832667226
 20
715.31481736109743
 30
0.0
 11
866.03689832667226
 21
713.28481736109745
 31
0.0
  0
ARC
  5
199EA
  8
AM_0
 10
854.03689832667249
 20
703.96482736109715
 30
0.0
 40
1.0000040999999991
 50
270.0
 51
89.999997000002296
  0
ARC
  5
199EB
  8
AM_0
 10
861.48684832667266
 20
703.96482736109715
 30
0.0
 40
1.0000040999999991
 50
270.0
 51
89.999997000002296
  0
ARC
  5
199EC
  8
AM_0
 10
862.35690832667296
 20
704.00982736109722
 30
0.0
 40
1.6750081000000001
 50
270.0
 51
89.999997000002296
  0
LINE
  5
199ED
  8
AM_0
 10
876.03689832667214
 20
703.27482736109744
 30
0.0
 11
866.03689832667226
 21
703.27482736109744
 31
0.0
  0
LINE
  5
199EE
  8
AM_0
 10
876.03689832667214
 20
717.31481736109743
 30
0.0
 11
866.03689832667226
 21
717.31481736109743
 31
0.0
  0
LINE
  5
199EF
  8
AM_0
 10
876.03689832667214
 20
711.65482736109755
 30
0.0
 11
866.03689832667226
 21
711.65482736109755
 31
0.0
  0
ARC
  5
199F0
  8
AM_0
 10
877.03930832667265
 20
709.95247736109729
 30
0.0
 40
1.002375999999999
 50
90.135590000000704
 51
179.864408009996
  0
ARC
  5
199F1
  8
AM_0
 10
878.80181832667267
 20
714.46948736109721
 30
0.0
 40
0.99546796
 50
62.796339999992668
 51
90.858551999991917
  0
ARC
  5
199F2
  8
AM_0
 10
877.03588832667276
 20
714.46583736109721
 30
0.0
 40
0.9990080599999998
 50
89.943157000003893
 51
180.05685000000281
  0
LINE
  5
199F3
  8
AM_0
 10
878.78686832667199
 20
715.46484736109744
 30
0.0
 11
877.03692832667241
 21
715.46484736109744
 31
0.0
  0
ARC
  5
199F4
  8
AM_0
 10
878.73028832667251
 20
711.09865736109714
 30
0.0
 40
0.9962120099999999
 50
56.030099999999067
 51
89.618093999991586
  0
ARC
  5
199F5
  8
AM_0
 10
878.75750832667279
 20
709.9583673610972
 30
0.0
 40
0.9965200400000001
 50
59.256719999997742
 51
89.458787000007035
  0
LINE
  5
199F6
  8
AM_0
 10
878.7368783266719
 20
712.09485736109741
 30
0.0
 11
876.03692832667241
 21
712.09485736109741
 31
0.0
  0
LINE
  5
199F7
  8
AM_0
 10
878.76690832667236
 20
710.95483736109759
 30
0.0
 11
877.03692832667241
 21
710.95483736109759
 31
0.0
  0
LINE
  5
199F8
  8
AM_0
 10
879.03692832667218
 20
711.79483736109739
 30
0.0
 11
879.03692832667218
 21
711.32484736109745
 31
0.0
  0
ARC
  5
199F9
  8
AM_0
 10
878.81213832667254
 20
716.57081736109728
 30
0.0
 40
0.9941280500000002
 50
64.065190000002104
 51
90.877191999991496
  0
ARC
  5
199FA
  8
AM_0
 10
878.76806832667262
 20
715.61064736109722
 30
0.0
 40
0.9942600099999999
 50
59.218910000004961
 51
90.644117999997505
  0
ARC
  5
199FB
  8
AM_0
 10
876.53527832667271
 20
717.0664873610973
 30
0.0
 40
0.4983640000000002
 50
89.811401999992626
 51
180.18859000000489
  0
LINE
  5
199FC
  8
AM_0
 10
878.75689832667251
 20
716.60483736109745
 30
0.0
 11
876.03692832667241
 21
716.60483736109745
 31
0.0
  0
LINE
  5
199FD
  8
AM_0
 10
878.79693832667226
 20
717.56483736109726
 30
0.0
 11
876.53686832667211
 21
717.56483736109726
 31
0.0
  0
LINE
  5
199FE
  8
AM_0
 10
879.03692832667218
 20
716.36485736109739
 30
0.0
 11
879.03692832667218
 21
715.81485736109755
 31
0.0
  0
ARC
  5
199FF
  8
AM_0
 10
878.83593832667225
 20
703.65936736109722
 30
0.0
 40
0.99548006
 50
66.872970000004372
 51
89.942679000007757
  0
ARC
  5
19A00
  8
AM_0
 10
876.74145832667273
 20
705.35939736109731
 30
0.0
 40
0.7045519900000002
 50
180.36910999999949
 51
269.63089000000701
  0
LINE
  5
19A01
  8
AM_0
 10
878.83691832667216
 20
704.65484736109738
 30
0.0
 11
876.73693832667209
 21
704.65484736109738
 31
0.0
  0
LINE
  5
19A02
  8
AM_0
 10
879.03692832667218
 20
704.35484736109754
 30
0.0
 11
879.03692832667218
 21
703.2948473610976
 31
0.0
  0
ARC
  5
19A03
  8
AM_0
 10
862.8869983266726
 20
710.17498736109724
 30
0.0
 40
1.004135999999999
 50
134.2025639999982
 51
185.15116000000421
  0
LINE
  5
19A04
  8
AM_0
 10
866.03689832667226
 20
717.31481736109743
 30
0.0
 11
866.03689832667226
 21
703.27482736109744
 31
0.0
  0
ARC
  5
19A05
  8
AM_0
 10
866.41568832667269
 20
706.63288736109712
 30
0.0
 40
6.0039081999999979
 50
93.61728599999789
 51
134.7763070000052
  0
ARC
  5
19A06
  8
AM_0
 10
866.87198832667264
 20
710.56260736109721
 30
0.0
 40
5.0078917000000001
 50
185.47467999999949
 51
260.40128000000527
  0
ARC
  5
19A07
  8
AM_0
 10
877.04180832667282
 20
695.96975736109721
 30
0.0
 40
1.0049318999999981
 50
180.28041999999689
 51
269.71958000000308
  0
ARC
  5
19A08
  8
AM_0
 10
878.89776832667235
 20
701.71213736109701
 30
0.0
 40
0.99277198
 50
73.668180000000461
 51
90.625191999999927
  0
ARC
  5
19A09
  8
AM_0
 10
877.03521832667275
 20
701.70654736109714
 30
0.0
 40
0.99829602
 50
89.902039000000997
 51
180.09796000000259
  0
LINE
  5
19A0A
  8
AM_0
 10
878.88689832667217
 20
702.70483736109725
 30
0.0
 11
877.03692832667241
 21
702.70483736109725
 31
0.0
  0
LINE
  5
19A0B
  8
AM_0
 10
879.03692832667218
 20
694.59485736109752
 30
0.0
 11
879.03692832667218
 21
693.22485736109741
 31
0.0
  0
ARC
  5
19A0C
  8
AM_0
 10
877.03674832667275
 20
691.96499736109718
 30
0.0
 40
0.99985206
 50
89.991453000004398
 51
180.00854999999979
  0
ARC
  5
19A0D
  8
AM_0
 10
862.57687832667261
 20
693.98983736109722
 30
0.0
 40
1.4650000000000001
 50
270.0
 51
89.999997000002296
  0
ARC
  5
19A0E
  8
AM_0
 10
861.48684832667266
 20
693.96482736109715
 30
0.0
 40
1.0000040999999991
 50
270.0
 51
89.999997000002296
  0
ARC
  5
19A0F
  8
AM_0
 10
854.03689832667249
 20
693.96482736109715
 30
0.0
 40
1.0000040999999991
 50
270.0
 51
89.999997000002296
  0
ARC
  5
19A10
  8
ｶｸﾚｾﾝ2
 10
825.53692832667286
 20
697.4648473610971
 30
0.0
 40
3.0
 50
0.0
 51
90.0
  0
ARC
  5
19A11
  8
AM_0
 10
877.03674832667275
 20
671.96499736109695
 30
0.0
 40
0.99984801
 50
89.991221000001829
 51
180.00877999999949
  0
ARC
  5
19A12
  8
AM_0
 10
871.70688832667304
 20
683.97483736109712
 30
0.0
 40
1.3300000000000001
 50
270.0
 51
89.999997000002296
  0
ARC
  5
19A13
  8
AM_0
 10
877.03674832667275
 20
681.9649873610972
 30
0.0
 40
0.9998440099999999
 50
89.991009000001426
 51
180.00898999999711
  0
LINE
  5
19A14
  8
AM_0
 10
879.03692832667218
 20
684.57483736109759
 30
0.0
 11
879.03692832667218
 21
683.36485736109728
 31
0.0
  0
ARC
  5
19A15
  8
AM_0
 10
877.04180832667282
 20
685.96975736109721
 30
0.0
 40
1.004928
 50
180.2802199999997
 51
269.71978000000678
  0
ARC
  5
19A16
  8
AM_0
 10
870.48556832667282
 20
683.9648473610971
 30
0.0
 40
1.000035999999999
 50
269.50071000000491
 51
90.499283999993366
  0
ARC
  5
19A17
  8
AM_0
 10
871.76687832667267
 20
673.96981736109728
 30
0.0
 40
1.265004
 50
270.0
 51
89.999997000002296
  0
LINE
  5
19A18
  8
AM_0
 10
879.03692832667218
 20
674.57484736109757
 30
0.0
 11
879.03692832667218
 21
673.41482736109754
 31
0.0
  0
ARC
  5
19A19
  8
AM_0
 10
877.04180832667282
 20
675.96974736109723
 30
0.0
 40
1.0049238999999981
 50
180.2800099999962
 51
269.71998999999721
  0
ARC
  5
19A1A
  8
AM_0
 10
870.48556832667282
 20
673.96482736109715
 30
0.0
 40
1.000035999999999
 50
269.50071000000491
 51
90.499283999993366
  0
ARC
  5
19A1B
  8
AM_0
 10
854.03689832667249
 20
683.9648473610971
 30
0.0
 40
1.0000040999999991
 50
270.0
 51
89.999997000002296
  0
ARC
  5
19A1C
  8
AM_0
 10
854.03689832667249
 20
673.96482736109715
 30
0.0
 40
1.0000040999999991
 50
270.0
 51
89.999997000002296
  0
ARC
  5
19A1D
  8
AM_0
 10
870.48556832667282
 20
663.96482736109715
 30
0.0
 40
1.000035999999999
 50
269.50071000000491
 51
90.499283999993366
  0
ARC
  5
19A1E
  8
AM_0
 10
877.04186832667256
 20
665.96976736109696
 30
0.0
 40
1.0049318999999981
 50
180.280450000001
 51
269.71955000000548
  0
ARC
  5
19A1F
  8
AM_0
 10
871.76687832667267
 20
663.96482736109715
 30
0.0
 40
1.270003999999999
 50
270.0
 51
89.999997000002296
  0
LINE
  5
19A20
  8
AM_0
 10
879.03692832667218
 20
663.35483736109768
 30
0.0
 11
879.03692832667218
 21
664.51485736109726
 31
0.0
  0
ARC
  5
19A21
  8
AM_0
 10
877.03674832667275
 20
661.96499736109729
 30
0.0
 40
0.99985206
 50
89.991425999998739
 51
180.00857000000201
  0
ARC
  5
19A22
  8
AM_0
 10
854.03689832667249
 20
663.96482736109715
 30
0.0
 40
1.0000040999999991
 50
270.0
 51
89.999997000002296
  0
LINE
  5
19A23
  8
AM_0
 10
879.26690832667248
 20
619.35487836109746
 30
0.0
 11
880.53692832667241
 21
620.08487436109738
 31
0.0
  0
LINE
  5
19A24
  8
AM_0
 10
879.2469483266724
 20
620.47487336109737
 30
0.0
 11
880.48693832667254
 21
621.10487136109725
 31
0.0
  0
LINE
  5
19A25
  8
AM_0
 10
879.28692832667207
 20
626.00485736109738
 30
0.0
 11
880.58691832667216
 21
626.8548633610975
 31
0.0
  0
LINE
  5
19A26
  8
AM_0
 10
879.27691832667244
 20
621.46487936109759
 30
0.0
 11
880.55694832667223
 21
622.23489136109754
 31
0.0
  0
LINE
  5
19A27
  8
AM_0
 10
879.26690832667248
 20
627.11486536109749
 30
0.0
 11
880.54687832667196
 21
627.86485036109718
 31
0.0
  0
LINE
  5
19A28
  8
AM_0
 10
879.25689832667251
 20
622.58484436109745
 30
0.0
 11
880.50689832667251
 21
623.24483236109756
 31
0.0
  0
LINE
  5
19A29
  8
AM_0
 10
879.22692832667235
 20
633.35487136109748
 30
0.0
 11
880.42687832667207
 21
633.87483736109743
 31
0.0
  0
LINE
  5
19A2A
  8
AM_0
 10
879.17687832667195
 20
635.26486736109769
 30
0.0
 11
880.32690832667254
 21
635.62486736109736
 31
0.0
  0
LINE
  5
19A2B
  8
AM_0
 10
882.53686832667199
 20
653.81483736109715
 30
0.0
 11
877.95690832667196
 21
653.81483736109715
 31
0.0
  0
LINE
  5
19A2C
  8
AM_0
 10
877.03692832667241
 20
642.96485736109742
 30
0.0
 11
880.03692832667207
 21
642.96485736109742
 31
0.0
  0
LINE
  5
19A2D
  8
AM_0
 10
877.03692832667241
 20
644.96484736109744
 30
0.0
 11
880.03692832667207
 21
644.96484736109744
 31
0.0
  0
LINE
  5
19A2E
  8
AM_0
 10
877.03692832667241
 20
652.96483736109735
 30
0.0
 11
880.03692832667207
 21
652.96483736109735
 31
0.0
  0
LINE
  5
19A2F
  8
AM_0
 10
877.03692832667241
 20
654.96485736109742
 30
0.0
 11
880.03692832667207
 21
654.96485736109742
 31
0.0
  0
LINE
  5
19A30
  8
AM_0
 10
882.53686832667199
 20
651.68484736109724
 30
0.0
 11
881.03686832667211
 21
651.68484736109735
 31
0.0
  0
LINE
  5
19A31
  8
AM_0
 10
883.03076832667205
 20
650.97299736109676
 30
0.0
 11
882.53073832667212
 21
651.01300736109715
 31
0.0
  0
ARC
  5
19A32
  8
AM_0
 10
880.03674832667286
 20
653.96505736109725
 30
0.0
 40
1.000199999999998
 50
270.01148999999577
 51
359.98849999999652
  0
LINE
  5
19A33
  8
AM_0
 10
883.5307683266725
 20
653.74298736109722
 30
0.0
 11
883.03076832667205
 21
650.97299736109676
 31
0.0
  0
ARC
  5
19A34
  8
AM_0
 10
880.04186832667256
 20
653.96976736109696
 30
0.0
 40
0.99508399
 50
359.71611000000212
 51
90.283893999993964
  0
ARC
  5
19A35
  8
AM_0
 10
880.03674832667286
 20
643.96504736109716
 30
0.0
 40
1.0001959999999981
 50
270.01127999999659
 51
359.98871999999687
  0
ARC
  5
19A36
  8
AM_0
 10
880.04186832667256
 20
643.96978736109713
 30
0.0
 40
0.99508399
 50
359.71632000000022
 51
90.283675999997385
  0
LINE
  5
19A37
  8
AM_0
 10
882.53686832667199
 20
648.96484736109721
 30
0.0
 11
881.03692832667207
 21
648.83484736109745
 31
0.0
  0
ARC
  5
19A38
  8
AM_0
 10
880.04040832667249
 20
634.79331736109725
 30
0.0
 40
0.9964760499999998
 50
292.8203400000001
 51
0.0874199999992698
  0
ARC
  5
19A39
  8
AM_0
 10
880.04052832667264
 20
636.57919036109729
 30
0.0
 40
0.9963800299999999
 50
286.70293000000493
 51
359.75050999999979
  0
ARC
  5
19A3A
  8
AM_0
 10
880.0378383266725
 20
627.68953436109723
 30
0.0
 40
0.9991000299999999
 50
303.33823000001212
 51
0.3045799999989818
  0
ARC
  5
19A3B
  8
AM_0
 10
880.03844832667255
 20
628.72414936109715
 30
0.0
 40
0.9984599899999999
 50
300.61344999999829
 51
0.0403800000005283
  0
ARC
  5
19A3C
  8
AM_0
 10
880.03918832667239
 20
624.1261413610971
 30
0.0
 40
0.99770796
 50
297.95524000000631
 51
359.9259500000004
  0
ARC
  5
19A3D
  8
AM_0
 10
880.04125832667251
 20
621.99520636109696
 30
0.0
 40
0.99566799
 50
296.59016999999119
 51
359.97956999999923
  0
ARC
  5
19A3E
  8
AM_0
 10
880.03930832667265
 20
620.94951336109705
 30
0.0
 40
0.9976240400000001
 50
299.92046000000192
 51
359.73248999999612
  0
ARC
  5
19A3F
  8
AM_0
 10
880.03814832667285
 20
623.08834536109725
 30
0.0
 40
0.9987800700000001
 50
301.2914500000083
 51
0.3733299999998518
  0
ARC
  5
19A40
  8
AM_0
 10
866.40664832667278
 20
631.31133736109723
 30
0.0
 40
6.007896399999999
 50
225.38273000000569
 51
266.47155000000168
  0
LINE
  5
19A41
  8
AM_0
 10
866.03689832667226
 20
620.61483736109744
 30
0.0
 11
866.03689832667226
 21
632.30483774896607
 31
0.0
  0
ARC
  5
19A42
  8
AM_0
 10
877.03674832667275
 20
641.96500736109715
 30
0.0
 40
0.99984801
 50
89.991193000001289
 51
180.00881000000291
  0
ARC
  5
19A43
  8
AM_0
 10
871.70688832667304
 20
653.95484736109688
 30
0.0
 40
1.3300000000000001
 50
270.0
 51
89.999997000002296
  0
LINE
  5
19A44
  8
AM_0
 10
879.03692832667218
 20
653.35485736109752
 30
0.0
 11
879.03692832667218
 21
654.57483736109725
 31
0.0
  0
ARC
  5
19A45
  8
AM_0
 10
877.03674832667275
 20
651.96499736109695
 30
0.0
 40
0.9998440099999999
 50
89.990982000008856
 51
180.0090200000005
  0
ARC
  5
19A46
  8
AM_0
 10
877.04180832667282
 20
655.96975736109709
 30
0.0
 40
1.004928
 50
180.28023999999991
 51
269.71976000000001
  0
ARC
  5
19A47
  8
AM_0
 10
870.48556832667282
 20
653.9648473610971
 30
0.0
 40
1.000035999999999
 50
269.50071000000491
 51
90.499283999993366
  0
ARC
  5
19A48
  8
AM_0
 10
871.57687832667261
 20
643.94482736109705
 30
0.0
 40
1.4599999999999991
 50
270.0
 51
89.999997000002296
  0
LINE
  5
19A49
  8
AM_0
 10
879.03692832667218
 20
643.33484736109745
 30
0.0
 11
879.03692832667218
 21
644.70483736109725
 31
0.0
  0
ARC
  5
19A4A
  8
AM_0
 10
877.04180832667282
 20
645.96975736109721
 30
0.0
 40
1.0049238999999981
 50
180.28002999999609
 51
269.7199600000007
  0
ARC
  5
19A4B
  8
AM_0
 10
870.48684832667266
 20
643.96483736109712
 30
0.0
 40
1.0000040999999991
 50
270.0
 51
89.999997000002296
  0
ARC
  5
19A4C
  8
AM_0
 10
854.03689832667249
 20
653.9648473610971
 30
0.0
 40
1.0000040999999991
 50
270.0
 51
89.999997000002296
  0
ARC
  5
19A4D
  8
AM_0
 10
854.03689832667249
 20
643.96483736109712
 30
0.0
 40
1.0000040999999991
 50
270.0
 51
89.999997000002296
  0
ARC
  5
19A4E
  8
AM_0
 10
870.48684569675095
 20
633.9648303110971
 30
0.0
 40
1.000007050003423
 50
270.00015068234609
 51
89.999849317653869
  0
LINE
  5
19A4F
  8
AM_0
 10
879.03692832667218
 20
633.5748413610977
 30
0.0
 11
879.03692832667218
 21
634.63483936109753
 31
0.0
  0
ARC
  5
19A50
  8
AM_0
 10
871.35690832667296
 20
633.91982736109696
 30
0.0
 40
1.6750081000000001
 50
270.0
 51
89.999997000002296
  0
LINE
  5
19A51
  8
AM_0
 10
876.03689832667214
 20
634.66483736109751
 30
0.0
 11
872.86685832667217
 21
634.66483736109751
 31
0.0
  0
ARC
  5
19A52
  8
AM_0
 10
877.04021832667274
 20
636.22820036109715
 30
0.0
 40
1.003363999999999
 50
180.1917200000035
 51
269.80829000000779
  0
ARC
  5
19A53
  8
AM_0
 10
878.89635832667284
 20
636.22753636109724
 30
0.0
 40
1.0027280000000001
 50
269.45959999999411
 51
286.24702999999818
  0
LINE
  5
19A54
  8
AM_0
 10
878.88689832667217
 20
635.22485136109742
 30
0.0
 11
877.03692832667241
 21
635.22485136109742
 31
0.0
  0
ARC
  5
19A55
  8
AM_0
 10
878.77355832667263
 20
627.98584536109718
 30
0.0
 40
1.001012
 50
269.61979999998982
 51
299.5286399999909
  0
ARC
  5
19A56
  8
AM_0
 10
877.03936832667296
 20
627.98730936109723
 30
0.0
 40
1.0024599999999999
 50
180.14038000000539
 51
269.85962000000762
  0
LINE
  5
19A57
  8
AM_0
 10
878.76690832667236
 20
626.98485336109741
 30
0.0
 11
877.03692832667241
 21
626.98485336109741
 31
0.0
  0
ARC
  5
19A58
  8
AM_0
 10
876.73632832667261
 20
632.57540636109729
 30
0.0
 40
0.69944
 50
89.954159999993266
 51
180.04584000000011
  0
ARC
  5
19A59
  8
AM_0
 10
878.83392832667266
 20
634.28007236109715
 30
0.0
 40
1.005223999999999
 50
270.1706399999963
 51
293.01371000000171
  0
LINE
  5
19A5A
  8
AM_0
 10
878.83691832667216
 20
633.27484636109739
 30
0.0
 11
876.73693832667209
 21
633.27484636109739
 31
0.0
  0
ARC
  5
19A5B
  8
AM_0
 10
854.03689832667249
 20
633.96482736109715
 30
0.0
 40
1.0000040999999991
 50
270.0
 51
89.999997000002296
  0
ARC
  5
19A5C
  8
AM_0
 10
862.89035832667275
 20
627.75592736109695
 30
0.0
 40
1.007376
 50
174.93659510000259
 51
225.7096799999976
  0
ARC
  5
19A5D
  8
AM_0
 10
866.86667832667263
 20
627.37195736109697
 30
0.0
 40
5.0021839000000003
 50
99.548574999998323
 51
174.57547400000229
  0
ARC
  5
19A5E
  8
ｶｸﾚｾﾝ2
 10
825.53692832667286
 20
640.46484736109721
 30
0.0
 40
3.0
 50
270.0
 51
0.0
  0
LINE
  5
19A5F
  8
AM_0
 10
831.03683832667207
 20
622.61483736109744
 30
0.0
 11
866.03683832667252
 21
624.64483736109753
 31
0.0
  0
LINE
  5
19A60
  8
AM_0
 10
855.03689832667214
 20
607.07482936109761
 30
0.0
 11
855.03689832667214
 21
614.48483236109735
 31
0.0
  0
ARC
  5
19A61
  8
AM_0
 10
869.86496832667262
 20
612.70053836109707
 30
0.0
 40
1.995695899999999
 50
270.05521999999718
 51
347.97746999999998
  0
LINE
  5
19A62
  8
AM_0
 10
876.03689832667214
 20
611.53482836109754
 30
0.0
 11
873.21689832667209
 21
611.4648283610976
 31
0.0
  0
ARC
  5
19A63
  8
AM_0
 10
874.20193832667269
 20
610.34305536109696
 30
0.0
 40
1.501779999999999
 50
89.810617000007355
 51
165.66716400000089
  0
LINE
  5
19A64
  8
AM_0
 10
871.8468983266722
 20
608.83482336109762
 30
0.0
 11
872.76693832667218
 21
612.7148203610974
 31
0.0
  0
LINE
  5
19A65
  8
AM_0
 10
869.80691832667219
 20
615.98483236109735
 30
0.0
 11
856.53689832667214
 21
615.98483236109735
 31
0.0
  0
LINE
  5
19A66
  8
AM_0
 10
876.03689832667214
 20
620.61483736109744
 30
0.0
 11
866.03689832667226
 21
620.61483736109744
 31
0.0
  0
LINE
  5
19A67
  8
AM_0
 10
876.03689832667214
 20
626.27483736109741
 30
0.0
 11
866.03689832667226
 21
626.27483736109741
 31
0.0
  0
LINE
  5
19A68
  8
AM_0
 10
872.31686832667219
 20
620.61483736109744
 30
0.0
 11
871.77682832667244
 21
617.62481636109726
 31
0.0
  0
ARC
  5
19A69
  8
AM_0
 10
876.53649832667259
 20
618.71528336109714
 30
0.0
 40
0.49955601
 50
89.949105999995879
 51
180.0508899999968
  0
ARC
  5
19A6A
  8
AM_0
 10
878.75622832667295
 20
620.21592436109722
 30
0.0
 40
1.001135899999998
 50
270.61249000000061
 51
300.67200000000531
  0
ARC
  5
19A6B
  8
AM_0
 10
878.79107832667285
 20
621.36411036109712
 30
0.0
 40
0.99928796
 50
270.33380999999213
 51
297.13872999999433
  0
ARC
  5
19A6C
  8
AM_0
 10
876.54034832667276
 20
620.86823736109716
 30
0.0
 40
0.50340396
 50
180.3861300000047
 51
269.6138699999953
  0
LINE
  5
19A6D
  8
AM_0
 10
878.76690832667236
 20
619.21484136109746
 30
0.0
 11
876.53686832667211
 21
619.21484136109746
 31
0.0
  0
LINE
  5
19A6E
  8
AM_0
 10
878.79693832667226
 20
620.36485836109739
 30
0.0
 11
876.53686832667211
 21
620.36485836109739
 31
0.0
  0
LINE
  5
19A6F
  8
AM_0
 10
879.03692832667218
 20
619.46484836109755
 30
0.0
 11
879.03692832667218
 21
619.99484736109741
 31
0.0
  0
ARC
  5
19A70
  8
AM_0
 10
878.76556832667245
 20
622.32850436109732
 30
0.0
 40
1.003687999999999
 50
269.5072500000025
 51
300.62972999999192
  0
LINE
  5
19A71
  8
AM_0
 10
878.75689832667251
 20
621.32485736109754
 30
0.0
 11
876.03692832667241
 21
621.32485736109754
 31
0.0
  0
LINE
  5
19A72
  8
AM_0
 10
878.78686832667199
 20
622.46484836109744
 30
0.0
 11
877.03692832667241
 21
622.46484836109744
 31
0.0
  0
LINE
  5
19A73
  8
AM_0
 10
879.03692832667218
 20
621.56483936109726
 30
0.0
 11
879.03692832667218
 21
622.11484236109743
 31
0.0
  0
ARC
  5
19A74
  8
AM_0
 10
878.78173832667267
 20
623.46547436109722
 30
0.0
 40
1.0006280000000001
 50
270.29529000000059
 51
298.35013999999779
  0
ARC
  5
19A75
  8
AM_0
 10
877.04095832667281
 20
623.46893036109714
 30
0.0
 40
1.004083999999998
 50
180.23263000000361
 51
269.76736999999639
  0
ARC
  5
19A76
  8
AM_0
 10
878.74413832667267
 20
626.84534936109731
 30
0.0
 40
1.0005360000000001
 50
269.58677999999787
 51
302.8536000000081
  0
LINE
  5
19A77
  8
AM_0
 10
878.7368783266719
 20
625.84483836109735
 30
0.0
 11
876.03692832667241
 21
625.84483836109735
 31
0.0
  0
LINE
  5
19A78
  8
AM_0
 10
879.03692832667218
 20
626.13485436109727
 30
0.0
 11
879.03692832667218
 21
626.60484036109744
 31
0.0
  0
LINE
  5
19A79
  8
AM_0
 10
874.2068883266719
 20
611.84484036109745
 30
0.0
 11
872.55685832667223
 21
611.84484036109745
 31
0.0
  0
LINE
  5
19A7A
  8
AM_0
 10
874.22690832667251
 20
613.86483736109744
 30
0.0
 11
872.16690832667211
 21
613.86483736109744
 31
0.0
  0
ARC
  5
19A7B
  8
AM_0
 10
874.22256832667267
 20
612.36849936109707
 30
0.0
 40
1.4963319999999991
 50
89.835409999992677
 51
166.61756199999891
  0
LINE
  5
19A7C
  8
AM_0
 10
874.24692832667245
 20
617.93483736109749
 30
0.0
 11
871.82687832667204
 21
617.93483736109749
 31
0.0
  0
ARC
  5
19A7D
  8
AM_0
 10
874.24673832667258
 20
616.43204436109716
 30
0.0
 40
1.5027881000000001
 50
89.995331999996594
 51
167.98665799999779
  0
ARC
  5
19A7E
  8
AM_0
 10
869.80990832667271
 20
617.98445836109715
 30
0.0
 40
1.9996280999999989
 50
269.91466999999358
 51
349.63923999999781
  0
LINE
  5
19A7F
  8
AM_0
 10
871.81686832667208
 20
612.28482836109754
 30
0.0
 11
872.77688832667206
 21
616.74484236109754
 31
0.0
  0
ARC
  5
19A80
  8
AM_0
 10
856.5372683266728
 20
614.48446636109725
 30
0.0
 40
1.5003600999999991
 50
90.013814999999965
 51
179.9861839999985
  0
LINE
  5
19A81
  8
AM_0
 10
869.89688832667218
 20
607.29483036109752
 30
0.0
 11
856.53689832667214
 21
607.29483036109752
 31
0.0
  0
LINE
  5
19A82
  8
AM_0
 10
869.92691832667197
 20
605.66482536109754
 30
0.0
 11
856.42691832667197
 21
605.66482536109754
 31
0.0
  0
LINE
  5
19A83
  8
AM_0
 10
869.86685832667206
 20
610.70482636109762
 30
0.0
 11
856.53689832667214
 21
610.70482636109762
 31
0.0
  0
ARC
  5
19A84
  8
AM_0
 10
869.89895832667298
 20
609.29676836109707
 30
0.0
 40
2.001947899999998
 50
269.94051999999238
 51
346.6588600000016
  0
ARC
  5
19A85
  8
AM_0
 10
869.92447832667256
 20
607.66914336109721
 30
0.0
 40
2.0043239999999991
 50
270.06890999999462
 51
345.72195000000022
  0
LINE
  5
19A86
  8
AM_0
 10
871.86685832667206
 20
607.17484236109749
 30
0.0
 11
872.74685832667217
 21
610.71484336109745
 31
0.0
  0
ARC
  5
19A87
  8
AM_0
 10
853.03579832667276
 20
605.0512613610972
 30
0.0
 40
1.996427999999999
 50
270.03238999999547
 51
345.3053699999993
  0
ARC
  5
19A88
  8
AM_0
 10
853.0370883266728
 20
605.72465536109712
 30
0.0
 40
1.999824
 50
269.99494000000527
 51
0.0050600000012402
  0
ARC
  5
19A89
  8
AM_0
 10
856.53549832667272
 20
605.79627236109695
 30
0.0
 40
1.498559999999999
 50
89.944884999996916
 51
180.05511999999939
  0
ARC
  5
19A8A
  8
AM_0
 10
853.03439832667254
 20
607.07734636109706
 30
0.0
 40
2.0025157999999981
 50
270.0718999999998
 51
359.92810000000009
  0
ARC
  5
19A8B
  8
AM_0
 10
856.41818832667275
 20
604.1645503610971
 30
0.0
 40
1.5003120000000001
 50
89.668336999992533
 51
165.3169660000006
  0
ARC
  5
19A8C
  8
AM_0
 10
856.53842832667249
 20
609.20331536109688
 30
0.0
 40
1.5015080999999979
 50
90.057548999996854
 51
179.94245300200021
  0
ARC
  5
19A8D
  8
AM_0
 10
853.03525832667265
 20
609.10647536109718
 30
0.0
 40
2.001640099999999
 50
270.0469599999916
 51
359.95303999999533
  0
LINE
  5
19A8E
  8
ｶｸﾚｾﾝ2
 10
748.53692832667241
 20
640.46484736109744
 30
0.0
 11
748.53692832667241
 21
697.46484736109744
 31
0.0
  0
LINE
  5
19A8F
  8
ﾁｭｳｼﾝｾﾝ1
 10
780.03692832667241
 20
703.46484736109744
 30
0.0
 11
780.03692832667241
 21
634.46484736109744
 31
0.0
1001
GENIUS_GENODEF_13
1002
{
1000
HIER
1070
     0
1002
}
1002
{
1000
MANEDIT
1070
     0
1002
}
1002
{
1000
NOSEL
1070
     0
1002
}
1002
{
1000
BEHIND
1070
     0
1002
}
1002
{
1000
REACTOR
1002
}
1001
GENIUS_GENOBJ-N-CEN_13
1002
{
1000
OWNER
1000
GEN
1002
}
  0
LINE
  5
19A90
  8
AM_0
 10
729.03689832667226
 20
731.96484236109768
 30
0.0
 11
729.03689831047961
 21
605.96487338526265
 31
0.0
  0
LINE
  5
19A91
  8
AM_0
 10
734.29687832667196
 20
729.34483736109746
 30
0.0
 11
730.83688832667224
 21
716.42481736109755
 31
0.0
  0
ARC
  5
19A92
  8
AM_0
 10
800.03750832667265
 20
732.88421736109694
 30
0.0
 40
2.000623899999999
 50
90.017824000002122
 51
179.9821759990013
  0
ARC
  5
19A93
  8
AM_0
 10
800.03396832667283
 20
732.20774736109706
 30
0.0
 40
1.9970881
 50
89.916374999999235
 51
180.08362000000139
  0
ARC
  5
19A94
  8
AM_0
 10
800.03665832667275
 20
730.85509736109725
 30
0.0
 40
1.9997199999999991
 50
89.991937999993127
 51
180.00806000000401
  0
LINE
  5
19A95
  8
AM_0
 10
798.03689832667214
 20
732.88482736109745
 30
0.0
 11
798.03689832667214
 21
730.82482736109762
 31
0.0
  0
LINE
  5
19A96
  8
AM_0
 10
729.32687832667216
 20
720.00481736109759
 30
0.0
 11
731.73687832667201
 21
720.00481736109759
 31
0.0
  0
ARC
  5
19A97
  8
AM_0
 10
729.33105832667252
 20
721.50530736109715
 30
0.0
 40
1.500475999999999
 50
269.84172000000018
 51
347.66777000000133
  0
LINE
  5
19A98
  8
AM_0
 10
734.32690832667231
 20
729.4648273610976
 30
0.0
 11
729.03689832667226
 21
729.4648273610976
 31
0.0
  0
LINE
  5
19A99
  8
AM_0
 10
732.22690832667195
 20
727.88486736109735
 30
0.0
 11
730.78689832667214
 21
721.18487736109751
 31
0.0
  0
ARC
  5
19A9A
  8
AM_0
 10
734.18243832667235
 20
727.46465736109712
 30
0.0
 40
2.0001799999999981
 50
89.872484999995478
 51
167.87364800000211
  0
ARC
  5
19A9B
  8
AM_0
 10
736.22644832667265
 20
728.82702736109707
 30
0.0
 40
1.997795899999999
 50
89.98641899999636
 51
164.97840299999771
  0
LINE
  5
19A9C
  8
AM_0
 10
728.03689832667214
 20
732.96484236109768
 30
0.0
 11
720.03686832667211
 21
732.96484236109768
 31
0.0
  0
ARC
  5
19A9D
  8
AM_0
 10
728.04184832667272
 20
731.96980236109744
 30
0.0
 40
0.9950640200000001
 50
359.714940000002
 51
90.285061999993019
  0
LINE
  5
19A9E
  8
AM_0
 10
728.03689832667214
 20
721.00483736109743
 30
0.0
 11
720.03686832667211
 21
721.00483736109743
 31
0.0
  0
ARC
  5
19A9F
  8
AM_0
 10
728.04248832667281
 20
720.01044736109725
 30
0.0
 40
0.9944000200000001
 50
359.67649000000222
 51
90.323508999993479
  0
ARC
  5
19AA0
  8
ｶｸﾚｾﾝ2
 10
751.53692832667275
 20
697.4648473610971
 30
0.0
 40
3.0
 50
90.0
 51
180.0
  0
ARC
  5
19AA1
  8
AM_0
 10
735.69507832667296
 20
703.96482736109715
 30
0.0
 40
1.000031899999998
 50
90.469299999997844
 51
269.53070000000201
  0
ARC
  5
19AA2
  8
AM_0
 10
732.21689832667278
 20
704.00982736109722
 30
0.0
 40
1.675
 50
89.999997000002296
 51
270.0
  0
ARC
  5
19AA3
  8
AM_0
 10
729.38662832667251
 20
716.81722736109714
 30
0.0
 40
1.502391899999999
 50
270.00935999999348
 51
344.85998999999862
  0
LINE
  5
19AA4
  8
AM_0
 10
729.03689832667226
 20
706.11483736109756
 30
0.0
 11
720.03686832667211
 21
706.11483736109756
 31
0.0
  0
ARC
  5
19AA5
  8
AM_0
 10
732.00688832667265
 20
693.98983736109722
 30
0.0
 40
1.4650000000000001
 50
90.00000299999769
 51
270.0
  0
ARC
  5
19AA6
  8
AM_0
 10
733.09691832667284
 20
693.96482736109715
 30
0.0
 40
1.0000040999999991
 50
90.00000299999769
 51
270.0
  0
ARC
  5
19AA7
  8
AM_0
 10
733.09320832667254
 20
683.9648473610971
 30
0.0
 40
1.000035999999999
 50
89.500715999993616
 51
270.49928999999509
  0
ARC
  5
19AA8
  8
AM_0
 10
731.87188832667266
 20
683.97483736109712
 30
0.0
 40
1.3300000000000001
 50
90.00000299999769
 51
270.0
  0
ARC
  5
19AA9
  8
AM_0
 10
733.09320832667254
 20
673.96482736109715
 30
0.0
 40
1.000035999999999
 50
89.500715999993616
 51
270.49928999999509
  0
ARC
  5
19AAA
  8
AM_0
 10
731.81189832667258
 20
673.96981736109728
 30
0.0
 40
1.265004
 50
90.00000299999769
 51
270.0
  0
ARC
  5
19AAB
  8
AM_0
 10
731.81189832667258
 20
663.96482736109715
 30
0.0
 40
1.270003999999999
 50
90.00000299999769
 51
270.0
  0
ARC
  5
19AAC
  8
AM_0
 10
733.09320832667254
 20
663.96482736109715
 30
0.0
 40
1.000035999999999
 50
89.500715999993616
 51
270.49928999999509
  0
ARC
  5
19AAD
  8
AM_0
 10
800.0377583266727
 20
605.05570236109725
 30
0.0
 40
2.0008759
 50
180.0251100000024
 51
269.97488999999109
  0
ARC
  5
19AAE
  8
AM_0
 10
800.03921832667254
 20
605.72717236109725
 30
0.0
 40
2.002332
 50
180.06674000000129
 51
269.93325999999871
  0
ARC
  5
19AAF
  8
AM_0
 10
800.04190832667268
 20
607.07984136109712
 30
0.0
 40
2.0050240000000001
 50
180.1434100000013
 51
269.85658999999868
  0
LINE
  5
19AB0
  8
AM_0
 10
798.03689832667214
 20
605.05483236109751
 30
0.0
 11
798.03689832667214
 21
607.10483536109768
 31
0.0
  0
ARC
  5
19AB1
  8
ｶｸﾚｾﾝ2
 10
751.53692832667275
 20
640.46484736109721
 30
0.0
 40
3.0
 50
180.0
 51
270.0
  0
ARC
  5
19AB2
  8
AM_0
 10
731.87188832667266
 20
653.95484736109688
 30
0.0
 40
1.3300000000000001
 50
90.00000299999769
 51
270.0
  0
ARC
  5
19AB3
  8
AM_0
 10
733.09320832667254
 20
653.9648473610971
 30
0.0
 40
1.000035999999999
 50
89.500715999993616
 51
270.49928999999509
  0
ARC
  5
19AB4
  8
AM_0
 10
733.0919283266727
 20
643.96483736109712
 30
0.0
 40
1.0000040999999991
 50
90.00000299999769
 51
270.0
  0
ARC
  5
19AB5
  8
AM_0
 10
732.00189832667274
 20
643.94482736109705
 30
0.0
 40
1.4599999999999991
 50
90.00000299999769
 51
270.0
  0
ARC
  5
19AB6
  8
AM_0
 10
735.69507832667296
 20
633.96482736109715
 30
0.0
 40
1.000031899999998
 50
90.469299999997844
 51
269.53070000000201
  0
ARC
  5
19AB7
  8
AM_0
 10
732.21689832667278
 20
633.91982736109696
 30
0.0
 40
1.675
 50
89.999997000002296
 51
270.0
  0
LINE
  5
19AB8
  8
AM_0
 10
729.03689832667226
 20
631.81482736109717
 30
0.0
 11
720.03686832667211
 21
631.81482736109717
 31
0.0
  0
LINE
  5
19AB9
  8
AM_0
 10
732.22687832667225
 20
610.04482236109754
 30
0.0
 11
730.78686832667211
 21
616.74481936109726
 31
0.0
  0
LINE
  5
19ABA
  8
AM_0
 10
734.29687832667196
 20
608.58482336109762
 30
0.0
 11
730.83688832667224
 21
621.50482936109745
 31
0.0
  0
LINE
  5
19ABB
  8
AM_0
 10
729.32687832667216
 20
617.93483736109749
 30
0.0
 11
731.73687832667201
 21
617.93483736109749
 31
0.0
  0
ARC
  5
19ABC
  8
AM_0
 10
729.39157832667252
 20
621.11883536109713
 30
0.0
 40
1.495995999999999
 50
14.952339999994351
 51
90.178292999993744
  0
ARC
  5
19ABD
  8
AM_0
 10
729.32980832667261
 20
616.43550136109695
 30
0.0
 40
1.499328
 50
11.906159999999311
 51
90.111848999993356
  0
LINE
  5
19ABE
  8
AM_0
 10
728.03689832667214
 20
616.92482736109753
 30
0.0
 11
720.03686832667211
 21
616.92482736109753
 31
0.0
  0
ARC
  5
19ABF
  8
AM_0
 10
728.03741832667265
 20
617.92430836109725
 30
0.0
 40
0.9994760199999999
 50
269.97007999999312
 51
0.0299099999979458
  0
LINE
  5
19AC0
  8
AM_0
 10
734.32690832667231
 20
608.4648283610976
 30
0.0
 11
729.03689832667226
 21
608.4648283610976
 31
0.0
  0
ARC
  5
19AC1
  8
AM_0
 10
736.2314783266728
 20
609.10924536109724
 30
0.0
 40
2.0044159999999991
 50
195.16665999999881
 51
269.86852000000772
  0
ARC
  5
19AC2
  8
AM_0
 10
734.18756832667236
 20
610.47136636109713
 30
0.0
 40
2.0065319999999991
 50
192.2731300000045
 51
269.98073000000318
  0
LINE
  5
19AC3
  8
AM_0
 10
728.03689832667214
 20
604.96486236109774
 30
0.0
 11
720.03686832667211
 21
604.96486236109774
 31
0.0
  0
ARC
  5
19AC4
  8
AM_0
 10
728.03671832667271
 20
605.96505336109715
 30
0.0
 40
1.000179999999999
 50
270.01032000000009
 51
359.98968999999448
  0
LINE
  5
19AC5
  8
0
 10
491.0355907932456
 20
730.46484912061476
 30
0.0
 11
515.03559079324555
 21
730.46484912061476
 31
0.0
  0
LINE
  5
19AC6
  8
0
 10
491.0355907932456
 20
727.96484912061464
 30
0.0
 11
491.0355907932456
 21
730.46484912061476
 31
0.0
  0
LINE
  5
19AC7
  8
0
 10
512.03559079324555
 20
742.46484912061476
 30
0.0
 11
512.03559079324555
 21
730.46484912061476
 31
0.0
  0
LINE
  5
19AC8
  8
0
 10
494.03559079324549
 20
730.46484912061476
 30
0.0
 11
494.03559079324549
 21
742.46484912061476
 31
0.0
  0
LINE
  5
19AC9
  8
0
 10
494.03559079324549
 20
742.46484912061476
 30
0.0
 11
512.03559079324555
 21
742.46484912061476
 31
0.0
  0
LINE
  5
19ACA
  8
0
 10
515.03559079324555
 20
730.46484912061476
 30
0.0
 11
515.03559079324555
 21
727.96484912061464
 31
0.0
  0
LINE
  5
19ACB
  8
0
 10
666.03686787879769
 20
730.46484912061476
 30
0.0
 11
690.03686787879781
 21
730.46484912061476
 31
0.0
  0
LINE
  5
19ACC
  8
0
 10
666.03686787879769
 20
727.96484912061464
 30
0.0
 11
666.03686787879769
 21
730.46484912061476
 31
0.0
  0
LINE
  5
19ACD
  8
0
 10
687.03686787879769
 20
742.46484912061476
 30
0.0
 11
687.03686787879769
 21
730.46484912061476
 31
0.0
  0
LINE
  5
19ACE
  8
0
 10
669.03686787879781
 20
730.46484912061476
 30
0.0
 11
669.03686787879781
 21
742.46484912061476
 31
0.0
  0
LINE
  5
19ACF
  8
0
 10
669.03686787879781
 20
742.46484912061476
 30
0.0
 11
687.03686787879769
 21
742.46484912061476
 31
0.0
  0
LINE
  5
19AD0
  8
0
 10
690.03686787879781
 20
730.46484912061476
 30
0.0
 11
690.03686787879781
 21
727.96484912061464
 31
0.0
  0
LINE
  5
19AD1
  8
AM_0
 10
488.03689273013561
 20
634.96484634713863
 30
0.0
 11
486.03327897915182
 21
568.96484634713863
 31
0.0
  0
LINE
  5
19AD2
  8
AM_0
 10
693.03686832613209
 20
634.96484634713875
 30
0.0
 11
695.03325463254941
 21
568.96484634713875
 31
0.0
  0
LINE
  5
19AD3
  8
AM_0
 10
508.67490081967668
 20
568.96484634713863
 30
0.0
 11
508.67490081967668
 21
593.96484634713863
 31
0.0
  0
LINE
  5
19AD4
  8
ﾁｭｳｼﾝｾﾝ1
 10
518.03325237487434
 20
563.9648463471384
 30
0.0
 11
518.03325237487434
 21
598.96484634713863
 31
0.0
  0
LINE
  5
19AD5
  8
AM_0
 10
672.39163279202478
 20
568.96484634713818
 30
0.0
 11
672.39163279202478
 21
593.96484634713863
 31
0.0
  0
LINE
  5
19AD6
  8
ﾁｭｳｼﾝｾﾝ1
 10
663.03328123682695
 20
563.9648463471384
 30
0.0
 11
663.03328123682695
 21
598.96484634713863
 31
0.0
  0
LINE
  5
19AD8
  8
0
 10
579.03328123682661
 20
513.96484737901767
 30
0.0
 11
579.0332812368265
 21
568.96484634713875
 31
0.0
  0
LINE
  5
19AD9
  8
0
 10
547.03328123682604
 20
513.96484737901767
 30
0.0
 11
547.03328123682604
 21
568.96484634713875
 31
0.0
  0
LINE
  5
19ADA
  8
AM_0
 10
547.03328123682604
 20
513.96484737901767
 30
0.0
 11
579.03328123682661
 21
513.96484737901767
 31
0.0
  0
LINE
  5
19AE1
  8
AM_0
 10
568.03328123682638
 20
513.96484737901767
 30
0.0
 11
568.0332812368265
 21
558.9648473790179
 31
0.0
  0
LINE
  5
19AE2
  8
AM_0
 10
558.03328123682616
 20
513.96484737901767
 30
0.0
 11
558.0332812368265
 21
558.9648473790179
 31
0.0
  0
LINE
  5
19AE3
  8
AM_0
 10
568.0332812368265
 20
558.9648473790179
 30
0.0
 11
558.0332812368265
 21
558.9648473790179
 31
0.0
  0
ARC
  5
19AE4
  8
AM_0
 10
563.0332812368265
 20
558.9648473790179
 30
0.0
 40
5.0
 50
0.0
 51
180.0
  0
LINE
  5
19AE7
  8
ｶｸﾚｾﾝ2
 10
601.03328244391923
 20
604.96484442058977
 30
0.0
 11
525.03328002973365
 21
604.96484442058977
 31
0.0
  0
LINE
  5
19AE8
  8
ｶｸﾚｾﾝ2
 10
583.03328123682604
 20
571.96484634713852
 30
0.0
 11
543.03328123682604
 21
571.96484634713852
 31
0.0
  0
LINE
  5
19AE9
  8
ｶｸﾚｾﾝ2
 10
588.03328198938482
 20
599.9648442700784
 30
0.0
 11
538.03328048426874
 21
599.9648442700784
 31
0.0
  0
LINE
  5
19AEA
  8
ｶｸﾚｾﾝ2
 10
588.03328198938482
 20
599.96484427007806
 30
0.0
 11
538.03328048426829
 21
599.96484427007806
 31
0.0
  0
LINE
  5
19AEB
  8
ｶｸﾚｾﾝ2
 10
588.03328198938482
 20
599.96484427007829
 30
0.0
 11
538.03328048426829
 21
599.96484427007829
 31
0.0
  0
LINE
  5
19AEC
  8
ｶｸﾚｾﾝ2
 10
543.03328123682604
 20
571.96484634713852
 30
0.0
 11
538.03328048426829
 21
599.96484427007806
 31
0.0
  0
LINE
  5
19AED
  8
ｶｸﾚｾﾝ2
 10
538.03328048426874
 20
604.96484442058977
 30
0.0
 11
538.03328048426874
 21
599.9648442700784
 31
0.0
  0
LINE
  5
19AEE
  8
ｶｸﾚｾﾝ2
 10
538.03328048426829
 20
604.96484442058977
 30
0.0
 11
538.03328048426829
 21
599.96484427007806
 31
0.0
  0
LINE
  5
19AEF
  8
ｶｸﾚｾﾝ2
 10
538.03328048426829
 20
604.96484442058988
 30
0.0
 11
538.03328048426829
 21
599.96484427007829
 31
0.0
  0
LINE
  5
19AF0
  8
ｶｸﾚｾﾝ2
 10
583.03328123682604
 20
571.96484634713852
 30
0.0
 11
588.03328198938482
 21
599.96484427007806
 31
0.0
  0
LINE
  5
19AF1
  8
ｶｸﾚｾﾝ2
 10
588.03328198938482
 20
604.96484442058977
 30
0.0
 11
588.03328198938482
 21
599.9648442700784
 31
0.0
  0
LINE
  5
19AF2
  8
ｶｸﾚｾﾝ2
 10
588.03328198938482
 20
604.96484442058977
 30
0.0
 11
588.03328198938482
 21
599.96484427007806
 31
0.0
  0
LINE
  5
19AF3
  8
ｶｸﾚｾﾝ2
 10
588.03328198938482
 20
604.96484442058988
 30
0.0
 11
588.03328198938482
 21
599.96484427007829
 31
0.0
  0
LINE
  5
19AF4
  8
ｶｸﾚｾﾝ2
 10
579.03328123682604
 20
568.96484634713875
 30
0.0
 11
579.03328123682604
 21
571.96484634713852
 31
0.0
  0
LINE
  5
19AF5
  8
ｶｸﾚｾﾝ2
 10
547.03328123682604
 20
568.96484634713818
 30
0.0
 11
547.03328123682616
 21
571.9648463471384
 31
0.0
  0
ARC
  5
19E7F
  8
AM_0
 10
168.36536375337371
 20
318.52921999628268
 30
0.0
 40
1.0003311999999971
 50
91.9314600000003
 51
269.21441000000362
  0
LINE
  5
19E80
  8
AM_0
 10
168.58462573783001
 20
319.53771382021318
 30
0.0
 11
168.33163375337361
 21
319.5289899962828
 31
0.0
  0
LINE
  5
19E81
  8
AM_0
 10
168.58462573783001
 20
317.52008189054879
 30
0.0
 11
168.33163375337361
 21
317.52898999628258
 31
0.0
  0
TEXT
  5
19FA8
  8
AM_0
 10
73.225783079098164
 20
644.21061832514613
 30
0.0
 40
15.0
  1
VC04-080FMR~VC04-240FMR
1001
ACAD
1000
MTEXTBEGIN
1070
    73
1070
     1
1070
    44
1040
1.0
1070
    74
1070
     0
1000
MTEXTEND
  0
VIEWPORT
  5
89
 67
     1
  8
0
 10
210.0
 20
148.5
 30
0.0
 40
420.0
 41
297.0
 68
     1
 69
     1
1001
ACAD
1000
MVIEW
1002
{
1070
    16
1010
0.0
1020
0.0
1030
0.0
1010
0.0
1020
0.0
1030
1.0
1040
0.0
1040
297.0
1040
221.70154043645701
1040
148.5
1040
50.0
1040
0.0
1040
0.0
1070
     0
1070
   100
1070
     1
1070
     1
1070
     0
1070
     0
1070
     0
1070
     0
1040
0.0
1040
0.0
1040
0.0
1040
10.0
1040
10.0
1040
10.0
1040
10.0
1070
     0
1002
{
1002
}
1002
}
1001
GENIUS_GENOREF_13
1005
1B94
1001
GENIUS_GENSCREG_15
1000
PF
1040
1.0
1000
DF
1040
1.0
1000
MIN
1011
0.0
1021
0.0
1031
0.0
1021
0.0
1031
0.0
1000
MAX
1011
420.0
1021
0.0
1031
0.0
1021
297.0
1031
0.0
1000
FLAGS
1070
     4
  0
ENDSEC
  0
EOF
