  0
SECTION
  2
HEADER
  9
$ACADVER
  1
AC1009
  9
$INSBASE
 10
0.0
 20
0.0
 30
0.0
  9
$EXTMIN
 10
35.302035161412732
 20
183.96018884348629
 30
-0.0000000000000058
  9
$EXTMAX
 10
966.03933960762686
 20
757.64360930385317
 30
0.0000000000000104
  9
$LIMMIN
 10
0.0
 20
0.0
  9
$LIMMAX
 10
1138.0
 20
740.00000000000011
  9
$ORTHOMODE
 70
     1
  9
$REGENMODE
 70
     1
  9
$FILLMODE
 70
     1
  9
$QTEXTMODE
 70
     0
  9
$MIRRTEXT
 70
     1
  9
$DRAGMODE
 70
     2
  9
$LTSCALE
 40
4.0
  9
$OSMODE
 70
   551
  9
$ATTMODE
 70
     1
  9
$TEXTSIZE
 40
2.5
  9
$TRACEWID
 40
1.0
  9
$TEXTSTYLE
  7
STANDARD
  9
$CLAYER
  8
AM_0
  9
$CELTYPE
  6
BYLAYER
  9
$CECOLOR
 62
   256
  9
$DIMSCALE
 40
4.0
  9
$DIMASZ
 40
2.5
  9
$DIMEXO
 40
1.0
  9
$DIMDLI
 40
7.0
  9
$DIMRND
 40
0.0
  9
$DIMDLE
 40
0.0
  9
$DIMEXE
 40
1.0
  9
$DIMTP
 40
0.1
  9
$DIMTM
 40
0.1000000001
  9
$DIMTXT
 40
2.5
  9
$DIMCEN
 40
0.0
  9
$DIMTSZ
 40
0.0
  9
$DIMTOL
 70
     0
  9
$DIMLIM
 70
     0
  9
$DIMTIH
 70
     0
  9
$DIMTOH
 70
     0
  9
$DIMSE1
 70
     0
  9
$DIMSE2
 70
     0
  9
$DIMTAD
 70
     3
  9
$DIMZIN
 70
     8
  9
$DIMBLK
  1

  9
$DIMASO
 70
     1
  9
$DIMSHO
 70
     1
  9
$DIMPOST
  1

  9
$DIMAPOST
  1
"
  9
$DIMALT
 70
     0
  9
$DIMALTD
 70
     2
  9
$DIMALTF
 40
0.0393701
  9
$DIMLFAC
 40
1.0
  9
$DIMTOFL
 70
     1
  9
$DIMTVP
 40
0.0
  9
$DIMTIX
 70
     0
  9
$DIMSOXD
 70
     0
  9
$DIMSAH
 70
     0
  9
$DIMBLK1
  1

  9
$DIMBLK2
  1

  9
$DIMSTYLE
  2
AM_JIS
  9
$DIMCLRD
 70
   256
  9
$DIMCLRE
 70
   256
  9
$DIMCLRT
 70
     4
  9
$DIMTFAC
 40
0.71
  9
$DIMGAP
 40
1.0
  9
$LUNITS
 70
     2
  9
$LUPREC
 70
     2
  9
$SKETCHINC
 40
1.0
  9
$FILLETRAD
 40
0.0
  9
$AUNITS
 70
     0
  9
$AUPREC
 70
     3
  9
$MENU
  1
.
  9
$ELEVATION
 40
0.0
  9
$PELEVATION
 40
0.0
  9
$THICKNESS
 40
0.0
  9
$LIMCHECK
 70
     0
  9
$BLIPMODE
 70
     0
  9
$CHAMFERA
 40
10.0
  9
$CHAMFERB
 40
10.0
  9
$SKPOLY
 70
     0
  9
$TDCREATE
 40
2452753.643349607
  9
$TDUPDATE
 40
2458543.4433366549
  9
$TDINDWG
 40
0.6345679977000001
  9
$TDUSRTIMER
 40
0.6345674421000001
  9
$USRTIMER
 70
     1
  9
$ANGBASE
 50
0.0
  9
$ANGDIR
 70
     0
  9
$PDMODE
 70
     0
  9
$PDSIZE
 40
0.0
  9
$PLINEWID
 40
0.0
  9
$COORDS
 70
     1
  9
$SPLFRAME
 70
     0
  9
$SPLINETYPE
 70
     6
  9
$SPLINESEGS
 70
     8
  9
$ATTDIA
 70
     1
  9
$ATTREQ
 70
     1
  9
$HANDLING
 70
     1
  9
$HANDSEED
  5
1AE6B
  9
$SURFTAB1
 70
     6
  9
$SURFTAB2
 70
     6
  9
$SURFTYPE
 70
     6
  9
$SURFU
 70
     6
  9
$SURFV
 70
     6
  9
$UCSNAME
  2

  9
$UCSORG
 10
0.0
 20
0.0
 30
0.0
  9
$UCSXDIR
 10
1.0
 20
0.0
 30
0.0
  9
$UCSYDIR
 10
0.0
 20
1.0
 30
0.0
  9
$PUCSNAME
  2

  9
$PUCSORG
 10
0.0
 20
0.0
 30
0.0
  9
$PUCSXDIR
 10
1.0
 20
0.0
 30
0.0
  9
$PUCSYDIR
 10
0.0
 20
1.0
 30
0.0
  9
$USERI1
 70
     0
  9
$USERI2
 70
     0
  9
$USERI3
 70
     0
  9
$USERI4
 70
     0
  9
$USERI5
 70
     0
  9
$USERR1
 40
0.0
  9
$USERR2
 40
0.0
  9
$USERR3
 40
0.0
  9
$USERR4
 40
0.0
  9
$USERR5
 40
0.0
  9
$WORLDVIEW
 70
     1
  9
$SHADEDGE
 70
     3
  9
$SHADEDIF
 70
    70
  9
$TILEMODE
 70
     1
  9
$MAXACTVP
 70
    48
  9
$PLIMCHECK
 70
     0
  9
$PEXTMIN
 10
1.0000000000000000E+020
 20
1.0000000000000000E+020
 30
1.0000000000000000E+020
  9
$PEXTMAX
 10
-1.0000000000000000E+020
 20
-1.0000000000000000E+020
 30
-1.0000000000000000E+020
  9
$PLIMMIN
 10
0.0
 20
0.0
  9
$PLIMMAX
 10
420.0
 20
297.0
  9
$UNITMODE
 70
     0
  9
$VISRETAIN
 70
     1
  9
$PLINEGEN
 70
     0
  9
$PSLTSCALE
 70
     1
  0
ENDSEC
  0
SECTION
  2
TABLES
  0
TABLE
  2
VPORT
 70
     1
  0
VPORT
  2
*ACTIVE
 70
     0
 10
0.0
 20
0.0
 11
1.0
 21
1.0
 12
500.67068738451979
 22
470.8018990736698
 13
0.0
 23
0.0
 14
10.0
 24
10.0
 15
40.0
 25
40.0
 16
0.0
 26
0.0
 36
1.0
 17
0.0
 27
0.0
 37
0.0
 40
577.62175057794377
 41
1.7571592210767459
 42
50.0
 43
0.0
 44
0.0
 50
0.0
 51
0.0
 71
     0
 72
   100
 73
     1
 74
     1
 75
     0
 76
     0
 77
     0
 78
     0
  0
ENDTAB
  0
TABLE
  2
LTYPE
 70
    22
  0
LTYPE
  2
CONTINUOUS
 70
     0
  3
Solid line
 72
    65
 73
     0
 40
0.0
  0
LTYPE
  2
PHANTOM2
 70
     0
  3
Phantom (.5x) ___ _ _ ___ _ _ ___ _ _ ___ _ _
 72
    65
 73
     6
 40
31.75
 49
15.875
 49
-3.174999999999998
 49
3.174999999999998
 49
-3.174999999999998
 49
3.174999999999998
 49
-3.174999999999998
  0
LTYPE
  2
CENTER
 70
     0
  3
Center ____ _ ____ _ ____ _ ____ _ ____ _ ____
 72
    65
 73
     4
 40
50.799999999999997
 49
31.75
 49
-6.3499999999999979
 49
6.3499999999999979
 49
-6.3499999999999979
  0
LTYPE
  2
GEN3B
 70
     0
  3
 - - - - -
 72
    65
 73
     2
 40
1.0
 49
0.5
 49
-0.5
  0
LTYPE
  2
GEN7A
 70
     0
  3
__ . __ . __
 72
    65
 73
     4
 40
7.375
 49
4.75
 49
-0.875
 49
0.875
 49
-0.875
  0
LTYPE
  2
AM_ISO02W050
 70
     0
  3
__ __ __ __ __ __ __ __ __ __ __ __ __ __ __
 72
    65
 73
     2
 40
7.5
 49
6.0
 49
-1.5
  0
LTYPE
  2
AM_ISO08W050
 70
     0
  3
____ . ____ . ____ . ____ . ____ . ____ . ____
 72
    65
 73
     4
 40
18.0
 49
12.0
 49
-1.5
 49
3.0
 49
-1.5
  0
LTYPE
  2
AM_ISO09W050
 70
     0
  3
_____ . . _____ . . _____ . . ____ .. ____
 72
    65
 73
     6
 40
22.5
 49
12.0
 49
-1.5
 49
3.0
 49
-1.5
 49
3.0
 49
-1.5
  0
LTYPE
  2
AMCONSTR
 70
     0
  3
_______________________
 72
    65
 73
     2
 40
9999.0
 49
9999.0
 49
0.0
  0
LTYPE
  2
AM_ISO02W050X2
 70
     0
  3
 _ _ _ _ _ _ _ _ _ _ _ _
 72
    65
 73
     2
 40
3.75
 49
3.0
 49
-0.75
  0
LTYPE
  2
AM_ISO08W050X2
 70
     0
  3
__ . __ . __ . __ . __ . __
 72
    65
 73
     4
 40
9.0
 49
6.0
 49
-0.75
 49
1.5
 49
-0.75
  0
LTYPE
  2
AMZIGZAG
 70
     0
  3
/\/-/\/-/\/-/\/-/\/-/\/
 72
    65
 73
     2
 40
11.0001
 49
0.0001
 49
-11.0
  0
LTYPE
  2
ACISOWELD
 70
     0
  3
_ _ _ _ _
 72
    65
 73
     2
 40
2.0
 49
2.0
 49
-1.0
  0
LTYPE
  2
ACISOTGB
 70
     0
  3
__ . . __ . .
 72
    65
 73
     6
 40
9.0
 49
4.0
 49
-1.0
 49
1.0
 49
-1.0
 49
1.0
 49
-1.0
  0
LTYPE
  2
ACISOTGL
 70
     0
  3
_ _ _ _ _
 72
    65
 73
     2
 40
3.0
 49
2.0
 49
-1.0
  0
LTYPE
  2
HIDDEN
 70
     0
  3
Hidden __ __ __ __ __ __ __ __ __ __ __ __ __ _
 72
    65
 73
     2
 40
9.5249999999999968
 49
6.349999999999997
 49
-3.174999999999998
  0
LTYPE
  2
ACANSTGBM
 70
     0
  3
__ . . __ . .
 72
    65
 73
     6
 40
9.0
 49
4.0
 49
-1.0
 49
1.0
 49
-1.0
 49
1.0
 49
-1.0
  0
LTYPE
  2
ACANSTGLM
 70
     0
  3
_ _ _ _ _
 72
    65
 73
     2
 40
3.0
 49
2.0
 49
-1.0
  0
LTYPE
  2
ACJISTGB
 70
     0
  3
__ . . __ . .
 72
    65
 73
     6
 40
9.0
 49
4.0
 49
-1.0
 49
1.0
 49
-1.0
 49
1.0
 49
-1.0
  0
LTYPE
  2
ACJISTGL
 70
     0
  3
_ _ _ _ _
 72
    65
 73
     2
 40
3.0
 49
2.0
 49
-1.0
  0
LTYPE
  2
ACJISWELD
 70
     0
  3
_ _ _ _ _
 72
    65
 73
     2
 40
2.0
 49
2.0
 49
-1.0
  0
ENDTAB
  0
TABLE
  2
LAYER
 70
     9
  0
LAYER
  2
0
 70
     0
 62
     7
  6
CONTINUOUS
  0
LAYER
  2
ｽﾝﾎﾟｳｾﾝ
 70
     0
 62
     2
  6
CONTINUOUS
  0
LAYER
  2
DEFPOINTS
 70
     0
 62
     7
  6
CONTINUOUS
  0
LAYER
  2
ｷｲﾛ
 70
     0
 62
     2
  6
CONTINUOUS
  0
LAYER
  2
ｶｸﾚｾﾝ2
 70
     0
 62
     3
  6
GEN3B
  0
LAYER
  2
ﾁｭｳｼﾝｾﾝ1
 70
     0
 62
     1
  6
GEN7A
  0
LAYER
  2
AM_0
 70
     0
 62
     7
  6
CONTINUOUS
  0
LAYER
  2
AM_0N
 70
     0
 62
     7
  6
CONTINUOUS
  0
LAYER
  2
AM_5
 70
     0
 62
     2
  6
CONTINUOUS
  0
ENDTAB
  0
TABLE
  2
STYLE
 70
     8
  0
STYLE
  2
STANDARD
 70
     0
 40
0.0
 41
0.8299999999999999
 50
0.0
 71
     0
 42
2.5
  3
txt.shx
  4
bigfont.shx
  0
STYLE
  2

 70
     1
 40
0.0
 41
1.0
 50
0.0
 71
     0
 42
2.5
  3
ltypeshp.shx
  4

  0
STYLE
  2
ACISOTS
 70
     0
 40
1.0
 41
1.0
 50
0.0
 71
     0
 42
2.5
  3
isocp.shx
  4
extfont.shx
  0
STYLE
  2
ACISOGDT
 70
     0
 40
0.0
 41
1.0
 50
0.0
 71
     0
 42
2.5
  3
amgdt.shx
  4

  0
STYLE
  2
ACANSTS
 70
     0
 40
1.0
 41
1.0
 50
0.0
 71
     0
 42
2.5
  3
romans.shx
  4
bigfont.shx
  0
STYLE
  2
ACANSGDT
 70
     0
 40
0.0
 41
1.0
 50
0.0
 71
     0
 42
2.5
  3
amgdtans.shx
  4

  0
STYLE
  2
ACJISGDT
 70
     0
 40
0.0
 41
1.0
 50
0.0
 71
     0
 42
2.5
  3
amgdt.shx
  4

  0
STYLE
  2
ACJISTS
 70
     0
 40
1.0
 41
1.0
 50
0.0
 71
     0
 42
2.5
  3
isocp.shx
  4
extfont.shx
  0
ENDTAB
  0
TABLE
  2
VIEW
 70
    12
  0
VIEW
  2
GEN1
 70
     0
 40
95.824742268041234
 10
71.5
 20
137.08762886597941
 41
143.0
 11
0.0
 21
0.0
 31
1.0
 12
0.0
 22
0.0
 32
0.0
 42
50.0
 43
0.0
 44
0.0
 50
0.0
 71
     0
  0
VIEW
  2
GEN2
 70
     0
 40
95.824742268041234
 10
214.5
 20
137.08762886597941
 41
143.0
 11
0.0
 21
0.0
 31
1.0
 12
0.0
 22
0.0
 32
0.0
 42
50.0
 43
0.0
 44
0.0
 50
0.0
 71
     0
  0
VIEW
  2
GEN3
 70
     0
 40
95.824742268041234
 10
71.5
 20
47.912371134020603
 41
143.0
 11
0.0
 21
0.0
 31
1.0
 12
0.0
 22
0.0
 32
0.0
 42
50.0
 43
0.0
 44
0.0
 50
0.0
 71
     0
  0
VIEW
  2
GEN4
 70
     0
 40
95.824742268041234
 10
214.5
 20
47.912371134020603
 41
143.0
 11
0.0
 21
0.0
 31
1.0
 12
0.0
 22
0.0
 32
0.0
 42
50.0
 43
0.0
 44
0.0
 50
0.0
 71
     0
  0
VIEW
  2
GEN5
 70
     0
 40
95.824742268041234
 10
143.0
 20
92.500000000000057
 41
143.0
 11
0.0
 21
0.0
 31
1.0
 12
0.0
 22
0.0
 32
0.0
 42
50.0
 43
0.0
 44
0.0
 50
0.0
 71
     0
  0
VIEW
  2
GEN6
 70
     0
 40
191.64756804123709
 10
143.0
 20
92.5
 41
285.99714
 11
0.0
 21
0.0
 31
1.0
 12
0.0
 22
0.0
 32
0.0
 42
50.0
 43
0.0
 44
0.0
 50
0.0
 71
     0
  0
VIEW
  2
AM_VIEW1
 70
     0
 40
370.00000000000023
 10
332.86372007366492
 20
555.00000000000011
 41
665.72744014732973
 11
0.0
 21
0.0
 31
1.0
 12
0.0
 22
0.0
 32
0.0
 42
50.0
 43
0.0
 44
0.0
 50
0.0
 71
     0
  0
VIEW
  2
AM_VIEW2
 70
     0
 40
370.00000000000023
 10
805.13627992633508
 20
555.00000000000011
 41
665.72744014732973
 11
0.0
 21
0.0
 31
1.0
 12
0.0
 22
0.0
 32
0.0
 42
50.0
 43
0.0
 44
0.0
 50
0.0
 71
     0
  0
VIEW
  2
AM_VIEW3
 70
     0
 40
370.00000000000023
 10
332.86372007366492
 20
185.0
 41
665.72744014732973
 11
0.0
 21
0.0
 31
1.0
 12
0.0
 22
0.0
 32
0.0
 42
50.0
 43
0.0
 44
0.0
 50
0.0
 71
     0
  0
VIEW
  2
AM_VIEW4
 70
     0
 40
370.00000000000023
 10
805.13627992633508
 20
185.0
 41
665.72744014732973
 11
0.0
 21
0.0
 31
1.0
 12
0.0
 22
0.0
 32
0.0
 42
50.0
 43
0.0
 44
0.0
 50
0.0
 71
     0
  0
VIEW
  2
AM_VIEW5
 70
     0
 40
370.00000000000023
 10
569.0
 20
370.00000000000023
 41
665.72744014732962
 11
0.0
 21
0.0
 31
1.0
 12
0.0
 22
0.0
 32
0.0
 42
50.0
 43
0.0
 44
0.0
 50
0.0
 71
     0
  0
VIEW
  2
AM_VIEW6
 70
     0
 40
739.99260000000015
 10
569.0
 20
370.00000000000023
 41
1331.4415657458569
 11
0.0
 21
0.0
 31
1.0
 12
0.0
 22
0.0
 32
0.0
 42
50.0
 43
0.0
 44
0.0
 50
0.0
 71
     0
  0
ENDTAB
  0
TABLE
  2
UCS
 70
     0
  0
ENDTAB
  0
TABLE
  2
APPID
 70
   101
  0
APPID
  2
ACAD
 70
     0
  0
APPID
  2
MCAD_NO_VIS
 70
     0
  0
APPID
  2
ACAD_TEMP_GRAPHIC
 70
     0
  0
APPID
  2
AD_DRAW
 70
     0
  0
APPID
  2
DESIGNERASSEMBLIES
 70
     0
  0
APPID
  2
ASURF_PCURVE_APPNAME
 70
     0
  0
APPID
  2
GENIUS_GE3SECT_13
 70
     0
  0
APPID
  2
GENIUS_GENCFG_13
 70
     0
  0
APPID
  2
GENIUS_GE3CFG0_13
 70
     0
  0
APPID
  2
GENIUS_GENCFG0_13
 70
     0
  0
APPID
  2
GENIUS_GENCFG1_13
 70
     0
  0
APPID
  2
GENIUS_GENCFG2_13
 70
     0
  0
APPID
  2
GENIUS_GENCFG3_13
 70
     0
  0
APPID
  2
GENIUS_GENCFG4_13
 70
     0
  0
APPID
  2
GENIUS_GEVCFG0_13
 70
     0
  0
APPID
  2
GENIUS_GENOENT_13
 70
     0
  0
APPID
  2
GENIUS_GENREC_14
 70
     0
  0
APPID
  2
GENIUS_GENODEF_13
 70
     0
  0
APPID
  2
GENIUS_GENOBJ-N-REC_13
 70
     0
  0
APPID
  2
GENIUS_GENHINW_13
 70
     0
  0
APPID
  2
GENIUS_FIRSTVISTXT_14
 70
     0
  0
APPID
  2
GENIUS_GENOBJ-N-LEADER_13
 70
     0
  0
APPID
  2
GENIUS_GENOREF_13
 70
     0
  0
APPID
  2
GENIUS_GENOLIS_13
 70
     0
  0
APPID
  2
GEV_VCCNULL_SWITCH_OFF
 70
     0
  0
APPID
  2
GENIUS_GENDTOL_13
 70
     0
  0
APPID
  2
GENIUS_GEFCFG0_13
 70
     0
  0
APPID
  2
GENIUS_GENOBJ-N-TIT_13
 70
     0
  0
APPID
  2
GENIUS_GENTITLE_13
 70
     0
  0
APPID
  2
GENIUS_GENZVEED_13
 70
     0
  0
APPID
  2
GENIUS_GENOBJ-N-SDF_13
 70
     0
  0
APPID
  2
GENIUS_GENSCREG_13
 70
     0
  0
APPID
  2
GENIUS_DUMCFG0_13
 70
     0
  0
APPID
  2
GEVID936201362
 70
     0
  0
APPID
  2
GEVDC
 70
     0
  0
APPID
  2
GEVCON
 70
     0
  0
APPID
  2
VCC
 70
     0
  0
APPID
  2
GEVPT
 70
     0
  0
APPID
  2
GEVIT
 70
     0
  0
APPID
  2
GENBH
 70
     0
  0
APPID
  2
GEVMK
 70
     0
  0
APPID
  2
GENIUS_GENBH_13
 70
     0
  0
APPID
  2
GENIUS_GENOBJ-NBEHI-BHF_13
 70
     0
  0
APPID
  2
GENIUS_GENOBJ-NBEHI-BHB_13
 70
     0
  0
APPID
  2
GENIUS_GENOBJ-F-DESC_13
 70
     0
  0
APPID
  2
GENIUS_GEFDESC_14
 70
     0
  0
APPID
  2
GENIUS_GENOBJ-F-PART_13
 70
     0
  0
APPID
  2
GENIUS_GEFSTDP_13
 70
     0
  0
APPID
  2
GENIUS_GEFPARTINS_13
 70
     0
  0
APPID
  2
GENIUS_GENTRA_14
 70
     0
  0
APPID
  2
GENIUS_GENINF13_13
 70
     0
  0
APPID
  2
GENIUS_GENOBJ-N-INFOPT_13
 70
     0
  0
APPID
  2
GENIUS_GENOBJ-N-RSSYM_13
 70
     0
  0
APPID
  2
GENIUS_GENSYMENT_13
 70
     0
  0
APPID
  2
GENIUS_GENSCSYM_13
 70
     0
  0
APPID
  2
GENIUS_GEFINFNAM_13
 70
     0
  0
APPID
  2
GENIUS_GENSCREG_15
 70
     0
  0
APPID
  2
GENIUS_GENOBJ-N-CEN_13
 70
     0
  0
APPID
  2
GENIUS_GENOBJ-N-CRS_13
 70
     0
  0
APPID
  2
GENIUS_GENOBJ-N-CRC_13
 70
     0
  0
APPID
  2
GENIUS_GENCRC_14
 70
     0
  0
APPID
  2
GEVID942827039
 70
     0
  0
APPID
  2
GEVID942827040
 70
     0
  0
APPID
  2
GEVID942827041
 70
     0
  0
APPID
  2
GENIUS_GENOBJ-F-SCPASSM_13
 70
     0
  0
APPID
  2
GENIUS_GENDIMSH_14
 70
     0
  0
APPID
  2
GENIUS_GENFIL_13
 70
     0
  0
APPID
  2
GENIUS_GENOBJ-N-CHA_13
 70
     0
  0
APPID
  2
GENIUS_GENOBJ-N-FIL_13
 70
     0
  0
APPID
  2
GEVID942827042
 70
     0
  0
APPID
  2
GEVID946020473
 70
     0
  0
APPID
  2
GEVID946020474
 70
     0
  0
APPID
  2
GEVID946020475
 70
     0
  0
APPID
  2
GENIUS_GENOBJ-N-HTC_13
 70
     0
  0
APPID
  2
GENIUS_GENHATCH_13
 70
     0
  0
APPID
  2
GEVID948854295
 70
     0
  0
APPID
  2
GEVID939402019
 70
     0
  0
APPID
  2
GEVID952919491
 70
     0
  0
APPID
  2
GEVID952919492
 70
     0
  0
APPID
  2
GENIUS_GEFWELD_13
 70
     0
  0
APPID
  2
GENIUS_GENOBJ-F-WELS_13
 70
     0
  0
APPID
  2
GEVID952919493
 70
     0
  0
APPID
  2
GENIUS_GENOBJ-N-RSBK_13
 70
     0
  0
APPID
  2
GENIUS_GENOBJ-N-LIB_13
 70
     0
  0
APPID
  2
GENIUS_GENSCALE_13
 70
     0
  0
APPID
  2
GEVID986376691
 70
     0
  0
APPID
  2
ACATTRIBSERVICES
 70
     0
  0
APPID
  2
DCO15
 70
     0
  0
APPID
  2
ACADM_DIM_EDIT
 70
     0
  0
APPID
  2
AMDT_DM_ADJ
 70
     0
  0
APPID
  2
ACAD_MLEADERVER
 70
     0
  0
APPID
  2
CONTENTBLOCKDESCRIPTION
 70
     0
  0
APPID
  2
ACADANNOTATIVE
 70
     0
  0
APPID
  2
GEVID1057795304
 70
     0
  0
APPID
  2
GENIUS_GEFSH_13
 70
     0
  0
APPID
  2
GENIUS_GENOBJ-F-SHS_13
 70
     0
  0
APPID
  2
ACAD_DSTYLE_DIMBREAK
 70
     0
  0
APPID
  2
ACAD_DSTYLE_DIMJAG
 70
     0
  0
APPID
  2
ACAD_NAV_VCDISPLAY
 70
     0
  0
APPID
  2
ACADANNOPO
 70
     0
  0
APPID
  2
ACAD_EXEMPT_FROM_CAD_STANDARDS
 70
     0
  0
ENDTAB
  0
TABLE
  2
DIMSTYLE
 70
    21
  0
DIMSTYLE
  2
STANDARD
 70
     0
  3

  4

  5

  6

  7

 40
1.0
 41
0.18
 42
0.0625
 43
0.38
 44
0.18
 45
0.0
 46
0.0
 47
0.0
 48
0.0
140
0.18
141
0.09
142
0.0
143
25.399999999999999
144
1.0
145
0.0
146
1.0
147
0.09
 71
     0
 72
     0
 73
     1
 74
     1
 75
     0
 76
     0
 77
     0
 78
     0
170
     0
171
     2
172
     0
173
     0
174
     0
175
     0
176
     0
177
     0
178
     0
  0
DIMSTYLE
  2
AM_JIS
 70
     0
  3

  4
"
  5

  6

  7

 40
1.0
 41
2.0
 42
1.0
 43
8.0
 44
1.0
 45
0.0
 46
0.0
 47
0.1
 48
0.1
140
2.5
141
0.0
142
0.0
143
0.0393701
144
1.0
145
0.0
146
0.71
147
1.5
 71
     0
 72
     0
 73
     0
 74
     0
 75
     0
 76
     0
 77
     3
 78
     8
170
     0
171
     2
172
     1
173
     0
174
     0
175
     0
176
     2
177
     2
178
     4
  0
DIMSTYLE
  2
AM_ISO
 70
     0
  3

  4
"
  5

  6

  7

 40
1.0
 41
2.5
 42
1.0
 43
10.0
 44
1.0
 45
0.0
 46
0.0
 47
0.1
 48
0.1
140
3.5
141
0.0
142
0.0
143
0.0393701
144
1.0
145
0.0
146
0.71
147
1.5
 71
     0
 72
     0
 73
     0
 74
     0
 75
     0
 76
     0
 77
     1
 78
     8
170
     0
171
     2
172
     1
173
     0
174
     0
175
     0
176
   256
177
   256
178
     2
  0
DIMSTYLE
  2
AM_ISO$3
 70
     0
  3

  4
"
  5

  6

  7

 40
1.0
 41
2.5
 42
1.0
 43
10.0
 44
1.0
 45
0.0
 46
0.0
 47
0.1
 48
0.1
140
3.5
141
0.0
142
0.0
143
0.0393701
144
1.0
145
0.0
146
0.71
147
1.5
 71
     0
 72
     0
 73
     0
 74
     1
 75
     0
 76
     0
 77
     1
 78
     8
170
     0
171
     2
172
     0
173
     0
174
     0
175
     0
176
   256
177
   256
178
     2
  0
DIMSTYLE
  2
AM_ISO$4
 70
     0
  3

  4
"
  5

  6

  7

 40
1.0
 41
2.5
 42
1.0
 43
10.0
 44
1.0
 45
0.0
 46
0.0
 47
0.1
 48
0.1
140
3.5
141
0.0
142
0.0
143
0.0393701
144
1.0
145
0.0
146
0.71
147
1.5
 71
     0
 72
     0
 73
     0
 74
     1
 75
     0
 76
     0
 77
     1
 78
     8
170
     0
171
     2
172
     0
173
     0
174
     0
175
     0
176
   256
177
   256
178
     2
  0
DIMSTYLE
  2
AM_ISO$6
 70
     0
  3

  4
"
  5

  6

  7

 40
1.0
 41
2.5
 42
1.0
 43
10.0
 44
1.0
 45
0.0
 46
0.0
 47
0.1
 48
0.1
140
3.5
141
0.0
142
0.0
143
0.0393701
144
1.0
145
0.0
146
0.71
147
1.5
 71
     0
 72
     0
 73
     0
 74
     0
 75
     0
 76
     0
 77
     0
 78
     8
170
     0
171
     2
172
     1
173
     0
174
     0
175
     0
176
   256
177
   256
178
     2
  0
DIMSTYLE
  2
AM_ISO$7
 70
     0
  3

  4
"
  5

  6

  7

 40
1.0
 41
2.5
 42
1.0
 43
10.0
 44
1.0
 45
0.0
 46
0.0
 47
0.1
 48
0.1
140
5.0
141
0.0
142
0.0
143
0.0393701
144
1.0
145
0.0
146
0.71
147
1.5
 71
     0
 72
     0
 73
     0
 74
     0
 75
     0
 76
     0
 77
     1
 78
     8
170
     0
171
     2
172
     1
173
     0
174
     0
175
     0
176
   256
177
   256
178
     2
  0
DIMSTYLE
  2
AM_ISO$SF
 70
     0
  3

  4
"
  5

  6

  7

 40
1.0
 41
2.5
 42
1.0
 43
10.0
 44
1.0
 45
0.0
 46
0.0
 47
0.1
 48
0.1
140
3.5
141
0.0
142
0.0
143
0.0393701
144
1.0
145
0.0
146
0.71
147
1.5
 71
     0
 72
     0
 73
     0
 74
     0
 75
     1
 76
     1
 77
     1
 78
     8
170
     0
171
     2
172
     1
173
     0
174
     0
175
     0
176
   256
177
   256
178
     2
  0
DIMSTYLE
  2
AM_ISO$SH
 70
     0
  3

  4
"
  5

  6
GENAXEH
  7

 40
1.0
 41
2.5
 42
1.0
 43
10.0
 44
1.0
 45
0.0
 46
0.0
 47
0.1
 48
0.1
140
3.5
141
0.0
142
0.0
143
0.0393701
144
2.0
145
0.0
146
0.71
147
1.5
 71
     0
 72
     0
 73
     0
 74
     0
 75
     1
 76
     1
 77
     1
 78
     8
170
     0
171
     2
172
     1
173
     1
174
     0
175
     0
176
   256
177
   256
178
     2
  0
DIMSTYLE
  2
AM_ANSI
 70
     0
  3

  4
"
  5

  6

  7

 40
1.0
 41
2.5
 42
1.0
 43
10.0
 44
1.0
 45
0.0
 46
0.0
 47
0.1
 48
0.1
140
3.5
141
0.0
142
0.0
143
0.0393701
144
1.0
145
0.0
146
0.71
147
1.5
 71
     0
 72
     0
 73
     1
 74
     1
 75
     0
 76
     0
 77
     0
 78
     8
170
     0
171
     2
172
     0
173
     0
174
     0
175
     0
176
     2
177
     2
178
     4
  0
DIMSTYLE
  2
AM_ANSI$3
 70
     0
  3

  4
"
  5

  6

  7

 40
1.0
 41
2.5
 42
1.0
 43
10.0
 44
1.0
 45
0.0
 46
0.0
 47
0.1
 48
0.1
140
3.5
141
0.0
142
0.0
143
0.0393701
144
1.0
145
0.0
146
0.71
147
1.5
 71
     0
 72
     0
 73
     1
 74
     1
 75
     0
 76
     0
 77
     0
 78
     8
170
     0
171
     2
172
     0
173
     0
174
     0
175
     0
176
     2
177
     2
178
     4
  0
DIMSTYLE
  2
AM_ANSI$4
 70
     0
  3

  4
"
  5

  6

  7

 40
1.0
 41
2.5
 42
1.0
 43
10.0
 44
1.0
 45
0.0
 46
0.0
 47
0.1
 48
0.1
140
3.5
141
0.0
142
0.0
143
0.0393701
144
1.0
145
0.0
146
0.71
147
1.5
 71
     0
 72
     0
 73
     1
 74
     1
 75
     0
 76
     0
 77
     0
 78
     8
170
     0
171
     2
172
     0
173
     0
174
     0
175
     0
176
     2
177
     2
178
     4
  0
DIMSTYLE
  2
AM_ANSI$7
 70
     0
  3

  4
"
  5

  6

  7

 40
1.0
 41
2.5
 42
1.0
 43
10.0
 44
1.0
 45
0.0
 46
0.0
 47
0.1
 48
0.1
140
5.0
141
0.0
142
0.0
143
0.0393701
144
1.0
145
0.0
146
0.71
147
1.5
 71
     0
 72
     0
 73
     1
 74
     1
 75
     0
 76
     0
 77
     0
 78
     8
170
     0
171
     2
172
     0
173
     0
174
     0
175
     0
176
     2
177
     2
178
     4
  0
DIMSTYLE
  2
AM_ANSI$SF
 70
     0
  3

  4
"
  5

  6

  7

 40
1.0
 41
2.5
 42
1.0
 43
10.0
 44
1.0
 45
0.0
 46
0.0
 47
0.1
 48
0.1
140
3.5
141
0.0
142
0.0
143
0.0393701
144
1.0
145
0.0
146
0.71
147
1.5
 71
     0
 72
     0
 73
     1
 74
     1
 75
     1
 76
     1
 77
     0
 78
     8
170
     0
171
     2
172
     0
173
     0
174
     0
175
     0
176
     2
177
     2
178
     4
  0
DIMSTYLE
  2
AM_ANSI$SH
 70
     0
  3

  4
"
  5

  6
GENAXEH
  7

 40
1.0
 41
2.5
 42
1.0
 43
10.0
 44
1.0
 45
0.0
 46
0.0
 47
0.1
 48
0.1
140
3.5
141
0.0
142
0.0
143
0.0393701
144
1.0
145
0.0
146
0.71
147
1.5
 71
     0
 72
     0
 73
     1
 74
     1
 75
     1
 76
     1
 77
     0
 78
     8
170
     0
171
     2
172
     0
173
     1
174
     0
175
     0
176
     2
177
     2
178
     4
  0
DIMSTYLE
  2
AM_JIS$3
 70
     0
  3

  4
"
  5

  6

  7

 40
1.0
 41
2.0
 42
1.0
 43
10.0
 44
1.0
 45
0.0
 46
0.0
 47
0.1
 48
0.1
140
2.5
141
0.0
142
0.0
143
0.0393701
144
1.0
145
0.0
146
0.71
147
1.5
 71
     0
 72
     0
 73
     0
 74
     1
 75
     0
 76
     0
 77
     3
 78
     8
170
     0
171
     2
172
     0
173
     0
174
     0
175
     0
176
     2
177
     2
178
     4
  0
DIMSTYLE
  2
AM_JIS$4
 70
     0
  3

  4
"
  5

  6

  7

 40
1.0
 41
2.0
 42
1.0
 43
10.0
 44
1.0
 45
0.0
 46
0.0
 47
0.1
 48
0.1
140
2.5
141
0.0
142
0.0
143
0.0393701
144
1.0
145
0.0
146
0.71
147
1.5
 71
     0
 72
     0
 73
     0
 74
     0
 75
     0
 76
     0
 77
     3
 78
     8
170
     0
171
     2
172
     0
173
     0
174
     0
175
     0
176
     2
177
     2
178
     4
  0
DIMSTYLE
  2
AM_JIS$6
 70
     0
  3

  4
"
  5

  6

  7

 40
1.0
 41
2.0
 42
1.0
 43
10.0
 44
1.0
 45
0.0
 46
0.0
 47
0.1
 48
0.1
140
2.5
141
0.0
142
0.0
143
0.0393701
144
1.0
145
0.0
146
0.71
147
1.5
 71
     0
 72
     0
 73
     0
 74
     0
 75
     0
 76
     0
 77
     0
 78
     8
170
     0
171
     2
172
     1
173
     0
174
     0
175
     0
176
     2
177
     2
178
     4
  0
DIMSTYLE
  2
AM_JIS$7
 70
     0
  3

  4
"
  5

  6
OPEN30
  7
OPEN30
 40
1.0
 41
2.0
 42
1.0
 43
10.0
 44
1.0
 45
0.0
 46
0.0
 47
0.1
 48
0.1
140
2.5
141
0.0
142
0.0
143
0.0393701
144
1.0
145
0.0
146
0.71
147
1.5
 71
     0
 72
     0
 73
     0
 74
     0
 75
     0
 76
     0
 77
     3
 78
     8
170
     0
171
     2
172
     1
173
     0
174
     0
175
     0
176
     2
177
     2
178
     4
  0
DIMSTYLE
  2
AM_JIS$SF
 70
     0
  3

  4
"
  5

  6

  7

 40
1.0
 41
2.0
 42
1.0
 43
10.0
 44
1.0
 45
0.0
 46
0.0
 47
0.1
 48
0.1
140
2.5
141
0.0
142
0.0
143
0.0393701
144
1.0
145
0.0
146
0.71
147
1.5
 71
     0
 72
     0
 73
     0
 74
     0
 75
     1
 76
     1
 77
     3
 78
     8
170
     0
171
     2
172
     1
173
     0
174
     0
175
     0
176
     2
177
     2
178
     4
  0
DIMSTYLE
  2
AM_JIS$SH
 70
     0
  3

  4
"
  5

  6
GENAXEH
  7

 40
1.0
 41
2.0
 42
1.0
 43
10.0
 44
1.0
 45
0.0
 46
0.0
 47
0.1
 48
0.1
140
2.5
141
0.0
142
0.0
143
0.0393701
144
2.0
145
0.0
146
0.71
147
1.5
 71
     0
 72
     0
 73
     0
 74
     0
 75
     1
 76
     1
 77
     3
 78
     8
170
     0
171
     2
172
     1
173
     1
174
     0
175
     0
176
     2
177
     2
178
     4
  0
ENDTAB
  0
ENDSEC
  0
SECTION
  2
BLOCKS
  0
BLOCK
  8
0
  2
$MODEL_SPACE
 70
     0
 10
0.0
 20
0.0
 30
0.0
  3
$MODEL_SPACE
  1

  0
ENDBLK
  5
1A
  8
0
  0
BLOCK
 67
     1
  8
0
  2
$PAPER_SPACE
 70
     0
 10
0.0
 20
0.0
 30
0.0
  3
$PAPER_SPACE
  1

  0
ENDBLK
  5
17
 67
     1
  8
0
  0
BLOCK
  8
0
  2
GENAXEH
 70
     0
 10
0.0
 20
0.0
 30
0.0
  3
GENAXEH
  1

  0
LINE
  5
1A7E8
  8
0
 10
-1.0
 20
0.0
 30
0.0
 11
1.0
 21
0.0
 31
0.0
  0
ENDBLK
  5
1A7E9
  8
0
  0
BLOCK
  8
0
  6
BYBLOCK
 62
     0
  2
$6-44
 70
     0
 10
0.0
 20
0.0
 30
0.0
  3
$6-44
  1

  0
ARC
  5
19C4B
  8
0
  6
CONTINUOUS
 62
     0
 10
-2.300003000000002
 20
2.3999909999999431
 30
0.0
 40
2.2000009999999981
 50
90.000003000000945
 51
179.99997799999841
  0
ARC
  5
19C4C
  8
0
  6
CONTINUOUS
 62
     0
 10
2.300003000000002
 20
2.3999910000000551
 30
0.0
 40
2.1999970000000002
 50
0.0
 51
89.999982000000827
  0
LINE
  5
19C4D
  8
0
  6
CONTINUOUS
 62
     0
 10
-0.0494449999999915
 20
0.0
 30
0.0
 11
-0.8000000000000112
 21
1.30000000000001
 31
0.0
  0
LINE
  5
19C4E
  8
0
  6
CONTINUOUS
 62
     0
 10
0.9505550000000083
 20
0.0
 30
0.0
 11
0.1999999999999886
 21
1.30000000000001
 31
0.0
  0
LINE
  5
19C4F
  8
0
  6
CONTINUOUS
 62
     0
 10
4.600000000000021
 20
1.30000000000001
 30
0.0
 11
4.600000000000021
 21
0.0
 31
0.0
  0
LINE
  5
19C50
  8
0
  6
CONTINUOUS
 62
     0
 10
-4.600000000000021
 20
1.30000000000001
 30
0.0
 11
-4.600000000000021
 21
0.0
 31
0.0
  0
LINE
  5
19C51
  8
0
  6
CONTINUOUS
 62
     0
 10
4.600000000000021
 20
0.0
 30
0.0
 11
-4.600000000000021
 21
0.0
 31
0.0
  0
LINE
  5
19C52
  8
0
  6
CONTINUOUS
 62
     0
 10
2.300003000000002
 20
4.6000029999999583
 30
0.0
 11
-2.300003000000002
 21
4.6000029999999583
 31
0.0
  0
LINE
  5
19C53
  8
0
  6
CONTINUOUS
 62
     0
 10
4.600000000000021
 20
1.30000000000001
 30
0.0
 11
-4.600000000000021
 21
1.30000000000001
 31
0.0
  0
LINE
  5
19C54
  8
0
  6
CONTINUOUS
 62
     0
 10
-4.5
 20
1.30000000000001
 30
0.0
 11
-4.5
 21
2.3999909999999431
 31
0.0
  0
LINE
  5
19C55
  8
0
  6
CONTINUOUS
 62
     0
 10
4.5
 20
1.30000000000001
 30
0.0
 11
4.5
 21
2.3999910000000551
 31
0.0
  0
ENDBLK
  5
19C56
  8
0
  6
BYBLOCK
 62
     0
  0
BLOCK
  8
0
  2
_OPEN30
 70
     0
 10
0.0
 20
0.0
 30
0.0
  3
_OPEN30
  1

  0
LINE
  5
1A82F
  8
0
  6
BYBLOCK
 62
     0
 10
-1.0
 20
0.26794919
 30
0.0
 11
0.0
 21
0.0
 31
0.0
  0
LINE
  5
1A830
  8
0
  6
BYBLOCK
 62
     0
 10
0.0
 20
0.0
 30
0.0
 11
-1.0
 21
-0.26794919
 31
0.0
  0
LINE
  5
1A831
  8
0
  6
BYBLOCK
 62
     0
 10
0.0
 20
0.0
 30
0.0
 11
-1.0
 21
0.0
 31
0.0
  0
ENDBLK
  5
1A832
  8
0
  0
BLOCK
  8
0
  2
_NONE
 70
     0
 10
0.0
 20
0.0
 30
0.0
  3
_NONE
  1

  0
ENDBLK
  5
1A96E
  8
0
  0
ENDSEC
  0
SECTION
  2
ENTITIES
  0
POINT
  5
1B94
  8
0
 10
0.0
 20
0.0
 30
0.0
1001
GENIUS_GENODEF_13
1002
{
1000
HIER
1070
     1
1002
}
1002
{
1000
MANEDIT
1070
     0
1002
}
1002
{
1000
NOSEL
1070
     0
1002
}
1002
{
1000
BEHIND
1070
     0
1002
}
1002
{
1000
REACTOR
1002
}
1001
GENIUS_GENOBJ-N-SDF_13
1002
{
1000
OWNER
1000
GEN
1002
}
1001
GENIUS_GENOENT_13
1002
{
1000
MYREF
1005
1B94
1002
}
1002
{
1000
GRP
1005
0
1002
}
1001
GENIUS_GENOLIS_13
1002
{
1000
ENT
1005
89
1002
}
  0
LINE
  5
18D4F
  8
0
 10
533.05122532238511
 20
429.30398187140219
 30
0.0
 11
641.9957414296963
 21
429.30398187140219
 31
0.0
  0
POLYLINE
  5
18D50
  8
AM_0
 10
535.02349706145822
 20
318.30398187140298
 30
0.0
 66
     1
 70
     8
  0
VERTEX
  8
AM_0
  5
1A9D9
 10
535.023
 20
318.304
 30
0.000000
  70
    32
  0
VERTEX
  8
AM_0
  5
1A9DA
 10
535.054
 20
319.531
 30
0.000000
  70
    32
  0
VERTEX
  8
AM_0
  5
1A9DB
 10
535.144
 20
320.754
 30
0.000000
  70
    32
  0
VERTEX
  8
AM_0
  5
1A9DC
 10
535.294
 20
321.972
 30
0.000000
  70
    32
  0
VERTEX
  8
AM_0
  5
1A9DD
 10
535.504
 20
323.181
 30
0.000000
  70
    32
  0
VERTEX
  8
AM_0
  5
1A9DE
 10
535.773
 20
324.379
 30
0.000000
  70
    32
  0
VERTEX
  8
AM_0
  5
1A9DF
 10
536.100
 20
325.561
 30
0.000000
  70
    32
  0
VERTEX
  8
AM_0
  5
1A9E0
 10
536.485
 20
326.726
 30
0.000000
  70
    32
  0
VERTEX
  8
AM_0
  5
1A9E1
 10
536.927
 20
327.871
 30
0.000000
  70
    32
  0
VERTEX
  8
AM_0
  5
1A9E2
 10
537.424
 20
328.993
 30
0.000000
  70
    32
  0
VERTEX
  8
AM_0
  5
1A9E3
 10
537.975
 20
330.089
 30
0.000000
  70
    32
  0
VERTEX
  8
AM_0
  5
1A9E4
 10
538.580
 20
331.157
 30
0.000000
  70
    32
  0
VERTEX
  8
AM_0
  5
1A9E5
 10
539.237
 20
332.194
 30
0.000000
  70
    32
  0
VERTEX
  8
AM_0
  5
1A9E6
 10
539.943
 20
333.197
 30
0.000000
  70
    32
  0
VERTEX
  8
AM_0
  5
1A9E7
 10
540.698
 20
334.164
 30
0.000000
  70
    32
  0
VERTEX
  8
AM_0
  5
1A9E8
 10
541.500
 20
335.093
 30
0.000000
  70
    32
  0
VERTEX
  8
AM_0
  5
1A9E9
 10
542.346
 20
335.982
 30
0.000000
  70
    32
  0
VERTEX
  8
AM_0
  5
1A9EA
 10
543.235
 20
336.828
 30
0.000000
  70
    32
  0
VERTEX
  8
AM_0
  5
1A9EB
 10
544.164
 20
337.630
 30
0.000000
  70
    32
  0
VERTEX
  8
AM_0
  5
1A9EC
 10
545.131
 20
338.385
 30
0.000000
  70
    32
  0
VERTEX
  8
AM_0
  5
1A9ED
 10
546.134
 20
339.091
 30
0.000000
  70
    32
  0
VERTEX
  8
AM_0
  5
1A9EE
 10
547.171
 20
339.748
 30
0.000000
  70
    32
  0
VERTEX
  8
AM_0
  5
1A9EF
 10
548.239
 20
340.352
 30
0.000000
  70
    32
  0
VERTEX
  8
AM_0
  5
1A9F0
 10
549.335
 20
340.904
 30
0.000000
  70
    32
  0
VERTEX
  8
AM_0
  5
1A9F1
 10
550.456
 20
341.401
 30
0.000000
  70
    32
  0
VERTEX
  8
AM_0
  5
1A9F2
 10
551.601
 20
341.843
 30
0.000000
  70
    32
  0
VERTEX
  8
AM_0
  5
1A9F3
 10
552.766
 20
342.228
 30
0.000000
  70
    32
  0
VERTEX
  8
AM_0
  5
1A9F4
 10
553.949
 20
342.555
 30
0.000000
  70
    32
  0
VERTEX
  8
AM_0
  5
1A9F5
 10
555.146
 20
342.824
 30
0.000000
  70
    32
  0
VERTEX
  8
AM_0
  5
1A9F6
 10
556.355
 20
343.034
 30
0.000000
  70
    32
  0
VERTEX
  8
AM_0
  5
1A9F7
 10
557.573
 20
343.184
 30
0.000000
  70
    32
  0
VERTEX
  8
AM_0
  5
1A9F8
 10
558.797
 20
343.274
 30
0.000000
  70
    32
  0
VERTEX
  8
AM_0
  5
1A9F9
 10
560.023
 20
343.304
 30
0.000000
  70
    32
  0
VERTEX
  8
AM_0
  5
1A9FA
 10
561.250
 20
343.274
 30
0.000000
  70
    32
  0
VERTEX
  8
AM_0
  5
1A9FB
 10
562.474
 20
343.184
 30
0.000000
  70
    32
  0
VERTEX
  8
AM_0
  5
1A9FC
 10
563.692
 20
343.034
 30
0.000000
  70
    32
  0
VERTEX
  8
AM_0
  5
1A9FD
 10
564.901
 20
342.824
 30
0.000000
  70
    32
  0
VERTEX
  8
AM_0
  5
1A9FE
 10
566.098
 20
342.555
 30
0.000000
  70
    32
  0
VERTEX
  8
AM_0
  5
1A9FF
 10
567.281
 20
342.228
 30
0.000000
  70
    32
  0
VERTEX
  8
AM_0
  5
1AA00
 10
568.446
 20
341.843
 30
0.000000
  70
    32
  0
VERTEX
  8
AM_0
  5
1AA01
 10
569.591
 20
341.401
 30
0.000000
  70
    32
  0
VERTEX
  8
AM_0
  5
1AA02
 10
570.712
 20
340.904
 30
0.000000
  70
    32
  0
VERTEX
  8
AM_0
  5
1AA03
 10
571.808
 20
340.352
 30
0.000000
  70
    32
  0
VERTEX
  8
AM_0
  5
1AA04
 10
572.876
 20
339.748
 30
0.000000
  70
    32
  0
VERTEX
  8
AM_0
  5
1AA05
 10
573.913
 20
339.091
 30
0.000000
  70
    32
  0
VERTEX
  8
AM_0
  5
1AA06
 10
574.916
 20
338.385
 30
0.000000
  70
    32
  0
VERTEX
  8
AM_0
  5
1AA07
 10
575.883
 20
337.630
 30
0.000000
  70
    32
  0
VERTEX
  8
AM_0
  5
1AA08
 10
576.812
 20
336.828
 30
0.000000
  70
    32
  0
VERTEX
  8
AM_0
  5
1AA09
 10
577.701
 20
335.982
 30
0.000000
  70
    32
  0
VERTEX
  8
AM_0
  5
1AA0A
 10
578.547
 20
335.093
 30
0.000000
  70
    32
  0
VERTEX
  8
AM_0
  5
1AA0B
 10
579.349
 20
334.164
 30
0.000000
  70
    32
  0
VERTEX
  8
AM_0
  5
1AA0C
 10
580.104
 20
333.197
 30
0.000000
  70
    32
  0
VERTEX
  8
AM_0
  5
1AA0D
 10
580.810
 20
332.194
 30
0.000000
  70
    32
  0
VERTEX
  8
AM_0
  5
1AA0E
 10
581.467
 20
331.157
 30
0.000000
  70
    32
  0
VERTEX
  8
AM_0
  5
1AA0F
 10
582.072
 20
330.089
 30
0.000000
  70
    32
  0
VERTEX
  8
AM_0
  5
1AA10
 10
582.623
 20
328.993
 30
0.000000
  70
    32
  0
VERTEX
  8
AM_0
  5
1AA11
 10
583.120
 20
327.871
 30
0.000000
  70
    32
  0
VERTEX
  8
AM_0
  5
1AA12
 10
583.562
 20
326.726
 30
0.000000
  70
    32
  0
VERTEX
  8
AM_0
  5
1AA13
 10
583.947
 20
325.561
 30
0.000000
  70
    32
  0
VERTEX
  8
AM_0
  5
1AA14
 10
584.274
 20
324.379
 30
0.000000
  70
    32
  0
VERTEX
  8
AM_0
  5
1AA15
 10
584.543
 20
323.181
 30
0.000000
  70
    32
  0
VERTEX
  8
AM_0
  5
1AA16
 10
584.753
 20
321.972
 30
0.000000
  70
    32
  0
VERTEX
  8
AM_0
  5
1AA17
 10
584.903
 20
320.754
 30
0.000000
  70
    32
  0
VERTEX
  8
AM_0
  5
1AA18
 10
584.993
 20
319.531
 30
0.000000
  70
    32
  0
VERTEX
  8
AM_0
  5
1AA19
 10
585.023
 20
318.304
 30
0.000000
  70
    32
  0
VERTEX
  8
AM_0
  5
1AA1A
 10
584.993
 20
317.077
 30
0.000000
  70
    32
  0
VERTEX
  8
AM_0
  5
1AA1B
 10
584.903
 20
315.854
 30
0.000000
  70
    32
  0
VERTEX
  8
AM_0
  5
1AA1C
 10
584.753
 20
314.636
 30
0.000000
  70
    32
  0
VERTEX
  8
AM_0
  5
1AA1D
 10
584.543
 20
313.427
 30
0.000000
  70
    32
  0
VERTEX
  8
AM_0
  5
1AA1E
 10
584.274
 20
312.229
 30
0.000000
  70
    32
  0
VERTEX
  8
AM_0
  5
1AA1F
 10
583.947
 20
311.047
 30
0.000000
  70
    32
  0
VERTEX
  8
AM_0
  5
1AA20
 10
583.562
 20
309.882
 30
0.000000
  70
    32
  0
VERTEX
  8
AM_0
  5
1AA21
 10
583.120
 20
308.737
 30
0.000000
  70
    32
  0
VERTEX
  8
AM_0
  5
1AA22
 10
582.623
 20
307.615
 30
0.000000
  70
    32
  0
VERTEX
  8
AM_0
  5
1AA23
 10
582.072
 20
306.519
 30
0.000000
  70
    32
  0
VERTEX
  8
AM_0
  5
1AA24
 10
581.467
 20
305.451
 30
0.000000
  70
    32
  0
VERTEX
  8
AM_0
  5
1AA25
 10
580.810
 20
304.414
 30
0.000000
  70
    32
  0
VERTEX
  8
AM_0
  5
1AA26
 10
580.104
 20
303.411
 30
0.000000
  70
    32
  0
VERTEX
  8
AM_0
  5
1AA27
 10
579.349
 20
302.444
 30
0.000000
  70
    32
  0
VERTEX
  8
AM_0
  5
1AA28
 10
578.547
 20
301.515
 30
0.000000
  70
    32
  0
VERTEX
  8
AM_0
  5
1AA29
 10
577.701
 20
300.626
 30
0.000000
  70
    32
  0
VERTEX
  8
AM_0
  5
1AA2A
 10
576.812
 20
299.780
 30
0.000000
  70
    32
  0
VERTEX
  8
AM_0
  5
1AA2B
 10
575.883
 20
298.978
 30
0.000000
  70
    32
  0
VERTEX
  8
AM_0
  5
1AA2C
 10
574.916
 20
298.223
 30
0.000000
  70
    32
  0
VERTEX
  8
AM_0
  5
1AA2D
 10
573.913
 20
297.517
 30
0.000000
  70
    32
  0
VERTEX
  8
AM_0
  5
1AA2E
 10
572.876
 20
296.860
 30
0.000000
  70
    32
  0
VERTEX
  8
AM_0
  5
1AA2F
 10
571.808
 20
296.256
 30
0.000000
  70
    32
  0
VERTEX
  8
AM_0
  5
1AA30
 10
570.712
 20
295.704
 30
0.000000
  70
    32
  0
VERTEX
  8
AM_0
  5
1AA31
 10
569.591
 20
295.207
 30
0.000000
  70
    32
  0
VERTEX
  8
AM_0
  5
1AA32
 10
568.446
 20
294.765
 30
0.000000
  70
    32
  0
VERTEX
  8
AM_0
  5
1AA33
 10
567.281
 20
294.380
 30
0.000000
  70
    32
  0
VERTEX
  8
AM_0
  5
1AA34
 10
566.098
 20
294.053
 30
0.000000
  70
    32
  0
VERTEX
  8
AM_0
  5
1AA35
 10
564.901
 20
293.784
 30
0.000000
  70
    32
  0
VERTEX
  8
AM_0
  5
1AA36
 10
563.692
 20
293.574
 30
0.000000
  70
    32
  0
VERTEX
  8
AM_0
  5
1AA37
 10
562.474
 20
293.424
 30
0.000000
  70
    32
  0
VERTEX
  8
AM_0
  5
1AA38
 10
561.250
 20
293.334
 30
0.000000
  70
    32
  0
VERTEX
  8
AM_0
  5
1AA39
 10
560.023
 20
293.303
 30
0.000000
  70
    32
  0
VERTEX
  8
AM_0
  5
1AA3A
 10
558.797
 20
293.334
 30
0.000000
  70
    32
  0
VERTEX
  8
AM_0
  5
1AA3B
 10
557.573
 20
293.424
 30
0.000000
  70
    32
  0
VERTEX
  8
AM_0
  5
1AA3C
 10
556.355
 20
293.574
 30
0.000000
  70
    32
  0
VERTEX
  8
AM_0
  5
1AA3D
 10
555.146
 20
293.784
 30
0.000000
  70
    32
  0
VERTEX
  8
AM_0
  5
1AA3E
 10
553.949
 20
294.053
 30
0.000000
  70
    32
  0
VERTEX
  8
AM_0
  5
1AA3F
 10
552.766
 20
294.380
 30
0.000000
  70
    32
  0
VERTEX
  8
AM_0
  5
1AA40
 10
551.601
 20
294.765
 30
0.000000
  70
    32
  0
VERTEX
  8
AM_0
  5
1AA41
 10
550.456
 20
295.207
 30
0.000000
  70
    32
  0
VERTEX
  8
AM_0
  5
1AA42
 10
549.335
 20
295.704
 30
0.000000
  70
    32
  0
VERTEX
  8
AM_0
  5
1AA43
 10
548.239
 20
296.256
 30
0.000000
  70
    32
  0
VERTEX
  8
AM_0
  5
1AA44
 10
547.171
 20
296.860
 30
0.000000
  70
    32
  0
VERTEX
  8
AM_0
  5
1AA45
 10
546.134
 20
297.517
 30
0.000000
  70
    32
  0
VERTEX
  8
AM_0
  5
1AA46
 10
545.131
 20
298.223
 30
0.000000
  70
    32
  0
VERTEX
  8
AM_0
  5
1AA47
 10
544.164
 20
298.978
 30
0.000000
  70
    32
  0
VERTEX
  8
AM_0
  5
1AA48
 10
543.235
 20
299.780
 30
0.000000
  70
    32
  0
VERTEX
  8
AM_0
  5
1AA49
 10
542.346
 20
300.626
 30
0.000000
  70
    32
  0
VERTEX
  8
AM_0
  5
1AA4A
 10
541.500
 20
301.515
 30
0.000000
  70
    32
  0
VERTEX
  8
AM_0
  5
1AA4B
 10
540.698
 20
302.444
 30
0.000000
  70
    32
  0
VERTEX
  8
AM_0
  5
1AA4C
 10
539.943
 20
303.411
 30
0.000000
  70
    32
  0
VERTEX
  8
AM_0
  5
1AA4D
 10
539.237
 20
304.414
 30
0.000000
  70
    32
  0
VERTEX
  8
AM_0
  5
1AA4E
 10
538.580
 20
305.451
 30
0.000000
  70
    32
  0
VERTEX
  8
AM_0
  5
1AA4F
 10
537.975
 20
306.519
 30
0.000000
  70
    32
  0
VERTEX
  8
AM_0
  5
1AA50
 10
537.424
 20
307.615
 30
0.000000
  70
    32
  0
VERTEX
  8
AM_0
  5
1AA51
 10
536.927
 20
308.737
 30
0.000000
  70
    32
  0
VERTEX
  8
AM_0
  5
1AA52
 10
536.485
 20
309.882
 30
0.000000
  70
    32
  0
VERTEX
  8
AM_0
  5
1AA53
 10
536.100
 20
311.047
 30
0.000000
  70
    32
  0
VERTEX
  8
AM_0
  5
1AA54
 10
535.773
 20
312.229
 30
0.000000
  70
    32
  0
VERTEX
  8
AM_0
  5
1AA55
 10
535.504
 20
313.427
 30
0.000000
  70
    32
  0
VERTEX
  8
AM_0
  5
1AA56
 10
535.294
 20
314.636
 30
0.000000
  70
    32
  0
VERTEX
  8
AM_0
  5
1AA57
 10
535.144
 20
315.854
 30
0.000000
  70
    32
  0
VERTEX
  8
AM_0
  5
1AA58
 10
535.054
 20
317.077
 30
0.000000
  70
    32
  0
VERTEX
  8
AM_0
  5
1AA59
 10
535.023
 20
318.304
 30
0.000000
  70
    32
  0
SEQEND
  8
AM_0
  5
1AA5A
  0
LINE
  5
18D51
  8
0
 10
533.05122532238511
 20
207.30398187140361
 30
0.0
 11
641.9957414296963
 21
207.30398187140361
 31
0.0
  0
LINE
  5
18D5A
  8
ﾁｭｳｼﾝｾﾝ1
 10
965.99000000000001
 20
318.3039818714031
 30
0.0
 11
473.27475997408459
 21
318.30398187140298
 31
0.0
  0
LINE
  5
18D5E
  8
0
 10
515.02346894506479
 20
201.30398187140361
 30
0.0
 11
660.02349780701661
 21
201.30398187140361
 31
0.0
  0
LINE
  5
18D5F
  8
0
  6
CONTINUOUS
 62
     7
 10
536.78082825794525
 20
244.3039818714031
 30
0.0
 11
499.02349554934227
 21
244.3039818714031
 31
0.0
  0
LINE
  5
18D60
  8
0
 10
528.39201116782647
 20
227.42988340704559
 30
0.0
 11
543.14478928862468
 21
242.182661527844
 31
0.0
  0
LINE
  5
18D61
  8
0
 10
524.14937048070715
 20
231.672524094165
 30
0.0
 11
538.90214860150581
 21
246.42530221496361
 31
0.0
  0
CIRCLE
  5
18D62
  8
0
 10
560.02349780701661
 20
318.30398187140298
 30
0.0
 40
50.0
  0
LINE
  5
18D63
  8
0
 10
515.02346894506479
 20
435.30398187140281
 30
0.0
 11
660.02349780701672
 21
435.30398187140281
 31
0.0
  0
LINE
  5
18D65
  8
0
  6
CONTINUOUS
 62
     7
 10
536.78082825794627
 20
392.3039818714027
 30
0.0
 11
499.02349554934227
 21
392.3039818714027
 31
0.0
  0
LINE
  5
18D66
  8
0
 10
528.39201116782647
 20
409.17808033576063
 30
0.0
 11
543.14478928862513
 21
394.42530221496219
 31
0.0
  0
LINE
  5
18D67
  8
0
 10
524.14937048070715
 20
404.93543964864108
 30
0.0
 11
538.90214860150581
 21
390.18266152784321
 31
0.0
  0
ARC
  5
18D82
  8
0
 10
494.02349554934221
 20
367.39801027779367
 30
0.0
 40
5.0
 50
69.332681879990645
 51
180.0
1001
GENIUS_GENOBJ-N-FIL_13
1002
{
1000
OWNER
1000
GEN
1002
}
1001
GENIUS_GENODEF_13
1002
{
1000
HIER
1070
     0
1002
}
1002
{
1000
MANEDIT
1070
     0
1002
}
1002
{
1000
NOSEL
1070
     0
1002
}
1002
{
1000
BEHIND
1070
     0
1002
}
1002
{
1000
OTHER
1070
     0
1002
}
1002
{
1000
REACTOR
1002
}
  0
ARC
  5
18D83
  8
0
 10
500.023496000877
 20
383.3039838280539
 30
0.0
 40
12.0
 50
249.33268187999059
 51
13.60895384571479
  0
LINE
  5
18D86
  8
ﾁｭｳｼﾝｾﾝ1
 10
222.86585693450439
 20
183.9980173710986
 30
0.0
 11
222.8658568606123
 21
407.53366472941173
 31
0.0
  0
LINE
  5
18D87
  8
AM_0
 10
163.86585510254869
 20
240.04949343177711
 30
0.0
 11
163.86585510254869
 21
396.55847031102928
 31
0.0
  0
LINE
  5
18D89
  8
AM_0
 10
256.86585811278093
 20
238.4261654373386
 30
0.0
 11
256.86585811278093
 21
398.18179830546802
 31
0.0
  0
LINE
  5
18D8B
  8
AM_0
 10
322.86585687858548
 20
201.30398187140329
 30
0.0
 11
322.86585687858548
 21
435.30398187140281
 31
0.0
  0
LINE
  5
18D8F
  8
AM_0
 10
483.02349554934221
 20
383.30398382805458
 30
0.0
 11
483.02349554934221
 21
253.3039799147526
 31
0.0
  0
LINE
  5
18D90
  8
AM_0
 10
489.02349554934227
 20
383.30398382805458
 30
0.0
 11
489.02349554934227
 21
253.3039799147526
 31
0.0
  0
LINE
  5
18D98
  8
AM_0
 10
163.86585510254869
 20
240.04949343177711
 30
0.0
 11
256.86585811278093
 21
238.4261654373386
 31
0.0
  0
LINE
  5
18D9A
  8
ﾁｭｳｼﾝｾﾝ1
 10
384.1832465147786
 20
318.30398187140281
 30
0.0
 11
137.31722878740101
 21
318.30398187140321
 31
0.0
  0
LINE
  5
18DA4
  8
AM_0
 10
161.36585510254869
 20
265.30397991475218
 30
0.0
 11
161.36585510254869
 21
241.3039799147522
 31
0.0
  0
LINE
  5
18DA5
  8
AM_0
 10
149.36585510254869
 20
262.30397991475218
 30
0.0
 11
149.36585510254869
 21
244.3039799147522
 31
0.0
  0
LINE
  5
18DA9
  8
0
 10
149.36585510254869
 20
244.3039799147522
 30
0.0
 11
161.36585510254869
 21
244.3039799147522
 31
0.0
  0
LINE
  5
18DAA
  8
0
 10
161.36585510254869
 20
241.3039799147522
 30
0.0
 11
163.86585510254869
 21
241.3039799147522
 31
0.0
  0
LINE
  5
18DBA
  8
AM_0
 10
158.8658549520365
 20
368.30398307849589
 30
0.0
 11
158.8658549520365
 21
268.3039806643103
 31
0.0
  0
LINE
  5
18DBD
  8
AM_0
 10
161.36585510254869
 20
262.30397991475218
 30
0.0
 11
149.36585510254869
 21
262.30397991475218
 31
0.0
  0
LINE
  5
18DBF
  8
AM_0
 10
163.86585510254869
 20
265.30397991475218
 30
0.0
 11
161.36585510254869
 21
265.30397991475218
 31
0.0
  0
LINE
  5
18DC0
  8
AM_0
 10
159.8658568596851
 20
262.30397991475218
 30
0.0
 11
159.8658568596851
 21
268.3039806643103
 31
0.0
  0
LINE
  5
18DC1
  8
AM_0
 10
158.8658549520365
 20
268.3039806643103
 30
0.0
 11
163.86585510254869
 21
268.3039806643103
 31
0.0
  0
LINE
  5
18DE5
  8
AM_0
 10
158.8658549520365
 20
368.30398307849589
 30
0.0
 11
163.86585510254869
 21
368.30398307849589
 31
0.0
  0
LINE
  5
18DF0
  8
AM_0
 10
322.86585687858548
 20
201.30398187140329
 30
0.0
 11
299.79605788518029
 21
202.1095970042729
 31
0.0
  0
LINE
  5
18DF1
  8
ﾁｭｳｼﾝｾﾝ1
 10
294.8590675288599
 20
218.30398187140241
 30
0.0
 11
326.5000607836281
 21
218.30398187140261
 31
0.0
  0
LINE
  5
18DFB
  8
AM_0
 10
297.86585687858548
 20
204.1083786583111
 30
0.0
 11
297.86585687858548
 21
234.76239357539339
 31
0.0
  0
ARC
  5
18DFD
  8
0
 10
299.86585687858559
 20
204.1083786583111
 30
0.0
 40
2.0
 50
180.0
 51
267.9999999999996
1001
GENIUS_GENOBJ-N-FIL_13
1002
{
1000
OWNER
1000
GEN
1002
}
1001
GENIUS_GENODEF_13
1002
{
1000
HIER
1070
     0
1002
}
1002
{
1000
MANEDIT
1070
     0
1002
}
1002
{
1000
NOSEL
1070
     0
1002
}
1002
{
1000
BEHIND
1070
     0
1002
}
1002
{
1000
OTHER
1070
     0
1002
}
1002
{
1000
REACTOR
1002
}
  0
LINE
  5
18E00
  8
AM_0
 10
256.86585811278093
 20
238.4261654373386
 30
0.0
 11
294.91821621391512
 21
237.76193662392669
 31
0.0
  0
ARC
  5
18E03
  8
AM_0
 10
294.86585687858548
 20
234.76239357539339
 30
0.0
 40
3.0
 50
0.0
 51
88.999959580874275
1001
GENIUS_GENOBJ-N-FIL_13
1002
{
1000
OWNER
1000
GEN
1002
}
1001
GENIUS_GENODEF_13
1002
{
1000
HIER
1070
     0
1002
}
1002
{
1000
MANEDIT
1070
     0
1002
}
1002
{
1000
NOSEL
1070
     0
1002
}
1002
{
1000
BEHIND
1070
     0
1002
}
1002
{
1000
OTHER
1070
     0
1002
}
1002
{
1000
REACTOR
1002
}
  0
LINE
  5
18E13
  8
ｶｸﾚｾﾝ2
 10
286.86585880513439
 20
356.303983078496
 30
0.0
 11
286.86585880513439
 21
280.3039806643103
 31
0.0
  0
CIRCLE
  5
18E20
  8
0
 10
500.023496000877
 20
253.30397991475249
 30
0.0
 40
5.0
  0
ARC
  5
18E21
  8
0
 10
500.023496000877
 20
253.30397991475249
 30
0.0
 40
12.0
 50
346.39104615428522
 51
110.6673181200093
  0
CIRCLE
  5
18E22
  8
ｷｲﾛ
 10
500.023496000877
 20
253.30397991475249
 30
0.0
 40
6.0
  0
LINE
  5
18E27
  8
0
 10
499.39799927633982
 20
211.60736349854221
 30
0.0
 11
484.39802591712572
 21
246.60736136402321
 31
0.0
  0
LINE
  5
18E28
  8
0
 10
497.81140006660593
 20
230.5410029518446
 30
0.0
 11
489.91289756491102
 21
248.97087373091551
 31
0.0
  0
ARC
  5
18E29
  8
0
 10
499.02349554934221
 20
254.30398187140329
 30
0.0
 40
10.0
 50
180.0
 51
270.0
1001
GENIUS_GENOBJ-N-FIL_13
1002
{
1000
OWNER
1000
GEN
1002
}
1001
GENIUS_GENODEF_13
1002
{
1000
HIER
1070
     0
1002
}
1002
{
1000
MANEDIT
1070
     0
1002
}
1002
{
1000
NOSEL
1070
     0
1002
}
1002
{
1000
BEHIND
1070
     0
1002
}
1002
{
1000
OTHER
1070
     0
1002
}
1002
{
1000
REACTOR
1002
}
  0
ARC
  5
18E2A
  8
AM_0
 10
500.023496000877
 20
253.30397991475269
 30
0.0
 40
11.000000451534831
 50
180.0
 51
203.19855493455009
  0
ARC
  5
18E2B
  8
AM_0
 10
500.023496000877
 20
253.30397991475269
 30
0.0
 40
17.000000451534831
 50
180.0
 51
203.19855493455009
  0
ARC
  5
18E2C
  8
0
 10
530.5133315113859
 20
225.30856306348639
 30
0.0
 40
3.0
 50
135.00000000000429
 51
204.33268350649229
1001
GENIUS_GENOBJ-N-FIL_13
1002
{
1000
OWNER
1000
GEN
1002
}
1001
GENIUS_GENODEF_13
1002
{
1000
HIER
1070
     0
1002
}
1002
{
1000
MANEDIT
1070
     0
1002
}
1002
{
1000
NOSEL
1070
     0
1002
}
1002
{
1000
BEHIND
1070
     0
1002
}
1002
{
1000
OTHER
1070
     0
1002
}
1002
{
1000
REACTOR
1002
}
  0
ARC
  5
18E2E
  8
0
 10
515.02346894506479
 20
218.30398187140301
 30
0.0
 40
14.0
 50
341.591519829417
 51
131.60703510513599
  0
ARC
  5
18E2F
  8
0
 10
515.02346894506479
 20
218.30398187140369
 30
0.0
 40
16.999999999999709
 50
203.19855493455009
 51
270.0
  0
CIRCLE
  5
18E31
  8
0
 10
515.02346894506479
 20
218.30398187140369
 30
0.0
 40
7.0
  0
ARC
  5
18E32
  8
0
 10
533.05122532238511
 20
212.30398187140369
 30
0.0
 40
5.0
 50
161.591519829417
 51
270.0
1001
GENIUS_GENOBJ-N-FIL_13
1002
{
1000
OWNER
1000
GEN
1002
}
1001
GENIUS_GENODEF_13
1002
{
1000
HIER
1070
     0
1002
}
1002
{
1000
MANEDIT
1070
     0
1002
}
1002
{
1000
NOSEL
1070
     0
1002
}
1002
{
1000
BEHIND
1070
     0
1002
}
1002
{
1000
OTHER
1070
     0
1002
}
1002
{
1000
REACTOR
1002
}
  0
ARC
  5
18E33
  8
0
 10
516.5462081164228
 20
249.30398187140349
 30
0.0
 40
5.0
 50
166.39104615428519
 51
270.0
1001
GENIUS_GENOBJ-N-FIL_13
1002
{
1000
OWNER
1000
GEN
1002
}
1001
GENIUS_GENODEF_13
1002
{
1000
HIER
1070
     0
1002
}
1002
{
1000
MANEDIT
1070
     0
1002
}
1002
{
1000
NOSEL
1070
     0
1002
}
1002
{
1000
BEHIND
1070
     0
1002
}
1002
{
1000
OTHER
1070
     0
1002
}
1002
{
1000
REACTOR
1002
}
  0
ARC
  5
18E34
  8
0
 10
502.4071264397603
 20
232.51059659092201
 30
0.0
 40
5.0
 50
203.19855493455009
 51
311.60703510513611
1001
GENIUS_GENOBJ-N-FIL_13
1002
{
1000
OWNER
1000
GEN
1002
}
1001
GENIUS_GENODEF_13
1002
{
1000
HIER
1070
     0
1002
}
1002
{
1000
MANEDIT
1070
     0
1002
}
1002
{
1000
NOSEL
1070
     0
1002
}
1002
{
1000
BEHIND
1070
     0
1002
}
1002
{
1000
OTHER
1070
     0
1002
}
1002
{
1000
REACTOR
1002
}
  0
ARC
  5
18E35
  8
0
 10
522.02805013714726
 20
233.793844437725
 30
0.0
 40
3.0
 50
245.66731649351581
 51
315.00000000000432
1001
GENIUS_GENODEF_13
1002
{
1000
HIER
1070
     0
1002
}
1002
{
1000
MANEDIT
1070
     0
1002
}
1002
{
1000
NOSEL
1070
     0
1002
}
1002
{
1000
BEHIND
1070
     0
1002
}
1002
{
1000
OTHER
1070
     0
1002
}
1002
{
1000
REACTOR
1002
}
1001
GENIUS_GENOBJ-N-FIL_13
1002
{
1000
OWNER
1000
GEN
1002
}
  0
ARC
  5
18E38
  8
0
 10
492.0234955493421
 20
299.30398187140332
 30
0.0
 40
3.0
 50
180.0
 51
270.0
1001
GENIUS_GENODEF_13
1002
{
1000
HIER
1070
     0
1002
}
1002
{
1000
MANEDIT
1070
     0
1002
}
1002
{
1000
NOSEL
1070
     0
1002
}
1002
{
1000
BEHIND
1070
     0
1002
}
1002
{
1000
OTHER
1070
     0
1002
}
1002
{
1000
REACTOR
1002
}
1001
GENIUS_GENOBJ-N-FIL_13
1002
{
1000
OWNER
1000
GEN
1002
}
  0
ARC
  5
18E39
  8
0
 10
492.0234955493421
 20
287.30398187140332
 30
0.0
 40
3.0
 50
90.0
 51
180.0
1001
GENIUS_GENODEF_13
1002
{
1000
HIER
1070
     0
1002
}
1002
{
1000
MANEDIT
1070
     0
1002
}
1002
{
1000
NOSEL
1070
     0
1002
}
1002
{
1000
BEHIND
1070
     0
1002
}
1002
{
1000
OTHER
1070
     0
1002
}
1002
{
1000
REACTOR
1002
}
1001
GENIUS_GENOBJ-N-FIL_13
1002
{
1000
OWNER
1000
GEN
1002
}
  0
ARC
  5
18E3A
  8
0
 10
494.02349554934221
 20
269.20995346501292
 30
0.0
 40
5.0
 50
180.0
 51
290.66731812000938
1001
GENIUS_GENOBJ-N-FIL_13
1002
{
1000
OWNER
1000
GEN
1002
}
1001
GENIUS_GENODEF_13
1002
{
1000
HIER
1070
     0
1002
}
1002
{
1000
MANEDIT
1070
     0
1002
}
1002
{
1000
NOSEL
1070
     0
1002
}
1002
{
1000
BEHIND
1070
     0
1002
}
1002
{
1000
OTHER
1070
     0
1002
}
1002
{
1000
REACTOR
1002
}
  0
ARC
  5
18E3B
  8
0
 10
492.0257348014506
 20
293.30398270711157
 30
0.0
 40
3.0000000000000631
 50
270.0
 51
89.999999999998366
  0
ARC
  5
18E3C
  8
0
 10
492.0234955493421
 20
337.30398187140332
 30
0.0
 40
3.0
 50
90.0
 51
180.0
1001
GENIUS_GENODEF_13
1002
{
1000
HIER
1070
     0
1002
}
1002
{
1000
MANEDIT
1070
     0
1002
}
1002
{
1000
NOSEL
1070
     0
1002
}
1002
{
1000
BEHIND
1070
     0
1002
}
1002
{
1000
OTHER
1070
     0
1002
}
1002
{
1000
REACTOR
1002
}
1001
GENIUS_GENOBJ-N-FIL_13
1002
{
1000
OWNER
1000
GEN
1002
}
  0
ARC
  5
18E3D
  8
0
 10
492.0234955493421
 20
349.30398187140332
 30
0.0
 40
3.0
 50
180.0
 51
270.0
1001
GENIUS_GENODEF_13
1002
{
1000
HIER
1070
     0
1002
}
1002
{
1000
MANEDIT
1070
     0
1002
}
1002
{
1000
NOSEL
1070
     0
1002
}
1002
{
1000
BEHIND
1070
     0
1002
}
1002
{
1000
OTHER
1070
     0
1002
}
1002
{
1000
REACTOR
1002
}
1001
GENIUS_GENOBJ-N-FIL_13
1002
{
1000
OWNER
1000
GEN
1002
}
  0
ARC
  5
18E3E
  8
0
 10
492.0234955493421
 20
343.30398187140321
 30
0.0
 40
3.0000000000000631
 50
270.0
 51
89.999999999998366
  0
LINE
  5
18E42
  8
AM_0
 10
163.86585510254869
 20
396.55847031102928
 30
0.0
 11
256.86585811278093
 21
398.18179830546802
 31
0.0
  0
LINE
  5
18E46
  8
AM_0
 10
161.36585510254869
 20
371.30398382805419
 30
0.0
 11
161.36585510254869
 21
395.3039838280543
 31
0.0
  0
LINE
  5
18E47
  8
AM_0
 10
149.36585510254869
 20
374.30398382805419
 30
0.0
 11
149.36585510254869
 21
392.30398382805419
 31
0.0
  0
LINE
  5
18E48
  8
AM_0
 10
161.36585510254869
 20
374.30398382805419
 30
0.0
 11
149.36585510254869
 21
374.30398382805419
 31
0.0
  0
LINE
  5
18E49
  8
AM_0
 10
163.86585510254869
 20
371.30398382805419
 30
0.0
 11
161.36585510254869
 21
371.30398382805419
 31
0.0
  0
LINE
  5
18E4A
  8
0
 10
149.36585510254869
 20
392.30398382805419
 30
0.0
 11
161.36585510254869
 21
392.30398382805419
 31
0.0
  0
LINE
  5
18E4B
  8
0
 10
161.36585510254869
 20
395.3039838280543
 30
0.0
 11
163.86585510254869
 21
395.3039838280543
 31
0.0
  0
LINE
  5
18E4F
  8
AM_0
 10
322.86585687858548
 20
435.30398187140281
 30
0.0
 11
299.79605788518029
 21
434.4983667385336
 31
0.0
  0
LINE
  5
18E51
  8
ﾁｭｳｼﾝｾﾝ1
 10
294.8590675288599
 20
418.30398187140321
 30
0.0
 11
326.5000607836281
 21
418.30398187140281
 31
0.0
  0
LINE
  5
18E53
  8
AM_0
 10
297.86585687858508
 20
401.84551752059781
 30
0.0
 11
297.86585687858548
 21
432.49958508449532
 31
0.0
  0
ARC
  5
18E54
  8
AM_0
 10
294.86585687858508
 20
401.84551752059781
 30
0.0
 40
3.0
 50
270.99994330824489
 51
0.0
1001
GENIUS_GENOBJ-N-FIL_13
1002
{
1000
OWNER
1000
GEN
1002
}
1001
GENIUS_GENODEF_13
1002
{
1000
HIER
1070
     0
1002
}
1002
{
1000
MANEDIT
1070
     0
1002
}
1002
{
1000
NOSEL
1070
     0
1002
}
1002
{
1000
BEHIND
1070
     0
1002
}
1002
{
1000
OTHER
1070
     0
1002
}
1002
{
1000
REACTOR
1002
}
  0
LINE
  5
18E57
  8
AM_0
 10
256.86585811278093
 20
398.18179830546802
 30
0.0
 11
294.9182111299757
 21
398.84597438332497
 31
0.0
  0
ARC
  5
18E5A
  8
0
 10
299.86585687858559
 20
432.49958508449532
 30
0.0
 40
2.0
 50
92.000000000000398
 51
180.0
1001
GENIUS_GENODEF_13
1002
{
1000
HIER
1070
     0
1002
}
1002
{
1000
MANEDIT
1070
     0
1002
}
1002
{
1000
NOSEL
1070
     0
1002
}
1002
{
1000
BEHIND
1070
     0
1002
}
1002
{
1000
OTHER
1070
     0
1002
}
1002
{
1000
REACTOR
1002
}
1001
GENIUS_GENOBJ-N-FIL_13
1002
{
1000
OWNER
1000
GEN
1002
}
  0
ARC
  5
18E68
  8
0
 10
515.02346894506479
 20
418.30398187140321
 30
0.0
 40
16.999999999999709
 50
90.0
 51
156.80144506544991
  0
LINE
  5
18E69
  8
ﾁｭｳｼﾝｾﾝ1
 10
515.02346894506479
 20
403.30398187140332
 30
0.0
 11
515.02346894506479
 21
433.3039818714031
 31
0.0
  0
ARC
  5
18E6A
  8
0
 10
533.05122532238511
 20
424.30398187140281
 30
0.0
 40
5.0
 50
90.0
 51
198.40848017058289
1001
GENIUS_GENOBJ-N-FIL_13
1002
{
1000
OWNER
1000
GEN
1002
}
1001
GENIUS_GENODEF_13
1002
{
1000
HIER
1070
     0
1002
}
1002
{
1000
MANEDIT
1070
     0
1002
}
1002
{
1000
NOSEL
1070
     0
1002
}
1002
{
1000
BEHIND
1070
     0
1002
}
1002
{
1000
OTHER
1070
     0
1002
}
1002
{
1000
REACTOR
1002
}
  0
LINE
  5
18E6B
  8
0
 10
497.81140006660593
 20
406.0669607909611
 30
0.0
 11
489.91289756491108
 21
387.63709001189079
 31
0.0
  0
ARC
  5
18E6C
  8
0
 10
499.02349554934221
 20
382.30398187140281
 30
0.0
 40
10.0
 50
90.0
 51
180.0
1001
GENIUS_GENODEF_13
1002
{
1000
HIER
1070
     0
1002
}
1002
{
1000
MANEDIT
1070
     0
1002
}
1002
{
1000
NOSEL
1070
     0
1002
}
1002
{
1000
BEHIND
1070
     0
1002
}
1002
{
1000
OTHER
1070
     0
1002
}
1002
{
1000
REACTOR
1002
}
1001
GENIUS_GENOBJ-N-FIL_13
1002
{
1000
OWNER
1000
GEN
1002
}
  0
LINE
  5
18E6D
  8
0
 10
499.39799927633982
 20
425.00060024426449
 30
0.0
 11
484.39802591712572
 21
390.00060237878358
 31
0.0
  0
ARC
  5
18E6E
  8
AM_0
 10
500.023496000877
 20
383.3039838280543
 30
0.0
 40
11.000000451534831
 50
156.80144506544991
 51
180.0
  0
ARC
  5
18E6F
  8
AM_0
 10
500.023496000877
 20
383.3039838280543
 30
0.0
 40
17.000000451534831
 50
156.80144506544991
 51
180.0
  0
ARC
  5
18E70
  8
0
 10
516.5462081164228
 20
387.30398187140281
 30
0.0
 40
5.0
 50
90.0
 51
193.60895384571481
1001
GENIUS_GENOBJ-N-FIL_13
1002
{
1000
OWNER
1000
GEN
1002
}
1001
GENIUS_GENODEF_13
1002
{
1000
HIER
1070
     0
1002
}
1002
{
1000
MANEDIT
1070
     0
1002
}
1002
{
1000
NOSEL
1070
     0
1002
}
1002
{
1000
BEHIND
1070
     0
1002
}
1002
{
1000
OTHER
1070
     0
1002
}
1002
{
1000
REACTOR
1002
}
  0
CIRCLE
  5
18E71
  8
0
 10
500.023496000877
 20
383.30398382805458
 30
0.0
 40
5.0
  0
CIRCLE
  5
18E72
  8
ｷｲﾛ
 10
500.023496000877
 20
383.30398382805458
 30
0.0
 40
6.0
  0
LINE
  5
18E73
  8
ﾁｭｳｼﾝｾﾝ1
 10
500.02346894506479
 20
418.30398187140281
 30
0.0
 11
530.02346894506491
 21
418.30398187140281
 31
0.0
  0
CIRCLE
  5
18E74
  8
0
 10
515.02346894506479
 20
418.30398187140321
 30
0.0
 40
7.0
  0
ARC
  5
18E76
  8
0
 10
515.02346894506479
 20
418.30398187140321
 30
0.0
 40
14.0
 50
228.39296489486389
 51
18.40848017058293
  0
ARC
  5
18E77
  8
0
 10
502.40712643976048
 20
404.09736715188461
 30
0.0
 40
5.0
 50
48.392964894863901
 51
156.80144506544991
1001
GENIUS_GENOBJ-N-FIL_13
1002
{
1000
OWNER
1000
GEN
1002
}
1001
GENIUS_GENODEF_13
1002
{
1000
HIER
1070
     0
1002
}
1002
{
1000
MANEDIT
1070
     0
1002
}
1002
{
1000
NOSEL
1070
     0
1002
}
1002
{
1000
BEHIND
1070
     0
1002
}
1002
{
1000
OTHER
1070
     0
1002
}
1002
{
1000
REACTOR
1002
}
  0
ARC
  5
18E78
  8
0
 10
522.02805013714726
 20
402.81411930508159
 30
0.0
 40
3.0
 50
44.99999999999568
 51
114.3326835064841
1001
GENIUS_GENODEF_13
1002
{
1000
HIER
1070
     0
1002
}
1002
{
1000
MANEDIT
1070
     0
1002
}
1002
{
1000
NOSEL
1070
     0
1002
}
1002
{
1000
BEHIND
1070
     0
1002
}
1002
{
1000
OTHER
1070
     0
1002
}
1002
{
1000
REACTOR
1002
}
1001
GENIUS_GENOBJ-N-FIL_13
1002
{
1000
OWNER
1000
GEN
1002
}
  0
ARC
  5
18E79
  8
0
 10
530.5133315113859
 20
411.29940067932051
 30
0.0
 40
3.0
 50
155.6673164935076
 51
224.99999999999571
1001
GENIUS_GENOBJ-N-FIL_13
1002
{
1000
OWNER
1000
GEN
1002
}
1001
GENIUS_GENODEF_13
1002
{
1000
HIER
1070
     0
1002
}
1002
{
1000
MANEDIT
1070
     0
1002
}
1002
{
1000
NOSEL
1070
     0
1002
}
1002
{
1000
BEHIND
1070
     0
1002
}
1002
{
1000
OTHER
1070
     0
1002
}
1002
{
1000
REACTOR
1002
}
  0
ARC
  5
18E82
  8
0
 10
681.02347120273907
 20
367.39801027779367
 30
0.0
 40
5.0
 50
0.0
 51
110.6673181200093
1001
GENIUS_GENODEF_13
1002
{
1000
HIER
1070
     0
1002
}
1002
{
1000
MANEDIT
1070
     0
1002
}
1002
{
1000
NOSEL
1070
     0
1002
}
1002
{
1000
BEHIND
1070
     0
1002
}
1002
{
1000
OTHER
1070
     0
1002
}
1002
{
1000
REACTOR
1002
}
1001
GENIUS_GENOBJ-N-FIL_13
1002
{
1000
OWNER
1000
GEN
1002
}
  0
ARC
  5
18E83
  8
0
 10
675.02347075120451
 20
383.3039838280539
 30
0.0
 40
12.0
 50
166.39104615428519
 51
290.66731812000938
  0
LINE
  5
18E84
  8
ﾁｭｳｼﾝｾﾝ1
 10
560.02349780701661
 20
444.25410553398501
 30
0.0
 11
560.02349780701661
 21
192.35385820882101
 31
0.0
  0
LINE
  5
18E85
  8
AM_0
 10
712.52347120948934
 20
388.80537732699918
 30
0.0
 11
712.523471209489
 21
318.30398187140321
 31
0.0
  0
LINE
  5
18E86
  8
AM_0
 10
726.52347121368916
 20
391.80545187140331
 30
0.0
 11
726.52347121368882
 21
318.30398187140321
 31
0.0
  0
ARC
  5
18E87
  8
AM_0
 10
302.86494463259311
 20
318.30398187140861
 30
0.0
 40
397.24800335969718
 50
353.33928567968309
 51
6.6607143203167842
  0
LINE
  5
18E88
  8
AM_0
 10
692.0234712027393
 20
383.30398382805458
 30
0.0
 11
692.02347120273885
 21
253.3039799147526
 31
0.0
  0
LINE
  5
18E89
  8
AM_0
 10
686.02347120273919
 20
383.30398382805458
 30
0.0
 11
686.02347120273896
 21
253.3039799147526
 31
0.0
  0
LINE
  5
18E8A
  8
AM_0
 10
697.11294799223117
 20
272.5752632323946
 30
0.0
 11
697.11294799222958
 21
364.03270051041159
 31
0.0
  0
POLYLINE
  5
18E98
  8
AM_0
 10
715.52346592119522
 20
244.8025264158122
 30
0.0
 66
     1
 70
     8
  0
VERTEX
  8
AM_0
  5
1AA5B
 10
715.523
 20
244.803
 30
0.000000
  70
    32
  0
VERTEX
  8
AM_0
  5
1AA5C
 10
715.507
 20
244.803
 30
0.000000
  70
    32
  0
VERTEX
  8
AM_0
  5
1AA5D
 10
715.490
 20
244.803
 30
0.000000
  70
    32
  0
VERTEX
  8
AM_0
  5
1AA5E
 10
715.473
 20
244.803
 30
0.000000
  70
    32
  0
VERTEX
  8
AM_0
  5
1AA5F
 10
715.456
 20
244.803
 30
0.000000
  70
    32
  0
VERTEX
  8
AM_0
  5
1AA60
 10
715.439
 20
244.804
 30
0.000000
  70
    32
  0
VERTEX
  8
AM_0
  5
1AA61
 10
715.422
 20
244.804
 30
0.000000
  70
    32
  0
VERTEX
  8
AM_0
  5
1AA62
 10
715.405
 20
244.805
 30
0.000000
  70
    32
  0
VERTEX
  8
AM_0
  5
1AA63
 10
715.388
 20
244.806
 30
0.000000
  70
    32
  0
VERTEX
  8
AM_0
  5
1AA64
 10
715.371
 20
244.806
 30
0.000000
  70
    32
  0
VERTEX
  8
AM_0
  5
1AA65
 10
715.354
 20
244.807
 30
0.000000
  70
    32
  0
VERTEX
  8
AM_0
  5
1AA66
 10
715.337
 20
244.808
 30
0.000000
  70
    32
  0
VERTEX
  8
AM_0
  5
1AA67
 10
715.320
 20
244.809
 30
0.000000
  70
    32
  0
VERTEX
  8
AM_0
  5
1AA68
 10
715.303
 20
244.811
 30
0.000000
  70
    32
  0
VERTEX
  8
AM_0
  5
1AA69
 10
715.287
 20
244.812
 30
0.000000
  70
    32
  0
VERTEX
  8
AM_0
  5
1AA6A
 10
715.270
 20
244.813
 30
0.000000
  70
    32
  0
VERTEX
  8
AM_0
  5
1AA6B
 10
715.253
 20
244.815
 30
0.000000
  70
    32
  0
VERTEX
  8
AM_0
  5
1AA6C
 10
715.236
 20
244.816
 30
0.000000
  70
    32
  0
VERTEX
  8
AM_0
  5
1AA6D
 10
715.219
 20
244.818
 30
0.000000
  70
    32
  0
VERTEX
  8
AM_0
  5
1AA6E
 10
715.202
 20
244.820
 30
0.000000
  70
    32
  0
VERTEX
  8
AM_0
  5
1AA6F
 10
715.185
 20
244.822
 30
0.000000
  70
    32
  0
VERTEX
  8
AM_0
  5
1AA70
 10
715.169
 20
244.824
 30
0.000000
  70
    32
  0
VERTEX
  8
AM_0
  5
1AA71
 10
715.152
 20
244.826
 30
0.000000
  70
    32
  0
VERTEX
  8
AM_0
  5
1AA72
 10
715.135
 20
244.828
 30
0.000000
  70
    32
  0
VERTEX
  8
AM_0
  5
1AA73
 10
715.118
 20
244.830
 30
0.000000
  70
    32
  0
VERTEX
  8
AM_0
  5
1AA74
 10
715.101
 20
244.832
 30
0.000000
  70
    32
  0
VERTEX
  8
AM_0
  5
1AA75
 10
715.085
 20
244.835
 30
0.000000
  70
    32
  0
VERTEX
  8
AM_0
  5
1AA76
 10
715.068
 20
244.837
 30
0.000000
  70
    32
  0
VERTEX
  8
AM_0
  5
1AA77
 10
715.051
 20
244.840
 30
0.000000
  70
    32
  0
VERTEX
  8
AM_0
  5
1AA78
 10
715.034
 20
244.843
 30
0.000000
  70
    32
  0
VERTEX
  8
AM_0
  5
1AA79
 10
715.018
 20
244.845
 30
0.000000
  70
    32
  0
VERTEX
  8
AM_0
  5
1AA7A
 10
715.001
 20
244.848
 30
0.000000
  70
    32
  0
VERTEX
  8
AM_0
  5
1AA7B
 10
714.984
 20
244.851
 30
0.000000
  70
    32
  0
VERTEX
  8
AM_0
  5
1AA7C
 10
714.968
 20
244.854
 30
0.000000
  70
    32
  0
VERTEX
  8
AM_0
  5
1AA7D
 10
714.951
 20
244.858
 30
0.000000
  70
    32
  0
VERTEX
  8
AM_0
  5
1AA7E
 10
714.934
 20
244.861
 30
0.000000
  70
    32
  0
VERTEX
  8
AM_0
  5
1AA7F
 10
714.918
 20
244.864
 30
0.000000
  70
    32
  0
VERTEX
  8
AM_0
  5
1AA80
 10
714.901
 20
244.868
 30
0.000000
  70
    32
  0
VERTEX
  8
AM_0
  5
1AA81
 10
714.885
 20
244.871
 30
0.000000
  70
    32
  0
VERTEX
  8
AM_0
  5
1AA82
 10
714.868
 20
244.875
 30
0.000000
  70
    32
  0
VERTEX
  8
AM_0
  5
1AA83
 10
714.852
 20
244.879
 30
0.000000
  70
    32
  0
VERTEX
  8
AM_0
  5
1AA84
 10
714.835
 20
244.883
 30
0.000000
  70
    32
  0
VERTEX
  8
AM_0
  5
1AA85
 10
714.819
 20
244.886
 30
0.000000
  70
    32
  0
VERTEX
  8
AM_0
  5
1AA86
 10
714.802
 20
244.891
 30
0.000000
  70
    32
  0
VERTEX
  8
AM_0
  5
1AA87
 10
714.786
 20
244.895
 30
0.000000
  70
    32
  0
VERTEX
  8
AM_0
  5
1AA88
 10
714.769
 20
244.899
 30
0.000000
  70
    32
  0
VERTEX
  8
AM_0
  5
1AA89
 10
714.753
 20
244.903
 30
0.000000
  70
    32
  0
VERTEX
  8
AM_0
  5
1AA8A
 10
714.737
 20
244.908
 30
0.000000
  70
    32
  0
VERTEX
  8
AM_0
  5
1AA8B
 10
714.720
 20
244.912
 30
0.000000
  70
    32
  0
VERTEX
  8
AM_0
  5
1AA8C
 10
714.704
 20
244.917
 30
0.000000
  70
    32
  0
VERTEX
  8
AM_0
  5
1AA8D
 10
714.688
 20
244.921
 30
0.000000
  70
    32
  0
VERTEX
  8
AM_0
  5
1AA8E
 10
714.671
 20
244.926
 30
0.000000
  70
    32
  0
VERTEX
  8
AM_0
  5
1AA8F
 10
714.655
 20
244.931
 30
0.000000
  70
    32
  0
VERTEX
  8
AM_0
  5
1AA90
 10
714.639
 20
244.936
 30
0.000000
  70
    32
  0
VERTEX
  8
AM_0
  5
1AA91
 10
714.623
 20
244.941
 30
0.000000
  70
    32
  0
VERTEX
  8
AM_0
  5
1AA92
 10
714.607
 20
244.946
 30
0.000000
  70
    32
  0
VERTEX
  8
AM_0
  5
1AA93
 10
714.591
 20
244.951
 30
0.000000
  70
    32
  0
VERTEX
  8
AM_0
  5
1AA94
 10
714.575
 20
244.957
 30
0.000000
  70
    32
  0
VERTEX
  8
AM_0
  5
1AA95
 10
714.558
 20
244.962
 30
0.000000
  70
    32
  0
VERTEX
  8
AM_0
  5
1AA96
 10
714.542
 20
244.967
 30
0.000000
  70
    32
  0
VERTEX
  8
AM_0
  5
1AA97
 10
714.526
 20
244.973
 30
0.000000
  70
    32
  0
VERTEX
  8
AM_0
  5
1AA98
 10
714.510
 20
244.979
 30
0.000000
  70
    32
  0
VERTEX
  8
AM_0
  5
1AA99
 10
714.495
 20
244.984
 30
0.000000
  70
    32
  0
VERTEX
  8
AM_0
  5
1AA9A
 10
714.479
 20
244.990
 30
0.000000
  70
    32
  0
VERTEX
  8
AM_0
  5
1AA9B
 10
714.463
 20
244.996
 30
0.000000
  70
    32
  0
VERTEX
  8
AM_0
  5
1AA9C
 10
714.447
 20
245.002
 30
0.000000
  70
    32
  0
VERTEX
  8
AM_0
  5
1AA9D
 10
714.431
 20
245.008
 30
0.000000
  70
    32
  0
VERTEX
  8
AM_0
  5
1AA9E
 10
714.415
 20
245.015
 30
0.000000
  70
    32
  0
VERTEX
  8
AM_0
  5
1AA9F
 10
714.400
 20
245.021
 30
0.000000
  70
    32
  0
VERTEX
  8
AM_0
  5
1AAA0
 10
714.384
 20
245.027
 30
0.000000
  70
    32
  0
VERTEX
  8
AM_0
  5
1AAA1
 10
714.368
 20
245.034
 30
0.000000
  70
    32
  0
VERTEX
  8
AM_0
  5
1AAA2
 10
714.353
 20
245.040
 30
0.000000
  70
    32
  0
VERTEX
  8
AM_0
  5
1AAA3
 10
714.337
 20
245.047
 30
0.000000
  70
    32
  0
VERTEX
  8
AM_0
  5
1AAA4
 10
714.322
 20
245.054
 30
0.000000
  70
    32
  0
VERTEX
  8
AM_0
  5
1AAA5
 10
714.306
 20
245.061
 30
0.000000
  70
    32
  0
VERTEX
  8
AM_0
  5
1AAA6
 10
714.291
 20
245.068
 30
0.000000
  70
    32
  0
VERTEX
  8
AM_0
  5
1AAA7
 10
714.275
 20
245.075
 30
0.000000
  70
    32
  0
VERTEX
  8
AM_0
  5
1AAA8
 10
714.260
 20
245.082
 30
0.000000
  70
    32
  0
VERTEX
  8
AM_0
  5
1AAA9
 10
714.245
 20
245.089
 30
0.000000
  70
    32
  0
VERTEX
  8
AM_0
  5
1AAAA
 10
714.229
 20
245.096
 30
0.000000
  70
    32
  0
VERTEX
  8
AM_0
  5
1AAAB
 10
714.214
 20
245.103
 30
0.000000
  70
    32
  0
VERTEX
  8
AM_0
  5
1AAAC
 10
714.199
 20
245.111
 30
0.000000
  70
    32
  0
VERTEX
  8
AM_0
  5
1AAAD
 10
714.184
 20
245.118
 30
0.000000
  70
    32
  0
VERTEX
  8
AM_0
  5
1AAAE
 10
714.168
 20
245.126
 30
0.000000
  70
    32
  0
VERTEX
  8
AM_0
  5
1AAAF
 10
714.153
 20
245.134
 30
0.000000
  70
    32
  0
VERTEX
  8
AM_0
  5
1AAB0
 10
714.138
 20
245.141
 30
0.000000
  70
    32
  0
VERTEX
  8
AM_0
  5
1AAB1
 10
714.123
 20
245.149
 30
0.000000
  70
    32
  0
VERTEX
  8
AM_0
  5
1AAB2
 10
714.108
 20
245.157
 30
0.000000
  70
    32
  0
VERTEX
  8
AM_0
  5
1AAB3
 10
714.093
 20
245.165
 30
0.000000
  70
    32
  0
VERTEX
  8
AM_0
  5
1AAB4
 10
714.079
 20
245.173
 30
0.000000
  70
    32
  0
VERTEX
  8
AM_0
  5
1AAB5
 10
714.064
 20
245.182
 30
0.000000
  70
    32
  0
VERTEX
  8
AM_0
  5
1AAB6
 10
714.049
 20
245.190
 30
0.000000
  70
    32
  0
VERTEX
  8
AM_0
  5
1AAB7
 10
714.034
 20
245.198
 30
0.000000
  70
    32
  0
VERTEX
  8
AM_0
  5
1AAB8
 10
714.020
 20
245.207
 30
0.000000
  70
    32
  0
VERTEX
  8
AM_0
  5
1AAB9
 10
714.005
 20
245.215
 30
0.000000
  70
    32
  0
VERTEX
  8
AM_0
  5
1AABA
 10
713.990
 20
245.224
 30
0.000000
  70
    32
  0
VERTEX
  8
AM_0
  5
1AABB
 10
713.976
 20
245.233
 30
0.000000
  70
    32
  0
VERTEX
  8
AM_0
  5
1AABC
 10
713.961
 20
245.241
 30
0.000000
  70
    32
  0
VERTEX
  8
AM_0
  5
1AABD
 10
713.947
 20
245.250
 30
0.000000
  70
    32
  0
VERTEX
  8
AM_0
  5
1AABE
 10
713.932
 20
245.259
 30
0.000000
  70
    32
  0
VERTEX
  8
AM_0
  5
1AABF
 10
713.918
 20
245.268
 30
0.000000
  70
    32
  0
VERTEX
  8
AM_0
  5
1AAC0
 10
713.904
 20
245.277
 30
0.000000
  70
    32
  0
VERTEX
  8
AM_0
  5
1AAC1
 10
713.890
 20
245.286
 30
0.000000
  70
    32
  0
VERTEX
  8
AM_0
  5
1AAC2
 10
713.875
 20
245.296
 30
0.000000
  70
    32
  0
VERTEX
  8
AM_0
  5
1AAC3
 10
713.861
 20
245.305
 30
0.000000
  70
    32
  0
VERTEX
  8
AM_0
  5
1AAC4
 10
713.847
 20
245.315
 30
0.000000
  70
    32
  0
VERTEX
  8
AM_0
  5
1AAC5
 10
713.833
 20
245.324
 30
0.000000
  70
    32
  0
VERTEX
  8
AM_0
  5
1AAC6
 10
713.819
 20
245.334
 30
0.000000
  70
    32
  0
VERTEX
  8
AM_0
  5
1AAC7
 10
713.805
 20
245.343
 30
0.000000
  70
    32
  0
VERTEX
  8
AM_0
  5
1AAC8
 10
713.791
 20
245.353
 30
0.000000
  70
    32
  0
VERTEX
  8
AM_0
  5
1AAC9
 10
713.778
 20
245.363
 30
0.000000
  70
    32
  0
VERTEX
  8
AM_0
  5
1AACA
 10
713.764
 20
245.373
 30
0.000000
  70
    32
  0
VERTEX
  8
AM_0
  5
1AACB
 10
713.750
 20
245.383
 30
0.000000
  70
    32
  0
VERTEX
  8
AM_0
  5
1AACC
 10
713.737
 20
245.393
 30
0.000000
  70
    32
  0
VERTEX
  8
AM_0
  5
1AACD
 10
713.723
 20
245.403
 30
0.000000
  70
    32
  0
VERTEX
  8
AM_0
  5
1AACE
 10
713.710
 20
245.413
 30
0.000000
  70
    32
  0
VERTEX
  8
AM_0
  5
1AACF
 10
713.696
 20
245.423
 30
0.000000
  70
    32
  0
VERTEX
  8
AM_0
  5
1AAD0
 10
713.683
 20
245.434
 30
0.000000
  70
    32
  0
VERTEX
  8
AM_0
  5
1AAD1
 10
713.669
 20
245.444
 30
0.000000
  70
    32
  0
VERTEX
  8
AM_0
  5
1AAD2
 10
713.656
 20
245.455
 30
0.000000
  70
    32
  0
VERTEX
  8
AM_0
  5
1AAD3
 10
713.643
 20
245.465
 30
0.000000
  70
    32
  0
VERTEX
  8
AM_0
  5
1AAD4
 10
713.630
 20
245.476
 30
0.000000
  70
    32
  0
VERTEX
  8
AM_0
  5
1AAD5
 10
713.617
 20
245.487
 30
0.000000
  70
    32
  0
VERTEX
  8
AM_0
  5
1AAD6
 10
713.603
 20
245.497
 30
0.000000
  70
    32
  0
VERTEX
  8
AM_0
  5
1AAD7
 10
713.590
 20
245.508
 30
0.000000
  70
    32
  0
VERTEX
  8
AM_0
  5
1AAD8
 10
713.578
 20
245.519
 30
0.000000
  70
    32
  0
VERTEX
  8
AM_0
  5
1AAD9
 10
713.565
 20
245.530
 30
0.000000
  70
    32
  0
VERTEX
  8
AM_0
  5
1AADA
 10
713.552
 20
245.541
 30
0.000000
  70
    32
  0
VERTEX
  8
AM_0
  5
1AADB
 10
713.539
 20
245.553
 30
0.000000
  70
    32
  0
SEQEND
  8
AM_0
  5
1AADC
  0
LINE
  5
18E99
  8
AM_0
 10
712.52347120948934
 20
247.8025864158075
 30
0.0
 11
712.523471209489
 21
318.30398187140321
 31
0.0
  0
CIRCLE
  5
18E9A
  8
0
 10
675.02347075120451
 20
253.30397991475229
 30
0.0
 40
5.0
  0
ARC
  5
18E9B
  8
0
 10
675.02347075120451
 20
253.30397991475249
 30
0.0
 40
12.0
 50
69.332681879990645
 51
193.60895384571481
  0
ARC
  5
18E9C
  8
0
 10
595.02349780701661
 20
246.30398187140349
 30
0.0
 40
11.0
 50
90.0
 51
169.19307712513961
  0
ARC
  5
18E9D
  8
0
 10
595.02349780701661
 20
246.30398187140349
 30
0.0
 40
11.0
 50
10.806922874860341
 51
90.0
  0
CIRCLE
  5
18E9E
  8
AM_0
 10
595.02349780701661
 20
246.30398187140281
 30
0.0
 40
8.5
  0
CIRCLE
  5
18E9F
  8
ｷｲﾛ
 10
675.02347075120451
 20
253.30397991475229
 30
0.0
 40
6.0
  0
LINE
  5
18EA1
  8
0
  6
CONTINUOUS
 62
     7
 10
631.02349780701616
 20
244.3039818714031
 30
0.0
 11
610.73973145251807
 21
244.3039818714031
 31
0.0
  0
ARC
  5
18EA4
  8
0
 10
579.30726416151492
 20
249.30398187140349
 30
0.0
 40
5.0
 50
270.0
 51
349.19307712513972
1001
GENIUS_GENOBJ-N-FIL_13
1002
{
1000
OWNER
1000
GEN
1002
}
1001
GENIUS_GENODEF_13
1002
{
1000
HIER
1070
     0
1002
}
1002
{
1000
MANEDIT
1070
     0
1002
}
1002
{
1000
NOSEL
1070
     0
1002
}
1002
{
1000
BEHIND
1070
     0
1002
}
1002
{
1000
OTHER
1070
     0
1002
}
1002
{
1000
REACTOR
1002
}
  0
LINE
  5
18EA5
  8
0
  6
CONTINUOUS
 62
     7
 10
579.30726416151492
 20
244.3039818714031
 30
0.0
 11
544.02346894506536
 21
244.3039818714031
 31
0.0
  0
ARC
  5
18EA6
  8
0
 10
541.02346894506525
 20
244.3039818714042
 30
0.0
 40
3.0000000000000631
 50
315.00000000000432
 51
135.00000000000429
  0
CIRCLE
  5
18EA7
  8
AM_0
 10
595.02349780701661
 20
246.30398187140281
 30
0.0
 40
6.5
  0
POLYLINE
  5
18EA8
  8
AM_0
 66
     1
 10
0.0
 20
0.0
 30
0.0
 70
     1
  0
VERTEX
  5
18EA9
  8
AM_0
 10
593.29144699944777
 20
243.30398187140321
 30
0.0
  0
VERTEX
  5
18EAA
  8
AM_0
 10
591.55939619187893
 20
246.30398187140329
 30
0.0
  0
VERTEX
  5
18EAB
  8
AM_0
 10
593.29144699944777
 20
249.30398187140329
 30
0.0
  0
VERTEX
  5
18EAC
  8
AM_0
 10
596.75554861458522
 20
249.30398187140329
 30
0.0
  0
VERTEX
  5
18EAD
  8
AM_0
 10
598.48759942215429
 20
246.30398187140329
 30
0.0
  0
VERTEX
  5
18EAE
  8
AM_0
 10
596.75554861458522
 20
243.30398187140321
 30
0.0
  0
SEQEND
  5
18EAF
  8
AM_0
  0
ARC
  5
18EB0
  8
0
 10
610.73973145251807
 20
249.30398187140349
 30
0.0
 40
5.0
 50
190.80692287486031
 51
269.99999999999841
1001
GENIUS_GENOBJ-N-FIL_13
1002
{
1000
OWNER
1000
GEN
1002
}
1001
GENIUS_GENODEF_13
1002
{
1000
HIER
1070
     0
1002
}
1002
{
1000
MANEDIT
1070
     0
1002
}
1002
{
1000
NOSEL
1070
     0
1002
}
1002
{
1000
BEHIND
1070
     0
1002
}
1002
{
1000
OTHER
1070
     0
1002
}
1002
{
1000
REACTOR
1002
}
  0
ARC
  5
18EB3
  8
0
 10
672.63984031232098
 20
232.51059659092189
 30
0.0
 40
5.0
 50
228.39296489486389
 51
336.80144506544991
1001
GENIUS_GENOBJ-N-FIL_13
1002
{
1000
OWNER
1000
GEN
1002
}
1001
GENIUS_GENODEF_13
1002
{
1000
HIER
1070
     0
1002
}
1002
{
1000
MANEDIT
1070
     0
1002
}
1002
{
1000
NOSEL
1070
     0
1002
}
1002
{
1000
BEHIND
1070
     0
1002
}
1002
{
1000
OTHER
1070
     0
1002
}
1002
{
1000
REACTOR
1002
}
  0
LINE
  5
18EB5
  8
0
  6
CONTINUOUS
 62
     7
 10
676.02347120273896
 20
244.3039818714031
 30
0.0
 11
638.26613849413616
 21
244.3039818714031
 31
0.0
  0
ARC
  5
18EB6
  8
0
 10
660.02349780701661
 20
218.30398187140369
 30
0.0
 40
16.999999999999709
 50
270.0
 51
336.80144506544991
  0
ARC
  5
18EB7
  8
0
 10
644.53363524069516
 20
225.30856306348639
 30
0.0
 40
3.0
 50
335.6673164935076
 51
44.99999999999568
1001
GENIUS_GENOBJ-N-FIL_13
1002
{
1000
OWNER
1000
GEN
1002
}
1001
GENIUS_GENODEF_13
1002
{
1000
HIER
1070
     0
1002
}
1002
{
1000
MANEDIT
1070
     0
1002
}
1002
{
1000
NOSEL
1070
     0
1002
}
1002
{
1000
BEHIND
1070
     0
1002
}
1002
{
1000
OTHER
1070
     0
1002
}
1002
{
1000
REACTOR
1002
}
  0
ARC
  5
18EB9
  8
0
 10
660.02349780701661
 20
218.30398187140301
 30
0.0
 40
14.0
 50
48.392964894863901
 51
198.40848017058289
  0
ARC
  5
18EBA
  8
0
 10
641.9957414296963
 20
212.30398187140369
 30
0.0
 40
5.0
 50
270.0
 51
18.40848017058293
1001
GENIUS_GENOBJ-N-FIL_13
1002
{
1000
OWNER
1000
GEN
1002
}
1001
GENIUS_GENODEF_13
1002
{
1000
HIER
1070
     0
1002
}
1002
{
1000
MANEDIT
1070
     0
1002
}
1002
{
1000
NOSEL
1070
     0
1002
}
1002
{
1000
BEHIND
1070
     0
1002
}
1002
{
1000
OTHER
1070
     0
1002
}
1002
{
1000
REACTOR
1002
}
  0
CIRCLE
  5
18EBB
  8
0
 10
660.02349780701661
 20
218.30398187140369
 30
0.0
 40
7.0
  0
LINE
  5
18EBC
  8
0
 10
650.89759627137425
 20
231.672524094165
 30
0.0
 11
636.1448181505757
 21
246.42530221496361
 31
0.0
  0
LINE
  5
18EBD
  8
0
 10
646.65495558425471
 20
227.42988340704559
 30
0.0
 11
631.90217746345661
 21
242.182661527844
 31
0.0
  0
ARC
  5
18EBE
  8
0
 10
634.02349780701616
 20
244.3039818714042
 30
0.0
 40
3.0000000000000631
 50
44.99999999999568
 51
224.99999999999571
  0
ARC
  5
18EBF
  8
0
 10
653.01891661493369
 20
233.793844437725
 30
0.0
 40
3.0
 50
224.99999999999571
 51
294.33268350648422
1001
GENIUS_GENODEF_13
1002
{
1000
HIER
1070
     0
1002
}
1002
{
1000
MANEDIT
1070
     0
1002
}
1002
{
1000
NOSEL
1070
     0
1002
}
1002
{
1000
BEHIND
1070
     0
1002
}
1002
{
1000
OTHER
1070
     0
1002
}
1002
{
1000
REACTOR
1002
}
1001
GENIUS_GENOBJ-N-FIL_13
1002
{
1000
OWNER
1000
GEN
1002
}
  0
ARC
  5
18EC0
  8
0
 10
658.50075863565871
 20
249.30398187140349
 30
0.0
 40
5.0
 50
270.0
 51
13.60895384571479
1001
GENIUS_GENODEF_13
1002
{
1000
HIER
1070
     0
1002
}
1002
{
1000
MANEDIT
1070
     0
1002
}
1002
{
1000
NOSEL
1070
     0
1002
}
1002
{
1000
BEHIND
1070
     0
1002
}
1002
{
1000
OTHER
1070
     0
1002
}
1002
{
1000
REACTOR
1002
}
1001
GENIUS_GENOBJ-N-FIL_13
1002
{
1000
OWNER
1000
GEN
1002
}
  0
LINE
  5
18EC1
  8
0
 10
675.64896747574176
 20
211.60736349854221
 30
0.0
 11
690.51893789563485
 21
246.30402065202441
 31
0.0
  0
ARC
  5
18EC2
  8
AM_0
 10
675.02347075120406
 20
253.30397991475269
 30
0.0
 40
17.000000451534831
 50
336.80144506544991
 51
0.0
  0
LINE
  5
18EC3
  8
AM_0
 10
711.55484929238253
 20
246.3025551699958
 30
0.0
 11
690.5183207637466
 21
246.3025806751485
 31
0.0
  0
LINE
  5
18EC4
  8
0
 10
677.23556668547542
 20
230.5410029518446
 30
0.0
 11
685.13406918717044
 21
248.97087373091529
 31
0.0
  0
ARC
  5
18EC5
  8
0
 10
676.02347120273896
 20
254.30398187140349
 30
0.0
 40
10.0
 50
270.0
 51
0.0
1001
GENIUS_GENODEF_13
1002
{
1000
HIER
1070
     0
1002
}
1002
{
1000
MANEDIT
1070
     0
1002
}
1002
{
1000
NOSEL
1070
     0
1002
}
1002
{
1000
BEHIND
1070
     0
1002
}
1002
{
1000
OTHER
1070
     0
1002
}
1002
{
1000
REACTOR
1002
}
1001
GENIUS_GENOBJ-N-FIL_13
1002
{
1000
OWNER
1000
GEN
1002
}
  0
ARC
  5
18EC6
  8
AM_0
 10
675.02347075120406
 20
253.30397991475269
 30
0.0
 40
11.000000451534831
 50
336.80144506544991
 51
0.0
  0
POLYLINE
  5
18EC8
  8
AM_0
 10
711.55484929238241
 20
246.3025551699958
 30
0.0
 66
     1
 70
     8
  0
VERTEX
  8
AM_0
  5
1AADD
 10
711.555
 20
246.303
 30
0.000000
  70
    32
  0
VERTEX
  8
AM_0
  5
1AADE
 10
711.572
 20
246.303
 30
0.000000
  70
    32
  0
VERTEX
  8
AM_0
  5
1AADF
 10
711.589
 20
246.302
 30
0.000000
  70
    32
  0
VERTEX
  8
AM_0
  5
1AAE0
 10
711.606
 20
246.302
 30
0.000000
  70
    32
  0
VERTEX
  8
AM_0
  5
1AAE1
 10
711.623
 20
246.302
 30
0.000000
  70
    32
  0
VERTEX
  8
AM_0
  5
1AAE2
 10
711.640
 20
246.301
 30
0.000000
  70
    32
  0
VERTEX
  8
AM_0
  5
1AAE3
 10
711.656
 20
246.301
 30
0.000000
  70
    32
  0
VERTEX
  8
AM_0
  5
1AAE4
 10
711.673
 20
246.300
 30
0.000000
  70
    32
  0
VERTEX
  8
AM_0
  5
1AAE5
 10
711.690
 20
246.299
 30
0.000000
  70
    32
  0
VERTEX
  8
AM_0
  5
1AAE6
 10
711.707
 20
246.299
 30
0.000000
  70
    32
  0
VERTEX
  8
AM_0
  5
1AAE7
 10
711.724
 20
246.298
 30
0.000000
  70
    32
  0
VERTEX
  8
AM_0
  5
1AAE8
 10
711.741
 20
246.297
 30
0.000000
  70
    32
  0
VERTEX
  8
AM_0
  5
1AAE9
 10
711.758
 20
246.296
 30
0.000000
  70
    32
  0
VERTEX
  8
AM_0
  5
1AAEA
 10
711.775
 20
246.294
 30
0.000000
  70
    32
  0
VERTEX
  8
AM_0
  5
1AAEB
 10
711.792
 20
246.293
 30
0.000000
  70
    32
  0
VERTEX
  8
AM_0
  5
1AAEC
 10
711.809
 20
246.292
 30
0.000000
  70
    32
  0
VERTEX
  8
AM_0
  5
1AAED
 10
711.826
 20
246.290
 30
0.000000
  70
    32
  0
VERTEX
  8
AM_0
  5
1AAEE
 10
711.842
 20
246.289
 30
0.000000
  70
    32
  0
VERTEX
  8
AM_0
  5
1AAEF
 10
711.859
 20
246.287
 30
0.000000
  70
    32
  0
VERTEX
  8
AM_0
  5
1AAF0
 10
711.876
 20
246.285
 30
0.000000
  70
    32
  0
VERTEX
  8
AM_0
  5
1AAF1
 10
711.893
 20
246.283
 30
0.000000
  70
    32
  0
VERTEX
  8
AM_0
  5
1AAF2
 10
711.910
 20
246.281
 30
0.000000
  70
    32
  0
VERTEX
  8
AM_0
  5
1AAF3
 10
711.927
 20
246.279
 30
0.000000
  70
    32
  0
VERTEX
  8
AM_0
  5
1AAF4
 10
711.943
 20
246.277
 30
0.000000
  70
    32
  0
VERTEX
  8
AM_0
  5
1AAF5
 10
711.960
 20
246.275
 30
0.000000
  70
    32
  0
VERTEX
  8
AM_0
  5
1AAF6
 10
711.977
 20
246.273
 30
0.000000
  70
    32
  0
VERTEX
  8
AM_0
  5
1AAF7
 10
711.994
 20
246.270
 30
0.000000
  70
    32
  0
VERTEX
  8
AM_0
  5
1AAF8
 10
712.010
 20
246.268
 30
0.000000
  70
    32
  0
VERTEX
  8
AM_0
  5
1AAF9
 10
712.027
 20
246.265
 30
0.000000
  70
    32
  0
VERTEX
  8
AM_0
  5
1AAFA
 10
712.044
 20
246.262
 30
0.000000
  70
    32
  0
VERTEX
  8
AM_0
  5
1AAFB
 10
712.061
 20
246.260
 30
0.000000
  70
    32
  0
VERTEX
  8
AM_0
  5
1AAFC
 10
712.077
 20
246.257
 30
0.000000
  70
    32
  0
VERTEX
  8
AM_0
  5
1AAFD
 10
712.094
 20
246.254
 30
0.000000
  70
    32
  0
VERTEX
  8
AM_0
  5
1AAFE
 10
712.111
 20
246.251
 30
0.000000
  70
    32
  0
VERTEX
  8
AM_0
  5
1AAFF
 10
712.127
 20
246.247
 30
0.000000
  70
    32
  0
VERTEX
  8
AM_0
  5
1AB00
 10
712.144
 20
246.244
 30
0.000000
  70
    32
  0
VERTEX
  8
AM_0
  5
1AB01
 10
712.160
 20
246.241
 30
0.000000
  70
    32
  0
VERTEX
  8
AM_0
  5
1AB02
 10
712.177
 20
246.237
 30
0.000000
  70
    32
  0
VERTEX
  8
AM_0
  5
1AB03
 10
712.194
 20
246.234
 30
0.000000
  70
    32
  0
VERTEX
  8
AM_0
  5
1AB04
 10
712.210
 20
246.230
 30
0.000000
  70
    32
  0
VERTEX
  8
AM_0
  5
1AB05
 10
712.227
 20
246.226
 30
0.000000
  70
    32
  0
VERTEX
  8
AM_0
  5
1AB06
 10
712.243
 20
246.223
 30
0.000000
  70
    32
  0
VERTEX
  8
AM_0
  5
1AB07
 10
712.260
 20
246.219
 30
0.000000
  70
    32
  0
VERTEX
  8
AM_0
  5
1AB08
 10
712.276
 20
246.215
 30
0.000000
  70
    32
  0
VERTEX
  8
AM_0
  5
1AB09
 10
712.293
 20
246.210
 30
0.000000
  70
    32
  0
VERTEX
  8
AM_0
  5
1AB0A
 10
712.309
 20
246.206
 30
0.000000
  70
    32
  0
VERTEX
  8
AM_0
  5
1AB0B
 10
712.325
 20
246.202
 30
0.000000
  70
    32
  0
VERTEX
  8
AM_0
  5
1AB0C
 10
712.342
 20
246.198
 30
0.000000
  70
    32
  0
VERTEX
  8
AM_0
  5
1AB0D
 10
712.358
 20
246.193
 30
0.000000
  70
    32
  0
VERTEX
  8
AM_0
  5
1AB0E
 10
712.374
 20
246.188
 30
0.000000
  70
    32
  0
VERTEX
  8
AM_0
  5
1AB0F
 10
712.391
 20
246.184
 30
0.000000
  70
    32
  0
VERTEX
  8
AM_0
  5
1AB10
 10
712.407
 20
246.179
 30
0.000000
  70
    32
  0
VERTEX
  8
AM_0
  5
1AB11
 10
712.423
 20
246.174
 30
0.000000
  70
    32
  0
VERTEX
  8
AM_0
  5
1AB12
 10
712.439
 20
246.169
 30
0.000000
  70
    32
  0
VERTEX
  8
AM_0
  5
1AB13
 10
712.455
 20
246.164
 30
0.000000
  70
    32
  0
VERTEX
  8
AM_0
  5
1AB14
 10
712.472
 20
246.159
 30
0.000000
  70
    32
  0
VERTEX
  8
AM_0
  5
1AB15
 10
712.488
 20
246.154
 30
0.000000
  70
    32
  0
VERTEX
  8
AM_0
  5
1AB16
 10
712.504
 20
246.149
 30
0.000000
  70
    32
  0
VERTEX
  8
AM_0
  5
1AB17
 10
712.520
 20
246.143
 30
0.000000
  70
    32
  0
VERTEX
  8
AM_0
  5
1AB18
 10
712.536
 20
246.138
 30
0.000000
  70
    32
  0
VERTEX
  8
AM_0
  5
1AB19
 10
712.552
 20
246.132
 30
0.000000
  70
    32
  0
VERTEX
  8
AM_0
  5
1AB1A
 10
712.568
 20
246.126
 30
0.000000
  70
    32
  0
VERTEX
  8
AM_0
  5
1AB1B
 10
712.584
 20
246.121
 30
0.000000
  70
    32
  0
VERTEX
  8
AM_0
  5
1AB1C
 10
712.600
 20
246.115
 30
0.000000
  70
    32
  0
VERTEX
  8
AM_0
  5
1AB1D
 10
712.616
 20
246.109
 30
0.000000
  70
    32
  0
VERTEX
  8
AM_0
  5
1AB1E
 10
712.631
 20
246.103
 30
0.000000
  70
    32
  0
VERTEX
  8
AM_0
  5
1AB1F
 10
712.647
 20
246.097
 30
0.000000
  70
    32
  0
VERTEX
  8
AM_0
  5
1AB20
 10
712.663
 20
246.090
 30
0.000000
  70
    32
  0
VERTEX
  8
AM_0
  5
1AB21
 10
712.679
 20
246.084
 30
0.000000
  70
    32
  0
VERTEX
  8
AM_0
  5
1AB22
 10
712.694
 20
246.078
 30
0.000000
  70
    32
  0
VERTEX
  8
AM_0
  5
1AB23
 10
712.710
 20
246.071
 30
0.000000
  70
    32
  0
VERTEX
  8
AM_0
  5
1AB24
 10
712.726
 20
246.065
 30
0.000000
  70
    32
  0
VERTEX
  8
AM_0
  5
1AB25
 10
712.741
 20
246.058
 30
0.000000
  70
    32
  0
VERTEX
  8
AM_0
  5
1AB26
 10
712.757
 20
246.051
 30
0.000000
  70
    32
  0
VERTEX
  8
AM_0
  5
1AB27
 10
712.772
 20
246.044
 30
0.000000
  70
    32
  0
VERTEX
  8
AM_0
  5
1AB28
 10
712.788
 20
246.038
 30
0.000000
  70
    32
  0
VERTEX
  8
AM_0
  5
1AB29
 10
712.803
 20
246.031
 30
0.000000
  70
    32
  0
VERTEX
  8
AM_0
  5
1AB2A
 10
712.818
 20
246.023
 30
0.000000
  70
    32
  0
VERTEX
  8
AM_0
  5
1AB2B
 10
712.834
 20
246.016
 30
0.000000
  70
    32
  0
VERTEX
  8
AM_0
  5
1AB2C
 10
712.849
 20
246.009
 30
0.000000
  70
    32
  0
VERTEX
  8
AM_0
  5
1AB2D
 10
712.864
 20
246.002
 30
0.000000
  70
    32
  0
VERTEX
  8
AM_0
  5
1AB2E
 10
712.880
 20
245.994
 30
0.000000
  70
    32
  0
VERTEX
  8
AM_0
  5
1AB2F
 10
712.895
 20
245.987
 30
0.000000
  70
    32
  0
VERTEX
  8
AM_0
  5
1AB30
 10
712.910
 20
245.979
 30
0.000000
  70
    32
  0
VERTEX
  8
AM_0
  5
1AB31
 10
712.925
 20
245.971
 30
0.000000
  70
    32
  0
VERTEX
  8
AM_0
  5
1AB32
 10
712.940
 20
245.964
 30
0.000000
  70
    32
  0
VERTEX
  8
AM_0
  5
1AB33
 10
712.955
 20
245.956
 30
0.000000
  70
    32
  0
VERTEX
  8
AM_0
  5
1AB34
 10
712.970
 20
245.948
 30
0.000000
  70
    32
  0
VERTEX
  8
AM_0
  5
1AB35
 10
712.985
 20
245.940
 30
0.000000
  70
    32
  0
VERTEX
  8
AM_0
  5
1AB36
 10
713.000
 20
245.932
 30
0.000000
  70
    32
  0
VERTEX
  8
AM_0
  5
1AB37
 10
713.015
 20
245.923
 30
0.000000
  70
    32
  0
VERTEX
  8
AM_0
  5
1AB38
 10
713.029
 20
245.915
 30
0.000000
  70
    32
  0
VERTEX
  8
AM_0
  5
1AB39
 10
713.044
 20
245.907
 30
0.000000
  70
    32
  0
VERTEX
  8
AM_0
  5
1AB3A
 10
713.059
 20
245.898
 30
0.000000
  70
    32
  0
VERTEX
  8
AM_0
  5
1AB3B
 10
713.073
 20
245.890
 30
0.000000
  70
    32
  0
VERTEX
  8
AM_0
  5
1AB3C
 10
713.088
 20
245.881
 30
0.000000
  70
    32
  0
VERTEX
  8
AM_0
  5
1AB3D
 10
713.103
 20
245.873
 30
0.000000
  70
    32
  0
VERTEX
  8
AM_0
  5
1AB3E
 10
713.117
 20
245.864
 30
0.000000
  70
    32
  0
VERTEX
  8
AM_0
  5
1AB3F
 10
713.131
 20
245.855
 30
0.000000
  70
    32
  0
VERTEX
  8
AM_0
  5
1AB40
 10
713.146
 20
245.846
 30
0.000000
  70
    32
  0
VERTEX
  8
AM_0
  5
1AB41
 10
713.160
 20
245.837
 30
0.000000
  70
    32
  0
VERTEX
  8
AM_0
  5
1AB42
 10
713.174
 20
245.828
 30
0.000000
  70
    32
  0
VERTEX
  8
AM_0
  5
1AB43
 10
713.189
 20
245.819
 30
0.000000
  70
    32
  0
VERTEX
  8
AM_0
  5
1AB44
 10
713.203
 20
245.809
 30
0.000000
  70
    32
  0
VERTEX
  8
AM_0
  5
1AB45
 10
713.217
 20
245.800
 30
0.000000
  70
    32
  0
VERTEX
  8
AM_0
  5
1AB46
 10
713.231
 20
245.791
 30
0.000000
  70
    32
  0
VERTEX
  8
AM_0
  5
1AB47
 10
713.245
 20
245.781
 30
0.000000
  70
    32
  0
VERTEX
  8
AM_0
  5
1AB48
 10
713.259
 20
245.771
 30
0.000000
  70
    32
  0
VERTEX
  8
AM_0
  5
1AB49
 10
713.273
 20
245.762
 30
0.000000
  70
    32
  0
VERTEX
  8
AM_0
  5
1AB4A
 10
713.287
 20
245.752
 30
0.000000
  70
    32
  0
VERTEX
  8
AM_0
  5
1AB4B
 10
713.301
 20
245.742
 30
0.000000
  70
    32
  0
VERTEX
  8
AM_0
  5
1AB4C
 10
713.314
 20
245.732
 30
0.000000
  70
    32
  0
VERTEX
  8
AM_0
  5
1AB4D
 10
713.328
 20
245.722
 30
0.000000
  70
    32
  0
VERTEX
  8
AM_0
  5
1AB4E
 10
713.342
 20
245.712
 30
0.000000
  70
    32
  0
VERTEX
  8
AM_0
  5
1AB4F
 10
713.355
 20
245.702
 30
0.000000
  70
    32
  0
VERTEX
  8
AM_0
  5
1AB50
 10
713.369
 20
245.692
 30
0.000000
  70
    32
  0
VERTEX
  8
AM_0
  5
1AB51
 10
713.382
 20
245.682
 30
0.000000
  70
    32
  0
VERTEX
  8
AM_0
  5
1AB52
 10
713.396
 20
245.671
 30
0.000000
  70
    32
  0
VERTEX
  8
AM_0
  5
1AB53
 10
713.409
 20
245.661
 30
0.000000
  70
    32
  0
VERTEX
  8
AM_0
  5
1AB54
 10
713.422
 20
245.650
 30
0.000000
  70
    32
  0
VERTEX
  8
AM_0
  5
1AB55
 10
713.436
 20
245.640
 30
0.000000
  70
    32
  0
VERTEX
  8
AM_0
  5
1AB56
 10
713.449
 20
245.629
 30
0.000000
  70
    32
  0
VERTEX
  8
AM_0
  5
1AB57
 10
713.462
 20
245.618
 30
0.000000
  70
    32
  0
VERTEX
  8
AM_0
  5
1AB58
 10
713.475
 20
245.608
 30
0.000000
  70
    32
  0
VERTEX
  8
AM_0
  5
1AB59
 10
713.488
 20
245.597
 30
0.000000
  70
    32
  0
VERTEX
  8
AM_0
  5
1AB5A
 10
713.501
 20
245.586
 30
0.000000
  70
    32
  0
VERTEX
  8
AM_0
  5
1AB5B
 10
713.514
 20
245.575
 30
0.000000
  70
    32
  0
VERTEX
  8
AM_0
  5
1AB5C
 10
713.526
 20
245.564
 30
0.000000
  70
    32
  0
VERTEX
  8
AM_0
  5
1AB5D
 10
713.539
 20
245.553
 30
0.000000
  70
    32
  0
SEQEND
  8
AM_0
  5
1AB5E
  0
ARC
  5
18ECD
  8
0
 10
681.02347120273907
 20
269.20995346501292
 30
0.0
 40
5.0
 50
249.33268187999059
 51
0.0
1001
GENIUS_GENOBJ-N-FIL_13
1002
{
1000
OWNER
1000
GEN
1002
}
1001
GENIUS_GENODEF_13
1002
{
1000
HIER
1070
     0
1002
}
1002
{
1000
MANEDIT
1070
     0
1002
}
1002
{
1000
NOSEL
1070
     0
1002
}
1002
{
1000
BEHIND
1070
     0
1002
}
1002
{
1000
OTHER
1070
     0
1002
}
1002
{
1000
REACTOR
1002
}
  0
LINE
  5
18ECE
  8
AM_0
 10
694.45193681273975
 20
269.57526323233458
 30
0.0
 11
692.0234712027393
 21
269.57526323233458
 31
0.0
  0
ARC
  5
18ECF
  8
0
 10
683.02347120273896
 20
299.30398187140332
 30
0.0
 40
3.0
 50
270.0
 51
0.0
1001
GENIUS_GENODEF_13
1002
{
1000
HIER
1070
     0
1002
}
1002
{
1000
MANEDIT
1070
     0
1002
}
1002
{
1000
NOSEL
1070
     0
1002
}
1002
{
1000
BEHIND
1070
     0
1002
}
1002
{
1000
OTHER
1070
     0
1002
}
1002
{
1000
REACTOR
1002
}
1001
GENIUS_GENOBJ-N-FIL_13
1002
{
1000
OWNER
1000
GEN
1002
}
  0
ARC
  5
18ED0
  8
0
 10
683.02123195063075
 20
293.30398270711157
 30
0.0
 40
3.0000000000000631
 50
90.000000000001606
 51
270.0
  0
ARC
  5
18ED1
  8
0
 10
683.02347120273896
 20
287.30398187140332
 30
0.0
 40
3.0
 50
0.0
 51
90.0
1001
GENIUS_GENODEF_13
1002
{
1000
HIER
1070
     0
1002
}
1002
{
1000
MANEDIT
1070
     0
1002
}
1002
{
1000
NOSEL
1070
     0
1002
}
1002
{
1000
BEHIND
1070
     0
1002
}
1002
{
1000
OTHER
1070
     0
1002
}
1002
{
1000
REACTOR
1002
}
1001
GENIUS_GENOBJ-N-FIL_13
1002
{
1000
OWNER
1000
GEN
1002
}
  0
ARC
  5
18ED2
  8
AM_0
 10
694.45193681273975
 20
272.5752632323946
 30
0.0
 40
3.000000000059996
 50
270.0
 51
353.33928567968309
1001
GENIUS_GENODEF_13
1002
{
1000
HIER
1070
     0
1002
}
1002
{
1000
MANEDIT
1070
     0
1002
}
1002
{
1000
NOSEL
1070
     0
1002
}
1002
{
1000
BEHIND
1070
     0
1002
}
1002
{
1000
OTHER
1070
     0
1002
}
1002
{
1000
REACTOR
1002
}
1001
GENIUS_GENOBJ-N-FIL_13
1002
{
1000
OWNER
1000
GEN
1002
}
  0
ARC
  5
18ED3
  8
0
 10
683.02347120273896
 20
343.30398187140321
 30
0.0
 40
3.0000000000000631
 50
90.000000000001606
 51
270.0
  0
ARC
  5
18ED4
  8
0
 10
683.02347120273896
 20
337.30398187140332
 30
0.0
 40
3.0
 50
0.0
 51
90.0
1001
GENIUS_GENODEF_13
1002
{
1000
HIER
1070
     0
1002
}
1002
{
1000
MANEDIT
1070
     0
1002
}
1002
{
1000
NOSEL
1070
     0
1002
}
1002
{
1000
BEHIND
1070
     0
1002
}
1002
{
1000
OTHER
1070
     0
1002
}
1002
{
1000
REACTOR
1002
}
1001
GENIUS_GENOBJ-N-FIL_13
1002
{
1000
OWNER
1000
GEN
1002
}
  0
ARC
  5
18ED5
  8
0
 10
683.02347120273896
 20
349.30398187140332
 30
0.0
 40
3.0
 50
270.0
 51
0.0
1001
GENIUS_GENODEF_13
1002
{
1000
HIER
1070
     0
1002
}
1002
{
1000
MANEDIT
1070
     0
1002
}
1002
{
1000
NOSEL
1070
     0
1002
}
1002
{
1000
BEHIND
1070
     0
1002
}
1002
{
1000
OTHER
1070
     0
1002
}
1002
{
1000
REACTOR
1002
}
1001
GENIUS_GENOBJ-N-FIL_13
1002
{
1000
OWNER
1000
GEN
1002
}
  0
LINE
  5
18ED9
  8
AM_0
 10
726.52347121368916
 20
244.8025118714032
 30
0.0
 11
726.52347121368882
 21
318.30398187140321
 31
0.0
  0
LINE
  5
18EE4
  8
AM_0
 10
726.52346513401551
 20
244.80250702171509
 30
0.0
 11
715.52346592119522
 21
244.8025264158122
 31
0.0
  0
LINE
  5
18F23
  8
AM_0
 10
714.52347121008734
 20
255.30272187140369
 30
0.0
 11
726.52347121368655
 21
255.30272187140329
 31
0.0
  0
LINE
  5
18F25
  8
AM_0
 10
714.52347121008791
 20
279.24224825011061
 30
0.0
 11
726.52347121368791
 21
279.24224825011038
 31
0.0
  0
LINE
  5
18F3D
  8
AM_0
 10
714.52347121008927
 20
357.36571549269632
 30
0.0
 11
726.52347121368882
 21
357.36571549269621
 31
0.0
  0
POLYLINE
  5
18F7E
  8
AM_0
 10
713.53915843278878
 20
391.0554229499038
 30
0.0
 66
     1
 70
     8
  0
VERTEX
  8
AM_0
  5
1AB5F
 10
713.539
 20
391.055
 30
0.000000
  70
    32
  0
VERTEX
  8
AM_0
  5
1AB60
 10
713.552
 20
391.067
 30
0.000000
  70
    32
  0
VERTEX
  8
AM_0
  5
1AB61
 10
713.565
 20
391.078
 30
0.000000
  70
    32
  0
VERTEX
  8
AM_0
  5
1AB62
 10
713.578
 20
391.089
 30
0.000000
  70
    32
  0
VERTEX
  8
AM_0
  5
1AB63
 10
713.590
 20
391.100
 30
0.000000
  70
    32
  0
VERTEX
  8
AM_0
  5
1AB64
 10
713.603
 20
391.111
 30
0.000000
  70
    32
  0
VERTEX
  8
AM_0
  5
1AB65
 10
713.617
 20
391.121
 30
0.000000
  70
    32
  0
VERTEX
  8
AM_0
  5
1AB66
 10
713.630
 20
391.132
 30
0.000000
  70
    32
  0
VERTEX
  8
AM_0
  5
1AB67
 10
713.643
 20
391.143
 30
0.000000
  70
    32
  0
VERTEX
  8
AM_0
  5
1AB68
 10
713.656
 20
391.153
 30
0.000000
  70
    32
  0
VERTEX
  8
AM_0
  5
1AB69
 10
713.669
 20
391.164
 30
0.000000
  70
    32
  0
VERTEX
  8
AM_0
  5
1AB6A
 10
713.683
 20
391.174
 30
0.000000
  70
    32
  0
VERTEX
  8
AM_0
  5
1AB6B
 10
713.696
 20
391.185
 30
0.000000
  70
    32
  0
VERTEX
  8
AM_0
  5
1AB6C
 10
713.710
 20
391.195
 30
0.000000
  70
    32
  0
VERTEX
  8
AM_0
  5
1AB6D
 10
713.723
 20
391.205
 30
0.000000
  70
    32
  0
VERTEX
  8
AM_0
  5
1AB6E
 10
713.737
 20
391.215
 30
0.000000
  70
    32
  0
VERTEX
  8
AM_0
  5
1AB6F
 10
713.750
 20
391.225
 30
0.000000
  70
    32
  0
VERTEX
  8
AM_0
  5
1AB70
 10
713.764
 20
391.235
 30
0.000000
  70
    32
  0
VERTEX
  8
AM_0
  5
1AB71
 10
713.778
 20
391.245
 30
0.000000
  70
    32
  0
VERTEX
  8
AM_0
  5
1AB72
 10
713.791
 20
391.255
 30
0.000000
  70
    32
  0
VERTEX
  8
AM_0
  5
1AB73
 10
713.805
 20
391.265
 30
0.000000
  70
    32
  0
VERTEX
  8
AM_0
  5
1AB74
 10
713.819
 20
391.274
 30
0.000000
  70
    32
  0
VERTEX
  8
AM_0
  5
1AB75
 10
713.833
 20
391.284
 30
0.000000
  70
    32
  0
VERTEX
  8
AM_0
  5
1AB76
 10
713.847
 20
391.293
 30
0.000000
  70
    32
  0
VERTEX
  8
AM_0
  5
1AB77
 10
713.861
 20
391.303
 30
0.000000
  70
    32
  0
VERTEX
  8
AM_0
  5
1AB78
 10
713.875
 20
391.312
 30
0.000000
  70
    32
  0
VERTEX
  8
AM_0
  5
1AB79
 10
713.890
 20
391.321
 30
0.000000
  70
    32
  0
VERTEX
  8
AM_0
  5
1AB7A
 10
713.904
 20
391.331
 30
0.000000
  70
    32
  0
VERTEX
  8
AM_0
  5
1AB7B
 10
713.918
 20
391.340
 30
0.000000
  70
    32
  0
VERTEX
  8
AM_0
  5
1AB7C
 10
713.932
 20
391.349
 30
0.000000
  70
    32
  0
VERTEX
  8
AM_0
  5
1AB7D
 10
713.947
 20
391.358
 30
0.000000
  70
    32
  0
VERTEX
  8
AM_0
  5
1AB7E
 10
713.961
 20
391.367
 30
0.000000
  70
    32
  0
VERTEX
  8
AM_0
  5
1AB7F
 10
713.976
 20
391.375
 30
0.000000
  70
    32
  0
VERTEX
  8
AM_0
  5
1AB80
 10
713.990
 20
391.384
 30
0.000000
  70
    32
  0
VERTEX
  8
AM_0
  5
1AB81
 10
714.005
 20
391.393
 30
0.000000
  70
    32
  0
VERTEX
  8
AM_0
  5
1AB82
 10
714.020
 20
391.401
 30
0.000000
  70
    32
  0
VERTEX
  8
AM_0
  5
1AB83
 10
714.034
 20
391.410
 30
0.000000
  70
    32
  0
VERTEX
  8
AM_0
  5
1AB84
 10
714.049
 20
391.418
 30
0.000000
  70
    32
  0
VERTEX
  8
AM_0
  5
1AB85
 10
714.064
 20
391.426
 30
0.000000
  70
    32
  0
VERTEX
  8
AM_0
  5
1AB86
 10
714.079
 20
391.435
 30
0.000000
  70
    32
  0
VERTEX
  8
AM_0
  5
1AB87
 10
714.093
 20
391.443
 30
0.000000
  70
    32
  0
VERTEX
  8
AM_0
  5
1AB88
 10
714.108
 20
391.451
 30
0.000000
  70
    32
  0
VERTEX
  8
AM_0
  5
1AB89
 10
714.123
 20
391.459
 30
0.000000
  70
    32
  0
VERTEX
  8
AM_0
  5
1AB8A
 10
714.138
 20
391.466
 30
0.000000
  70
    32
  0
VERTEX
  8
AM_0
  5
1AB8B
 10
714.153
 20
391.474
 30
0.000000
  70
    32
  0
VERTEX
  8
AM_0
  5
1AB8C
 10
714.168
 20
391.482
 30
0.000000
  70
    32
  0
VERTEX
  8
AM_0
  5
1AB8D
 10
714.184
 20
391.490
 30
0.000000
  70
    32
  0
VERTEX
  8
AM_0
  5
1AB8E
 10
714.199
 20
391.497
 30
0.000000
  70
    32
  0
VERTEX
  8
AM_0
  5
1AB8F
 10
714.214
 20
391.505
 30
0.000000
  70
    32
  0
VERTEX
  8
AM_0
  5
1AB90
 10
714.229
 20
391.512
 30
0.000000
  70
    32
  0
VERTEX
  8
AM_0
  5
1AB91
 10
714.245
 20
391.519
 30
0.000000
  70
    32
  0
VERTEX
  8
AM_0
  5
1AB92
 10
714.260
 20
391.526
 30
0.000000
  70
    32
  0
VERTEX
  8
AM_0
  5
1AB93
 10
714.275
 20
391.533
 30
0.000000
  70
    32
  0
VERTEX
  8
AM_0
  5
1AB94
 10
714.291
 20
391.540
 30
0.000000
  70
    32
  0
VERTEX
  8
AM_0
  5
1AB95
 10
714.306
 20
391.547
 30
0.000000
  70
    32
  0
VERTEX
  8
AM_0
  5
1AB96
 10
714.322
 20
391.554
 30
0.000000
  70
    32
  0
VERTEX
  8
AM_0
  5
1AB97
 10
714.337
 20
391.561
 30
0.000000
  70
    32
  0
VERTEX
  8
AM_0
  5
1AB98
 10
714.353
 20
391.568
 30
0.000000
  70
    32
  0
VERTEX
  8
AM_0
  5
1AB99
 10
714.368
 20
391.574
 30
0.000000
  70
    32
  0
VERTEX
  8
AM_0
  5
1AB9A
 10
714.384
 20
391.581
 30
0.000000
  70
    32
  0
VERTEX
  8
AM_0
  5
1AB9B
 10
714.400
 20
391.587
 30
0.000000
  70
    32
  0
VERTEX
  8
AM_0
  5
1AB9C
 10
714.415
 20
391.593
 30
0.000000
  70
    32
  0
VERTEX
  8
AM_0
  5
1AB9D
 10
714.431
 20
391.600
 30
0.000000
  70
    32
  0
VERTEX
  8
AM_0
  5
1AB9E
 10
714.447
 20
391.606
 30
0.000000
  70
    32
  0
VERTEX
  8
AM_0
  5
1AB9F
 10
714.463
 20
391.612
 30
0.000000
  70
    32
  0
VERTEX
  8
AM_0
  5
1ABA0
 10
714.479
 20
391.618
 30
0.000000
  70
    32
  0
VERTEX
  8
AM_0
  5
1ABA1
 10
714.495
 20
391.623
 30
0.000000
  70
    32
  0
VERTEX
  8
AM_0
  5
1ABA2
 10
714.510
 20
391.629
 30
0.000000
  70
    32
  0
VERTEX
  8
AM_0
  5
1ABA3
 10
714.526
 20
391.635
 30
0.000000
  70
    32
  0
VERTEX
  8
AM_0
  5
1ABA4
 10
714.542
 20
391.640
 30
0.000000
  70
    32
  0
VERTEX
  8
AM_0
  5
1ABA5
 10
714.558
 20
391.646
 30
0.000000
  70
    32
  0
VERTEX
  8
AM_0
  5
1ABA6
 10
714.575
 20
391.651
 30
0.000000
  70
    32
  0
VERTEX
  8
AM_0
  5
1ABA7
 10
714.591
 20
391.657
 30
0.000000
  70
    32
  0
VERTEX
  8
AM_0
  5
1ABA8
 10
714.607
 20
391.662
 30
0.000000
  70
    32
  0
VERTEX
  8
AM_0
  5
1ABA9
 10
714.623
 20
391.667
 30
0.000000
  70
    32
  0
VERTEX
  8
AM_0
  5
1ABAA
 10
714.639
 20
391.672
 30
0.000000
  70
    32
  0
VERTEX
  8
AM_0
  5
1ABAB
 10
714.655
 20
391.677
 30
0.000000
  70
    32
  0
VERTEX
  8
AM_0
  5
1ABAC
 10
714.671
 20
391.682
 30
0.000000
  70
    32
  0
VERTEX
  8
AM_0
  5
1ABAD
 10
714.688
 20
391.687
 30
0.000000
  70
    32
  0
VERTEX
  8
AM_0
  5
1ABAE
 10
714.704
 20
391.691
 30
0.000000
  70
    32
  0
VERTEX
  8
AM_0
  5
1ABAF
 10
714.720
 20
391.696
 30
0.000000
  70
    32
  0
VERTEX
  8
AM_0
  5
1ABB0
 10
714.737
 20
391.700
 30
0.000000
  70
    32
  0
VERTEX
  8
AM_0
  5
1ABB1
 10
714.753
 20
391.705
 30
0.000000
  70
    32
  0
VERTEX
  8
AM_0
  5
1ABB2
 10
714.769
 20
391.709
 30
0.000000
  70
    32
  0
VERTEX
  8
AM_0
  5
1ABB3
 10
714.786
 20
391.713
 30
0.000000
  70
    32
  0
VERTEX
  8
AM_0
  5
1ABB4
 10
714.802
 20
391.717
 30
0.000000
  70
    32
  0
VERTEX
  8
AM_0
  5
1ABB5
 10
714.819
 20
391.721
 30
0.000000
  70
    32
  0
VERTEX
  8
AM_0
  5
1ABB6
 10
714.835
 20
391.725
 30
0.000000
  70
    32
  0
VERTEX
  8
AM_0
  5
1ABB7
 10
714.852
 20
391.729
 30
0.000000
  70
    32
  0
VERTEX
  8
AM_0
  5
1ABB8
 10
714.868
 20
391.733
 30
0.000000
  70
    32
  0
VERTEX
  8
AM_0
  5
1ABB9
 10
714.885
 20
391.737
 30
0.000000
  70
    32
  0
VERTEX
  8
AM_0
  5
1ABBA
 10
714.901
 20
391.740
 30
0.000000
  70
    32
  0
VERTEX
  8
AM_0
  5
1ABBB
 10
714.918
 20
391.744
 30
0.000000
  70
    32
  0
VERTEX
  8
AM_0
  5
1ABBC
 10
714.934
 20
391.747
 30
0.000000
  70
    32
  0
VERTEX
  8
AM_0
  5
1ABBD
 10
714.951
 20
391.750
 30
0.000000
  70
    32
  0
VERTEX
  8
AM_0
  5
1ABBE
 10
714.968
 20
391.754
 30
0.000000
  70
    32
  0
VERTEX
  8
AM_0
  5
1ABBF
 10
714.984
 20
391.757
 30
0.000000
  70
    32
  0
VERTEX
  8
AM_0
  5
1ABC0
 10
715.001
 20
391.760
 30
0.000000
  70
    32
  0
VERTEX
  8
AM_0
  5
1ABC1
 10
715.018
 20
391.762
 30
0.000000
  70
    32
  0
VERTEX
  8
AM_0
  5
1ABC2
 10
715.034
 20
391.765
 30
0.000000
  70
    32
  0
VERTEX
  8
AM_0
  5
1ABC3
 10
715.051
 20
391.768
 30
0.000000
  70
    32
  0
VERTEX
  8
AM_0
  5
1ABC4
 10
715.068
 20
391.771
 30
0.000000
  70
    32
  0
VERTEX
  8
AM_0
  5
1ABC5
 10
715.085
 20
391.773
 30
0.000000
  70
    32
  0
VERTEX
  8
AM_0
  5
1ABC6
 10
715.101
 20
391.776
 30
0.000000
  70
    32
  0
VERTEX
  8
AM_0
  5
1ABC7
 10
715.118
 20
391.778
 30
0.000000
  70
    32
  0
VERTEX
  8
AM_0
  5
1ABC8
 10
715.135
 20
391.780
 30
0.000000
  70
    32
  0
VERTEX
  8
AM_0
  5
1ABC9
 10
715.152
 20
391.782
 30
0.000000
  70
    32
  0
VERTEX
  8
AM_0
  5
1ABCA
 10
715.169
 20
391.784
 30
0.000000
  70
    32
  0
VERTEX
  8
AM_0
  5
1ABCB
 10
715.185
 20
391.786
 30
0.000000
  70
    32
  0
VERTEX
  8
AM_0
  5
1ABCC
 10
715.202
 20
391.788
 30
0.000000
  70
    32
  0
VERTEX
  8
AM_0
  5
1ABCD
 10
715.219
 20
391.790
 30
0.000000
  70
    32
  0
VERTEX
  8
AM_0
  5
1ABCE
 10
715.236
 20
391.792
 30
0.000000
  70
    32
  0
VERTEX
  8
AM_0
  5
1ABCF
 10
715.253
 20
391.793
 30
0.000000
  70
    32
  0
VERTEX
  8
AM_0
  5
1ABD0
 10
715.270
 20
391.795
 30
0.000000
  70
    32
  0
VERTEX
  8
AM_0
  5
1ABD1
 10
715.287
 20
391.796
 30
0.000000
  70
    32
  0
VERTEX
  8
AM_0
  5
1ABD2
 10
715.303
 20
391.797
 30
0.000000
  70
    32
  0
VERTEX
  8
AM_0
  5
1ABD3
 10
715.320
 20
391.799
 30
0.000000
  70
    32
  0
VERTEX
  8
AM_0
  5
1ABD4
 10
715.337
 20
391.800
 30
0.000000
  70
    32
  0
VERTEX
  8
AM_0
  5
1ABD5
 10
715.354
 20
391.801
 30
0.000000
  70
    32
  0
VERTEX
  8
AM_0
  5
1ABD6
 10
715.371
 20
391.802
 30
0.000000
  70
    32
  0
VERTEX
  8
AM_0
  5
1ABD7
 10
715.388
 20
391.802
 30
0.000000
  70
    32
  0
VERTEX
  8
AM_0
  5
1ABD8
 10
715.405
 20
391.803
 30
0.000000
  70
    32
  0
VERTEX
  8
AM_0
  5
1ABD9
 10
715.422
 20
391.804
 30
0.000000
  70
    32
  0
VERTEX
  8
AM_0
  5
1ABDA
 10
715.439
 20
391.804
 30
0.000000
  70
    32
  0
VERTEX
  8
AM_0
  5
1ABDB
 10
715.456
 20
391.805
 30
0.000000
  70
    32
  0
VERTEX
  8
AM_0
  5
1ABDC
 10
715.473
 20
391.805
 30
0.000000
  70
    32
  0
VERTEX
  8
AM_0
  5
1ABDD
 10
715.490
 20
391.805
 30
0.000000
  70
    32
  0
VERTEX
  8
AM_0
  5
1ABDE
 10
715.507
 20
391.805
 30
0.000000
  70
    32
  0
VERTEX
  8
AM_0
  5
1ABDF
 10
715.523
 20
391.805
 30
0.000000
  70
    32
  0
SEQEND
  8
AM_0
  5
1ABE0
  0
LINE
  5
18F80
  8
0
  6
CONTINUOUS
 62
     7
 10
631.02349780701616
 20
392.3039818714027
 30
0.0
 11
610.73973145251807
 21
392.3039818714027
 31
0.0
  0
ARC
  5
18F81
  8
0
 10
579.30726416151492
 20
387.30398187140281
 30
0.0
 40
5.0
 50
10.806922874860341
 51
90.0
1001
GENIUS_GENOBJ-N-FIL_13
1002
{
1000
OWNER
1000
GEN
1002
}
1001
GENIUS_GENODEF_13
1002
{
1000
HIER
1070
     0
1002
}
1002
{
1000
MANEDIT
1070
     0
1002
}
1002
{
1000
NOSEL
1070
     0
1002
}
1002
{
1000
BEHIND
1070
     0
1002
}
1002
{
1000
OTHER
1070
     0
1002
}
1002
{
1000
REACTOR
1002
}
  0
LINE
  5
18F82
  8
0
  6
CONTINUOUS
 62
     7
 10
579.30726416151515
 20
392.3039818714027
 30
0.0
 11
544.02346894506547
 21
392.3039818714027
 31
0.0
  0
ARC
  5
18F83
  8
0
 10
541.02346894506525
 20
392.30398187140281
 30
0.0
 40
3.0000000000000631
 50
224.99999999999571
 51
44.99999999999568
  0
ARC
  5
18F84
  8
0
 10
595.02349780701661
 20
390.30398187140281
 30
0.0
 40
11.0
 50
270.0
 51
349.19307712513972
  0
CIRCLE
  5
18F85
  8
AM_0
 10
595.02349780701661
 20
390.30398187140332
 30
0.0
 40
8.5
  0
ARC
  5
18F86
  8
0
 10
595.02349780701661
 20
390.30398187140281
 30
0.0
 40
11.0
 50
190.80692287486031
 51
270.0
  0
CIRCLE
  5
18F87
  8
AM_0
 10
595.02349780701661
 20
390.30398187140332
 30
0.0
 40
6.5
  0
POLYLINE
  5
18F88
  8
AM_0
 66
     1
 10
0.0
 20
0.0
 30
0.0
 70
     1
  0
VERTEX
  5
18F89
  8
AM_0
 10
593.29144699944777
 20
393.30398187140281
 30
0.0
  0
VERTEX
  5
18F8A
  8
AM_0
 10
591.55939619187893
 20
390.30398187140281
 30
0.0
  0
VERTEX
  5
18F8B
  8
AM_0
 10
593.29144699944777
 20
387.30398187140281
 30
0.0
  0
VERTEX
  5
18F8C
  8
AM_0
 10
596.75554861458522
 20
387.30398187140281
 30
0.0
  0
VERTEX
  5
18F8D
  8
AM_0
 10
598.48759942215429
 20
390.30398187140281
 30
0.0
  0
VERTEX
  5
18F8E
  8
AM_0
 10
596.75554861458522
 20
393.30398187140281
 30
0.0
  0
SEQEND
  5
18F8F
  8
AM_0
  0
ARC
  5
18F90
  8
0
 10
610.73973145251807
 20
387.30398187140281
 30
0.0
 40
5.0
 50
90.000000000001606
 51
169.19307712513961
1001
GENIUS_GENOBJ-N-FIL_13
1002
{
1000
OWNER
1000
GEN
1002
}
1001
GENIUS_GENODEF_13
1002
{
1000
HIER
1070
     0
1002
}
1002
{
1000
MANEDIT
1070
     0
1002
}
1002
{
1000
NOSEL
1070
     0
1002
}
1002
{
1000
BEHIND
1070
     0
1002
}
1002
{
1000
OTHER
1070
     0
1002
}
1002
{
1000
REACTOR
1002
}
  0
ARC
  5
18F92
  8
0
 10
641.9957414296963
 20
424.30398187140281
 30
0.0
 40
5.0
 50
341.591519829417
 51
90.0
1001
GENIUS_GENOBJ-N-FIL_13
1002
{
1000
OWNER
1000
GEN
1002
}
1001
GENIUS_GENODEF_13
1002
{
1000
HIER
1070
     0
1002
}
1002
{
1000
MANEDIT
1070
     0
1002
}
1002
{
1000
NOSEL
1070
     0
1002
}
1002
{
1000
BEHIND
1070
     0
1002
}
1002
{
1000
OTHER
1070
     0
1002
}
1002
{
1000
REACTOR
1002
}
  0
ARC
  5
18F93
  8
0
 10
660.02349780701661
 20
418.30398187140321
 30
0.0
 40
16.999999999999709
 50
23.198554934550121
 51
90.0
  0
ARC
  5
18F95
  8
0
 10
672.63984031232098
 20
404.09736715188461
 30
0.0
 40
5.0
 50
23.198554934550121
 51
131.60703510513599
1001
GENIUS_GENOBJ-N-FIL_13
1002
{
1000
OWNER
1000
GEN
1002
}
1001
GENIUS_GENODEF_13
1002
{
1000
HIER
1070
     0
1002
}
1002
{
1000
MANEDIT
1070
     0
1002
}
1002
{
1000
NOSEL
1070
     0
1002
}
1002
{
1000
BEHIND
1070
     0
1002
}
1002
{
1000
OTHER
1070
     0
1002
}
1002
{
1000
REACTOR
1002
}
  0
CIRCLE
  5
18F96
  8
ｷｲﾛ
 10
675.02347075120451
 20
383.3039838280539
 30
0.0
 40
6.0
  0
LINE
  5
18F98
  8
0
  6
CONTINUOUS
 62
     7
 10
676.02347120273896
 20
392.3039818714027
 30
0.0
 11
638.2661384941357
 21
392.3039818714027
 31
0.0
  0
LINE
  5
18F99
  8
0
 10
646.65495558425516
 20
409.17808033576063
 30
0.0
 11
631.90217746345661
 21
394.42530221496219
 31
0.0
  0
LINE
  5
18F9A
  8
0
 10
650.89759627137425
 20
404.93543964864108
 30
0.0
 11
636.1448181505757
 21
390.18266152784321
 31
0.0
  0
ARC
  5
18F9B
  8
0
 10
634.02349780701616
 20
392.30398187140281
 30
0.0
 40
3.0000000000000631
 50
135.00000000000429
 51
315.00000000000432
  0
ARC
  5
18F9C
  8
0
 10
658.50075863565871
 20
387.30398187140281
 30
0.0
 40
5.0
 50
346.39104615428522
 51
90.0
1001
GENIUS_GENODEF_13
1002
{
1000
HIER
1070
     0
1002
}
1002
{
1000
MANEDIT
1070
     0
1002
}
1002
{
1000
NOSEL
1070
     0
1002
}
1002
{
1000
BEHIND
1070
     0
1002
}
1002
{
1000
OTHER
1070
     0
1002
}
1002
{
1000
REACTOR
1002
}
1001
GENIUS_GENOBJ-N-FIL_13
1002
{
1000
OWNER
1000
GEN
1002
}
  0
ARC
  5
18F9D
  8
0
 10
644.53363524069516
 20
411.29940067932051
 30
0.0
 40
3.0
 50
315.00000000000432
 51
24.332683506492341
1001
GENIUS_GENOBJ-N-FIL_13
1002
{
1000
OWNER
1000
GEN
1002
}
1001
GENIUS_GENODEF_13
1002
{
1000
HIER
1070
     0
1002
}
1002
{
1000
MANEDIT
1070
     0
1002
}
1002
{
1000
NOSEL
1070
     0
1002
}
1002
{
1000
BEHIND
1070
     0
1002
}
1002
{
1000
OTHER
1070
     0
1002
}
1002
{
1000
REACTOR
1002
}
  0
ARC
  5
18F9E
  8
0
 10
660.02349780701661
 20
418.30398187140321
 30
0.0
 40
14.0
 50
161.591519829417
 51
311.60703510513611
  0
CIRCLE
  5
18F9F
  8
0
 10
660.02349780701661
 20
418.30398187140321
 30
0.0
 40
7.0
  0
ARC
  5
18FA0
  8
0
 10
653.01891661493369
 20
402.81411930508159
 30
0.0
 40
3.0
 50
65.667316493515841
 51
135.00000000000429
1001
GENIUS_GENODEF_13
1002
{
1000
HIER
1070
     0
1002
}
1002
{
1000
MANEDIT
1070
     0
1002
}
1002
{
1000
NOSEL
1070
     0
1002
}
1002
{
1000
BEHIND
1070
     0
1002
}
1002
{
1000
OTHER
1070
     0
1002
}
1002
{
1000
REACTOR
1002
}
1001
GENIUS_GENOBJ-N-FIL_13
1002
{
1000
OWNER
1000
GEN
1002
}
  0
LINE
  5
18FA1
  8
0
 10
677.23556668547565
 20
406.0669607909611
 30
0.0
 11
685.13406918717044
 21
387.63709001189079
 31
0.0
  0
LINE
  5
18FA2
  8
0
 10
675.64896747574187
 20
425.00060024426449
 30
0.0
 11
690.51893789563474
 21
390.30394309078281
 31
0.0
  0
ARC
  5
18FA3
  8
AM_0
 10
675.02347075120406
 20
383.3039838280543
 30
0.0
 40
17.000000451534831
 50
0.0
 51
23.198554934550121
  0
LINE
  5
18FA4
  8
AM_0
 10
694.45193681274122
 20
367.0327005104715
 30
0.0
 11
691.93531001611336
 21
367.0327005104715
 31
0.0
  0
LINE
  5
18FA5
  8
AM_0
 10
711.55484929238253
 20
390.30540857281068
 30
0.0
 11
690.51832076374615
 21
390.30538306765811
 31
0.0
  0
ARC
  5
18FA6
  8
AM_0
 10
675.02347075120406
 20
383.3039838280543
 30
0.0
 40
11.000000451534831
 50
0.0
 51
23.198554934550121
  0
CIRCLE
  5
18FA7
  8
0
 10
675.02347075120451
 20
383.3039838280539
 30
0.0
 40
5.0
  0
ARC
  5
18FA8
  8
0
 10
676.02347120273896
 20
382.30398187140281
 30
0.0
 40
10.0
 50
0.0
 51
90.0
1001
GENIUS_GENOBJ-N-FIL_13
1002
{
1000
OWNER
1000
GEN
1002
}
1001
GENIUS_GENODEF_13
1002
{
1000
HIER
1070
     0
1002
}
1002
{
1000
MANEDIT
1070
     0
1002
}
1002
{
1000
NOSEL
1070
     0
1002
}
1002
{
1000
BEHIND
1070
     0
1002
}
1002
{
1000
OTHER
1070
     0
1002
}
1002
{
1000
REACTOR
1002
}
  0
ARC
  5
18FA9
  8
AM_0
 10
694.45193681274122
 20
364.03270051041159
 30
0.0
 40
3.000000000059996
 50
6.6607143203167842
 51
90.0
1001
GENIUS_GENOBJ-N-FIL_13
1002
{
1000
OWNER
1000
GEN
1002
}
1001
GENIUS_GENODEF_13
1002
{
1000
HIER
1070
     0
1002
}
1002
{
1000
MANEDIT
1070
     0
1002
}
1002
{
1000
NOSEL
1070
     0
1002
}
1002
{
1000
BEHIND
1070
     0
1002
}
1002
{
1000
OTHER
1070
     0
1002
}
1002
{
1000
REACTOR
1002
}
  0
POLYLINE
  5
18FAA
  8
AM_0
 10
713.53915843278912
 20
391.05542294990374
 30
0.0
 66
     1
 70
     8
  0
VERTEX
  8
AM_0
  5
1ABE1
 10
713.539
 20
391.055
 30
0.000000
  70
    32
  0
VERTEX
  8
AM_0
  5
1ABE2
 10
713.526
 20
391.044
 30
0.000000
  70
    32
  0
VERTEX
  8
AM_0
  5
1ABE3
 10
713.514
 20
391.033
 30
0.000000
  70
    32
  0
VERTEX
  8
AM_0
  5
1ABE4
 10
713.501
 20
391.022
 30
0.000000
  70
    32
  0
VERTEX
  8
AM_0
  5
1ABE5
 10
713.488
 20
391.011
 30
0.000000
  70
    32
  0
VERTEX
  8
AM_0
  5
1ABE6
 10
713.475
 20
391.000
 30
0.000000
  70
    32
  0
VERTEX
  8
AM_0
  5
1ABE7
 10
713.462
 20
390.990
 30
0.000000
  70
    32
  0
VERTEX
  8
AM_0
  5
1ABE8
 10
713.449
 20
390.979
 30
0.000000
  70
    32
  0
VERTEX
  8
AM_0
  5
1ABE9
 10
713.436
 20
390.968
 30
0.000000
  70
    32
  0
VERTEX
  8
AM_0
  5
1ABEA
 10
713.422
 20
390.958
 30
0.000000
  70
    32
  0
VERTEX
  8
AM_0
  5
1ABEB
 10
713.409
 20
390.947
 30
0.000000
  70
    32
  0
VERTEX
  8
AM_0
  5
1ABEC
 10
713.396
 20
390.937
 30
0.000000
  70
    32
  0
VERTEX
  8
AM_0
  5
1ABED
 10
713.382
 20
390.926
 30
0.000000
  70
    32
  0
VERTEX
  8
AM_0
  5
1ABEE
 10
713.369
 20
390.916
 30
0.000000
  70
    32
  0
VERTEX
  8
AM_0
  5
1ABEF
 10
713.355
 20
390.906
 30
0.000000
  70
    32
  0
VERTEX
  8
AM_0
  5
1ABF0
 10
713.342
 20
390.896
 30
0.000000
  70
    32
  0
VERTEX
  8
AM_0
  5
1ABF1
 10
713.328
 20
390.886
 30
0.000000
  70
    32
  0
VERTEX
  8
AM_0
  5
1ABF2
 10
713.314
 20
390.876
 30
0.000000
  70
    32
  0
VERTEX
  8
AM_0
  5
1ABF3
 10
713.301
 20
390.866
 30
0.000000
  70
    32
  0
VERTEX
  8
AM_0
  5
1ABF4
 10
713.287
 20
390.856
 30
0.000000
  70
    32
  0
VERTEX
  8
AM_0
  5
1ABF5
 10
713.273
 20
390.846
 30
0.000000
  70
    32
  0
VERTEX
  8
AM_0
  5
1ABF6
 10
713.259
 20
390.836
 30
0.000000
  70
    32
  0
VERTEX
  8
AM_0
  5
1ABF7
 10
713.245
 20
390.827
 30
0.000000
  70
    32
  0
VERTEX
  8
AM_0
  5
1ABF8
 10
713.231
 20
390.817
 30
0.000000
  70
    32
  0
VERTEX
  8
AM_0
  5
1ABF9
 10
713.217
 20
390.808
 30
0.000000
  70
    32
  0
VERTEX
  8
AM_0
  5
1ABFA
 10
713.203
 20
390.799
 30
0.000000
  70
    32
  0
VERTEX
  8
AM_0
  5
1ABFB
 10
713.189
 20
390.789
 30
0.000000
  70
    32
  0
VERTEX
  8
AM_0
  5
1ABFC
 10
713.174
 20
390.780
 30
0.000000
  70
    32
  0
VERTEX
  8
AM_0
  5
1ABFD
 10
713.160
 20
390.771
 30
0.000000
  70
    32
  0
VERTEX
  8
AM_0
  5
1ABFE
 10
713.146
 20
390.762
 30
0.000000
  70
    32
  0
VERTEX
  8
AM_0
  5
1ABFF
 10
713.131
 20
390.753
 30
0.000000
  70
    32
  0
VERTEX
  8
AM_0
  5
1AC00
 10
713.117
 20
390.744
 30
0.000000
  70
    32
  0
VERTEX
  8
AM_0
  5
1AC01
 10
713.103
 20
390.735
 30
0.000000
  70
    32
  0
VERTEX
  8
AM_0
  5
1AC02
 10
713.088
 20
390.727
 30
0.000000
  70
    32
  0
VERTEX
  8
AM_0
  5
1AC03
 10
713.073
 20
390.718
 30
0.000000
  70
    32
  0
VERTEX
  8
AM_0
  5
1AC04
 10
713.059
 20
390.710
 30
0.000000
  70
    32
  0
VERTEX
  8
AM_0
  5
1AC05
 10
713.044
 20
390.701
 30
0.000000
  70
    32
  0
VERTEX
  8
AM_0
  5
1AC06
 10
713.029
 20
390.693
 30
0.000000
  70
    32
  0
VERTEX
  8
AM_0
  5
1AC07
 10
713.015
 20
390.685
 30
0.000000
  70
    32
  0
VERTEX
  8
AM_0
  5
1AC08
 10
713.000
 20
390.676
 30
0.000000
  70
    32
  0
VERTEX
  8
AM_0
  5
1AC09
 10
712.985
 20
390.668
 30
0.000000
  70
    32
  0
VERTEX
  8
AM_0
  5
1AC0A
 10
712.970
 20
390.660
 30
0.000000
  70
    32
  0
VERTEX
  8
AM_0
  5
1AC0B
 10
712.955
 20
390.652
 30
0.000000
  70
    32
  0
VERTEX
  8
AM_0
  5
1AC0C
 10
712.940
 20
390.644
 30
0.000000
  70
    32
  0
VERTEX
  8
AM_0
  5
1AC0D
 10
712.925
 20
390.637
 30
0.000000
  70
    32
  0
VERTEX
  8
AM_0
  5
1AC0E
 10
712.910
 20
390.629
 30
0.000000
  70
    32
  0
VERTEX
  8
AM_0
  5
1AC0F
 10
712.895
 20
390.621
 30
0.000000
  70
    32
  0
VERTEX
  8
AM_0
  5
1AC10
 10
712.880
 20
390.614
 30
0.000000
  70
    32
  0
VERTEX
  8
AM_0
  5
1AC11
 10
712.864
 20
390.606
 30
0.000000
  70
    32
  0
VERTEX
  8
AM_0
  5
1AC12
 10
712.849
 20
390.599
 30
0.000000
  70
    32
  0
VERTEX
  8
AM_0
  5
1AC13
 10
712.834
 20
390.592
 30
0.000000
  70
    32
  0
VERTEX
  8
AM_0
  5
1AC14
 10
712.818
 20
390.585
 30
0.000000
  70
    32
  0
VERTEX
  8
AM_0
  5
1AC15
 10
712.803
 20
390.577
 30
0.000000
  70
    32
  0
VERTEX
  8
AM_0
  5
1AC16
 10
712.788
 20
390.570
 30
0.000000
  70
    32
  0
VERTEX
  8
AM_0
  5
1AC17
 10
712.772
 20
390.564
 30
0.000000
  70
    32
  0
VERTEX
  8
AM_0
  5
1AC18
 10
712.757
 20
390.557
 30
0.000000
  70
    32
  0
VERTEX
  8
AM_0
  5
1AC19
 10
712.741
 20
390.550
 30
0.000000
  70
    32
  0
VERTEX
  8
AM_0
  5
1AC1A
 10
712.726
 20
390.543
 30
0.000000
  70
    32
  0
VERTEX
  8
AM_0
  5
1AC1B
 10
712.710
 20
390.537
 30
0.000000
  70
    32
  0
VERTEX
  8
AM_0
  5
1AC1C
 10
712.694
 20
390.530
 30
0.000000
  70
    32
  0
VERTEX
  8
AM_0
  5
1AC1D
 10
712.679
 20
390.524
 30
0.000000
  70
    32
  0
VERTEX
  8
AM_0
  5
1AC1E
 10
712.663
 20
390.518
 30
0.000000
  70
    32
  0
VERTEX
  8
AM_0
  5
1AC1F
 10
712.647
 20
390.511
 30
0.000000
  70
    32
  0
VERTEX
  8
AM_0
  5
1AC20
 10
712.631
 20
390.505
 30
0.000000
  70
    32
  0
VERTEX
  8
AM_0
  5
1AC21
 10
712.616
 20
390.499
 30
0.000000
  70
    32
  0
VERTEX
  8
AM_0
  5
1AC22
 10
712.600
 20
390.493
 30
0.000000
  70
    32
  0
VERTEX
  8
AM_0
  5
1AC23
 10
712.584
 20
390.487
 30
0.000000
  70
    32
  0
VERTEX
  8
AM_0
  5
1AC24
 10
712.568
 20
390.482
 30
0.000000
  70
    32
  0
VERTEX
  8
AM_0
  5
1AC25
 10
712.552
 20
390.476
 30
0.000000
  70
    32
  0
VERTEX
  8
AM_0
  5
1AC26
 10
712.536
 20
390.470
 30
0.000000
  70
    32
  0
VERTEX
  8
AM_0
  5
1AC27
 10
712.520
 20
390.465
 30
0.000000
  70
    32
  0
VERTEX
  8
AM_0
  5
1AC28
 10
712.504
 20
390.459
 30
0.000000
  70
    32
  0
VERTEX
  8
AM_0
  5
1AC29
 10
712.488
 20
390.454
 30
0.000000
  70
    32
  0
VERTEX
  8
AM_0
  5
1AC2A
 10
712.472
 20
390.449
 30
0.000000
  70
    32
  0
VERTEX
  8
AM_0
  5
1AC2B
 10
712.455
 20
390.444
 30
0.000000
  70
    32
  0
VERTEX
  8
AM_0
  5
1AC2C
 10
712.439
 20
390.439
 30
0.000000
  70
    32
  0
VERTEX
  8
AM_0
  5
1AC2D
 10
712.423
 20
390.434
 30
0.000000
  70
    32
  0
VERTEX
  8
AM_0
  5
1AC2E
 10
712.407
 20
390.429
 30
0.000000
  70
    32
  0
VERTEX
  8
AM_0
  5
1AC2F
 10
712.391
 20
390.424
 30
0.000000
  70
    32
  0
VERTEX
  8
AM_0
  5
1AC30
 10
712.374
 20
390.420
 30
0.000000
  70
    32
  0
VERTEX
  8
AM_0
  5
1AC31
 10
712.358
 20
390.415
 30
0.000000
  70
    32
  0
VERTEX
  8
AM_0
  5
1AC32
 10
712.342
 20
390.410
 30
0.000000
  70
    32
  0
VERTEX
  8
AM_0
  5
1AC33
 10
712.325
 20
390.406
 30
0.000000
  70
    32
  0
VERTEX
  8
AM_0
  5
1AC34
 10
712.309
 20
390.402
 30
0.000000
  70
    32
  0
VERTEX
  8
AM_0
  5
1AC35
 10
712.293
 20
390.398
 30
0.000000
  70
    32
  0
VERTEX
  8
AM_0
  5
1AC36
 10
712.276
 20
390.393
 30
0.000000
  70
    32
  0
VERTEX
  8
AM_0
  5
1AC37
 10
712.260
 20
390.389
 30
0.000000
  70
    32
  0
VERTEX
  8
AM_0
  5
1AC38
 10
712.243
 20
390.385
 30
0.000000
  70
    32
  0
VERTEX
  8
AM_0
  5
1AC39
 10
712.227
 20
390.382
 30
0.000000
  70
    32
  0
VERTEX
  8
AM_0
  5
1AC3A
 10
712.210
 20
390.378
 30
0.000000
  70
    32
  0
VERTEX
  8
AM_0
  5
1AC3B
 10
712.194
 20
390.374
 30
0.000000
  70
    32
  0
VERTEX
  8
AM_0
  5
1AC3C
 10
712.177
 20
390.371
 30
0.000000
  70
    32
  0
VERTEX
  8
AM_0
  5
1AC3D
 10
712.160
 20
390.367
 30
0.000000
  70
    32
  0
VERTEX
  8
AM_0
  5
1AC3E
 10
712.144
 20
390.364
 30
0.000000
  70
    32
  0
VERTEX
  8
AM_0
  5
1AC3F
 10
712.127
 20
390.361
 30
0.000000
  70
    32
  0
VERTEX
  8
AM_0
  5
1AC40
 10
712.111
 20
390.357
 30
0.000000
  70
    32
  0
VERTEX
  8
AM_0
  5
1AC41
 10
712.094
 20
390.354
 30
0.000000
  70
    32
  0
VERTEX
  8
AM_0
  5
1AC42
 10
712.077
 20
390.351
 30
0.000000
  70
    32
  0
VERTEX
  8
AM_0
  5
1AC43
 10
712.061
 20
390.348
 30
0.000000
  70
    32
  0
VERTEX
  8
AM_0
  5
1AC44
 10
712.044
 20
390.346
 30
0.000000
  70
    32
  0
VERTEX
  8
AM_0
  5
1AC45
 10
712.027
 20
390.343
 30
0.000000
  70
    32
  0
VERTEX
  8
AM_0
  5
1AC46
 10
712.010
 20
390.340
 30
0.000000
  70
    32
  0
VERTEX
  8
AM_0
  5
1AC47
 10
711.994
 20
390.338
 30
0.000000
  70
    32
  0
VERTEX
  8
AM_0
  5
1AC48
 10
711.977
 20
390.335
 30
0.000000
  70
    32
  0
VERTEX
  8
AM_0
  5
1AC49
 10
711.960
 20
390.333
 30
0.000000
  70
    32
  0
VERTEX
  8
AM_0
  5
1AC4A
 10
711.943
 20
390.331
 30
0.000000
  70
    32
  0
VERTEX
  8
AM_0
  5
1AC4B
 10
711.927
 20
390.329
 30
0.000000
  70
    32
  0
VERTEX
  8
AM_0
  5
1AC4C
 10
711.910
 20
390.326
 30
0.000000
  70
    32
  0
VERTEX
  8
AM_0
  5
1AC4D
 10
711.893
 20
390.325
 30
0.000000
  70
    32
  0
VERTEX
  8
AM_0
  5
1AC4E
 10
711.876
 20
390.323
 30
0.000000
  70
    32
  0
VERTEX
  8
AM_0
  5
1AC4F
 10
711.859
 20
390.321
 30
0.000000
  70
    32
  0
VERTEX
  8
AM_0
  5
1AC50
 10
711.842
 20
390.319
 30
0.000000
  70
    32
  0
VERTEX
  8
AM_0
  5
1AC51
 10
711.826
 20
390.318
 30
0.000000
  70
    32
  0
VERTEX
  8
AM_0
  5
1AC52
 10
711.809
 20
390.316
 30
0.000000
  70
    32
  0
VERTEX
  8
AM_0
  5
1AC53
 10
711.792
 20
390.315
 30
0.000000
  70
    32
  0
VERTEX
  8
AM_0
  5
1AC54
 10
711.775
 20
390.313
 30
0.000000
  70
    32
  0
VERTEX
  8
AM_0
  5
1AC55
 10
711.758
 20
390.312
 30
0.000000
  70
    32
  0
VERTEX
  8
AM_0
  5
1AC56
 10
711.741
 20
390.311
 30
0.000000
  70
    32
  0
VERTEX
  8
AM_0
  5
1AC57
 10
711.724
 20
390.310
 30
0.000000
  70
    32
  0
VERTEX
  8
AM_0
  5
1AC58
 10
711.707
 20
390.309
 30
0.000000
  70
    32
  0
VERTEX
  8
AM_0
  5
1AC59
 10
711.690
 20
390.308
 30
0.000000
  70
    32
  0
VERTEX
  8
AM_0
  5
1AC5A
 10
711.673
 20
390.308
 30
0.000000
  70
    32
  0
VERTEX
  8
AM_0
  5
1AC5B
 10
711.656
 20
390.307
 30
0.000000
  70
    32
  0
VERTEX
  8
AM_0
  5
1AC5C
 10
711.640
 20
390.307
 30
0.000000
  70
    32
  0
VERTEX
  8
AM_0
  5
1AC5D
 10
711.623
 20
390.306
 30
0.000000
  70
    32
  0
VERTEX
  8
AM_0
  5
1AC5E
 10
711.606
 20
390.306
 30
0.000000
  70
    32
  0
VERTEX
  8
AM_0
  5
1AC5F
 10
711.589
 20
390.306
 30
0.000000
  70
    32
  0
VERTEX
  8
AM_0
  5
1AC60
 10
711.572
 20
390.305
 30
0.000000
  70
    32
  0
VERTEX
  8
AM_0
  5
1AC61
 10
711.555
 20
390.305
 30
0.000000
  70
    32
  0
SEQEND
  8
AM_0
  5
1AC62
  0
LINE
  5
18FB8
  8
AM_0
 10
714.52347121008927
 20
381.30524187140321
 30
0.0
 11
726.52347121368916
 21
381.30524187140333
 31
0.0
  0
LINE
  5
18FBA
  8
AM_0
 10
726.52346513401551
 20
391.80545672109139
 30
0.0
 11
715.52346592119522
 21
391.80543732699448
 31
0.0
  0
ARC
  5
194A4
  8
AM_0
 10
560.02349780701661
 20
318.30398187140298
 30
0.0
 40
16.0
 50
108.2099568642828
 51
71.790043135717227
  0
CIRCLE
  5
194A5
  8
ｽﾝﾎﾟｳｾﾝ
 10
560.02349780701661
 20
318.30398187140298
 30
0.0
 40
4.0
  0
LINE
  5
194A6
  8
AM_0
 10
555.02349780701638
 20
337.30398187140298
 30
0.0
 11
565.02349780701661
 21
337.30398187140298
 31
0.0
  0
LINE
  5
194A7
  8
AM_0
 10
565.02349780701661
 20
329.3039818714031
 30
0.0
 11
555.02349780701638
 21
329.3039818714031
 31
0.0
  0
LINE
  5
194A8
  8
AM_0
 10
565.02349780701661
 20
337.30398187140298
 30
0.0
 11
565.02349780701661
 21
329.3039818714031
 31
0.0
  0
LINE
  5
194A9
  8
AM_0
 10
555.02349780701638
 20
329.3039818714031
 30
0.0
 11
555.02349780701638
 21
337.30398187140298
 31
0.0
  0
LINE
  5
194AA
  8
ｶｸﾚｾﾝ2
 10
319.86585689010838
 20
338.30398187140281
 30
0.0
 11
319.86585689010838
 21
298.30398187140332
 31
0.0
  0
LINE
  5
194AB
  8
AM_0
 10
377.86585689010832
 20
302.30398187140281
 30
0.0
 11
377.86585689010832
 21
337.30398187140281
 31
0.0
  0
LINE
  5
194AC
  8
ｶｸﾚｾﾝ2
 10
291.86585896716872
 20
343.30398262396147
 30
0.0
 11
291.86585896716872
 21
293.30398111884551
 31
0.0
  0
LINE
  5
194AE
  8
0
 10
377.86585689010832
 20
302.30398187140281
 30
0.0
 11
322.86585689010838
 21
302.30398187140281
 31
0.0
  0
LINE
  5
194AF
  8
ｶｸﾚｾﾝ2
 10
286.86585881665712
 20
293.30398111884551
 30
0.0
 11
291.86585896716872
 21
293.30398111884551
 31
0.0
  0
LINE
  5
194B0
  8
ｶｸﾚｾﾝ2
 10
319.86585689010838
 20
298.30398187140332
 30
0.0
 11
291.86585896716872
 21
293.30398111884551
 31
0.0
  0
LINE
  5
194B1
  8
0
 10
377.86585689010832
 20
334.30398187140332
 30
0.0
 11
322.86585689010838
 21
334.30398187140332
 31
0.0
  0
LINE
  5
194B2
  8
ｶｸﾚｾﾝ2
 10
286.86585881665712
 20
343.30398262396147
 30
0.0
 11
291.86585896716872
 21
343.30398262396147
 31
0.0
  0
LINE
  5
194B3
  8
ｶｸﾚｾﾝ2
 10
319.86585689010838
 20
338.30398187140332
 30
0.0
 11
291.86585896716872
 21
343.30398262396147
 31
0.0
  0
LINE
  5
194B4
  8
0
 10
377.86585689010832
 20
337.30398187140281
 30
0.0
 11
332.86585689010838
 21
337.30398187140281
 31
0.0
  0
LINE
  5
194B5
  8
0
 10
332.86585689010838
 20
337.30398187140281
 30
0.0
 11
332.86585689010838
 21
334.30398187140332
 31
0.0
  0
CIRCLE
  5
1962A
  8
AM_0
 10
560.02349780701661
 20
318.30398187140298
 30
0.0
 40
3.399999999999999
  0
LINE
  5
1962D
  8
ﾁｭｳｼﾝｾﾝ1
 10
660.02349780701661
 20
403.30398187140332
 30
0.0
 11
660.02349780701661
 21
433.3039818714031
 31
0.0
  0
LINE
  5
1962E
  8
ﾁｭｳｼﾝｾﾝ1
 10
645.02349780701661
 20
418.30398187140281
 30
0.0
 11
675.02349780701661
 21
418.30398187140281
 31
0.0
  0
LINE
  5
1962F
  8
ﾁｭｳｼﾝｾﾝ1
 10
660.02349780701661
 20
203.30398187140301
 30
0.0
 11
660.02349780701661
 21
233.3039818714031
 31
0.0
  0
LINE
  5
19630
  8
ﾁｭｳｼﾝｾﾝ1
 10
645.02349780701661
 20
218.3039818714029
 30
0.0
 11
675.02349780701661
 21
218.30398187140281
 31
0.0
  0
LINE
  5
19631
  8
ﾁｭｳｼﾝｾﾝ1
 10
515.02346894506479
 20
203.30398187140369
 30
0.0
 11
515.02346894506479
 21
233.30398187140369
 31
0.0
  0
LINE
  5
19632
  8
ﾁｭｳｼﾝｾﾝ1
 10
500.02346894506479
 20
218.30398187140361
 30
0.0
 11
530.02346894506491
 21
218.30398187140361
 31
0.0
  0
LINE
  5
19634
  8
ｶｸﾚｾﾝ2
 10
322.86585687858548
 20
334.30398187140332
 30
0.0
 11
319.86585689010832
 21
334.30398187140321
 31
0.0
  0
LINE
  5
19636
  8
ｶｸﾚｾﾝ2
 10
322.86585689010838
 20
302.30398187140281
 30
0.0
 11
319.86585689010838
 21
302.30398187140281
 31
0.0
  0
LINE
  5
196E4
  8
AM_0
 10
510.02249661489981
 20
740.84968194313512
 30
0.0
 11
610.02449899913324
 21
740.84968194313512
 31
0.0
  0
LINE
  5
196E5
  8
AM_0
 10
688.40011074223253
 20
735.84968179262341
 30
0.0
 11
486.64685600985382
 21
735.84968179262341
 31
0.0
  0
LINE
  5
196E6
  8
AM_0
 10
690.02347120273907
 20
642.84967878239115
 30
0.0
 11
485.02349554934182
 21
642.84967878239115
 31
0.0
  0
LINE
  5
196E7
  8
ﾁｭｳｼﾝｾﾝ1
 10
961.01999999999998
 20
676.84967592361568
 30
0.0
 11
480.02349554934199
 21
676.84968092361567
 31
0.0
  0
LINE
  5
19727
  8
AM_0
 10
712.52352512981588
 20
747.35107358442701
 30
0.0
 11
712.52352512981554
 21
676.8496781288311
 31
0.0
  0
LINE
  5
19728
  8
AM_0
 10
688.40011074223253
 20
735.84968179262341
 30
0.0
 11
690.02347120280444
 21
642.84967878239115
 31
0.0
  0
LINE
  5
1972A
  8
AM_0
 10
726.52352513401581
 20
603.34969192361575
 30
0.0
 11
726.52352513401581
 21
750.34968092361578
 31
0.0
  0
ARC
  5
1972C
  8
AM_0
 10
705.24343758630721
 20
606.84825907958555
 30
0.0
 40
2.0
 50
184.99999999999969
 51
269.99993053332793
1001
GENIUS_GENODEF_13
1002
{
1000
HIER
1070
     0
1002
}
1002
{
1000
MANEDIT
1070
     0
1002
}
1002
{
1000
NOSEL
1070
     0
1002
}
1002
{
1000
BEHIND
1070
     0
1002
}
1002
{
1000
OTHER
1070
     0
1002
}
1002
{
1000
REACTOR
1002
}
1001
GENIUS_GENOBJ-N-FIL_13
1002
{
1000
OWNER
1000
GEN
1002
}
  0
LINE
  5
1972D
  8
AM_0
 10
712.52352512981554
 20
606.34828267323542
 30
0.0
 11
712.52352512981554
 21
676.8496781288311
 31
0.0
  0
LINE
  5
19736
  8
AM_0
 10
726.52351905434205
 20
603.34820327914304
 30
0.0
 11
715.52351984152165
 21
603.34822267324012
 31
0.0
  0
LINE
  5
19737
  8
AM_0
 10
711.55490321270895
 20
604.84825142742375
 30
0.0
 11
705.24343516146268
 21
604.84825907958725
 31
0.0
  0
POLYLINE
  5
19738
  8
AM_0
 10
711.55490321270895
 20
604.84825142742352
 30
0.0
 66
     1
 70
     8
  0
VERTEX
  8
AM_0
  5
1AC63
 10
711.555
 20
604.848
 30
0.000000
  70
    32
  0
VERTEX
  8
AM_0
  5
1AC64
 10
711.572
 20
604.848
 30
0.000000
  70
    32
  0
VERTEX
  8
AM_0
  5
1AC65
 10
711.589
 20
604.848
 30
0.000000
  70
    32
  0
VERTEX
  8
AM_0
  5
1AC66
 10
711.606
 20
604.848
 30
0.000000
  70
    32
  0
VERTEX
  8
AM_0
  5
1AC67
 10
711.623
 20
604.847
 30
0.000000
  70
    32
  0
VERTEX
  8
AM_0
  5
1AC68
 10
711.640
 20
604.847
 30
0.000000
  70
    32
  0
VERTEX
  8
AM_0
  5
1AC69
 10
711.657
 20
604.847
 30
0.000000
  70
    32
  0
VERTEX
  8
AM_0
  5
1AC6A
 10
711.673
 20
604.846
 30
0.000000
  70
    32
  0
VERTEX
  8
AM_0
  5
1AC6B
 10
711.690
 20
604.845
 30
0.000000
  70
    32
  0
VERTEX
  8
AM_0
  5
1AC6C
 10
711.707
 20
604.844
 30
0.000000
  70
    32
  0
VERTEX
  8
AM_0
  5
1AC6D
 10
711.724
 20
604.843
 30
0.000000
  70
    32
  0
VERTEX
  8
AM_0
  5
1AC6E
 10
711.741
 20
604.842
 30
0.000000
  70
    32
  0
VERTEX
  8
AM_0
  5
1AC6F
 10
711.758
 20
604.841
 30
0.000000
  70
    32
  0
VERTEX
  8
AM_0
  5
1AC70
 10
711.775
 20
604.840
 30
0.000000
  70
    32
  0
VERTEX
  8
AM_0
  5
1AC71
 10
711.792
 20
604.839
 30
0.000000
  70
    32
  0
VERTEX
  8
AM_0
  5
1AC72
 10
711.809
 20
604.837
 30
0.000000
  70
    32
  0
VERTEX
  8
AM_0
  5
1AC73
 10
711.826
 20
604.836
 30
0.000000
  70
    32
  0
VERTEX
  8
AM_0
  5
1AC74
 10
711.842
 20
604.834
 30
0.000000
  70
    32
  0
VERTEX
  8
AM_0
  5
1AC75
 10
711.859
 20
604.833
 30
0.000000
  70
    32
  0
VERTEX
  8
AM_0
  5
1AC76
 10
711.876
 20
604.831
 30
0.000000
  70
    32
  0
VERTEX
  8
AM_0
  5
1AC77
 10
711.893
 20
604.829
 30
0.000000
  70
    32
  0
VERTEX
  8
AM_0
  5
1AC78
 10
711.910
 20
604.827
 30
0.000000
  70
    32
  0
VERTEX
  8
AM_0
  5
1AC79
 10
711.927
 20
604.825
 30
0.000000
  70
    32
  0
VERTEX
  8
AM_0
  5
1AC7A
 10
711.943
 20
604.823
 30
0.000000
  70
    32
  0
VERTEX
  8
AM_0
  5
1AC7B
 10
711.960
 20
604.821
 30
0.000000
  70
    32
  0
VERTEX
  8
AM_0
  5
1AC7C
 10
711.977
 20
604.818
 30
0.000000
  70
    32
  0
VERTEX
  8
AM_0
  5
1AC7D
 10
711.994
 20
604.816
 30
0.000000
  70
    32
  0
VERTEX
  8
AM_0
  5
1AC7E
 10
712.010
 20
604.813
 30
0.000000
  70
    32
  0
VERTEX
  8
AM_0
  5
1AC7F
 10
712.027
 20
604.811
 30
0.000000
  70
    32
  0
VERTEX
  8
AM_0
  5
1AC80
 10
712.044
 20
604.808
 30
0.000000
  70
    32
  0
VERTEX
  8
AM_0
  5
1AC81
 10
712.061
 20
604.805
 30
0.000000
  70
    32
  0
VERTEX
  8
AM_0
  5
1AC82
 10
712.077
 20
604.802
 30
0.000000
  70
    32
  0
VERTEX
  8
AM_0
  5
1AC83
 10
712.094
 20
604.799
 30
0.000000
  70
    32
  0
VERTEX
  8
AM_0
  5
1AC84
 10
712.111
 20
604.796
 30
0.000000
  70
    32
  0
VERTEX
  8
AM_0
  5
1AC85
 10
712.127
 20
604.793
 30
0.000000
  70
    32
  0
VERTEX
  8
AM_0
  5
1AC86
 10
712.144
 20
604.790
 30
0.000000
  70
    32
  0
VERTEX
  8
AM_0
  5
1AC87
 10
712.161
 20
604.786
 30
0.000000
  70
    32
  0
VERTEX
  8
AM_0
  5
1AC88
 10
712.177
 20
604.783
 30
0.000000
  70
    32
  0
VERTEX
  8
AM_0
  5
1AC89
 10
712.194
 20
604.779
 30
0.000000
  70
    32
  0
VERTEX
  8
AM_0
  5
1AC8A
 10
712.210
 20
604.776
 30
0.000000
  70
    32
  0
VERTEX
  8
AM_0
  5
1AC8B
 10
712.227
 20
604.772
 30
0.000000
  70
    32
  0
VERTEX
  8
AM_0
  5
1AC8C
 10
712.243
 20
604.768
 30
0.000000
  70
    32
  0
VERTEX
  8
AM_0
  5
1AC8D
 10
712.260
 20
604.764
 30
0.000000
  70
    32
  0
VERTEX
  8
AM_0
  5
1AC8E
 10
712.276
 20
604.760
 30
0.000000
  70
    32
  0
VERTEX
  8
AM_0
  5
1AC8F
 10
712.293
 20
604.756
 30
0.000000
  70
    32
  0
VERTEX
  8
AM_0
  5
1AC90
 10
712.309
 20
604.752
 30
0.000000
  70
    32
  0
VERTEX
  8
AM_0
  5
1AC91
 10
712.325
 20
604.748
 30
0.000000
  70
    32
  0
VERTEX
  8
AM_0
  5
1AC92
 10
712.342
 20
604.743
 30
0.000000
  70
    32
  0
VERTEX
  8
AM_0
  5
1AC93
 10
712.358
 20
604.739
 30
0.000000
  70
    32
  0
VERTEX
  8
AM_0
  5
1AC94
 10
712.374
 20
604.734
 30
0.000000
  70
    32
  0
VERTEX
  8
AM_0
  5
1AC95
 10
712.391
 20
604.729
 30
0.000000
  70
    32
  0
VERTEX
  8
AM_0
  5
1AC96
 10
712.407
 20
604.725
 30
0.000000
  70
    32
  0
VERTEX
  8
AM_0
  5
1AC97
 10
712.423
 20
604.720
 30
0.000000
  70
    32
  0
VERTEX
  8
AM_0
  5
1AC98
 10
712.439
 20
604.715
 30
0.000000
  70
    32
  0
VERTEX
  8
AM_0
  5
1AC99
 10
712.456
 20
604.710
 30
0.000000
  70
    32
  0
VERTEX
  8
AM_0
  5
1AC9A
 10
712.472
 20
604.705
 30
0.000000
  70
    32
  0
VERTEX
  8
AM_0
  5
1AC9B
 10
712.488
 20
604.700
 30
0.000000
  70
    32
  0
VERTEX
  8
AM_0
  5
1AC9C
 10
712.504
 20
604.694
 30
0.000000
  70
    32
  0
VERTEX
  8
AM_0
  5
1AC9D
 10
712.520
 20
604.689
 30
0.000000
  70
    32
  0
VERTEX
  8
AM_0
  5
1AC9E
 10
712.536
 20
604.683
 30
0.000000
  70
    32
  0
VERTEX
  8
AM_0
  5
1AC9F
 10
712.552
 20
604.678
 30
0.000000
  70
    32
  0
VERTEX
  8
AM_0
  5
1ACA0
 10
712.568
 20
604.672
 30
0.000000
  70
    32
  0
VERTEX
  8
AM_0
  5
1ACA1
 10
712.584
 20
604.666
 30
0.000000
  70
    32
  0
VERTEX
  8
AM_0
  5
1ACA2
 10
712.600
 20
604.660
 30
0.000000
  70
    32
  0
VERTEX
  8
AM_0
  5
1ACA3
 10
712.616
 20
604.654
 30
0.000000
  70
    32
  0
VERTEX
  8
AM_0
  5
1ACA4
 10
712.631
 20
604.648
 30
0.000000
  70
    32
  0
VERTEX
  8
AM_0
  5
1ACA5
 10
712.647
 20
604.642
 30
0.000000
  70
    32
  0
VERTEX
  8
AM_0
  5
1ACA6
 10
712.663
 20
604.636
 30
0.000000
  70
    32
  0
VERTEX
  8
AM_0
  5
1ACA7
 10
712.679
 20
604.630
 30
0.000000
  70
    32
  0
VERTEX
  8
AM_0
  5
1ACA8
 10
712.694
 20
604.623
 30
0.000000
  70
    32
  0
VERTEX
  8
AM_0
  5
1ACA9
 10
712.710
 20
604.617
 30
0.000000
  70
    32
  0
VERTEX
  8
AM_0
  5
1ACAA
 10
712.726
 20
604.610
 30
0.000000
  70
    32
  0
VERTEX
  8
AM_0
  5
1ACAB
 10
712.741
 20
604.604
 30
0.000000
  70
    32
  0
VERTEX
  8
AM_0
  5
1ACAC
 10
712.757
 20
604.597
 30
0.000000
  70
    32
  0
VERTEX
  8
AM_0
  5
1ACAD
 10
712.772
 20
604.590
 30
0.000000
  70
    32
  0
VERTEX
  8
AM_0
  5
1ACAE
 10
712.788
 20
604.583
 30
0.000000
  70
    32
  0
VERTEX
  8
AM_0
  5
1ACAF
 10
712.803
 20
604.576
 30
0.000000
  70
    32
  0
VERTEX
  8
AM_0
  5
1ACB0
 10
712.819
 20
604.569
 30
0.000000
  70
    32
  0
VERTEX
  8
AM_0
  5
1ACB1
 10
712.834
 20
604.562
 30
0.000000
  70
    32
  0
VERTEX
  8
AM_0
  5
1ACB2
 10
712.849
 20
604.555
 30
0.000000
  70
    32
  0
VERTEX
  8
AM_0
  5
1ACB3
 10
712.864
 20
604.547
 30
0.000000
  70
    32
  0
VERTEX
  8
AM_0
  5
1ACB4
 10
712.880
 20
604.540
 30
0.000000
  70
    32
  0
VERTEX
  8
AM_0
  5
1ACB5
 10
712.895
 20
604.532
 30
0.000000
  70
    32
  0
VERTEX
  8
AM_0
  5
1ACB6
 10
712.910
 20
604.525
 30
0.000000
  70
    32
  0
VERTEX
  8
AM_0
  5
1ACB7
 10
712.925
 20
604.517
 30
0.000000
  70
    32
  0
VERTEX
  8
AM_0
  5
1ACB8
 10
712.940
 20
604.509
 30
0.000000
  70
    32
  0
VERTEX
  8
AM_0
  5
1ACB9
 10
712.955
 20
604.501
 30
0.000000
  70
    32
  0
VERTEX
  8
AM_0
  5
1ACBA
 10
712.970
 20
604.493
 30
0.000000
  70
    32
  0
VERTEX
  8
AM_0
  5
1ACBB
 10
712.985
 20
604.485
 30
0.000000
  70
    32
  0
VERTEX
  8
AM_0
  5
1ACBC
 10
713.000
 20
604.477
 30
0.000000
  70
    32
  0
VERTEX
  8
AM_0
  5
1ACBD
 10
713.015
 20
604.469
 30
0.000000
  70
    32
  0
VERTEX
  8
AM_0
  5
1ACBE
 10
713.029
 20
604.461
 30
0.000000
  70
    32
  0
VERTEX
  8
AM_0
  5
1ACBF
 10
713.044
 20
604.452
 30
0.000000
  70
    32
  0
VERTEX
  8
AM_0
  5
1ACC0
 10
713.059
 20
604.444
 30
0.000000
  70
    32
  0
VERTEX
  8
AM_0
  5
1ACC1
 10
713.073
 20
604.436
 30
0.000000
  70
    32
  0
VERTEX
  8
AM_0
  5
1ACC2
 10
713.088
 20
604.427
 30
0.000000
  70
    32
  0
VERTEX
  8
AM_0
  5
1ACC3
 10
713.103
 20
604.418
 30
0.000000
  70
    32
  0
VERTEX
  8
AM_0
  5
1ACC4
 10
713.117
 20
604.409
 30
0.000000
  70
    32
  0
VERTEX
  8
AM_0
  5
1ACC5
 10
713.132
 20
604.401
 30
0.000000
  70
    32
  0
VERTEX
  8
AM_0
  5
1ACC6
 10
713.146
 20
604.392
 30
0.000000
  70
    32
  0
VERTEX
  8
AM_0
  5
1ACC7
 10
713.160
 20
604.383
 30
0.000000
  70
    32
  0
VERTEX
  8
AM_0
  5
1ACC8
 10
713.175
 20
604.373
 30
0.000000
  70
    32
  0
VERTEX
  8
AM_0
  5
1ACC9
 10
713.189
 20
604.364
 30
0.000000
  70
    32
  0
VERTEX
  8
AM_0
  5
1ACCA
 10
713.203
 20
604.355
 30
0.000000
  70
    32
  0
VERTEX
  8
AM_0
  5
1ACCB
 10
713.217
 20
604.346
 30
0.000000
  70
    32
  0
VERTEX
  8
AM_0
  5
1ACCC
 10
713.231
 20
604.336
 30
0.000000
  70
    32
  0
VERTEX
  8
AM_0
  5
1ACCD
 10
713.245
 20
604.327
 30
0.000000
  70
    32
  0
VERTEX
  8
AM_0
  5
1ACCE
 10
713.259
 20
604.317
 30
0.000000
  70
    32
  0
VERTEX
  8
AM_0
  5
1ACCF
 10
713.273
 20
604.308
 30
0.000000
  70
    32
  0
VERTEX
  8
AM_0
  5
1ACD0
 10
713.287
 20
604.298
 30
0.000000
  70
    32
  0
VERTEX
  8
AM_0
  5
1ACD1
 10
713.301
 20
604.288
 30
0.000000
  70
    32
  0
VERTEX
  8
AM_0
  5
1ACD2
 10
713.314
 20
604.278
 30
0.000000
  70
    32
  0
VERTEX
  8
AM_0
  5
1ACD3
 10
713.328
 20
604.268
 30
0.000000
  70
    32
  0
VERTEX
  8
AM_0
  5
1ACD4
 10
713.342
 20
604.258
 30
0.000000
  70
    32
  0
VERTEX
  8
AM_0
  5
1ACD5
 10
713.355
 20
604.248
 30
0.000000
  70
    32
  0
VERTEX
  8
AM_0
  5
1ACD6
 10
713.369
 20
604.238
 30
0.000000
  70
    32
  0
VERTEX
  8
AM_0
  5
1ACD7
 10
713.382
 20
604.227
 30
0.000000
  70
    32
  0
VERTEX
  8
AM_0
  5
1ACD8
 10
713.396
 20
604.217
 30
0.000000
  70
    32
  0
VERTEX
  8
AM_0
  5
1ACD9
 10
713.409
 20
604.207
 30
0.000000
  70
    32
  0
VERTEX
  8
AM_0
  5
1ACDA
 10
713.422
 20
604.196
 30
0.000000
  70
    32
  0
VERTEX
  8
AM_0
  5
1ACDB
 10
713.436
 20
604.186
 30
0.000000
  70
    32
  0
VERTEX
  8
AM_0
  5
1ACDC
 10
713.449
 20
604.175
 30
0.000000
  70
    32
  0
VERTEX
  8
AM_0
  5
1ACDD
 10
713.462
 20
604.164
 30
0.000000
  70
    32
  0
VERTEX
  8
AM_0
  5
1ACDE
 10
713.475
 20
604.153
 30
0.000000
  70
    32
  0
VERTEX
  8
AM_0
  5
1ACDF
 10
713.488
 20
604.142
 30
0.000000
  70
    32
  0
VERTEX
  8
AM_0
  5
1ACE0
 10
713.501
 20
604.132
 30
0.000000
  70
    32
  0
VERTEX
  8
AM_0
  5
1ACE1
 10
713.514
 20
604.121
 30
0.000000
  70
    32
  0
VERTEX
  8
AM_0
  5
1ACE2
 10
713.526
 20
604.109
 30
0.000000
  70
    32
  0
VERTEX
  8
AM_0
  5
1ACE3
 10
713.539
 20
604.098
 30
0.000000
  70
    32
  0
SEQEND
  8
AM_0
  5
1ACE4
  0
POLYLINE
  5
19739
  8
AM_0
 10
715.5235198415221
 20
603.34822267324012
 30
0.0
 66
     1
 70
     8
  0
VERTEX
  8
AM_0
  5
1ACE5
 10
715.524
 20
603.348
 30
0.000000
  70
    32
  0
VERTEX
  8
AM_0
  5
1ACE6
 10
715.507
 20
603.348
 30
0.000000
  70
    32
  0
VERTEX
  8
AM_0
  5
1ACE7
 10
715.490
 20
603.348
 30
0.000000
  70
    32
  0
VERTEX
  8
AM_0
  5
1ACE8
 10
715.473
 20
603.349
 30
0.000000
  70
    32
  0
VERTEX
  8
AM_0
  5
1ACE9
 10
715.456
 20
603.349
 30
0.000000
  70
    32
  0
VERTEX
  8
AM_0
  5
1ACEA
 10
715.439
 20
603.349
 30
0.000000
  70
    32
  0
VERTEX
  8
AM_0
  5
1ACEB
 10
715.422
 20
603.350
 30
0.000000
  70
    32
  0
VERTEX
  8
AM_0
  5
1ACEC
 10
715.405
 20
603.351
 30
0.000000
  70
    32
  0
VERTEX
  8
AM_0
  5
1ACED
 10
715.388
 20
603.351
 30
0.000000
  70
    32
  0
VERTEX
  8
AM_0
  5
1ACEE
 10
715.371
 20
603.352
 30
0.000000
  70
    32
  0
VERTEX
  8
AM_0
  5
1ACEF
 10
715.354
 20
603.353
 30
0.000000
  70
    32
  0
VERTEX
  8
AM_0
  5
1ACF0
 10
715.337
 20
603.354
 30
0.000000
  70
    32
  0
VERTEX
  8
AM_0
  5
1ACF1
 10
715.320
 20
603.355
 30
0.000000
  70
    32
  0
VERTEX
  8
AM_0
  5
1ACF2
 10
715.304
 20
603.356
 30
0.000000
  70
    32
  0
VERTEX
  8
AM_0
  5
1ACF3
 10
715.287
 20
603.358
 30
0.000000
  70
    32
  0
VERTEX
  8
AM_0
  5
1ACF4
 10
715.270
 20
603.359
 30
0.000000
  70
    32
  0
VERTEX
  8
AM_0
  5
1ACF5
 10
715.253
 20
603.360
 30
0.000000
  70
    32
  0
VERTEX
  8
AM_0
  5
1ACF6
 10
715.236
 20
603.362
 30
0.000000
  70
    32
  0
VERTEX
  8
AM_0
  5
1ACF7
 10
715.219
 20
603.364
 30
0.000000
  70
    32
  0
VERTEX
  8
AM_0
  5
1ACF8
 10
715.202
 20
603.365
 30
0.000000
  70
    32
  0
VERTEX
  8
AM_0
  5
1ACF9
 10
715.185
 20
603.367
 30
0.000000
  70
    32
  0
VERTEX
  8
AM_0
  5
1ACFA
 10
715.169
 20
603.369
 30
0.000000
  70
    32
  0
VERTEX
  8
AM_0
  5
1ACFB
 10
715.152
 20
603.371
 30
0.000000
  70
    32
  0
VERTEX
  8
AM_0
  5
1ACFC
 10
715.135
 20
603.373
 30
0.000000
  70
    32
  0
VERTEX
  8
AM_0
  5
1ACFD
 10
715.118
 20
603.376
 30
0.000000
  70
    32
  0
VERTEX
  8
AM_0
  5
1ACFE
 10
715.101
 20
603.378
 30
0.000000
  70
    32
  0
VERTEX
  8
AM_0
  5
1ACFF
 10
715.085
 20
603.380
 30
0.000000
  70
    32
  0
VERTEX
  8
AM_0
  5
1AD00
 10
715.068
 20
603.383
 30
0.000000
  70
    32
  0
VERTEX
  8
AM_0
  5
1AD01
 10
715.051
 20
603.386
 30
0.000000
  70
    32
  0
VERTEX
  8
AM_0
  5
1AD02
 10
715.034
 20
603.388
 30
0.000000
  70
    32
  0
VERTEX
  8
AM_0
  5
1AD03
 10
715.018
 20
603.391
 30
0.000000
  70
    32
  0
VERTEX
  8
AM_0
  5
1AD04
 10
715.001
 20
603.394
 30
0.000000
  70
    32
  0
VERTEX
  8
AM_0
  5
1AD05
 10
714.984
 20
603.397
 30
0.000000
  70
    32
  0
VERTEX
  8
AM_0
  5
1AD06
 10
714.968
 20
603.400
 30
0.000000
  70
    32
  0
VERTEX
  8
AM_0
  5
1AD07
 10
714.951
 20
603.403
 30
0.000000
  70
    32
  0
VERTEX
  8
AM_0
  5
1AD08
 10
714.935
 20
603.407
 30
0.000000
  70
    32
  0
VERTEX
  8
AM_0
  5
1AD09
 10
714.918
 20
603.410
 30
0.000000
  70
    32
  0
VERTEX
  8
AM_0
  5
1AD0A
 10
714.901
 20
603.413
 30
0.000000
  70
    32
  0
VERTEX
  8
AM_0
  5
1AD0B
 10
714.885
 20
603.417
 30
0.000000
  70
    32
  0
VERTEX
  8
AM_0
  5
1AD0C
 10
714.868
 20
603.421
 30
0.000000
  70
    32
  0
VERTEX
  8
AM_0
  5
1AD0D
 10
714.852
 20
603.424
 30
0.000000
  70
    32
  0
VERTEX
  8
AM_0
  5
1AD0E
 10
714.835
 20
603.428
 30
0.000000
  70
    32
  0
VERTEX
  8
AM_0
  5
1AD0F
 10
714.819
 20
603.432
 30
0.000000
  70
    32
  0
VERTEX
  8
AM_0
  5
1AD10
 10
714.802
 20
603.436
 30
0.000000
  70
    32
  0
VERTEX
  8
AM_0
  5
1AD11
 10
714.786
 20
603.440
 30
0.000000
  70
    32
  0
VERTEX
  8
AM_0
  5
1AD12
 10
714.769
 20
603.445
 30
0.000000
  70
    32
  0
VERTEX
  8
AM_0
  5
1AD13
 10
714.753
 20
603.449
 30
0.000000
  70
    32
  0
VERTEX
  8
AM_0
  5
1AD14
 10
714.737
 20
603.453
 30
0.000000
  70
    32
  0
VERTEX
  8
AM_0
  5
1AD15
 10
714.720
 20
603.458
 30
0.000000
  70
    32
  0
VERTEX
  8
AM_0
  5
1AD16
 10
714.704
 20
603.462
 30
0.000000
  70
    32
  0
VERTEX
  8
AM_0
  5
1AD17
 10
714.688
 20
603.467
 30
0.000000
  70
    32
  0
VERTEX
  8
AM_0
  5
1AD18
 10
714.672
 20
603.472
 30
0.000000
  70
    32
  0
VERTEX
  8
AM_0
  5
1AD19
 10
714.655
 20
603.477
 30
0.000000
  70
    32
  0
VERTEX
  8
AM_0
  5
1AD1A
 10
714.639
 20
603.482
 30
0.000000
  70
    32
  0
VERTEX
  8
AM_0
  5
1AD1B
 10
714.623
 20
603.487
 30
0.000000
  70
    32
  0
VERTEX
  8
AM_0
  5
1AD1C
 10
714.607
 20
603.492
 30
0.000000
  70
    32
  0
VERTEX
  8
AM_0
  5
1AD1D
 10
714.591
 20
603.497
 30
0.000000
  70
    32
  0
VERTEX
  8
AM_0
  5
1AD1E
 10
714.575
 20
603.502
 30
0.000000
  70
    32
  0
VERTEX
  8
AM_0
  5
1AD1F
 10
714.559
 20
603.508
 30
0.000000
  70
    32
  0
VERTEX
  8
AM_0
  5
1AD20
 10
714.543
 20
603.513
 30
0.000000
  70
    32
  0
VERTEX
  8
AM_0
  5
1AD21
 10
714.527
 20
603.519
 30
0.000000
  70
    32
  0
VERTEX
  8
AM_0
  5
1AD22
 10
714.511
 20
603.524
 30
0.000000
  70
    32
  0
VERTEX
  8
AM_0
  5
1AD23
 10
714.495
 20
603.530
 30
0.000000
  70
    32
  0
VERTEX
  8
AM_0
  5
1AD24
 10
714.479
 20
603.536
 30
0.000000
  70
    32
  0
VERTEX
  8
AM_0
  5
1AD25
 10
714.463
 20
603.542
 30
0.000000
  70
    32
  0
VERTEX
  8
AM_0
  5
1AD26
 10
714.447
 20
603.548
 30
0.000000
  70
    32
  0
VERTEX
  8
AM_0
  5
1AD27
 10
714.431
 20
603.554
 30
0.000000
  70
    32
  0
VERTEX
  8
AM_0
  5
1AD28
 10
714.415
 20
603.560
 30
0.000000
  70
    32
  0
VERTEX
  8
AM_0
  5
1AD29
 10
714.400
 20
603.567
 30
0.000000
  70
    32
  0
VERTEX
  8
AM_0
  5
1AD2A
 10
714.384
 20
603.573
 30
0.000000
  70
    32
  0
VERTEX
  8
AM_0
  5
1AD2B
 10
714.368
 20
603.580
 30
0.000000
  70
    32
  0
VERTEX
  8
AM_0
  5
1AD2C
 10
714.353
 20
603.586
 30
0.000000
  70
    32
  0
VERTEX
  8
AM_0
  5
1AD2D
 10
714.337
 20
603.593
 30
0.000000
  70
    32
  0
VERTEX
  8
AM_0
  5
1AD2E
 10
714.322
 20
603.599
 30
0.000000
  70
    32
  0
VERTEX
  8
AM_0
  5
1AD2F
 10
714.306
 20
603.606
 30
0.000000
  70
    32
  0
VERTEX
  8
AM_0
  5
1AD30
 10
714.291
 20
603.613
 30
0.000000
  70
    32
  0
VERTEX
  8
AM_0
  5
1AD31
 10
714.275
 20
603.620
 30
0.000000
  70
    32
  0
VERTEX
  8
AM_0
  5
1AD32
 10
714.260
 20
603.627
 30
0.000000
  70
    32
  0
VERTEX
  8
AM_0
  5
1AD33
 10
714.245
 20
603.635
 30
0.000000
  70
    32
  0
VERTEX
  8
AM_0
  5
1AD34
 10
714.229
 20
603.642
 30
0.000000
  70
    32
  0
VERTEX
  8
AM_0
  5
1AD35
 10
714.214
 20
603.649
 30
0.000000
  70
    32
  0
VERTEX
  8
AM_0
  5
1AD36
 10
714.199
 20
603.657
 30
0.000000
  70
    32
  0
VERTEX
  8
AM_0
  5
1AD37
 10
714.184
 20
603.664
 30
0.000000
  70
    32
  0
VERTEX
  8
AM_0
  5
1AD38
 10
714.168
 20
603.672
 30
0.000000
  70
    32
  0
VERTEX
  8
AM_0
  5
1AD39
 10
714.153
 20
603.679
 30
0.000000
  70
    32
  0
VERTEX
  8
AM_0
  5
1AD3A
 10
714.138
 20
603.687
 30
0.000000
  70
    32
  0
VERTEX
  8
AM_0
  5
1AD3B
 10
714.123
 20
603.695
 30
0.000000
  70
    32
  0
VERTEX
  8
AM_0
  5
1AD3C
 10
714.108
 20
603.703
 30
0.000000
  70
    32
  0
VERTEX
  8
AM_0
  5
1AD3D
 10
714.093
 20
603.711
 30
0.000000
  70
    32
  0
VERTEX
  8
AM_0
  5
1AD3E
 10
714.079
 20
603.719
 30
0.000000
  70
    32
  0
VERTEX
  8
AM_0
  5
1AD3F
 10
714.064
 20
603.727
 30
0.000000
  70
    32
  0
VERTEX
  8
AM_0
  5
1AD40
 10
714.049
 20
603.736
 30
0.000000
  70
    32
  0
VERTEX
  8
AM_0
  5
1AD41
 10
714.034
 20
603.744
 30
0.000000
  70
    32
  0
VERTEX
  8
AM_0
  5
1AD42
 10
714.020
 20
603.752
 30
0.000000
  70
    32
  0
VERTEX
  8
AM_0
  5
1AD43
 10
714.005
 20
603.761
 30
0.000000
  70
    32
  0
VERTEX
  8
AM_0
  5
1AD44
 10
713.990
 20
603.770
 30
0.000000
  70
    32
  0
VERTEX
  8
AM_0
  5
1AD45
 10
713.976
 20
603.778
 30
0.000000
  70
    32
  0
VERTEX
  8
AM_0
  5
1AD46
 10
713.961
 20
603.787
 30
0.000000
  70
    32
  0
VERTEX
  8
AM_0
  5
1AD47
 10
713.947
 20
603.796
 30
0.000000
  70
    32
  0
VERTEX
  8
AM_0
  5
1AD48
 10
713.933
 20
603.805
 30
0.000000
  70
    32
  0
VERTEX
  8
AM_0
  5
1AD49
 10
713.918
 20
603.814
 30
0.000000
  70
    32
  0
VERTEX
  8
AM_0
  5
1AD4A
 10
713.904
 20
603.823
 30
0.000000
  70
    32
  0
VERTEX
  8
AM_0
  5
1AD4B
 10
713.890
 20
603.832
 30
0.000000
  70
    32
  0
VERTEX
  8
AM_0
  5
1AD4C
 10
713.876
 20
603.841
 30
0.000000
  70
    32
  0
VERTEX
  8
AM_0
  5
1AD4D
 10
713.861
 20
603.851
 30
0.000000
  70
    32
  0
VERTEX
  8
AM_0
  5
1AD4E
 10
713.847
 20
603.860
 30
0.000000
  70
    32
  0
VERTEX
  8
AM_0
  5
1AD4F
 10
713.833
 20
603.870
 30
0.000000
  70
    32
  0
VERTEX
  8
AM_0
  5
1AD50
 10
713.819
 20
603.879
 30
0.000000
  70
    32
  0
VERTEX
  8
AM_0
  5
1AD51
 10
713.805
 20
603.889
 30
0.000000
  70
    32
  0
VERTEX
  8
AM_0
  5
1AD52
 10
713.792
 20
603.899
 30
0.000000
  70
    32
  0
VERTEX
  8
AM_0
  5
1AD53
 10
713.778
 20
603.909
 30
0.000000
  70
    32
  0
VERTEX
  8
AM_0
  5
1AD54
 10
713.764
 20
603.918
 30
0.000000
  70
    32
  0
VERTEX
  8
AM_0
  5
1AD55
 10
713.750
 20
603.928
 30
0.000000
  70
    32
  0
VERTEX
  8
AM_0
  5
1AD56
 10
713.737
 20
603.938
 30
0.000000
  70
    32
  0
VERTEX
  8
AM_0
  5
1AD57
 10
713.723
 20
603.949
 30
0.000000
  70
    32
  0
VERTEX
  8
AM_0
  5
1AD58
 10
713.710
 20
603.959
 30
0.000000
  70
    32
  0
VERTEX
  8
AM_0
  5
1AD59
 10
713.696
 20
603.969
 30
0.000000
  70
    32
  0
VERTEX
  8
AM_0
  5
1AD5A
 10
713.683
 20
603.979
 30
0.000000
  70
    32
  0
VERTEX
  8
AM_0
  5
1AD5B
 10
713.669
 20
603.990
 30
0.000000
  70
    32
  0
VERTEX
  8
AM_0
  5
1AD5C
 10
713.656
 20
604.000
 30
0.000000
  70
    32
  0
VERTEX
  8
AM_0
  5
1AD5D
 10
713.643
 20
604.011
 30
0.000000
  70
    32
  0
VERTEX
  8
AM_0
  5
1AD5E
 10
713.630
 20
604.022
 30
0.000000
  70
    32
  0
VERTEX
  8
AM_0
  5
1AD5F
 10
713.617
 20
604.032
 30
0.000000
  70
    32
  0
VERTEX
  8
AM_0
  5
1AD60
 10
713.604
 20
604.043
 30
0.000000
  70
    32
  0
VERTEX
  8
AM_0
  5
1AD61
 10
713.591
 20
604.054
 30
0.000000
  70
    32
  0
VERTEX
  8
AM_0
  5
1AD62
 10
713.578
 20
604.065
 30
0.000000
  70
    32
  0
VERTEX
  8
AM_0
  5
1AD63
 10
713.565
 20
604.076
 30
0.000000
  70
    32
  0
VERTEX
  8
AM_0
  5
1AD64
 10
713.552
 20
604.087
 30
0.000000
  70
    32
  0
VERTEX
  8
AM_0
  5
1AD65
 10
713.539
 20
604.098
 30
0.000000
  70
    32
  0
SEQEND
  8
AM_0
  5
1AD66
  0
LINE
  5
19741
  8
AM_0
 10
714.52352513041353
 20
613.84841812883144
 30
0.0
 11
726.52352513401354
 21
613.8484181288311
 31
0.0
  0
LINE
  5
19742
  8
AM_0
 10
714.52352513041444
 20
637.7879445075381
 30
0.0
 11
726.52352513401445
 21
637.7879445075381
 31
0.0
  0
LINE
  5
19743
  8
AM_0
 10
703.25104819012336
 20
606.67394759409024
 30
0.0
 11
700.07083153748295
 21
643.02399026788669
 31
0.0
  0
ARC
  5
19744
  8
AM_0
 10
698.07844214129966
 20
642.84967878239115
 30
0.0
 40
2.0
 50
4.9999999999997407
 51
90.0
1001
GENIUS_GENOBJ-N-FIL_13
1002
{
1000
OWNER
1000
GEN
1002
}
1001
GENIUS_GENODEF_13
1002
{
1000
HIER
1070
     0
1002
}
1002
{
1000
MANEDIT
1070
     0
1002
}
1002
{
1000
NOSEL
1070
     0
1002
}
1002
{
1000
BEHIND
1070
     0
1002
}
1002
{
1000
OTHER
1070
     0
1002
}
1002
{
1000
REACTOR
1002
}
  0
LINE
  5
19745
  8
AM_0
 10
698.07844214129943
 20
644.84967878239127
 30
0.0
 11
691.00616804991353
 21
644.84967878239127
 31
0.0
  0
ARC
  5
19746
  8
AM_0
 10
691.00616804991375
 20
643.84967878239115
 30
0.0
 40
1.0
 50
90.0
 51
181.0000242476043
1001
GENIUS_GENODEF_13
1002
{
1000
HIER
1070
     0
1002
}
1002
{
1000
MANEDIT
1070
     0
1002
}
1002
{
1000
NOSEL
1070
     0
1002
}
1002
{
1000
BEHIND
1070
     0
1002
}
1002
{
1000
OTHER
1070
     0
1002
}
1002
{
1000
REACTOR
1002
}
1001
GENIUS_GENOBJ-N-FIL_13
1002
{
1000
OWNER
1000
GEN
1002
}
  0
LINE
  5
19747
  8
AM_0
 10
706.19083545898161
 20
733.84968179262364
 30
0.0
 11
690.40041541309677
 21
733.84968179262341
 31
0.0
  0
ARC
  5
19748
  8
AM_0
 10
690.40041541309677
 20
735.84968179262341
 30
0.0
 40
2.0
 50
181.00002424764341
 51
270.0
1001
GENIUS_GENOBJ-N-FIL_13
1002
{
1000
OWNER
1000
GEN
1002
}
1001
GENIUS_GENODEF_13
1002
{
1000
HIER
1070
     0
1002
}
1002
{
1000
MANEDIT
1070
     0
1002
}
1002
{
1000
NOSEL
1070
     0
1002
}
1002
{
1000
BEHIND
1070
     0
1002
}
1002
{
1000
OTHER
1070
     0
1002
}
1002
{
1000
REACTOR
1002
}
  0
LINE
  5
1974E
  8
AM_0
 10
714.52352513041581
 20
715.91141175012422
 30
0.0
 11
726.52352513401581
 21
715.91141175012365
 31
0.0
  0
ARC
  5
19758
  8
AM_0
 10
706.19083545898195
 20
735.84968179262341
 30
0.0
 40
2.0
 50
270.0
 51
355.00000000000028
1001
GENIUS_GENOBJ-N-FIL_13
1002
{
1000
OWNER
1000
GEN
1002
}
1001
GENIUS_GENODEF_13
1002
{
1000
HIER
1070
     0
1002
}
1002
{
1000
MANEDIT
1070
     0
1002
}
1002
{
1000
NOSEL
1070
     0
1002
}
1002
{
1000
BEHIND
1070
     0
1002
}
1002
{
1000
OTHER
1070
     0
1002
}
1002
{
1000
REACTOR
1002
}
  0
LINE
  5
19759
  8
AM_0
 10
726.52351905434205
 20
750.35115297851928
 30
0.0
 11
715.52351984152165
 21
750.35113358442231
 31
0.0
  0
LINE
  5
1975A
  8
AM_0
 10
714.52352513041581
 20
739.85093812883099
 30
0.0
 11
726.52352513401581
 21
739.85093812883099
 31
0.0
  0
LINE
  5
1975B
  8
AM_0
 10
708.18322485516524
 20
735.67537030712833
 30
0.0
 11
709.17622517044072
 21
747.02541584738742
 31
0.0
  0
ARC
  5
1975C
  8
AM_0
 10
711.16861456662434
 20
746.85110436189166
 30
0.0
 40
2.0
 50
90.000069466672116
 51
175.00000000000031
1001
GENIUS_GENOBJ-N-FIL_13
1002
{
1000
OWNER
1000
GEN
1002
}
1001
GENIUS_GENODEF_13
1002
{
1000
HIER
1070
     0
1002
}
1002
{
1000
MANEDIT
1070
     0
1002
}
1002
{
1000
NOSEL
1070
     0
1002
}
1002
{
1000
BEHIND
1070
     0
1002
}
1002
{
1000
OTHER
1070
     0
1002
}
1002
{
1000
REACTOR
1002
}
  0
POLYLINE
  5
1975D
  8
AM_0
 10
713.53921235311577
 20
749.60111920733152
 30
0.0
 66
     1
 70
     8
  0
VERTEX
  8
AM_0
  5
1AD67
 10
713.539
 20
749.601
 30
0.000000
  70
    32
  0
VERTEX
  8
AM_0
  5
1AD68
 10
713.526
 20
749.590
 30
0.000000
  70
    32
  0
VERTEX
  8
AM_0
  5
1AD69
 10
713.514
 20
749.579
 30
0.000000
  70
    32
  0
VERTEX
  8
AM_0
  5
1AD6A
 10
713.501
 20
749.568
 30
0.000000
  70
    32
  0
VERTEX
  8
AM_0
  5
1AD6B
 10
713.488
 20
749.557
 30
0.000000
  70
    32
  0
VERTEX
  8
AM_0
  5
1AD6C
 10
713.475
 20
749.546
 30
0.000000
  70
    32
  0
VERTEX
  8
AM_0
  5
1AD6D
 10
713.462
 20
749.535
 30
0.000000
  70
    32
  0
VERTEX
  8
AM_0
  5
1AD6E
 10
713.449
 20
749.524
 30
0.000000
  70
    32
  0
VERTEX
  8
AM_0
  5
1AD6F
 10
713.436
 20
749.514
 30
0.000000
  70
    32
  0
VERTEX
  8
AM_0
  5
1AD70
 10
713.422
 20
749.503
 30
0.000000
  70
    32
  0
VERTEX
  8
AM_0
  5
1AD71
 10
713.409
 20
749.493
 30
0.000000
  70
    32
  0
VERTEX
  8
AM_0
  5
1AD72
 10
713.396
 20
749.482
 30
0.000000
  70
    32
  0
VERTEX
  8
AM_0
  5
1AD73
 10
713.382
 20
749.472
 30
0.000000
  70
    32
  0
VERTEX
  8
AM_0
  5
1AD74
 10
713.369
 20
749.462
 30
0.000000
  70
    32
  0
VERTEX
  8
AM_0
  5
1AD75
 10
713.355
 20
749.451
 30
0.000000
  70
    32
  0
VERTEX
  8
AM_0
  5
1AD76
 10
713.342
 20
749.441
 30
0.000000
  70
    32
  0
VERTEX
  8
AM_0
  5
1AD77
 10
713.328
 20
749.431
 30
0.000000
  70
    32
  0
VERTEX
  8
AM_0
  5
1AD78
 10
713.314
 20
749.421
 30
0.000000
  70
    32
  0
VERTEX
  8
AM_0
  5
1AD79
 10
713.301
 20
749.411
 30
0.000000
  70
    32
  0
VERTEX
  8
AM_0
  5
1AD7A
 10
713.287
 20
749.402
 30
0.000000
  70
    32
  0
VERTEX
  8
AM_0
  5
1AD7B
 10
713.273
 20
749.392
 30
0.000000
  70
    32
  0
VERTEX
  8
AM_0
  5
1AD7C
 10
713.259
 20
749.382
 30
0.000000
  70
    32
  0
VERTEX
  8
AM_0
  5
1AD7D
 10
713.245
 20
749.373
 30
0.000000
  70
    32
  0
VERTEX
  8
AM_0
  5
1AD7E
 10
713.231
 20
749.363
 30
0.000000
  70
    32
  0
VERTEX
  8
AM_0
  5
1AD7F
 10
713.217
 20
749.354
 30
0.000000
  70
    32
  0
VERTEX
  8
AM_0
  5
1AD80
 10
713.203
 20
749.344
 30
0.000000
  70
    32
  0
VERTEX
  8
AM_0
  5
1AD81
 10
713.189
 20
749.335
 30
0.000000
  70
    32
  0
VERTEX
  8
AM_0
  5
1AD82
 10
713.175
 20
749.326
 30
0.000000
  70
    32
  0
VERTEX
  8
AM_0
  5
1AD83
 10
713.160
 20
749.317
 30
0.000000
  70
    32
  0
VERTEX
  8
AM_0
  5
1AD84
 10
713.146
 20
749.308
 30
0.000000
  70
    32
  0
VERTEX
  8
AM_0
  5
1AD85
 10
713.132
 20
749.299
 30
0.000000
  70
    32
  0
VERTEX
  8
AM_0
  5
1AD86
 10
713.117
 20
749.290
 30
0.000000
  70
    32
  0
VERTEX
  8
AM_0
  5
1AD87
 10
713.103
 20
749.281
 30
0.000000
  70
    32
  0
VERTEX
  8
AM_0
  5
1AD88
 10
713.088
 20
749.272
 30
0.000000
  70
    32
  0
VERTEX
  8
AM_0
  5
1AD89
 10
713.073
 20
749.264
 30
0.000000
  70
    32
  0
VERTEX
  8
AM_0
  5
1AD8A
 10
713.059
 20
749.255
 30
0.000000
  70
    32
  0
VERTEX
  8
AM_0
  5
1AD8B
 10
713.044
 20
749.247
 30
0.000000
  70
    32
  0
VERTEX
  8
AM_0
  5
1AD8C
 10
713.029
 20
749.238
 30
0.000000
  70
    32
  0
VERTEX
  8
AM_0
  5
1AD8D
 10
713.015
 20
749.230
 30
0.000000
  70
    32
  0
VERTEX
  8
AM_0
  5
1AD8E
 10
713.000
 20
749.222
 30
0.000000
  70
    32
  0
VERTEX
  8
AM_0
  5
1AD8F
 10
712.985
 20
749.214
 30
0.000000
  70
    32
  0
VERTEX
  8
AM_0
  5
1AD90
 10
712.970
 20
749.206
 30
0.000000
  70
    32
  0
VERTEX
  8
AM_0
  5
1AD91
 10
712.955
 20
749.198
 30
0.000000
  70
    32
  0
VERTEX
  8
AM_0
  5
1AD92
 10
712.940
 20
749.190
 30
0.000000
  70
    32
  0
VERTEX
  8
AM_0
  5
1AD93
 10
712.925
 20
749.182
 30
0.000000
  70
    32
  0
VERTEX
  8
AM_0
  5
1AD94
 10
712.910
 20
749.175
 30
0.000000
  70
    32
  0
VERTEX
  8
AM_0
  5
1AD95
 10
712.895
 20
749.167
 30
0.000000
  70
    32
  0
VERTEX
  8
AM_0
  5
1AD96
 10
712.880
 20
749.159
 30
0.000000
  70
    32
  0
VERTEX
  8
AM_0
  5
1AD97
 10
712.864
 20
749.152
 30
0.000000
  70
    32
  0
VERTEX
  8
AM_0
  5
1AD98
 10
712.849
 20
749.145
 30
0.000000
  70
    32
  0
VERTEX
  8
AM_0
  5
1AD99
 10
712.834
 20
749.137
 30
0.000000
  70
    32
  0
VERTEX
  8
AM_0
  5
1AD9A
 10
712.819
 20
749.130
 30
0.000000
  70
    32
  0
VERTEX
  8
AM_0
  5
1AD9B
 10
712.803
 20
749.123
 30
0.000000
  70
    32
  0
VERTEX
  8
AM_0
  5
1AD9C
 10
712.788
 20
749.116
 30
0.000000
  70
    32
  0
VERTEX
  8
AM_0
  5
1AD9D
 10
712.772
 20
749.109
 30
0.000000
  70
    32
  0
VERTEX
  8
AM_0
  5
1AD9E
 10
712.757
 20
749.102
 30
0.000000
  70
    32
  0
VERTEX
  8
AM_0
  5
1AD9F
 10
712.741
 20
749.096
 30
0.000000
  70
    32
  0
VERTEX
  8
AM_0
  5
1ADA0
 10
712.726
 20
749.089
 30
0.000000
  70
    32
  0
VERTEX
  8
AM_0
  5
1ADA1
 10
712.710
 20
749.082
 30
0.000000
  70
    32
  0
VERTEX
  8
AM_0
  5
1ADA2
 10
712.694
 20
749.076
 30
0.000000
  70
    32
  0
VERTEX
  8
AM_0
  5
1ADA3
 10
712.679
 20
749.070
 30
0.000000
  70
    32
  0
VERTEX
  8
AM_0
  5
1ADA4
 10
712.663
 20
749.063
 30
0.000000
  70
    32
  0
VERTEX
  8
AM_0
  5
1ADA5
 10
712.647
 20
749.057
 30
0.000000
  70
    32
  0
VERTEX
  8
AM_0
  5
1ADA6
 10
712.631
 20
749.051
 30
0.000000
  70
    32
  0
VERTEX
  8
AM_0
  5
1ADA7
 10
712.616
 20
749.045
 30
0.000000
  70
    32
  0
VERTEX
  8
AM_0
  5
1ADA8
 10
712.600
 20
749.039
 30
0.000000
  70
    32
  0
VERTEX
  8
AM_0
  5
1ADA9
 10
712.584
 20
749.033
 30
0.000000
  70
    32
  0
VERTEX
  8
AM_0
  5
1ADAA
 10
712.568
 20
749.027
 30
0.000000
  70
    32
  0
VERTEX
  8
AM_0
  5
1ADAB
 10
712.552
 20
749.022
 30
0.000000
  70
    32
  0
VERTEX
  8
AM_0
  5
1ADAC
 10
712.536
 20
749.016
 30
0.000000
  70
    32
  0
VERTEX
  8
AM_0
  5
1ADAD
 10
712.520
 20
749.011
 30
0.000000
  70
    32
  0
VERTEX
  8
AM_0
  5
1ADAE
 10
712.504
 20
749.005
 30
0.000000
  70
    32
  0
VERTEX
  8
AM_0
  5
1ADAF
 10
712.488
 20
749.000
 30
0.000000
  70
    32
  0
VERTEX
  8
AM_0
  5
1ADB0
 10
712.472
 20
748.995
 30
0.000000
  70
    32
  0
VERTEX
  8
AM_0
  5
1ADB1
 10
712.456
 20
748.989
 30
0.000000
  70
    32
  0
VERTEX
  8
AM_0
  5
1ADB2
 10
712.439
 20
748.984
 30
0.000000
  70
    32
  0
VERTEX
  8
AM_0
  5
1ADB3
 10
712.423
 20
748.979
 30
0.000000
  70
    32
  0
VERTEX
  8
AM_0
  5
1ADB4
 10
712.407
 20
748.975
 30
0.000000
  70
    32
  0
VERTEX
  8
AM_0
  5
1ADB5
 10
712.391
 20
748.970
 30
0.000000
  70
    32
  0
VERTEX
  8
AM_0
  5
1ADB6
 10
712.374
 20
748.965
 30
0.000000
  70
    32
  0
VERTEX
  8
AM_0
  5
1ADB7
 10
712.358
 20
748.961
 30
0.000000
  70
    32
  0
VERTEX
  8
AM_0
  5
1ADB8
 10
712.342
 20
748.956
 30
0.000000
  70
    32
  0
VERTEX
  8
AM_0
  5
1ADB9
 10
712.325
 20
748.952
 30
0.000000
  70
    32
  0
VERTEX
  8
AM_0
  5
1ADBA
 10
712.309
 20
748.947
 30
0.000000
  70
    32
  0
VERTEX
  8
AM_0
  5
1ADBB
 10
712.293
 20
748.943
 30
0.000000
  70
    32
  0
VERTEX
  8
AM_0
  5
1ADBC
 10
712.276
 20
748.939
 30
0.000000
  70
    32
  0
VERTEX
  8
AM_0
  5
1ADBD
 10
712.260
 20
748.935
 30
0.000000
  70
    32
  0
VERTEX
  8
AM_0
  5
1ADBE
 10
712.243
 20
748.931
 30
0.000000
  70
    32
  0
VERTEX
  8
AM_0
  5
1ADBF
 10
712.227
 20
748.927
 30
0.000000
  70
    32
  0
VERTEX
  8
AM_0
  5
1ADC0
 10
712.210
 20
748.924
 30
0.000000
  70
    32
  0
VERTEX
  8
AM_0
  5
1ADC1
 10
712.194
 20
748.920
 30
0.000000
  70
    32
  0
VERTEX
  8
AM_0
  5
1ADC2
 10
712.177
 20
748.916
 30
0.000000
  70
    32
  0
VERTEX
  8
AM_0
  5
1ADC3
 10
712.161
 20
748.913
 30
0.000000
  70
    32
  0
VERTEX
  8
AM_0
  5
1ADC4
 10
712.144
 20
748.909
 30
0.000000
  70
    32
  0
VERTEX
  8
AM_0
  5
1ADC5
 10
712.127
 20
748.906
 30
0.000000
  70
    32
  0
VERTEX
  8
AM_0
  5
1ADC6
 10
712.111
 20
748.903
 30
0.000000
  70
    32
  0
VERTEX
  8
AM_0
  5
1ADC7
 10
712.094
 20
748.900
 30
0.000000
  70
    32
  0
VERTEX
  8
AM_0
  5
1ADC8
 10
712.077
 20
748.897
 30
0.000000
  70
    32
  0
VERTEX
  8
AM_0
  5
1ADC9
 10
712.061
 20
748.894
 30
0.000000
  70
    32
  0
VERTEX
  8
AM_0
  5
1ADCA
 10
712.044
 20
748.891
 30
0.000000
  70
    32
  0
VERTEX
  8
AM_0
  5
1ADCB
 10
712.027
 20
748.889
 30
0.000000
  70
    32
  0
VERTEX
  8
AM_0
  5
1ADCC
 10
712.010
 20
748.886
 30
0.000000
  70
    32
  0
VERTEX
  8
AM_0
  5
1ADCD
 10
711.994
 20
748.883
 30
0.000000
  70
    32
  0
VERTEX
  8
AM_0
  5
1ADCE
 10
711.977
 20
748.881
 30
0.000000
  70
    32
  0
VERTEX
  8
AM_0
  5
1ADCF
 10
711.960
 20
748.879
 30
0.000000
  70
    32
  0
VERTEX
  8
AM_0
  5
1ADD0
 10
711.943
 20
748.876
 30
0.000000
  70
    32
  0
VERTEX
  8
AM_0
  5
1ADD1
 10
711.927
 20
748.874
 30
0.000000
  70
    32
  0
VERTEX
  8
AM_0
  5
1ADD2
 10
711.910
 20
748.872
 30
0.000000
  70
    32
  0
VERTEX
  8
AM_0
  5
1ADD3
 10
711.893
 20
748.870
 30
0.000000
  70
    32
  0
VERTEX
  8
AM_0
  5
1ADD4
 10
711.876
 20
748.868
 30
0.000000
  70
    32
  0
VERTEX
  8
AM_0
  5
1ADD5
 10
711.859
 20
748.867
 30
0.000000
  70
    32
  0
VERTEX
  8
AM_0
  5
1ADD6
 10
711.842
 20
748.865
 30
0.000000
  70
    32
  0
VERTEX
  8
AM_0
  5
1ADD7
 10
711.826
 20
748.863
 30
0.000000
  70
    32
  0
VERTEX
  8
AM_0
  5
1ADD8
 10
711.809
 20
748.862
 30
0.000000
  70
    32
  0
VERTEX
  8
AM_0
  5
1ADD9
 10
711.792
 20
748.860
 30
0.000000
  70
    32
  0
VERTEX
  8
AM_0
  5
1ADDA
 10
711.775
 20
748.859
 30
0.000000
  70
    32
  0
VERTEX
  8
AM_0
  5
1ADDB
 10
711.758
 20
748.858
 30
0.000000
  70
    32
  0
VERTEX
  8
AM_0
  5
1ADDC
 10
711.741
 20
748.857
 30
0.000000
  70
    32
  0
VERTEX
  8
AM_0
  5
1ADDD
 10
711.724
 20
748.856
 30
0.000000
  70
    32
  0
VERTEX
  8
AM_0
  5
1ADDE
 10
711.707
 20
748.855
 30
0.000000
  70
    32
  0
VERTEX
  8
AM_0
  5
1ADDF
 10
711.690
 20
748.854
 30
0.000000
  70
    32
  0
VERTEX
  8
AM_0
  5
1ADE0
 10
711.673
 20
748.853
 30
0.000000
  70
    32
  0
VERTEX
  8
AM_0
  5
1ADE1
 10
711.657
 20
748.853
 30
0.000000
  70
    32
  0
VERTEX
  8
AM_0
  5
1ADE2
 10
711.640
 20
748.852
 30
0.000000
  70
    32
  0
VERTEX
  8
AM_0
  5
1ADE3
 10
711.623
 20
748.852
 30
0.000000
  70
    32
  0
VERTEX
  8
AM_0
  5
1ADE4
 10
711.606
 20
748.852
 30
0.000000
  70
    32
  0
VERTEX
  8
AM_0
  5
1ADE5
 10
711.589
 20
748.851
 30
0.000000
  70
    32
  0
VERTEX
  8
AM_0
  5
1ADE6
 10
711.572
 20
748.851
 30
0.000000
  70
    32
  0
VERTEX
  8
AM_0
  5
1ADE7
 10
711.555
 20
748.851
 30
0.000000
  70
    32
  0
SEQEND
  8
AM_0
  5
1ADE8
  0
POLYLINE
  5
1975E
  8
AM_0
 10
713.53921235311566
 20
749.60111920733164
 30
0.0
 66
     1
 70
     8
  0
VERTEX
  8
AM_0
  5
1ADE9
 10
713.539
 20
749.601
 30
0.000000
  70
    32
  0
VERTEX
  8
AM_0
  5
1ADEA
 10
713.552
 20
749.612
 30
0.000000
  70
    32
  0
VERTEX
  8
AM_0
  5
1ADEB
 10
713.565
 20
749.623
 30
0.000000
  70
    32
  0
VERTEX
  8
AM_0
  5
1ADEC
 10
713.578
 20
749.634
 30
0.000000
  70
    32
  0
VERTEX
  8
AM_0
  5
1ADED
 10
713.591
 20
749.645
 30
0.000000
  70
    32
  0
VERTEX
  8
AM_0
  5
1ADEE
 10
713.604
 20
749.656
 30
0.000000
  70
    32
  0
VERTEX
  8
AM_0
  5
1ADEF
 10
713.617
 20
749.667
 30
0.000000
  70
    32
  0
VERTEX
  8
AM_0
  5
1ADF0
 10
713.630
 20
749.678
 30
0.000000
  70
    32
  0
VERTEX
  8
AM_0
  5
1ADF1
 10
713.643
 20
749.688
 30
0.000000
  70
    32
  0
VERTEX
  8
AM_0
  5
1ADF2
 10
713.656
 20
749.699
 30
0.000000
  70
    32
  0
VERTEX
  8
AM_0
  5
1ADF3
 10
713.669
 20
749.710
 30
0.000000
  70
    32
  0
VERTEX
  8
AM_0
  5
1ADF4
 10
713.683
 20
749.720
 30
0.000000
  70
    32
  0
VERTEX
  8
AM_0
  5
1ADF5
 10
713.696
 20
749.730
 30
0.000000
  70
    32
  0
VERTEX
  8
AM_0
  5
1ADF6
 10
713.710
 20
749.741
 30
0.000000
  70
    32
  0
VERTEX
  8
AM_0
  5
1ADF7
 10
713.723
 20
749.751
 30
0.000000
  70
    32
  0
VERTEX
  8
AM_0
  5
1ADF8
 10
713.737
 20
749.761
 30
0.000000
  70
    32
  0
VERTEX
  8
AM_0
  5
1ADF9
 10
713.750
 20
749.771
 30
0.000000
  70
    32
  0
VERTEX
  8
AM_0
  5
1ADFA
 10
713.764
 20
749.781
 30
0.000000
  70
    32
  0
VERTEX
  8
AM_0
  5
1ADFB
 10
713.778
 20
749.791
 30
0.000000
  70
    32
  0
VERTEX
  8
AM_0
  5
1ADFC
 10
713.792
 20
749.801
 30
0.000000
  70
    32
  0
VERTEX
  8
AM_0
  5
1ADFD
 10
713.805
 20
749.810
 30
0.000000
  70
    32
  0
VERTEX
  8
AM_0
  5
1ADFE
 10
713.819
 20
749.820
 30
0.000000
  70
    32
  0
VERTEX
  8
AM_0
  5
1ADFF
 10
713.833
 20
749.830
 30
0.000000
  70
    32
  0
VERTEX
  8
AM_0
  5
1AE00
 10
713.847
 20
749.839
 30
0.000000
  70
    32
  0
VERTEX
  8
AM_0
  5
1AE01
 10
713.861
 20
749.849
 30
0.000000
  70
    32
  0
VERTEX
  8
AM_0
  5
1AE02
 10
713.876
 20
749.858
 30
0.000000
  70
    32
  0
VERTEX
  8
AM_0
  5
1AE03
 10
713.890
 20
749.867
 30
0.000000
  70
    32
  0
VERTEX
  8
AM_0
  5
1AE04
 10
713.904
 20
749.876
 30
0.000000
  70
    32
  0
VERTEX
  8
AM_0
  5
1AE05
 10
713.918
 20
749.885
 30
0.000000
  70
    32
  0
VERTEX
  8
AM_0
  5
1AE06
 10
713.933
 20
749.894
 30
0.000000
  70
    32
  0
VERTEX
  8
AM_0
  5
1AE07
 10
713.947
 20
749.903
 30
0.000000
  70
    32
  0
VERTEX
  8
AM_0
  5
1AE08
 10
713.961
 20
749.912
 30
0.000000
  70
    32
  0
VERTEX
  8
AM_0
  5
1AE09
 10
713.976
 20
749.921
 30
0.000000
  70
    32
  0
VERTEX
  8
AM_0
  5
1AE0A
 10
713.990
 20
749.930
 30
0.000000
  70
    32
  0
VERTEX
  8
AM_0
  5
1AE0B
 10
714.005
 20
749.938
 30
0.000000
  70
    32
  0
VERTEX
  8
AM_0
  5
1AE0C
 10
714.020
 20
749.947
 30
0.000000
  70
    32
  0
VERTEX
  8
AM_0
  5
1AE0D
 10
714.034
 20
749.955
 30
0.000000
  70
    32
  0
VERTEX
  8
AM_0
  5
1AE0E
 10
714.049
 20
749.964
 30
0.000000
  70
    32
  0
VERTEX
  8
AM_0
  5
1AE0F
 10
714.064
 20
749.972
 30
0.000000
  70
    32
  0
VERTEX
  8
AM_0
  5
1AE10
 10
714.079
 20
749.980
 30
0.000000
  70
    32
  0
VERTEX
  8
AM_0
  5
1AE11
 10
714.093
 20
749.988
 30
0.000000
  70
    32
  0
VERTEX
  8
AM_0
  5
1AE12
 10
714.108
 20
749.996
 30
0.000000
  70
    32
  0
VERTEX
  8
AM_0
  5
1AE13
 10
714.123
 20
750.004
 30
0.000000
  70
    32
  0
VERTEX
  8
AM_0
  5
1AE14
 10
714.138
 20
750.012
 30
0.000000
  70
    32
  0
VERTEX
  8
AM_0
  5
1AE15
 10
714.153
 20
750.020
 30
0.000000
  70
    32
  0
VERTEX
  8
AM_0
  5
1AE16
 10
714.168
 20
750.028
 30
0.000000
  70
    32
  0
VERTEX
  8
AM_0
  5
1AE17
 10
714.184
 20
750.035
 30
0.000000
  70
    32
  0
VERTEX
  8
AM_0
  5
1AE18
 10
714.199
 20
750.043
 30
0.000000
  70
    32
  0
VERTEX
  8
AM_0
  5
1AE19
 10
714.214
 20
750.050
 30
0.000000
  70
    32
  0
VERTEX
  8
AM_0
  5
1AE1A
 10
714.229
 20
750.058
 30
0.000000
  70
    32
  0
VERTEX
  8
AM_0
  5
1AE1B
 10
714.245
 20
750.065
 30
0.000000
  70
    32
  0
VERTEX
  8
AM_0
  5
1AE1C
 10
714.260
 20
750.072
 30
0.000000
  70
    32
  0
VERTEX
  8
AM_0
  5
1AE1D
 10
714.275
 20
750.079
 30
0.000000
  70
    32
  0
VERTEX
  8
AM_0
  5
1AE1E
 10
714.291
 20
750.086
 30
0.000000
  70
    32
  0
VERTEX
  8
AM_0
  5
1AE1F
 10
714.306
 20
750.093
 30
0.000000
  70
    32
  0
VERTEX
  8
AM_0
  5
1AE20
 10
714.322
 20
750.100
 30
0.000000
  70
    32
  0
VERTEX
  8
AM_0
  5
1AE21
 10
714.337
 20
750.107
 30
0.000000
  70
    32
  0
VERTEX
  8
AM_0
  5
1AE22
 10
714.353
 20
750.113
 30
0.000000
  70
    32
  0
VERTEX
  8
AM_0
  5
1AE23
 10
714.368
 20
750.120
 30
0.000000
  70
    32
  0
VERTEX
  8
AM_0
  5
1AE24
 10
714.384
 20
750.126
 30
0.000000
  70
    32
  0
VERTEX
  8
AM_0
  5
1AE25
 10
714.400
 20
750.133
 30
0.000000
  70
    32
  0
VERTEX
  8
AM_0
  5
1AE26
 10
714.415
 20
750.139
 30
0.000000
  70
    32
  0
VERTEX
  8
AM_0
  5
1AE27
 10
714.431
 20
750.145
 30
0.000000
  70
    32
  0
VERTEX
  8
AM_0
  5
1AE28
 10
714.447
 20
750.151
 30
0.000000
  70
    32
  0
VERTEX
  8
AM_0
  5
1AE29
 10
714.463
 20
750.157
 30
0.000000
  70
    32
  0
VERTEX
  8
AM_0
  5
1AE2A
 10
714.479
 20
750.163
 30
0.000000
  70
    32
  0
VERTEX
  8
AM_0
  5
1AE2B
 10
714.495
 20
750.169
 30
0.000000
  70
    32
  0
VERTEX
  8
AM_0
  5
1AE2C
 10
714.511
 20
750.175
 30
0.000000
  70
    32
  0
VERTEX
  8
AM_0
  5
1AE2D
 10
714.527
 20
750.181
 30
0.000000
  70
    32
  0
VERTEX
  8
AM_0
  5
1AE2E
 10
714.543
 20
750.186
 30
0.000000
  70
    32
  0
VERTEX
  8
AM_0
  5
1AE2F
 10
714.559
 20
750.192
 30
0.000000
  70
    32
  0
VERTEX
  8
AM_0
  5
1AE30
 10
714.575
 20
750.197
 30
0.000000
  70
    32
  0
VERTEX
  8
AM_0
  5
1AE31
 10
714.591
 20
750.202
 30
0.000000
  70
    32
  0
VERTEX
  8
AM_0
  5
1AE32
 10
714.607
 20
750.208
 30
0.000000
  70
    32
  0
VERTEX
  8
AM_0
  5
1AE33
 10
714.623
 20
750.213
 30
0.000000
  70
    32
  0
VERTEX
  8
AM_0
  5
1AE34
 10
714.639
 20
750.218
 30
0.000000
  70
    32
  0
VERTEX
  8
AM_0
  5
1AE35
 10
714.655
 20
750.223
 30
0.000000
  70
    32
  0
VERTEX
  8
AM_0
  5
1AE36
 10
714.672
 20
750.228
 30
0.000000
  70
    32
  0
VERTEX
  8
AM_0
  5
1AE37
 10
714.688
 20
750.232
 30
0.000000
  70
    32
  0
VERTEX
  8
AM_0
  5
1AE38
 10
714.704
 20
750.237
 30
0.000000
  70
    32
  0
VERTEX
  8
AM_0
  5
1AE39
 10
714.720
 20
750.242
 30
0.000000
  70
    32
  0
VERTEX
  8
AM_0
  5
1AE3A
 10
714.737
 20
750.246
 30
0.000000
  70
    32
  0
VERTEX
  8
AM_0
  5
1AE3B
 10
714.753
 20
750.251
 30
0.000000
  70
    32
  0
VERTEX
  8
AM_0
  5
1AE3C
 10
714.769
 20
750.255
 30
0.000000
  70
    32
  0
VERTEX
  8
AM_0
  5
1AE3D
 10
714.786
 20
750.259
 30
0.000000
  70
    32
  0
VERTEX
  8
AM_0
  5
1AE3E
 10
714.802
 20
750.263
 30
0.000000
  70
    32
  0
VERTEX
  8
AM_0
  5
1AE3F
 10
714.819
 20
750.267
 30
0.000000
  70
    32
  0
VERTEX
  8
AM_0
  5
1AE40
 10
714.835
 20
750.271
 30
0.000000
  70
    32
  0
VERTEX
  8
AM_0
  5
1AE41
 10
714.852
 20
750.275
 30
0.000000
  70
    32
  0
VERTEX
  8
AM_0
  5
1AE42
 10
714.868
 20
750.279
 30
0.000000
  70
    32
  0
VERTEX
  8
AM_0
  5
1AE43
 10
714.885
 20
750.282
 30
0.000000
  70
    32
  0
VERTEX
  8
AM_0
  5
1AE44
 10
714.901
 20
750.286
 30
0.000000
  70
    32
  0
VERTEX
  8
AM_0
  5
1AE45
 10
714.918
 20
750.289
 30
0.000000
  70
    32
  0
VERTEX
  8
AM_0
  5
1AE46
 10
714.935
 20
750.293
 30
0.000000
  70
    32
  0
VERTEX
  8
AM_0
  5
1AE47
 10
714.951
 20
750.296
 30
0.000000
  70
    32
  0
VERTEX
  8
AM_0
  5
1AE48
 10
714.968
 20
750.299
 30
0.000000
  70
    32
  0
VERTEX
  8
AM_0
  5
1AE49
 10
714.984
 20
750.302
 30
0.000000
  70
    32
  0
VERTEX
  8
AM_0
  5
1AE4A
 10
715.001
 20
750.305
 30
0.000000
  70
    32
  0
VERTEX
  8
AM_0
  5
1AE4B
 10
715.018
 20
750.308
 30
0.000000
  70
    32
  0
VERTEX
  8
AM_0
  5
1AE4C
 10
715.034
 20
750.311
 30
0.000000
  70
    32
  0
VERTEX
  8
AM_0
  5
1AE4D
 10
715.051
 20
750.314
 30
0.000000
  70
    32
  0
VERTEX
  8
AM_0
  5
1AE4E
 10
715.068
 20
750.316
 30
0.000000
  70
    32
  0
VERTEX
  8
AM_0
  5
1AE4F
 10
715.085
 20
750.319
 30
0.000000
  70
    32
  0
VERTEX
  8
AM_0
  5
1AE50
 10
715.101
 20
750.321
 30
0.000000
  70
    32
  0
VERTEX
  8
AM_0
  5
1AE51
 10
715.118
 20
750.324
 30
0.000000
  70
    32
  0
VERTEX
  8
AM_0
  5
1AE52
 10
715.135
 20
750.326
 30
0.000000
  70
    32
  0
VERTEX
  8
AM_0
  5
1AE53
 10
715.152
 20
750.328
 30
0.000000
  70
    32
  0
VERTEX
  8
AM_0
  5
1AE54
 10
715.169
 20
750.330
 30
0.000000
  70
    32
  0
VERTEX
  8
AM_0
  5
1AE55
 10
715.185
 20
750.332
 30
0.000000
  70
    32
  0
VERTEX
  8
AM_0
  5
1AE56
 10
715.202
 20
750.334
 30
0.000000
  70
    32
  0
VERTEX
  8
AM_0
  5
1AE57
 10
715.219
 20
750.336
 30
0.000000
  70
    32
  0
VERTEX
  8
AM_0
  5
1AE58
 10
715.236
 20
750.337
 30
0.000000
  70
    32
  0
VERTEX
  8
AM_0
  5
1AE59
 10
715.253
 20
750.339
 30
0.000000
  70
    32
  0
VERTEX
  8
AM_0
  5
1AE5A
 10
715.270
 20
750.340
 30
0.000000
  70
    32
  0
VERTEX
  8
AM_0
  5
1AE5B
 10
715.287
 20
750.342
 30
0.000000
  70
    32
  0
VERTEX
  8
AM_0
  5
1AE5C
 10
715.304
 20
750.343
 30
0.000000
  70
    32
  0
VERTEX
  8
AM_0
  5
1AE5D
 10
715.320
 20
750.344
 30
0.000000
  70
    32
  0
VERTEX
  8
AM_0
  5
1AE5E
 10
715.337
 20
750.345
 30
0.000000
  70
    32
  0
VERTEX
  8
AM_0
  5
1AE5F
 10
715.354
 20
750.346
 30
0.000000
  70
    32
  0
VERTEX
  8
AM_0
  5
1AE60
 10
715.371
 20
750.347
 30
0.000000
  70
    32
  0
VERTEX
  8
AM_0
  5
1AE61
 10
715.388
 20
750.348
 30
0.000000
  70
    32
  0
VERTEX
  8
AM_0
  5
1AE62
 10
715.405
 20
750.349
 30
0.000000
  70
    32
  0
VERTEX
  8
AM_0
  5
1AE63
 10
715.422
 20
750.349
 30
0.000000
  70
    32
  0
VERTEX
  8
AM_0
  5
1AE64
 10
715.439
 20
750.350
 30
0.000000
  70
    32
  0
VERTEX
  8
AM_0
  5
1AE65
 10
715.456
 20
750.350
 30
0.000000
  70
    32
  0
VERTEX
  8
AM_0
  5
1AE66
 10
715.473
 20
750.351
 30
0.000000
  70
    32
  0
VERTEX
  8
AM_0
  5
1AE67
 10
715.490
 20
750.351
 30
0.000000
  70
    32
  0
VERTEX
  8
AM_0
  5
1AE68
 10
715.507
 20
750.351
 30
0.000000
  70
    32
  0
VERTEX
  8
AM_0
  5
1AE69
 10
715.524
 20
750.351
 30
0.000000
  70
    32
  0
SEQEND
  8
AM_0
  5
1AE6A
  0
LINE
  5
1975F
  8
AM_0
 10
711.55490321270906
 20
748.85110483023857
 30
0.0
 11
711.16861214177993
 21
748.85110436189075
 31
0.0
  0
LINE
  5
19762
  8
AM_0
 10
610.02449899913324
 20
740.84968194313512
 30
0.0
 11
610.02449899913324
 21
735.84968179262341
 31
0.0
  0
LINE
  5
19763
  8
ﾁｭｳｼﾝｾﾝ1
 10
560.02349780701627
 20
752.2951124133026
 30
0.0
 11
560.02349780701661
 21
514.4888864950517
 31
0.0
  0
LINE
  5
19764
  8
AM_0
 10
486.64685600985382
 20
735.84968179262341
 30
0.0
 11
485.02349554934182
 21
642.84967878239115
 31
0.0
  0
LINE
  5
19765
  8
AM_0
 10
510.02249661489981
 20
740.84968194313512
 30
0.0
 11
510.02249661489981
 21
738.34968179262341
 31
0.0
  0
LINE
  5
19766
  8
0
 10
488.02379599638618
 20
738.34968179262341
 30
0.0
 11
512.02379599638596
 21
738.34968179262341
 31
0.0
  0
LINE
  5
19767
  8
0
 10
491.02379599638613
 20
750.34968179262341
 30
0.0
 11
509.02379599638618
 21
750.34968179262341
 31
0.0
  0
LINE
  5
19768
  8
0
 10
491.02379599638613
 20
738.34968179262341
 30
0.0
 11
491.02379599638613
 21
750.34968179262341
 31
0.0
  0
LINE
  5
19769
  8
0
 10
488.02379599638618
 20
735.84968179262341
 30
0.0
 11
488.02379599638618
 21
738.34968179262341
 31
0.0
  0
LINE
  5
1976A
  8
0
 10
509.02379599638618
 20
750.34968179262341
 30
0.0
 11
509.02379599638618
 21
738.34968179262341
 31
0.0
  0
LINE
  5
1976B
  8
0
 10
512.02379599638596
 20
738.34968179262341
 30
0.0
 11
512.02379599638596
 21
735.84968179262341
 31
0.0
  0
LINE
  5
1976C
  8
0
 10
663.02347075120463
 20
738.34968179262341
 30
0.0
 11
687.02347075120474
 21
738.34968179262341
 31
0.0
  0
LINE
  5
1976D
  8
0
 10
666.02347075120463
 20
750.34968179262341
 30
0.0
 11
684.02347075120474
 21
750.34968179262341
 31
0.0
  0
LINE
  5
1976E
  8
0
 10
666.02347075120463
 20
738.34968179262341
 30
0.0
 11
666.02347075120463
 21
750.34968179262341
 31
0.0
  0
LINE
  5
1976F
  8
0
 10
663.02347075120463
 20
735.84968179262341
 30
0.0
 11
663.02347075120463
 21
738.34968179262341
 31
0.0
  0
LINE
  5
19770
  8
0
 10
684.02347075120474
 20
750.34968179262341
 30
0.0
 11
684.02347075120474
 21
738.34968179262341
 31
0.0
  0
LINE
  5
19771
  8
0
 10
687.02347075120474
 20
738.34968179262341
 30
0.0
 11
687.02347075120474
 21
735.84968179262341
 31
0.0
  0
LINE
  5
19772
  8
AM_0
 10
297.86585687858508
 20
398.89742339073098
 30
0.0
 11
322.86585687858548
 21
398.89742339073098
 31
0.0
  0
LINE
  5
19773
  8
AM_0
 10
297.86585687858508
 20
237.71054035207339
 30
0.0
 11
322.86585687858548
 21
237.71054035207339
 31
0.0
  0
LINE
  5
19774
  8
AM_0
 10
692.02347120273953
 20
576.84967878239115
 30
0.0
 11
483.0234955493421
 21
576.84967878239092
 31
0.0
  0
LINE
  5
19775
  8
AM_0
 10
691.26726426849075
 20
601.84967878239115
 30
0.0
 11
483.78244015198749
 21
601.84967878239115
 31
0.0
  0
LINE
  5
19776
  8
AM_0
 10
485.02710930032549
 20
642.84967878239115
 30
0.0
 11
483.0234955493421
 21
576.84967878239092
 31
0.0
  0
LINE
  5
19777
  8
AM_0
 10
690.02708489632221
 20
642.84967878239115
 30
0.0
 11
692.02347120273953
 21
576.84967878239115
 31
0.0
  0
LINE
  5
19778
  8
AM_0
 10
505.66511738986679
 20
576.84967878239092
 30
0.0
 11
505.66511738986679
 21
601.84967878239115
 31
0.0
  0
LINE
  5
19779
  8
ﾁｭｳｼﾝｾﾝ1
 10
515.02346894506456
 20
571.84967878239092
 30
0.0
 11
515.02346894506456
 21
606.84967878239115
 31
0.0
  0
LINE
  5
1977A
  8
AM_0
 10
669.38184936221467
 20
576.84967878239092
 30
0.0
 11
669.38184936221467
 21
601.84967878239092
 31
0.0
  0
LINE
  5
1977B
  8
ﾁｭｳｼﾝｾﾝ1
 10
660.02349780701707
 20
571.84967878239092
 30
0.0
 11
660.02349780701707
 21
606.84967878239115
 31
0.0
  0
LINE
  5
1977D
  8
0
 10
576.02349780701638
 20
521.84968183064507
 30
0.0
 11
576.02349780701638
 21
576.84967878239115
 31
0.0
  0
LINE
  5
1977E
  8
0
 10
544.02349780701661
 20
521.84968183064507
 30
0.0
 11
544.02349780701616
 21
576.84967878239092
 31
0.0
  0
LINE
  5
1977F
  8
AM_0
 10
544.02349780701661
 20
521.84968183064507
 30
0.0
 11
576.02349780701638
 21
521.84968183064507
 31
0.0
  0
LINE
  5
19786
  8
AM_0
 10
565.02349780701661
 20
521.84968183064507
 30
0.0
 11
565.0234978070165
 21
566.84968183064518
 31
0.0
  0
LINE
  5
19787
  8
AM_0
 10
555.02349780701638
 20
521.84968183064507
 30
0.0
 11
555.02349780701638
 21
566.84968183064518
 31
0.0
  0
LINE
  5
19788
  8
AM_0
 10
565.0234978070165
 20
566.84968183064518
 30
0.0
 11
555.02349780701638
 21
566.84968183064518
 31
0.0
  0
ARC
  5
19789
  8
AM_0
 10
560.02349780701627
 20
566.84968183064552
 30
0.0
 40
5.0
 50
0.0
 51
180.0
  0
LINE
  5
1978B
  8
ｶｸﾚｾﾝ2
 10
598.02349901410923
 20
612.84967685584229
 30
0.0
 11
522.02349659992365
 21
612.8496768558424
 31
0.0
  0
LINE
  5
1978C
  8
ｶｸﾚｾﾝ2
 10
580.02349780701627
 20
579.84967877086819
 30
0.0
 11
540.02349780701672
 21
579.84967877086819
 31
0.0
  0
LINE
  5
1978D
  8
ｶｸﾚｾﾝ2
 10
585.02349855957493
 20
607.84967669380774
 30
0.0
 11
535.02349705445886
 21
607.84967669380774
 31
0.0
  0
LINE
  5
1978E
  8
ｶｸﾚｾﾝ2
 10
535.02349705445886
 20
612.84967684431945
 30
0.0
 11
535.02349705445886
 21
607.84967669380774
 31
0.0
  0
LINE
  5
1978F
  8
ｶｸﾚｾﾝ2
 10
540.02349780701672
 20
579.84967877086819
 30
0.0
 11
535.02349705445886
 21
607.84967669380774
 31
0.0
  0
LINE
  5
19790
  8
ｶｸﾚｾﾝ2
 10
585.02349855957493
 20
612.84967684431945
 30
0.0
 11
585.02349855957493
 21
607.84967669380774
 31
0.0
  0
LINE
  5
19791
  8
ｶｸﾚｾﾝ2
 10
580.02349780701672
 20
579.84967877086819
 30
0.0
 11
585.02349855957493
 21
607.84967669380774
 31
0.0
  0
LINE
  5
19792
  8
ｶｸﾚｾﾝ2
 10
576.02349780701672
 20
576.84967878239115
 30
0.0
 11
576.02349780701672
 21
579.84967877086819
 31
0.0
  0
LINE
  5
19793
  8
ｶｸﾚｾﾝ2
 10
544.02349780701616
 20
576.84967877086819
 30
0.0
 11
544.02349780701616
 21
579.84967877086819
 31
0.0
  0
ARC
  5
1A072
  8
0
  6
CONTINUOUS
 62
     0
 10
735.52347121368882
 20
256.26517387140302
 30
0.0
 40
1.0
 50
270.0
 51
0.000000000000007
  0
ARC
  5
1A073
  8
AM_0
 10
735.52347121368882
 20
380.342789871403
 30
0.0
 40
1.0
 50
0.000000000000007
 51
90.0
  0
LINE
  5
1A176
  8
AM_0
 10
182.5987718901078
 20
231.93297087140311
 30
0.0
 11
182.2257708901079
 21
225.43597887140311
 31
0.0
  0
LINE
  5
1A177
  8
AM_0
 10
182.66181489010791
 20
197.49847387140301
 30
0.0
 11
182.21175989010791
 21
200.37097687140309
 31
0.0
  0
LINE
  5
1A178
  8
AM_0
 10
182.61977989010799
 20
227.87695787140311
 30
0.0
 11
182.21978789010791
 21
225.4009718714031
 31
0.0
  0
LINE
  5
1A179
  8
AM_0
 10
188.59876289010799
 20
233.37496587140311
 30
0.0
 11
257.13385489010813
 21
233.37496587140311
 31
0.0
  0
LINE
  5
1A17A
  8
AM_0
 10
263.13385289010807
 20
231.93297187140311
 30
0.0
 11
263.50655189010808
 21
225.43597787140311
 31
0.0
  0
LINE
  5
1A17B
  8
AM_0
 10
190.640423890108
 20
191.2989688714031
 30
0.0
 11
255.09065689010799
 21
191.2989688714031
 31
0.0
  0
LINE
  5
1A17C
  8
AM_0
 10
190.640423890108
 20
230.88998087140311
 30
0.0
 11
255.09065689010799
 21
230.88998087140311
 31
0.0
  0
LINE
  5
1A17D
  8
AM_0
 10
263.07508289010798
 20
197.5281918714031
 30
0.0
 11
263.52075889010803
 21
200.3709828714031
 31
0.0
  0
LINE
  5
1A17E
  8
AM_0
 10
263.11285289010812
 20
227.8769728714031
 30
0.0
 11
263.51275189010812
 21
225.4009718714031
 31
0.0
  0
LINE
  5
1A17F
  8
AM_0
 10
255.0917198901079
 20
205.17897387140309
 30
0.0
 11
190.64004589010801
 21
205.17897387140309
 31
0.0
  0
LINE
  5
1A180
  8
AM_0
 10
188.59876289010799
 20
237.93297987140309
 30
0.0
 11
257.13385489010813
 21
237.93297987140309
 31
0.0
  0
LINE
  5
1A181
  8
AM_0
 10
190.64041589010799
 20
205.17898387140309
 30
0.0
 11
190.23142289010801
 21
205.1679828714031
 31
0.0
  0
LINE
  5
1A182
  8
AM_0
 10
190.2314198901081
 20
205.16799587140309
 30
0.0
 11
189.82442189010791
 21
205.13299187140311
 31
0.0
  0
LINE
  5
1A183
  8
AM_0
 10
189.82442489010799
 20
205.13302087140309
 30
0.0
 11
189.42442589010801
 21
205.0770218714031
 31
0.0
  0
LINE
  5
1A184
  8
AM_0
 10
189.4244248901079
 20
205.0770018714031
 30
0.0
 11
189.0334288901081
 21
204.99800787140299
 31
0.0
  0
LINE
  5
1A185
  8
AM_0
 10
189.033423890108
 20
204.9979858714031
 30
0.0
 11
188.65441289010801
 21
204.8979788714031
 31
0.0
  0
LINE
  5
1A186
  8
AM_0
 10
188.6544308901079
 20
204.89795187140311
 30
0.0
 11
188.29043289010809
 21
204.77694987140319
 31
0.0
  0
LINE
  5
1A187
  8
AM_0
 10
188.29042289010789
 20
204.77695687140309
 30
0.0
 11
187.945423890108
 21
204.6359668714031
 31
0.0
  0
LINE
  5
1A188
  8
AM_0
 10
187.94542889010791
 20
204.6359668714031
 30
0.0
 11
187.61943189010799
 21
204.4769698714031
 31
0.0
  0
LINE
  5
1A189
  8
AM_0
 10
187.61943289010779
 20
204.47696687140311
 30
0.0
 11
187.31742889010789
 21
204.29996387140309
 31
0.0
  0
LINE
  5
1A18A
  8
AM_0
 10
187.31741689010801
 20
204.30000287140311
 30
0.0
 11
187.04041589010811
 21
204.10699387140309
 31
0.0
  0
LINE
  5
1A18B
  8
AM_0
 10
187.04040989010809
 20
204.10698187140309
 30
0.0
 11
186.79040789010779
 21
203.8999798714031
 31
0.0
  0
LINE
  5
1A18C
  8
AM_0
 10
186.79042989010799
 20
203.8999698714031
 30
0.0
 11
186.57042789010799
 21
203.67897587140311
 31
0.0
  0
LINE
  5
1A18D
  8
AM_0
 10
186.57042189010801
 20
203.6789898714031
 30
0.0
 11
186.381426890108
 21
203.44699687140309
 31
0.0
  0
LINE
  5
1A18E
  8
AM_0
 10
186.3814318901081
 20
203.44697487140311
 30
0.0
 11
186.22442589010799
 21
203.20496887140311
 31
0.0
  0
LINE
  5
1A18F
  8
AM_0
 10
186.22442289010809
 20
203.20497887140311
 30
0.0
 11
186.10141989010799
 21
202.9549738714031
 31
0.0
  0
LINE
  5
1A190
  8
AM_0
 10
186.1014458901079
 20
202.95496887140311
 30
0.0
 11
186.01244689010809
 21
202.699957871403
 31
0.0
  0
LINE
  5
1A191
  8
AM_0
 10
186.0124328901079
 20
202.69996687140309
 30
0.0
 11
185.95843089010799
 21
202.4399668714031
 31
0.0
  0
LINE
  5
1A192
  8
AM_0
 10
185.95842589010789
 20
202.43998087140309
 30
0.0
 11
185.94042789010791
 21
202.17897387140309
 31
0.0
  0
LINE
  5
1A193
  8
AM_0
 10
259.79075889010801
 20
202.17897587140311
 30
0.0
 11
259.77285689010802
 21
202.43997487140311
 31
0.0
  0
LINE
  5
1A194
  8
AM_0
 10
259.7728588901079
 20
202.4399658714031
 30
0.0
 11
259.71925889010799
 21
202.69995487140309
 31
0.0
  0
LINE
  5
1A195
  8
AM_0
 10
259.719256890108
 20
202.6999618714031
 30
0.0
 11
259.63055789010809
 21
202.95496487140309
 31
0.0
  0
LINE
  5
1A196
  8
AM_0
 10
259.63055289010799
 20
202.9549628714031
 30
0.0
 11
259.5072558901079
 21
203.20495887140311
 31
0.0
  0
LINE
  5
1A197
  8
AM_0
 10
259.50726989010809
 20
203.20498287140299
 30
0.0
 11
259.35036489010798
 21
203.4469918714031
 31
0.0
  0
LINE
  5
1A198
  8
AM_0
 10
259.35034689010809
 20
203.4469578714031
 30
0.0
 11
259.1610388901081
 21
203.67896187140309
 31
0.0
  0
LINE
  5
1A199
  8
AM_0
 10
259.16106289010798
 20
203.67897187140309
 30
0.0
 11
258.9406588901079
 21
203.8999708714031
 31
0.0
  0
LINE
  5
1A19A
  8
AM_0
 10
258.94066089010812
 20
203.8999818714031
 30
0.0
 11
258.69106389010813
 21
204.1069808714031
 31
0.0
  0
LINE
  5
1A19B
  8
AM_0
 10
258.69108189010808
 20
204.10698587140311
 30
0.0
 11
258.4140778901081
 21
204.2999968714031
 31
0.0
  0
LINE
  5
1A19C
  8
AM_0
 10
258.41407589010811
 20
204.29999187140311
 30
0.0
 11
258.111771890108
 21
204.47699587140309
 31
0.0
  0
LINE
  5
1A19D
  8
AM_0
 10
258.11176289010791
 20
204.47697287140309
 30
0.0
 11
257.786463890108
 21
204.6359678714031
 31
0.0
  0
LINE
  5
1A19E
  8
AM_0
 10
257.786463890108
 20
204.63598087140309
 30
0.0
 11
257.4406588901079
 21
204.7769748714031
 31
0.0
  0
LINE
  5
1A19F
  8
AM_0
 10
257.4406588901079
 20
204.77697087140311
 30
0.0
 11
257.07695889010802
 21
204.89797287140311
 31
0.0
  0
LINE
  5
1A1A0
  8
AM_0
 10
257.07696789010811
 20
204.8979908714031
 30
0.0
 11
256.69816189010822
 21
204.9979978714031
 31
0.0
  0
LINE
  5
1A1A1
  8
AM_0
 10
256.69816189010822
 20
204.99799387140311
 30
0.0
 11
256.30715889010798
 21
205.0769898714031
 31
0.0
  0
LINE
  5
1A1A2
  8
AM_0
 10
256.30715589010788
 20
205.07694787140309
 30
0.0
 11
255.90685589010809
 21
205.1329478714031
 31
0.0
  0
LINE
  5
1A1A3
  8
AM_0
 10
255.90686089010799
 20
205.1329498714031
 30
0.0
 11
255.500359890108
 21
205.1679538714032
 31
0.0
  0
LINE
  5
1A1A4
  8
AM_0
 10
255.500359890108
 20
205.16800087140311
 30
0.0
 11
255.09065689010799
 21
205.1790028714031
 31
0.0
  0
ARC
  5
1A1A5
  8
AM_0
 10
188.59876289010799
 20
231.93297987140309
 30
0.0
 40
6.0
 50
90.0
 51
179.99998199999911
  0
ARC
  5
1A1A6
  8
AM_0
 10
190.640423890108
 20
195.2989688714031
 30
0.0
 40
4.0
 50
179.99998199999911
 51
269.99996400000163
  0
ARC
  5
1A1A7
  8
AM_0
 10
190.640423890108
 20
226.88998087140311
 30
0.0
 40
4.0
 50
90.0
 51
179.99998199999911
  0
ARC
  5
1A1A8
  8
AM_0
 10
307.83685789010809
 20
211.09497487140311
 30
0.0
 40
122.221001
 50
172.57449400000041
 51
187.42550399999971
  0
ARC
  5
1A1A9
  8
AM_0
 10
252.89256789010801
 20
212.8629798714031
 30
0.0
 40
71.776710999999963
 50
169.93968699999891
 51
190.02400200000139
  0
ARC
  5
1A1AA
  8
AM_0
 10
188.59876289010799
 20
227.37496587140311
 30
0.0
 40
6.0
 50
90.0
 51
175.2037279999989
  0
ARC
  5
1A1AB
  8
AM_0
 10
188.59876289010799
 20
198.36597087140311
 30
0.0
 40
5.9999919999999971
 50
188.31313399999999
 51
263.06156699999713
  0
ARC
  5
1A1AC
  8
AM_0
 10
257.13385489010813
 20
231.93297987140309
 30
0.0
 40
6.0
 50
0.0000180000008345
 51
89.999964000001583
  0
ARC
  5
1A1AD
  8
AM_0
 10
255.09065689010799
 20
195.2989688714031
 30
0.0
 40
4.0
 50
269.99998099999289
 51
0.0000180000008345
  0
ARC
  5
1A1AE
  8
AM_0
 10
255.09065689010799
 20
226.88998087140311
 30
0.0
 40
4.0
 50
0.0000180000008345
 51
89.999944999994469
  0
ARC
  5
1A1AF
  8
AM_0
 10
137.89485589010789
 20
211.09497487140311
 30
0.0
 40
122.221001
 50
352.57495999999969
 51
7.4259640000013363
  0
ARC
  5
1A1B0
  8
AM_0
 10
192.83915389010801
 20
212.8629798714031
 30
0.0
 40
71.776702999999983
 50
349.97597100000041
 51
10.059970999999891
  0
ARC
  5
1A1B1
  8
AM_0
 10
257.13385489010813
 20
227.37496587140311
 30
0.0
 40
6.0
 50
4.7959859999997061
 51
89.999964000001583
  0
ARC
  5
1A1B2
  8
AM_0
 10
257.13385489010813
 20
198.36597087140311
 30
0.0
 40
6.0000049999999998
 50
276.9213300000024
 51
351.97358200000008
  0
LINE
  5
1A1BD
  8
AM_0
 10
816.92346921368915
 20
236.30398187140301
 30
0.0
 11
747.18036921368866
 21
236.30398187140301
 31
0.0
  0
LINE
  5
1A1BE
  8
AM_0
 10
738.12535121368865
 20
234.39900287140301
 30
0.0
 11
739.7733462136888
 21
237.9329668714031
 31
0.0
  0
LINE
  5
1A1BF
  8
AM_0
 10
739.7733462136888
 20
237.9329668714031
 30
0.0
 11
828.59146521368905
 21
196.51695787140301
 31
0.0
  0
LINE
  5
1A1C0
  8
AM_0
 10
826.94327221368894
 20
192.981986871403
 30
0.0
 11
828.59146521368905
 21
196.51695787140301
 31
0.0
  0
LINE
  5
1A1C1
  8
AM_0
 10
819.39026721368873
 20
193.347990871403
 30
0.0
 11
819.71166921368865
 21
194.03698287140301
 31
0.0
  0
LINE
  5
1A1C2
  8
AM_0
 10
743.09836921368901
 20
209.21798387140299
 30
0.0
 11
743.09836921368901
 21
229.591991871403
 31
0.0
  0
LINE
  5
1A1C3
  8
AM_0
 10
825.47587721368905
 20
192.45298387140301
 30
0.0
 11
738.6503722136888
 21
232.93998687140299
 31
0.0
  0
LINE
  5
1A1C4
  8
AM_0
 10
820.52346721368895
 20
200.27898787140299
 30
0.0
 11
820.52346721368895
 21
232.70399087140299
 31
0.0
  0
LINE
  5
1A1C5
  8
ﾁｭｳｼﾝｾﾝ1
 10
825.69966821368905
 20
216.30398187140301
 30
0.0
 11
817.10936721368876
 21
216.30398187140301
 31
0.0
  0
LINE
  5
1A1C6
  8
AM_0
 10
822.52346721368883
 20
227.90398787140299
 30
0.0
 11
822.52346721368883
 21
204.70399087140299
 31
0.0
  0
LINE
  5
1A1C7
  8
AM_0
 10
822.52346721368883
 20
227.90398787140299
 30
0.0
 11
821.52346721368883
 21
227.90398787140299
 31
0.0
  0
LINE
  5
1A1C8
  8
AM_0
 10
822.52346721368883
 20
204.70399087140299
 30
0.0
 11
821.52346721368883
 21
204.70399087140299
 31
0.0
  0
ARC
  5
1A1DC
  8
AM_0
 10
816.92346921368915
 20
232.70399087140299
 30
0.0
 40
3.5999979999999998
 50
0.0000179999992131
 51
89.999938999999088
  0
ARC
  5
1A1DD
  8
AM_0
 10
739.12237121368878
 20
233.93398687140299
 30
0.0
 40
1.100006
 50
155.00048599999701
 51
245.00017399999689
  0
ARC
  5
1A1DE
  8
AM_0
 10
825.94636821368886
 20
193.446987871403
 30
0.0
 40
1.0999959999999971
 50
244.99980500000311
 51
335.00019700000013
  0
ARC
  5
1A1DF
  8
AM_0
 10
750.69836721368881
 20
209.21798387140299
 30
0.0
 40
7.5999979999999967
 50
179.99998200000081
 51
251.09998400000291
  0
ARC
  5
1A1E0
  8
AM_0
 10
816.12756621368885
 20
194.868984871403
 30
0.0
 40
3.5999979999999998
 50
270.90597900000091
 51
335.00084299999878
  0
ARC
  5
1A1E1
  8
AM_0
 10
813.02106821368886
 20
391.2449758714032
 30
0.0
 40
200.0
 50
251.09999699999759
 51
270.9059479999969
  0
ARC
  5
1A1E2
  8
AM_0
 10
820.61796921368898
 20
193.614986871403
 30
0.0
 40
0.9999979999999998
 50
65.000642000004135
 51
155.00073199999949
  0
ARC
  5
1A1E3
  8
AM_0
 10
741.09836921368878
 20
229.591991871403
 30
0.0
 40
2.0
 50
0.0000179999992131
 51
64.99985000000342
  0
ARC
  5
1A1E4
  8
AM_0
 10
747.18036921368866
 20
233.70399087140299
 30
0.0
 40
2.600006
 50
90.0
 51
139.31386999999941
  0
ARC
  5
1A1E5
  8
AM_0
 10
821.52346721368883
 20
228.9039878714031
 30
0.0
 40
1.0
 50
179.99998200000081
 51
270.00105700000478
  0
ARC
  5
1A1E6
  8
AM_0
 10
821.52346721368883
 20
203.70399087140311
 30
0.0
 40
1.0
 50
90.0
 51
179.99998200000081
  0
LINE
  5
1A1E9
  8
ﾁｭｳｼﾝｾﾝ1
 10
783.02347121368882
 20
246.38869787140311
 30
0.0
 11
783.02347121368882
 21
232.40187587140301
 31
0.0
  0
ARC
  5
1A208
  8
AM_0
 10
207.847879890108
 20
396.7590918714032
 30
0.0
 40
1.0
 50
35.541602950210923
 51
146.45840555355201
  0
ARC
  5
1A210
  8
AM_0
 10
227.84787989010809
 20
397.2623958714031
 30
0.0
 40
1.0
 50
25.382532079111431
 51
156.6174764246515
  0
ARC
  5
1A213
  8
AM_0
 10
217.847879890108
 20
397.2623958714031
 30
0.0
 40
1.0
 50
14.78634267735152
 51
167.2136658264138
  0
ARC
  5
1A215
  8
AM_0
 10
222.86585689010801
 20
318.3039818714031
 30
0.0
 40
68.0
 50
160.25008203689799
 51
199.74991796310181
  0
ARC
  5
1A216
  8
AM_0
 10
222.86585689010801
 20
318.3039818714031
 30
0.0
 40
70.0
 50
156.10449573003461
 51
203.8955042699653
  0
ARC
  5
1A21B
  8
AM_0
 10
222.86585689010801
 20
318.3039818714031
 30
0.0
 40
73.5
 50
150.54571654538779
 51
209.45428345461221
  0
LINE
  5
1A21E
  8
AM_0
 10
159.86585689010801
 20
374.30398382805419
 30
0.0
 11
159.86585689010801
 21
368.30398307849589
 31
0.0
  0
LINE
  5
1A222
  8
AM_0
 10
148.86585689010801
 20
351.20906987140307
 30
0.0
 11
148.86585689010801
 21
343.3039818714031
 31
0.0
  0
ARC
  5
1A223
  8
AM_0
 10
154.86585689010801
 20
364.01924587140309
 30
0.0
 40
0.5
 50
90.0
 51
180.0
  0
LINE
  5
1A224
  8
AM_0
 10
154.36585689010801
 20
362.51924587140309
 30
0.0
 11
154.36585689010801
 21
364.01924587140309
 31
0.0
  0
ARC
  5
1A225
  8
AM_0
 10
154.86585689010801
 20
362.51924587140309
 30
0.0
 40
0.5
 50
180.0
 51
270.0
  0
LINE
  5
1A22F
  8
AM_0
 10
158.8658549520365
 20
361.66455529110698
 30
0.0
 11
154.82193389010811
 21
362.02117887140309
 31
0.0
  0
LINE
  5
1A230
  8
AM_0
 10
158.8658549520365
 20
365.41407843777768
 30
0.0
 11
154.75809989010801
 21
364.50749687140308
 31
0.0
  0
LINE
  5
1A23B
  8
AM_0
 10
143.90557189010809
 20
322.30459087140309
 30
0.0
 11
147.46540189010801
 21
322.18027887140312
 31
0.0
  0
ARC
  5
1A23C
  8
AM_0
 10
143.94047089010789
 20
323.3039818714031
 30
0.0
 40
1.0
 50
92.000000000003666
 51
267.99999999999642
  0
LINE
  5
1A23D
  8
AM_0
 10
143.90557189010809
 20
324.3033728714031
 30
0.0
 11
147.885075890108
 21
324.44233987140308
 31
0.0
  0
ARC
  5
1A23E
  8
AM_0
 10
147.39560289010799
 20
320.18149787140311
 30
0.0
 40
2.0
 50
358.57137199999943
 51
87.999999999996334
  0
ARC
  5
1A23F
  8
AM_0
 10
147.81527689010821
 20
326.44112187140308
 30
0.0
 40
2.0
 50
271.99999999999068
 51
359.27279499999958
  0
LINE
  5
1A240
  8
AM_0
 10
144.40887589010799
 20
332.30459087140321
 30
0.0
 11
148.3835058901081
 21
332.16579387140308
 31
0.0
  0
ARC
  5
1A241
  8
AM_0
 10
144.4437758901081
 20
333.3039818714031
 30
0.0
 40
1.0
 50
92.000000000003666
 51
267.99999999999642
  0
LINE
  5
1A242
  8
AM_0
 10
144.40887589010799
 20
334.3033728714031
 30
0.0
 11
149.6706428901079
 21
334.48711787140309
 31
0.0
  0
ARC
  5
1A243
  8
AM_0
 10
149.60084389010811
 20
336.48589887140309
 30
0.0
 40
2.0
 50
271.99999999999068
 51
346.07740300000057
  0
ARC
  5
1A244
  8
AM_0
 10
148.31370689010799
 20
330.16701187140319
 30
0.0
 40
2.0
 50
350.95410499999917
 51
87.999999999996334
  0
ARC
  5
1A245
  8
AM_0
 10
150.59935889010811
 20
340.12248187140312
 30
0.0
 40
2.0
 50
343.21534799999762
 51
87.999999999996334
  0
LINE
  5
1A246
  8
AM_0
 10
145.41933389010819
 20
342.30459087140321
 30
0.0
 11
150.6691578901079
 21
342.12126287140308
 31
0.0
  0
ARC
  5
1A247
  8
AM_0
 10
145.4542328901079
 20
343.3039818714031
 30
0.0
 40
1.0
 50
92.000000000003666
 51
267.99999999999642
  0
LINE
  5
1A248
  8
AM_0
 10
145.41933389010819
 20
344.3033728714031
 30
0.0
 11
148.86585689010801
 21
344.42372787140312
 31
0.0
  0
ARC
  5
1A249
  8
AM_0
 10
152.86521989010791
 20
346.5646078714031
 30
0.0
 40
2.0
 50
271.99999999999068
 51
338.03549900000138
  0
ARC
  5
1A24A
  8
AM_0
 10
154.16542989010799
 20
349.59588387140309
 30
0.0
 40
2.0
 50
335.53245499999912
 51
84.482415999997869
  0
ARC
  5
1A24B
  8
AM_0
 10
146.97969189010789
 20
353.3039818714031
 30
0.0
 40
1.0
 50
94.613729999995016
 51
264.4824159999979
  0
ARC
  5
1A24C
  8
AM_0
 10
157.875856890108
 20
357.19304687140311
 30
0.0
 40
2.0
 50
274.61372999999497
 51
299.66968643811839
  0
ARC
  5
1A25B
  8
AM_0
 10
150.02538789010799
 20
343.3039818714031
 30
0.0
 40
1.1595309999999981
 50
92.000000000003666
 51
270.0
  0
LINE
  5
1A25C
  8
AM_0
 10
149.98492089010799
 20
344.46280687140319
 30
0.0
 11
152.93501889010801
 21
344.56582587140309
 31
0.0
  0
ARC
  5
1A25D
  8
AM_0
 10
147.86585689010801
 20
351.20906987140307
 30
0.0
 40
1.0
 50
0.0
 51
84.482415999997869
  0
LINE
  5
1A25E
  8
AM_0
 10
158.03673289010791
 20
355.19952787140312
 30
0.0
 11
146.89925489010801
 21
354.3007418714032
 31
0.0
  0
LINE
  5
1A25F
  8
AM_0
 10
154.35773289010811
 20
351.58661687140312
 30
0.0
 11
146.88354089010789
 21
352.30861487140311
 31
0.0
  0
LINE
  5
1A28C
  8
AM_0
 10
154.3577328901078
 20
285.02134687140313
 30
0.0
 11
146.88354089010789
 21
284.29934887140308
 31
0.0
  0
LINE
  5
1A28D
  8
AM_0
 10
158.03673289010791
 20
281.40843587140313
 30
0.0
 11
146.89925489010801
 21
282.3072218714031
 31
0.0
  0
ARC
  5
1A28E
  8
AM_0
 10
147.86585689010801
 20
285.39889387140312
 30
0.0
 40
1.0
 50
275.5175840000021
 51
0.0
  0
LINE
  5
1A28F
  8
AM_0
 10
149.98492089010799
 20
292.14515687140312
 30
0.0
 11
152.93501889010801
 21
292.0421378714031
 31
0.0
  0
ARC
  5
1A290
  8
AM_0
 10
150.02538789010799
 20
293.3039818714031
 30
0.0
 40
1.1595309999999981
 50
90.0
 51
267.99999999999642
  0
ARC
  5
1A2AC
  8
AM_0
 10
157.875856890108
 20
279.41491687140319
 30
0.0
 40
2.0
 50
60.33031356188453
 51
85.386270000004984
  0
ARC
  5
1A2AD
  8
AM_0
 10
146.97969189010789
 20
283.3039818714031
 30
0.0
 40
1.0
 50
95.517584000002117
 51
265.38627000000503
  0
ARC
  5
1A2AE
  8
AM_0
 10
154.16542989010799
 20
287.0120798714031
 30
0.0
 40
2.0
 50
275.5175840000021
 51
24.467545000000911
  0
ARC
  5
1A2AF
  8
AM_0
 10
152.86521989010791
 20
290.04335587140309
 30
0.0
 40
2.0
 50
21.964500999998702
 51
87.999999999996334
  0
LINE
  5
1A2B0
  8
AM_0
 10
145.41933389010819
 20
292.30459087140321
 30
0.0
 11
148.86585689010801
 21
292.18423587140308
 31
0.0
  0
ARC
  5
1A2B1
  8
AM_0
 10
145.4542328901079
 20
293.3039818714031
 30
0.0
 40
1.0
 50
92.000000000003666
 51
267.99999999999642
  0
LINE
  5
1A2B2
  8
AM_0
 10
145.41933389010819
 20
294.3033728714031
 30
0.0
 11
150.6691578901079
 21
294.48670087140312
 31
0.0
  0
ARC
  5
1A2B3
  8
AM_0
 10
150.59935889010811
 20
296.48548187140312
 30
0.0
 40
2.0
 50
271.99999999999068
 51
16.784652000002399
  0
ARC
  5
1A2B4
  8
AM_0
 10
148.31370689010799
 20
306.44095187140312
 30
0.0
 40
2.0
 50
271.99999999999068
 51
9.0458950000009626
  0
ARC
  5
1A2B5
  8
AM_0
 10
149.60084389010811
 20
300.1220648714031
 30
0.0
 40
2.0
 50
13.92259699999941
 51
87.999999999996334
  0
LINE
  5
1A2B6
  8
AM_0
 10
144.40887589010799
 20
302.30459087140321
 30
0.0
 11
149.6706428901079
 21
302.12084587140311
 31
0.0
  0
ARC
  5
1A2B7
  8
AM_0
 10
144.4437758901081
 20
303.3039818714031
 30
0.0
 40
1.0
 50
92.000000000003666
 51
267.99999999999642
  0
LINE
  5
1A2B8
  8
AM_0
 10
144.40887589010799
 20
304.3033728714031
 30
0.0
 11
148.3835058901081
 21
304.44216987140311
 31
0.0
  0
ARC
  5
1A2B9
  8
AM_0
 10
147.81527689010821
 20
310.16684187140311
 30
0.0
 40
2.0
 50
0.7272050000003624
 51
87.999999999996334
  0
ARC
  5
1A2BA
  8
AM_0
 10
147.39560289010799
 20
316.42646587140308
 30
0.0
 40
2.0
 50
271.99999999999068
 51
1.4286280000005731
  0
LINE
  5
1A2BB
  8
AM_0
 10
143.90557189010809
 20
312.30459087140309
 30
0.0
 11
147.885075890108
 21
312.165623871403
 31
0.0
  0
ARC
  5
1A2BC
  8
AM_0
 10
143.94047089010789
 20
313.3039818714031
 30
0.0
 40
1.0
 50
92.000000000003666
 51
267.99999999999642
  0
LINE
  5
1A2BD
  8
AM_0
 10
143.90557189010809
 20
314.3033728714031
 30
0.0
 11
147.46540189010801
 21
314.42768487140319
 31
0.0
  0
LINE
  5
1A2C8
  8
AM_0
 10
158.8658549520365
 20
271.19388530502852
 30
0.0
 11
154.75809989010801
 21
272.10046687140311
 31
0.0
  0
LINE
  5
1A2C9
  8
AM_0
 10
158.8658549520365
 20
274.9434084516991
 30
0.0
 11
154.82193389010811
 21
274.5867848714031
 31
0.0
  0
ARC
  5
1A2D3
  8
AM_0
 10
154.86585689010801
 20
274.08871787140311
 30
0.0
 40
0.5
 50
90.0
 51
180.0
  0
LINE
  5
1A2D4
  8
AM_0
 10
154.36585689010801
 20
274.08871787140299
 30
0.0
 11
154.36585689010801
 21
272.58871787140299
 31
0.0
  0
ARC
  5
1A2D5
  8
AM_0
 10
154.86585689010801
 20
272.58871787140311
 30
0.0
 40
0.5
 50
180.0
 51
270.0
  0
LINE
  5
1A2D6
  8
AM_0
 10
148.86585689010801
 20
285.39889387140312
 30
0.0
 11
148.86585689010801
 21
293.3039818714031
 31
0.0
  0
LINE
  5
1A2DA
  8
AM_0
 10
159.86585689010801
 20
262.30397991475218
 30
0.0
 11
159.86585689010801
 21
268.30398066431019
 31
0.0
  0
LINE
  5
1A2E5
  8
AM_0
 10
189.36585689010801
 20
239.3039818714031
 30
0.0
 11
189.3560555361131
 21
239.60455843598899
 31
0.0
  0
LINE
  5
1A365
  8
AM_0
 10
256.36585689010798
 20
237.93297987140309
 30
0.0
 11
256.36585689010809
 21
238.4348930282606
 31
0.0
  0
LINE
  5
1A366
  8
AM_0
 10
189.36585689010801
 20
237.93297987140309
 30
0.0
 11
189.36585689010801
 21
239.3039818714031
 31
0.0
  0
LINE
  5
1A367
  8
AM_0
 10
206.57600215630561
 20
239.3039818714031
 30
0.0
 11
189.36585689010801
 21
239.3039818714031
 31
0.0
  0
ARC
  5
1A36C
  8
AM_0
 10
888.50459621368896
 20
239.8290518714031
 30
0.0
 40
2.0
 50
90.0
 51
119.688303000004
  0
LINE
  5
1A36D
  8
AM_0
 10
896.02347121368871
 20
241.8290518714031
 30
0.0
 11
888.50459621368896
 21
241.8290518714031
 31
0.0
  0
ARC
  5
1A36E
  8
AM_0
 10
890.44884421368886
 20
242.53492387140301
 30
0.0
 40
2.0
 50
90.0
 51
168.9150299999998
  0
LINE
  5
1A36F
  8
AM_0
 10
896.02347121368871
 20
244.53492387140301
 30
0.0
 11
890.44884421368886
 21
244.53492387140301
 31
0.0
  0
ARC
  5
1A370
  8
AM_0
 10
886.52347121368894
 20
243.30398187140301
 30
0.0
 40
2.0
 50
270.0
 51
0.000000000000007
  0
ARC
  5
1A371
  8
AM_0
 10
886.52347121368894
 20
251.803985871403
 30
0.0
 40
2.0
 50
270.0
 51
0.000000000000007
  0
LINE
  5
1A372
  8
AM_0
 10
888.52347121368905
 20
265.50446887140311
 30
0.0
 11
888.52347121368905
 21
243.30398187140301
 31
0.0
  0
LINE
  5
1A373
  8
AM_0
 10
896.02347121368871
 20
264.11668487140309
 30
0.0
 11
888.52347121368905
 21
264.11668487140309
 31
0.0
  0
LINE
  5
1A374
  8
AM_0
 10
896.02347121368871
 20
252.53998987140309
 30
0.0
 11
888.52347121368905
 21
252.53998987140309
 31
0.0
  0
LINE
  5
1A375
  8
AM_0
 10
896.02347121368871
 20
246.47982687140299
 30
0.0
 11
888.52347121368905
 21
246.47982687140299
 31
0.0
  0
ARC
  5
1A376
  8
AM_0
 10
738.52347321368882
 20
251.80397787140299
 30
0.0
 40
2.0
 50
180.00000199999951
 51
270.00000200000278
  0
LINE
  5
1A377
  8
AM_0
 10
886.52347121368894
 20
267.50446887140311
 30
0.0
 11
738.52347421368881
 21
267.50446887140311
 31
0.0
  0
LINE
  5
1A378
  8
AM_0
 10
886.52347121368894
 20
249.803985871403
 30
0.0
 11
738.51777021368866
 21
249.803985871403
 31
0.0
  0
LINE
  5
1A379
  8
AM_0
 10
736.52347121368882
 20
244.80398187140301
 30
0.0
 11
726.52347421368881
 21
244.80398187140301
 31
0.0
  0
LINE
  5
1A37A
  8
AM_0
 10
735.52347121368882
 20
255.26517387140299
 30
0.0
 11
726.52347321368882
 21
255.26517387140299
 31
0.0
  0
INSERT
  5
1A37B
  8
AM_0
  2
$6-44
 10
736.52347321368882
 20
261.69500587140311
 30
0.0
 42
-1.0
 50
90.0
  0
LINE
  5
1A37C
  8
AM_0
 10
888.52347121368905
 20
393.25676987140298
 30
0.0
 11
888.52347121368905
 21
390.21796587140312
 31
0.0
  0
ARC
  5
1A37D
  8
AM_0
 10
886.52347121368894
 20
384.80398587140309
 30
0.0
 40
2.0
 50
0.000000000000007
 51
90.0
  0
LINE
  5
1A37E
  8
AM_0
 10
896.02347121368871
 20
372.57858287140289
 30
0.0
 11
888.52347121368905
 21
372.57858287140289
 31
0.0
  0
LINE
  5
1A37F
  8
AM_0
 10
896.02347121368871
 20
384.1446018714031
 30
0.0
 11
888.52347121368905
 21
384.1446018714031
 31
0.0
  0
LINE
  5
1A380
  8
AM_0
 10
896.02347121368871
 20
390.21796587140312
 30
0.0
 11
888.52347121368905
 21
390.21796587140312
 31
0.0
  0
LINE
  5
1A381
  8
AM_0
 10
888.52347121368905
 20
394.78222787140299
 30
0.0
 11
888.52347121368905
 21
394.17895187140289
 31
0.0
  0
ARC
  5
1A382
  8
AM_0
 10
886.52347121368894
 20
393.25676987140298
 30
0.0
 40
2.0
 50
0.000000000000007
 51
90.0
  0
LINE
  5
1A383
  8
AM_0
 10
896.02347121368871
 20
396.1971268714031
 30
0.0
 11
890.04280021368868
 21
396.1971268714031
 31
0.0
  0
LINE
  5
1A384
  8
AM_0
 10
896.02347121368871
 20
394.88261487140289
 30
0.0
 11
890.37216021368874
 21
394.88261487140289
 31
0.0
  0
ARC
  5
1A385
  8
AM_0
 10
890.37216021368874
 20
396.88261487140289
 30
0.0
 40
2.0
 50
195.8096259999989
 51
270.0
  0
ARC
  5
1A386
  8
AM_0
 10
886.52347121368894
 20
395.79284787140313
 30
0.0
 40
2.0
 50
15.80962599999892
 51
90.0
  0
ARC
  5
1A387
  8
AM_0
 10
890.04280021368868
 20
398.1971268714031
 30
0.0
 40
2.0
 50
208.37785700000191
 51
270.0
  0
ARC
  5
1A388
  8
AM_0
 10
886.52347121368894
 20
396.29598987140309
 30
0.0
 40
2.0
 50
28.377856000002179
 51
90.0
  0
ARC
  5
1A389
  8
AM_0
 10
738.52347121368882
 20
384.80398587140309
 30
0.0
 40
2.0
 50
90.0
 51
180.0
  0
ARC
  5
1A38A
  8
AM_0
 10
739.65096321368867
 20
393.25676987140298
 30
0.0
 40
2.0
 50
90.0
 51
165.0000000000008
  0
LINE
  5
1A38B
  8
AM_0
 10
734.52347121368882
 20
381.84811587140302
 30
0.0
 11
737.71911121368885
 21
393.77440787140301
 31
0.0
  0
ARC
  5
1A38C
  8
AM_0
 10
738.68644721368867
 20
394.78222787140299
 30
0.0
 40
2.0
 50
90.0
 51
165.0000000000008
  0
LINE
  5
1A38D
  8
AM_0
 10
734.52347121368882
 20
386.97319887140299
 30
0.0
 11
736.75459521368896
 21
395.29986687140303
 31
0.0
  0
ARC
  5
1A38E
  8
AM_0
 10
738.1387532136888
 20
395.79284787140313
 30
0.0
 40
2.0
 50
90.0
 51
165.0000000000008
  0
LINE
  5
1A38F
  8
AM_0
 10
734.52347121368882
 20
390.027835871403
 30
0.0
 11
736.20690221368875
 21
396.31048587140299
 31
0.0
  0
ARC
  5
1A390
  8
AM_0
 10
737.85771921368882
 20
396.29598987140309
 30
0.0
 40
2.0
 50
90.0
 51
165.0000000000008
  0
LINE
  5
1A391
  8
AM_0
 10
734.52347121368882
 20
391.57981387140308
 30
0.0
 11
735.92586721368878
 21
396.8136288714029
 31
0.0
  0
ARC
  5
1A392
  8
AM_0
 10
890.52347121368882
 20
394.17895187140289
 30
0.0
 40
2.0
 50
180.0
 51
270.0
  0
ARC
  5
1A393
  8
AM_0
 10
886.52347121368894
 20
394.78222787140299
 30
0.0
 40
2.0
 50
0.000000000000007
 51
90.0
  0
LINE
  5
1A394
  8
AM_0
 10
896.02347121368871
 20
392.178951871403
 30
0.0
 11
890.52347121368882
 21
392.178951871403
 31
0.0
  0
LINE
  5
1A395
  8
AM_0
 10
888.52347121368905
 20
390.21796587140312
 30
0.0
 11
888.52347121368905
 21
371.17532187140313
 31
0.0
  0
INSERT
  5
1A396
  8
AM_0
  2
$6-44
 10
736.52347121368882
 20
374.91295887140302
 30
0.0
 41
-1.0
 50
270.0
  0
LINE
  5
1A397
  8
AM_0
 10
735.52347121368882
 20
381.34278987140311
 30
0.0
 11
726.52347121368882
 21
381.34278987140311
 31
0.0
  0
LINE
  5
1A398
  8
AM_0
 10
886.52347121368894
 20
369.17532187140313
 30
0.0
 11
738.52347121368882
 21
369.17532187140313
 31
0.0
  0
LINE
  5
1A399
  8
AM_0
 10
886.52347121368894
 20
398.29598987140309
 30
0.0
 11
737.85771921368882
 21
398.29598987140309
 31
0.0
  0
LINE
  5
1A39A
  8
AM_0
 10
886.52347121368894
 20
386.80398587140297
 30
0.0
 11
738.52347121368882
 21
386.80398587140297
 31
0.0
  0
LINE
  5
1A39B
  8
AM_0
 10
886.52347121368894
 20
395.25676987140298
 30
0.0
 11
739.65096321368867
 21
395.25676987140298
 31
0.0
  0
LINE
  5
1A39C
  8
AM_0
 10
886.52347121368894
 20
396.78222787140311
 30
0.0
 11
738.68644721368867
 21
396.78222787140311
 31
0.0
  0
LINE
  5
1A39D
  8
AM_0
 10
886.52347121368894
 20
397.79284787140313
 30
0.0
 11
738.1387532136888
 21
397.79284787140313
 31
0.0
  0
LINE
  5
1A39E
  8
AM_0
 10
816.52347121368882
 20
239.30398187140301
 30
0.0
 11
816.52347121368882
 21
236.30398187140301
 31
0.0
  0
LINE
  5
1A39F
  8
AM_0
 10
749.52347121368882
 20
239.30398187140301
 30
0.0
 11
749.52347121368882
 21
236.30398187140301
 31
0.0
  0
LINE
  5
1A3A0
  8
AM_0
 10
952.02347121368905
 20
257.51101187140313
 30
0.0
 11
952.02347121368905
 21
380.41894187140309
 31
0.0
  0
LINE
  5
1A3A1
  8
AM_0
 10
956.02310121368896
 20
255.70400187140311
 30
0.0
 11
956.02310121368896
 21
380.9039218714031
 31
0.0
  0
LINE
  5
1A3A2
  8
AM_0
 10
951.62351121368874
 20
385.57098187140298
 30
0.0
 11
950.50052121368878
 21
391.94195187140298
 31
0.0
  0
LINE
  5
1A3A3
  8
AM_0
 10
945.13840121368867
 20
396.68591187140299
 30
0.0
 11
919.49643121368865
 21
398.0299018714029
 31
0.0
  0
LINE
  5
1A3A4
  8
AM_0
 10
919.02347121368905
 20
239.24868187140311
 30
0.0
 11
919.02347121368905
 21
397.19055187140299
 31
0.0
  0
LINE
  5
1A3A5
  8
AM_0
 10
948.16153121368905
 20
390.3309318714031
 30
0.0
 11
948.16153121368905
 21
246.78396187140299
 31
0.0
  0
LINE
  5
1A3A6
  8
AM_0
 10
951.62351121368874
 20
251.03698187140299
 30
0.0
 11
950.50052121368878
 21
244.66692187140299
 31
0.0
  0
LINE
  5
1A3A7
  8
AM_0
 10
945.13846121368886
 20
239.92297187140301
 30
0.0
 11
919.49643121368865
 21
238.57897187140301
 31
0.0
  0
LINE
  5
1A3A8
  8
AM_0
 10
917.93045121368868
 20
399.053951871403
 30
0.0
 11
896.02347121368871
 21
399.053951871403
 31
0.0
  0
LINE
  5
1A3A9
  8
AM_0
 10
917.93045121368868
 20
237.5539818714031
 30
0.0
 11
896.02347121368871
 21
237.5539818714031
 31
0.0
  0
LINE
  5
1A3AA
  8
AM_0
 10
749.52347121368882
 20
241.30398187140301
 30
0.0
 11
749.52347121368882
 21
239.30398187140301
 31
0.0
  0
LINE
  5
1A3AB
  8
AM_0
 10
816.52347121368882
 20
241.30398187140301
 30
0.0
 11
816.52347121368882
 21
239.30398187140301
 31
0.0
  0
LINE
  5
1A3AC
  8
AM_0
 10
816.52347121368882
 20
239.30398187140301
 30
0.0
 11
749.52347121368882
 21
239.30398187140301
 31
0.0
  0
LINE
  5
1A3AD
  8
AM_0
 10
886.52347121368894
 20
241.30398187140301
 30
0.0
 11
739.7429512136888
 21
241.30398187140301
 31
0.0
  0
LINE
  5
1A3AE
  8
AM_0
 10
773.02347121368882
 20
344.30398187140298
 30
0.0
 11
896.02347121368871
 21
344.30398187140298
 31
0.0
  0
LINE
  5
1A3AF
  8
AM_0
 10
773.02347121368882
 20
292.30398187140298
 30
0.0
 11
896.02347121368871
 21
292.30398187140298
 31
0.0
  0
LINE
  5
1A3B0
  8
AM_0
 10
757.02347121368882
 20
345.30398187140298
 30
0.0
 11
757.02347121368882
 21
351.30398187140298
 31
0.0
  0
LINE
  5
1A3B1
  8
AM_0
 10
772.02347121368882
 20
345.30398187140298
 30
0.0
 11
772.02347121368882
 21
351.30398187140298
 31
0.0
  0
LINE
  5
1A3B2
  8
AM_0
 10
757.02347121368882
 20
291.30398187140298
 30
0.0
 11
757.02347121368882
 21
285.30398187140298
 31
0.0
  0
LINE
  5
1A3B3
  8
AM_0
 10
772.02347121368882
 20
291.30398187140298
 30
0.0
 11
772.02347121368882
 21
285.30398187140298
 31
0.0
  0
LINE
  5
1A3B4
  8
AM_0
 10
800.52347121368871
 20
338.80398187140298
 30
0.0
 11
800.52347121368871
 21
297.80398187140298
 31
0.0
  0
LINE
  5
1A3B5
  8
AM_0
 10
737.52347121368871
 20
338.80398187140298
 30
0.0
 11
737.52347121368871
 21
297.80398187140298
 31
0.0
  0
LINE
  5
1A3B6
  8
AM_0
 10
800.52347121368871
 20
338.80398187140298
 30
0.0
 11
737.52347121368871
 21
338.80398187140298
 31
0.0
  0
LINE
  5
1A3B7
  8
AM_0
 10
800.52347121368871
 20
297.80398187140298
 30
0.0
 11
737.52347121368871
 21
297.80398187140298
 31
0.0
  0
LINE
  5
1A3B8
  8
AM_0
 10
800.52347121368871
 20
331.3039818714031
 30
0.0
 11
737.52347121368871
 21
331.3039818714031
 31
0.0
  0
LINE
  5
1A3B9
  8
AM_0
 10
888.52347121368905
 20
321.30398187140298
 30
0.0
 11
888.52347121368905
 21
315.30398187140298
 31
0.0
  0
LINE
  5
1A3BA
  8
AM_0
 10
737.81137121368874
 20
242.78527187140301
 30
0.0
 11
736.8234612136888
 21
246.46395187140311
 31
0.0
  0
LINE
  5
1A3BB
  8
AM_0
 10
738.39945121368885
 20
242.78527187140301
 30
0.0
 11
736.8234612136888
 21
248.65399187140301
 31
0.0
  0
LINE
  5
1A3BC
  8
AM_0
 10
736.52347121368882
 20
281.34576187140311
 30
0.0
 11
736.52347121368882
 21
244.80398187140301
 31
0.0
  0
LINE
  5
1A3BD
  8
AM_0
 10
737.52347121368871
 20
294.30398187140298
 30
0.0
 11
896.02347121368871
 21
294.30398187140298
 31
0.0
  0
LINE
  5
1A3BE
  8
AM_0
 10
737.52347121368871
 20
292.30398187140298
 30
0.0
 11
756.02347121368882
 21
292.30398187140298
 31
0.0
  0
LINE
  5
1A3BF
  8
AM_0
 10
804.52347121368882
 20
302.3039818714031
 30
0.0
 11
896.02347121368871
 21
302.3039818714031
 31
0.0
  0
LINE
  5
1A3C0
  8
AM_0
 10
804.52347121368882
 20
304.3039818714031
 30
0.0
 11
896.02347121368871
 21
304.3039818714031
 31
0.0
  0
LINE
  5
1A3C1
  8
AM_0
 10
804.52347121368882
 20
312.30398187140298
 30
0.0
 11
896.02347121368871
 21
312.30398187140298
 31
0.0
  0
LINE
  5
1A3C2
  8
AM_0
 10
804.52347121368882
 20
314.30398187140298
 30
0.0
 11
887.52347121368882
 21
314.30398187140298
 31
0.0
  0
LINE
  5
1A3C3
  8
AM_0
 10
737.52347121368871
 20
272.30398187140298
 30
0.0
 11
896.02347121368871
 21
272.30398187140298
 31
0.0
  0
LINE
  5
1A3C4
  8
AM_0
 10
737.52347121368871
 20
284.30398187140298
 30
0.0
 11
896.02347121368871
 21
284.30398187140298
 31
0.0
  0
LINE
  5
1A3C5
  8
AM_0
 10
737.52347121368871
 20
282.30398187140298
 30
0.0
 11
896.02347121368871
 21
282.30398187140298
 31
0.0
  0
LINE
  5
1A3C6
  8
AM_0
 10
737.52347121368871
 20
274.30398187140298
 30
0.0
 11
896.02347121368871
 21
274.30398187140298
 31
0.0
  0
LINE
  5
1A3C7
  8
AM_0
 10
737.52347121368871
 20
362.30398187140298
 30
0.0
 11
896.02347121368871
 21
362.30398187140298
 31
0.0
  0
LINE
  5
1A3C8
  8
AM_0
 10
737.52347121368871
 20
354.3039818714031
 30
0.0
 11
896.02347121368871
 21
354.3039818714031
 31
0.0
  0
LINE
  5
1A3C9
  8
AM_0
 10
737.52347121368871
 20
352.3039818714031
 30
0.0
 11
896.02347121368871
 21
352.3039818714031
 31
0.0
  0
LINE
  5
1A3CA
  8
AM_0
 10
737.52347121368871
 20
364.30398187140298
 30
0.0
 11
896.02347121368871
 21
364.30398187140298
 31
0.0
  0
LINE
  5
1A3CB
  8
AM_0
 10
804.52347121368882
 20
322.30398187140298
 30
0.0
 11
887.52347121368882
 21
322.30398187140298
 31
0.0
  0
LINE
  5
1A3CC
  8
AM_0
 10
804.52347121368882
 20
324.30398187140298
 30
0.0
 11
896.02347121368871
 21
324.30398187140298
 31
0.0
  0
LINE
  5
1A3CD
  8
AM_0
 10
804.52347121368882
 20
332.30398187140298
 30
0.0
 11
896.02347121368871
 21
332.30398187140298
 31
0.0
  0
LINE
  5
1A3CE
  8
AM_0
 10
804.52347121368882
 20
334.30398187140298
 30
0.0
 11
896.02347121368871
 21
334.30398187140298
 31
0.0
  0
LINE
  5
1A3CF
  8
AM_0
 10
737.52347121368871
 20
344.30398187140298
 30
0.0
 11
756.02347121368882
 21
344.30398187140298
 31
0.0
  0
LINE
  5
1A3D0
  8
AM_0
 10
737.52347121368871
 20
342.30398187140298
 30
0.0
 11
896.02347121368871
 21
342.30398187140298
 31
0.0
  0
LINE
  5
1A3D1
  8
AM_0
 10
736.52347121368882
 20
355.26220187140302
 30
0.0
 11
736.52347121368882
 21
384.80398587140309
 31
0.0
  0
LINE
  5
1A3D2
  8
AM_0
 10
896.02347121368871
 20
399.053951871403
 30
0.0
 11
896.02347121368871
 21
237.5539818714031
 31
0.0
  0
ARC
  5
1A3D3
  8
AM_0
 10
919.52347121368894
 20
398.5289218714031
 30
0.0
 40
0.5
 50
204.45605000000089
 51
267.00003000000902
  0
ARC
  5
1A3D4
  8
AM_0
 10
944.83756121368901
 20
390.94396187140308
 30
0.0
 40
5.75
 50
10.0000200000001
 51
87.000013999997904
  0
ARC
  5
1A3D5
  8
AM_0
 10
917.93045121368868
 20
397.80395187140289
 30
0.0
 40
1.25
 50
24.456019999997679
 51
90.000011000008925
  0
ARC
  5
1A3D6
  8
AM_0
 10
953.77310121368873
 20
380.9039218714031
 30
0.0
 40
2.25
 50
0.0000200000003914
 51
81.183412000002988
  0
ARC
  5
1A3D7
  8
AM_0
 10
954.57779121368867
 20
386.09203187140298
 30
0.0
 40
3.0
 50
190.00004999999891
 51
261.18303000000259
  0
ARC
  5
1A3D8
  8
AM_0
 10
953.77310121368873
 20
255.70400187140311
 30
0.0
 40
2.25
 50
278.8170600000015
 51
0.0000200000003914
  0
ARC
  5
1A3D9
  8
AM_0
 10
954.57779121368867
 20
250.51602187140301
 30
0.0
 40
3.0
 50
98.816809000005733
 51
170.00016800000111
  0
ARC
  5
1A3DA
  8
AM_0
 10
919.52347121368894
 20
238.07998187140311
 30
0.0
 40
0.5
 50
93.000015000006712
 51
155.54360100000071
  0
ARC
  5
1A3DB
  8
AM_0
 10
944.83756121368901
 20
245.66494187140299
 30
0.0
 40
5.75
 50
273.00004999999709
 51
350.00002000000057
  0
ARC
  5
1A3DC
  8
AM_0
 10
917.93045121368868
 20
238.80398187140301
 30
0.0
 40
1.25
 50
270.00004000000399
 51
335.54403000000133
  0
ARC
  5
1A3DD
  8
AM_0
 10
739.7429512136888
 20
243.30398187140301
 30
0.0
 40
2.0
 50
195.03169000000159
 51
270.000010000001
  0
ARC
  5
1A3DE
  8
AM_0
 10
740.33103121368879
 20
243.30398187140301
 30
0.0
 40
2.0
 50
195.03169000000159
 51
270.000010000001
  0
ARC
  5
1A3DF
  8
AM_0
 10
756.02347121368882
 20
285.30398187140298
 30
0.0
 40
1.0
 50
270.0
 51
0.000009999999385
  0
ARC
  5
1A3E0
  8
AM_0
 10
773.02347121368882
 20
285.30398187140298
 30
0.0
 40
1.0
 50
179.9999990000002
 51
270.000010000001
  0
ARC
  5
1A3E1
  8
AM_0
 10
773.02347121368882
 20
351.30398187140298
 30
0.0
 40
1.0
 50
89.999997000002296
 51
180.0
  0
ARC
  5
1A3E2
  8
AM_0
 10
756.02347121368882
 20
351.30398187140298
 30
0.0
 40
1.0
 50
359.99999000000059
 51
89.999997000002296
  0
ARC
  5
1A3E3
  8
AM_0
 10
756.02347121368882
 20
291.30398187140298
 30
0.0
 40
1.0
 50
359.99999000000059
 51
89.999997000002296
  0
ARC
  5
1A3E4
  8
AM_0
 10
773.02347121368882
 20
291.30398187140298
 30
0.0
 40
1.0
 50
89.999997000002296
 51
180.0
  0
ARC
  5
1A3E5
  8
AM_0
 10
756.02347121368882
 20
345.30398187140298
 30
0.0
 40
1.0
 50
270.0
 51
0.000009999999385
  0
ARC
  5
1A3E6
  8
AM_0
 10
773.02347121368882
 20
345.30398187140298
 30
0.0
 40
1.0
 50
179.9999990000002
 51
270.000010000001
  0
CIRCLE
  5
1A3E7
  8
AM_0
 10
762.02347121368882
 20
346.80398187140298
 30
0.0
 40
1.0
  0
CIRCLE
  5
1A3E8
  8
AM_0
 10
767.02347121368882
 20
346.80398187140298
 30
0.0
 40
1.149999999999999
  0
CIRCLE
  5
1A3E9
  8
AM_0
 10
767.02347121368882
 20
346.80398187140298
 30
0.0
 40
1.1000000000000001
  0
CIRCLE
  5
1A3EA
  8
AM_0
 10
767.02347121368882
 20
289.80398187140298
 30
0.0
 40
1.1000000000000001
  0
CIRCLE
  5
1A3EB
  8
AM_0
 10
767.02347121368882
 20
289.80398187140298
 30
0.0
 40
1.149999999999999
  0
CIRCLE
  5
1A3EC
  8
AM_0
 10
762.02347121368882
 20
289.80398187140298
 30
0.0
 40
1.0
  0
ARC
  5
1A3ED
  8
AM_0
 10
804.52347121368882
 20
333.3039818714031
 30
0.0
 40
1.0
 50
89.999997000002296
 51
270.000010000001
  0
ARC
  5
1A3EE
  8
AM_0
 10
804.52347121368882
 20
323.3039818714031
 30
0.0
 40
1.0
 50
89.999997000002296
 51
270.000010000001
  0
ARC
  5
1A3EF
  8
AM_0
 10
804.52347121368882
 20
313.30398187140298
 30
0.0
 40
1.0
 50
89.999997000002296
 51
270.000010000001
  0
ARC
  5
1A3F0
  8
AM_0
 10
804.52347121368882
 20
303.30398187140298
 30
0.0
 40
1.0
 50
89.999997000002296
 51
270.000010000001
  0
ARC
  5
1A3F1
  8
AM_0
 10
739.47348121368884
 20
283.3039818714031
 30
0.0
 40
1.0
 50
89.999997000002296
 51
270.000010000001
  0
ARC
  5
1A3F2
  8
AM_0
 10
737.52347121368871
 20
283.3039818714031
 30
0.0
 40
1.0
 50
89.999997000002296
 51
270.000010000001
  0
ARC
  5
1A3F3
  8
AM_0
 10
739.47348121368884
 20
293.30398187140298
 30
0.0
 40
1.0
 50
89.999997000002296
 51
270.000010000001
  0
ARC
  5
1A3F4
  8
AM_0
 10
737.52347121368871
 20
293.30398187140298
 30
0.0
 40
1.0
 50
89.999997000002296
 51
270.000010000001
  0
ARC
  5
1A3F5
  8
AM_0
 10
739.47348121368884
 20
343.30398187140298
 30
0.0
 40
1.0
 50
89.999997000002296
 51
270.000010000001
  0
ARC
  5
1A3F6
  8
AM_0
 10
737.52347121368871
 20
343.30398187140298
 30
0.0
 40
1.0
 50
89.999997000002296
 51
270.000010000001
  0
ARC
  5
1A3F7
  8
AM_0
 10
739.47348121368884
 20
353.30398187140298
 30
0.0
 40
1.0
 50
89.999997000002296
 51
270.000010000001
  0
ARC
  5
1A3F8
  8
AM_0
 10
737.52347121368871
 20
353.30398187140298
 30
0.0
 40
1.0
 50
89.999997000002296
 51
270.000010000001
  0
ARC
  5
1A3F9
  8
AM_0
 10
887.52347121368882
 20
321.30398187140298
 30
0.0
 40
1.0
 50
359.99999000000059
 51
89.999997000002296
  0
ARC
  5
1A3FA
  8
AM_0
 10
887.52347121368882
 20
315.30398187140298
 30
0.0
 40
1.0
 50
270.0
 51
0.000009999999385
  0
ARC
  5
1A3FB
  8
AM_0
 10
887.52350121368875
 20
303.30398187140298
 30
0.0
 40
1.0
 50
270.0
 51
89.999997000002296
  0
ARC
  5
1A3FC
  8
AM_0
 10
887.52350121368875
 20
293.30398187140298
 30
0.0
 40
1.0
 50
270.0
 51
89.999997000002296
  0
ARC
  5
1A3FD
  8
AM_0
 10
739.47348121368884
 20
273.3039818714031
 30
0.0
 40
1.0
 50
89.999997000002296
 51
270.000010000001
  0
ARC
  5
1A3FE
  8
AM_0
 10
737.52347121368871
 20
273.3039818714031
 30
0.0
 40
1.0
 50
89.999997000002296
 51
270.000010000001
  0
ARC
  5
1A3FF
  8
AM_0
 10
887.52350121368875
 20
273.3039818714031
 30
0.0
 40
1.0
 50
270.0
 51
89.999997000002296
  0
ARC
  5
1A400
  8
AM_0
 10
887.52350121368875
 20
283.3039818714031
 30
0.0
 40
1.0
 50
270.0
 51
89.999997000002296
  0
ARC
  5
1A401
  8
AM_0
 10
735.37741121368867
 20
246.08358187140311
 30
0.0
 40
1.4952499999999991
 50
14.737399999997869
 51
39.962349999997599
  0
ARC
  5
1A402
  8
AM_0
 10
735.38248121368883
 20
248.25948187140301
 30
0.0
 40
1.4940209999999989
 50
15.30965999999974
 51
40.207419999997448
  0
ARC
  5
1A403
  8
AM_0
 10
735.37931121368865
 20
392.07104187140311
 30
0.0
 40
1.495147999999999
 50
344.99378699999983
 51
344.9981099999988
  0
ARC
  5
1A404
  8
AM_0
 10
887.52350121368875
 20
353.30398187140298
 30
0.0
 40
1.0
 50
270.0
 51
89.999997000002296
  0
ARC
  5
1A405
  8
AM_0
 10
887.52350121368875
 20
363.30398187140298
 30
0.0
 40
1.0
 50
270.0
 51
89.999997000002296
  0
ARC
  5
1A406
  8
AM_0
 10
737.52347121368871
 20
363.30398187140298
 30
0.0
 40
1.0
 50
89.999997000002296
 51
270.000010000001
  0
ARC
  5
1A407
  8
AM_0
 10
739.47348121368884
 20
363.30398187140298
 30
0.0
 40
1.0
 50
89.999997000002296
 51
270.000010000001
  0
ARC
  5
1A408
  8
AM_0
 10
887.52350121368875
 20
343.30398187140298
 30
0.0
 40
1.0
 50
270.0
 51
89.999997000002296
  0
ARC
  5
1A409
  8
AM_0
 10
887.52350121368875
 20
333.3039818714031
 30
0.0
 40
1.0
 50
270.0
 51
89.999997000002296
  0
LINE
  5
1A40A
  8
AM_0
 10
726.52346521368884
 20
391.80398687140303
 30
0.0
 11
734.58353821368883
 21
391.80398687140303
 31
0.0
  0
LINE
  5
1A40B
  8
AM_0
 10
735.52347121368882
 20
281.34576187140311
 30
0.0
 11
726.52347121368882
 21
281.34576187140311
 31
0.0
  0
LINE
  5
1A40C
  8
AM_0
 10
735.52347121368882
 20
355.26220187140302
 30
0.0
 11
726.52347121368882
 21
355.26220187140302
 31
0.0
  0
ARC
  5
1A56A
  8
ｶｸﾚｾﾝ2
 10
822.83892013401578
 20
711.66610636122675
 30
0.0
 40
5.600000999999998
 50
0.0000570000018385
 51
86.163036999997345
  0
ARC
  5
1A56B
  8
ｶｸﾚｾﾝ2
 10
783.02352513401581
 20
117.99973136122679
 30
0.0
 40
600.59997599999986
 50
86.163054000001424
 51
93.966012999997957
  0
ARC
  5
1A56C
  8
ｶｸﾚｾﾝ2
 10
741.72941913401576
 20
713.5699073612268
 30
0.0
 40
3.6000059999999978
 50
93.965998999997851
 51
180.00001799999919
  0
LINE
  5
1A56D
  8
ｶｸﾚｾﾝ2
 10
738.12942913401582
 20
713.58038836122682
 30
0.0
 11
738.12942913401582
 21
640.12184536122675
 31
0.0
  0
ARC
  5
1A56E
  8
ｶｸﾚｾﾝ2
 10
741.72941913401576
 20
640.12970636122668
 30
0.0
 40
3.5999989999999982
 50
180.00001799999919
 51
266.03374400000092
  0
ARC
  5
1A56F
  8
ｶｸﾚｾﾝ2
 10
783.02352513401615
 20
1235.699683361227
 30
0.0
 40
600.59997599999986
 50
266.03376000000389
 51
273.83691000000061
  0
LINE
  5
1A570
  8
ｶｸﾚｾﾝ2
 10
828.43892313401579
 20
642.03330736122666
 30
0.0
 11
828.43892313401579
 21
711.66611136122685
 31
0.0
  0
ARC
  5
1A571
  8
ｶｸﾚｾﾝ2
 10
822.83892013401578
 20
642.03330836122666
 30
0.0
 40
5.5999980000000003
 50
273.83706200000711
 51
359.99998200000078
  0
ARC
  5
1A572
  8
AM_0
 10
739.34714413401582
 20
601.95354236122671
 30
0.0
 40
2.0
 50
194.99999700000171
 51
270.0
  0
ARC
  5
1A573
  8
AM_0
 10
737.53190013401581
 20
610.34970736122671
 30
0.0
 40
2.0
 50
195.00000000000071
 51
270.0
  0
LINE
  5
1A574
  8
AM_0
 10
736.52352513401559
 20
604.34970736122659
 30
0.0
 11
736.52352513401559
 21
604.76402436122657
 31
0.0
  0
ARC
  5
1A575
  8
AM_0
 10
735.52602213401576
 20
604.34721036122664
 30
0.0
 40
0.9975059999999999
 50
269.85657800000951
 51
0.1434219999970843
  0
LINE
  5
1A576
  8
AM_0
 10
736.52352513401559
 20
604.3447133612267
 30
0.0
 11
736.52352513401559
 21
604.34970736122659
 31
0.0
  0
LINE
  5
1A577
  8
AM_0
 10
736.61108113401565
 20
604.43726336122666
 30
0.0
 11
736.52352513401559
 21
604.34970736122659
 31
0.0
  0
LINE
  5
1A578
  8
AM_0
 10
734.52352513401581
 20
613.84970736122671
 30
0.0
 11
735.60004813401565
 21
609.83206936122679
 31
0.0
  0
LINE
  5
1A579
  8
AM_0
 10
735.5235251340157
 20
603.34970736122671
 30
0.0
 11
726.52352513401581
 21
603.34970736122671
 31
0.0
  0
LINE
  5
1A57A
  8
AM_0
 10
734.52352513401581
 20
612.22812636122671
 30
0.0
 11
737.41529213401566
 21
601.43590436122656
 31
0.0
  0
ARC
  5
1A57B
  8
AM_0
 10
735.5235251340157
 20
614.84970736122671
 30
0.0
 40
1.0
 50
270.0
 51
0.0
  0
ARC
  5
1A57C
  8
AM_0
 10
805.52352513401593
 20
598.98750936122667
 30
0.0
 40
2.0
 50
180.0
 51
270.0
  0
ARC
  5
1A57D
  8
AM_0
 10
805.52352513401593
 20
599.41478736122667
 30
0.0
 40
2.0
 50
180.0
 51
270.0
  0
ARC
  5
1A57E
  8
AM_0
 10
805.52352513401593
 20
600.42013836122669
 30
0.0
 40
2.0
 50
193.49131100000079
 51
270.0
  0
LINE
  5
1A57F
  8
AM_0
 10
803.5235251340157
 20
598.98750936122667
 30
0.0
 11
803.5235251340157
 21
599.9535423612266
 31
0.0
  0
ARC
  5
1A580
  8
AM_0
 10
886.5235251340157
 20
598.98750936122667
 30
0.0
 40
2.0
 50
270.0
 51
0.0
  0
LINE
  5
1A581
  8
AM_0
 10
888.52352513401593
 20
600.96535136122691
 30
0.0
 11
888.52352513401593
 21
600.42013836122669
 31
0.0
  0
ARC
  5
1A582
  8
AM_0
 10
886.67407513401577
 20
599.41478736122667
 30
0.0
 40
2.0
 50
270.0
 51
344.23045299999831
  0
ARC
  5
1A583
  8
AM_0
 10
890.52352513401581
 20
598.32771236122676
 30
0.0
 40
2.0
 50
90.0
 51
164.23045299999831
  0
ARC
  5
1A584
  8
AM_0
 10
886.5235251340157
 20
600.42013836122669
 30
0.0
 40
2.0
 50
270.0
 51
0.0
  0
ARC
  5
1A585
  8
AM_0
 10
890.52352513401581
 20
600.96535136122691
 30
0.0
 40
2.0
 50
90.0
 51
180.0
  0
ARC
  5
1A586
  8
AM_0
 10
886.5235251340157
 20
601.95354236122671
 30
0.0
 40
2.0
 50
270.0
 51
0.0
  0
ARC
  5
1A587
  8
AM_0
 10
890.52352513401581
 20
605.3213403612267
 30
0.0
 40
2.0
 50
90.0
 51
180.0
  0
LINE
  5
1A588
  8
AM_0
 10
888.52352513401593
 20
605.3213403612267
 30
0.0
 11
888.52352513401593
 21
601.95354236122671
 31
0.0
  0
ARC
  5
1A589
  8
AM_0
 10
890.52352513401581
 20
623.94865736122676
 30
0.0
 40
2.0
 50
90.0
 51
180.0
  0
LINE
  5
1A58A
  8
AM_0
 10
888.52352513401593
 20
611.49378836122673
 30
0.0
 11
888.52352513401593
 21
623.94865736122676
 31
0.0
  0
ARC
  5
1A58B
  8
AM_0
 10
886.5235251340157
 20
610.34970736122671
 30
0.0
 40
2.0
 50
270.0
 51
0.0
  0
ARC
  5
1A58C
  8
AM_0
 10
890.52352513401581
 20
611.49378836122673
 30
0.0
 40
2.0
 50
90.0
 51
180.0
  0
LINE
  5
1A58D
  8
AM_0
 10
888.52352513401593
 20
611.49378836122673
 30
0.0
 11
888.52352513401593
 21
610.34970736122671
 31
0.0
  0
LINE
  5
1A58E
  8
AM_0
 10
890.52352513401559
 20
600.32771236122665
 30
0.0
 11
896.02953613401576
 21
600.32771236122665
 31
0.0
  0
LINE
  5
1A58F
  8
AM_0
 10
890.52352513401559
 20
602.96535136122668
 30
0.0
 11
896.02953613401576
 21
602.96535136122668
 31
0.0
  0
LINE
  5
1A590
  8
AM_0
 10
890.52352513401559
 20
607.3213403612267
 30
0.0
 11
896.02953613401576
 21
607.3213403612267
 31
0.0
  0
LINE
  5
1A591
  8
AM_0
 10
890.52352513401559
 20
613.49378836122673
 30
0.0
 11
896.02953613401576
 21
613.49378836122673
 31
0.0
  0
LINE
  5
1A592
  8
AM_0
 10
886.5235251340157
 20
596.98750936122678
 30
0.0
 11
805.52352513401593
 21
596.98750936122678
 31
0.0
  0
LINE
  5
1A593
  8
AM_0
 10
886.67407513401577
 20
597.41478736122679
 30
0.0
 11
805.52352513401593
 21
597.41478736122679
 31
0.0
  0
LINE
  5
1A594
  8
AM_0
 10
886.5235251340157
 20
598.42013836122658
 30
0.0
 11
805.52352513401593
 21
598.42013836122658
 31
0.0
  0
LINE
  5
1A595
  8
AM_0
 10
886.5235251340157
 20
599.9535423612266
 30
0.0
 11
739.34714413401582
 21
599.9535423612266
 31
0.0
  0
LINE
  5
1A596
  8
AM_0
 10
886.5235251340157
 20
608.34970736122659
 30
0.0
 11
737.53190013401581
 21
608.34970736122659
 31
0.0
  0
LINE
  5
1A597
  8
AM_0
 10
896.0295361340161
 20
625.94865736122665
 30
0.0
 11
738.02352513401581
 21
625.94865736122665
 31
0.0
  0
ARC
  5
1A598
  8
AM_0
 10
737.53190013401615
 20
743.34970736122682
 30
0.0
 40
2.0
 50
90.0
 51
164.99999999999929
  0
ARC
  5
1A599
  8
AM_0
 10
735.52602213401576
 20
749.35220436122677
 30
0.0
 40
0.9975059999999999
 50
359.85657800000291
 51
90.143421999990593
  0
LINE
  5
1A59A
  8
AM_0
 10
736.61108113401565
 20
749.26215136122676
 30
0.0
 11
736.52352513401581
 21
749.34970736122671
 31
0.0
  0
LINE
  5
1A59B
  8
AM_0
 10
736.52352513401581
 20
749.35470136122683
 30
0.0
 11
736.52352513401581
 21
749.34970736122671
 31
0.0
  0
LINE
  5
1A59C
  8
AM_0
 10
736.52352513401581
 20
749.34970736122671
 30
0.0
 11
736.52352513401581
 21
748.93539036122684
 31
0.0
  0
ARC
  5
1A59D
  8
AM_0
 10
739.34714413401605
 20
751.74587236122682
 30
0.0
 40
2.0
 50
90.0
 51
165.0000029999982
  0
LINE
  5
1A59E
  8
AM_0
 10
735.5235251340157
 20
750.34970736122682
 30
0.0
 11
726.52352513401581
 21
750.34970736122682
 31
0.0
  0
LINE
  5
1A59F
  8
AM_0
 10
734.52352513401581
 20
739.84970736122682
 30
0.0
 11
735.60004813401565
 21
743.86734536122685
 31
0.0
  0
LINE
  5
1A5A0
  8
AM_0
 10
734.52352513401581
 20
741.47128836122681
 30
0.0
 11
737.415292134016
 21
752.26351036122685
 31
0.0
  0
ARC
  5
1A5A1
  8
AM_0
 10
735.52352513401615
 20
738.84970736122682
 30
0.0
 40
1.0
 50
0.0
 51
90.0
  0
LINE
  5
1A5A2
  8
AM_0
 10
886.5235251340157
 20
755.27927636122683
 30
0.0
 11
805.52352513401593
 21
755.27927636122683
 31
0.0
  0
LINE
  5
1A5A3
  8
AM_0
 10
886.67407513401577
 20
756.28462736122685
 30
0.0
 11
805.52352513401593
 21
756.28462736122685
 31
0.0
  0
LINE
  5
1A5A4
  8
AM_0
 10
886.5235251340157
 20
756.71190536122685
 30
0.0
 11
805.52352513401593
 21
756.71190536122685
 31
0.0
  0
LINE
  5
1A5A5
  8
AM_0
 10
888.52352513401593
 20
742.20562636122679
 30
0.0
 11
888.52352513401593
 21
743.34970736122682
 31
0.0
  0
ARC
  5
1A5A6
  8
AM_0
 10
890.52352513401615
 20
742.20562636122679
 30
0.0
 40
2.0
 50
180.0
 51
270.0
  0
ARC
  5
1A5A7
  8
AM_0
 10
886.52352513401615
 20
743.34970736122682
 30
0.0
 40
2.0
 50
0.0
 51
90.0
  0
LINE
  5
1A5A8
  8
AM_0
 10
888.52352513401593
 20
742.20562636122679
 30
0.0
 11
888.52352513401593
 21
729.75075736122665
 31
0.0
  0
ARC
  5
1A5A9
  8
AM_0
 10
890.52352513401581
 20
729.75075736122665
 30
0.0
 40
2.0
 50
180.0
 51
270.0
  0
ARC
  5
1A5AA
  8
AM_0
 10
890.52352513401615
 20
755.37170236122665
 30
0.0
 40
2.0
 50
195.76954700000161
 51
270.0
  0
ARC
  5
1A5AB
  8
AM_0
 10
890.52352513401615
 20
752.73406336122684
 30
0.0
 40
2.0
 50
180.0
 51
270.0
  0
ARC
  5
1A5AC
  8
AM_0
 10
890.52352513401615
 20
748.37807436122682
 30
0.0
 40
2.0
 50
180.0
 51
270.0
  0
LINE
  5
1A5AD
  8
AM_0
 10
888.52352513401593
 20
748.37807436122682
 30
0.0
 11
888.52352513401593
 21
751.74587236122682
 31
0.0
  0
ARC
  5
1A5AE
  8
AM_0
 10
886.52352513401615
 20
751.74587236122682
 30
0.0
 40
2.0
 50
0.0
 51
90.0
  0
ARC
  5
1A5AF
  8
AM_0
 10
886.52352513401615
 20
753.27927636122683
 30
0.0
 40
2.0
 50
0.0
 51
90.0
  0
ARC
  5
1A5B0
  8
AM_0
 10
886.67407513401611
 20
754.28462736122685
 30
0.0
 40
2.0
 50
15.769547000001641
 51
90.0
  0
LINE
  5
1A5B1
  8
AM_0
 10
888.52352513401593
 20
752.73406336122684
 30
0.0
 11
888.52352513401593
 21
753.27927636122683
 31
0.0
  0
ARC
  5
1A5B2
  8
AM_0
 10
886.52352513401615
 20
754.71190536122685
 30
0.0
 40
2.0
 50
0.0
 51
90.0
  0
LINE
  5
1A5B3
  8
AM_0
 10
803.5235251340157
 20
754.71190536122685
 30
0.0
 11
803.5235251340157
 21
753.7458723612267
 31
0.0
  0
ARC
  5
1A5B4
  8
AM_0
 10
805.52352513401593
 20
753.27927636122683
 30
0.0
 40
2.0
 50
90.0
 51
166.50868899999909
  0
ARC
  5
1A5B5
  8
AM_0
 10
805.52352513401593
 20
754.28462736122685
 30
0.0
 40
2.0
 50
90.0
 51
180.0
  0
ARC
  5
1A5B6
  8
AM_0
 10
805.52352513401593
 20
754.71190536122685
 30
0.0
 40
2.0
 50
90.0
 51
180.0
  0
LINE
  5
1A5B7
  8
AM_0
 10
890.52352513401581
 20
740.20562636122668
 30
0.0
 11
896.0295361340161
 21
740.20562636122668
 31
0.0
  0
LINE
  5
1A5B8
  8
AM_0
 10
886.5235251340157
 20
745.34970736122682
 30
0.0
 11
737.53190013401581
 21
745.34970736122682
 31
0.0
  0
LINE
  5
1A5B9
  8
AM_0
 10
896.0295361340161
 20
727.75075736122665
 30
0.0
 11
738.02352513401581
 21
727.75075736122665
 31
0.0
  0
LINE
  5
1A5BA
  8
AM_0
 10
886.5235251340157
 20
753.7458723612267
 30
0.0
 11
739.34714413401582
 21
753.7458723612267
 31
0.0
  0
LINE
  5
1A5BB
  8
AM_0
 10
890.52352513401581
 20
753.37170236122665
 30
0.0
 11
896.0295361340161
 21
753.37170236122665
 31
0.0
  0
LINE
  5
1A5BC
  8
AM_0
 10
890.52352513401581
 20
750.73406336122684
 30
0.0
 11
896.0295361340161
 21
750.73406336122684
 31
0.0
  0
LINE
  5
1A5BD
  8
AM_0
 10
890.52352513401581
 20
746.37807436122682
 30
0.0
 11
896.0295361340161
 21
746.37807436122682
 31
0.0
  0
LINE
  5
1A5BE
  8
AM_0
 10
736.52352513401581
 20
720.67964936122678
 30
0.0
 11
736.52352513401581
 21
713.03964936122668
 31
0.0
  0
LINE
  5
1A5BF
  8
AM_0
 10
736.52352513401581
 20
633.01970736122678
 30
0.0
 11
736.52352513401581
 21
640.65970736122665
 31
0.0
  0
ARC
  5
1A5C0
  8
AM_0
 10
735.52416413401579
 20
723.89123836122678
 30
0.0
 40
1.0026319999999971
 50
180.05408499999839
 51
261.2437590000074
  0
LINE
  5
1A5C1
  8
AM_0
 10
735.37153213401598
 20
722.90029136122666
 30
0.0
 11
737.13033113401582
 21
722.62970736122679
 31
0.0
  0
LINE
  5
1A5C2
  8
AM_0
 10
735.38153213401586
 20
720.81029136122675
 30
0.0
 11
736.9842201340158
 21
721.02970736122677
 31
0.0
  0
ARC
  5
1A5C3
  8
AM_0
 10
735.52850013401599
 20
719.81408736122683
 30
0.0
 40
1.0069859999999999
 50
98.392163000008765
 51
179.64700200000121
  0
LINE
  5
1A5C4
  8
AM_0
 10
734.52153213401584
 20
719.82029136122685
 30
0.0
 11
734.52153213401584
 21
723.89029136122679
 31
0.0
  0
ARC
  5
1A5C5
  8
AM_0
 10
737.06488813401597
 20
721.84364736122677
 30
0.0
 40
0.8033630000000001
 50
180.23932999999789
 51
269.76067000000859
  0
ARC
  5
1A5C6
  8
AM_0
 10
737.06659413401599
 20
721.83522936122677
 30
0.0
 40
0.8050779999999997
 50
90.360250999995046
 51
179.63974899999829
  0
ARC
  5
1A5C7
  8
AM_0
 10
735.52850013401599
 20
633.8853273612267
 30
0.0
 40
1.0069859999999999
 50
180.35299799999879
 51
261.60783699999132
  0
LINE
  5
1A5C8
  8
AM_0
 10
735.38153213401586
 20
632.88912336122667
 30
0.0
 11
736.9842201340158
 21
632.66970736122676
 31
0.0
  0
ARC
  5
1A5C9
  8
AM_0
 10
735.52416413401579
 20
629.80817636122674
 30
0.0
 40
1.0026319999999971
 50
98.756240999992571
 51
179.94591500000149
  0
LINE
  5
1A5CA
  8
AM_0
 10
734.52153213401584
 20
633.87912336122656
 30
0.0
 11
734.52153213401584
 21
629.80912336122674
 31
0.0
  0
LINE
  5
1A5CB
  8
AM_0
 10
735.37153213401598
 20
630.79912336122675
 30
0.0
 11
737.13033113401582
 21
631.06970736122673
 31
0.0
  0
ARC
  5
1A5CC
  8
AM_0
 10
737.06488813401597
 20
631.85576736122675
 30
0.0
 40
0.8033630000000001
 50
90.239329999991384
 51
179.76067000000199
  0
ARC
  5
1A5CD
  8
AM_0
 10
737.06659413401599
 20
631.86418536122687
 30
0.0
 40
0.8050779999999997
 50
180.36025100000151
 51
269.63974899999192
  0
LINE
  5
1A5CE
  8
AM_0
 10
736.52352513401581
 20
710.69964936122676
 30
0.0
 11
736.52352513401581
 21
702.94964936122665
 31
0.0
  0
ARC
  5
1A5CF
  8
AM_0
 10
735.53049313401584
 20
709.82350336122681
 30
0.0
 40
1.0069859999999999
 50
98.392163000008765
 51
179.64700200000121
  0
LINE
  5
1A5D0
  8
AM_0
 10
735.38352513401583
 20
710.81970736122685
 30
0.0
 11
737.06352413401601
 21
711.04970736122675
 31
0.0
  0
LINE
  5
1A5D1
  8
AM_0
 10
735.37352513401584
 20
712.90970736122676
 30
0.0
 11
737.06352413401601
 21
712.64970736122666
 31
0.0
  0
ARC
  5
1A5D2
  8
AM_0
 10
737.06858713401584
 20
711.84464536122675
 30
0.0
 40
0.8050779999999997
 50
90.361225999993863
 51
179.63974899999829
  0
ARC
  5
1A5D3
  8
AM_0
 10
737.06688113401583
 20
711.85306336122665
 30
0.0
 40
0.8033630000000001
 50
180.23932999999789
 51
270.23918299999508
  0
ARC
  5
1A5D4
  8
AM_0
 10
735.52615713401565
 20
713.90065336122666
 30
0.0
 40
1.0026319999999971
 50
180.05408499999839
 51
261.2437590000074
  0
LINE
  5
1A5D5
  8
AM_0
 10
734.52352513401581
 20
709.82970736122684
 30
0.0
 11
734.52352513401581
 21
713.89970736122677
 31
0.0
  0
LINE
  5
1A5D6
  8
AM_0
 10
736.52352513401581
 20
642.99970736122657
 30
0.0
 11
736.52352513401581
 21
650.74970736122668
 31
0.0
  0
LINE
  5
1A5D7
  8
AM_0
 10
735.38352513401583
 20
642.87970736122656
 30
0.0
 11
737.06352413401601
 21
642.64970736122666
 31
0.0
  0
ARC
  5
1A5D8
  8
AM_0
 10
735.53049313401584
 20
643.87591136122671
 30
0.0
 40
1.0069859999999999
 50
180.35299799999879
 51
261.60783699999132
  0
ARC
  5
1A5D9
  8
AM_0
 10
735.52615713401565
 20
639.79876136122687
 30
0.0
 40
1.0026319999999971
 50
98.756240999992571
 51
179.94591500000149
  0
LINE
  5
1A5DA
  8
AM_0
 10
734.52352513401581
 20
643.86970736122657
 30
0.0
 11
734.52352513401581
 21
639.79970736122675
 31
0.0
  0
LINE
  5
1A5DB
  8
AM_0
 10
735.37352513401584
 20
640.78970736122665
 30
0.0
 11
737.06352413401601
 21
641.04970736122675
 31
0.0
  0
ARC
  5
1A5DC
  8
AM_0
 10
737.06858713401584
 20
641.85476936122689
 30
0.0
 40
0.8050779999999997
 50
180.36025100000151
 51
269.63877399999308
  0
ARC
  5
1A5DD
  8
AM_0
 10
737.06688113401583
 20
641.84635136122688
 30
0.0
 40
0.8033630000000001
 50
89.760816999991818
 51
179.76067000000199
  0
LINE
  5
1A5DE
  8
AM_0
 10
736.52352513401581
 20
638.98576236122665
 30
0.0
 11
726.52352513401581
 21
638.98576236122665
 31
0.0
  0
LINE
  5
1A5DF
  8
AM_0
 10
736.52352513401581
 20
714.70365236122677
 30
0.0
 11
726.52352513401581
 21
714.70365236122677
 31
0.0
  0
POINT
  5
1A5E0
  8
AM_0
 10
783.02352513401581
 20
676.84970736122671
 30
0.0
  0
LINE
  5
1A5E1
  8
AM_0
 10
738.02352513401581
 20
710.69964936122676
 30
0.0
 11
738.02352513401581
 21
702.94964936122665
 31
0.0
  0
LINE
  5
1A5E2
  8
AM_0
 10
738.02352513401581
 20
700.76964936122681
 30
0.0
 11
738.02352513401581
 21
692.89964936122681
 31
0.0
  0
LINE
  5
1A5E3
  8
AM_0
 10
738.02352513401581
 20
690.81964936122665
 30
0.0
 11
738.02352513401581
 21
682.86964936122672
 31
0.0
  0
LINE
  5
1A5E4
  8
AM_0
 10
738.02352513401581
 20
680.83964936122675
 30
0.0
 11
738.02352513401581
 21
672.8597073612267
 31
0.0
  0
LINE
  5
1A5E5
  8
AM_0
 10
738.02352513401581
 20
670.82970736122672
 30
0.0
 11
738.02352513401581
 21
662.87970736122656
 31
0.0
  0
LINE
  5
1A5E6
  8
AM_0
 10
738.02352513401581
 20
660.79970736122675
 30
0.0
 11
738.02352513401581
 21
652.92970736122675
 31
0.0
  0
LINE
  5
1A5E7
  8
AM_0
 10
738.02352513401581
 20
650.74970736122668
 30
0.0
 11
738.02352513401581
 21
642.99970736122657
 31
0.0
  0
LINE
  5
1A5E8
  8
AM_0
 10
738.02352513401581
 20
640.65970736122665
 30
0.0
 11
738.02352513401581
 21
633.01970736122678
 31
0.0
  0
LINE
  5
1A5E9
  8
AM_0
 10
735.53430513401565
 20
739.84964936122685
 30
0.0
 11
726.52352513401581
 21
739.84964936122685
 31
0.0
  0
LINE
  5
1A5EA
  8
AM_0
 10
735.5235251340157
 20
613.84970736122671
 30
0.0
 11
726.52352513401581
 21
613.84970736122671
 31
0.0
  0
LINE
  5
1A5EB
  8
AM_0
 10
896.02953613401576
 20
596.09970736122671
 30
0.0
 11
896.0295361340161
 21
757.59964936122685
 31
0.0
  0
LINE
  5
1A5EC
  8
AM_0
 10
738.02352513401581
 20
720.67964936122678
 30
0.0
 11
738.02352513401581
 21
713.03964936122668
 31
0.0
  0
LINE
  5
1A5ED
  8
AM_0
 10
738.02352513401581
 20
727.75069936122668
 30
0.0
 11
738.02352513401581
 21
723.01964936122681
 31
0.0
  0
LINE
  5
1A5EE
  8
AM_0
 10
735.38352513401583
 20
680.81970736122685
 30
0.0
 11
736.82352513401565
 21
681.01685036122672
 31
0.0
  0
LINE
  5
1A5EF
  8
AM_0
 10
735.37352513401584
 20
682.90970736122665
 30
0.0
 11
736.82352513401565
 21
682.68663036122689
 31
0.0
  0
LINE
  5
1A5F0
  8
AM_0
 10
734.52352513401581
 20
679.82970736122672
 30
0.0
 11
734.52352513401581
 21
683.89970736122677
 31
0.0
  0
LINE
  5
1A5F1
  8
AM_0
 10
735.38352513401583
 20
690.81970736122685
 30
0.0
 11
736.82352513401565
 21
691.01685036122683
 31
0.0
  0
LINE
  5
1A5F2
  8
AM_0
 10
735.37352513401584
 20
692.90970736122665
 30
0.0
 11
736.82352513401565
 21
692.68663036122678
 31
0.0
  0
LINE
  5
1A5F3
  8
AM_0
 10
734.52352513401581
 20
689.82970736122684
 30
0.0
 11
734.52352513401581
 21
693.89970736122666
 31
0.0
  0
LINE
  5
1A5F4
  8
AM_0
 10
735.37352513401584
 20
702.90970736122665
 30
0.0
 11
736.82352513401565
 21
702.68663036122666
 31
0.0
  0
LINE
  5
1A5F5
  8
AM_0
 10
735.38352513401583
 20
700.81970736122685
 30
0.0
 11
736.82352513401565
 21
701.01685036122683
 31
0.0
  0
LINE
  5
1A5F6
  8
AM_0
 10
734.52352513401581
 20
699.82970736122684
 30
0.0
 11
734.52352513401581
 21
703.89970736122666
 31
0.0
  0
ARC
  5
1A5F7
  8
AM_0
 10
737.07192013401584
 20
681.84970736122671
 30
0.0
 40
0.8000439999999999
 50
108.08794099999641
 51
251.9120590000035
  0
ARC
  5
1A5F8
  8
AM_0
 10
735.52615713401565
 20
683.90065336122666
 30
0.0
 40
1.0026319999999971
 50
180.05408499999839
 51
261.2437590000074
  0
ARC
  5
1A5F9
  8
AM_0
 10
735.53049313401584
 20
679.82350336122659
 30
0.0
 40
1.0069859999999999
 50
98.392163000008765
 51
179.64700200000121
  0
ARC
  5
1A5FA
  8
AM_0
 10
737.06858713401584
 20
691.84464536122675
 30
0.0
 40
0.8050779999999997
 50
107.72179000000889
 51
179.63974899999829
  0
ARC
  5
1A5FB
  8
AM_0
 10
735.52615713401565
 20
693.90065336122677
 30
0.0
 40
1.0026319999999971
 50
180.05408499999839
 51
261.2437590000074
  0
ARC
  5
1A5FC
  8
AM_0
 10
735.53049313401584
 20
689.82350336122681
 30
0.0
 40
1.0069859999999999
 50
98.392163000008765
 51
179.64700200000121
  0
ARC
  5
1A5FD
  8
AM_0
 10
737.06688113401583
 20
701.85306336122665
 30
0.0
 40
0.8033630000000001
 50
180.23932999999789
 51
252.36684999999679
  0
ARC
  5
1A5FE
  8
AM_0
 10
737.06858713401584
 20
701.84464536122675
 30
0.0
 40
0.8050779999999997
 50
107.72179000000889
 51
179.63974899999829
  0
ARC
  5
1A5FF
  8
AM_0
 10
735.53049313401584
 20
699.8235033612267
 30
0.0
 40
1.0069859999999999
 50
98.392163000008765
 51
179.64700200000121
  0
ARC
  5
1A600
  8
AM_0
 10
735.52615713401565
 20
703.90065336122666
 30
0.0
 40
1.0026319999999971
 50
180.05408499999839
 51
261.2437590000074
  0
ARC
  5
1A601
  8
AM_0
 10
737.06688113401583
 20
691.85306336122676
 30
0.0
 40
0.8033630000000001
 50
180.23932999999789
 51
252.36684999999679
  0
LINE
  5
1A602
  8
AM_0
 10
736.52352513401581
 20
690.81964936122665
 30
0.0
 11
736.52352513401581
 21
682.86964936122672
 31
0.0
  0
LINE
  5
1A603
  8
AM_0
 10
736.52352513401581
 20
700.76964936122681
 30
0.0
 11
736.52352513401581
 21
692.89964936122681
 31
0.0
  0
ARC
  5
1A604
  8
AM_0
 10
919.36169513401592
 20
596.61695836122658
 30
0.0
 40
0.5
 50
92.999753000009036
 51
155.24659000000389
  0
ARC
  5
1A605
  8
AM_0
 10
944.90133313401589
 20
604.21372136122659
 30
0.0
 40
5.7500059999999991
 50
272.99988300000922
 51
350.0000479999967
  0
ARC
  5
1A606
  8
AM_0
 10
917.77248813401593
 20
597.34970736122671
 30
0.0
 40
1.25
 50
269.99998200000078
 51
334.62363899999889
  0
LINE
  5
1A607
  8
AM_0
 10
917.7724881340157
 20
596.09970736122671
 30
0.0
 11
896.02352513401559
 21
596.09970736122671
 31
0.0
  0
LINE
  5
1A608
  8
AM_0
 10
919.3355291340157
 20
597.11627336122672
 30
0.0
 11
945.20219913401559
 21
598.47177636122672
 31
0.0
  0
LINE
  5
1A609
  8
AM_0
 10
888.52352513401593
 20
641.04970736122675
 30
0.0
 11
737.06351113401581
 21
641.04970736122675
 31
0.0
  0
LINE
  5
1A60A
  8
AM_0
 10
888.52352513401593
 20
642.99970736122657
 30
0.0
 11
735.03422013401575
 21
642.99970736122657
 31
0.0
  0
LINE
  5
1A60B
  8
AM_0
 10
952.02474613401603
 20
742.59366836122683
 30
0.0
 11
952.02474613401557
 21
611.10568836122673
 31
0.0
  0
LINE
  5
1A60C
  8
AM_0
 10
951.62500213401552
 20
609.23269636122677
 30
0.0
 11
950.56414013401582
 21
603.21522036122678
 31
0.0
  0
ARC
  5
1A60D
  8
AM_0
 10
954.57943413401586
 20
608.71167636122675
 30
0.0
 40
2.999997
 50
96.369370999990636
 51
170.00017400000181
  0
ARC
  5
1A60E
  8
AM_0
 10
954.02474613401591
 20
613.68081036122669
 30
0.0
 40
2.0
 50
276.36937099999068
 51
0.0
  0
LINE
  5
1A60F
  8
AM_0
 10
888.52352513401593
 20
630.91837536122659
 30
0.0
 11
888.52352513401593
 21
647.56815036122669
 31
0.0
  0
LINE
  5
1A610
  8
AM_0
 10
896.0295361340161
 20
630.91837536122659
 30
0.0
 11
888.52352513401593
 21
630.91837536122659
 31
0.0
  0
LINE
  5
1A611
  8
AM_0
 10
896.0295361340161
 20
631.32970736122672
 30
0.0
 11
888.52352513401593
 21
631.32970736122672
 31
0.0
  0
LINE
  5
1A612
  8
AM_0
 10
896.0295361340161
 20
641.84970736122659
 30
0.0
 11
888.52352513401593
 21
641.84970736122659
 31
0.0
  0
LINE
  5
1A613
  8
AM_0
 10
896.0295361340161
 20
647.56815036122669
 30
0.0
 11
888.52352513401593
 21
647.56815036122669
 31
0.0
  0
LINE
  5
1A614
  8
AM_0
 10
738.02352513401581
 20
625.94865736122665
 30
0.0
 11
737.90737013401599
 21
624.74073136122672
 31
0.0
  0
LINE
  5
1A615
  8
AM_0
 10
736.52352513401559
 20
614.84970736122671
 30
0.0
 11
736.52352513401581
 21
630.67970736122675
 31
0.0
  0
LINE
  5
1A616
  8
AM_0
 10
738.02352513401581
 20
625.94865736122665
 30
0.0
 11
738.02352513401581
 21
630.67970736122675
 31
0.0
  0
LINE
  5
1A617
  8
AM_0
 10
736.52352513401581
 20
652.92970736122675
 30
0.0
 11
736.52352513401581
 21
660.79970736122675
 31
0.0
  0
LINE
  5
1A618
  8
AM_0
 10
736.52352513401581
 20
662.87970736122656
 30
0.0
 11
736.52352513401581
 21
670.82970736122672
 31
0.0
  0
LINE
  5
1A619
  8
AM_0
 10
888.52352513401593
 20
633.01970736122678
 30
0.0
 11
735.01398613401568
 21
633.01970736122678
 31
0.0
  0
LINE
  5
1A61A
  8
AM_0
 10
896.0295361340161
 20
630.67970736122675
 30
0.0
 11
735.02847713401582
 21
630.67970736122675
 31
0.0
  0
LINE
  5
1A61B
  8
AM_0
 10
888.52352513401593
 20
632.66970736122676
 30
0.0
 11
736.9842201340158
 21
632.66970736122676
 31
0.0
  0
LINE
  5
1A61C
  8
AM_0
 10
888.52352513401593
 20
631.06970736122673
 30
0.0
 11
737.13033113401582
 21
631.06970736122673
 31
0.0
  0
LINE
  5
1A61D
  8
AM_0
 10
736.82352513401565
 20
672.64970736122666
 30
0.0
 11
896.0295361340161
 21
672.64970736122666
 31
0.0
  0
LINE
  5
1A61E
  8
AM_0
 10
736.82352513401565
 20
671.04970736122675
 30
0.0
 11
896.0295361340161
 21
671.04970736122675
 31
0.0
  0
LINE
  5
1A61F
  8
AM_0
 10
896.0295361340161
 20
672.8597073612267
 30
0.0
 11
735.52961213401579
 21
672.8597073612267
 31
0.0
  0
LINE
  5
1A620
  8
AM_0
 10
896.0295361340161
 20
670.82970736122672
 30
0.0
 11
735.63352513401583
 21
670.82970736122672
 31
0.0
  0
LINE
  5
1A621
  8
AM_0
 10
896.0295361340161
 20
662.87970736122656
 30
0.0
 11
735.38352513401583
 21
662.87970736122656
 31
0.0
  0
LINE
  5
1A622
  8
AM_0
 10
896.0295361340161
 20
652.92970736122675
 30
0.0
 11
735.18593713401583
 21
652.92970736122675
 31
0.0
  0
LINE
  5
1A623
  8
AM_0
 10
896.0295361340161
 20
650.74970736122668
 30
0.0
 11
735.18593713401583
 21
650.74970736122668
 31
0.0
  0
ARC
  5
1A624
  8
AM_0
 10
737.06688113401583
 20
661.84635136122688
 30
0.0
 40
0.8033630000000001
 50
107.6331500000031
 51
179.76067000000199
  0
ARC
  5
1A625
  8
AM_0
 10
735.52615713401565
 20
649.79876136122675
 30
0.0
 40
1.0026319999999971
 50
98.756240999992571
 51
179.94591500000149
  0
ARC
  5
1A626
  8
AM_0
 10
735.53049313401584
 20
653.8759113612266
 30
0.0
 40
1.0069859999999999
 50
180.35299799999879
 51
261.60783699999132
  0
ARC
  5
1A627
  8
AM_0
 10
737.06858713401584
 20
651.85476936122666
 30
0.0
 40
0.8050779999999997
 50
180.36025100000151
 51
252.27820999999091
  0
ARC
  5
1A628
  8
AM_0
 10
737.06688113401583
 20
651.84635136122665
 30
0.0
 40
0.8033630000000001
 50
107.6331500000031
 51
179.76067000000199
  0
ARC
  5
1A629
  8
AM_0
 10
735.53049313401584
 20
663.87591136122671
 30
0.0
 40
1.0069859999999999
 50
180.35299799999879
 51
261.60783699999132
  0
ARC
  5
1A62A
  8
AM_0
 10
735.52615713401565
 20
659.79876136122675
 30
0.0
 40
1.0026319999999971
 50
98.756240999992571
 51
179.94591500000149
  0
ARC
  5
1A62B
  8
AM_0
 10
737.06858713401584
 20
661.85476936122689
 30
0.0
 40
0.8050779999999997
 50
180.36025100000151
 51
252.27820999999091
  0
ARC
  5
1A62C
  8
AM_0
 10
735.53049313401584
 20
673.87591136122671
 30
0.0
 40
1.0069859999999999
 50
180.35299799999879
 51
261.60783699999132
  0
ARC
  5
1A62D
  8
AM_0
 10
735.52615713401565
 20
669.79876136122675
 30
0.0
 40
1.0026319999999971
 50
98.756240999992571
 51
179.94591500000149
  0
ARC
  5
1A62E
  8
AM_0
 10
737.07192013401584
 20
671.84970736122671
 30
0.0
 40
0.8000439999999999
 50
108.08794099999641
 51
251.9120590000035
  0
LINE
  5
1A62F
  8
AM_0
 10
888.52352513401593
 20
640.65970736122665
 30
0.0
 11
735.01230613401583
 21
640.65970736122665
 31
0.0
  0
LINE
  5
1A630
  8
AM_0
 10
896.0295361340161
 20
660.79970736122675
 30
0.0
 11
735.47352513401597
 21
660.79970736122675
 31
0.0
  0
LINE
  5
1A631
  8
AM_0
 10
896.0295361340161
 20
661.04970736122675
 30
0.0
 11
736.82352513401565
 21
661.04970736122675
 31
0.0
  0
LINE
  5
1A632
  8
AM_0
 10
896.0295361340161
 20
662.64970736122666
 30
0.0
 11
736.82352513401565
 21
662.64970736122666
 31
0.0
  0
LINE
  5
1A633
  8
AM_0
 10
896.0295361340161
 20
652.64970736122677
 30
0.0
 11
736.82352513401565
 21
652.64970736122677
 31
0.0
  0
LINE
  5
1A634
  8
AM_0
 10
896.0295361340161
 20
651.04970736122687
 30
0.0
 11
736.83212613401565
 21
651.04970736122687
 31
0.0
  0
LINE
  5
1A635
  8
AM_0
 10
888.52352513401593
 20
642.64970736122666
 30
0.0
 11
737.06352713401566
 21
642.64970736122666
 31
0.0
  0
LINE
  5
1A636
  8
AM_0
 10
734.52352513401581
 20
653.86970736122669
 30
0.0
 11
734.52352513401581
 21
649.79970736122675
 31
0.0
  0
LINE
  5
1A637
  8
AM_0
 10
735.38352513401583
 20
652.87970736122668
 30
0.0
 11
736.82352513401565
 21
652.6825643612267
 31
0.0
  0
LINE
  5
1A638
  8
AM_0
 10
735.37352513401584
 20
650.78970736122676
 30
0.0
 11
736.82352513401565
 21
651.01278436122675
 31
0.0
  0
LINE
  5
1A639
  8
AM_0
 10
734.52352513401581
 20
663.86970736122669
 30
0.0
 11
734.52352513401581
 21
659.79970736122675
 31
0.0
  0
LINE
  5
1A63A
  8
AM_0
 10
735.37352513401584
 20
660.78970736122665
 30
0.0
 11
736.82352513401565
 21
661.01278436122675
 31
0.0
  0
LINE
  5
1A63B
  8
AM_0
 10
735.38352513401583
 20
662.87970736122656
 30
0.0
 11
736.82352513401565
 21
662.68256436122658
 31
0.0
  0
LINE
  5
1A63C
  8
AM_0
 10
734.52352513401581
 20
673.86970736122657
 30
0.0
 11
734.52352513401581
 21
669.79970736122687
 31
0.0
  0
LINE
  5
1A63D
  8
AM_0
 10
735.37352513401584
 20
670.78970736122687
 30
0.0
 11
736.82352513401565
 21
671.01278436122675
 31
0.0
  0
LINE
  5
1A63E
  8
AM_0
 10
735.38352513401583
 20
672.87970736122656
 30
0.0
 11
736.82352513401565
 21
672.6825643612267
 31
0.0
  0
ARC
  5
1A63F
  8
AM_0
 10
919.36169513401592
 20
757.08239836122675
 30
0.0
 40
0.5
 50
204.75340999999599
 51
267.00024699999102
  0
ARC
  5
1A640
  8
AM_0
 10
944.90133313401589
 20
749.48563536122685
 30
0.0
 40
5.7500059999999991
 50
9.9999520000033471
 51
87.000116999990794
  0
ARC
  5
1A641
  8
AM_0
 10
917.77248813401593
 20
756.34964936122685
 30
0.0
 40
1.25
 50
25.376361000001069
 51
90.000017999999173
  0
LINE
  5
1A642
  8
AM_0
 10
917.77248813401593
 20
757.59964936122685
 30
0.0
 11
896.02352513401604
 21
757.59964936122685
 31
0.0
  0
LINE
  5
1A643
  8
AM_0
 10
919.33552913401593
 20
756.58308336122684
 30
0.0
 11
945.20219913401581
 21
755.22758036122684
 31
0.0
  0
LINE
  5
1A644
  8
AM_0
 10
919.02290813401578
 20
597.0998903612267
 30
0.0
 11
919.02290813401589
 21
756.59946636122686
 31
0.0
  0
LINE
  5
1A645
  8
AM_0
 10
948.97054713401599
 20
750.81168536122675
 30
0.0
 11
948.97054713401565
 21
602.88767136122669
 31
0.0
  0
LINE
  5
1A646
  8
AM_0
 10
956.02474613401569
 20
613.68081036122669
 30
0.0
 11
956.02474613401591
 21
740.01854636122664
 31
0.0
  0
LINE
  5
1A647
  8
AM_0
 10
951.62500213401586
 20
744.46666036122679
 30
0.0
 11
950.56414013401604
 21
750.48413636122677
 31
0.0
  0
ARC
  5
1A648
  8
AM_0
 10
954.57943413401597
 20
744.98768036122681
 30
0.0
 40
2.999997
 50
189.999825999998
 51
263.63062900000932
  0
ARC
  5
1A649
  8
AM_0
 10
954.02474613401591
 20
740.01854636122675
 30
0.0
 40
2.0
 50
0.0
 51
83.630629000009378
  0
LINE
  5
1A64A
  8
AM_0
 10
888.52352513401593
 20
722.78098136122685
 30
0.0
 11
888.52352513401593
 21
706.13120636122665
 31
0.0
  0
LINE
  5
1A64B
  8
AM_0
 10
896.0295361340161
 20
722.78098136122685
 30
0.0
 11
888.52352513401593
 21
722.78098136122685
 31
0.0
  0
LINE
  5
1A64C
  8
AM_0
 10
896.0295361340161
 20
722.36964936122683
 30
0.0
 11
888.52352513401593
 21
722.36964936122683
 31
0.0
  0
LINE
  5
1A64D
  8
AM_0
 10
896.0295361340161
 20
711.84964936122685
 30
0.0
 11
888.52352513401593
 21
711.84964936122685
 31
0.0
  0
LINE
  5
1A64E
  8
AM_0
 10
896.0295361340161
 20
706.13120636122665
 30
0.0
 11
888.52352513401593
 21
706.13120636122665
 31
0.0
  0
LINE
  5
1A64F
  8
AM_0
 10
738.02352513401581
 20
727.75069936122668
 30
0.0
 11
737.90736513401566
 21
728.95868436122669
 31
0.0
  0
LINE
  5
1A650
  8
AM_0
 10
736.52352513401581
 20
738.84970736122682
 30
0.0
 11
736.52352513401581
 21
723.01964936122681
 31
0.0
  0
LINE
  5
1A651
  8
AM_0
 10
736.52352513401581
 20
672.8597073612267
 30
0.0
 11
736.52352513401581
 21
680.83964936122675
 31
0.0
  0
LINE
  5
1A652
  8
AM_0
 10
888.52352513401593
 20
720.67964936122678
 30
0.0
 11
735.01388813401582
 21
720.67964936122678
 31
0.0
  0
LINE
  5
1A653
  8
AM_0
 10
896.0295361340161
 20
723.01964936122681
 30
0.0
 11
735.02858013401578
 21
723.01964936122681
 31
0.0
  0
LINE
  5
1A654
  8
AM_0
 10
888.52352513401593
 20
721.02964936122669
 30
0.0
 11
736.98379613401585
 21
721.02964936122669
 31
0.0
  0
LINE
  5
1A655
  8
AM_0
 10
888.52352513401593
 20
722.62964936122683
 30
0.0
 11
737.13070913401566
 21
722.62964936122683
 31
0.0
  0
LINE
  5
1A656
  8
AM_0
 10
736.82352513401565
 20
681.04964936122678
 30
0.0
 11
896.0295361340161
 21
681.04964936122678
 31
0.0
  0
LINE
  5
1A657
  8
AM_0
 10
736.82352513401565
 20
682.64964936122669
 30
0.0
 11
896.0295361340161
 21
682.64964936122669
 31
0.0
  0
LINE
  5
1A658
  8
AM_0
 10
735.52918713401584
 20
680.83964936122675
 30
0.0
 11
896.0295361340161
 21
680.83964936122675
 31
0.0
  0
LINE
  5
1A659
  8
AM_0
 10
735.63390313401578
 20
682.86964936122672
 30
0.0
 11
896.0295361340161
 21
682.86964936122672
 31
0.0
  0
LINE
  5
1A65A
  8
AM_0
 10
735.38310113401599
 20
690.81964936122665
 30
0.0
 11
896.0295361340161
 21
690.81964936122665
 31
0.0
  0
LINE
  5
1A65B
  8
AM_0
 10
735.18577813401566
 20
700.76964936122681
 30
0.0
 11
896.0295361340161
 21
700.76964936122681
 31
0.0
  0
LINE
  5
1A65C
  8
AM_0
 10
735.20856913401565
 20
702.94964936122665
 30
0.0
 11
896.0295361340161
 21
702.94964936122665
 31
0.0
  0
LINE
  5
1A65D
  8
AM_0
 10
888.52352513401593
 20
713.03964936122668
 30
0.0
 11
735.01240313401581
 21
713.03964936122668
 31
0.0
  0
LINE
  5
1A65E
  8
AM_0
 10
888.52352513401593
 20
710.69964936122676
 30
0.0
 11
735.03411713401579
 21
710.69964936122676
 31
0.0
  0
LINE
  5
1A65F
  8
AM_0
 10
896.0295361340161
 20
692.89964936122681
 30
0.0
 11
735.43890313401585
 21
692.89964936122681
 31
0.0
  0
LINE
  5
1A660
  8
AM_0
 10
896.0295361340161
 20
692.64964936122681
 30
0.0
 11
736.82352513401565
 21
692.64964936122681
 31
0.0
  0
LINE
  5
1A661
  8
AM_0
 10
896.0295361340161
 20
691.04964936122667
 30
0.0
 11
736.82352513401565
 21
691.04964936122667
 31
0.0
  0
LINE
  5
1A662
  8
AM_0
 10
896.0295361340161
 20
701.04964936122678
 30
0.0
 11
736.82352513401565
 21
701.04964936122678
 31
0.0
  0
LINE
  5
1A663
  8
AM_0
 10
896.0295361340161
 20
702.64964936122681
 30
0.0
 11
736.82352513401565
 21
702.64964936122681
 31
0.0
  0
LINE
  5
1A664
  8
AM_0
 10
888.52352513401593
 20
711.04964936122667
 30
0.0
 11
737.06309913401583
 21
711.04964936122667
 31
0.0
  0
LINE
  5
1A665
  8
AM_0
 10
888.52352513401593
 20
712.64964936122669
 30
0.0
 11
737.06390213401585
 21
712.64964936122669
 31
0.0
  0
INSERT
  5
1A667
  8
AM_0
  2
$6-44
 10
736.52352513401581
 20
733.45868436122669
 30
0.0
 42
-1.0
 50
90.0
  0
INSERT
  5
1A668
  8
AM_0
  2
$6-44
 10
736.52352713401581
 20
620.24073136122672
 30
0.0
 41
-1.0
 50
270.0
  0
TEXT
  5
1A97C
  8
AM_0
 10
35.352125852480178
 20
672.06541991605127
 30
0.0
 40
15.0
  1
VC08-007EFMR~VC0E-060EFMR
1001
ACAD
1000
MTEXTBEGIN
1070
    73
1070
     1
1070
    44
1040
1.0
1070
    74
1070
     0
1000
MTEXTEND
  0
VIEWPORT
  5
89
 67
     1
  8
0
 10
210.0
 20
148.5
 30
0.0
 40
420.0
 41
297.0
 68
     1
 69
     1
1001
ACAD
1000
MVIEW
1002
{
1070
    16
1010
0.0
1020
0.0
1030
0.0
1010
0.0
1020
0.0
1030
1.0
1040
0.0
1040
297.0
1040
221.70154043645701
1040
148.5
1040
50.0
1040
0.0
1040
0.0
1070
     0
1070
   100
1070
     1
1070
     1
1070
     0
1070
     0
1070
     0
1070
     0
1040
0.0
1040
0.0
1040
0.0
1040
10.0
1040
10.0
1040
10.0
1040
10.0
1070
     0
1002
{
1002
}
1002
}
1001
GENIUS_GENOREF_13
1005
1B94
1001
GENIUS_GENSCREG_15
1000
PF
1040
1.0
1000
DF
1040
1.0
1000
MIN
1011
0.0
1021
0.0
1031
0.0
1021
0.0
1031
0.0
1000
MAX
1011
420.0
1021
0.0
1031
0.0
1021
297.0
1031
0.0
1000
FLAGS
1070
     4
  0
ENDSEC
  0
EOF
