  0
SECTION
  2
HEADER
  9
$ACADVER
  1
AC1009
  9
$INSBASE
 10
0.0
 20
0.0
 30
0.0
  9
$EXTMIN
 10
1.9621913726000451
 20
183.53529718864729
 30
-0.0000000000112498
  9
$EXTMAX
 10
961.26410156495876
 20
815.81893238704151
 30
0.0000000000002956
  9
$LIMMIN
 10
0.0
 20
0.0
  9
$LIMMAX
 10
1138.0
 20
740.00000000000011
  9
$ORTHOMODE
 70
     1
  9
$REGENMODE
 70
     1
  9
$FILLMODE
 70
     1
  9
$QTEXTMODE
 70
     0
  9
$MIRRTEXT
 70
     1
  9
$DRAGMODE
 70
     2
  9
$LTSCALE
 40
4.0
  9
$OSMODE
 70
   551
  9
$ATTMODE
 70
     1
  9
$TEXTSIZE
 40
2.5
  9
$TRACEWID
 40
1.0
  9
$TEXTSTYLE
  7
STANDARD
  9
$CLAYER
  8
AM_0
  9
$CELTYPE
  6
BYLAYER
  9
$CECOLOR
 62
   256
  9
$DIMSCALE
 40
4.0
  9
$DIMASZ
 40
2.5
  9
$DIMEXO
 40
1.0
  9
$DIMDLI
 40
7.0
  9
$DIMRND
 40
0.0
  9
$DIMDLE
 40
0.0
  9
$DIMEXE
 40
1.0
  9
$DIMTP
 40
0.1
  9
$DIMTM
 40
0.1000000001
  9
$DIMTXT
 40
2.5
  9
$DIMCEN
 40
0.0
  9
$DIMTSZ
 40
0.0
  9
$DIMTOL
 70
     0
  9
$DIMLIM
 70
     0
  9
$DIMTIH
 70
     0
  9
$DIMTOH
 70
     0
  9
$DIMSE1
 70
     0
  9
$DIMSE2
 70
     0
  9
$DIMTAD
 70
     3
  9
$DIMZIN
 70
     8
  9
$DIMBLK
  1

  9
$DIMASO
 70
     1
  9
$DIMSHO
 70
     1
  9
$DIMPOST
  1

  9
$DIMAPOST
  1
"
  9
$DIMALT
 70
     0
  9
$DIMALTD
 70
     2
  9
$DIMALTF
 40
0.0393701
  9
$DIMLFAC
 40
1.0
  9
$DIMTOFL
 70
     1
  9
$DIMTVP
 40
0.0
  9
$DIMTIX
 70
     0
  9
$DIMSOXD
 70
     0
  9
$DIMSAH
 70
     0
  9
$DIMBLK1
  1

  9
$DIMBLK2
  1

  9
$DIMSTYLE
  2
AM_JIS
  9
$DIMCLRD
 70
   256
  9
$DIMCLRE
 70
   256
  9
$DIMCLRT
 70
     4
  9
$DIMTFAC
 40
0.71
  9
$DIMGAP
 40
1.0
  9
$LUNITS
 70
     2
  9
$LUPREC
 70
     2
  9
$SKETCHINC
 40
1.0
  9
$FILLETRAD
 40
0.0
  9
$AUNITS
 70
     0
  9
$AUPREC
 70
     3
  9
$MENU
  1
.
  9
$ELEVATION
 40
0.0
  9
$PELEVATION
 40
0.0
  9
$THICKNESS
 40
0.0
  9
$LIMCHECK
 70
     0
  9
$BLIPMODE
 70
     0
  9
$CHAMFERA
 40
10.0
  9
$CHAMFERB
 40
10.0
  9
$SKPOLY
 70
     0
  9
$TDCREATE
 40
2452753.643349607
  9
$TDUPDATE
 40
2458543.44417118
  9
$TDINDWG
 40
0.6487025926
  9
$TDUSRTIMER
 40
0.6487022106
  9
$USRTIMER
 70
     1
  9
$ANGBASE
 50
0.0
  9
$ANGDIR
 70
     0
  9
$PDMODE
 70
     0
  9
$PDSIZE
 40
0.0
  9
$PLINEWID
 40
0.0
  9
$COORDS
 70
     1
  9
$SPLFRAME
 70
     0
  9
$SPLINETYPE
 70
     6
  9
$SPLINESEGS
 70
     8
  9
$ATTDIA
 70
     1
  9
$ATTREQ
 70
     1
  9
$HANDLING
 70
     1
  9
$HANDSEED
  5
1A919
  9
$SURFTAB1
 70
     6
  9
$SURFTAB2
 70
     6
  9
$SURFTYPE
 70
     6
  9
$SURFU
 70
     6
  9
$SURFV
 70
     6
  9
$UCSNAME
  2

  9
$UCSORG
 10
0.0
 20
0.0
 30
0.0
  9
$UCSXDIR
 10
1.0
 20
0.0
 30
0.0
  9
$UCSYDIR
 10
0.0
 20
1.0
 30
0.0
  9
$PUCSNAME
  2

  9
$PUCSORG
 10
0.0
 20
0.0
 30
0.0
  9
$PUCSXDIR
 10
1.0
 20
0.0
 30
0.0
  9
$PUCSYDIR
 10
0.0
 20
1.0
 30
0.0
  9
$USERI1
 70
     0
  9
$USERI2
 70
     0
  9
$USERI3
 70
     0
  9
$USERI4
 70
     0
  9
$USERI5
 70
     0
  9
$USERR1
 40
0.0
  9
$USERR2
 40
0.0
  9
$USERR3
 40
0.0
  9
$USERR4
 40
0.0
  9
$USERR5
 40
0.0
  9
$WORLDVIEW
 70
     1
  9
$SHADEDGE
 70
     3
  9
$SHADEDIF
 70
    70
  9
$TILEMODE
 70
     1
  9
$MAXACTVP
 70
    48
  9
$PLIMCHECK
 70
     0
  9
$PEXTMIN
 10
1.0000000000000000E+020
 20
1.0000000000000000E+020
 30
1.0000000000000000E+020
  9
$PEXTMAX
 10
-1.0000000000000000E+020
 20
-1.0000000000000000E+020
 30
-1.0000000000000000E+020
  9
$PLIMMIN
 10
0.0
 20
0.0
  9
$PLIMMAX
 10
420.0
 20
297.0
  9
$UNITMODE
 70
     0
  9
$VISRETAIN
 70
     1
  9
$PLINEGEN
 70
     0
  9
$PSLTSCALE
 70
     1
  0
ENDSEC
  0
SECTION
  2
TABLES
  0
TABLE
  2
VPORT
 70
     1
  0
VPORT
  2
*ACTIVE
 70
     0
 10
0.0
 20
0.0
 11
1.0
 21
1.0
 12
481.61314646877941
 22
499.6771147878444
 13
0.0
 23
0.0
 14
10.0
 24
10.0
 15
40.0
 25
40.0
 16
0.0
 26
0.0
 36
1.0
 17
0.0
 27
0.0
 37
0.0
 40
636.62425511966467
 41
1.7571592210767459
 42
50.0
 43
0.0
 44
0.0
 50
0.0
 51
0.0
 71
     0
 72
   100
 73
     1
 74
     1
 75
     0
 76
     0
 77
     0
 78
     0
  0
ENDTAB
  0
TABLE
  2
LTYPE
 70
    21
  0
LTYPE
  2
CONTINUOUS
 70
     0
  3
Solid line
 72
    65
 73
     0
 40
0.0
  0
LTYPE
  2
PHANTOM2
 70
     0
  3
Phantom (.5x) ___ _ _ ___ _ _ ___ _ _ ___ _ _
 72
    65
 73
     6
 40
31.75
 49
15.875
 49
-3.174999999999998
 49
3.174999999999998
 49
-3.174999999999998
 49
3.174999999999998
 49
-3.174999999999998
  0
LTYPE
  2
CENTER
 70
     0
  3
Center ____ _ ____ _ ____ _ ____ _ ____ _ ____
 72
    65
 73
     4
 40
50.799999999999997
 49
31.75
 49
-6.3499999999999979
 49
6.3499999999999979
 49
-6.3499999999999979
  0
LTYPE
  2
GEN3B
 70
     0
  3
 - - - - -
 72
    65
 73
     2
 40
1.0
 49
0.5
 49
-0.5
  0
LTYPE
  2
GEN7A
 70
     0
  3
__ . __ . __
 72
    65
 73
     4
 40
7.375
 49
4.75
 49
-0.875
 49
0.875
 49
-0.875
  0
LTYPE
  2
AM_ISO02W050
 70
     0
  3
__ __ __ __ __ __ __ __ __ __ __ __ __ __ __
 72
    65
 73
     2
 40
7.5
 49
6.0
 49
-1.5
  0
LTYPE
  2
AM_ISO08W050
 70
     0
  3
____ . ____ . ____ . ____ . ____ . ____ . ____
 72
    65
 73
     4
 40
18.0
 49
12.0
 49
-1.5
 49
3.0
 49
-1.5
  0
LTYPE
  2
AM_ISO09W050
 70
     0
  3
_____ . . _____ . . _____ . . ____ .. ____
 72
    65
 73
     6
 40
22.5
 49
12.0
 49
-1.5
 49
3.0
 49
-1.5
 49
3.0
 49
-1.5
  0
LTYPE
  2
AMCONSTR
 70
     0
  3
_______________________
 72
    65
 73
     2
 40
9999.0
 49
9999.0
 49
0.0
  0
LTYPE
  2
AM_ISO02W050X2
 70
     0
  3
 _ _ _ _ _ _ _ _ _ _ _ _
 72
    65
 73
     2
 40
3.75
 49
3.0
 49
-0.75
  0
LTYPE
  2
AM_ISO08W050X2
 70
     0
  3
__ . __ . __ . __ . __ . __
 72
    65
 73
     4
 40
9.0
 49
6.0
 49
-0.75
 49
1.5
 49
-0.75
  0
LTYPE
  2
AMZIGZAG
 70
     0
  3
/\/-/\/-/\/-/\/-/\/-/\/
 72
    65
 73
     2
 40
11.0001
 49
0.0001
 49
-11.0
  0
LTYPE
  2
ACISOWELD
 70
     0
  3
_ _ _ _ _
 72
    65
 73
     2
 40
2.0
 49
2.0
 49
-1.0
  0
LTYPE
  2
ACISOTGB
 70
     0
  3
__ . . __ . .
 72
    65
 73
     6
 40
9.0
 49
4.0
 49
-1.0
 49
1.0
 49
-1.0
 49
1.0
 49
-1.0
  0
LTYPE
  2
ACISOTGL
 70
     0
  3
_ _ _ _ _
 72
    65
 73
     2
 40
3.0
 49
2.0
 49
-1.0
  0
LTYPE
  2
HIDDEN
 70
     0
  3
Hidden __ __ __ __ __ __ __ __ __ __ __ __ __ _
 72
    65
 73
     2
 40
9.5249999999999968
 49
6.349999999999997
 49
-3.174999999999998
  0
LTYPE
  2
ACANSTGBM
 70
     0
  3
__ . . __ . .
 72
    65
 73
     6
 40
9.0
 49
4.0
 49
-1.0
 49
1.0
 49
-1.0
 49
1.0
 49
-1.0
  0
LTYPE
  2
ACANSTGLM
 70
     0
  3
_ _ _ _ _
 72
    65
 73
     2
 40
3.0
 49
2.0
 49
-1.0
  0
LTYPE
  2
ACJISTGB
 70
     0
  3
__ . . __ . .
 72
    65
 73
     6
 40
9.0
 49
4.0
 49
-1.0
 49
1.0
 49
-1.0
 49
1.0
 49
-1.0
  0
LTYPE
  2
ACJISTGL
 70
     0
  3
_ _ _ _ _
 72
    65
 73
     2
 40
3.0
 49
2.0
 49
-1.0
  0
ENDTAB
  0
TABLE
  2
LAYER
 70
     8
  0
LAYER
  2
0
 70
     0
 62
     7
  6
CONTINUOUS
  0
LAYER
  2
ｽﾝﾎﾟｳｾﾝ
 70
     0
 62
     2
  6
CONTINUOUS
  0
LAYER
  2
DEFPOINTS
 70
     0
 62
     7
  6
CONTINUOUS
  0
LAYER
  2
ｶｸﾚｾﾝ2
 70
     0
 62
     3
  6
GEN3B
  0
LAYER
  2
ﾁｭｳｼﾝｾﾝ1
 70
     0
 62
     1
  6
GEN7A
  0
LAYER
  2
AM_0
 70
     0
 62
     7
  6
CONTINUOUS
  0
LAYER
  2
AM_0N
 70
     0
 62
     7
  6
CONTINUOUS
  0
LAYER
  2
AM_5
 70
     0
 62
     2
  6
CONTINUOUS
  0
ENDTAB
  0
TABLE
  2
STYLE
 70
     8
  0
STYLE
  2
STANDARD
 70
     0
 40
0.0
 41
0.8299999999999999
 50
0.0
 71
     0
 42
2.5
  3
txt.shx
  4
bigfont.shx
  0
STYLE
  2

 70
     1
 40
0.0
 41
1.0
 50
0.0
 71
     0
 42
2.5
  3
ltypeshp.shx
  4

  0
STYLE
  2
ACISOTS
 70
     0
 40
1.0
 41
1.0
 50
0.0
 71
     0
 42
2.5
  3
isocp.shx
  4
extfont.shx
  0
STYLE
  2
ACISOGDT
 70
     0
 40
0.0
 41
1.0
 50
0.0
 71
     0
 42
2.5
  3
amgdt.shx
  4

  0
STYLE
  2
ACANSTS
 70
     0
 40
1.0
 41
1.0
 50
0.0
 71
     0
 42
2.5
  3
romans.shx
  4
bigfont.shx
  0
STYLE
  2
ACANSGDT
 70
     0
 40
0.0
 41
1.0
 50
0.0
 71
     0
 42
2.5
  3
amgdtans.shx
  4

  0
STYLE
  2
ACJISGDT
 70
     0
 40
0.0
 41
1.0
 50
0.0
 71
     0
 42
2.5
  3
amgdt.shx
  4

  0
STYLE
  2
ACJISTS
 70
     0
 40
1.0
 41
1.0
 50
0.0
 71
     0
 42
2.5
  3
isocp.shx
  4
extfont.shx
  0
ENDTAB
  0
TABLE
  2
VIEW
 70
    12
  0
VIEW
  2
GEN1
 70
     0
 40
95.824742268041234
 10
71.5
 20
137.08762886597941
 41
143.0
 11
0.0
 21
0.0
 31
1.0
 12
0.0
 22
0.0
 32
0.0
 42
50.0
 43
0.0
 44
0.0
 50
0.0
 71
     0
  0
VIEW
  2
GEN2
 70
     0
 40
95.824742268041234
 10
214.5
 20
137.08762886597941
 41
143.0
 11
0.0
 21
0.0
 31
1.0
 12
0.0
 22
0.0
 32
0.0
 42
50.0
 43
0.0
 44
0.0
 50
0.0
 71
     0
  0
VIEW
  2
GEN3
 70
     0
 40
95.824742268041234
 10
71.5
 20
47.912371134020603
 41
143.0
 11
0.0
 21
0.0
 31
1.0
 12
0.0
 22
0.0
 32
0.0
 42
50.0
 43
0.0
 44
0.0
 50
0.0
 71
     0
  0
VIEW
  2
GEN4
 70
     0
 40
95.824742268041234
 10
214.5
 20
47.912371134020603
 41
143.0
 11
0.0
 21
0.0
 31
1.0
 12
0.0
 22
0.0
 32
0.0
 42
50.0
 43
0.0
 44
0.0
 50
0.0
 71
     0
  0
VIEW
  2
GEN5
 70
     0
 40
95.824742268041234
 10
143.0
 20
92.500000000000057
 41
143.0
 11
0.0
 21
0.0
 31
1.0
 12
0.0
 22
0.0
 32
0.0
 42
50.0
 43
0.0
 44
0.0
 50
0.0
 71
     0
  0
VIEW
  2
GEN6
 70
     0
 40
191.64756804123709
 10
143.0
 20
92.5
 41
285.99714
 11
0.0
 21
0.0
 31
1.0
 12
0.0
 22
0.0
 32
0.0
 42
50.0
 43
0.0
 44
0.0
 50
0.0
 71
     0
  0
VIEW
  2
AM_VIEW1
 70
     0
 40
370.00000000000023
 10
332.86372007366492
 20
555.00000000000011
 41
665.72744014732973
 11
0.0
 21
0.0
 31
1.0
 12
0.0
 22
0.0
 32
0.0
 42
50.0
 43
0.0
 44
0.0
 50
0.0
 71
     0
  0
VIEW
  2
AM_VIEW2
 70
     0
 40
370.00000000000023
 10
805.13627992633508
 20
555.00000000000011
 41
665.72744014732973
 11
0.0
 21
0.0
 31
1.0
 12
0.0
 22
0.0
 32
0.0
 42
50.0
 43
0.0
 44
0.0
 50
0.0
 71
     0
  0
VIEW
  2
AM_VIEW3
 70
     0
 40
370.00000000000023
 10
332.86372007366492
 20
185.0
 41
665.72744014732973
 11
0.0
 21
0.0
 31
1.0
 12
0.0
 22
0.0
 32
0.0
 42
50.0
 43
0.0
 44
0.0
 50
0.0
 71
     0
  0
VIEW
  2
AM_VIEW4
 70
     0
 40
370.00000000000023
 10
805.13627992633508
 20
185.0
 41
665.72744014732973
 11
0.0
 21
0.0
 31
1.0
 12
0.0
 22
0.0
 32
0.0
 42
50.0
 43
0.0
 44
0.0
 50
0.0
 71
     0
  0
VIEW
  2
AM_VIEW5
 70
     0
 40
370.00000000000023
 10
569.0
 20
370.00000000000023
 41
665.72744014732962
 11
0.0
 21
0.0
 31
1.0
 12
0.0
 22
0.0
 32
0.0
 42
50.0
 43
0.0
 44
0.0
 50
0.0
 71
     0
  0
VIEW
  2
AM_VIEW6
 70
     0
 40
739.99260000000015
 10
569.0
 20
370.00000000000023
 41
1331.4415657458569
 11
0.0
 21
0.0
 31
1.0
 12
0.0
 22
0.0
 32
0.0
 42
50.0
 43
0.0
 44
0.0
 50
0.0
 71
     0
  0
ENDTAB
  0
TABLE
  2
UCS
 70
     0
  0
ENDTAB
  0
TABLE
  2
APPID
 70
   101
  0
APPID
  2
ACAD
 70
     0
  0
APPID
  2
MCAD_NO_VIS
 70
     0
  0
APPID
  2
ACAD_TEMP_GRAPHIC
 70
     0
  0
APPID
  2
AD_DRAW
 70
     0
  0
APPID
  2
DESIGNERASSEMBLIES
 70
     0
  0
APPID
  2
ASURF_PCURVE_APPNAME
 70
     0
  0
APPID
  2
GENIUS_GE3SECT_13
 70
     0
  0
APPID
  2
GENIUS_GENCFG_13
 70
     0
  0
APPID
  2
GENIUS_GE3CFG0_13
 70
     0
  0
APPID
  2
GENIUS_GENCFG0_13
 70
     0
  0
APPID
  2
GENIUS_GENCFG1_13
 70
     0
  0
APPID
  2
GENIUS_GENCFG2_13
 70
     0
  0
APPID
  2
GENIUS_GENCFG3_13
 70
     0
  0
APPID
  2
GENIUS_GENCFG4_13
 70
     0
  0
APPID
  2
GENIUS_GEVCFG0_13
 70
     0
  0
APPID
  2
GENIUS_GENOENT_13
 70
     0
  0
APPID
  2
GENIUS_GENREC_14
 70
     0
  0
APPID
  2
GENIUS_GENODEF_13
 70
     0
  0
APPID
  2
GENIUS_GENOBJ-N-REC_13
 70
     0
  0
APPID
  2
GENIUS_GENHINW_13
 70
     0
  0
APPID
  2
GENIUS_FIRSTVISTXT_14
 70
     0
  0
APPID
  2
GENIUS_GENOBJ-N-LEADER_13
 70
     0
  0
APPID
  2
GENIUS_GENOREF_13
 70
     0
  0
APPID
  2
GENIUS_GENOLIS_13
 70
     0
  0
APPID
  2
GEV_VCCNULL_SWITCH_OFF
 70
     0
  0
APPID
  2
GENIUS_GENDTOL_13
 70
     0
  0
APPID
  2
GENIUS_GEFCFG0_13
 70
     0
  0
APPID
  2
GENIUS_GENOBJ-N-TIT_13
 70
     0
  0
APPID
  2
GENIUS_GENTITLE_13
 70
     0
  0
APPID
  2
GENIUS_GENZVEED_13
 70
     0
  0
APPID
  2
GENIUS_GENOBJ-N-SDF_13
 70
     0
  0
APPID
  2
GENIUS_GENSCREG_13
 70
     0
  0
APPID
  2
GENIUS_DUMCFG0_13
 70
     0
  0
APPID
  2
GEVID936201362
 70
     0
  0
APPID
  2
GEVDC
 70
     0
  0
APPID
  2
GEVCON
 70
     0
  0
APPID
  2
VCC
 70
     0
  0
APPID
  2
GEVPT
 70
     0
  0
APPID
  2
GEVIT
 70
     0
  0
APPID
  2
GENBH
 70
     0
  0
APPID
  2
GEVMK
 70
     0
  0
APPID
  2
GENIUS_GENBH_13
 70
     0
  0
APPID
  2
GENIUS_GENOBJ-NBEHI-BHF_13
 70
     0
  0
APPID
  2
GENIUS_GENOBJ-NBEHI-BHB_13
 70
     0
  0
APPID
  2
GENIUS_GENOBJ-F-DESC_13
 70
     0
  0
APPID
  2
GENIUS_GEFDESC_14
 70
     0
  0
APPID
  2
GENIUS_GENOBJ-F-PART_13
 70
     0
  0
APPID
  2
GENIUS_GEFSTDP_13
 70
     0
  0
APPID
  2
GENIUS_GEFPARTINS_13
 70
     0
  0
APPID
  2
GENIUS_GENTRA_14
 70
     0
  0
APPID
  2
GENIUS_GENINF13_13
 70
     0
  0
APPID
  2
GENIUS_GENOBJ-N-INFOPT_13
 70
     0
  0
APPID
  2
GENIUS_GENOBJ-N-RSSYM_13
 70
     0
  0
APPID
  2
GENIUS_GENSYMENT_13
 70
     0
  0
APPID
  2
GENIUS_GENSCSYM_13
 70
     0
  0
APPID
  2
GENIUS_GEFINFNAM_13
 70
     0
  0
APPID
  2
GENIUS_GENSCREG_15
 70
     0
  0
APPID
  2
GENIUS_GENOBJ-N-CEN_13
 70
     0
  0
APPID
  2
GENIUS_GENOBJ-N-CRS_13
 70
     0
  0
APPID
  2
GENIUS_GENOBJ-N-CRC_13
 70
     0
  0
APPID
  2
GENIUS_GENCRC_14
 70
     0
  0
APPID
  2
GEVID942827039
 70
     0
  0
APPID
  2
GEVID942827040
 70
     0
  0
APPID
  2
GEVID942827041
 70
     0
  0
APPID
  2
GENIUS_GENOBJ-F-SCPASSM_13
 70
     0
  0
APPID
  2
GENIUS_GENDIMSH_14
 70
     0
  0
APPID
  2
GENIUS_GENFIL_13
 70
     0
  0
APPID
  2
GENIUS_GENOBJ-N-CHA_13
 70
     0
  0
APPID
  2
GENIUS_GENOBJ-N-FIL_13
 70
     0
  0
APPID
  2
GEVID942827042
 70
     0
  0
APPID
  2
GEVID946020473
 70
     0
  0
APPID
  2
GEVID946020474
 70
     0
  0
APPID
  2
GEVID946020475
 70
     0
  0
APPID
  2
GENIUS_GENOBJ-N-HTC_13
 70
     0
  0
APPID
  2
GENIUS_GENHATCH_13
 70
     0
  0
APPID
  2
GEVID948854295
 70
     0
  0
APPID
  2
GEVID939402019
 70
     0
  0
APPID
  2
GEVID952919491
 70
     0
  0
APPID
  2
GEVID952919492
 70
     0
  0
APPID
  2
GENIUS_GEFWELD_13
 70
     0
  0
APPID
  2
GENIUS_GENOBJ-F-WELS_13
 70
     0
  0
APPID
  2
GEVID952919493
 70
     0
  0
APPID
  2
GENIUS_GENOBJ-N-RSBK_13
 70
     0
  0
APPID
  2
GENIUS_GENOBJ-N-LIB_13
 70
     0
  0
APPID
  2
GENIUS_GENSCALE_13
 70
     0
  0
APPID
  2
GEVID986376691
 70
     0
  0
APPID
  2
ACATTRIBSERVICES
 70
     0
  0
APPID
  2
DCO15
 70
     0
  0
APPID
  2
ACADM_DIM_EDIT
 70
     0
  0
APPID
  2
AMDT_DM_ADJ
 70
     0
  0
APPID
  2
ACAD_MLEADERVER
 70
     0
  0
APPID
  2
CONTENTBLOCKDESCRIPTION
 70
     0
  0
APPID
  2
ACADANNOTATIVE
 70
     0
  0
APPID
  2
GEVID1057795304
 70
     0
  0
APPID
  2
GENIUS_GEFSH_13
 70
     0
  0
APPID
  2
GENIUS_GENOBJ-F-SHS_13
 70
     0
  0
APPID
  2
ACAD_DSTYLE_DIMBREAK
 70
     0
  0
APPID
  2
ACAD_DSTYLE_DIMJAG
 70
     0
  0
APPID
  2
ACAD_NAV_VCDISPLAY
 70
     0
  0
APPID
  2
ACADANNOPO
 70
     0
  0
APPID
  2
ACAD_EXEMPT_FROM_CAD_STANDARDS
 70
     0
  0
ENDTAB
  0
TABLE
  2
DIMSTYLE
 70
    21
  0
DIMSTYLE
  2
STANDARD
 70
     0
  3

  4

  5

  6

  7

 40
1.0
 41
0.18
 42
0.0625
 43
0.38
 44
0.18
 45
0.0
 46
0.0
 47
0.0
 48
0.0
140
0.18
141
0.09
142
0.0
143
25.399999999999999
144
1.0
145
0.0
146
1.0
147
0.09
 71
     0
 72
     0
 73
     1
 74
     1
 75
     0
 76
     0
 77
     0
 78
     0
170
     0
171
     2
172
     0
173
     0
174
     0
175
     0
176
     0
177
     0
178
     0
  0
DIMSTYLE
  2
AM_JIS
 70
     0
  3

  4
"
  5

  6

  7

 40
1.0
 41
2.0
 42
1.0
 43
8.0
 44
1.0
 45
0.0
 46
0.0
 47
0.1
 48
0.1
140
2.5
141
0.0
142
0.0
143
0.0393701
144
1.0
145
0.0
146
0.71
147
1.5
 71
     0
 72
     0
 73
     0
 74
     0
 75
     0
 76
     0
 77
     3
 78
     8
170
     0
171
     2
172
     1
173
     0
174
     0
175
     0
176
     2
177
     2
178
     4
  0
DIMSTYLE
  2
AM_ISO
 70
     0
  3

  4
"
  5

  6

  7

 40
1.0
 41
2.5
 42
1.0
 43
10.0
 44
1.0
 45
0.0
 46
0.0
 47
0.1
 48
0.1
140
3.5
141
0.0
142
0.0
143
0.0393701
144
1.0
145
0.0
146
0.71
147
1.5
 71
     0
 72
     0
 73
     0
 74
     0
 75
     0
 76
     0
 77
     1
 78
     8
170
     0
171
     2
172
     1
173
     0
174
     0
175
     0
176
   256
177
   256
178
     2
  0
DIMSTYLE
  2
AM_ISO$3
 70
     0
  3

  4
"
  5

  6

  7

 40
1.0
 41
2.5
 42
1.0
 43
10.0
 44
1.0
 45
0.0
 46
0.0
 47
0.1
 48
0.1
140
3.5
141
0.0
142
0.0
143
0.0393701
144
1.0
145
0.0
146
0.71
147
1.5
 71
     0
 72
     0
 73
     0
 74
     1
 75
     0
 76
     0
 77
     1
 78
     8
170
     0
171
     2
172
     0
173
     0
174
     0
175
     0
176
   256
177
   256
178
     2
  0
DIMSTYLE
  2
AM_ISO$4
 70
     0
  3

  4
"
  5

  6

  7

 40
1.0
 41
2.5
 42
1.0
 43
10.0
 44
1.0
 45
0.0
 46
0.0
 47
0.1
 48
0.1
140
3.5
141
0.0
142
0.0
143
0.0393701
144
1.0
145
0.0
146
0.71
147
1.5
 71
     0
 72
     0
 73
     0
 74
     1
 75
     0
 76
     0
 77
     1
 78
     8
170
     0
171
     2
172
     0
173
     0
174
     0
175
     0
176
   256
177
   256
178
     2
  0
DIMSTYLE
  2
AM_ISO$6
 70
     0
  3

  4
"
  5

  6

  7

 40
1.0
 41
2.5
 42
1.0
 43
10.0
 44
1.0
 45
0.0
 46
0.0
 47
0.1
 48
0.1
140
3.5
141
0.0
142
0.0
143
0.0393701
144
1.0
145
0.0
146
0.71
147
1.5
 71
     0
 72
     0
 73
     0
 74
     0
 75
     0
 76
     0
 77
     0
 78
     8
170
     0
171
     2
172
     1
173
     0
174
     0
175
     0
176
   256
177
   256
178
     2
  0
DIMSTYLE
  2
AM_ISO$7
 70
     0
  3

  4
"
  5

  6

  7

 40
1.0
 41
2.5
 42
1.0
 43
10.0
 44
1.0
 45
0.0
 46
0.0
 47
0.1
 48
0.1
140
5.0
141
0.0
142
0.0
143
0.0393701
144
1.0
145
0.0
146
0.71
147
1.5
 71
     0
 72
     0
 73
     0
 74
     0
 75
     0
 76
     0
 77
     1
 78
     8
170
     0
171
     2
172
     1
173
     0
174
     0
175
     0
176
   256
177
   256
178
     2
  0
DIMSTYLE
  2
AM_ISO$SF
 70
     0
  3

  4
"
  5

  6

  7

 40
1.0
 41
2.5
 42
1.0
 43
10.0
 44
1.0
 45
0.0
 46
0.0
 47
0.1
 48
0.1
140
3.5
141
0.0
142
0.0
143
0.0393701
144
1.0
145
0.0
146
0.71
147
1.5
 71
     0
 72
     0
 73
     0
 74
     0
 75
     1
 76
     1
 77
     1
 78
     8
170
     0
171
     2
172
     1
173
     0
174
     0
175
     0
176
   256
177
   256
178
     2
  0
DIMSTYLE
  2
AM_ISO$SH
 70
     0
  3

  4
"
  5

  6
GENAXEH
  7

 40
1.0
 41
2.5
 42
1.0
 43
10.0
 44
1.0
 45
0.0
 46
0.0
 47
0.1
 48
0.1
140
3.5
141
0.0
142
0.0
143
0.0393701
144
2.0
145
0.0
146
0.71
147
1.5
 71
     0
 72
     0
 73
     0
 74
     0
 75
     1
 76
     1
 77
     1
 78
     8
170
     0
171
     2
172
     1
173
     1
174
     0
175
     0
176
   256
177
   256
178
     2
  0
DIMSTYLE
  2
AM_ANSI
 70
     0
  3

  4
"
  5

  6

  7

 40
1.0
 41
2.5
 42
1.0
 43
10.0
 44
1.0
 45
0.0
 46
0.0
 47
0.1
 48
0.1
140
3.5
141
0.0
142
0.0
143
0.0393701
144
1.0
145
0.0
146
0.71
147
1.5
 71
     0
 72
     0
 73
     1
 74
     1
 75
     0
 76
     0
 77
     0
 78
     8
170
     0
171
     2
172
     0
173
     0
174
     0
175
     0
176
     2
177
     2
178
     4
  0
DIMSTYLE
  2
AM_ANSI$3
 70
     0
  3

  4
"
  5

  6

  7

 40
1.0
 41
2.5
 42
1.0
 43
10.0
 44
1.0
 45
0.0
 46
0.0
 47
0.1
 48
0.1
140
3.5
141
0.0
142
0.0
143
0.0393701
144
1.0
145
0.0
146
0.71
147
1.5
 71
     0
 72
     0
 73
     1
 74
     1
 75
     0
 76
     0
 77
     0
 78
     8
170
     0
171
     2
172
     0
173
     0
174
     0
175
     0
176
     2
177
     2
178
     4
  0
DIMSTYLE
  2
AM_ANSI$4
 70
     0
  3

  4
"
  5

  6

  7

 40
1.0
 41
2.5
 42
1.0
 43
10.0
 44
1.0
 45
0.0
 46
0.0
 47
0.1
 48
0.1
140
3.5
141
0.0
142
0.0
143
0.0393701
144
1.0
145
0.0
146
0.71
147
1.5
 71
     0
 72
     0
 73
     1
 74
     1
 75
     0
 76
     0
 77
     0
 78
     8
170
     0
171
     2
172
     0
173
     0
174
     0
175
     0
176
     2
177
     2
178
     4
  0
DIMSTYLE
  2
AM_ANSI$7
 70
     0
  3

  4
"
  5

  6

  7

 40
1.0
 41
2.5
 42
1.0
 43
10.0
 44
1.0
 45
0.0
 46
0.0
 47
0.1
 48
0.1
140
5.0
141
0.0
142
0.0
143
0.0393701
144
1.0
145
0.0
146
0.71
147
1.5
 71
     0
 72
     0
 73
     1
 74
     1
 75
     0
 76
     0
 77
     0
 78
     8
170
     0
171
     2
172
     0
173
     0
174
     0
175
     0
176
     2
177
     2
178
     4
  0
DIMSTYLE
  2
AM_ANSI$SF
 70
     0
  3

  4
"
  5

  6

  7

 40
1.0
 41
2.5
 42
1.0
 43
10.0
 44
1.0
 45
0.0
 46
0.0
 47
0.1
 48
0.1
140
3.5
141
0.0
142
0.0
143
0.0393701
144
1.0
145
0.0
146
0.71
147
1.5
 71
     0
 72
     0
 73
     1
 74
     1
 75
     1
 76
     1
 77
     0
 78
     8
170
     0
171
     2
172
     0
173
     0
174
     0
175
     0
176
     2
177
     2
178
     4
  0
DIMSTYLE
  2
AM_ANSI$SH
 70
     0
  3

  4
"
  5

  6
GENAXEH
  7

 40
1.0
 41
2.5
 42
1.0
 43
10.0
 44
1.0
 45
0.0
 46
0.0
 47
0.1
 48
0.1
140
3.5
141
0.0
142
0.0
143
0.0393701
144
1.0
145
0.0
146
0.71
147
1.5
 71
     0
 72
     0
 73
     1
 74
     1
 75
     1
 76
     1
 77
     0
 78
     8
170
     0
171
     2
172
     0
173
     1
174
     0
175
     0
176
     2
177
     2
178
     4
  0
DIMSTYLE
  2
AM_JIS$3
 70
     0
  3

  4
"
  5

  6

  7

 40
1.0
 41
2.0
 42
1.0
 43
10.0
 44
1.0
 45
0.0
 46
0.0
 47
0.1
 48
0.1
140
2.5
141
0.0
142
0.0
143
0.0393701
144
1.0
145
0.0
146
0.71
147
1.5
 71
     0
 72
     0
 73
     0
 74
     1
 75
     0
 76
     0
 77
     3
 78
     8
170
     0
171
     2
172
     0
173
     0
174
     0
175
     0
176
     2
177
     2
178
     4
  0
DIMSTYLE
  2
AM_JIS$4
 70
     0
  3

  4
"
  5

  6

  7

 40
1.0
 41
2.0
 42
1.0
 43
10.0
 44
1.0
 45
0.0
 46
0.0
 47
0.1
 48
0.1
140
2.5
141
0.0
142
0.0
143
0.0393701
144
1.0
145
0.0
146
0.71
147
1.5
 71
     0
 72
     0
 73
     0
 74
     0
 75
     0
 76
     0
 77
     3
 78
     8
170
     0
171
     2
172
     0
173
     0
174
     0
175
     0
176
     2
177
     2
178
     4
  0
DIMSTYLE
  2
AM_JIS$6
 70
     0
  3

  4
"
  5

  6

  7

 40
1.0
 41
2.0
 42
1.0
 43
10.0
 44
1.0
 45
0.0
 46
0.0
 47
0.1
 48
0.1
140
2.5
141
0.0
142
0.0
143
0.0393701
144
1.0
145
0.0
146
0.71
147
1.5
 71
     0
 72
     0
 73
     0
 74
     0
 75
     0
 76
     0
 77
     0
 78
     8
170
     0
171
     2
172
     1
173
     0
174
     0
175
     0
176
     2
177
     2
178
     4
  0
DIMSTYLE
  2
AM_JIS$7
 70
     0
  3

  4
"
  5

  6
OPEN30
  7
OPEN30
 40
1.0
 41
2.0
 42
1.0
 43
10.0
 44
1.0
 45
0.0
 46
0.0
 47
0.1
 48
0.1
140
2.5
141
0.0
142
0.0
143
0.0393701
144
1.0
145
0.0
146
0.71
147
1.5
 71
     0
 72
     0
 73
     0
 74
     0
 75
     0
 76
     0
 77
     3
 78
     8
170
     0
171
     2
172
     1
173
     0
174
     0
175
     0
176
     2
177
     2
178
     4
  0
DIMSTYLE
  2
AM_JIS$SF
 70
     0
  3

  4
"
  5

  6

  7

 40
1.0
 41
2.0
 42
1.0
 43
10.0
 44
1.0
 45
0.0
 46
0.0
 47
0.1
 48
0.1
140
2.5
141
0.0
142
0.0
143
0.0393701
144
1.0
145
0.0
146
0.71
147
1.5
 71
     0
 72
     0
 73
     0
 74
     0
 75
     1
 76
     1
 77
     3
 78
     8
170
     0
171
     2
172
     1
173
     0
174
     0
175
     0
176
     2
177
     2
178
     4
  0
DIMSTYLE
  2
AM_JIS$SH
 70
     0
  3

  4
"
  5

  6
GENAXEH
  7

 40
1.0
 41
2.0
 42
1.0
 43
10.0
 44
1.0
 45
0.0
 46
0.0
 47
0.1
 48
0.1
140
2.5
141
0.0
142
0.0
143
0.0393701
144
2.0
145
0.0
146
0.71
147
1.5
 71
     0
 72
     0
 73
     0
 74
     0
 75
     1
 76
     1
 77
     3
 78
     8
170
     0
171
     2
172
     1
173
     1
174
     0
175
     0
176
     2
177
     2
178
     4
  0
ENDTAB
  0
ENDSEC
  0
SECTION
  2
BLOCKS
  0
BLOCK
  8
0
  2
$MODEL_SPACE
 70
     0
 10
0.0
 20
0.0
 30
0.0
  3
$MODEL_SPACE
  1

  0
ENDBLK
  5
1A
  8
0
  0
BLOCK
 67
     1
  8
0
  2
$PAPER_SPACE
 70
     0
 10
0.0
 20
0.0
 30
0.0
  3
$PAPER_SPACE
  1

  0
ENDBLK
  5
17
 67
     1
  8
0
  0
BLOCK
  8
0
  2
GENAXEH
 70
     0
 10
0.0
 20
0.0
 30
0.0
  3
GENAXEH
  1

  0
LINE
  5
1A609
  8
0
 10
-1.0
 20
0.0
 30
0.0
 11
1.0
 21
0.0
 31
0.0
  0
ENDBLK
  5
1A60A
  8
0
  0
BLOCK
  8
0
  6
BYBLOCK
 62
     0
  2
$6-44
 70
     0
 10
0.0
 20
0.0
 30
0.0
  3
$6-44
  1

  0
ARC
  5
19C9F
  8
0
  6
CONTINUOUS
 62
     0
 10
-2.300003000000002
 20
2.3999909999999431
 30
0.0
 40
2.2000009999999981
 50
90.000003000000945
 51
179.99997799999841
  0
ARC
  5
19CA0
  8
0
  6
CONTINUOUS
 62
     0
 10
2.300003000000002
 20
2.3999910000000551
 30
0.0
 40
2.1999970000000002
 50
0.0
 51
89.999982000000799
  0
LINE
  5
19CA1
  8
0
  6
CONTINUOUS
 62
     0
 10
-0.0494449999999915
 20
0.0
 30
0.0
 11
-0.8000000000000112
 21
1.30000000000001
 31
0.0
  0
LINE
  5
19CA2
  8
0
  6
CONTINUOUS
 62
     0
 10
0.9505550000000083
 20
0.0
 30
0.0
 11
0.1999999999999886
 21
1.30000000000001
 31
0.0
  0
LINE
  5
19CA3
  8
0
  6
CONTINUOUS
 62
     0
 10
4.600000000000021
 20
1.30000000000001
 30
0.0
 11
4.600000000000021
 21
0.0
 31
0.0
  0
LINE
  5
19CA4
  8
0
  6
CONTINUOUS
 62
     0
 10
-4.600000000000021
 20
1.30000000000001
 30
0.0
 11
-4.600000000000021
 21
0.0
 31
0.0
  0
LINE
  5
19CA5
  8
0
  6
CONTINUOUS
 62
     0
 10
4.600000000000021
 20
0.0
 30
0.0
 11
-4.600000000000021
 21
0.0
 31
0.0
  0
LINE
  5
19CA6
  8
0
  6
CONTINUOUS
 62
     0
 10
2.300003000000002
 20
4.6000029999999583
 30
0.0
 11
-2.300003000000002
 21
4.6000029999999583
 31
0.0
  0
LINE
  5
19CA7
  8
0
  6
CONTINUOUS
 62
     0
 10
4.600000000000021
 20
1.30000000000001
 30
0.0
 11
-4.600000000000021
 21
1.30000000000001
 31
0.0
  0
LINE
  5
19CA8
  8
0
  6
CONTINUOUS
 62
     0
 10
-4.5
 20
1.30000000000001
 30
0.0
 11
-4.5
 21
2.3999909999999431
 31
0.0
  0
LINE
  5
19CA9
  8
0
  6
CONTINUOUS
 62
     0
 10
4.5
 20
1.30000000000001
 30
0.0
 11
4.5
 21
2.3999910000000551
 31
0.0
  0
ENDBLK
  5
19CAA
  8
0
  6
BYBLOCK
 62
     0
  0
BLOCK
  8
0
  2
_OPEN30
 70
     0
 10
0.0
 20
0.0
 30
0.0
  3
_OPEN30
  1

  0
LINE
  5
1A650
  8
0
  6
BYBLOCK
 62
     0
 10
-1.0
 20
0.26794919
 30
0.0
 11
0.0
 21
0.0
 31
0.0
  0
LINE
  5
1A651
  8
0
  6
BYBLOCK
 62
     0
 10
0.0
 20
0.0
 30
0.0
 11
-1.0
 21
-0.26794919
 31
0.0
  0
LINE
  5
1A652
  8
0
  6
BYBLOCK
 62
     0
 10
0.0
 20
0.0
 30
0.0
 11
-1.0
 21
0.0
 31
0.0
  0
ENDBLK
  5
1A653
  8
0
  0
BLOCK
  8
0
  2
_NONE
 70
     0
 10
0.0
 20
0.0
 30
0.0
  3
_NONE
  1

  0
ENDBLK
  5
1A728
  8
0
  0
ENDSEC
  0
SECTION
  2
ENTITIES
  0
POINT
  5
1B94
  8
0
 10
0.0
 20
0.0
 30
0.0
1001
GENIUS_GENODEF_13
1002
{
1000
HIER
1070
     1
1002
}
1002
{
1000
MANEDIT
1070
     0
1002
}
1002
{
1000
NOSEL
1070
     0
1002
}
1002
{
1000
BEHIND
1070
     0
1002
}
1002
{
1000
REACTOR
1002
}
1001
GENIUS_GENOBJ-N-SDF_13
1002
{
1000
OWNER
1000
GEN
1002
}
1001
GENIUS_GENOENT_13
1002
{
1000
MYREF
1005
1B94
1002
}
1002
{
1000
GRP
1005
0
1002
}
1001
GENIUS_GENOLIS_13
1002
{
1000
ENT
1005
89
1002
}
  0
LINE
  5
18D34
  8
ﾁｭｳｼﾝｾﾝ1
 10
701.68575372797932
 20
331.07652922917941
 30
0.0
 11
446.87626660324611
 21
331.07652922917941
 31
0.0
  0
POLYLINE
  5
18D36
  8
AM_0
 10
512.34380200977557
 20
331.07652940357144
 30
0.0
 66
     1
 70
     8
  0
VERTEX
  8
AM_0
  5
1A793
 10
512.344
 20
331.077
 30
0.000000
  70
    32
  0
VERTEX
  8
AM_0
  5
1A794
 10
512.383
 20
332.671
 30
0.000000
  70
    32
  0
VERTEX
  8
AM_0
  5
1A795
 10
512.500
 20
334.262
 30
0.000000
  70
    32
  0
VERTEX
  8
AM_0
  5
1A796
 10
512.696
 20
335.845
 30
0.000000
  70
    32
  0
VERTEX
  8
AM_0
  5
1A797
 10
512.968
 20
337.417
 30
0.000000
  70
    32
  0
VERTEX
  8
AM_0
  5
1A798
 10
513.318
 20
338.974
 30
0.000000
  70
    32
  0
VERTEX
  8
AM_0
  5
1A799
 10
513.743
 20
340.511
 30
0.000000
  70
    32
  0
VERTEX
  8
AM_0
  5
1A79A
 10
514.244
 20
342.026
 30
0.000000
  70
    32
  0
VERTEX
  8
AM_0
  5
1A79B
 10
514.818
 20
343.514
 30
0.000000
  70
    32
  0
VERTEX
  8
AM_0
  5
1A79C
 10
515.464
 20
344.972
 30
0.000000
  70
    32
  0
VERTEX
  8
AM_0
  5
1A79D
 10
516.181
 20
346.397
 30
0.000000
  70
    32
  0
VERTEX
  8
AM_0
  5
1A79E
 10
516.968
 20
347.785
 30
0.000000
  70
    32
  0
VERTEX
  8
AM_0
  5
1A79F
 10
517.821
 20
349.133
 30
0.000000
  70
    32
  0
VERTEX
  8
AM_0
  5
1A7A0
 10
518.740
 20
350.437
 30
0.000000
  70
    32
  0
VERTEX
  8
AM_0
  5
1A7A1
 10
519.721
 20
351.695
 30
0.000000
  70
    32
  0
VERTEX
  8
AM_0
  5
1A7A2
 10
520.763
 20
352.903
 30
0.000000
  70
    32
  0
VERTEX
  8
AM_0
  5
1A7A3
 10
521.863
 20
354.058
 30
0.000000
  70
    32
  0
VERTEX
  8
AM_0
  5
1A7A4
 10
523.018
 20
355.158
 30
0.000000
  70
    32
  0
VERTEX
  8
AM_0
  5
1A7A5
 10
524.226
 20
356.200
 30
0.000000
  70
    32
  0
VERTEX
  8
AM_0
  5
1A7A6
 10
525.484
 20
357.181
 30
0.000000
  70
    32
  0
VERTEX
  8
AM_0
  5
1A7A7
 10
526.788
 20
358.100
 30
0.000000
  70
    32
  0
VERTEX
  8
AM_0
  5
1A7A8
 10
528.135
 20
358.953
 30
0.000000
  70
    32
  0
VERTEX
  8
AM_0
  5
1A7A9
 10
529.523
 20
359.740
 30
0.000000
  70
    32
  0
VERTEX
  8
AM_0
  5
1A7AA
 10
530.948
 20
360.457
 30
0.000000
  70
    32
  0
VERTEX
  8
AM_0
  5
1A7AB
 10
532.407
 20
361.103
 30
0.000000
  70
    32
  0
VERTEX
  8
AM_0
  5
1A7AC
 10
533.895
 20
361.677
 30
0.000000
  70
    32
  0
VERTEX
  8
AM_0
  5
1A7AD
 10
535.410
 20
362.178
 30
0.000000
  70
    32
  0
VERTEX
  8
AM_0
  5
1A7AE
 10
536.947
 20
362.603
 30
0.000000
  70
    32
  0
VERTEX
  8
AM_0
  5
1A7AF
 10
538.503
 20
362.953
 30
0.000000
  70
    32
  0
VERTEX
  8
AM_0
  5
1A7B0
 10
540.075
 20
363.225
 30
0.000000
  70
    32
  0
VERTEX
  8
AM_0
  5
1A7B1
 10
541.658
 20
363.421
 30
0.000000
  70
    32
  0
VERTEX
  8
AM_0
  5
1A7B2
 10
543.249
 20
363.538
 30
0.000000
  70
    32
  0
VERTEX
  8
AM_0
  5
1A7B3
 10
544.844
 20
363.577
 30
0.000000
  70
    32
  0
VERTEX
  8
AM_0
  5
1A7B4
 10
546.439
 20
363.538
 30
0.000000
  70
    32
  0
VERTEX
  8
AM_0
  5
1A7B5
 10
548.029
 20
363.421
 30
0.000000
  70
    32
  0
VERTEX
  8
AM_0
  5
1A7B6
 10
549.613
 20
363.225
 30
0.000000
  70
    32
  0
VERTEX
  8
AM_0
  5
1A7B7
 10
551.184
 20
362.953
 30
0.000000
  70
    32
  0
VERTEX
  8
AM_0
  5
1A7B8
 10
552.741
 20
362.603
 30
0.000000
  70
    32
  0
VERTEX
  8
AM_0
  5
1A7B9
 10
554.278
 20
362.178
 30
0.000000
  70
    32
  0
VERTEX
  8
AM_0
  5
1A7BA
 10
555.793
 20
361.677
 30
0.000000
  70
    32
  0
VERTEX
  8
AM_0
  5
1A7BB
 10
557.281
 20
361.103
 30
0.000000
  70
    32
  0
VERTEX
  8
AM_0
  5
1A7BC
 10
558.739
 20
360.457
 30
0.000000
  70
    32
  0
VERTEX
  8
AM_0
  5
1A7BD
 10
560.164
 20
359.740
 30
0.000000
  70
    32
  0
VERTEX
  8
AM_0
  5
1A7BE
 10
561.552
 20
358.953
 30
0.000000
  70
    32
  0
VERTEX
  8
AM_0
  5
1A7BF
 10
562.900
 20
358.100
 30
0.000000
  70
    32
  0
VERTEX
  8
AM_0
  5
1A7C0
 10
564.204
 20
357.181
 30
0.000000
  70
    32
  0
VERTEX
  8
AM_0
  5
1A7C1
 10
565.462
 20
356.200
 30
0.000000
  70
    32
  0
VERTEX
  8
AM_0
  5
1A7C2
 10
566.669
 20
355.158
 30
0.000000
  70
    32
  0
VERTEX
  8
AM_0
  5
1A7C3
 10
567.825
 20
354.058
 30
0.000000
  70
    32
  0
VERTEX
  8
AM_0
  5
1A7C4
 10
568.925
 20
352.903
 30
0.000000
  70
    32
  0
VERTEX
  8
AM_0
  5
1A7C5
 10
569.967
 20
351.695
 30
0.000000
  70
    32
  0
VERTEX
  8
AM_0
  5
1A7C6
 10
570.948
 20
350.437
 30
0.000000
  70
    32
  0
VERTEX
  8
AM_0
  5
1A7C7
 10
571.867
 20
349.133
 30
0.000000
  70
    32
  0
VERTEX
  8
AM_0
  5
1A7C8
 10
572.720
 20
347.785
 30
0.000000
  70
    32
  0
VERTEX
  8
AM_0
  5
1A7C9
 10
573.506
 20
346.397
 30
0.000000
  70
    32
  0
VERTEX
  8
AM_0
  5
1A7CA
 10
574.223
 20
344.972
 30
0.000000
  70
    32
  0
VERTEX
  8
AM_0
  5
1A7CB
 10
574.870
 20
343.514
 30
0.000000
  70
    32
  0
VERTEX
  8
AM_0
  5
1A7CC
 10
575.444
 20
342.026
 30
0.000000
  70
    32
  0
VERTEX
  8
AM_0
  5
1A7CD
 10
575.944
 20
340.511
 30
0.000000
  70
    32
  0
VERTEX
  8
AM_0
  5
1A7CE
 10
576.370
 20
338.974
 30
0.000000
  70
    32
  0
VERTEX
  8
AM_0
  5
1A7CF
 10
576.719
 20
337.417
 30
0.000000
  70
    32
  0
VERTEX
  8
AM_0
  5
1A7D0
 10
576.992
 20
335.845
 30
0.000000
  70
    32
  0
VERTEX
  8
AM_0
  5
1A7D1
 10
577.187
 20
334.262
 30
0.000000
  70
    32
  0
VERTEX
  8
AM_0
  5
1A7D2
 10
577.305
 20
332.671
 30
0.000000
  70
    32
  0
VERTEX
  8
AM_0
  5
1A7D3
 10
577.344
 20
331.077
 30
0.000000
  70
    32
  0
VERTEX
  8
AM_0
  5
1A7D4
 10
577.305
 20
329.482
 30
0.000000
  70
    32
  0
VERTEX
  8
AM_0
  5
1A7D5
 10
577.187
 20
327.891
 30
0.000000
  70
    32
  0
VERTEX
  8
AM_0
  5
1A7D6
 10
576.992
 20
326.308
 30
0.000000
  70
    32
  0
VERTEX
  8
AM_0
  5
1A7D7
 10
576.719
 20
324.736
 30
0.000000
  70
    32
  0
VERTEX
  8
AM_0
  5
1A7D8
 10
576.370
 20
323.180
 30
0.000000
  70
    32
  0
VERTEX
  8
AM_0
  5
1A7D9
 10
575.944
 20
321.642
 30
0.000000
  70
    32
  0
VERTEX
  8
AM_0
  5
1A7DA
 10
575.444
 20
320.127
 30
0.000000
  70
    32
  0
VERTEX
  8
AM_0
  5
1A7DB
 10
574.870
 20
318.639
 30
0.000000
  70
    32
  0
VERTEX
  8
AM_0
  5
1A7DC
 10
574.223
 20
317.181
 30
0.000000
  70
    32
  0
VERTEX
  8
AM_0
  5
1A7DD
 10
573.506
 20
315.756
 30
0.000000
  70
    32
  0
VERTEX
  8
AM_0
  5
1A7DE
 10
572.720
 20
314.368
 30
0.000000
  70
    32
  0
VERTEX
  8
AM_0
  5
1A7DF
 10
571.867
 20
313.020
 30
0.000000
  70
    32
  0
VERTEX
  8
AM_0
  5
1A7E0
 10
570.948
 20
311.716
 30
0.000000
  70
    32
  0
VERTEX
  8
AM_0
  5
1A7E1
 10
569.967
 20
310.458
 30
0.000000
  70
    32
  0
VERTEX
  8
AM_0
  5
1A7E2
 10
568.925
 20
309.250
 30
0.000000
  70
    32
  0
VERTEX
  8
AM_0
  5
1A7E3
 10
567.825
 20
308.095
 30
0.000000
  70
    32
  0
VERTEX
  8
AM_0
  5
1A7E4
 10
566.669
 20
306.995
 30
0.000000
  70
    32
  0
VERTEX
  8
AM_0
  5
1A7E5
 10
565.462
 20
305.953
 30
0.000000
  70
    32
  0
VERTEX
  8
AM_0
  5
1A7E6
 10
564.204
 20
304.972
 30
0.000000
  70
    32
  0
VERTEX
  8
AM_0
  5
1A7E7
 10
562.900
 20
304.053
 30
0.000000
  70
    32
  0
VERTEX
  8
AM_0
  5
1A7E8
 10
561.552
 20
303.200
 30
0.000000
  70
    32
  0
VERTEX
  8
AM_0
  5
1A7E9
 10
560.164
 20
302.414
 30
0.000000
  70
    32
  0
VERTEX
  8
AM_0
  5
1A7EA
 10
558.739
 20
301.696
 30
0.000000
  70
    32
  0
VERTEX
  8
AM_0
  5
1A7EB
 10
557.281
 20
301.050
 30
0.000000
  70
    32
  0
VERTEX
  8
AM_0
  5
1A7EC
 10
555.793
 20
300.476
 30
0.000000
  70
    32
  0
VERTEX
  8
AM_0
  5
1A7ED
 10
554.278
 20
299.975
 30
0.000000
  70
    32
  0
VERTEX
  8
AM_0
  5
1A7EE
 10
552.741
 20
299.550
 30
0.000000
  70
    32
  0
VERTEX
  8
AM_0
  5
1A7EF
 10
551.184
 20
299.200
 30
0.000000
  70
    32
  0
VERTEX
  8
AM_0
  5
1A7F0
 10
549.613
 20
298.928
 30
0.000000
  70
    32
  0
VERTEX
  8
AM_0
  5
1A7F1
 10
548.029
 20
298.732
 30
0.000000
  70
    32
  0
VERTEX
  8
AM_0
  5
1A7F2
 10
546.439
 20
298.615
 30
0.000000
  70
    32
  0
VERTEX
  8
AM_0
  5
1A7F3
 10
544.844
 20
298.576
 30
0.000000
  70
    32
  0
VERTEX
  8
AM_0
  5
1A7F4
 10
543.249
 20
298.615
 30
0.000000
  70
    32
  0
VERTEX
  8
AM_0
  5
1A7F5
 10
541.658
 20
298.732
 30
0.000000
  70
    32
  0
VERTEX
  8
AM_0
  5
1A7F6
 10
540.075
 20
298.928
 30
0.000000
  70
    32
  0
VERTEX
  8
AM_0
  5
1A7F7
 10
538.503
 20
299.200
 30
0.000000
  70
    32
  0
VERTEX
  8
AM_0
  5
1A7F8
 10
536.947
 20
299.550
 30
0.000000
  70
    32
  0
VERTEX
  8
AM_0
  5
1A7F9
 10
535.410
 20
299.975
 30
0.000000
  70
    32
  0
VERTEX
  8
AM_0
  5
1A7FA
 10
533.895
 20
300.476
 30
0.000000
  70
    32
  0
VERTEX
  8
AM_0
  5
1A7FB
 10
532.407
 20
301.050
 30
0.000000
  70
    32
  0
VERTEX
  8
AM_0
  5
1A7FC
 10
530.948
 20
301.696
 30
0.000000
  70
    32
  0
VERTEX
  8
AM_0
  5
1A7FD
 10
529.523
 20
302.414
 30
0.000000
  70
    32
  0
VERTEX
  8
AM_0
  5
1A7FE
 10
528.135
 20
303.200
 30
0.000000
  70
    32
  0
VERTEX
  8
AM_0
  5
1A7FF
 10
526.788
 20
304.053
 30
0.000000
  70
    32
  0
VERTEX
  8
AM_0
  5
1A800
 10
525.484
 20
304.972
 30
0.000000
  70
    32
  0
VERTEX
  8
AM_0
  5
1A801
 10
524.226
 20
305.953
 30
0.000000
  70
    32
  0
VERTEX
  8
AM_0
  5
1A802
 10
523.018
 20
306.995
 30
0.000000
  70
    32
  0
VERTEX
  8
AM_0
  5
1A803
 10
521.863
 20
308.095
 30
0.000000
  70
    32
  0
VERTEX
  8
AM_0
  5
1A804
 10
520.763
 20
309.250
 30
0.000000
  70
    32
  0
VERTEX
  8
AM_0
  5
1A805
 10
519.721
 20
310.458
 30
0.000000
  70
    32
  0
VERTEX
  8
AM_0
  5
1A806
 10
518.740
 20
311.716
 30
0.000000
  70
    32
  0
VERTEX
  8
AM_0
  5
1A807
 10
517.821
 20
313.020
 30
0.000000
  70
    32
  0
VERTEX
  8
AM_0
  5
1A808
 10
516.968
 20
314.368
 30
0.000000
  70
    32
  0
VERTEX
  8
AM_0
  5
1A809
 10
516.181
 20
315.756
 30
0.000000
  70
    32
  0
VERTEX
  8
AM_0
  5
1A80A
 10
515.464
 20
317.181
 30
0.000000
  70
    32
  0
VERTEX
  8
AM_0
  5
1A80B
 10
514.818
 20
318.639
 30
0.000000
  70
    32
  0
VERTEX
  8
AM_0
  5
1A80C
 10
514.244
 20
320.127
 30
0.000000
  70
    32
  0
VERTEX
  8
AM_0
  5
1A80D
 10
513.743
 20
321.642
 30
0.000000
  70
    32
  0
VERTEX
  8
AM_0
  5
1A80E
 10
513.318
 20
323.180
 30
0.000000
  70
    32
  0
VERTEX
  8
AM_0
  5
1A80F
 10
512.968
 20
324.736
 30
0.000000
  70
    32
  0
VERTEX
  8
AM_0
  5
1A810
 10
512.696
 20
326.308
 30
0.000000
  70
    32
  0
VERTEX
  8
AM_0
  5
1A811
 10
512.500
 20
327.891
 30
0.000000
  70
    32
  0
VERTEX
  8
AM_0
  5
1A812
 10
512.383
 20
329.482
 30
0.000000
  70
    32
  0
VERTEX
  8
AM_0
  5
1A813
 10
512.344
 20
331.077
 30
0.000000
  70
    32
  0
SEQEND
  8
AM_0
  5
1A814
  0
LINE
  5
18D38
  8
0
 10
662.84380298539759
 20
193.0765292291795
 30
0.0
 11
492.8437744599791
 21
193.0765292291795
 31
0.0
  0
LINE
  5
18D39
  8
0
 10
641.27994433012566
 20
200.0765292291795
 30
0.0
 11
514.40763311382989
 21
200.07652922917941
 31
0.0
  0
CIRCLE
  5
18D3A
  8
0
 10
544.84380298810106
 20
331.07652922917941
 30
0.0
 40
52.5
  0
LINE
  5
18D3B
  8
0
 10
560.96185997196721
 20
244.076536858574
 30
0.0
 11
527.34378209207705
 21
244.076536858574
 31
0.0
  0
LINE
  5
18D3C
  8
0
 10
560.96185997196721
 20
418.07652159978483
 30
0.0
 11
527.34378209207739
 21
418.07652159978483
 31
0.0
  0
LINE
  5
18D3D
  8
0
 10
641.27994433012566
 20
462.0765292291793
 30
0.0
 11
514.40763311383034
 21
462.0765292291793
 31
0.0
  0
LINE
  5
18D3E
  8
0
 10
662.8438029853977
 20
469.0765292291793
 30
0.0
 11
492.84377445997939
 21
469.0765292291793
 31
0.0
  0
LINE
  5
18D5A
  8
ﾁｭｳｼﾝｾﾝ1
 10
188.98881344088471
 20
471.85214780472108
 30
0.0
 11
188.98884209969461
 21
210.0751861742153
 31
0.0
  0
LINE
  5
18D5E
  8
AM_0
 10
118.98883477602131
 20
239.04709804410609
 30
0.0
 11
118.98883477602131
 21
423.10594515515822
 31
0.0
  0
LINE
  5
18D5F
  8
AM_0
 10
231.9888419922811
 20
237.07464642770549
 30
0.0
 11
231.9888419922811
 21
425.07841203065379
 31
0.0
  0
LINE
  5
18D61
  8
AM_0
 10
113.98883844020681
 20
281.07552773903348
 30
0.0
 11
113.98883844020681
 21
381.0775307193253
 31
0.0
  0
LINE
  5
18D62
  8
ｶｸﾚｾﾝ2
 10
263.98884677025262
 20
284.07552773903348
 30
0.0
 11
263.98884677025262
 21
378.07753071932541
 31
0.0
  0
LINE
  5
18D63
  8
AM_0
 10
288.98882701886419
 20
193.07652922464521
 30
0.0
 11
288.98882688902779
 21
469.0765292291793
 31
0.0
  0
LINE
  5
18D66
  8
AM_0
 10
465.84380045950581
 20
252.0749468747486
 30
0.0
 11
465.8438004595061
 21
410.07811158360983
 31
0.0
  0
LINE
  5
18D67
  8
AM_0
 10
458.84380045950581
 20
255.07651397039069
 30
0.0
 11
458.8438004595061
 21
407.076521599785
 31
0.0
  0
LINE
  5
18D6B
  8
ﾁｭｳｼﾝｾﾝ1
 10
369.38470348399511
 20
331.07652922917941
 30
0.0
 11
96.013694598022084
 21
331.07652922917941
 31
0.0
  0
LINE
  5
18D6C
  8
ﾁｭｳｼﾝｾﾝ1
 10
273.9303421324903
 20
344.07652922917941
 30
0.0
 11
104.0473127265094
 21
344.07652922917941
 31
0.0
  0
LINE
  5
18D6E
  8
AM_0
 10
118.98883477602131
 20
239.04709804410609
 30
0.0
 11
231.9888419922811
 21
237.07464642770549
 31
0.0
  0
LINE
  5
18D76
  8
0
 10
115.98883477602131
 20
240.07500696415781
 30
0.0
 11
115.98883477602131
 21
270.07500696415758
 31
0.0
  0
LINE
  5
18D77
  8
0
 10
99.988834776021335
 20
243.07500696415781
 30
0.0
 11
99.988834776021335
 21
267.07500696415758
 31
0.0
  0
LINE
  5
18D78
  8
0
 10
115.98883477602131
 20
243.07500696415781
 30
0.0
 11
99.988834776021335
 21
243.07500696415781
 31
0.0
  0
LINE
  5
18D7D
  8
0
 10
115.98883477602131
 20
240.07500696415781
 30
0.0
 11
118.98883477602131
 21
240.07500696415781
 31
0.0
  0
LINE
  5
18D82
  8
AM_0
 10
108.989133663658
 20
363.57718019777423
 30
0.0
 11
113.98913381416951
 21
363.57718019777423
 31
0.0
  0
LINE
  5
18D84
  8
AM_0
 10
108.98883828969539
 20
298.57587826058437
 30
0.0
 11
113.98883844020681
 21
298.57587826058437
 31
0.0
  0
LINE
  5
18D85
  8
0
 10
99.988834776021335
 20
267.07500696415758
 30
0.0
 11
115.98883477602131
 21
267.07500696415758
 31
0.0
  0
LINE
  5
18D86
  8
AM_0
 10
108.98883828969539
 20
298.57587826058437
 30
0.0
 11
108.98883828969539
 21
363.57718019777428
 31
0.0
  0
LINE
  5
18D8C
  8
AM_0
 10
113.98883844020681
 20
281.07552773903348
 30
0.0
 11
118.9888385907186
 21
281.07552773903348
 31
0.0
  0
LINE
  5
18D8D
  8
0
 10
115.98883477602131
 20
270.07500696415758
 30
0.0
 11
118.98883477602131
 21
270.07500696415758
 31
0.0
  0
LINE
  5
18D99
  8
ﾁｭｳｼﾝｾﾝ1
 10
256.74991022125118
 20
213.0765292291795
 30
0.0
 11
296.21166815632182
 21
213.0765292291795
 31
0.0
  0
ARC
  5
18D9A
  8
0
 10
266.98882689080119
 20
196.8466147908326
 30
0.0
 40
3.0
 50
179.99999997304599
 51
267.99999999999642
1001
GENIUS_GENOBJ-N-FIL_13
1002
{
1000
OWNER
1000
GEN
1002
}
1001
GENIUS_GENODEF_13
1002
{
1000
HIER
1070
     0
1002
}
1002
{
1000
MANEDIT
1070
     0
1002
}
1002
{
1000
NOSEL
1070
     0
1002
}
1002
{
1000
BEHIND
1070
     0
1002
}
1002
{
1000
OTHER
1070
     0
1002
}
1002
{
1000
REACTOR
1002
}
  0
LINE
  5
18D9C
  8
0
 10
266.88412840069373
 20
193.84844230977529
 30
0.0
 11
288.98882688902779
 21
193.0765292291795
 31
0.0
  0
LINE
  5
18D9D
  8
0
 10
231.9888419922811
 20
237.07464642770549
 30
0.0
 11
259.16332439044089
 21
236.1256925918216
 31
0.0
  0
LINE
  5
18DA4
  8
AM_0
 10
263.98882690692858
 20
231.128738454374
 30
0.0
 11
263.98882689080119
 21
196.84661479224371
 31
0.0
  0
ARC
  5
18DA8
  8
0
 10
258.98882690692858
 20
231.1287384567259
 30
0.0
 40
5.0
 50
359.9999999730461
 51
88.000000000002842
1001
GENIUS_GENOBJ-N-FIL_13
1002
{
1000
OWNER
1000
GEN
1002
}
1001
GENIUS_GENODEF_13
1002
{
1000
HIER
1070
     0
1002
}
1002
{
1000
MANEDIT
1070
     0
1002
}
1002
{
1000
NOSEL
1070
     0
1002
}
1002
{
1000
BEHIND
1070
     0
1002
}
1002
{
1000
OTHER
1070
     0
1002
}
1002
{
1000
REACTOR
1002
}
  0
ARC
  5
18DBD
  8
0
 10
478.84380298810129
 20
255.07651397039049
 30
0.0
 40
20.0
 50
180.0
 51
198.4349200441674
  0
CIRCLE
  5
18DBF
  8
0
 10
478.84376449224732
 20
255.0765582989626
 30
0.0
 40
6.5
  0
CIRCLE
  5
18DC0
  8
0
  6
CONTINUOUS
 62
     2
 10
478.84380298810129
 20
255.07651397039049
 30
0.0
 40
8.0
  0
ARC
  5
18DC4
  8
0
 10
492.8437744599791
 20
213.07652922647591
 30
0.0
 40
19.99999999729641
 50
198.4349200441674
 51
270.0
  0
CIRCLE
  5
18DC7
  8
0
 10
492.8437744599791
 20
213.07652922647591
 30
0.0
 40
9.0
  0
LINE
  5
18DC9
  8
0
 10
518.89403462377106
 20
244.076536858574
 30
0.0
 11
475.84380045950599
 21
244.076536858574
 31
0.0
  0
ARC
  5
18DCA
  8
0
 10
492.8437744599791
 20
213.07652922647591
 30
0.0
 40
18.0
 50
339.64559360894788
 51
129.86377856364891
  0
ARC
  5
18DCB
  8
0
 10
478.10159062863892
 20
230.73065100817229
 30
0.0
 40
5.0
 50
199.5093721725961
 51
309.86377856364879
1001
GENIUS_GENODEF_13
1002
{
1000
HIER
1070
     0
1002
}
1002
{
1000
MANEDIT
1070
     0
1002
}
1002
{
1000
NOSEL
1070
     0
1002
}
1002
{
1000
BEHIND
1070
     0
1002
}
1002
{
1000
OTHER
1070
     0
1002
}
1002
{
1000
REACTOR
1002
}
1001
GENIUS_GENOBJ-N-FIL_13
1002
{
1000
OWNER
1000
GEN
1002
}
  0
LINE
  5
18DCC
  8
0
 10
473.87010532442662
 20
206.75198343832369
 30
0.0
 11
459.8701338499838
 21
248.75196818138329
 31
0.0
  0
LINE
  5
18DCD
  8
0
 10
466.41793172608732
 20
248.7353362479187
 30
0.0
 11
473.3886562489671
 21
229.0608457701546
 31
0.0
  0
ARC
  5
18DCE
  8
0
 10
475.84380045950581
 20
254.07651397039041
 30
0.0
 40
10.0
 50
180.0
 51
270.0
1001
GENIUS_GENOBJ-N-FIL_13
1002
{
1000
OWNER
1000
GEN
1002
}
1001
GENIUS_GENODEF_13
1002
{
1000
HIER
1070
     0
1002
}
1002
{
1000
MANEDIT
1070
     0
1002
}
1002
{
1000
NOSEL
1070
     0
1002
}
1002
{
1000
BEHIND
1070
     0
1002
}
1002
{
1000
OTHER
1070
     0
1002
}
1002
{
1000
REACTOR
1002
}
  0
ARC
  5
18DCF
  8
0
 10
475.84380091104089
 20
252.074946874749
 30
0.0
 40
10.0000004515349
 50
180.0
 51
199.5093721725961
  0
ARC
  5
18DD0
  8
0
 10
513.96626335977214
 20
222.17820284609761
 30
0.0
 40
5.0
 50
134.99999999999969
 51
203.31119438185851
1001
GENIUS_GENOBJ-N-FIL_13
1002
{
1000
OWNER
1000
GEN
1002
}
1001
GENIUS_GENODEF_13
1002
{
1000
HIER
1070
     0
1002
}
1002
{
1000
MANEDIT
1070
     0
1002
}
1002
{
1000
NOSEL
1070
     0
1002
}
1002
{
1000
BEHIND
1070
     0
1002
}
1002
{
1000
OTHER
1070
     0
1002
}
1002
{
1000
REACTOR
1002
}
  0
ARC
  5
18DD1
  8
0
 10
514.40763311382989
 20
205.07652922917961
 30
0.0
 40
5.0
 50
159.64559360894779
 51
270.0
1001
GENIUS_GENODEF_13
1002
{
1000
HIER
1070
     0
1002
}
1002
{
1000
MANEDIT
1070
     0
1002
}
1002
{
1000
NOSEL
1070
     0
1002
}
1002
{
1000
BEHIND
1070
     0
1002
}
1002
{
1000
OTHER
1070
     0
1002
}
1002
{
1000
REACTOR
1002
}
1001
GENIUS_GENOBJ-N-FIL_13
1002
{
1000
OWNER
1000
GEN
1002
}
  0
LINE
  5
18DD2
  8
0
 10
510.43072945383932
 20
225.71373675203051
 30
0.0
 11
526.31865582623004
 21
241.60166312442109
 31
0.0
  0
LINE
  5
18DD3
  8
0
 10
505.48098198553367
 20
230.66348422033619
 30
0.0
 11
521.36890835792406
 21
246.5514105927268
 31
0.0
  0
ARC
  5
18DD4
  8
0
 10
501.94544807960079
 20
234.1990181262689
 30
0.0
 40
5.0
 50
246.6888056181416
 51
314.99999999999989
1001
GENIUS_GENODEF_13
1002
{
1000
HIER
1070
     0
1002
}
1002
{
1000
MANEDIT
1070
     0
1002
}
1002
{
1000
NOSEL
1070
     0
1002
}
1002
{
1000
BEHIND
1070
     0
1002
}
1002
{
1000
OTHER
1070
     0
1002
}
1002
{
1000
REACTOR
1002
}
1001
GENIUS_GENOBJ-N-FIL_13
1002
{
1000
OWNER
1000
GEN
1002
}
  0
ARC
  5
18DD5
  8
0
 10
523.84378209207739
 20
244.076536858574
 30
0.0
 40
3.499999999999988
 50
314.99999999999989
 51
134.99999999999969
  0
ARC
  5
18DD7
  8
0
 10
468.8438004595061
 20
301.07652922917941
 30
0.0
 40
3.0
 50
0.0
 51
90.0
  0
ARC
  5
18DD8
  8
0
 10
468.8438004595061
 20
301.07652922917941
 30
0.0
 40
3.0
 50
270.0
 51
0.0
  0
ARC
  5
18DD9
  8
0
 10
468.84380045950593
 20
295.0765292291793
 30
0.0
 40
3.0
 50
90.0
 51
180.0
1001
GENIUS_GENODEF_13
1002
{
1000
HIER
1070
     0
1002
}
1002
{
1000
MANEDIT
1070
     0
1002
}
1002
{
1000
NOSEL
1070
     0
1002
}
1002
{
1000
BEHIND
1070
     0
1002
}
1002
{
1000
OTHER
1070
     0
1002
}
1002
{
1000
REACTOR
1002
}
1001
GENIUS_GENOBJ-N-FIL_13
1002
{
1000
OWNER
1000
GEN
1002
}
  0
ARC
  5
18DDA
  8
0
 10
468.84380045950593
 20
307.07652922917941
 30
0.0
 40
3.0
 50
180.0
 51
270.0
1001
GENIUS_GENOBJ-N-FIL_13
1002
{
1000
OWNER
1000
GEN
1002
}
1001
GENIUS_GENODEF_13
1002
{
1000
HIER
1070
     0
1002
}
1002
{
1000
MANEDIT
1070
     0
1002
}
1002
{
1000
NOSEL
1070
     0
1002
}
1002
{
1000
BEHIND
1070
     0
1002
}
1002
{
1000
OTHER
1070
     0
1002
}
1002
{
1000
REACTOR
1002
}
  0
ARC
  5
18DDB
  8
0
 10
468.8438004595061
 20
361.07652922917941
 30
0.0
 40
3.0
 50
270.0
 51
0.0
  0
ARC
  5
18DDC
  8
0
 10
468.8438004595061
 20
361.07652922917941
 30
0.0
 40
3.0
 50
0.0
 51
90.0
  0
ARC
  5
18DDD
  8
0
 10
468.84380045950593
 20
355.07652922917941
 30
0.0
 40
3.0
 50
90.0
 51
180.0
1001
GENIUS_GENODEF_13
1002
{
1000
HIER
1070
     0
1002
}
1002
{
1000
MANEDIT
1070
     0
1002
}
1002
{
1000
NOSEL
1070
     0
1002
}
1002
{
1000
BEHIND
1070
     0
1002
}
1002
{
1000
OTHER
1070
     0
1002
}
1002
{
1000
REACTOR
1002
}
1001
GENIUS_GENOBJ-N-FIL_13
1002
{
1000
OWNER
1000
GEN
1002
}
  0
ARC
  5
18DDE
  8
0
 10
468.84380045950593
 20
367.07652922917941
 30
0.0
 40
3.0
 50
180.0
 51
270.0
1001
GENIUS_GENOBJ-N-FIL_13
1002
{
1000
OWNER
1000
GEN
1002
}
1001
GENIUS_GENODEF_13
1002
{
1000
HIER
1070
     0
1002
}
1002
{
1000
MANEDIT
1070
     0
1002
}
1002
{
1000
NOSEL
1070
     0
1002
}
1002
{
1000
BEHIND
1070
     0
1002
}
1002
{
1000
OTHER
1070
     0
1002
}
1002
{
1000
REACTOR
1002
}
  0
LINE
  5
18DE0
  8
ﾁｭｳｼﾝｾﾝ1
 10
213.5557957869903
 20
446.07652966078689
 30
0.0
 11
164.25735266203009
 21
446.07652966078689
 31
0.0
  0
ARC
  5
18DE1
  8
AM_0
 10
188.98882825861449
 20
446.07652966078689
 30
0.0
 40
17.000000002124999
 50
0.0
 51
180.0
  0
LINE
  5
18DE3
  8
AM_0
 10
118.98883477602131
 20
423.10594515515822
 30
0.0
 11
231.9888419922811
 21
425.07841203065379
 31
0.0
  0
LINE
  5
18DE4
  8
AM_0
 10
243.98884071438101
 20
433.07856964642031
 30
0.0
 11
133.98884068138111
 21
433.07856964642031
 31
0.0
  0
LINE
  5
18DE9
  8
0
 10
115.98883477602131
 20
419.07805149420102
 30
0.0
 11
99.988834776021335
 21
419.07805149420102
 31
0.0
  0
LINE
  5
18DEA
  8
0
 10
99.988834776021335
 20
395.07805149420119
 30
0.0
 11
115.98883477602131
 21
395.07805149420119
 31
0.0
  0
LINE
  5
18DEB
  8
0
 10
99.988834776021335
 20
419.07805149420102
 30
0.0
 11
99.988834776021335
 21
395.07805149420119
 31
0.0
  0
POLYLINE
  5
18DEE
  8
AM_0
 10
133.98884068138111
 20
433.07856964642036
 30
0.0
 66
     1
 70
     8
  0
VERTEX
  8
AM_0
  5
1A815
 10
133.989
 20
433.079
 30
0.000000
  70
    32
  0
VERTEX
  8
AM_0
  5
1A816
 10
133.891
 20
433.078
 30
0.000000
  70
    32
  0
VERTEX
  8
AM_0
  5
1A817
 10
133.793
 20
433.076
 30
0.000000
  70
    32
  0
VERTEX
  8
AM_0
  5
1A818
 10
133.694
 20
433.073
 30
0.000000
  70
    32
  0
VERTEX
  8
AM_0
  5
1A819
 10
133.596
 20
433.069
 30
0.000000
  70
    32
  0
VERTEX
  8
AM_0
  5
1A81A
 10
133.498
 20
433.064
 30
0.000000
  70
    32
  0
VERTEX
  8
AM_0
  5
1A81B
 10
133.400
 20
433.057
 30
0.000000
  70
    32
  0
VERTEX
  8
AM_0
  5
1A81C
 10
133.302
 20
433.049
 30
0.000000
  70
    32
  0
VERTEX
  8
AM_0
  5
1A81D
 10
133.205
 20
433.040
 30
0.000000
  70
    32
  0
VERTEX
  8
AM_0
  5
1A81E
 10
133.107
 20
433.030
 30
0.000000
  70
    32
  0
VERTEX
  8
AM_0
  5
1A81F
 10
133.010
 20
433.018
 30
0.000000
  70
    32
  0
VERTEX
  8
AM_0
  5
1A820
 10
132.912
 20
433.006
 30
0.000000
  70
    32
  0
VERTEX
  8
AM_0
  5
1A821
 10
132.815
 20
432.992
 30
0.000000
  70
    32
  0
VERTEX
  8
AM_0
  5
1A822
 10
132.718
 20
432.977
 30
0.000000
  70
    32
  0
VERTEX
  8
AM_0
  5
1A823
 10
132.621
 20
432.961
 30
0.000000
  70
    32
  0
VERTEX
  8
AM_0
  5
1A824
 10
132.525
 20
432.943
 30
0.000000
  70
    32
  0
VERTEX
  8
AM_0
  5
1A825
 10
132.428
 20
432.925
 30
0.000000
  70
    32
  0
VERTEX
  8
AM_0
  5
1A826
 10
132.332
 20
432.905
 30
0.000000
  70
    32
  0
VERTEX
  8
AM_0
  5
1A827
 10
132.236
 20
432.884
 30
0.000000
  70
    32
  0
VERTEX
  8
AM_0
  5
1A828
 10
132.140
 20
432.862
 30
0.000000
  70
    32
  0
VERTEX
  8
AM_0
  5
1A829
 10
132.045
 20
432.839
 30
0.000000
  70
    32
  0
VERTEX
  8
AM_0
  5
1A82A
 10
131.950
 20
432.814
 30
0.000000
  70
    32
  0
VERTEX
  8
AM_0
  5
1A82B
 10
131.855
 20
432.789
 30
0.000000
  70
    32
  0
VERTEX
  8
AM_0
  5
1A82C
 10
131.761
 20
432.762
 30
0.000000
  70
    32
  0
VERTEX
  8
AM_0
  5
1A82D
 10
131.667
 20
432.734
 30
0.000000
  70
    32
  0
VERTEX
  8
AM_0
  5
1A82E
 10
131.573
 20
432.705
 30
0.000000
  70
    32
  0
VERTEX
  8
AM_0
  5
1A82F
 10
131.479
 20
432.675
 30
0.000000
  70
    32
  0
VERTEX
  8
AM_0
  5
1A830
 10
131.386
 20
432.643
 30
0.000000
  70
    32
  0
VERTEX
  8
AM_0
  5
1A831
 10
131.294
 20
432.611
 30
0.000000
  70
    32
  0
VERTEX
  8
AM_0
  5
1A832
 10
131.201
 20
432.577
 30
0.000000
  70
    32
  0
VERTEX
  8
AM_0
  5
1A833
 10
131.110
 20
432.543
 30
0.000000
  70
    32
  0
VERTEX
  8
AM_0
  5
1A834
 10
131.018
 20
432.507
 30
0.000000
  70
    32
  0
VERTEX
  8
AM_0
  5
1A835
 10
130.927
 20
432.470
 30
0.000000
  70
    32
  0
VERTEX
  8
AM_0
  5
1A836
 10
130.837
 20
432.431
 30
0.000000
  70
    32
  0
VERTEX
  8
AM_0
  5
1A837
 10
130.747
 20
432.392
 30
0.000000
  70
    32
  0
VERTEX
  8
AM_0
  5
1A838
 10
130.657
 20
432.352
 30
0.000000
  70
    32
  0
VERTEX
  8
AM_0
  5
1A839
 10
130.568
 20
432.310
 30
0.000000
  70
    32
  0
VERTEX
  8
AM_0
  5
1A83A
 10
130.480
 20
432.268
 30
0.000000
  70
    32
  0
VERTEX
  8
AM_0
  5
1A83B
 10
130.392
 20
432.224
 30
0.000000
  70
    32
  0
VERTEX
  8
AM_0
  5
1A83C
 10
130.305
 20
432.180
 30
0.000000
  70
    32
  0
VERTEX
  8
AM_0
  5
1A83D
 10
130.218
 20
432.134
 30
0.000000
  70
    32
  0
VERTEX
  8
AM_0
  5
1A83E
 10
130.131
 20
432.087
 30
0.000000
  70
    32
  0
VERTEX
  8
AM_0
  5
1A83F
 10
130.046
 20
432.039
 30
0.000000
  70
    32
  0
VERTEX
  8
AM_0
  5
1A840
 10
129.961
 20
431.990
 30
0.000000
  70
    32
  0
VERTEX
  8
AM_0
  5
1A841
 10
129.876
 20
431.940
 30
0.000000
  70
    32
  0
VERTEX
  8
AM_0
  5
1A842
 10
129.792
 20
431.889
 30
0.000000
  70
    32
  0
VERTEX
  8
AM_0
  5
1A843
 10
129.709
 20
431.837
 30
0.000000
  70
    32
  0
VERTEX
  8
AM_0
  5
1A844
 10
129.626
 20
431.784
 30
0.000000
  70
    32
  0
VERTEX
  8
AM_0
  5
1A845
 10
129.544
 20
431.730
 30
0.000000
  70
    32
  0
VERTEX
  8
AM_0
  5
1A846
 10
129.463
 20
431.675
 30
0.000000
  70
    32
  0
VERTEX
  8
AM_0
  5
1A847
 10
129.382
 20
431.619
 30
0.000000
  70
    32
  0
VERTEX
  8
AM_0
  5
1A848
 10
129.302
 20
431.562
 30
0.000000
  70
    32
  0
VERTEX
  8
AM_0
  5
1A849
 10
129.223
 20
431.504
 30
0.000000
  70
    32
  0
VERTEX
  8
AM_0
  5
1A84A
 10
129.145
 20
431.445
 30
0.000000
  70
    32
  0
VERTEX
  8
AM_0
  5
1A84B
 10
129.067
 20
431.385
 30
0.000000
  70
    32
  0
VERTEX
  8
AM_0
  5
1A84C
 10
128.990
 20
431.324
 30
0.000000
  70
    32
  0
VERTEX
  8
AM_0
  5
1A84D
 10
128.914
 20
431.263
 30
0.000000
  70
    32
  0
VERTEX
  8
AM_0
  5
1A84E
 10
128.838
 20
431.200
 30
0.000000
  70
    32
  0
VERTEX
  8
AM_0
  5
1A84F
 10
128.763
 20
431.136
 30
0.000000
  70
    32
  0
VERTEX
  8
AM_0
  5
1A850
 10
128.690
 20
431.072
 30
0.000000
  70
    32
  0
VERTEX
  8
AM_0
  5
1A851
 10
128.616
 20
431.006
 30
0.000000
  70
    32
  0
VERTEX
  8
AM_0
  5
1A852
 10
128.544
 20
430.940
 30
0.000000
  70
    32
  0
VERTEX
  8
AM_0
  5
1A853
 10
128.473
 20
430.873
 30
0.000000
  70
    32
  0
VERTEX
  8
AM_0
  5
1A854
 10
128.402
 20
430.804
 30
0.000000
  70
    32
  0
VERTEX
  8
AM_0
  5
1A855
 10
128.332
 20
430.735
 30
0.000000
  70
    32
  0
VERTEX
  8
AM_0
  5
1A856
 10
128.263
 20
430.666
 30
0.000000
  70
    32
  0
VERTEX
  8
AM_0
  5
1A857
 10
128.195
 20
430.595
 30
0.000000
  70
    32
  0
VERTEX
  8
AM_0
  5
1A858
 10
128.128
 20
430.523
 30
0.000000
  70
    32
  0
VERTEX
  8
AM_0
  5
1A859
 10
128.061
 20
430.451
 30
0.000000
  70
    32
  0
VERTEX
  8
AM_0
  5
1A85A
 10
127.996
 20
430.378
 30
0.000000
  70
    32
  0
VERTEX
  8
AM_0
  5
1A85B
 10
127.931
 20
430.304
 30
0.000000
  70
    32
  0
VERTEX
  8
AM_0
  5
1A85C
 10
127.868
 20
430.229
 30
0.000000
  70
    32
  0
VERTEX
  8
AM_0
  5
1A85D
 10
127.805
 20
430.154
 30
0.000000
  70
    32
  0
VERTEX
  8
AM_0
  5
1A85E
 10
127.743
 20
430.077
 30
0.000000
  70
    32
  0
VERTEX
  8
AM_0
  5
1A85F
 10
127.682
 20
430.000
 30
0.000000
  70
    32
  0
VERTEX
  8
AM_0
  5
1A860
 10
127.622
 20
429.923
 30
0.000000
  70
    32
  0
VERTEX
  8
AM_0
  5
1A861
 10
127.563
 20
429.844
 30
0.000000
  70
    32
  0
VERTEX
  8
AM_0
  5
1A862
 10
127.505
 20
429.765
 30
0.000000
  70
    32
  0
VERTEX
  8
AM_0
  5
1A863
 10
127.448
 20
429.685
 30
0.000000
  70
    32
  0
VERTEX
  8
AM_0
  5
1A864
 10
127.392
 20
429.604
 30
0.000000
  70
    32
  0
VERTEX
  8
AM_0
  5
1A865
 10
127.337
 20
429.523
 30
0.000000
  70
    32
  0
VERTEX
  8
AM_0
  5
1A866
 10
127.283
 20
429.441
 30
0.000000
  70
    32
  0
VERTEX
  8
AM_0
  5
1A867
 10
127.230
 20
429.358
 30
0.000000
  70
    32
  0
VERTEX
  8
AM_0
  5
1A868
 10
127.178
 20
429.275
 30
0.000000
  70
    32
  0
VERTEX
  8
AM_0
  5
1A869
 10
127.127
 20
429.191
 30
0.000000
  70
    32
  0
VERTEX
  8
AM_0
  5
1A86A
 10
127.077
 20
429.107
 30
0.000000
  70
    32
  0
VERTEX
  8
AM_0
  5
1A86B
 10
127.028
 20
429.022
 30
0.000000
  70
    32
  0
VERTEX
  8
AM_0
  5
1A86C
 10
126.980
 20
428.936
 30
0.000000
  70
    32
  0
VERTEX
  8
AM_0
  5
1A86D
 10
126.933
 20
428.850
 30
0.000000
  70
    32
  0
VERTEX
  8
AM_0
  5
1A86E
 10
126.888
 20
428.763
 30
0.000000
  70
    32
  0
VERTEX
  8
AM_0
  5
1A86F
 10
126.843
 20
428.675
 30
0.000000
  70
    32
  0
VERTEX
  8
AM_0
  5
1A870
 10
126.799
 20
428.587
 30
0.000000
  70
    32
  0
VERTEX
  8
AM_0
  5
1A871
 10
126.757
 20
428.499
 30
0.000000
  70
    32
  0
VERTEX
  8
AM_0
  5
1A872
 10
126.715
 20
428.410
 30
0.000000
  70
    32
  0
VERTEX
  8
AM_0
  5
1A873
 10
126.675
 20
428.320
 30
0.000000
  70
    32
  0
VERTEX
  8
AM_0
  5
1A874
 10
126.636
 20
428.230
 30
0.000000
  70
    32
  0
VERTEX
  8
AM_0
  5
1A875
 10
126.598
 20
428.140
 30
0.000000
  70
    32
  0
VERTEX
  8
AM_0
  5
1A876
 10
126.561
 20
428.049
 30
0.000000
  70
    32
  0
VERTEX
  8
AM_0
  5
1A877
 10
126.525
 20
427.958
 30
0.000000
  70
    32
  0
VERTEX
  8
AM_0
  5
1A878
 10
126.490
 20
427.866
 30
0.000000
  70
    32
  0
VERTEX
  8
AM_0
  5
1A879
 10
126.456
 20
427.774
 30
0.000000
  70
    32
  0
VERTEX
  8
AM_0
  5
1A87A
 10
126.424
 20
427.681
 30
0.000000
  70
    32
  0
VERTEX
  8
AM_0
  5
1A87B
 10
126.393
 20
427.588
 30
0.000000
  70
    32
  0
VERTEX
  8
AM_0
  5
1A87C
 10
126.362
 20
427.495
 30
0.000000
  70
    32
  0
VERTEX
  8
AM_0
  5
1A87D
 10
126.333
 20
427.401
 30
0.000000
  70
    32
  0
VERTEX
  8
AM_0
  5
1A87E
 10
126.305
 20
427.307
 30
0.000000
  70
    32
  0
VERTEX
  8
AM_0
  5
1A87F
 10
126.279
 20
427.212
 30
0.000000
  70
    32
  0
VERTEX
  8
AM_0
  5
1A880
 10
126.253
 20
427.117
 30
0.000000
  70
    32
  0
VERTEX
  8
AM_0
  5
1A881
 10
126.229
 20
427.022
 30
0.000000
  70
    32
  0
VERTEX
  8
AM_0
  5
1A882
 10
126.205
 20
426.927
 30
0.000000
  70
    32
  0
VERTEX
  8
AM_0
  5
1A883
 10
126.183
 20
426.831
 30
0.000000
  70
    32
  0
VERTEX
  8
AM_0
  5
1A884
 10
126.162
 20
426.735
 30
0.000000
  70
    32
  0
VERTEX
  8
AM_0
  5
1A885
 10
126.143
 20
426.639
 30
0.000000
  70
    32
  0
VERTEX
  8
AM_0
  5
1A886
 10
126.124
 20
426.543
 30
0.000000
  70
    32
  0
VERTEX
  8
AM_0
  5
1A887
 10
126.107
 20
426.446
 30
0.000000
  70
    32
  0
VERTEX
  8
AM_0
  5
1A888
 10
126.090
 20
426.349
 30
0.000000
  70
    32
  0
VERTEX
  8
AM_0
  5
1A889
 10
126.075
 20
426.252
 30
0.000000
  70
    32
  0
VERTEX
  8
AM_0
  5
1A88A
 10
126.062
 20
426.155
 30
0.000000
  70
    32
  0
VERTEX
  8
AM_0
  5
1A88B
 10
126.049
 20
426.058
 30
0.000000
  70
    32
  0
VERTEX
  8
AM_0
  5
1A88C
 10
126.038
 20
425.960
 30
0.000000
  70
    32
  0
VERTEX
  8
AM_0
  5
1A88D
 10
126.027
 20
425.863
 30
0.000000
  70
    32
  0
VERTEX
  8
AM_0
  5
1A88E
 10
126.018
 20
425.765
 30
0.000000
  70
    32
  0
VERTEX
  8
AM_0
  5
1A88F
 10
126.011
 20
425.667
 30
0.000000
  70
    32
  0
VERTEX
  8
AM_0
  5
1A890
 10
126.004
 20
425.569
 30
0.000000
  70
    32
  0
VERTEX
  8
AM_0
  5
1A891
 10
125.998
 20
425.471
 30
0.000000
  70
    32
  0
VERTEX
  8
AM_0
  5
1A892
 10
125.994
 20
425.373
 30
0.000000
  70
    32
  0
VERTEX
  8
AM_0
  5
1A893
 10
125.991
 20
425.275
 30
0.000000
  70
    32
  0
VERTEX
  8
AM_0
  5
1A894
 10
125.989
 20
425.177
 30
0.000000
  70
    32
  0
VERTEX
  8
AM_0
  5
1A895
 10
125.989
 20
425.078
 30
0.000000
  70
    32
  0
SEQEND
  8
AM_0
  5
1A896
  0
LINE
  5
18DEF
  8
0
 10
115.98883477602131
 20
422.07805149420119
 30
0.0
 11
115.98883477602131
 21
392.07805149420119
 31
0.0
  0
LINE
  5
18DF1
  8
AM_0
 10
113.98883844020681
 20
381.0775307193253
 30
0.0
 11
118.9888385907186
 21
381.0775307193253
 31
0.0
  0
LINE
  5
18DF2
  8
0
 10
115.98883477602131
 20
392.07805149420119
 30
0.0
 11
118.98883477602131
 21
392.07805149420119
 31
0.0
  0
LINE
  5
18DF3
  8
0
 10
115.98883477602131
 20
422.07805149420119
 30
0.0
 11
118.98883477602131
 21
422.07805149420119
 31
0.0
  0
LINE
  5
18DF4
  8
AM_0
 10
125.98884067898121
 20
425.07840964642043
 30
0.0
 11
125.98884067898121
 21
423.22813346392007
 31
0.0
  0
CIRCLE
  5
18DF6
  8
AM_0
 10
188.98882825861449
 20
446.07652966078689
 30
0.0
 40
10.000000001249999
  0
LINE
  5
18DF7
  8
AM_0
 10
171.98882825649
 20
446.07652966078689
 30
0.0
 11
171.9888282564896
 21
436.64795823103708
 31
0.0
  0
ARC
  5
18DF8
  8
AM_0
 10
166.98882825586469
 20
436.64795823103708
 30
0.0
 40
5.0000000006249961
 50
314.4153085971879
 51
0.0
1001
GENIUS_GENOBJ-N-FIL_13
1002
{
1000
OWNER
1000
GEN
1002
}
1001
GENIUS_GENODEF_13
1002
{
1000
HIER
1070
     0
1002
}
1002
{
1000
MANEDIT
1070
     0
1002
}
1002
{
1000
NOSEL
1070
     0
1002
}
1002
{
1000
BEHIND
1070
     0
1002
}
1002
{
1000
OTHER
1070
     0
1002
}
1002
{
1000
REACTOR
1002
}
  0
LINE
  5
18DFD
  8
ﾁｭｳｼﾝｾﾝ1
 10
256.74991022125118
 20
449.0765292291793
 30
0.0
 11
296.21166815632182
 21
449.0765292291793
 31
0.0
  0
POLYLINE
  5
18DFE
  8
AM_0
 10
251.9583900350564
 20
425.77576401471003
 30
0.0
 66
     1
 70
     8
  0
VERTEX
  8
AM_0
  5
1A897
 10
251.958
 20
425.776
 30
0.000000
  70
    32
  0
VERTEX
  8
AM_0
  5
1A898
 10
251.950
 20
425.868
 30
0.000000
  70
    32
  0
VERTEX
  8
AM_0
  5
1A899
 10
251.940
 20
425.960
 30
0.000000
  70
    32
  0
VERTEX
  8
AM_0
  5
1A89A
 10
251.929
 20
426.052
 30
0.000000
  70
    32
  0
VERTEX
  8
AM_0
  5
1A89B
 10
251.918
 20
426.144
 30
0.000000
  70
    32
  0
VERTEX
  8
AM_0
  5
1A89C
 10
251.905
 20
426.236
 30
0.000000
  70
    32
  0
VERTEX
  8
AM_0
  5
1A89D
 10
251.891
 20
426.328
 30
0.000000
  70
    32
  0
VERTEX
  8
AM_0
  5
1A89E
 10
251.876
 20
426.419
 30
0.000000
  70
    32
  0
VERTEX
  8
AM_0
  5
1A89F
 10
251.860
 20
426.511
 30
0.000000
  70
    32
  0
VERTEX
  8
AM_0
  5
1A8A0
 10
251.842
 20
426.602
 30
0.000000
  70
    32
  0
VERTEX
  8
AM_0
  5
1A8A1
 10
251.824
 20
426.693
 30
0.000000
  70
    32
  0
VERTEX
  8
AM_0
  5
1A8A2
 10
251.805
 20
426.783
 30
0.000000
  70
    32
  0
VERTEX
  8
AM_0
  5
1A8A3
 10
251.785
 20
426.874
 30
0.000000
  70
    32
  0
VERTEX
  8
AM_0
  5
1A8A4
 10
251.763
 20
426.964
 30
0.000000
  70
    32
  0
VERTEX
  8
AM_0
  5
1A8A5
 10
251.741
 20
427.054
 30
0.000000
  70
    32
  0
VERTEX
  8
AM_0
  5
1A8A6
 10
251.718
 20
427.144
 30
0.000000
  70
    32
  0
VERTEX
  8
AM_0
  5
1A8A7
 10
251.693
 20
427.233
 30
0.000000
  70
    32
  0
VERTEX
  8
AM_0
  5
1A8A8
 10
251.668
 20
427.322
 30
0.000000
  70
    32
  0
VERTEX
  8
AM_0
  5
1A8A9
 10
251.641
 20
427.411
 30
0.000000
  70
    32
  0
VERTEX
  8
AM_0
  5
1A8AA
 10
251.614
 20
427.500
 30
0.000000
  70
    32
  0
VERTEX
  8
AM_0
  5
1A8AB
 10
251.585
 20
427.588
 30
0.000000
  70
    32
  0
VERTEX
  8
AM_0
  5
1A8AC
 10
251.555
 20
427.676
 30
0.000000
  70
    32
  0
VERTEX
  8
AM_0
  5
1A8AD
 10
251.525
 20
427.763
 30
0.000000
  70
    32
  0
VERTEX
  8
AM_0
  5
1A8AE
 10
251.493
 20
427.851
 30
0.000000
  70
    32
  0
VERTEX
  8
AM_0
  5
1A8AF
 10
251.461
 20
427.937
 30
0.000000
  70
    32
  0
VERTEX
  8
AM_0
  5
1A8B0
 10
251.427
 20
428.024
 30
0.000000
  70
    32
  0
VERTEX
  8
AM_0
  5
1A8B1
 10
251.392
 20
428.110
 30
0.000000
  70
    32
  0
VERTEX
  8
AM_0
  5
1A8B2
 10
251.357
 20
428.195
 30
0.000000
  70
    32
  0
VERTEX
  8
AM_0
  5
1A8B3
 10
251.320
 20
428.281
 30
0.000000
  70
    32
  0
VERTEX
  8
AM_0
  5
1A8B4
 10
251.282
 20
428.365
 30
0.000000
  70
    32
  0
VERTEX
  8
AM_0
  5
1A8B5
 10
251.244
 20
428.450
 30
0.000000
  70
    32
  0
VERTEX
  8
AM_0
  5
1A8B6
 10
251.204
 20
428.533
 30
0.000000
  70
    32
  0
VERTEX
  8
AM_0
  5
1A8B7
 10
251.164
 20
428.617
 30
0.000000
  70
    32
  0
VERTEX
  8
AM_0
  5
1A8B8
 10
251.122
 20
428.700
 30
0.000000
  70
    32
  0
VERTEX
  8
AM_0
  5
1A8B9
 10
251.080
 20
428.782
 30
0.000000
  70
    32
  0
VERTEX
  8
AM_0
  5
1A8BA
 10
251.036
 20
428.864
 30
0.000000
  70
    32
  0
VERTEX
  8
AM_0
  5
1A8BB
 10
250.992
 20
428.946
 30
0.000000
  70
    32
  0
VERTEX
  8
AM_0
  5
1A8BC
 10
250.947
 20
429.026
 30
0.000000
  70
    32
  0
VERTEX
  8
AM_0
  5
1A8BD
 10
250.901
 20
429.107
 30
0.000000
  70
    32
  0
VERTEX
  8
AM_0
  5
1A8BE
 10
250.853
 20
429.187
 30
0.000000
  70
    32
  0
VERTEX
  8
AM_0
  5
1A8BF
 10
250.805
 20
429.266
 30
0.000000
  70
    32
  0
VERTEX
  8
AM_0
  5
1A8C0
 10
250.756
 20
429.345
 30
0.000000
  70
    32
  0
VERTEX
  8
AM_0
  5
1A8C1
 10
250.706
 20
429.423
 30
0.000000
  70
    32
  0
VERTEX
  8
AM_0
  5
1A8C2
 10
250.656
 20
429.500
 30
0.000000
  70
    32
  0
VERTEX
  8
AM_0
  5
1A8C3
 10
250.604
 20
429.577
 30
0.000000
  70
    32
  0
VERTEX
  8
AM_0
  5
1A8C4
 10
250.551
 20
429.654
 30
0.000000
  70
    32
  0
VERTEX
  8
AM_0
  5
1A8C5
 10
250.498
 20
429.730
 30
0.000000
  70
    32
  0
VERTEX
  8
AM_0
  5
1A8C6
 10
250.444
 20
429.805
 30
0.000000
  70
    32
  0
VERTEX
  8
AM_0
  5
1A8C7
 10
250.388
 20
429.879
 30
0.000000
  70
    32
  0
VERTEX
  8
AM_0
  5
1A8C8
 10
250.332
 20
429.953
 30
0.000000
  70
    32
  0
VERTEX
  8
AM_0
  5
1A8C9
 10
250.275
 20
430.026
 30
0.000000
  70
    32
  0
VERTEX
  8
AM_0
  5
1A8CA
 10
250.218
 20
430.099
 30
0.000000
  70
    32
  0
VERTEX
  8
AM_0
  5
1A8CB
 10
250.159
 20
430.171
 30
0.000000
  70
    32
  0
VERTEX
  8
AM_0
  5
1A8CC
 10
250.100
 20
430.242
 30
0.000000
  70
    32
  0
VERTEX
  8
AM_0
  5
1A8CD
 10
250.039
 20
430.312
 30
0.000000
  70
    32
  0
VERTEX
  8
AM_0
  5
1A8CE
 10
249.978
 20
430.382
 30
0.000000
  70
    32
  0
VERTEX
  8
AM_0
  5
1A8CF
 10
249.916
 20
430.451
 30
0.000000
  70
    32
  0
VERTEX
  8
AM_0
  5
1A8D0
 10
249.854
 20
430.519
 30
0.000000
  70
    32
  0
VERTEX
  8
AM_0
  5
1A8D1
 10
249.790
 20
430.587
 30
0.000000
  70
    32
  0
VERTEX
  8
AM_0
  5
1A8D2
 10
249.726
 20
430.654
 30
0.000000
  70
    32
  0
VERTEX
  8
AM_0
  5
1A8D3
 10
249.661
 20
430.720
 30
0.000000
  70
    32
  0
VERTEX
  8
AM_0
  5
1A8D4
 10
249.595
 20
430.785
 30
0.000000
  70
    32
  0
VERTEX
  8
AM_0
  5
1A8D5
 10
249.529
 20
430.850
 30
0.000000
  70
    32
  0
VERTEX
  8
AM_0
  5
1A8D6
 10
249.462
 20
430.914
 30
0.000000
  70
    32
  0
VERTEX
  8
AM_0
  5
1A8D7
 10
249.394
 20
430.977
 30
0.000000
  70
    32
  0
VERTEX
  8
AM_0
  5
1A8D8
 10
249.325
 20
431.039
 30
0.000000
  70
    32
  0
VERTEX
  8
AM_0
  5
1A8D9
 10
249.255
 20
431.100
 30
0.000000
  70
    32
  0
VERTEX
  8
AM_0
  5
1A8DA
 10
249.185
 20
431.161
 30
0.000000
  70
    32
  0
VERTEX
  8
AM_0
  5
1A8DB
 10
249.114
 20
431.221
 30
0.000000
  70
    32
  0
VERTEX
  8
AM_0
  5
1A8DC
 10
249.043
 20
431.280
 30
0.000000
  70
    32
  0
VERTEX
  8
AM_0
  5
1A8DD
 10
248.971
 20
431.338
 30
0.000000
  70
    32
  0
VERTEX
  8
AM_0
  5
1A8DE
 10
248.898
 20
431.395
 30
0.000000
  70
    32
  0
VERTEX
  8
AM_0
  5
1A8DF
 10
248.824
 20
431.452
 30
0.000000
  70
    32
  0
VERTEX
  8
AM_0
  5
1A8E0
 10
248.750
 20
431.507
 30
0.000000
  70
    32
  0
VERTEX
  8
AM_0
  5
1A8E1
 10
248.675
 20
431.562
 30
0.000000
  70
    32
  0
VERTEX
  8
AM_0
  5
1A8E2
 10
248.600
 20
431.616
 30
0.000000
  70
    32
  0
VERTEX
  8
AM_0
  5
1A8E3
 10
248.524
 20
431.669
 30
0.000000
  70
    32
  0
VERTEX
  8
AM_0
  5
1A8E4
 10
248.447
 20
431.721
 30
0.000000
  70
    32
  0
VERTEX
  8
AM_0
  5
1A8E5
 10
248.370
 20
431.772
 30
0.000000
  70
    32
  0
VERTEX
  8
AM_0
  5
1A8E6
 10
248.292
 20
431.823
 30
0.000000
  70
    32
  0
VERTEX
  8
AM_0
  5
1A8E7
 10
248.213
 20
431.872
 30
0.000000
  70
    32
  0
VERTEX
  8
AM_0
  5
1A8E8
 10
248.134
 20
431.921
 30
0.000000
  70
    32
  0
VERTEX
  8
AM_0
  5
1A8E9
 10
248.055
 20
431.968
 30
0.000000
  70
    32
  0
VERTEX
  8
AM_0
  5
1A8EA
 10
247.975
 20
432.015
 30
0.000000
  70
    32
  0
VERTEX
  8
AM_0
  5
1A8EB
 10
247.894
 20
432.061
 30
0.000000
  70
    32
  0
VERTEX
  8
AM_0
  5
1A8EC
 10
247.813
 20
432.105
 30
0.000000
  70
    32
  0
VERTEX
  8
AM_0
  5
1A8ED
 10
247.731
 20
432.149
 30
0.000000
  70
    32
  0
VERTEX
  8
AM_0
  5
1A8EE
 10
247.649
 20
432.192
 30
0.000000
  70
    32
  0
VERTEX
  8
AM_0
  5
1A8EF
 10
247.566
 20
432.234
 30
0.000000
  70
    32
  0
VERTEX
  8
AM_0
  5
1A8F0
 10
247.483
 20
432.275
 30
0.000000
  70
    32
  0
VERTEX
  8
AM_0
  5
1A8F1
 10
247.399
 20
432.315
 30
0.000000
  70
    32
  0
VERTEX
  8
AM_0
  5
1A8F2
 10
247.315
 20
432.354
 30
0.000000
  70
    32
  0
VERTEX
  8
AM_0
  5
1A8F3
 10
247.231
 20
432.392
 30
0.000000
  70
    32
  0
VERTEX
  8
AM_0
  5
1A8F4
 10
247.146
 20
432.429
 30
0.000000
  70
    32
  0
VERTEX
  8
AM_0
  5
1A8F5
 10
247.060
 20
432.465
 30
0.000000
  70
    32
  0
VERTEX
  8
AM_0
  5
1A8F6
 10
246.975
 20
432.501
 30
0.000000
  70
    32
  0
VERTEX
  8
AM_0
  5
1A8F7
 10
246.888
 20
432.535
 30
0.000000
  70
    32
  0
VERTEX
  8
AM_0
  5
1A8F8
 10
246.802
 20
432.568
 30
0.000000
  70
    32
  0
VERTEX
  8
AM_0
  5
1A8F9
 10
246.715
 20
432.600
 30
0.000000
  70
    32
  0
VERTEX
  8
AM_0
  5
1A8FA
 10
246.627
 20
432.631
 30
0.000000
  70
    32
  0
VERTEX
  8
AM_0
  5
1A8FB
 10
246.540
 20
432.661
 30
0.000000
  70
    32
  0
VERTEX
  8
AM_0
  5
1A8FC
 10
246.452
 20
432.690
 30
0.000000
  70
    32
  0
VERTEX
  8
AM_0
  5
1A8FD
 10
246.363
 20
432.718
 30
0.000000
  70
    32
  0
VERTEX
  8
AM_0
  5
1A8FE
 10
246.275
 20
432.745
 30
0.000000
  70
    32
  0
VERTEX
  8
AM_0
  5
1A8FF
 10
246.186
 20
432.771
 30
0.000000
  70
    32
  0
VERTEX
  8
AM_0
  5
1A900
 10
246.096
 20
432.796
 30
0.000000
  70
    32
  0
VERTEX
  8
AM_0
  5
1A901
 10
246.007
 20
432.820
 30
0.000000
  70
    32
  0
VERTEX
  8
AM_0
  5
1A902
 10
245.917
 20
432.843
 30
0.000000
  70
    32
  0
VERTEX
  8
AM_0
  5
1A903
 10
245.827
 20
432.865
 30
0.000000
  70
    32
  0
VERTEX
  8
AM_0
  5
1A904
 10
245.736
 20
432.885
 30
0.000000
  70
    32
  0
VERTEX
  8
AM_0
  5
1A905
 10
245.646
 20
432.905
 30
0.000000
  70
    32
  0
VERTEX
  8
AM_0
  5
1A906
 10
245.555
 20
432.924
 30
0.000000
  70
    32
  0
VERTEX
  8
AM_0
  5
1A907
 10
245.464
 20
432.941
 30
0.000000
  70
    32
  0
VERTEX
  8
AM_0
  5
1A908
 10
245.373
 20
432.958
 30
0.000000
  70
    32
  0
VERTEX
  8
AM_0
  5
1A909
 10
245.281
 20
432.973
 30
0.000000
  70
    32
  0
VERTEX
  8
AM_0
  5
1A90A
 10
245.190
 20
432.988
 30
0.000000
  70
    32
  0
VERTEX
  8
AM_0
  5
1A90B
 10
245.098
 20
433.001
 30
0.000000
  70
    32
  0
VERTEX
  8
AM_0
  5
1A90C
 10
245.006
 20
433.014
 30
0.000000
  70
    32
  0
VERTEX
  8
AM_0
  5
1A90D
 10
244.914
 20
433.025
 30
0.000000
  70
    32
  0
VERTEX
  8
AM_0
  5
1A90E
 10
244.822
 20
433.035
 30
0.000000
  70
    32
  0
VERTEX
  8
AM_0
  5
1A90F
 10
244.730
 20
433.044
 30
0.000000
  70
    32
  0
VERTEX
  8
AM_0
  5
1A910
 10
244.637
 20
433.052
 30
0.000000
  70
    32
  0
VERTEX
  8
AM_0
  5
1A911
 10
244.545
 20
433.059
 30
0.000000
  70
    32
  0
VERTEX
  8
AM_0
  5
1A912
 10
244.452
 20
433.065
 30
0.000000
  70
    32
  0
VERTEX
  8
AM_0
  5
1A913
 10
244.360
 20
433.070
 30
0.000000
  70
    32
  0
VERTEX
  8
AM_0
  5
1A914
 10
244.267
 20
433.074
 30
0.000000
  70
    32
  0
VERTEX
  8
AM_0
  5
1A915
 10
244.174
 20
433.076
 30
0.000000
  70
    32
  0
VERTEX
  8
AM_0
  5
1A916
 10
244.082
 20
433.078
 30
0.000000
  70
    32
  0
VERTEX
  8
AM_0
  5
1A917
 10
243.989
 20
433.079
 30
0.000000
  70
    32
  0
SEQEND
  8
AM_0
  5
1A918
  0
ARC
  5
18E01
  8
0
 10
258.9888269069283
 20
431.02432000163282
 30
0.0
 40
5.0
 50
271.9999999999971
 51
0.000000026954005
1001
GENIUS_GENOBJ-N-FIL_13
1002
{
1000
OWNER
1000
GEN
1002
}
1001
GENIUS_GENODEF_13
1002
{
1000
HIER
1070
     0
1002
}
1002
{
1000
MANEDIT
1070
     0
1002
}
1002
{
1000
NOSEL
1070
     0
1002
}
1002
{
1000
BEHIND
1070
     0
1002
}
1002
{
1000
OTHER
1070
     0
1002
}
1002
{
1000
REACTOR
1002
}
  0
LINE
  5
18E02
  8
0
 10
231.9888419922811
 20
425.07841203065379
 30
0.0
 11
259.16332439044089
 21
426.02736586653731
 31
0.0
  0
LINE
  5
18E12
  8
AM_0
 10
205.98882826073961
 20
446.07652966078689
 30
0.0
 11
205.98882826073961
 21
436.64795823103708
 31
0.0
  0
ARC
  5
18E13
  8
AM_0
 10
210.98882826136489
 20
436.64795823103708
 30
0.0
 40
5.0000000006249961
 50
180.0
 51
225.58469140281031
1001
GENIUS_GENOBJ-N-FIL_13
1002
{
1000
OWNER
1000
GEN
1002
}
1001
GENIUS_GENODEF_13
1002
{
1000
HIER
1070
     0
1002
}
1002
{
1000
MANEDIT
1070
     0
1002
}
1002
{
1000
NOSEL
1070
     0
1002
}
1002
{
1000
BEHIND
1070
     0
1002
}
1002
{
1000
OTHER
1070
     0
1002
}
1002
{
1000
REACTOR
1002
}
  0
LINE
  5
18E17
  8
AM_0
 10
263.98882690692841
 20
431.02432000398483
 30
0.0
 11
263.98882689080119
 21
465.30644366611517
 31
0.0
  0
LINE
  5
18E19
  8
0
 10
266.88412840069373
 20
468.30461614858359
 30
0.0
 11
288.98882688902779
 21
469.0765292291793
 31
0.0
  0
ARC
  5
18E1A
  8
0
 10
266.98882689080119
 20
465.30644366752682
 30
0.0
 40
3.0
 50
92.000000000003624
 51
180.00000002695401
1001
GENIUS_GENOBJ-N-FIL_13
1002
{
1000
OWNER
1000
GEN
1002
}
1001
GENIUS_GENODEF_13
1002
{
1000
HIER
1070
     0
1002
}
1002
{
1000
MANEDIT
1070
     0
1002
}
1002
{
1000
NOSEL
1070
     0
1002
}
1002
{
1000
BEHIND
1070
     0
1002
}
1002
{
1000
OTHER
1070
     0
1002
}
1002
{
1000
REACTOR
1002
}
  0
LINE
  5
18E1F
  8
0
 10
466.41793172608732
 20
413.41772221044022
 30
0.0
 11
473.3886562489671
 21
433.09221268820431
 31
0.0
  0
LINE
  5
18E20
  8
0
 10
510.43072945383932
 20
436.43932170632809
 30
0.0
 11
526.31865582623027
 21
420.55139533393771
 31
0.0
  0
LINE
  5
18E21
  8
0
 10
505.48098198553379
 20
431.48957423802278
 30
0.0
 11
521.36890835792451
 21
415.601647865632
 31
0.0
  0
ARC
  5
18E22
  8
0
 10
492.84377445997927
 20
449.07652923188311
 30
0.0
 40
18.0
 50
230.13622143635109
 51
20.354406391052141
  0
LINE
  5
18E23
  8
0
 10
473.87010532442662
 20
455.40107502003502
 30
0.0
 11
459.8701338499838
 21
413.40109027697542
 31
0.0
  0
LINE
  5
18E24
  8
0
 10
518.89403462377106
 20
418.07652159978483
 30
0.0
 11
475.84380045950621
 21
418.07652159978483
 31
0.0
  0
ARC
  5
18E25
  8
0
 10
475.84380045950621
 20
408.076521599785
 30
0.0
 40
10.0
 50
90.0
 51
180.0
1001
GENIUS_GENOBJ-N-FIL_13
1002
{
1000
OWNER
1000
GEN
1002
}
1001
GENIUS_GENODEF_13
1002
{
1000
HIER
1070
     0
1002
}
1002
{
1000
MANEDIT
1070
     0
1002
}
1002
{
1000
NOSEL
1070
     0
1002
}
1002
{
1000
BEHIND
1070
     0
1002
}
1002
{
1000
OTHER
1070
     0
1002
}
1002
{
1000
REACTOR
1002
}
  0
ARC
  5
18E26
  8
0
 10
475.84380091104111
 20
410.07811158361
 30
0.0
 40
10.0000004515349
 50
160.49062782740381
 51
180.0
  0
ARC
  5
18E27
  8
0
 10
478.84380298810129
 20
407.07654448796819
 30
0.0
 40
20.0
 50
161.56507995583269
 51
180.0
  0
CIRCLE
  5
18E28
  8
0
 10
478.84376449224732
 20
407.07656592835701
 30
0.0
 40
6.5
  0
CIRCLE
  5
18E29
  8
0
  6
CONTINUOUS
 62
     2
 10
478.84380298810129
 20
407.0765215997846
 30
0.0
 40
8.0
  0
ARC
  5
18E2A
  8
0
 10
523.84378209207739
 20
418.07652159978483
 30
0.0
 40
3.499999999999988
 50
225.00000000000031
 51
45.00000000000027
  0
CIRCLE
  5
18E2B
  8
0
 10
492.84377445997927
 20
449.07652923188311
 30
0.0
 40
9.0
  0
ARC
  5
18E2C
  8
0
 10
492.8437744599791
 20
449.07652923188272
 30
0.0
 40
19.99999999729641
 50
90.0
 51
161.56507995583269
  0
ARC
  5
18E2E
  8
0
 10
478.10159062863892
 20
431.42240745018682
 30
0.0
 40
5.0
 50
50.136221436351072
 51
160.49062782741061
1001
GENIUS_GENODEF_13
1002
{
1000
HIER
1070
     0
1002
}
1002
{
1000
MANEDIT
1070
     0
1002
}
1002
{
1000
NOSEL
1070
     0
1002
}
1002
{
1000
BEHIND
1070
     0
1002
}
1002
{
1000
OTHER
1070
     0
1002
}
1002
{
1000
REACTOR
1002
}
1001
GENIUS_GENOBJ-N-FIL_13
1002
{
1000
OWNER
1000
GEN
1002
}
  0
ARC
  5
18E2F
  8
0
 10
514.40763311382989
 20
457.07652922917941
 30
0.0
 40
5.0
 50
89.999999999996732
 51
200.35440639105209
1001
GENIUS_GENODEF_13
1002
{
1000
HIER
1070
     0
1002
}
1002
{
1000
MANEDIT
1070
     0
1002
}
1002
{
1000
NOSEL
1070
     0
1002
}
1002
{
1000
BEHIND
1070
     0
1002
}
1002
{
1000
OTHER
1070
     0
1002
}
1002
{
1000
REACTOR
1002
}
1001
GENIUS_GENOBJ-N-FIL_13
1002
{
1000
OWNER
1000
GEN
1002
}
  0
ARC
  5
18E30
  8
0
 10
501.94544807960079
 20
427.95404033209002
 30
0.0
 40
5.0
 50
45.00000000000027
 51
113.3111943818583
1001
GENIUS_GENODEF_13
1002
{
1000
HIER
1070
     0
1002
}
1002
{
1000
MANEDIT
1070
     0
1002
}
1002
{
1000
NOSEL
1070
     0
1002
}
1002
{
1000
BEHIND
1070
     0
1002
}
1002
{
1000
OTHER
1070
     0
1002
}
1002
{
1000
REACTOR
1002
}
1001
GENIUS_GENOBJ-N-FIL_13
1002
{
1000
OWNER
1000
GEN
1002
}
  0
ARC
  5
18E31
  8
0
 10
513.96626335977237
 20
439.97485561226108
 30
0.0
 40
5.0
 50
156.6888056181414
 51
225.00000000000031
1001
GENIUS_GENOBJ-N-FIL_13
1002
{
1000
OWNER
1000
GEN
1002
}
1001
GENIUS_GENODEF_13
1002
{
1000
HIER
1070
     0
1002
}
1002
{
1000
MANEDIT
1070
     0
1002
}
1002
{
1000
NOSEL
1070
     0
1002
}
1002
{
1000
BEHIND
1070
     0
1002
}
1002
{
1000
OTHER
1070
     0
1002
}
1002
{
1000
REACTOR
1002
}
  0
LINE
  5
18E3E
  8
AM_0
 10
720.84377091399756
 20
462.07914961661749
 30
0.0
 11
720.84377091399722
 21
344.0767724377983
 31
0.0
  0
LINE
  5
18E3F
  8
AM_0
 10
706.84377090979694
 20
344.07678961661719
 30
0.0
 11
706.84377090979694
 21
432.07854961661718
 31
0.0
  0
LINE
  5
18E40
  8
AM_0
 10
689.84377698587059
 20
252.0749468747486
 30
0.0
 11
689.84377698587082
 21
410.07811158360983
 31
0.0
  0
LINE
  5
18E41
  8
AM_0
 10
696.84377698587082
 20
255.07651397039061
 30
0.0
 11
696.84377698587082
 21
407.07652159978511
 31
0.0
  0
LINE
  5
18E42
  8
ﾁｭｳｼﾝｾﾝ1
 10
544.84380298810106
 20
478.58683694833962
 30
0.0
 11
544.84380298810106
 21
183.5662215100192
 31
0.0
  0
LINE
  5
18E45
  8
ﾁｭｳｼﾝｾﾝ1
 10
961.20000000000005
 20
344.07677423375952
 30
0.0
 11
672.04033061106077
 21
344.0767911426048
 31
0.0
  0
LINE
  5
18E4F
  8
AM_0
 10
706.84377090979694
 20
305.01503881650569
 30
0.0
 11
720.84377091399722
 21
305.01503881650569
 31
0.0
  0
LINE
  5
18E50
  8
AM_0
 10
720.84377091399722
 20
256.07502961661748
 30
0.0
 11
706.84377090979694
 21
256.07502961661748
 31
0.0
  0
ARC
  5
18E51
  8
0
 10
676.84380298810117
 20
255.07651397039049
 30
0.0
 40
20.0
 50
341.56507995583269
 51
0.0
  0
CIRCLE
  5
18E52
  8
AM_0
 10
577.84380298810152
 20
247.076536858574
 30
0.0
 40
8.0
  0
ARC
  5
18E53
  8
0
 10
577.84380298810117
 20
247.07653685857409
 30
0.0
 40
12.0
 50
6.7563270305881966
 51
173.24367296941179
  0
CIRCLE
  5
18E54
  8
0
 10
676.84376449224737
 20
255.0765582989624
 30
0.0
 40
6.5
  0
CIRCLE
  5
18E55
  8
0
  6
CONTINUOUS
 62
     2
 10
676.84380298810152
 20
255.07651397039029
 30
0.0
 40
8.0
  0
CIRCLE
  5
18E56
  8
AM_0
 10
577.84380298810152
 20
247.076536858574
 30
0.0
 40
8.5
  0
LINE
  5
18E58
  8
0
 10
628.34382388412541
 20
244.076536858574
 30
0.0
 11
594.72574600423536
 21
244.076536858574
 31
0.0
  0
POLYLINE
  5
18E5C
  8
AM_0
 66
     1
 10
0.0
 20
0.0
 30
0.0
 70
     1
  0
VERTEX
  5
18E5D
  8
AM_0
 10
581.84380298810152
 20
244.76713578181551
 30
0.0
  0
VERTEX
  5
18E5E
  8
AM_0
 10
577.84380298810152
 20
242.45773470505699
 30
0.0
  0
VERTEX
  5
18E5F
  8
AM_0
 10
573.84380298810152
 20
244.76713578181551
 30
0.0
  0
VERTEX
  5
18E60
  8
AM_0
 10
573.84380298810152
 20
249.38593793533249
 30
0.0
  0
VERTEX
  5
18E61
  8
AM_0
 10
577.84380298810152
 20
251.69533901209101
 30
0.0
  0
VERTEX
  5
18E62
  8
AM_0
 10
581.84380298810152
 20
249.38593793533249
 30
0.0
  0
SEQEND
  5
18E63
  8
AM_0
  0
ARC
  5
18E64
  8
0
 10
560.96185997196721
 20
249.07653685857409
 30
0.0
 40
5.0
 50
270.0
 51
353.24367296941188
1001
GENIUS_GENOBJ-N-FIL_13
1002
{
1000
OWNER
1000
GEN
1002
}
1001
GENIUS_GENODEF_13
1002
{
1000
HIER
1070
     0
1002
}
1002
{
1000
MANEDIT
1070
     0
1002
}
1002
{
1000
NOSEL
1070
     0
1002
}
1002
{
1000
BEHIND
1070
     0
1002
}
1002
{
1000
OTHER
1070
     0
1002
}
1002
{
1000
REACTOR
1002
}
  0
ARC
  5
18E65
  8
0
 10
594.72574600423548
 20
249.07653685857409
 30
0.0
 40
5.0
 50
186.75632703058821
 51
270.0
1001
GENIUS_GENODEF_13
1002
{
1000
HIER
1070
     0
1002
}
1002
{
1000
MANEDIT
1070
     0
1002
}
1002
{
1000
NOSEL
1070
     0
1002
}
1002
{
1000
BEHIND
1070
     0
1002
}
1002
{
1000
OTHER
1070
     0
1002
}
1002
{
1000
REACTOR
1002
}
1001
GENIUS_GENOBJ-N-FIL_13
1002
{
1000
OWNER
1000
GEN
1002
}
  0
ARC
  5
18E67
  8
0
 10
662.84383151622342
 20
213.07652922647591
 30
0.0
 40
19.99999999729641
 50
270.0
 51
341.56507995583269
  0
CIRCLE
  5
18E68
  8
0
 10
662.84380298539759
 20
213.07652922647571
 30
0.0
 40
9.0
  0
LINE
  5
18E6A
  8
0
 10
636.7935713524314
 20
244.076536858574
 30
0.0
 11
679.84380551669665
 21
244.0765368585738
 31
0.0
  0
ARC
  5
18E6B
  8
0
 10
662.84380298539759
 20
213.07652922264521
 30
0.0
 40
18.0
 50
50.136221439750997
 51
200.35440638087391
  0
ARC
  5
18E6C
  8
0
 10
641.72134261643032
 20
222.17820284609761
 30
0.0
 40
5.0
 50
336.68880561814137
 51
45.00000000000027
1001
GENIUS_GENOBJ-N-FIL_13
1002
{
1000
OWNER
1000
GEN
1002
}
1001
GENIUS_GENODEF_13
1002
{
1000
HIER
1070
     0
1002
}
1002
{
1000
MANEDIT
1070
     0
1002
}
1002
{
1000
NOSEL
1070
     0
1002
}
1002
{
1000
BEHIND
1070
     0
1002
}
1002
{
1000
OTHER
1070
     0
1002
}
1002
{
1000
REACTOR
1002
}
  0
ARC
  5
18E6D
  8
0
 10
641.27994433012566
 20
205.07652922917961
 30
0.0
 40
5.0
 50
270.0
 51
20.354406380873922
1001
GENIUS_GENODEF_13
1002
{
1000
HIER
1070
     0
1002
}
1002
{
1000
MANEDIT
1070
     0
1002
}
1002
{
1000
NOSEL
1070
     0
1002
}
1002
{
1000
BEHIND
1070
     0
1002
}
1002
{
1000
OTHER
1070
     0
1002
}
1002
{
1000
REACTOR
1002
}
1001
GENIUS_GENOBJ-N-FIL_13
1002
{
1000
OWNER
1000
GEN
1002
}
  0
LINE
  5
18E6E
  8
0
 10
650.20662399066873
 20
230.66348422033619
 30
0.0
 11
634.31869761827818
 21
246.5514105927268
 31
0.0
  0
LINE
  5
18E6F
  8
0
 10
645.25687652236331
 20
225.71373675203051
 30
0.0
 11
629.36895014997253
 21
241.60166312442109
 31
0.0
  0
ARC
  5
18E70
  8
0
 10
631.84382388412519
 20
244.076536858574
 30
0.0
 40
3.499999999999988
 50
45.00000000000027
 51
225.00000000000031
  0
ARC
  5
18E71
  8
0
 10
653.74215789660173
 20
234.1990181262689
 30
0.0
 40
5.0
 50
225.00000000000031
 51
293.3111943818584
1001
GENIUS_GENODEF_13
1002
{
1000
HIER
1070
     0
1002
}
1002
{
1000
MANEDIT
1070
     0
1002
}
1002
{
1000
NOSEL
1070
     0
1002
}
1002
{
1000
BEHIND
1070
     0
1002
}
1002
{
1000
OTHER
1070
     0
1002
}
1002
{
1000
REACTOR
1002
}
1001
GENIUS_GENOBJ-N-FIL_13
1002
{
1000
OWNER
1000
GEN
1002
}
  0
ARC
  5
18E72
  8
0
 10
677.58598681569049
 20
230.7306510052162
 30
0.0
 40
5.0
 50
230.13622143975101
 51
340.49062782740378
1001
GENIUS_GENOBJ-N-FIL_13
1002
{
1000
OWNER
1000
GEN
1002
}
1001
GENIUS_GENODEF_13
1002
{
1000
HIER
1070
     0
1002
}
1002
{
1000
MANEDIT
1070
     0
1002
}
1002
{
1000
NOSEL
1070
     0
1002
}
1002
{
1000
BEHIND
1070
     0
1002
}
1002
{
1000
OTHER
1070
     0
1002
}
1002
{
1000
REACTOR
1002
}
  0
LINE
  5
18E73
  8
0
 10
681.81750065177573
 20
206.75198343832369
 30
0.0
 11
695.81747212621872
 21
248.75196818138329
 31
0.0
  0
ARC
  5
18E74
  8
0
 10
679.84377698587059
 20
254.07651397039029
 30
0.0
 40
10.0
 50
270.0
 51
0.0
1001
GENIUS_GENODEF_13
1002
{
1000
HIER
1070
     0
1002
}
1002
{
1000
MANEDIT
1070
     0
1002
}
1002
{
1000
NOSEL
1070
     0
1002
}
1002
{
1000
BEHIND
1070
     0
1002
}
1002
{
1000
OTHER
1070
     0
1002
}
1002
{
1000
REACTOR
1002
}
1001
GENIUS_GENOBJ-N-FIL_13
1002
{
1000
OWNER
1000
GEN
1002
}
  0
LINE
  5
18E75
  8
0
 10
689.26964571928943
 20
248.7353362479185
 30
0.0
 11
682.29892119536225
 21
229.06084576719849
 31
0.0
  0
ARC
  5
18E76
  8
0
 10
679.8437765343358
 20
252.074946874749
 30
0.0
 40
10.0000004515349
 50
340.49062782740378
 51
0.0
  0
LINE
  5
18E7B
  8
AM_0
 10
706.84377090979694
 20
344.07678961661719
 30
0.0
 11
706.84377090979694
 21
256.07502961661748
 31
0.0
  0
LINE
  5
18E7D
  8
AM_0
 10
696.84377698587025
 20
256.075029791009
 30
0.0
 11
706.84377090979694
 21
256.075029791009
 31
0.0
  0
LINE
  5
18E7E
  8
AM_0
 10
706.84377090979694
 20
272.0753497910091
 30
0.0
 11
696.84377698587082
 21
272.0753497910091
 31
0.0
  0
LINE
  5
18E7F
  8
AM_0
 10
705.41519948079713
 20
280.16135355704591
 30
0.0
 11
696.84377698587025
 21
280.16127993347692
 31
0.0
  0
ARC
  5
18E80
  8
0
 10
686.84380551669688
 20
301.07652922917941
 30
0.0
 40
3.0
 50
180.0
 51
270.0
  0
ARC
  5
18E81
  8
0
 10
686.84380551669688
 20
295.0765292291793
 30
0.0
 40
3.0
 50
0.0
 51
90.0
1001
GENIUS_GENODEF_13
1002
{
1000
HIER
1070
     0
1002
}
1002
{
1000
MANEDIT
1070
     0
1002
}
1002
{
1000
NOSEL
1070
     0
1002
}
1002
{
1000
BEHIND
1070
     0
1002
}
1002
{
1000
OTHER
1070
     0
1002
}
1002
{
1000
REACTOR
1002
}
1001
GENIUS_GENOBJ-N-FIL_13
1002
{
1000
OWNER
1000
GEN
1002
}
  0
ARC
  5
18E82
  8
0
 10
686.84380551669688
 20
301.07652922917941
 30
0.0
 40
3.0
 50
90.0
 51
180.0
  0
ARC
  5
18E83
  8
0
 10
686.84380551669688
 20
307.07652922917941
 30
0.0
 40
3.0
 50
270.0
 51
0.0
1001
GENIUS_GENOBJ-N-FIL_13
1002
{
1000
OWNER
1000
GEN
1002
}
1001
GENIUS_GENODEF_13
1002
{
1000
HIER
1070
     0
1002
}
1002
{
1000
MANEDIT
1070
     0
1002
}
1002
{
1000
NOSEL
1070
     0
1002
}
1002
{
1000
BEHIND
1070
     0
1002
}
1002
{
1000
OTHER
1070
     0
1002
}
1002
{
1000
REACTOR
1002
}
  0
ARC
  5
18E84
  8
0
 10
686.84380551669688
 20
355.07652922917941
 30
0.0
 40
3.0
 50
0.0
 51
90.0
1001
GENIUS_GENODEF_13
1002
{
1000
HIER
1070
     0
1002
}
1002
{
1000
MANEDIT
1070
     0
1002
}
1002
{
1000
NOSEL
1070
     0
1002
}
1002
{
1000
BEHIND
1070
     0
1002
}
1002
{
1000
OTHER
1070
     0
1002
}
1002
{
1000
REACTOR
1002
}
1001
GENIUS_GENOBJ-N-FIL_13
1002
{
1000
OWNER
1000
GEN
1002
}
  0
ARC
  5
18E85
  8
0
 10
686.84380551669688
 20
361.07652922917941
 30
0.0
 40
3.0
 50
180.0
 51
270.0
  0
ARC
  5
18E86
  8
0
 10
686.84380551669688
 20
361.07652922917941
 30
0.0
 40
3.0
 50
90.0
 51
180.0
  0
ARC
  5
18E87
  8
0
 10
686.84380551669688
 20
367.07652922917941
 30
0.0
 40
3.0
 50
270.0
 51
0.0
1001
GENIUS_GENOBJ-N-FIL_13
1002
{
1000
OWNER
1000
GEN
1002
}
1001
GENIUS_GENODEF_13
1002
{
1000
HIER
1070
     0
1002
}
1002
{
1000
MANEDIT
1070
     0
1002
}
1002
{
1000
NOSEL
1070
     0
1002
}
1002
{
1000
BEHIND
1070
     0
1002
}
1002
{
1000
OTHER
1070
     0
1002
}
1002
{
1000
REACTOR
1002
}
  0
LINE
  5
18EB5
  8
AM_0
 10
720.84377091399722
 20
256.07502961661748
 30
0.0
 11
720.84377091399722
 21
344.0767724377983
 31
0.0
  0
LINE
  5
18F09
  8
AM_0
 10
720.84377091399722
 20
432.07854961661718
 30
0.0
 11
706.84377090979694
 21
432.07854961661718
 31
0.0
  0
LINE
  5
18F0A
  8
AM_0
 10
720.84377091399722
 20
383.13850605909101
 30
0.0
 11
706.84377090979694
 21
383.13850605909101
 31
0.0
  0
LINE
  5
18F0B
  8
AM_0
 10
706.84377090979694
 20
383.13850605909101
 30
0.0
 11
720.84377091399722
 21
383.13850605909101
 31
0.0
  0
LINE
  5
18F0D
  8
0
 10
628.34382388412541
 20
418.07652159978483
 30
0.0
 11
594.72574600423548
 21
418.07652159978483
 31
0.0
  0
ARC
  5
18F0E
  8
0
 10
577.8438029881014
 20
415.0765215997846
 30
0.0
 40
12.0
 50
186.75632703058821
 51
353.24367296941188
  0
CIRCLE
  5
18F0F
  8
AM_0
 10
577.84380298810152
 20
415.0765215997846
 30
0.0
 40
8.5
  0
CIRCLE
  5
18F10
  8
AM_0
 10
577.84380298810152
 20
415.0765215997846
 30
0.0
 40
8.0
  0
POLYLINE
  5
18F11
  8
AM_0
 66
     1
 10
0.0
 20
0.0
 30
0.0
 70
     1
  0
VERTEX
  5
18F12
  8
AM_0
 10
581.84380298810152
 20
417.38592267654337
 30
0.0
  0
VERTEX
  5
18F13
  8
AM_0
 10
577.84380298810152
 20
419.69532375330158
 30
0.0
  0
VERTEX
  5
18F14
  8
AM_0
 10
573.84380298810152
 20
417.38592267654337
 30
0.0
  0
VERTEX
  5
18F15
  8
AM_0
 10
573.84380298810152
 20
412.76712052302622
 30
0.0
  0
VERTEX
  5
18F16
  8
AM_0
 10
577.84380298810152
 20
410.45771944626762
 30
0.0
  0
VERTEX
  5
18F17
  8
AM_0
 10
581.84380298810152
 20
412.76712052302622
 30
0.0
  0
SEQEND
  5
18F18
  8
AM_0
  0
ARC
  5
18F19
  8
0
 10
560.96185997196721
 20
413.076521599785
 30
0.0
 40
5.0
 50
6.7563270305881966
 51
90.0
1001
GENIUS_GENOBJ-N-FIL_13
1002
{
1000
OWNER
1000
GEN
1002
}
1001
GENIUS_GENODEF_13
1002
{
1000
HIER
1070
     0
1002
}
1002
{
1000
MANEDIT
1070
     0
1002
}
1002
{
1000
NOSEL
1070
     0
1002
}
1002
{
1000
BEHIND
1070
     0
1002
}
1002
{
1000
OTHER
1070
     0
1002
}
1002
{
1000
REACTOR
1002
}
  0
ARC
  5
18F1A
  8
0
 10
594.72574600423548
 20
413.076521599785
 30
0.0
 40
5.0
 50
90.0
 51
173.24367296941179
1001
GENIUS_GENODEF_13
1002
{
1000
HIER
1070
     0
1002
}
1002
{
1000
MANEDIT
1070
     0
1002
}
1002
{
1000
NOSEL
1070
     0
1002
}
1002
{
1000
BEHIND
1070
     0
1002
}
1002
{
1000
OTHER
1070
     0
1002
}
1002
{
1000
REACTOR
1002
}
1001
GENIUS_GENOBJ-N-FIL_13
1002
{
1000
OWNER
1000
GEN
1002
}
  0
LINE
  5
18F1C
  8
0
 10
689.26964571928954
 20
413.41772221044022
 30
0.0
 11
682.29892119536225
 21
433.09221269116028
 31
0.0
  0
LINE
  5
18F1D
  8
0
 10
681.81750065177573
 20
455.40107502003502
 30
0.0
 11
695.81747212621872
 21
413.40109027697542
 31
0.0
  0
ARC
  5
18F1E
  8
0
 10
662.8438029853977
 20
449.07652923571351
 30
0.0
 40
18.0
 50
159.64559361912609
 51
309.86377856024899
  0
LINE
  5
18F1F
  8
0
 10
650.20662399066873
 20
431.48957423802278
 30
0.0
 11
634.31869761827852
 21
415.601647865632
 31
0.0
  0
LINE
  5
18F20
  8
0
 10
645.25687652236331
 20
436.43932170632809
 30
0.0
 11
629.36895014997253
 21
420.55139533393771
 31
0.0
  0
CIRCLE
  5
18F21
  8
0
  6
CONTINUOUS
 62
     2
 10
676.84380298810152
 20
407.0765215997846
 30
0.0
 40
8.0
  0
LINE
  5
18F22
  8
0
 10
636.7935713524314
 20
418.07652159978483
 30
0.0
 11
679.84380551669665
 21
418.07652159978483
 31
0.0
  0
ARC
  5
18F23
  8
0
 10
631.84382388412519
 20
418.07652159978483
 30
0.0
 40
3.499999999999988
 50
134.99999999999969
 51
314.99999999999989
  0
ARC
  5
18F24
  8
0
 10
679.8437769858707
 20
408.07652159978471
 30
0.0
 40
10.0
 50
0.0
 51
90.0
1001
GENIUS_GENOBJ-N-FIL_13
1002
{
1000
OWNER
1000
GEN
1002
}
1001
GENIUS_GENODEF_13
1002
{
1000
HIER
1070
     0
1002
}
1002
{
1000
MANEDIT
1070
     0
1002
}
1002
{
1000
NOSEL
1070
     0
1002
}
1002
{
1000
BEHIND
1070
     0
1002
}
1002
{
1000
OTHER
1070
     0
1002
}
1002
{
1000
REACTOR
1002
}
  0
ARC
  5
18F25
  8
0
 10
679.84377653433592
 20
410.07811158360971
 30
0.0
 40
10.0000004515349
 50
0.0
 51
19.509372172589359
  0
CIRCLE
  5
18F26
  8
0
 10
676.84376449224749
 20
407.07656592835701
 30
0.0
 40
6.5
  0
ARC
  5
18F27
  8
0
 10
676.84380298810117
 20
407.07654448796819
 30
0.0
 40
20.0
 50
0.0
 51
18.434920044167299
  0
LINE
  5
18F28
  8
AM_0
 10
705.41519948079713
 20
407.99222602497213
 30
0.0
 11
696.82282679198863
 21
407.99229982849181
 31
0.0
  0
LINE
  5
18F29
  8
AM_0
 10
706.84377090979694
 20
416.07822979100911
 30
0.0
 11
694.70352475819107
 21
416.07822979100911
 31
0.0
  0
LINE
  5
18F2A
  8
AM_0
 10
692.5917168843547
 20
423.07837220504598
 30
0.0
 11
706.84377090979694
 21
423.07837220504598
 31
0.0
  0
CIRCLE
  5
18F2B
  8
0
 10
662.8438029853977
 20
449.07652923188272
 30
0.0
 40
9.0
  0
ARC
  5
18F2C
  8
0
 10
662.84383151622342
 20
449.07652923188272
 30
0.0
 40
19.99999999729641
 50
18.434920044167299
 51
90.0
  0
ARC
  5
18F2E
  8
0
 10
641.27994433012566
 20
457.07652922917941
 30
0.0
 40
5.0
 50
339.64559361912598
 51
90.0
1001
GENIUS_GENODEF_13
1002
{
1000
HIER
1070
     0
1002
}
1002
{
1000
MANEDIT
1070
     0
1002
}
1002
{
1000
NOSEL
1070
     0
1002
}
1002
{
1000
BEHIND
1070
     0
1002
}
1002
{
1000
OTHER
1070
     0
1002
}
1002
{
1000
REACTOR
1002
}
1001
GENIUS_GENOBJ-N-FIL_13
1002
{
1000
OWNER
1000
GEN
1002
}
  0
ARC
  5
18F2F
  8
0
 10
641.72134261643032
 20
439.97485561226108
 30
0.0
 40
5.0
 50
314.99999999999989
 51
23.311194381858591
1001
GENIUS_GENOBJ-N-FIL_13
1002
{
1000
OWNER
1000
GEN
1002
}
1001
GENIUS_GENODEF_13
1002
{
1000
HIER
1070
     0
1002
}
1002
{
1000
MANEDIT
1070
     0
1002
}
1002
{
1000
NOSEL
1070
     0
1002
}
1002
{
1000
BEHIND
1070
     0
1002
}
1002
{
1000
OTHER
1070
     0
1002
}
1002
{
1000
REACTOR
1002
}
  0
ARC
  5
18F30
  8
0
 10
653.74215789660173
 20
427.95404033208979
 30
0.0
 40
5.0
 50
66.688805618141615
 51
134.99999999999969
1001
GENIUS_GENODEF_13
1002
{
1000
HIER
1070
     0
1002
}
1002
{
1000
MANEDIT
1070
     0
1002
}
1002
{
1000
NOSEL
1070
     0
1002
}
1002
{
1000
BEHIND
1070
     0
1002
}
1002
{
1000
OTHER
1070
     0
1002
}
1002
{
1000
REACTOR
1002
}
1001
GENIUS_GENOBJ-N-FIL_13
1002
{
1000
OWNER
1000
GEN
1002
}
  0
ARC
  5
18F31
  8
0
 10
677.58598681569049
 20
431.42240745314263
 30
0.0
 40
5.0
 50
19.509372172589359
 51
129.86377856024899
1001
GENIUS_GENOBJ-N-FIL_13
1002
{
1000
OWNER
1000
GEN
1002
}
1001
GENIUS_GENODEF_13
1002
{
1000
HIER
1070
     0
1002
}
1002
{
1000
MANEDIT
1070
     0
1002
}
1002
{
1000
NOSEL
1070
     0
1002
}
1002
{
1000
BEHIND
1070
     0
1002
}
1002
{
1000
OTHER
1070
     0
1002
}
1002
{
1000
REACTOR
1002
}
  0
LINE
  5
18F3F
  8
AM_0
 10
723.14377091468759
 20
462.07914961661749
 30
0.0
 11
723.14377091468737
 21
409.57809961661718
 31
0.0
  0
LINE
  5
18F51
  8
AM_0
 10
723.14377091468737
 20
409.57809961661718
 30
0.0
 11
720.84377091399722
 21
409.57809961661718
 31
0.0
  0
LINE
  5
18F67
  8
AM_0
 10
723.14377091468737
 20
432.57855961661733
 30
0.0
 11
720.84377091399722
 21
432.57855961661681
 31
0.0
  0
LINE
  5
18F68
  8
AM_0
 10
723.14377091468737
 20
462.07914961661749
 30
0.0
 11
720.84377091399722
 21
462.07914961661749
 31
0.0
  0
LINE
  5
1945B
  8
ｶｸﾚｾﾝ2
 10
285.98882633349763
 20
356.07652922917941
 30
0.0
 11
285.98882633349763
 21
306.07652922917941
 31
0.0
  0
LINE
  5
1945C
  8
ｶｸﾚｾﾝ2
 10
268.9888463003158
 20
298.57587826058437
 30
0.0
 11
268.9888463003158
 21
363.57718019777428
 31
0.0
  0
LINE
  5
1945D
  8
ｶｸﾚｾﾝ2
 10
263.9888461498042
 20
298.57587826058437
 30
0.0
 11
268.9888463003158
 21
298.57587826058437
 31
0.0
  0
LINE
  5
1945E
  8
ｶｸﾚｾﾝ2
 10
285.98882633349763
 20
306.07652922917941
 30
0.0
 11
268.9888463003158
 21
298.57587826058437
 31
0.0
  0
LINE
  5
1945F
  8
0
 10
355.98882633349763
 20
310.0765292291793
 30
0.0
 11
288.98882634337662
 21
310.0765292291793
 31
0.0
  0
LINE
  5
19460
  8
0
 10
355.98882633349763
 20
352.07652922917941
 30
0.0
 11
288.9888263236187
 21
352.07652923059101
 31
0.0
  0
LINE
  5
19461
  8
ｶｸﾚｾﾝ2
 10
263.9888461498042
 20
363.57718019777428
 30
0.0
 11
268.9888463003158
 21
363.57718019777428
 31
0.0
  0
LINE
  5
19462
  8
ｶｸﾚｾﾝ2
 10
285.98882633349763
 20
356.07652922917941
 30
0.0
 11
268.9888463003158
 21
363.57718019777428
 31
0.0
  0
LINE
  5
19463
  8
0
 10
355.98882633349763
 20
355.07652922917941
 30
0.0
 11
299.98882633349763
 21
355.07652922917941
 31
0.0
  0
LINE
  5
19464
  8
0
 10
299.98882633349763
 20
355.07652922917941
 30
0.0
 11
299.98882633349763
 21
352.07652923035897
 31
0.0
  0
LINE
  5
19465
  8
AM_0
 10
355.98882634337627
 20
310.0765292291793
 30
0.0
 11
355.98882632220739
 21
355.07652922917941
 31
0.0
  0
ARC
  5
1950D
  8
AM_0
 10
544.84380298810106
 20
331.07652922917941
 30
0.0
 40
21.0
 50
106.6015495990211
 51
73.398450400978902
  0
CIRCLE
  5
1950E
  8
ｽﾝﾎﾟｳｾﾝ
 10
544.84380298810106
 20
331.07652922917941
 30
0.0
 40
5.0
  0
LINE
  5
1950F
  8
AM_0
 10
550.8438029881014
 20
355.07652922917941
 30
0.0
 11
550.8438029881014
 21
347.0765292291793
 31
0.0
  0
LINE
  5
19510
  8
AM_0
 10
538.84380298810129
 20
347.0765292291793
 30
0.0
 11
538.84380298810129
 21
355.07652922917941
 31
0.0
  0
LINE
  5
19511
  8
AM_0
 10
550.8438029881014
 20
347.0765292291793
 30
0.0
 11
538.84380298810129
 21
347.0765292291793
 31
0.0
  0
LINE
  5
19512
  8
AM_0
 10
538.84380298810129
 20
355.07652922917941
 30
0.0
 11
550.8438029881014
 21
355.07652922917941
 31
0.0
  0
LINE
  5
195F4
  8
ｶｸﾚｾﾝ2
 10
288.98882694406711
 20
352.07652923059101
 30
0.0
 11
285.98882633349763
 21
352.07652923059101
 31
0.0
  0
LINE
  5
195F6
  8
ｶｸﾚｾﾝ2
 10
288.98882696382481
 20
310.0765292291793
 30
0.0
 11
285.98882633349763
 21
310.0765292291793
 31
0.0
  0
CIRCLE
  5
195FA
  8
AM_0
 10
544.84380298810106
 20
331.07652922917941
 30
0.0
 40
4.25
  0
LINE
  5
19604
  8
ﾁｭｳｼﾝｾﾝ1
 10
492.84377445997927
 20
467.07652923188277
 30
0.0
 11
492.84377445997927
 21
431.076529231883
 31
0.0
  0
LINE
  5
19606
  8
ﾁｭｳｼﾝｾﾝ1
 10
474.84377445997899
 20
449.07652923188311
 30
0.0
 11
510.8437744599791
 21
449.07652923188311
 31
0.0
  0
LINE
  5
19607
  8
ﾁｭｳｼﾝｾﾝ1
 10
662.8438029853977
 20
467.07652923188277
 30
0.0
 11
662.8438029853977
 21
431.0765292318826
 31
0.0
  0
LINE
  5
19608
  8
ﾁｭｳｼﾝｾﾝ1
 10
644.8438029853977
 20
449.07652923188272
 30
0.0
 11
680.84380298539747
 21
449.07652923188272
 31
0.0
  0
LINE
  5
19609
  8
ﾁｭｳｼﾝｾﾝ1
 10
662.84380298539759
 20
231.0765292264758
 30
0.0
 11
662.84380298539759
 21
195.07652922647571
 31
0.0
  0
LINE
  5
1960A
  8
ﾁｭｳｼﾝｾﾝ1
 10
644.84380298539725
 20
213.07652922647571
 30
0.0
 11
680.84380298539747
 21
213.07652922647571
 31
0.0
  0
LINE
  5
1960B
  8
ﾁｭｳｼﾝｾﾝ1
 10
492.8437744599791
 20
231.07652922647591
 30
0.0
 11
492.8437744599791
 21
195.07652922647591
 31
0.0
  0
LINE
  5
1960C
  8
ﾁｭｳｼﾝｾﾝ1
 10
474.84377445997899
 20
213.07652922647591
 30
0.0
 11
510.8437744599791
 21
213.07652922647591
 31
0.0
  0
LINE
  5
196BB
  8
AM_0
 10
263.98882690919982
 20
426.19587612540971
 30
0.0
 11
288.98882690919982
 21
426.19587612540971
 31
0.0
  0
LINE
  5
196BC
  8
AM_0
 10
263.98882690919982
 20
235.957182328415
 30
0.0
 11
288.98882690919982
 21
235.957182328415
 31
0.0
  0
LINE
  5
196BD
  8
AM_0
 10
594.84480447824706
 20
801.7912116784621
 30
0.0
 11
494.84280149795541
 21
801.7912116784621
 31
0.0
  0
LINE
  5
196BE
  8
AM_0
 10
692.87132536946933
 20
796.791215342648
 30
0.0
 11
462.81626733500161
 21
796.791215342648
 31
0.0
  0
LINE
  5
196BF
  8
AM_0
 10
694.84377698587036
 20
683.79120812638826
 30
0.0
 11
460.84380045950593
 21
683.79120812638826
 31
0.0
  0
LINE
  5
196C0
  8
ﾁｭｳｼﾝｾﾝ1
 10
960.63999999999999
 20
726.7915415654503
 30
0.0
 11
443.08117415800717
 21
726.79154656545018
 31
0.0
  0
LINE
  5
196C1
  8
AM_0
 10
706.84383091399695
 20
663.79154383421974
 30
0.0
 11
706.84383091399695
 21
793.97670023913622
 31
0.0
  0
LINE
  5
196C2
  8
AM_0
 10
692.87132536946933
 20
796.791215342648
 30
0.0
 11
694.84377698587036
 21
683.79120812638826
 31
0.0
  0
LINE
  5
196C3
  8
AM_0
 10
720.84383091399673
 20
653.29155756545015
 30
0.0
 11
720.84383091399673
 21
800.29154656545029
 31
0.0
  0
LINE
  5
196C4
  8
AM_0
 10
704.84383093575968
 20
724.29154385598315
 30
0.0
 11
696.17204587822755
 21
724.29154395034425
 31
0.0
  0
LINE
  5
196C5
  8
AM_0
 10
704.84383089223422
 20
729.29154385598315
 30
0.0
 11
696.01494792835422
 21
729.29154395205364
 31
0.0
  0
LINE
  5
196C6
  8
AM_0
 10
704.0743666197568
 20
687.79120812638826
 30
0.0
 11
696.8091710051151
 21
687.79120812638826
 31
0.0
  0
LINE
  5
196C7
  8
AM_0
 10
707.14309440973125
 20
655.22175857204536
 30
0.0
 11
706.07314827379491
 21
685.86100711979304
 31
0.0
  0
LINE
  5
196C8
  8
AM_0
 10
720.84377091399676
 20
653.29155756545015
 30
0.0
 11
709.14187606376936
 21
653.29155756545015
 31
0.0
  0
ARC
  5
196C9
  8
AM_0
 10
709.14187606376936
 20
655.29155756545015
 30
0.0
 40
2.0
 50
181.9999999999971
 51
270.0
1001
GENIUS_GENODEF_13
1002
{
1000
HIER
1070
     0
1002
}
1002
{
1000
MANEDIT
1070
     0
1002
}
1002
{
1000
NOSEL
1070
     0
1002
}
1002
{
1000
BEHIND
1070
     0
1002
}
1002
{
1000
OTHER
1070
     0
1002
}
1002
{
1000
REACTOR
1002
}
1001
GENIUS_GENOBJ-N-FIL_13
1002
{
1000
OWNER
1000
GEN
1002
}
  0
ARC
  5
196CA
  8
AM_0
 10
704.0743666197568
 20
685.7912081263878
 30
0.0
 40
2.0
 50
1.999999999997115
 51
90.0
1001
GENIUS_GENODEF_13
1002
{
1000
HIER
1070
     0
1002
}
1002
{
1000
MANEDIT
1070
     0
1002
}
1002
{
1000
NOSEL
1070
     0
1002
}
1002
{
1000
BEHIND
1070
     0
1002
}
1002
{
1000
OTHER
1070
     0
1002
}
1002
{
1000
REACTOR
1002
}
1001
GENIUS_GENOBJ-N-FIL_13
1002
{
1000
OWNER
1000
GEN
1002
}
  0
ARC
  5
196CB
  8
AM_0
 10
704.84383091399718
 20
722.2915438559827
 30
0.0
 40
2.0
 50
0.0
 51
89.999999376540472
1001
GENIUS_GENOBJ-N-FIL_13
1002
{
1000
OWNER
1000
GEN
1002
}
1001
GENIUS_GENODEF_13
1002
{
1000
HIER
1070
     0
1002
}
1002
{
1000
MANEDIT
1070
     0
1002
}
1002
{
1000
NOSEL
1070
     0
1002
}
1002
{
1000
BEHIND
1070
     0
1002
}
1002
{
1000
OTHER
1070
     0
1002
}
1002
{
1000
REACTOR
1002
}
  0
ARC
  5
196CC
  8
AM_0
 10
704.84383091399673
 20
731.2915438559827
 30
0.0
 40
2.0
 50
269.99999937654042
 51
0.0
1001
GENIUS_GENOBJ-N-FIL_13
1002
{
1000
OWNER
1000
GEN
1002
}
1001
GENIUS_GENODEF_13
1002
{
1000
HIER
1070
     0
1002
}
1002
{
1000
MANEDIT
1070
     0
1002
}
1002
{
1000
NOSEL
1070
     0
1002
}
1002
{
1000
BEHIND
1070
     0
1002
}
1002
{
1000
OTHER
1070
     0
1002
}
1002
{
1000
REACTOR
1002
}
  0
ARC
  5
196CD
  8
AM_0
 10
696.80917100511522
 20
685.7912081263878
 30
0.0
 40
2.0
 50
90.0
 51
181.00001477758079
1001
GENIUS_GENOBJ-N-FIL_13
1002
{
1000
OWNER
1000
GEN
1002
}
1001
GENIUS_GENODEF_13
1002
{
1000
HIER
1070
     0
1002
}
1002
{
1000
MANEDIT
1070
     0
1002
}
1002
{
1000
NOSEL
1070
     0
1002
}
1002
{
1000
BEHIND
1070
     0
1002
}
1002
{
1000
OTHER
1070
     0
1002
}
1002
{
1000
REACTOR
1002
}
  0
ARC
  5
196CE
  8
AM_0
 10
696.17204585646505
 20
722.29154395034413
 30
0.0
 40
2.0
 50
89.999999376540472
 51
181.00001477758079
1001
GENIUS_GENOBJ-N-FIL_13
1002
{
1000
OWNER
1000
GEN
1002
}
1001
GENIUS_GENODEF_13
1002
{
1000
HIER
1070
     0
1002
}
1002
{
1000
MANEDIT
1070
     0
1002
}
1002
{
1000
NOSEL
1070
     0
1002
}
1002
{
1000
BEHIND
1070
     0
1002
}
1002
{
1000
OTHER
1070
     0
1002
}
1002
{
1000
REACTOR
1002
}
  0
ARC
  5
196CF
  8
AM_0
 10
696.01494795011672
 20
731.29154395205353
 30
0.0
 40
2.0
 50
181.00001477758079
 51
269.99999937654042
1001
GENIUS_GENODEF_13
1002
{
1000
HIER
1070
     0
1002
}
1002
{
1000
MANEDIT
1070
     0
1002
}
1002
{
1000
NOSEL
1070
     0
1002
}
1002
{
1000
BEHIND
1070
     0
1002
}
1002
{
1000
OTHER
1070
     0
1002
}
1002
{
1000
REACTOR
1002
}
1001
GENIUS_GENOBJ-N-FIL_13
1002
{
1000
OWNER
1000
GEN
1002
}
  0
LINE
  5
196D0
  8
AM_0
 10
705.01720420167953
 20
792.791215342648
 30
0.0
 11
694.90654068041113
 21
792.791215342648
 31
0.0
  0
LINE
  5
196D1
  8
AM_0
 10
707.01598585571764
 20
794.72141634924287
 30
0.0
 11
707.14309498461296
 21
798.36134555885542
 31
0.0
  0
ARC
  5
196D2
  8
AM_0
 10
705.01720420167965
 20
794.79121534264755
 30
0.0
 40
2.0
 50
270.0
 51
358.0000000000029
1001
GENIUS_GENODEF_13
1002
{
1000
HIER
1070
     0
1002
}
1002
{
1000
MANEDIT
1070
     0
1002
}
1002
{
1000
NOSEL
1070
     0
1002
}
1002
{
1000
BEHIND
1070
     0
1002
}
1002
{
1000
OTHER
1070
     0
1002
}
1002
{
1000
REACTOR
1002
}
1001
GENIUS_GENOBJ-N-FIL_13
1002
{
1000
OWNER
1000
GEN
1002
}
  0
LINE
  5
196D3
  8
AM_0
 10
720.84377091399676
 20
800.29154656545029
 30
0.0
 11
709.14187663865084
 21
800.29154656545029
 31
0.0
  0
ARC
  5
196D4
  8
AM_0
 10
709.14187663865141
 20
798.29154656545006
 30
0.0
 40
2.0
 50
90.0
 51
178.00000000000281
1001
GENIUS_GENODEF_13
1002
{
1000
HIER
1070
     0
1002
}
1002
{
1000
MANEDIT
1070
     0
1002
}
1002
{
1000
NOSEL
1070
     0
1002
}
1002
{
1000
BEHIND
1070
     0
1002
}
1002
{
1000
OTHER
1070
     0
1002
}
1002
{
1000
REACTOR
1002
}
1001
GENIUS_GENOBJ-N-FIL_13
1002
{
1000
OWNER
1000
GEN
1002
}
  0
ARC
  5
196D5
  8
AM_0
 10
694.90654068041147
 20
794.79121534264755
 30
0.0
 40
2.0
 50
181.00001477758079
 51
270.0
1001
GENIUS_GENOBJ-N-FIL_13
1002
{
1000
OWNER
1000
GEN
1002
}
1001
GENIUS_GENODEF_13
1002
{
1000
HIER
1070
     0
1002
}
1002
{
1000
MANEDIT
1070
     0
1002
}
1002
{
1000
NOSEL
1070
     0
1002
}
1002
{
1000
BEHIND
1070
     0
1002
}
1002
{
1000
OTHER
1070
     0
1002
}
1002
{
1000
REACTOR
1002
}
  0
LINE
  5
196D6
  8
AM_0
 10
594.84480447824706
 20
801.7912116784621
 30
0.0
 11
594.84480447824706
 21
796.79121152795074
 31
0.0
  0
LINE
  5
196D7
  8
ﾁｭｳｼﾝｾﾝ1
 10
544.84380298810106
 20
815.25009162952585
 30
0.0
 11
544.84380298810095
 21
551.21068219630945
 31
0.0
  0
LINE
  5
196D8
  8
AM_0
 10
462.81626733500161
 20
796.791215342648
 30
0.0
 11
460.84380045950593
 21
683.79120812638826
 31
0.0
  0
LINE
  5
196D9
  8
AM_0
 10
494.84280149795541
 20
801.7912116784621
 30
0.0
 11
494.84280149795541
 21
796.7912115279504
 31
0.0
  0
LINE
  5
1973A
  8
AM_0
 10
723.14383091399691
 20
659.79154365685315
 30
0.0
 11
723.14383091399725
 21
793.79154365685315
 31
0.0
  0
LINE
  5
1973B
  8
AM_0
 10
723.14383091399725
 20
659.79154365685315
 30
0.0
 11
720.84383091399673
 21
659.79154368188074
 31
0.0
  0
LINE
  5
1973C
  8
AM_0
 10
723.14383091399725
 20
709.79154365685315
 30
0.0
 11
720.84383091399673
 21
709.79154368188085
 31
0.0
  0
LINE
  5
1973D
  8
AM_0
 10
723.14383237210711
 20
793.79154365685315
 30
0.0
 11
720.84383237210727
 21
793.79154368188051
 31
0.0
  0
LINE
  5
1973E
  8
AM_0
 10
723.14383128396526
 20
743.79154365685349
 30
0.0
 11
720.84383128396519
 21
743.79154368188085
 31
0.0
  0
LINE
  5
1973F
  8
0
 10
490.84416099595859
 20
799.79121534264766
 30
0.0
 11
490.84416099595859
 21
815.791215342648
 31
0.0
  0
LINE
  5
19740
  8
0
 10
466.84416099595859
 20
815.791215342648
 30
0.0
 11
466.84416099595859
 21
799.79121534264766
 31
0.0
  0
LINE
  5
19741
  8
0
 10
490.84416099595859
 20
815.791215342648
 30
0.0
 11
466.84416099595859
 21
815.791215342648
 31
0.0
  0
LINE
  5
19742
  8
0
 10
493.84416099595859
 20
799.79121534264766
 30
0.0
 11
463.84416099595859
 21
799.79121534264766
 31
0.0
  0
LINE
  5
19743
  8
0
 10
463.84416099595859
 20
799.79121534264766
 30
0.0
 11
463.84416099595859
 21
796.791215342648
 31
0.0
  0
LINE
  5
19744
  8
0
 10
493.84416099595859
 20
799.79121534264766
 30
0.0
 11
493.84416099595859
 21
796.791215342648
 31
0.0
  0
LINE
  5
19745
  8
0
 10
688.84377644402855
 20
799.79121534264766
 30
0.0
 11
688.84377644402866
 21
815.791215342648
 31
0.0
  0
LINE
  5
19746
  8
0
 10
664.84377644402878
 20
815.791215342648
 30
0.0
 11
664.84377644402855
 21
799.79121534264766
 31
0.0
  0
LINE
  5
19747
  8
0
 10
688.84377644402866
 20
815.791215342648
 30
0.0
 11
664.84377644402878
 21
815.791215342648
 31
0.0
  0
LINE
  5
19748
  8
0
 10
691.84377644402866
 20
799.79121534264766
 30
0.0
 11
661.84377644402878
 21
799.79121534264766
 31
0.0
  0
LINE
  5
19749
  8
0
 10
661.84377644402878
 20
799.79121534264766
 30
0.0
 11
661.84377644402878
 21
796.791215342648
 31
0.0
  0
LINE
  5
1974A
  8
0
 10
691.84377644402866
 20
799.79121534264766
 30
0.0
 11
691.84377644402866
 21
796.791215342648
 31
0.0
  0
LINE
  5
1974B
  8
AM_0
 10
458.84380045950581
 20
626.79120812638826
 30
0.0
 11
696.83426084689972
 21
626.79120812638791
 31
0.0
  0
LINE
  5
1974C
  8
AM_0
 10
694.84377698587036
 20
683.79120812638826
 30
0.0
 11
696.83426084689972
 21
626.79120812638791
 31
0.0
  0
LINE
  5
1974D
  8
AM_0
 10
460.84380045950593
 20
683.79120812638826
 30
0.0
 11
458.84380045950581
 21
626.79120812638826
 31
0.0
  0
LINE
  5
1974E
  8
AM_0
 10
695.96124160966815
 20
651.79120812461474
 30
0.0
 11
459.72099344189968
 21
651.79120812461497
 31
0.0
  0
LINE
  5
1974F
  8
AM_0
 10
481.14956469354479
 20
626.79120812638826
 30
0.0
 11
481.14956469354479
 21
651.79120812461508
 31
0.0
  0
LINE
  5
19750
  8
ﾁｭｳｼﾝｾﾝ1
 10
492.84377446038462
 20
616.79120812638826
 30
0.0
 11
492.84377446038462
 21
661.79120812461474
 31
0.0
  0
LINE
  5
19751
  8
AM_0
 10
674.52849661286075
 20
626.79120812638826
 30
0.0
 11
674.52849661286075
 21
651.79120812461497
 31
0.0
  0
LINE
  5
19752
  8
ﾁｭｳｼﾝｾﾝ1
 10
662.83428684602131
 20
616.79120812638803
 30
0.0
 11
662.83428684602131
 21
661.79120812461474
 31
0.0
  0
LINE
  5
19754
  8
0
 10
565.84380295986523
 20
559.79187703917842
 30
0.0
 11
565.84380296127642
 21
626.79120812638826
 31
0.0
  0
LINE
  5
19755
  8
0
 10
523.84380295986534
 20
559.79187703917842
 30
0.0
 11
523.84380295986534
 21
626.79120812638826
 31
0.0
  0
LINE
  5
19756
  8
AM_0
 10
523.84380295986534
 20
559.79187702929971
 30
0.0
 11
565.84380295986523
 21
559.79187704905735
 31
0.0
  0
LINE
  5
19758
  8
AM_0
 10
512.34315199127036
 20
806.79121182897359
 30
0.0
 11
577.34445392846055
 21
806.79121182897359
 31
0.0
  0
LINE
  5
1975A
  8
AM_0
 10
512.34315199127036
 20
806.79121182897359
 30
0.0
 11
512.34315199127036
 21
801.7912116784621
 31
0.0
  0
LINE
  5
1975C
  8
AM_0
 10
577.34445392846055
 20
806.79121182897359
 30
0.0
 11
577.34445392846044
 21
801.7912116784621
 31
0.0
  0
LINE
  5
1975D
  8
AM_0
 10
550.84380295986546
 20
559.79187703917864
 30
0.0
 11
550.84380295986546
 21
615.79187703917864
 31
0.0
  0
LINE
  5
1975E
  8
AM_0
 10
538.84380295986534
 20
559.79187703917864
 30
0.0
 11
538.84380295986534
 21
615.79187703917864
 31
0.0
  0
LINE
  5
1975F
  8
AM_0
 10
550.84380295986546
 20
615.79187703917864
 30
0.0
 11
538.84380295986534
 21
615.79187703917864
 31
0.0
  0
ARC
  5
19760
  8
AM_0
 10
544.84380295986534
 20
615.79187703917876
 30
0.0
 40
6.0
 50
0.0
 51
180.0
  0
LINE
  5
19763
  8
ｶｸﾚｾﾝ2
 10
497.84280150022249
 20
651.79118831008202
 30
0.0
 11
591.8448044805142
 21
651.791188310081
 31
0.0
  0
LINE
  5
19764
  8
ｶｸﾚｾﾝ2
 10
569.84380299036832
 20
629.79120874683622
 30
0.0
 11
519.8438029903682
 21
629.79120874683667
 31
0.0
  0
LINE
  5
19765
  8
ｶｸﾚｾﾝ2
 10
512.34315202177334
 20
646.79118878001873
 30
0.0
 11
577.34445395896319
 21
646.79118878001782
 31
0.0
  0
LINE
  5
19766
  8
ｶｸﾚｾﾝ2
 10
512.34315202177334
 20
651.79118893053021
 30
0.0
 11
512.34315202177334
 21
646.79118878001873
 31
0.0
  0
LINE
  5
19767
  8
ｶｸﾚｾﾝ2
 10
519.8438029903682
 20
629.79120874683667
 30
0.0
 11
512.34315202177334
 21
646.79118878001873
 31
0.0
  0
LINE
  5
19768
  8
ｶｸﾚｾﾝ2
 10
577.34445395896319
 20
651.79118893052953
 30
0.0
 11
577.34445395896319
 21
646.79118878001782
 31
0.0
  0
LINE
  5
19769
  8
ｶｸﾚｾﾝ2
 10
569.84380299036832
 20
629.79120874683622
 30
0.0
 11
577.34445395896319
 21
646.79118878001782
 31
0.0
  0
LINE
  5
1976A
  8
ｶｸﾚｾﾝ2
 10
565.84380299177974
 20
626.79120813626673
 30
0.0
 11
565.84380299177974
 21
629.79120874683622
 31
0.0
  0
LINE
  5
1976B
  8
ｶｸﾚｾﾝ2
 10
523.8438029903682
 20
626.79120811650944
 30
0.0
 11
523.8438029903682
 21
629.79120874683667
 31
0.0
  0
ARC
  5
1A0E2
  8
ｶｸﾚｾﾝ2
 10
817.15922591399658
 20
691.97515306545029
 30
0.0
 40
5.600000999999998
 50
273.8369630000027
 51
359.99994300000151
  0
ARC
  5
1A0E3
  8
ｶｸﾚｾﾝ2
 10
777.34383091399673
 20
1285.6415280654501
 30
0.0
 40
600.59997599999986
 50
266.03398700000201
 51
273.83694599999859
  0
ARC
  5
1A0E4
  8
ｶｸﾚｾﾝ2
 10
736.04972491399667
 20
690.07135206545036
 30
0.0
 40
3.6000059999999978
 50
179.99998200000081
 51
266.03400100000209
  0
LINE
  5
1A0E5
  8
ｶｸﾚｾﾝ2
 10
732.44973491399674
 20
690.06087106545033
 30
0.0
 11
732.44973491399674
 21
763.51941406545029
 31
0.0
  0
ARC
  5
1A0E6
  8
ｶｸﾚｾﾝ2
 10
736.04972491399667
 20
763.51155306545024
 30
0.0
 40
3.5999989999999982
 50
93.966255999999134
 51
179.99998200000081
  0
ARC
  5
1A0E7
  8
ｶｸﾚｾﾝ2
 10
777.34383091399673
 20
167.94157606545031
 30
0.0
 40
600.59997599999986
 50
86.163089999999343
 51
93.966239999996304
  0
LINE
  5
1A0E8
  8
ｶｸﾚｾﾝ2
 10
822.75922891399705
 20
761.60795206545015
 30
0.0
 11
822.75922891399705
 21
691.9751480654503
 31
0.0
  0
ARC
  5
1A0E9
  8
ｶｸﾚｾﾝ2
 10
817.15922591399658
 20
761.60795106545015
 30
0.0
 40
5.5999980000000003
 50
0.0000179999992131
 51
86.162937999992849
  0
ARC
  5
1A0F2
  8
0
  6
CONTINUOUS
 62
     0
 10
729.84377091399722
 20
282.03796443779828
 30
0.0
 40
1.0
 50
270.0
 51
0.000000000000007
  0
ARC
  5
1A0F3
  8
AM_0
 10
729.84377091399722
 20
406.11558043779831
 30
0.0
 40
1.0
 50
0.000000000000007
 51
90.0
  0
ARC
  5
1A0F4
  8
AM_0
 10
733.66744991399673
 20
801.68771706545033
 30
0.0
 40
2.0
 50
90.0
 51
165.00000299999829
  0
ARC
  5
1A0F5
  8
AM_0
 10
731.85220591399695
 20
793.29155206545033
 30
0.0
 40
2.0
 50
90.0
 51
164.99999999999909
  0
LINE
  5
1A0F6
  8
AM_0
 10
730.84383091399673
 20
799.29155206545033
 30
0.0
 11
730.84383091399673
 21
798.87723506545024
 31
0.0
  0
ARC
  5
1A0F7
  8
AM_0
 10
729.84632791399667
 20
799.29404906545017
 30
0.0
 40
0.9975059999999999
 50
359.85657799999967
 51
90.143422000003625
  0
LINE
  5
1A0F8
  8
AM_0
 10
730.84383091399673
 20
799.29654606545046
 30
0.0
 11
730.84383091399673
 21
799.29155206545033
 31
0.0
  0
LINE
  5
1A0F9
  8
AM_0
 10
730.93138691399679
 20
799.20399606545016
 30
0.0
 11
730.84383091399673
 21
799.29155206545033
 31
0.0
  0
LINE
  5
1A0FA
  8
AM_0
 10
728.84383091399673
 20
789.79155206545033
 30
0.0
 11
729.92035391399645
 21
793.80919006545025
 31
0.0
  0
LINE
  5
1A0FB
  8
AM_0
 10
729.84383091399673
 20
800.29155206545045
 30
0.0
 11
720.84383091399673
 21
800.29155206545045
 31
0.0
  0
LINE
  5
1A0FC
  8
AM_0
 10
728.84383091399673
 20
791.41313306545044
 30
0.0
 11
731.73559791399691
 21
802.20535506545036
 31
0.0
  0
ARC
  5
1A0FD
  8
AM_0
 10
729.84383091399673
 20
788.79155206545033
 30
0.0
 40
1.0
 50
0.000000000000007
 51
90.0
  0
ARC
  5
1A0FE
  8
AM_0
 10
799.84383091399673
 20
804.65375006545025
 30
0.0
 40
2.0
 50
90.0
 51
180.0
  0
ARC
  5
1A0FF
  8
AM_0
 10
799.84383091399673
 20
804.22647206545025
 30
0.0
 40
2.0
 50
90.0
 51
180.0
  0
ARC
  5
1A100
  8
AM_0
 10
799.84383091399673
 20
803.22112106545046
 30
0.0
 40
2.0
 50
90.0
 51
166.50868899999909
  0
LINE
  5
1A101
  8
AM_0
 10
797.84383091399673
 20
804.65375006545025
 30
0.0
 11
797.84383091399673
 21
803.68771706545022
 31
0.0
  0
ARC
  5
1A102
  8
AM_0
 10
880.84383091399695
 20
804.65375006545025
 30
0.0
 40
2.0
 50
0.000000000000007
 51
90.0
  0
LINE
  5
1A103
  8
AM_0
 10
882.84383091399673
 20
802.67590806545013
 30
0.0
 11
882.84383091399673
 21
803.22112106545046
 31
0.0
  0
ARC
  5
1A104
  8
AM_0
 10
880.99438091399691
 20
804.22647206545025
 30
0.0
 40
2.0
 50
15.76954700000168
 51
90.0
  0
ARC
  5
1A105
  8
AM_0
 10
884.84383091399661
 20
805.31354706545039
 30
0.0
 40
2.0
 50
195.76954700000161
 51
270.0
  0
ARC
  5
1A106
  8
AM_0
 10
880.84383091399695
 20
803.22112106545046
 30
0.0
 40
2.0
 50
0.000000000000007
 51
90.0
  0
ARC
  5
1A107
  8
AM_0
 10
884.84383091399661
 20
802.67590806545013
 30
0.0
 40
2.0
 50
180.0
 51
270.0
  0
ARC
  5
1A108
  8
AM_0
 10
880.84383091399695
 20
801.68771706545033
 30
0.0
 40
2.0
 50
0.000000000000007
 51
90.0
  0
ARC
  5
1A109
  8
AM_0
 10
884.84383091399661
 20
798.31991906545045
 30
0.0
 40
2.0
 50
180.0
 51
270.0
  0
LINE
  5
1A10A
  8
AM_0
 10
882.84383091399673
 20
798.31991906545045
 30
0.0
 11
882.84383091399673
 21
801.68771706545033
 31
0.0
  0
ARC
  5
1A10B
  8
AM_0
 10
884.84383091399661
 20
779.69260206545027
 30
0.0
 40
2.0
 50
180.0
 51
270.0
  0
LINE
  5
1A10C
  8
AM_0
 10
882.84383091399673
 20
792.14747106545042
 30
0.0
 11
882.84383091399673
 21
779.69260206545027
 31
0.0
  0
ARC
  5
1A10D
  8
AM_0
 10
880.84383091399695
 20
793.29155206545033
 30
0.0
 40
2.0
 50
0.000000000000007
 51
90.0
  0
ARC
  5
1A10E
  8
AM_0
 10
884.84383091399661
 20
792.14747106545042
 30
0.0
 40
2.0
 50
180.0
 51
270.0
  0
LINE
  5
1A10F
  8
AM_0
 10
882.84383091399673
 20
792.14747106545042
 30
0.0
 11
882.84383091399673
 21
793.29155206545033
 31
0.0
  0
LINE
  5
1A110
  8
AM_0
 10
884.84383091399661
 20
803.31354706545028
 30
0.0
 11
890.3498419139969
 21
803.31354706545028
 31
0.0
  0
LINE
  5
1A111
  8
AM_0
 10
884.84383091399661
 20
800.67590806545002
 30
0.0
 11
890.3498419139969
 21
800.67590806545002
 31
0.0
  0
LINE
  5
1A112
  8
AM_0
 10
884.84383091399661
 20
796.31991906545045
 30
0.0
 11
890.3498419139969
 21
796.31991906545045
 31
0.0
  0
LINE
  5
1A113
  8
AM_0
 10
884.84383091399661
 20
790.14747106545042
 30
0.0
 11
890.3498419139969
 21
790.14747106545042
 31
0.0
  0
LINE
  5
1A114
  8
AM_0
 10
880.84383091399695
 20
806.65375006545025
 30
0.0
 11
799.84383091399673
 21
806.65375006545025
 31
0.0
  0
LINE
  5
1A115
  8
AM_0
 10
880.99438091399691
 20
806.22647206545025
 30
0.0
 11
799.84383091399673
 21
806.22647206545025
 31
0.0
  0
LINE
  5
1A116
  8
AM_0
 10
880.84383091399695
 20
805.22112106545046
 30
0.0
 11
799.84383091399673
 21
805.22112106545046
 31
0.0
  0
LINE
  5
1A117
  8
AM_0
 10
880.84383091399695
 20
803.68771706545022
 30
0.0
 11
733.66744991399673
 21
803.68771706545022
 31
0.0
  0
LINE
  5
1A118
  8
AM_0
 10
880.84383091399695
 20
795.29155206545033
 30
0.0
 11
731.85220591399695
 21
795.29155206545033
 31
0.0
  0
LINE
  5
1A119
  8
AM_0
 10
890.3498419139969
 20
777.69260206545039
 30
0.0
 11
732.34383091399673
 21
777.69260206545039
 31
0.0
  0
ARC
  5
1A11A
  8
AM_0
 10
731.85220591399695
 20
660.29155206545033
 30
0.0
 40
2.0
 50
195.00000000000071
 51
270.0
  0
ARC
  5
1A11B
  8
AM_0
 10
729.84632791399667
 20
654.28905506545038
 30
0.0
 40
0.9975059999999999
 50
269.85657800000951
 51
0.1434220000003741
  0
LINE
  5
1A11C
  8
AM_0
 10
730.93138691399679
 20
654.37910806545028
 30
0.0
 11
730.84383091399673
 21
654.29155206545033
 31
0.0
  0
LINE
  5
1A11D
  8
AM_0
 10
730.84383091399673
 20
654.28655806545032
 30
0.0
 11
730.84383091399673
 21
654.29155206545033
 31
0.0
  0
LINE
  5
1A11E
  8
AM_0
 10
730.84383091399673
 20
654.29155206545033
 30
0.0
 11
730.84383091399673
 21
654.70586906545032
 31
0.0
  0
ARC
  5
1A11F
  8
AM_0
 10
733.66744991399673
 20
651.89538706545034
 30
0.0
 40
2.0
 50
194.99999700000171
 51
270.0
  0
LINE
  5
1A120
  8
AM_0
 10
729.84383091399673
 20
653.29155206545033
 30
0.0
 11
720.84383091399673
 21
653.29155206545033
 31
0.0
  0
LINE
  5
1A121
  8
AM_0
 10
728.84383091399673
 20
663.79155206545033
 30
0.0
 11
729.92035391399645
 21
659.77391406545019
 31
0.0
  0
LINE
  5
1A122
  8
AM_0
 10
728.84383091399673
 20
662.16997106545034
 30
0.0
 11
731.73559791399691
 21
651.37774906545019
 31
0.0
  0
ARC
  5
1A123
  8
AM_0
 10
729.84383091399673
 20
664.79155206545033
 30
0.0
 40
1.0
 50
270.0
 51
0.000000000000007
  0
LINE
  5
1A124
  8
AM_0
 10
880.84383091399695
 20
648.36198306545032
 30
0.0
 11
799.84383091399673
 21
648.36198306545032
 31
0.0
  0
LINE
  5
1A125
  8
AM_0
 10
880.99438091399691
 20
647.35663206545019
 30
0.0
 11
799.84383091399673
 21
647.35663206545019
 31
0.0
  0
LINE
  5
1A126
  8
AM_0
 10
880.84383091399695
 20
646.92935406545018
 30
0.0
 11
799.84383091399673
 21
646.92935406545018
 31
0.0
  0
LINE
  5
1A127
  8
AM_0
 10
882.84383091399673
 20
661.43563306545025
 30
0.0
 11
882.84383091399673
 21
660.29155206545033
 31
0.0
  0
ARC
  5
1A128
  8
AM_0
 10
884.84383091399661
 20
661.43563306545025
 30
0.0
 40
2.0
 50
90.0
 51
180.0
  0
ARC
  5
1A129
  8
AM_0
 10
880.84383091399695
 20
660.29155206545033
 30
0.0
 40
2.0
 50
270.0
 51
0.000000000000007
  0
LINE
  5
1A12A
  8
AM_0
 10
882.84383091399673
 20
661.43563306545025
 30
0.0
 11
882.84383091399673
 21
673.89050206545016
 31
0.0
  0
ARC
  5
1A12B
  8
AM_0
 10
884.84383091399661
 20
673.89050206545016
 30
0.0
 40
2.0
 50
90.0
 51
180.0
  0
ARC
  5
1A12C
  8
AM_0
 10
884.84383091399661
 20
648.26955706545016
 30
0.0
 40
2.0
 50
90.0
 51
164.23045299999831
  0
ARC
  5
1A12D
  8
AM_0
 10
884.84383091399661
 20
650.90719606545031
 30
0.0
 40
2.0
 50
90.0
 51
180.0
  0
ARC
  5
1A12E
  8
AM_0
 10
884.84383091399661
 20
655.26318506545033
 30
0.0
 40
2.0
 50
90.0
 51
180.0
  0
LINE
  5
1A12F
  8
AM_0
 10
882.84383091399673
 20
655.26318506545033
 30
0.0
 11
882.84383091399673
 21
651.89538706545034
 31
0.0
  0
ARC
  5
1A130
  8
AM_0
 10
880.84383091399695
 20
651.89538706545034
 30
0.0
 40
2.0
 50
270.0
 51
0.000000000000007
  0
ARC
  5
1A131
  8
AM_0
 10
880.84383091399695
 20
650.3619830654502
 30
0.0
 40
2.0
 50
270.0
 51
0.000000000000007
  0
ARC
  5
1A132
  8
AM_0
 10
880.99438091399691
 20
649.3566320654503
 30
0.0
 40
2.0
 50
270.0
 51
344.23045299999831
  0
LINE
  5
1A133
  8
AM_0
 10
882.84383091399673
 20
650.90719606545031
 30
0.0
 11
882.84383091399673
 21
650.3619830654502
 31
0.0
  0
ARC
  5
1A134
  8
AM_0
 10
880.84383091399695
 20
648.9293540654503
 30
0.0
 40
2.0
 50
270.0
 51
0.000000000000007
  0
LINE
  5
1A135
  8
AM_0
 10
797.84383091399673
 20
648.9293540654503
 30
0.0
 11
797.84383091399673
 21
649.89538706545034
 31
0.0
  0
ARC
  5
1A136
  8
AM_0
 10
799.84383091399673
 20
650.3619830654502
 30
0.0
 40
2.0
 50
193.49131100000079
 51
270.0
  0
ARC
  5
1A137
  8
AM_0
 10
799.84383091399673
 20
649.3566320654503
 30
0.0
 40
2.0
 50
180.0
 51
270.0
  0
ARC
  5
1A138
  8
AM_0
 10
799.84383091399673
 20
648.9293540654503
 30
0.0
 40
2.0
 50
180.0
 51
270.0
  0
LINE
  5
1A139
  8
AM_0
 10
884.84383091399661
 20
663.43563306545025
 30
0.0
 11
890.3498419139969
 21
663.43563306545025
 31
0.0
  0
LINE
  5
1A13A
  8
AM_0
 10
880.84383091399695
 20
658.29155206545033
 30
0.0
 11
731.85220591399695
 21
658.29155206545033
 31
0.0
  0
LINE
  5
1A13B
  8
AM_0
 10
890.3498419139969
 20
675.89050206545016
 30
0.0
 11
732.34383091399673
 21
675.89050206545016
 31
0.0
  0
LINE
  5
1A13C
  8
AM_0
 10
880.84383091399695
 20
649.89538706545034
 30
0.0
 11
733.66744991399673
 21
649.89538706545034
 31
0.0
  0
LINE
  5
1A13D
  8
AM_0
 10
884.84383091399661
 20
650.26955706545016
 30
0.0
 11
890.3498419139969
 21
650.26955706545016
 31
0.0
  0
LINE
  5
1A13E
  8
AM_0
 10
884.84383091399661
 20
652.90719606545031
 30
0.0
 11
890.3498419139969
 21
652.90719606545031
 31
0.0
  0
LINE
  5
1A13F
  8
AM_0
 10
884.84383091399661
 20
657.26318506545033
 30
0.0
 11
890.3498419139969
 21
657.26318506545033
 31
0.0
  0
LINE
  5
1A191
  8
AM_0
 10
730.84383091399673
 20
682.96161006545026
 30
0.0
 11
730.84383091399673
 21
690.60161006545025
 31
0.0
  0
LINE
  5
1A192
  8
AM_0
 10
730.84383091399673
 20
770.62155206545037
 30
0.0
 11
730.84383091399673
 21
762.98155206545039
 31
0.0
  0
ARC
  5
1A193
  8
AM_0
 10
729.84446991399693
 20
679.75002106545026
 30
0.0
 40
1.0026319999999971
 50
98.756241000005915
 51
179.94591500000149
  0
LINE
  5
1A194
  8
AM_0
 10
729.69183791399678
 20
680.74096806545037
 30
0.0
 11
731.45063691399673
 21
681.01155206545036
 31
0.0
  0
LINE
  5
1A195
  8
AM_0
 10
729.70183791399666
 20
682.83096806545029
 30
0.0
 11
731.30452591399671
 21
682.61155206545038
 31
0.0
  0
ARC
  5
1A196
  8
AM_0
 10
729.8488059139969
 20
683.82717206545033
 30
0.0
 40
1.0069859999999999
 50
180.35299799999879
 51
261.60783700000468
  0
LINE
  5
1A197
  8
AM_0
 10
728.84183791399676
 20
683.8209680654503
 30
0.0
 11
728.84183791399676
 21
679.75096806545037
 31
0.0
  0
ARC
  5
1A198
  8
AM_0
 10
731.38519391399689
 20
681.79761206545027
 30
0.0
 40
0.8033630000000001
 50
90.239329999991384
 51
179.76066999999881
  0
ARC
  5
1A199
  8
AM_0
 10
731.3868999139969
 20
681.80603006545027
 30
0.0
 40
0.8050779999999997
 50
180.36025099999841
 51
269.639749000005
  0
ARC
  5
1A19A
  8
AM_0
 10
729.8488059139969
 20
769.75593206545045
 30
0.0
 40
1.0069859999999999
 50
98.392162999995335
 51
179.64700200000121
  0
LINE
  5
1A19B
  8
AM_0
 10
729.70183791399666
 20
770.75213606545049
 30
0.0
 11
731.30452591399671
 21
770.9715520654504
 31
0.0
  0
ARC
  5
1A19C
  8
AM_0
 10
729.84446991399693
 20
773.83308306545041
 30
0.0
 40
1.0026319999999971
 50
180.05408499999839
 51
261.243759000007
  0
LINE
  5
1A19D
  8
AM_0
 10
728.84183791399676
 20
769.76213606545025
 30
0.0
 11
728.84183791399676
 21
773.83213606545041
 31
0.0
  0
LINE
  5
1A19E
  8
AM_0
 10
729.69183791399678
 20
772.84213606545006
 30
0.0
 11
731.45063691399673
 21
772.57155206545031
 31
0.0
  0
ARC
  5
1A19F
  8
AM_0
 10
731.38519391399689
 20
771.78549206545017
 30
0.0
 40
0.8033630000000001
 50
180.23933000000119
 51
269.76067000000859
  0
ARC
  5
1A1A0
  8
AM_0
 10
731.3868999139969
 20
771.77707406545017
 30
0.0
 40
0.8050779999999997
 50
90.360250999995117
 51
179.6397489999984
  0
LINE
  5
1A1AF
  8
AM_0
 10
730.84383091399673
 20
692.94161006545039
 30
0.0
 11
730.84383091399673
 21
700.69161006545016
 31
0.0
  0
ARC
  5
1A1B0
  8
AM_0
 10
729.85079891399675
 20
693.81775606545034
 30
0.0
 40
1.0069859999999999
 50
180.35299799999879
 51
261.60783700000468
  0
LINE
  5
1A1B1
  8
AM_0
 10
729.70383091399674
 20
692.82155206545031
 30
0.0
 11
731.38382991399692
 21
692.59155206545029
 31
0.0
  0
LINE
  5
1A1B2
  8
AM_0
 10
729.69383091399675
 20
690.73155206545039
 30
0.0
 11
731.38382991399692
 21
690.99155206545049
 31
0.0
  0
ARC
  5
1A1B3
  8
AM_0
 10
731.38889291399676
 20
691.79661406545017
 30
0.0
 40
0.8050779999999997
 50
180.36025099999841
 51
269.63877400000609
  0
ARC
  5
1A1B4
  8
AM_0
 10
731.38718691399674
 20
691.78819606545028
 30
0.0
 40
0.8033630000000001
 50
89.760817000004906
 51
179.76066999999881
  0
ARC
  5
1A1B5
  8
AM_0
 10
729.84646291399667
 20
689.74060606545015
 30
0.0
 40
1.0026319999999971
 50
98.756241000005915
 51
179.94591500000149
  0
LINE
  5
1A1B6
  8
AM_0
 10
728.84383091399673
 20
693.81155206545031
 30
0.0
 11
728.84383091399673
 21
689.74155206545038
 31
0.0
  0
LINE
  5
1A1B7
  8
AM_0
 10
730.84383091399673
 20
760.64155206545036
 30
0.0
 11
730.84383091399673
 21
752.89155206545036
 31
0.0
  0
LINE
  5
1A1B8
  8
AM_0
 10
729.70383091399674
 20
760.76155206545025
 30
0.0
 11
731.38382991399692
 21
760.99155206545015
 31
0.0
  0
ARC
  5
1A1B9
  8
AM_0
 10
729.85079891399675
 20
759.76534806545033
 30
0.0
 40
1.0069859999999999
 50
98.392162999995335
 51
179.64700200000121
  0
ARC
  5
1A1BA
  8
AM_0
 10
729.84646291399667
 20
763.84249806545029
 30
0.0
 40
1.0026319999999971
 50
180.05408499999839
 51
261.243759000007
  0
LINE
  5
1A1BB
  8
AM_0
 10
728.84383091399673
 20
759.77155206545024
 30
0.0
 11
728.84383091399673
 21
763.84155206545017
 31
0.0
  0
LINE
  5
1A1BC
  8
AM_0
 10
729.69383091399675
 20
762.85155206545016
 30
0.0
 11
731.38382991399692
 21
762.59155206545017
 31
0.0
  0
ARC
  5
1A1BD
  8
AM_0
 10
731.38889291399676
 20
761.78649006545015
 30
0.0
 40
0.8050779999999997
 50
90.361225999993863
 51
179.6397489999984
  0
ARC
  5
1A1BE
  8
AM_0
 10
731.38718691399674
 20
761.79490806545016
 30
0.0
 40
0.8033630000000001
 50
180.23933000000119
 51
270.2391830000081
  0
LINE
  5
1A1BF
  8
AM_0
 10
730.84383091399673
 20
764.65549706545039
 30
0.0
 11
723.14383091399725
 21
764.65549706545039
 31
0.0
  0
LINE
  5
1A1C0
  8
AM_0
 10
730.84383091399673
 20
688.93760706545027
 30
0.0
 11
723.14383091399702
 21
688.93760706545027
 31
0.0
  0
LINE
  5
1A21A
  8
AM_0
 10
148.78475642949979
 20
223.2710212291793
 30
0.0
 11
148.3347014294998
 21
226.14352422917941
 31
0.0
  0
LINE
  5
1A21E
  8
AM_0
 10
156.7633654294998
 20
217.07151622917939
 30
0.0
 11
221.2135984294998
 21
217.07151622917939
 31
0.0
  0
LINE
  5
1A220
  8
AM_0
 10
229.19802442949981
 20
223.30073922917941
 30
0.0
 11
229.64370042949989
 21
226.14353022917931
 31
0.0
  0
LINE
  5
1A222
  8
AM_0
 10
221.21466142949981
 20
230.95152122917949
 30
0.0
 11
156.76298742949979
 21
230.95152122917949
 31
0.0
  0
LINE
  5
1A224
  8
AM_0
 10
156.76335742949979
 20
230.9515312291793
 30
0.0
 11
156.35436442949981
 21
230.9405302291793
 31
0.0
  0
LINE
  5
1A225
  8
AM_0
 10
156.3543614294999
 20
230.9405432291793
 30
0.0
 11
155.94736342949969
 21
230.9055392291794
 31
0.0
  0
LINE
  5
1A226
  8
AM_0
 10
155.94736642949991
 20
230.90556822917941
 30
0.0
 11
155.5473674294999
 21
230.84956922917931
 31
0.0
  0
LINE
  5
1A227
  8
AM_0
 10
155.54736642949979
 20
230.84954922917939
 30
0.0
 11
155.1563704294999
 21
230.77055522917931
 31
0.0
  0
LINE
  5
1A228
  8
AM_0
 10
155.1563654294998
 20
230.77053322917931
 30
0.0
 11
154.77735442949981
 21
230.67052622917939
 31
0.0
  0
LINE
  5
1A229
  8
AM_0
 10
154.77737242949979
 20
230.6704992291794
 30
0.0
 11
154.41337442950001
 21
230.54949722917939
 31
0.0
  0
LINE
  5
1A22A
  8
AM_0
 10
154.41336442949981
 20
230.54950422917949
 30
0.0
 11
154.06836542949981
 21
230.40851422917939
 31
0.0
  0
LINE
  5
1A22B
  8
AM_0
 10
154.06837042949971
 20
230.40851422917939
 30
0.0
 11
153.74237342949979
 21
230.2495172291793
 31
0.0
  0
LINE
  5
1A22C
  8
AM_0
 10
153.74237442949959
 20
230.24951422917931
 30
0.0
 11
153.44037042949981
 21
230.0725112291793
 31
0.0
  0
LINE
  5
1A22D
  8
AM_0
 10
153.44035842949981
 20
230.07255022917931
 30
0.0
 11
153.16335742949991
 21
229.87954122917941
 31
0.0
  0
LINE
  5
1A22E
  8
AM_0
 10
153.1633514294999
 20
229.87952922917941
 30
0.0
 11
152.91334942949959
 21
229.67252722917939
 31
0.0
  0
LINE
  5
1A22F
  8
AM_0
 10
152.9133714294999
 20
229.67251722917931
 30
0.0
 11
152.6933694294998
 21
229.4515232291794
 31
0.0
  0
LINE
  5
1A230
  8
AM_0
 10
152.69336342949981
 20
229.45153722917931
 30
0.0
 11
152.50436842949989
 21
229.21954422917929
 31
0.0
  0
LINE
  5
1A231
  8
AM_0
 10
152.50437342949999
 20
229.21952222917929
 30
0.0
 11
152.3473674294998
 21
228.97751622917929
 31
0.0
  0
LINE
  5
1A232
  8
AM_0
 10
152.3473644295
 20
228.9775262291794
 30
0.0
 11
152.22436142949979
 21
228.7275212291793
 31
0.0
  0
LINE
  5
1A233
  8
AM_0
 10
152.2243874294997
 20
228.72751622917929
 30
0.0
 11
152.1353884294999
 21
228.47250522917929
 31
0.0
  0
LINE
  5
1A234
  8
AM_0
 10
152.13537442949959
 20
228.47251422917941
 30
0.0
 11
152.08137242949991
 21
228.21251422917939
 31
0.0
  0
LINE
  5
1A235
  8
AM_0
 10
152.08136742949981
 20
228.21252822917941
 30
0.0
 11
152.06336942949969
 21
227.95152122917941
 31
0.0
  0
LINE
  5
1A236
  8
AM_0
 10
225.91370042949981
 20
227.9515232291794
 30
0.0
 11
225.89579842949979
 21
228.2125222291794
 31
0.0
  0
LINE
  5
1A237
  8
AM_0
 10
225.89580042949979
 20
228.21251322917939
 30
0.0
 11
225.8422004294998
 21
228.47250222917941
 31
0.0
  0
LINE
  5
1A238
  8
AM_0
 10
225.8421984294998
 20
228.47250922917939
 30
0.0
 11
225.7534994294999
 21
228.72751222917941
 31
0.0
  0
LINE
  5
1A239
  8
AM_0
 10
225.7534944294998
 20
228.7275102291793
 30
0.0
 11
225.6301974294997
 21
228.9775062291794
 31
0.0
  0
LINE
  5
1A23A
  8
AM_0
 10
225.63021142949989
 20
228.97753022917931
 30
0.0
 11
225.4733064294999
 21
229.21953922917939
 31
0.0
  0
LINE
  5
1A23B
  8
AM_0
 10
225.47328842949989
 20
229.2195052291793
 30
0.0
 11
225.28398042949991
 21
229.45150922917929
 31
0.0
  0
LINE
  5
1A23C
  8
AM_0
 10
225.2840044294999
 20
229.4515192291793
 30
0.0
 11
225.0636004294997
 21
229.67251822917939
 31
0.0
  0
LINE
  5
1A23D
  8
AM_0
 10
225.06360242949989
 20
229.67252922917939
 30
0.0
 11
224.8140054294999
 21
229.87952822917941
 31
0.0
  0
LINE
  5
1A23E
  8
AM_0
 10
224.81402342949991
 20
229.87953322917929
 30
0.0
 11
224.53701942949991
 21
230.07254422917941
 31
0.0
  0
LINE
  5
1A23F
  8
AM_0
 10
224.53701742949991
 20
230.0725392291794
 30
0.0
 11
224.23471342949981
 21
230.24954322917941
 31
0.0
  0
LINE
  5
1A240
  8
AM_0
 10
224.23470442949969
 20
230.24952022917941
 30
0.0
 11
223.90940542949991
 21
230.40851522917939
 31
0.0
  0
LINE
  5
1A241
  8
AM_0
 10
223.90940542949991
 20
230.40852822917941
 30
0.0
 11
223.5636004294997
 21
230.54952222917939
 31
0.0
  0
LINE
  5
1A242
  8
AM_0
 10
223.5636004294997
 20
230.5495182291794
 30
0.0
 11
223.19990042949991
 21
230.6705202291794
 31
0.0
  0
LINE
  5
1A243
  8
AM_0
 10
223.19990942949991
 20
230.6705382291793
 30
0.0
 11
222.8211034295
 21
230.77054522917939
 31
0.0
  0
LINE
  5
1A244
  8
AM_0
 10
222.8211034295
 20
230.77054122917929
 30
0.0
 11
222.43010042949979
 21
230.84953722917939
 31
0.0
  0
LINE
  5
1A245
  8
AM_0
 10
222.43009742949971
 20
230.8494952291793
 30
0.0
 11
222.02979742949989
 21
230.90549522917939
 31
0.0
  0
LINE
  5
1A246
  8
AM_0
 10
222.0298024294998
 20
230.90549722917939
 30
0.0
 11
221.62330142949989
 21
230.9405012291794
 31
0.0
  0
LINE
  5
1A247
  8
AM_0
 10
221.62330142949989
 20
230.94054822917931
 30
0.0
 11
221.2135984294998
 21
230.95155022917939
 31
0.0
  0
ARC
  5
1A249
  8
AM_0
 10
156.7633654294998
 20
221.07151622917939
 30
0.0
 40
4.0
 50
179.99998200000081
 51
269.99996400000163
  0
ARC
  5
1A24B
  8
AM_0
 10
273.95979942949998
 20
236.8675222291794
 30
0.0
 40
122.221001
 50
179.24629317546791
 51
187.4255040000013
  0
ARC
  5
1A24C
  8
AM_0
 10
219.01550942949979
 20
238.63552722917939
 30
0.0
 40
71.776710999999963
 50
180.06509112316189
 51
190.02400200000139
  0
ARC
  5
1A24E
  8
AM_0
 10
154.72170442949979
 20
224.1385182291794
 30
0.0
 40
5.9999919999999971
 50
188.31313400000161
 51
263.06156699999713
  0
ARC
  5
1A250
  8
AM_0
 10
221.2135984294998
 20
221.07151622917939
 30
0.0
 40
4.0
 50
269.99998099999289
 51
0.0000179999992061
  0
ARC
  5
1A252
  8
AM_0
 10
104.01779742949969
 20
236.8675222291794
 30
0.0
 40
122.221001
 50
352.57495999999969
 51
0.1441524796046602
  0
ARC
  5
1A253
  8
AM_0
 10
158.96209542949981
 20
238.63552722917939
 30
0.0
 40
71.776702999999983
 50
349.97597100000212
 51
358.77157982630308
  0
ARC
  5
1A255
  8
AM_0
 10
223.2567964294999
 20
224.1385182291794
 30
0.0
 40
6.0000049999999998
 50
276.9213300000024
 51
351.97358199999837
  0
LINE
  5
1A260
  8
AM_0
 10
811.24376891399709
 20
262.0767724377983
 30
0.0
 11
741.50066891399706
 21
262.0767724377983
 31
0.0
  0
LINE
  5
1A261
  8
AM_0
 10
732.44565091399716
 20
260.17179343779833
 30
0.0
 11
734.09364591399719
 21
263.7057574377983
 31
0.0
  0
LINE
  5
1A262
  8
AM_0
 10
734.09364591399719
 20
263.7057574377983
 30
0.0
 11
822.91176491399722
 21
222.28974843779829
 31
0.0
  0
LINE
  5
1A263
  8
AM_0
 10
821.26357191399734
 20
218.75477743779831
 30
0.0
 11
822.91176491399722
 21
222.28974843779829
 31
0.0
  0
LINE
  5
1A264
  8
AM_0
 10
813.71056691399713
 20
219.12078143779831
 30
0.0
 11
814.03196891399705
 21
219.8097734377983
 31
0.0
  0
LINE
  5
1A265
  8
AM_0
 10
737.41866891399707
 20
234.99077443779831
 30
0.0
 11
737.41866891399707
 21
255.36478243779831
 31
0.0
  0
LINE
  5
1A266
  8
AM_0
 10
819.79617691399744
 20
218.22577443779829
 30
0.0
 11
732.97067191399697
 21
258.7127774377982
 31
0.0
  0
LINE
  5
1A267
  8
AM_0
 10
814.84376691399734
 20
226.0517784377983
 30
0.0
 11
814.84376691399734
 21
258.47678143779831
 31
0.0
  0
LINE
  5
1A268
  8
ﾁｭｳｼﾝｾﾝ1
 10
820.01996791399722
 20
242.0767724377983
 30
0.0
 11
811.42966691399715
 21
242.0767724377983
 31
0.0
  0
LINE
  5
1A269
  8
AM_0
 10
816.84376691399723
 20
253.6767784377983
 30
0.0
 11
816.84376691399723
 21
230.47678143779819
 31
0.0
  0
LINE
  5
1A26A
  8
AM_0
 10
816.84376691399723
 20
253.6767784377983
 30
0.0
 11
815.84376691399723
 21
253.6767784377983
 31
0.0
  0
LINE
  5
1A26B
  8
AM_0
 10
816.84376691399723
 20
230.47678143779819
 30
0.0
 11
815.84376691399723
 21
230.47678143779819
 31
0.0
  0
ARC
  5
1A27F
  8
AM_0
 10
811.24376891399709
 20
258.47678143779831
 30
0.0
 40
3.5999979999999998
 50
0.0000179999992131
 51
89.999938999999088
  0
ARC
  5
1A280
  8
AM_0
 10
733.44267091399718
 20
259.70677743779828
 30
0.0
 40
1.100006
 50
155.00048599999849
 51
245.00017399999689
  0
ARC
  5
1A281
  8
AM_0
 10
820.26666791399714
 20
219.21977843779831
 30
0.0
 40
1.0999959999999971
 50
244.99980500000299
 51
335.00019699999871
  0
ARC
  5
1A282
  8
AM_0
 10
745.01866691399721
 20
234.99077443779831
 30
0.0
 40
7.5999979999999967
 50
179.99998200000081
 51
251.09998400000339
  0
ARC
  5
1A283
  8
AM_0
 10
810.44786591399725
 20
220.6417754377982
 30
0.0
 40
3.5999979999999998
 50
270.90597900000091
 51
335.0008430000002
  0
ARC
  5
1A284
  8
AM_0
 10
807.34136791399715
 20
417.01776643779812
 30
0.0
 40
200.0
 50
251.0999969999981
 51
270.9059479999969
  0
ARC
  5
1A285
  8
AM_0
 10
814.93826891399738
 20
219.38777743779829
 30
0.0
 40
0.9999979999999998
 50
65.00064200000412
 51
155.00073199999801
  0
ARC
  5
1A286
  8
AM_0
 10
735.41866891399718
 20
255.36478243779831
 30
0.0
 40
2.0
 50
0.0000179999992131
 51
64.999850000004088
  0
ARC
  5
1A287
  8
AM_0
 10
741.50066891399706
 20
259.47678143779819
 30
0.0
 40
2.600006
 50
90.0
 51
139.31386999999941
  0
ARC
  5
1A288
  8
AM_0
 10
815.84376691399723
 20
254.6767784377983
 30
0.0
 40
1.0
 50
179.99998200000081
 51
270.00105700000478
  0
ARC
  5
1A289
  8
AM_0
 10
815.84376691399723
 20
229.47678143779831
 30
0.0
 40
1.0
 50
90.0
 51
179.99998200000081
  0
POINT
  5
1A28A
  8
AM_0
 10
777.34383091399673
 20
726.79155206545033
 30
0.0
  0
LINE
  5
1A28C
  8
ﾁｭｳｼﾝｾﾝ1
 10
777.34377091399722
 20
272.16148843779843
 30
0.0
 11
777.34377091399722
 21
258.17466643779829
 31
0.0
  0
LINE
  5
1A2E9
  8
AM_0
 10
111.54227542949999
 20
368.07713822917941
 30
0.0
 11
113.98883844020681
 21
367.99170231673219
 31
0.0
  0
ARC
  5
1A2EA
  8
AM_0
 10
111.57717442949981
 20
369.07652922917941
 30
0.0
 40
1.0
 50
92.000000000003581
 51
267.99999999999642
  0
LINE
  5
1A2EB
  8
AM_0
 10
111.54227542949999
 20
370.07592022917942
 30
0.0
 11
113.98883844020681
 21
370.16135592514132
 31
0.0
  0
ARC
  5
1A2EE
  8
AM_0
 10
113.1026334294997
 20
379.07652922917941
 30
0.0
 40
1.0
 50
94.613729999995158
 51
264.4824159999979
  0
LINE
  5
1A301
  8
AM_0
 10
113.98883844020681
 20
380.15129650391742
 30
0.0
 11
113.0221964294999
 21
380.07328922917941
 31
0.0
  0
LINE
  5
1A302
  8
AM_0
 10
113.98883844020681
 20
377.98626781450298
 30
0.0
 11
113.0064824294997
 21
378.08116222917943
 31
0.0
  0
LINE
  5
1A389
  8
AM_0
 10
732.34383091399673
 20
692.94161006545039
 30
0.0
 11
732.34383091399673
 21
700.69161006545016
 31
0.0
  0
LINE
  5
1A38A
  8
AM_0
 10
732.34383091399673
 20
702.87161006545034
 30
0.0
 11
732.34383091399673
 21
710.74161006545035
 31
0.0
  0
LINE
  5
1A38B
  8
AM_0
 10
732.34383091399673
 20
712.82161006545039
 30
0.0
 11
732.34383091399673
 21
720.7716100654502
 31
0.0
  0
LINE
  5
1A38C
  8
AM_0
 10
732.34383091399673
 20
722.8016100654504
 30
0.0
 11
732.34383091399673
 21
730.78155206545034
 31
0.0
  0
LINE
  5
1A38D
  8
AM_0
 10
732.34383091399673
 20
732.81155206545031
 30
0.0
 11
732.34383091399673
 21
740.76155206545025
 31
0.0
  0
LINE
  5
1A38E
  8
AM_0
 10
732.34383091399673
 20
742.84155206545017
 30
0.0
 11
732.34383091399673
 21
750.71155206545006
 31
0.0
  0
LINE
  5
1A38F
  8
AM_0
 10
732.34383091399673
 20
752.89155206545036
 30
0.0
 11
732.34383091399673
 21
760.64155206545036
 31
0.0
  0
LINE
  5
1A390
  8
AM_0
 10
732.34383091399673
 20
762.98155206545039
 30
0.0
 11
732.34383091399673
 21
770.62155206545037
 31
0.0
  0
LINE
  5
1A391
  8
AM_0
 10
729.85461091399668
 20
663.7916100654503
 30
0.0
 11
723.14383091399702
 21
663.7916100654503
 31
0.0
  0
LINE
  5
1A392
  8
AM_0
 10
729.84383091399673
 20
789.79155206545033
 30
0.0
 11
723.14383091399725
 21
789.79155206545045
 31
0.0
  0
LINE
  5
1A393
  8
AM_0
 10
890.3498419139969
 20
807.54155206545033
 30
0.0
 11
890.3498419139969
 21
646.04161006545019
 31
0.0
  0
LINE
  5
1A394
  8
AM_0
 10
732.34383091399673
 20
682.96161006545026
 30
0.0
 11
732.34383091399673
 21
690.60161006545025
 31
0.0
  0
LINE
  5
1A395
  8
AM_0
 10
732.34383091399673
 20
675.89056006545025
 30
0.0
 11
732.34383091399673
 21
680.62161006545034
 31
0.0
  0
LINE
  5
1A396
  8
AM_0
 10
729.70383091399674
 20
722.82155206545031
 30
0.0
 11
731.14383091399645
 21
722.62440906545044
 31
0.0
  0
LINE
  5
1A397
  8
AM_0
 10
729.69383091399675
 20
720.73155206545016
 30
0.0
 11
731.14383091399645
 21
720.95462906545015
 31
0.0
  0
LINE
  5
1A398
  8
AM_0
 10
728.84383091399673
 20
723.81155206545031
 30
0.0
 11
728.84383091399673
 21
719.74155206545015
 31
0.0
  0
LINE
  5
1A399
  8
AM_0
 10
729.70383091399674
 20
712.82155206545031
 30
0.0
 11
731.14383091399645
 21
712.62440906545032
 31
0.0
  0
LINE
  5
1A39A
  8
AM_0
 10
729.69383091399675
 20
710.73155206545039
 30
0.0
 11
731.14383091399645
 21
710.95462906545026
 31
0.0
  0
LINE
  5
1A39B
  8
AM_0
 10
728.84383091399673
 20
713.81155206545031
 30
0.0
 11
728.84383091399673
 21
709.74155206545049
 31
0.0
  0
LINE
  5
1A39C
  8
AM_0
 10
729.69383091399675
 20
700.73155206545016
 30
0.0
 11
731.14383091399645
 21
700.95462906545015
 31
0.0
  0
LINE
  5
1A39D
  8
AM_0
 10
729.70383091399674
 20
702.82155206545019
 30
0.0
 11
731.14383091399645
 21
702.62440906545032
 31
0.0
  0
LINE
  5
1A39E
  8
AM_0
 10
728.84383091399673
 20
703.8115520654502
 30
0.0
 11
728.84383091399673
 21
699.74155206545015
 31
0.0
  0
ARC
  5
1A39F
  8
AM_0
 10
731.39222591399675
 20
721.79155206545033
 30
0.0
 40
0.8000439999999999
 50
108.0879409999975
 51
251.9120590000025
  0
ARC
  5
1A3A0
  8
AM_0
 10
729.84646291399667
 20
719.74060606545015
 30
0.0
 40
1.0026319999999971
 50
98.756241000005915
 51
179.94591500000149
  0
ARC
  5
1A3A1
  8
AM_0
 10
729.85079891399675
 20
723.81775606545034
 30
0.0
 40
1.0069859999999999
 50
180.35299799999879
 51
261.60783700000468
  0
ARC
  5
1A3A2
  8
AM_0
 10
731.38889291399676
 20
711.7966140654504
 30
0.0
 40
0.8050779999999997
 50
180.36025099999841
 51
252.27821000000341
  0
ARC
  5
1A3A3
  8
AM_0
 10
729.84646291399667
 20
709.74060606545027
 30
0.0
 40
1.0026319999999971
 50
98.756241000005915
 51
179.94591500000149
  0
ARC
  5
1A3A4
  8
AM_0
 10
729.85079891399675
 20
713.81775606545034
 30
0.0
 40
1.0069859999999999
 50
180.35299799999879
 51
261.60783700000468
  0
ARC
  5
1A3A5
  8
AM_0
 10
731.38718691399674
 20
701.78819606545039
 30
0.0
 40
0.8033630000000001
 50
107.6331500000021
 51
179.76066999999881
  0
ARC
  5
1A3A6
  8
AM_0
 10
731.38889291399676
 20
701.7966140654504
 30
0.0
 40
0.8050779999999997
 50
180.36025099999841
 51
252.27821000000341
  0
ARC
  5
1A3A7
  8
AM_0
 10
729.85079891399675
 20
703.81775606545034
 30
0.0
 40
1.0069859999999999
 50
180.35299799999879
 51
261.60783700000468
  0
ARC
  5
1A3A8
  8
AM_0
 10
729.84646291399667
 20
699.74060606545049
 30
0.0
 40
1.0026319999999971
 50
98.756241000005915
 51
179.94591500000149
  0
ARC
  5
1A3A9
  8
AM_0
 10
731.38718691399674
 20
711.78819606545039
 30
0.0
 40
0.8033630000000001
 50
107.6331500000021
 51
179.76066999999881
  0
LINE
  5
1A3AA
  8
AM_0
 10
730.84383091399673
 20
712.82161006545039
 30
0.0
 11
730.84383091399673
 21
720.7716100654502
 31
0.0
  0
LINE
  5
1A3AB
  8
AM_0
 10
730.84383091399673
 20
702.87161006545034
 30
0.0
 11
730.84383091399673
 21
710.74161006545035
 31
0.0
  0
ARC
  5
1A3AC
  8
AM_0
 10
913.68200091399694
 20
807.02430106545035
 30
0.0
 40
0.5
 50
204.75341000000151
 51
267.00024700000398
  0
ARC
  5
1A3AD
  8
AM_0
 10
939.22163891399714
 20
799.42753806545034
 30
0.0
 40
5.7500059999999991
 50
9.9999520000001034
 51
87.000117000003812
  0
ARC
  5
1A3AE
  8
AM_0
 10
912.09279391399718
 20
806.29155206545022
 30
0.0
 40
1.25
 50
25.376360999998131
 51
90.000017999999173
  0
LINE
  5
1A3AF
  8
AM_0
 10
912.09279391399718
 20
807.54155206545033
 30
0.0
 11
890.34383091399684
 21
807.54155206545033
 31
0.0
  0
LINE
  5
1A3B0
  8
AM_0
 10
913.65583491399718
 20
806.52498606545032
 30
0.0
 11
939.52250491399695
 21
805.16948306545021
 31
0.0
  0
LINE
  5
1A3B1
  8
AM_0
 10
882.84383091399673
 20
762.59155206545017
 30
0.0
 11
731.38381691399672
 21
762.59155206545017
 31
0.0
  0
LINE
  5
1A3B2
  8
AM_0
 10
882.84383091399673
 20
760.64155206545036
 30
0.0
 11
729.35452591399678
 21
760.64155206545036
 31
0.0
  0
LINE
  5
1A3B3
  8
AM_0
 10
946.34505191399705
 20
661.04759106545032
 30
0.0
 11
946.34505191399705
 21
792.5355710654502
 31
0.0
  0
LINE
  5
1A3B4
  8
AM_0
 10
945.945307913997
 20
794.40856306545038
 30
0.0
 11
944.88444591399707
 21
800.42603906545037
 31
0.0
  0
ARC
  5
1A3B5
  8
AM_0
 10
948.899739913997
 20
794.92958306545017
 30
0.0
 40
2.999997
 50
189.99982600000129
 51
263.63062899999602
  0
ARC
  5
1A3B6
  8
AM_0
 10
948.34505191399705
 20
789.96044906545023
 30
0.0
 40
2.0
 50
0.000000000000007
 51
83.630628999996034
  0
LINE
  5
1A3B7
  8
AM_0
 10
882.84383091399673
 20
772.72288406545033
 30
0.0
 11
882.84383091399673
 21
756.07310906545024
 31
0.0
  0
LINE
  5
1A3B8
  8
AM_0
 10
890.3498419139969
 20
772.72288406545033
 30
0.0
 11
882.84383091399673
 21
772.72288406545033
 31
0.0
  0
LINE
  5
1A3B9
  8
AM_0
 10
890.3498419139969
 20
772.31155206545031
 30
0.0
 11
882.84383091399673
 21
772.31155206545031
 31
0.0
  0
LINE
  5
1A3BA
  8
AM_0
 10
890.3498419139969
 20
761.79155206545033
 30
0.0
 11
882.84383091399673
 21
761.79155206545033
 31
0.0
  0
LINE
  5
1A3BB
  8
AM_0
 10
890.3498419139969
 20
756.07310906545024
 30
0.0
 11
882.84383091399673
 21
756.07310906545024
 31
0.0
  0
LINE
  5
1A3BC
  8
AM_0
 10
732.34383091399673
 20
777.69260206545039
 30
0.0
 11
732.2276759139969
 21
778.90052806545032
 31
0.0
  0
LINE
  5
1A3BD
  8
AM_0
 10
730.84383091399673
 20
788.79155206545033
 30
0.0
 11
730.84383091399673
 21
772.96155206545006
 31
0.0
  0
LINE
  5
1A3BE
  8
AM_0
 10
732.34383091399673
 20
777.69260206545039
 30
0.0
 11
732.34383091399673
 21
772.96155206545006
 31
0.0
  0
LINE
  5
1A3BF
  8
AM_0
 10
730.84383091399673
 20
750.71155206545006
 30
0.0
 11
730.84383091399673
 21
742.84155206545017
 31
0.0
  0
LINE
  5
1A3C0
  8
AM_0
 10
730.84383091399673
 20
740.76155206545025
 30
0.0
 11
730.84383091399673
 21
732.81155206545031
 31
0.0
  0
LINE
  5
1A3C1
  8
AM_0
 10
882.84383091399673
 20
770.62155206545037
 30
0.0
 11
729.33429191399694
 21
770.62155206545037
 31
0.0
  0
LINE
  5
1A3C2
  8
AM_0
 10
890.3498419139969
 20
772.96155206545006
 30
0.0
 11
729.34878291399673
 21
772.96155206545006
 31
0.0
  0
LINE
  5
1A3C3
  8
AM_0
 10
882.84383091399673
 20
770.9715520654504
 30
0.0
 11
731.30452591399671
 21
770.9715520654504
 31
0.0
  0
LINE
  5
1A3C4
  8
AM_0
 10
882.84383091399673
 20
772.57155206545031
 30
0.0
 11
731.45063691399673
 21
772.57155206545031
 31
0.0
  0
LINE
  5
1A3C5
  8
AM_0
 10
731.14383091399645
 20
730.99155206545015
 30
0.0
 11
890.3498419139969
 21
730.99155206545015
 31
0.0
  0
LINE
  5
1A3C6
  8
AM_0
 10
731.14383091399645
 20
732.59155206545017
 30
0.0
 11
890.3498419139969
 21
732.59155206545017
 31
0.0
  0
LINE
  5
1A3C7
  8
AM_0
 10
890.3498419139969
 20
730.78155206545034
 30
0.0
 11
729.84991791399671
 21
730.78155206545034
 31
0.0
  0
LINE
  5
1A3C8
  8
AM_0
 10
890.3498419139969
 20
732.81155206545031
 30
0.0
 11
729.95383091399674
 21
732.81155206545031
 31
0.0
  0
LINE
  5
1A3C9
  8
AM_0
 10
890.3498419139969
 20
740.76155206545025
 30
0.0
 11
729.70383091399674
 21
740.76155206545025
 31
0.0
  0
LINE
  5
1A3CA
  8
AM_0
 10
890.3498419139969
 20
750.71155206545006
 30
0.0
 11
729.50624291399674
 21
750.71155206545006
 31
0.0
  0
LINE
  5
1A3CB
  8
AM_0
 10
890.3498419139969
 20
752.89155206545036
 30
0.0
 11
729.50624291399674
 21
752.89155206545036
 31
0.0
  0
ARC
  5
1A3CC
  8
AM_0
 10
731.38718691399674
 20
741.79490806545016
 30
0.0
 40
0.8033630000000001
 50
180.23933000000119
 51
252.36684999999781
  0
ARC
  5
1A3CD
  8
AM_0
 10
729.84646291399667
 20
753.8424980654504
 30
0.0
 40
1.0026319999999971
 50
180.05408499999839
 51
261.243759000007
  0
ARC
  5
1A3CE
  8
AM_0
 10
729.85079891399675
 20
749.76534806545033
 30
0.0
 40
1.0069859999999999
 50
98.392162999995335
 51
179.64700200000121
  0
ARC
  5
1A3CF
  8
AM_0
 10
731.38889291399676
 20
751.78649006545049
 30
0.0
 40
0.8050779999999997
 50
107.7217899999965
 51
179.6397489999984
  0
ARC
  5
1A3D0
  8
AM_0
 10
731.38718691399674
 20
751.79490806545027
 30
0.0
 40
0.8033630000000001
 50
180.23933000000119
 51
252.36684999999781
  0
ARC
  5
1A3D1
  8
AM_0
 10
729.85079891399675
 20
739.76534806545033
 30
0.0
 40
1.0069859999999999
 50
98.392162999995335
 51
179.64700200000121
  0
ARC
  5
1A3D2
  8
AM_0
 10
729.84646291399667
 20
743.84249806545017
 30
0.0
 40
1.0026319999999971
 50
180.05408499999839
 51
261.243759000007
  0
ARC
  5
1A3D3
  8
AM_0
 10
731.38889291399676
 20
741.78649006545015
 30
0.0
 40
0.8050779999999997
 50
107.7217899999965
 51
179.6397489999984
  0
ARC
  5
1A3D4
  8
AM_0
 10
729.85079891399675
 20
729.76534806545033
 30
0.0
 40
1.0069859999999999
 50
98.392162999995335
 51
179.64700200000121
  0
ARC
  5
1A3D5
  8
AM_0
 10
729.84646291399667
 20
733.8424980654504
 30
0.0
 40
1.0026319999999971
 50
180.05408499999839
 51
261.243759000007
  0
ARC
  5
1A3D6
  8
AM_0
 10
731.39222591399675
 20
731.79155206545033
 30
0.0
 40
0.8000439999999999
 50
108.0879409999975
 51
251.9120590000025
  0
LINE
  5
1A3D7
  8
AM_0
 10
882.84383091399673
 20
762.98155206545039
 30
0.0
 11
729.33261191399674
 21
762.98155206545039
 31
0.0
  0
LINE
  5
1A3D8
  8
AM_0
 10
890.3498419139969
 20
742.84155206545017
 30
0.0
 11
729.79383091399677
 21
742.84155206545017
 31
0.0
  0
LINE
  5
1A3D9
  8
AM_0
 10
890.3498419139969
 20
742.59155206545029
 30
0.0
 11
731.14383091399645
 21
742.59155206545029
 31
0.0
  0
LINE
  5
1A3DA
  8
AM_0
 10
890.3498419139969
 20
740.99155206545049
 30
0.0
 11
731.14383091399645
 21
740.99155206545049
 31
0.0
  0
LINE
  5
1A3DB
  8
AM_0
 10
890.3498419139969
 20
750.99155206545015
 30
0.0
 11
731.14383091399645
 21
750.99155206545015
 31
0.0
  0
LINE
  5
1A3DC
  8
AM_0
 10
890.3498419139969
 20
752.59155206545017
 30
0.0
 11
731.15243191399668
 21
752.59155206545017
 31
0.0
  0
LINE
  5
1A3DD
  8
AM_0
 10
882.84383091399673
 20
760.99155206545015
 30
0.0
 11
731.38383291399668
 21
760.99155206545015
 31
0.0
  0
LINE
  5
1A3DE
  8
AM_0
 10
728.84383091399673
 20
749.77155206545024
 30
0.0
 11
728.84383091399673
 21
753.84155206545029
 31
0.0
  0
LINE
  5
1A3DF
  8
AM_0
 10
729.70383091399674
 20
750.76155206545025
 30
0.0
 11
731.14383091399645
 21
750.95869506545034
 31
0.0
  0
LINE
  5
1A3E0
  8
AM_0
 10
729.69383091399675
 20
752.85155206545028
 30
0.0
 11
731.14383091399645
 21
752.6284750654504
 31
0.0
  0
LINE
  5
1A3E1
  8
AM_0
 10
728.84383091399673
 20
739.77155206545024
 30
0.0
 11
728.84383091399673
 21
743.84155206545017
 31
0.0
  0
LINE
  5
1A3E2
  8
AM_0
 10
729.69383091399675
 20
742.85155206545016
 30
0.0
 11
731.14383091399645
 21
742.62847506545017
 31
0.0
  0
LINE
  5
1A3E3
  8
AM_0
 10
729.70383091399674
 20
740.76155206545025
 30
0.0
 11
731.14383091399645
 21
740.95869506545034
 31
0.0
  0
LINE
  5
1A3E4
  8
AM_0
 10
728.84383091399673
 20
729.77155206545024
 30
0.0
 11
728.84383091399673
 21
733.84155206545017
 31
0.0
  0
LINE
  5
1A3E5
  8
AM_0
 10
729.69383091399675
 20
732.85155206545016
 30
0.0
 11
731.14383091399645
 21
732.6284750654504
 31
0.0
  0
LINE
  5
1A3E6
  8
AM_0
 10
729.70383091399674
 20
730.76155206545025
 30
0.0
 11
731.14383091399645
 21
730.95869506545034
 31
0.0
  0
ARC
  5
1A3E7
  8
AM_0
 10
913.68200091399694
 20
646.55886106545029
 30
0.0
 40
0.5
 50
92.999752999996005
 51
155.24658999999849
  0
ARC
  5
1A3E8
  8
AM_0
 10
939.22163891399714
 20
654.1556240654503
 30
0.0
 40
5.7500059999999991
 50
272.99988299999609
 51
350.00004799999982
  0
ARC
  5
1A3E9
  8
AM_0
 10
912.09279391399718
 20
647.2916100654503
 30
0.0
 40
1.25
 50
269.99998200000078
 51
334.6236390000019
  0
LINE
  5
1A3EA
  8
AM_0
 10
912.09279391399718
 20
646.04161006545019
 30
0.0
 11
890.34383091399684
 21
646.04161006545019
 31
0.0
  0
LINE
  5
1A3EB
  8
AM_0
 10
913.65583491399718
 20
647.05817606545031
 30
0.0
 11
939.52250491399695
 21
648.41367906545031
 31
0.0
  0
LINE
  5
1A3EC
  8
AM_0
 10
913.34321391399715
 20
806.54136906545045
 30
0.0
 11
913.34321391399715
 21
647.04179306545029
 31
0.0
  0
LINE
  5
1A3ED
  8
AM_0
 10
943.29085291399724
 20
652.82957406545029
 30
0.0
 11
943.29085291399724
 21
800.75358806545034
 31
0.0
  0
LINE
  5
1A3EE
  8
AM_0
 10
950.34505191399705
 20
789.96044906545023
 30
0.0
 11
950.34505191399705
 21
663.62271306545028
 31
0.0
  0
LINE
  5
1A3EF
  8
AM_0
 10
945.945307913997
 20
659.17459906545025
 30
0.0
 11
944.88444591399707
 21
653.15712306545026
 31
0.0
  0
ARC
  5
1A3F0
  8
AM_0
 10
948.899739913997
 20
658.65357906545023
 30
0.0
 40
2.999997
 50
96.36937100000398
 51
170.00017399999859
  0
ARC
  5
1A3F1
  8
AM_0
 10
948.34505191399705
 20
663.62271306545028
 30
0.0
 40
2.0
 50
276.36937100000398
 51
0.000000000000007
  0
LINE
  5
1A3F2
  8
AM_0
 10
882.84383091399673
 20
680.8602780654503
 30
0.0
 11
882.84383091399673
 21
697.51005306545017
 31
0.0
  0
LINE
  5
1A3F3
  8
AM_0
 10
890.3498419139969
 20
680.8602780654503
 30
0.0
 11
882.84383091399673
 21
680.8602780654503
 31
0.0
  0
LINE
  5
1A3F4
  8
AM_0
 10
890.3498419139969
 20
681.27161006545032
 30
0.0
 11
882.84383091399673
 21
681.27161006545032
 31
0.0
  0
LINE
  5
1A3F5
  8
AM_0
 10
890.3498419139969
 20
691.7916100654503
 30
0.0
 11
882.84383091399673
 21
691.7916100654503
 31
0.0
  0
LINE
  5
1A3F6
  8
AM_0
 10
890.3498419139969
 20
697.51005306545017
 30
0.0
 11
882.84383091399673
 21
697.51005306545017
 31
0.0
  0
LINE
  5
1A3F7
  8
AM_0
 10
732.34383091399673
 20
675.89056006545025
 30
0.0
 11
732.22767091399646
 21
674.68257506545024
 31
0.0
  0
LINE
  5
1A3F8
  8
AM_0
 10
730.84383091399673
 20
664.79155206545033
 30
0.0
 11
730.84383091399673
 21
680.62161006545034
 31
0.0
  0
LINE
  5
1A3F9
  8
AM_0
 10
730.84383091399673
 20
730.78155206545034
 30
0.0
 11
730.84383091399673
 21
722.8016100654504
 31
0.0
  0
LINE
  5
1A3FA
  8
AM_0
 10
882.84383091399673
 20
682.96161006545026
 30
0.0
 11
729.33419391399696
 21
682.96161006545026
 31
0.0
  0
LINE
  5
1A3FB
  8
AM_0
 10
890.3498419139969
 20
680.62161006545034
 30
0.0
 11
729.3488859139967
 21
680.62161006545034
 31
0.0
  0
LINE
  5
1A3FC
  8
AM_0
 10
882.84383091399673
 20
682.61161006545024
 30
0.0
 11
731.30410191399665
 21
682.61161006545024
 31
0.0
  0
LINE
  5
1A3FD
  8
AM_0
 10
882.84383091399673
 20
681.01161006545033
 30
0.0
 11
731.45101491399669
 21
681.01161006545033
 31
0.0
  0
LINE
  5
1A3FE
  8
AM_0
 10
731.14383091399645
 20
722.59161006545037
 30
0.0
 11
890.3498419139969
 21
722.59161006545037
 31
0.0
  0
LINE
  5
1A3FF
  8
AM_0
 10
731.14383091399645
 20
720.99161006545035
 30
0.0
 11
890.3498419139969
 21
720.99161006545035
 31
0.0
  0
LINE
  5
1A400
  8
AM_0
 10
729.84949291399687
 20
722.8016100654504
 30
0.0
 11
890.3498419139969
 21
722.8016100654504
 31
0.0
  0
LINE
  5
1A401
  8
AM_0
 10
729.95420891399669
 20
720.7716100654502
 30
0.0
 11
890.3498419139969
 21
720.7716100654502
 31
0.0
  0
LINE
  5
1A402
  8
AM_0
 10
729.7034069139969
 20
712.82161006545039
 30
0.0
 11
890.3498419139969
 21
712.82161006545039
 31
0.0
  0
LINE
  5
1A403
  8
AM_0
 10
729.50608391399646
 20
702.87161006545034
 30
0.0
 11
890.3498419139969
 21
702.87161006545034
 31
0.0
  0
LINE
  5
1A404
  8
AM_0
 10
729.52887491399679
 20
700.69161006545016
 30
0.0
 11
890.3498419139969
 21
700.69161006545016
 31
0.0
  0
LINE
  5
1A405
  8
AM_0
 10
882.84383091399673
 20
690.60161006545025
 30
0.0
 11
729.33270891399673
 21
690.60161006545025
 31
0.0
  0
LINE
  5
1A406
  8
AM_0
 10
882.84383091399673
 20
692.94161006545039
 30
0.0
 11
729.3544229139967
 21
692.94161006545039
 31
0.0
  0
LINE
  5
1A407
  8
AM_0
 10
890.3498419139969
 20
710.74161006545035
 30
0.0
 11
729.75920891399676
 21
710.74161006545035
 31
0.0
  0
LINE
  5
1A408
  8
AM_0
 10
890.3498419139969
 20
710.99161006545023
 30
0.0
 11
731.14383091399645
 21
710.99161006545023
 31
0.0
  0
LINE
  5
1A409
  8
AM_0
 10
890.3498419139969
 20
712.59161006545025
 30
0.0
 11
731.14383091399645
 21
712.59161006545025
 31
0.0
  0
LINE
  5
1A40A
  8
AM_0
 10
890.3498419139969
 20
702.59161006545025
 30
0.0
 11
731.14383091399645
 21
702.59161006545025
 31
0.0
  0
LINE
  5
1A40B
  8
AM_0
 10
890.3498419139969
 20
700.99161006545023
 30
0.0
 11
731.14383091399645
 21
700.99161006545023
 31
0.0
  0
LINE
  5
1A40C
  8
AM_0
 10
882.84383091399673
 20
692.59161006545048
 30
0.0
 11
731.3834049139972
 21
692.59161006545048
 31
0.0
  0
LINE
  5
1A40D
  8
AM_0
 10
882.84383091399673
 20
690.99161006545023
 30
0.0
 11
731.38420791399665
 21
690.99161006545023
 31
0.0
  0
LINE
  5
1A40E
  8
AM_0
 10
720.84383091399673
 20
800.29155206545045
 30
0.0
 11
720.84383091399673
 21
653.2916100654503
 31
0.0
  0
INSERT
  5
1A40F
  8
AM_0
  2
$6-44
 10
730.84383091399673
 20
670.18257506545024
 30
0.0
 41
-1.0
 42
-1.0
 50
90.0
  0
INSERT
  5
1A410
  8
AM_0
  2
$6-44
 10
730.84383291399672
 20
783.40052806545032
 30
0.0
 50
270.0
  0
LINE
  5
1A417
  8
AM_0
 10
720.84377091399722
 20
270.5767724377983
 30
0.0
 11
720.84377091399722
 21
417.57677743779811
 31
0.0
  0
ARC
  5
1A418
  8
AM_0
 10
882.82489591399735
 20
265.60184243779833
 30
0.0
 40
2.0
 50
90.0
 51
119.6883030000032
  0
LINE
  5
1A419
  8
AM_0
 10
890.3437709139971
 20
267.60184243779833
 30
0.0
 11
882.82489591399735
 21
267.60184243779833
 31
0.0
  0
ARC
  5
1A41A
  8
AM_0
 10
884.76914391399714
 20
268.30771443779821
 30
0.0
 40
2.0
 50
90.0
 51
168.91502999999821
  0
LINE
  5
1A41B
  8
AM_0
 10
890.3437709139971
 20
270.30771443779821
 30
0.0
 11
884.76914391399714
 21
270.30771443779821
 31
0.0
  0
ARC
  5
1A41C
  8
AM_0
 10
880.84377091399733
 20
269.0767724377983
 30
0.0
 40
2.0
 50
270.0
 51
0.000000000000007
  0
ARC
  5
1A41D
  8
AM_0
 10
880.84377091399733
 20
277.57677643779829
 30
0.0
 40
2.0
 50
270.0
 51
0.000000000000007
  0
LINE
  5
1A41E
  8
AM_0
 10
882.84377091399722
 20
291.27725943779831
 30
0.0
 11
882.84377091399722
 21
269.0767724377983
 31
0.0
  0
LINE
  5
1A41F
  8
AM_0
 10
890.3437709139971
 20
289.88947543779841
 30
0.0
 11
882.84377091399722
 21
289.88947543779841
 31
0.0
  0
LINE
  5
1A420
  8
AM_0
 10
890.3437709139971
 20
278.31278043779849
 30
0.0
 11
882.84377091399722
 21
278.31278043779849
 31
0.0
  0
LINE
  5
1A421
  8
AM_0
 10
890.3437709139971
 20
272.25261743779828
 30
0.0
 11
882.84377091399722
 21
272.25261743779828
 31
0.0
  0
ARC
  5
1A422
  8
AM_0
 10
732.84377291399721
 20
277.57676843779831
 30
0.0
 40
2.0
 50
180.00000199999951
 51
270.00000200000278
  0
LINE
  5
1A423
  8
AM_0
 10
880.84377091399733
 20
293.27725943779842
 30
0.0
 11
732.84377391399721
 21
293.27725943779842
 31
0.0
  0
LINE
  5
1A424
  8
AM_0
 10
880.84377091399733
 20
275.57677643779829
 30
0.0
 11
732.83806991399706
 21
275.57677643779829
 31
0.0
  0
LINE
  5
1A425
  8
AM_0
 10
730.84377091399722
 20
270.5767724377983
 30
0.0
 11
720.84377391399721
 21
270.5767724377983
 31
0.0
  0
LINE
  5
1A426
  8
AM_0
 10
729.84377091399722
 20
281.03796443779839
 30
0.0
 11
720.84377291399721
 21
281.03796443779839
 31
0.0
  0
INSERT
  5
1A427
  8
AM_0
  2
$6-44
 10
730.84377291399721
 20
287.46779643779831
 30
0.0
 41
-1.0
 42
-1.0
 50
90.0
  0
LINE
  5
1A428
  8
AM_0
 10
882.84377091399722
 20
419.02956043779818
 30
0.0
 11
882.84377091399722
 21
415.99075643779832
 31
0.0
  0
ARC
  5
1A429
  8
AM_0
 10
880.84377091399733
 20
410.57677643779829
 30
0.0
 40
2.0
 50
0.000000000000007
 51
90.0
  0
LINE
  5
1A42A
  8
AM_0
 10
890.3437709139971
 20
398.35137343779832
 30
0.0
 11
882.84377091399722
 21
398.35137343779832
 31
0.0
  0
LINE
  5
1A42B
  8
AM_0
 10
890.3437709139971
 20
409.9173924377983
 30
0.0
 11
882.84377091399722
 21
409.9173924377983
 31
0.0
  0
LINE
  5
1A42C
  8
AM_0
 10
890.3437709139971
 20
415.99075643779832
 30
0.0
 11
882.84377091399722
 21
415.99075643779832
 31
0.0
  0
LINE
  5
1A42D
  8
AM_0
 10
882.84377091399722
 20
420.55501843779808
 30
0.0
 11
882.84377091399722
 21
419.95174243779809
 31
0.0
  0
ARC
  5
1A42E
  8
AM_0
 10
880.84377091399733
 20
419.02956043779818
 30
0.0
 40
2.0
 50
0.000000000000007
 51
90.0
  0
LINE
  5
1A42F
  8
AM_0
 10
890.3437709139971
 20
421.9699174377983
 30
0.0
 11
884.36309991399708
 21
421.9699174377983
 31
0.0
  0
LINE
  5
1A430
  8
AM_0
 10
890.3437709139971
 20
420.65540543779809
 30
0.0
 11
884.69245991399703
 21
420.65540543779809
 31
0.0
  0
ARC
  5
1A431
  8
AM_0
 10
884.69245991399703
 20
422.65540543779832
 30
0.0
 40
2.0
 50
195.80962600000049
 51
270.0
  0
ARC
  5
1A432
  8
AM_0
 10
880.84377091399733
 20
421.56563843779833
 30
0.0
 40
2.0
 50
15.80962600000046
 51
90.0
  0
ARC
  5
1A433
  8
AM_0
 10
884.36309991399708
 20
423.9699174377983
 30
0.0
 40
2.0
 50
208.37785700000191
 51
270.0
  0
ARC
  5
1A434
  8
AM_0
 10
880.84377091399733
 20
422.06878043779813
 30
0.0
 40
2.0
 50
28.377856000002179
 51
90.0
  0
ARC
  5
1A435
  8
AM_0
 10
732.84377091399722
 20
410.57677643779829
 30
0.0
 40
2.0
 50
90.0
 51
180.0
  0
ARC
  5
1A436
  8
AM_0
 10
733.97126291399695
 20
419.02956043779818
 30
0.0
 40
2.0
 50
90.0
 51
164.99999999999909
  0
LINE
  5
1A437
  8
AM_0
 10
728.84377091399722
 20
407.62090643779811
 30
0.0
 11
732.03941091399724
 21
419.54719843779827
 31
0.0
  0
ARC
  5
1A438
  8
AM_0
 10
733.00674691399695
 20
420.55501843779808
 30
0.0
 40
2.0
 50
90.0
 51
164.99999999999909
  0
LINE
  5
1A439
  8
AM_0
 10
728.84377091399722
 20
412.7459894377983
 30
0.0
 11
731.07489491399724
 21
421.07265743779811
 31
0.0
  0
ARC
  5
1A43A
  8
AM_0
 10
732.4590529139972
 20
421.56563843779833
 30
0.0
 40
2.0
 50
90.0
 51
164.99999999999909
  0
LINE
  5
1A43B
  8
AM_0
 10
728.84377091399722
 20
415.80062643779809
 30
0.0
 11
730.52720191399715
 21
422.08327643779808
 31
0.0
  0
ARC
  5
1A43C
  8
AM_0
 10
732.17801891399722
 20
422.06878043779813
 30
0.0
 40
2.0
 50
90.0
 51
164.99999999999909
  0
LINE
  5
1A43D
  8
AM_0
 10
728.84377091399722
 20
417.35260443779828
 30
0.0
 11
730.24616691399706
 21
422.5864194377981
 31
0.0
  0
ARC
  5
1A43E
  8
AM_0
 10
884.84377091399722
 20
419.95174243779809
 30
0.0
 40
2.0
 50
180.0
 51
270.0
  0
ARC
  5
1A43F
  8
AM_0
 10
880.84377091399733
 20
420.55501843779808
 30
0.0
 40
2.0
 50
0.000000000000007
 51
90.0
  0
LINE
  5
1A440
  8
AM_0
 10
890.3437709139971
 20
417.95174243779809
 30
0.0
 11
884.84377091399722
 21
417.95174243779809
 31
0.0
  0
LINE
  5
1A441
  8
AM_0
 10
882.84377091399722
 20
415.99075643779832
 30
0.0
 11
882.84377091399722
 21
396.94811243779827
 31
0.0
  0
INSERT
  5
1A442
  8
AM_0
  2
$6-44
 10
730.84377091399722
 20
400.68574943779828
 30
0.0
 50
270.0
  0
LINE
  5
1A443
  8
AM_0
 10
729.84377091399722
 20
407.11558043779809
 30
0.0
 11
720.84377091399722
 21
407.11558043779809
 31
0.0
  0
LINE
  5
1A444
  8
AM_0
 10
880.84377091399733
 20
394.94811243779827
 30
0.0
 11
732.84377091399722
 21
394.94811243779827
 31
0.0
  0
LINE
  5
1A445
  8
AM_0
 10
880.84377091399733
 20
424.0687804377983
 30
0.0
 11
732.17801891399722
 21
424.0687804377983
 31
0.0
  0
LINE
  5
1A446
  8
AM_0
 10
880.84377091399733
 20
412.57677643779812
 30
0.0
 11
732.84377091399722
 21
412.57677643779812
 31
0.0
  0
LINE
  5
1A447
  8
AM_0
 10
880.84377091399733
 20
421.02956043779812
 30
0.0
 11
733.97126291399695
 21
421.02956043779812
 31
0.0
  0
LINE
  5
1A448
  8
AM_0
 10
880.84377091399733
 20
422.55501843779831
 30
0.0
 11
733.00674691399695
 21
422.55501843779831
 31
0.0
  0
LINE
  5
1A449
  8
AM_0
 10
880.84377091399733
 20
423.56563843779833
 30
0.0
 11
732.4590529139972
 21
423.56563843779833
 31
0.0
  0
LINE
  5
1A44A
  8
AM_0
 10
810.8437709139971
 20
265.0767724377983
 30
0.0
 11
810.8437709139971
 21
262.0767724377983
 31
0.0
  0
LINE
  5
1A44B
  8
AM_0
 10
743.84377091399722
 20
265.0767724377983
 30
0.0
 11
743.84377091399722
 21
262.0767724377983
 31
0.0
  0
LINE
  5
1A44C
  8
AM_0
 10
946.34377091399745
 20
283.28380243779827
 30
0.0
 11
946.34377091399745
 21
406.19173243779829
 31
0.0
  0
LINE
  5
1A44D
  8
AM_0
 10
950.34340091399736
 20
281.47679243779828
 30
0.0
 11
950.34340091399736
 21
406.6767124377983
 31
0.0
  0
LINE
  5
1A44E
  8
AM_0
 10
945.94381091399748
 20
411.34377243779812
 30
0.0
 11
944.82082091399718
 21
417.71474243779829
 31
0.0
  0
LINE
  5
1A44F
  8
AM_0
 10
939.45870091399706
 20
422.45870243779808
 30
0.0
 11
913.81673091399705
 21
423.8026924377981
 31
0.0
  0
LINE
  5
1A450
  8
AM_0
 10
913.34377091399745
 20
265.02147243779831
 30
0.0
 11
913.34377091399745
 21
422.9633424377983
 31
0.0
  0
LINE
  5
1A451
  8
AM_0
 10
942.48183091399744
 20
416.1037224377983
 30
0.0
 11
942.48183091399744
 21
272.55675243779831
 31
0.0
  0
LINE
  5
1A452
  8
AM_0
 10
945.94381091399748
 20
276.80977243779819
 30
0.0
 11
944.82082091399718
 21
270.43971243779828
 31
0.0
  0
LINE
  5
1A453
  8
AM_0
 10
939.45876091399748
 20
265.69576243779818
 30
0.0
 11
913.81673091399705
 21
264.3517624377983
 31
0.0
  0
LINE
  5
1A454
  8
AM_0
 10
912.25075091399765
 20
424.82674243779809
 30
0.0
 11
890.3437709139971
 21
424.82674243779809
 31
0.0
  0
LINE
  5
1A455
  8
AM_0
 10
912.25075091399765
 20
263.3267724377983
 30
0.0
 11
890.3437709139971
 21
263.3267724377983
 31
0.0
  0
LINE
  5
1A456
  8
AM_0
 10
743.84377091399722
 20
267.0767724377983
 30
0.0
 11
743.84377091399722
 21
265.0767724377983
 31
0.0
  0
LINE
  5
1A457
  8
AM_0
 10
810.8437709139971
 20
267.0767724377983
 30
0.0
 11
810.8437709139971
 21
265.0767724377983
 31
0.0
  0
LINE
  5
1A458
  8
AM_0
 10
810.8437709139971
 20
265.0767724377983
 30
0.0
 11
743.84377091399722
 21
265.0767724377983
 31
0.0
  0
LINE
  5
1A459
  8
AM_0
 10
880.84377091399733
 20
267.0767724377983
 30
0.0
 11
734.06325091399719
 21
267.0767724377983
 31
0.0
  0
LINE
  5
1A45A
  8
AM_0
 10
767.34377091399722
 20
370.0767724377983
 30
0.0
 11
890.3437709139971
 21
370.0767724377983
 31
0.0
  0
LINE
  5
1A45B
  8
AM_0
 10
767.34377091399722
 20
318.0767724377983
 30
0.0
 11
890.3437709139971
 21
318.0767724377983
 31
0.0
  0
LINE
  5
1A45C
  8
AM_0
 10
751.34377091399722
 20
371.0767724377983
 30
0.0
 11
751.34377091399722
 21
377.0767724377983
 31
0.0
  0
LINE
  5
1A45D
  8
AM_0
 10
766.34377091399722
 20
371.0767724377983
 30
0.0
 11
766.34377091399722
 21
377.0767724377983
 31
0.0
  0
LINE
  5
1A45E
  8
AM_0
 10
751.34377091399722
 20
317.0767724377983
 30
0.0
 11
751.34377091399722
 21
311.0767724377983
 31
0.0
  0
LINE
  5
1A45F
  8
AM_0
 10
766.34377091399722
 20
317.0767724377983
 30
0.0
 11
766.34377091399722
 21
311.0767724377983
 31
0.0
  0
LINE
  5
1A460
  8
AM_0
 10
794.84377091399722
 20
364.5767724377983
 30
0.0
 11
794.84377091399722
 21
323.5767724377983
 31
0.0
  0
LINE
  5
1A461
  8
AM_0
 10
731.8437709139971
 20
364.5767724377983
 30
0.0
 11
731.8437709139971
 21
323.5767724377983
 31
0.0
  0
LINE
  5
1A462
  8
AM_0
 10
794.84377091399722
 20
364.5767724377983
 30
0.0
 11
731.8437709139971
 21
364.5767724377983
 31
0.0
  0
LINE
  5
1A463
  8
AM_0
 10
794.84377091399722
 20
323.5767724377983
 30
0.0
 11
731.8437709139971
 21
323.5767724377983
 31
0.0
  0
LINE
  5
1A464
  8
AM_0
 10
794.84377091399722
 20
357.0767724377983
 30
0.0
 11
731.8437709139971
 21
357.0767724377983
 31
0.0
  0
LINE
  5
1A465
  8
AM_0
 10
882.84377091399722
 20
347.0767724377983
 30
0.0
 11
882.84377091399722
 21
341.0767724377983
 31
0.0
  0
LINE
  5
1A466
  8
AM_0
 10
732.13167091399714
 20
268.55806243779818
 30
0.0
 11
731.14376091399708
 21
272.2367424377984
 31
0.0
  0
LINE
  5
1A467
  8
AM_0
 10
732.71975091399725
 20
268.55806243779818
 30
0.0
 11
731.14376091399708
 21
274.42678243779829
 31
0.0
  0
LINE
  5
1A468
  8
AM_0
 10
730.84377091399722
 20
307.11855243779831
 30
0.0
 11
730.84377091399722
 21
270.5767724377983
 31
0.0
  0
LINE
  5
1A469
  8
AM_0
 10
731.8437709139971
 20
320.0767724377983
 30
0.0
 11
890.3437709139971
 21
320.0767724377983
 31
0.0
  0
LINE
  5
1A46A
  8
AM_0
 10
731.8437709139971
 20
318.0767724377983
 30
0.0
 11
750.34377091399722
 21
318.0767724377983
 31
0.0
  0
LINE
  5
1A46B
  8
AM_0
 10
798.84377091399722
 20
328.0767724377983
 30
0.0
 11
890.3437709139971
 21
328.0767724377983
 31
0.0
  0
LINE
  5
1A46C
  8
AM_0
 10
798.84377091399722
 20
330.0767724377983
 30
0.0
 11
890.3437709139971
 21
330.0767724377983
 31
0.0
  0
LINE
  5
1A46D
  8
AM_0
 10
798.84377091399722
 20
338.0767724377983
 30
0.0
 11
890.3437709139971
 21
338.0767724377983
 31
0.0
  0
LINE
  5
1A46E
  8
AM_0
 10
798.84377091399722
 20
340.0767724377983
 30
0.0
 11
881.84377091399722
 21
340.0767724377983
 31
0.0
  0
LINE
  5
1A46F
  8
AM_0
 10
731.8437709139971
 20
298.0767724377983
 30
0.0
 11
890.3437709139971
 21
298.0767724377983
 31
0.0
  0
LINE
  5
1A470
  8
AM_0
 10
731.8437709139971
 20
310.0767724377983
 30
0.0
 11
890.3437709139971
 21
310.0767724377983
 31
0.0
  0
LINE
  5
1A471
  8
AM_0
 10
731.8437709139971
 20
308.0767724377983
 30
0.0
 11
890.3437709139971
 21
308.0767724377983
 31
0.0
  0
LINE
  5
1A472
  8
AM_0
 10
731.8437709139971
 20
300.0767724377983
 30
0.0
 11
890.3437709139971
 21
300.0767724377983
 31
0.0
  0
LINE
  5
1A473
  8
AM_0
 10
731.8437709139971
 20
388.0767724377983
 30
0.0
 11
890.3437709139971
 21
388.0767724377983
 31
0.0
  0
LINE
  5
1A474
  8
AM_0
 10
731.8437709139971
 20
380.0767724377983
 30
0.0
 11
890.3437709139971
 21
380.0767724377983
 31
0.0
  0
LINE
  5
1A475
  8
AM_0
 10
731.8437709139971
 20
378.0767724377983
 30
0.0
 11
890.3437709139971
 21
378.0767724377983
 31
0.0
  0
LINE
  5
1A476
  8
AM_0
 10
731.8437709139971
 20
390.0767724377983
 30
0.0
 11
890.3437709139971
 21
390.0767724377983
 31
0.0
  0
LINE
  5
1A477
  8
AM_0
 10
798.84377091399722
 20
348.0767724377983
 30
0.0
 11
881.84377091399722
 21
348.0767724377983
 31
0.0
  0
LINE
  5
1A478
  8
AM_0
 10
798.84377091399722
 20
350.0767724377983
 30
0.0
 11
890.3437709139971
 21
350.0767724377983
 31
0.0
  0
LINE
  5
1A479
  8
AM_0
 10
798.84377091399722
 20
358.0767724377983
 30
0.0
 11
890.3437709139971
 21
358.0767724377983
 31
0.0
  0
LINE
  5
1A47A
  8
AM_0
 10
798.84377091399722
 20
360.0767724377983
 30
0.0
 11
890.3437709139971
 21
360.0767724377983
 31
0.0
  0
LINE
  5
1A47B
  8
AM_0
 10
731.8437709139971
 20
370.0767724377983
 30
0.0
 11
750.34377091399722
 21
370.0767724377983
 31
0.0
  0
LINE
  5
1A47C
  8
AM_0
 10
731.8437709139971
 20
368.0767724377983
 30
0.0
 11
890.3437709139971
 21
368.0767724377983
 31
0.0
  0
LINE
  5
1A47D
  8
AM_0
 10
730.84377091399722
 20
381.03499243779839
 30
0.0
 11
730.84377091399722
 21
410.57677643779829
 31
0.0
  0
LINE
  5
1A47E
  8
AM_0
 10
890.3437709139971
 20
424.82674243779809
 30
0.0
 11
890.3437709139971
 21
263.3267724377983
 31
0.0
  0
ARC
  5
1A47F
  8
AM_0
 10
913.84377091399733
 20
424.3017124377983
 30
0.0
 40
0.5
 50
204.45604999999941
 51
267.00003000000902
  0
ARC
  5
1A480
  8
AM_0
 10
939.15786091399707
 20
416.71675243779828
 30
0.0
 40
5.75
 50
10.000020000001699
 51
87.000013999997904
  0
ARC
  5
1A481
  8
AM_0
 10
912.25075091399765
 20
423.57674243779809
 30
0.0
 40
1.25
 50
24.456019999997672
 51
90.000011000008925
  0
ARC
  5
1A482
  8
AM_0
 10
948.0934009139977
 20
406.6767124377983
 30
0.0
 40
2.25
 50
0.000019999998763
 51
81.183412000002733
  0
ARC
  5
1A483
  8
AM_0
 10
948.89809091399707
 20
411.8648224377983
 30
0.0
 40
3.0
 50
190.00004999999891
 51
261.18303000000259
  0
ARC
  5
1A484
  8
AM_0
 10
948.0934009139977
 20
281.47679243779828
 30
0.0
 40
2.25
 50
278.8170600000019
 51
0.000019999998763
  0
ARC
  5
1A485
  8
AM_0
 10
948.89809091399707
 20
276.2888124377983
 30
0.0
 40
3.0
 50
98.816809000005733
 51
170.00016800000111
  0
ARC
  5
1A486
  8
AM_0
 10
913.84377091399733
 20
263.85277243779842
 30
0.0
 40
0.5
 50
93.000015000006641
 51
155.54360100000221
  0
ARC
  5
1A487
  8
AM_0
 10
939.15786091399707
 20
271.43773243779827
 30
0.0
 40
5.75
 50
273.00004999999697
 51
350.00001999999898
  0
ARC
  5
1A488
  8
AM_0
 10
912.25075091399765
 20
264.5767724377983
 30
0.0
 40
1.25
 50
270.00004000000399
 51
335.54403000000133
  0
ARC
  5
1A489
  8
AM_0
 10
734.06325091399719
 20
269.0767724377983
 30
0.0
 40
2.0
 50
195.0316900000031
 51
270.000010000001
  0
ARC
  5
1A48A
  8
AM_0
 10
734.65133091399719
 20
269.0767724377983
 30
0.0
 40
2.0
 50
195.0316900000031
 51
270.000010000001
  0
ARC
  5
1A48B
  8
AM_0
 10
750.34377091399722
 20
311.0767724377983
 30
0.0
 40
1.0
 50
270.0
 51
0.0000100000010134
  0
ARC
  5
1A48C
  8
AM_0
 10
767.34377091399722
 20
311.0767724377983
 30
0.0
 40
1.0
 50
179.99999899999861
 51
270.000010000001
  0
ARC
  5
1A48D
  8
AM_0
 10
767.34377091399722
 20
377.0767724377983
 30
0.0
 40
1.0
 50
89.999997000002296
 51
180.0
  0
ARC
  5
1A48E
  8
AM_0
 10
750.34377091399722
 20
377.0767724377983
 30
0.0
 40
1.0
 50
359.999989999999
 51
89.999997000002296
  0
ARC
  5
1A48F
  8
AM_0
 10
750.34377091399722
 20
317.0767724377983
 30
0.0
 40
1.0
 50
359.999989999999
 51
89.999997000002296
  0
ARC
  5
1A490
  8
AM_0
 10
767.34377091399722
 20
317.0767724377983
 30
0.0
 40
1.0
 50
89.999997000002296
 51
180.0
  0
ARC
  5
1A491
  8
AM_0
 10
750.34377091399722
 20
371.0767724377983
 30
0.0
 40
1.0
 50
270.0
 51
0.0000100000010134
  0
ARC
  5
1A492
  8
AM_0
 10
767.34377091399722
 20
371.0767724377983
 30
0.0
 40
1.0
 50
179.99999899999861
 51
270.000010000001
  0
CIRCLE
  5
1A493
  8
AM_0
 10
756.34377091399722
 20
372.5767724377983
 30
0.0
 40
1.0
  0
CIRCLE
  5
1A494
  8
AM_0
 10
761.34377091399722
 20
372.5767724377983
 30
0.0
 40
1.149999999999999
  0
CIRCLE
  5
1A495
  8
AM_0
 10
761.34377091399722
 20
372.5767724377983
 30
0.0
 40
1.1000000000000001
  0
CIRCLE
  5
1A496
  8
AM_0
 10
761.34377091399722
 20
315.5767724377983
 30
0.0
 40
1.1000000000000001
  0
CIRCLE
  5
1A497
  8
AM_0
 10
761.34377091399722
 20
315.5767724377983
 30
0.0
 40
1.149999999999999
  0
CIRCLE
  5
1A498
  8
AM_0
 10
756.34377091399722
 20
315.5767724377983
 30
0.0
 40
1.0
  0
ARC
  5
1A499
  8
AM_0
 10
798.84377091399722
 20
359.0767724377983
 30
0.0
 40
1.0
 50
89.999997000002296
 51
270.000010000001
  0
ARC
  5
1A49A
  8
AM_0
 10
798.84377091399722
 20
349.0767724377983
 30
0.0
 40
1.0
 50
89.999997000002296
 51
270.000010000001
  0
ARC
  5
1A49B
  8
AM_0
 10
798.84377091399722
 20
339.0767724377983
 30
0.0
 40
1.0
 50
89.999997000002296
 51
270.000010000001
  0
ARC
  5
1A49C
  8
AM_0
 10
798.84377091399722
 20
329.0767724377983
 30
0.0
 40
1.0
 50
89.999997000002296
 51
270.000010000001
  0
ARC
  5
1A49D
  8
AM_0
 10
733.79378091399701
 20
309.0767724377983
 30
0.0
 40
1.0
 50
89.999997000002296
 51
270.000010000001
  0
ARC
  5
1A49E
  8
AM_0
 10
731.8437709139971
 20
309.0767724377983
 30
0.0
 40
1.0
 50
89.999997000002296
 51
270.000010000001
  0
ARC
  5
1A49F
  8
AM_0
 10
733.79378091399701
 20
319.0767724377983
 30
0.0
 40
1.0
 50
89.999997000002296
 51
270.000010000001
  0
ARC
  5
1A4A0
  8
AM_0
 10
731.8437709139971
 20
319.0767724377983
 30
0.0
 40
1.0
 50
89.999997000002296
 51
270.000010000001
  0
ARC
  5
1A4A1
  8
AM_0
 10
733.79378091399701
 20
369.0767724377983
 30
0.0
 40
1.0
 50
89.999997000002296
 51
270.000010000001
  0
ARC
  5
1A4A2
  8
AM_0
 10
731.8437709139971
 20
369.0767724377983
 30
0.0
 40
1.0
 50
89.999997000002296
 51
270.000010000001
  0
ARC
  5
1A4A3
  8
AM_0
 10
733.79378091399701
 20
379.0767724377983
 30
0.0
 40
1.0
 50
89.999997000002296
 51
270.000010000001
  0
ARC
  5
1A4A4
  8
AM_0
 10
731.8437709139971
 20
379.0767724377983
 30
0.0
 40
1.0
 50
89.999997000002296
 51
270.000010000001
  0
ARC
  5
1A4A5
  8
AM_0
 10
881.84377091399722
 20
347.0767724377983
 30
0.0
 40
1.0
 50
359.999989999999
 51
89.999997000002296
  0
ARC
  5
1A4A6
  8
AM_0
 10
881.84377091399722
 20
341.0767724377983
 30
0.0
 40
1.0
 50
270.0
 51
0.0000100000010134
  0
ARC
  5
1A4A7
  8
AM_0
 10
881.84380091399714
 20
329.0767724377983
 30
0.0
 40
1.0
 50
270.0
 51
89.999997000002296
  0
ARC
  5
1A4A8
  8
AM_0
 10
881.84380091399714
 20
319.0767724377983
 30
0.0
 40
1.0
 50
270.0
 51
89.999997000002296
  0
ARC
  5
1A4A9
  8
AM_0
 10
733.79378091399701
 20
299.0767724377983
 30
0.0
 40
1.0
 50
89.999997000002296
 51
270.000010000001
  0
ARC
  5
1A4AA
  8
AM_0
 10
731.8437709139971
 20
299.0767724377983
 30
0.0
 40
1.0
 50
89.999997000002296
 51
270.000010000001
  0
ARC
  5
1A4AB
  8
AM_0
 10
881.84380091399714
 20
299.0767724377983
 30
0.0
 40
1.0
 50
270.0
 51
89.999997000002296
  0
ARC
  5
1A4AC
  8
AM_0
 10
881.84380091399714
 20
309.0767724377983
 30
0.0
 40
1.0
 50
270.0
 51
89.999997000002296
  0
ARC
  5
1A4AD
  8
AM_0
 10
729.69771091399707
 20
271.85637243779843
 30
0.0
 40
1.4952499999999991
 50
14.737399999999409
 51
39.962349999998843
  0
ARC
  5
1A4AE
  8
AM_0
 10
729.702780913997
 20
274.03227243779833
 30
0.0
 40
1.4940209999999989
 50
15.30965999999974
 51
40.207419999998692
  0
ARC
  5
1A4AF
  8
AM_0
 10
729.69961091399705
 20
417.84383243779831
 30
0.0
 40
1.495147999999999
 50
344.99378699999829
 51
344.9981099999988
  0
ARC
  5
1A4B0
  8
AM_0
 10
881.84380091399714
 20
379.0767724377983
 30
0.0
 40
1.0
 50
270.0
 51
89.999997000002296
  0
ARC
  5
1A4B1
  8
AM_0
 10
881.84380091399714
 20
389.0767724377983
 30
0.0
 40
1.0
 50
270.0
 51
89.999997000002296
  0
ARC
  5
1A4B2
  8
AM_0
 10
731.8437709139971
 20
389.0767724377983
 30
0.0
 40
1.0
 50
89.999997000002296
 51
270.000010000001
  0
ARC
  5
1A4B3
  8
AM_0
 10
733.79378091399701
 20
389.0767724377983
 30
0.0
 40
1.0
 50
89.999997000002296
 51
270.000010000001
  0
ARC
  5
1A4B4
  8
AM_0
 10
881.84380091399714
 20
369.0767724377983
 30
0.0
 40
1.0
 50
270.0
 51
89.999997000002296
  0
ARC
  5
1A4B5
  8
AM_0
 10
881.84380091399714
 20
359.0767724377983
 30
0.0
 40
1.0
 50
270.0
 51
89.999997000002296
  0
LINE
  5
1A4B6
  8
AM_0
 10
723.14377091468737
 20
417.57677743779811
 30
0.0
 11
728.90383791399722
 21
417.57677743779811
 31
0.0
  0
LINE
  5
1A4B7
  8
AM_0
 10
729.84377091399722
 20
307.11855243779831
 30
0.0
 11
720.84377091399722
 21
307.11855243779831
 31
0.0
  0
LINE
  5
1A4B8
  8
AM_0
 10
729.84377091399722
 20
381.03499243779839
 30
0.0
 11
720.84377091399722
 21
381.03499243779839
 31
0.0
  0
TEXT
  5
1A736
  8
AM_0
 10
1.98164707743399
 20
727.93616824189962
 30
0.0
 40
15.0
  1
VC08-080EFMR~VC08-160EFMR
1001
ACAD
1000
MTEXTBEGIN
1070
    73
1070
     1
1070
    44
1040
1.0
1070
    74
1070
     0
1000
MTEXTEND
  0
VIEWPORT
  5
89
 67
     1
  8
0
 10
210.0
 20
148.5
 30
0.0
 40
420.0
 41
297.0
 68
     1
 69
     1
1001
ACAD
1000
MVIEW
1002
{
1070
    16
1010
0.0
1020
0.0
1030
0.0
1010
0.0
1020
0.0
1030
1.0
1040
0.0
1040
297.0
1040
221.70154043645701
1040
148.5
1040
50.0
1040
0.0
1040
0.0
1070
     0
1070
   100
1070
     1
1070
     1
1070
     0
1070
     0
1070
     0
1070
     0
1040
0.0
1040
0.0
1040
0.0
1040
10.0
1040
10.0
1040
10.0
1040
10.0
1070
     0
1002
{
1002
}
1002
}
1001
GENIUS_GENOREF_13
1005
1B94
1001
GENIUS_GENSCREG_15
1000
PF
1040
1.0
1000
DF
1040
1.0
1000
MIN
1011
0.0
1021
0.0
1031
0.0
1021
0.0
1031
0.0
1000
MAX
1011
420.0
1021
0.0
1031
0.0
1021
297.0
1031
0.0
1000
FLAGS
1070
     4
  0
ENDSEC
  0
EOF
