  0
SECTION
  2
HEADER
  9
$ACADVER
  1
AC1009
  9
$INSBASE
 10
0.0
 20
0.0
 30
0.0
  9
$EXTMIN
 10
135.8077719207013
 20
151.17732076071999
 30
-0.0000000000000058
  9
$EXTMAX
 10
747.05994601612883
 20
619.89984139152705
 30
0.0000000000000104
  9
$LIMMIN
 10
0.0
 20
0.0
  9
$LIMMAX
 10
853.5
 20
555.00000000000011
  9
$ORTHOMODE
 70
     0
  9
$REGENMODE
 70
     1
  9
$FILLMODE
 70
     1
  9
$QTEXTMODE
 70
     0
  9
$MIRRTEXT
 70
     1
  9
$DRAGMODE
 70
     2
  9
$LTSCALE
 40
3.0
  9
$OSMODE
 70
   551
  9
$ATTMODE
 70
     1
  9
$TEXTSIZE
 40
2.5
  9
$TRACEWID
 40
1.0
  9
$TEXTSTYLE
  7
STANDARD
  9
$CLAYER
  8
AM_0
  9
$CELTYPE
  6
BYLAYER
  9
$CECOLOR
 62
   256
  9
$DIMSCALE
 40
3.0
  9
$DIMASZ
 40
2.5
  9
$DIMEXO
 40
1.0
  9
$DIMDLI
 40
7.0
  9
$DIMRND
 40
0.0
  9
$DIMDLE
 40
0.0
  9
$DIMEXE
 40
1.0
  9
$DIMTP
 40
0.1
  9
$DIMTM
 40
0.1000000001
  9
$DIMTXT
 40
2.5
  9
$DIMCEN
 40
0.0
  9
$DIMTSZ
 40
0.0
  9
$DIMTOL
 70
     0
  9
$DIMLIM
 70
     0
  9
$DIMTIH
 70
     0
  9
$DIMTOH
 70
     0
  9
$DIMSE1
 70
     0
  9
$DIMSE2
 70
     0
  9
$DIMTAD
 70
     3
  9
$DIMZIN
 70
     8
  9
$DIMBLK
  1

  9
$DIMASO
 70
     1
  9
$DIMSHO
 70
     1
  9
$DIMPOST
  1

  9
$DIMAPOST
  1
"
  9
$DIMALT
 70
     0
  9
$DIMALTD
 70
     2
  9
$DIMALTF
 40
0.0393701
  9
$DIMLFAC
 40
1.0
  9
$DIMTOFL
 70
     1
  9
$DIMTVP
 40
0.0
  9
$DIMTIX
 70
     0
  9
$DIMSOXD
 70
     0
  9
$DIMSAH
 70
     0
  9
$DIMBLK1
  1

  9
$DIMBLK2
  1

  9
$DIMSTYLE
  2
AM_JIS
  9
$DIMCLRD
 70
   256
  9
$DIMCLRE
 70
   256
  9
$DIMCLRT
 70
     4
  9
$DIMTFAC
 40
0.71
  9
$DIMGAP
 40
1.0
  9
$LUNITS
 70
     2
  9
$LUPREC
 70
     2
  9
$SKETCHINC
 40
1.0
  9
$FILLETRAD
 40
5.0
  9
$AUNITS
 70
     0
  9
$AUPREC
 70
     3
  9
$MENU
  1
.
  9
$ELEVATION
 40
0.0
  9
$PELEVATION
 40
0.0
  9
$THICKNESS
 40
0.0
  9
$LIMCHECK
 70
     0
  9
$BLIPMODE
 70
     0
  9
$CHAMFERA
 40
7.5
  9
$CHAMFERB
 40
7.5
  9
$SKPOLY
 70
     0
  9
$TDCREATE
 40
2452753.643349607
  9
$TDUPDATE
 40
2458543.4483749201
  9
$TDINDWG
 40
0.4344575347
  9
$TDUSRTIMER
 40
0.434457338
  9
$USRTIMER
 70
     1
  9
$ANGBASE
 50
0.0
  9
$ANGDIR
 70
     0
  9
$PDMODE
 70
     0
  9
$PDSIZE
 40
0.0
  9
$PLINEWID
 40
0.0
  9
$COORDS
 70
     1
  9
$SPLFRAME
 70
     0
  9
$SPLINETYPE
 70
     6
  9
$SPLINESEGS
 70
     8
  9
$ATTDIA
 70
     1
  9
$ATTREQ
 70
     1
  9
$HANDLING
 70
     1
  9
$HANDSEED
  5
17B56
  9
$SURFTAB1
 70
     6
  9
$SURFTAB2
 70
     6
  9
$SURFTYPE
 70
     6
  9
$SURFU
 70
     6
  9
$SURFV
 70
     6
  9
$UCSNAME
  2

  9
$UCSORG
 10
0.0
 20
0.0
 30
0.0
  9
$UCSXDIR
 10
1.0
 20
0.0
 30
0.0
  9
$UCSYDIR
 10
0.0
 20
1.0
 30
0.0
  9
$PUCSNAME
  2

  9
$PUCSORG
 10
0.0
 20
0.0
 30
0.0
  9
$PUCSXDIR
 10
1.0
 20
0.0
 30
0.0
  9
$PUCSYDIR
 10
0.0
 20
1.0
 30
0.0
  9
$USERI1
 70
     0
  9
$USERI2
 70
     0
  9
$USERI3
 70
     0
  9
$USERI4
 70
     0
  9
$USERI5
 70
     0
  9
$USERR1
 40
0.0
  9
$USERR2
 40
0.0
  9
$USERR3
 40
0.0
  9
$USERR4
 40
0.0
  9
$USERR5
 40
0.0
  9
$WORLDVIEW
 70
     1
  9
$SHADEDGE
 70
     3
  9
$SHADEDIF
 70
    70
  9
$TILEMODE
 70
     1
  9
$MAXACTVP
 70
    48
  9
$PLIMCHECK
 70
     0
  9
$PEXTMIN
 10
1.0000000000000000E+020
 20
1.0000000000000000E+020
 30
1.0000000000000000E+020
  9
$PEXTMAX
 10
-1.0000000000000000E+020
 20
-1.0000000000000000E+020
 30
-1.0000000000000000E+020
  9
$PLIMMIN
 10
0.0
 20
0.0
  9
$PLIMMAX
 10
420.0
 20
297.0
  9
$UNITMODE
 70
     0
  9
$VISRETAIN
 70
     1
  9
$PLINEGEN
 70
     0
  9
$PSLTSCALE
 70
     1
  0
ENDSEC
  0
SECTION
  2
TABLES
  0
TABLE
  2
VPORT
 70
     1
  0
VPORT
  2
*ACTIVE
 70
     0
 10
0.0
 20
0.0
 11
1.0
 21
1.0
 12
441.433858968415
 22
385.53858107612359
 13
0.0
 23
0.0
 14
7.5
 24
7.5
 15
30.0
 25
30.0
 16
0.0
 26
0.0
 36
1.0
 17
0.0
 27
0.0
 37
0.0
 40
471.94029537197969
 41
1.7571592210767459
 42
50.0
 43
0.0
 44
0.0
 50
0.0
 51
0.0
 71
    16
 72
   100
 73
     1
 74
     1
 75
     0
 76
     0
 77
     0
 78
     0
  0
ENDTAB
  0
TABLE
  2
LTYPE
 70
    21
  0
LTYPE
  2
CONTINUOUS
 70
     0
  3
Solid line
 72
    65
 73
     0
 40
0.0
  0
LTYPE
  2
PHANTOM2
 70
     0
  3
Phantom (.5x) ___ _ _ ___ _ _ ___ _ _ ___ _ _
 72
    65
 73
     6
 40
31.75
 49
15.875
 49
-3.174999999999998
 49
3.174999999999998
 49
-3.174999999999998
 49
3.174999999999998
 49
-3.174999999999998
  0
LTYPE
  2
CENTER
 70
     0
  3
Center ____ _ ____ _ ____ _ ____ _ ____ _ ____
 72
    65
 73
     4
 40
50.799999999999997
 49
31.75
 49
-6.3499999999999979
 49
6.3499999999999979
 49
-6.3499999999999979
  0
LTYPE
  2
ACANSTGBM
 70
     0
  3
__ . . __ . .
 72
    65
 73
     6
 40
9.0
 49
4.0
 49
-1.0
 49
1.0
 49
-1.0
 49
1.0
 49
-1.0
  0
LTYPE
  2
ACANSTGLM
 70
     0
  3
_ _ _ _ _
 72
    65
 73
     2
 40
3.0
 49
2.0
 49
-1.0
  0
LTYPE
  2
GEN3B
 70
     0
  3
 - - - - -
 72
    65
 73
     2
 40
1.0
 49
0.5
 49
-0.5
  0
LTYPE
  2
GEN7A
 70
     0
  3
__ . __ . __
 72
    65
 73
     4
 40
7.375
 49
4.75
 49
-0.875
 49
0.875
 49
-0.875
  0
LTYPE
  2
AM_ISO02W050
 70
     0
  3
__ __ __ __ __ __ __ __ __ __ __ __ __ __ __
 72
    65
 73
     2
 40
7.5
 49
6.0
 49
-1.5
  0
LTYPE
  2
AM_ISO08W050
 70
     0
  3
____ . ____ . ____ . ____ . ____ . ____ . ____
 72
    65
 73
     4
 40
18.0
 49
12.0
 49
-1.5
 49
3.0
 49
-1.5
  0
LTYPE
  2
AM_ISO09W050
 70
     0
  3
_____ . . _____ . . _____ . . ____ .. ____
 72
    65
 73
     6
 40
22.5
 49
12.0
 49
-1.5
 49
3.0
 49
-1.5
 49
3.0
 49
-1.5
  0
LTYPE
  2
AMCONSTR
 70
     0
  3
_______________________
 72
    65
 73
     2
 40
9999.0
 49
9999.0
 49
0.0
  0
LTYPE
  2
AM_ISO02W050X2
 70
     0
  3
 _ _ _ _ _ _ _ _ _ _ _ _
 72
    65
 73
     2
 40
3.75
 49
3.0
 49
-0.75
  0
LTYPE
  2
AM_ISO08W050X2
 70
     0
  3
__ . __ . __ . __ . __ . __
 72
    65
 73
     4
 40
9.0
 49
6.0
 49
-0.75
 49
1.5
 49
-0.75
  0
LTYPE
  2
AMZIGZAG
 70
     0
  3
/\/-/\/-/\/-/\/-/\/-/\/
 72
    65
 73
     2
 40
11.0001
 49
0.0001
 49
-11.0
  0
LTYPE
  2
ACJISTGB
 70
     0
  3
__ . . __ . .
 72
    65
 73
     6
 40
9.0
 49
4.0
 49
-1.0
 49
1.0
 49
-1.0
 49
1.0
 49
-1.0
  0
LTYPE
  2
ACJISTGL
 70
     0
  3
_ _ _ _ _
 72
    65
 73
     2
 40
3.0
 49
2.0
 49
-1.0
  0
LTYPE
  2
ACISOWELD
 70
     0
  3
_ _ _ _ _
 72
    65
 73
     2
 40
2.0
 49
2.0
 49
-1.0
  0
LTYPE
  2
ACISOTGB
 70
     0
  3
__ . . __ . .
 72
    65
 73
     6
 40
9.0
 49
4.0
 49
-1.0
 49
1.0
 49
-1.0
 49
1.0
 49
-1.0
  0
LTYPE
  2
ACISOTGL
 70
     0
  3
_ _ _ _ _
 72
    65
 73
     2
 40
3.0
 49
2.0
 49
-1.0
  0
LTYPE
  2
HIDDEN
 70
     0
  3
Hidden __ __ __ __ __ __ __ __ __ __ __ __ __ _
 72
    65
 73
     2
 40
9.5249999999999968
 49
6.3499999999999979
 49
-3.174999999999998
  0
ENDTAB
  0
TABLE
  2
LAYER
 70
     8
  0
LAYER
  2
0
 70
     0
 62
     7
  6
CONTINUOUS
  0
LAYER
  2
ｽﾝﾎﾟｳｾﾝ
 70
     0
 62
     2
  6
CONTINUOUS
  0
LAYER
  2
DEFPOINTS
 70
     0
 62
     7
  6
CONTINUOUS
  0
LAYER
  2
ｶｸﾚｾﾝ2
 70
     0
 62
     3
  6
GEN3B
  0
LAYER
  2
ﾁｭｳｼﾝｾﾝ1
 70
     0
 62
     1
  6
GEN7A
  0
LAYER
  2
AM_0
 70
     0
 62
     7
  6
CONTINUOUS
  0
LAYER
  2
AM_0N
 70
     0
 62
     7
  6
CONTINUOUS
  0
LAYER
  2
AM_5
 70
     0
 62
     2
  6
CONTINUOUS
  0
ENDTAB
  0
TABLE
  2
STYLE
 70
     8
  0
STYLE
  2
STANDARD
 70
     0
 40
0.0
 41
0.8299999999999999
 50
0.0
 71
     0
 42
2.5
  3
txt.shx
  4
bigfont.shx
  0
STYLE
  2
ACANSTS
 70
     0
 40
1.0
 41
1.0
 50
0.0
 71
     0
 42
2.5
  3
romans.shx
  4
bigfont.shx
  0
STYLE
  2
ACANSGDT
 70
     0
 40
0.0
 41
1.0
 50
0.0
 71
     0
 42
2.5
  3
amgdtans.shx
  4

  0
STYLE
  2

 70
     1
 40
0.0
 41
1.0
 50
0.0
 71
     0
 42
2.5
  3
ltypeshp.shx
  4

  0
STYLE
  2
ACJISTS
 70
     0
 40
1.0
 41
1.0
 50
0.0
 71
     0
 42
2.5
  3
isocp.shx
  4
bigfont.shx
  0
STYLE
  2
ACJISGDT
 70
     0
 40
0.0
 41
1.0
 50
0.0
 71
     0
 42
2.5
  3
amgdt.shx
  4

  0
STYLE
  2
ACISOTS
 70
     0
 40
3.0
 41
1.0
 50
0.0
 71
     0
 42
2.5
  3
isocp.shx
  4
extfont.shx
  0
STYLE
  2
ACISOGDT
 70
     0
 40
0.0
 41
1.0
 50
0.0
 71
     0
 42
2.5
  3
amgdt.shx
  4

  0
ENDTAB
  0
TABLE
  2
VIEW
 70
    12
  0
VIEW
  2
GEN1
 70
     0
 40
95.824742268041234
 10
71.5
 20
137.08762886597941
 41
143.0
 11
0.0
 21
0.0
 31
1.0
 12
0.0
 22
0.0
 32
0.0
 42
50.0
 43
0.0
 44
0.0
 50
0.0
 71
     0
  0
VIEW
  2
GEN2
 70
     0
 40
95.824742268041234
 10
214.5
 20
137.08762886597941
 41
143.0
 11
0.0
 21
0.0
 31
1.0
 12
0.0
 22
0.0
 32
0.0
 42
50.0
 43
0.0
 44
0.0
 50
0.0
 71
     0
  0
VIEW
  2
GEN3
 70
     0
 40
95.824742268041234
 10
71.5
 20
47.912371134020603
 41
143.0
 11
0.0
 21
0.0
 31
1.0
 12
0.0
 22
0.0
 32
0.0
 42
50.0
 43
0.0
 44
0.0
 50
0.0
 71
     0
  0
VIEW
  2
GEN4
 70
     0
 40
95.824742268041234
 10
214.5
 20
47.912371134020603
 41
143.0
 11
0.0
 21
0.0
 31
1.0
 12
0.0
 22
0.0
 32
0.0
 42
50.0
 43
0.0
 44
0.0
 50
0.0
 71
     0
  0
VIEW
  2
GEN5
 70
     0
 40
95.824742268041234
 10
143.0
 20
92.500000000000057
 41
143.0
 11
0.0
 21
0.0
 31
1.0
 12
0.0
 22
0.0
 32
0.0
 42
50.0
 43
0.0
 44
0.0
 50
0.0
 71
     0
  0
VIEW
  2
GEN6
 70
     0
 40
191.64756804123709
 10
143.0
 20
92.5
 41
285.99714
 11
0.0
 21
0.0
 31
1.0
 12
0.0
 22
0.0
 32
0.0
 42
50.0
 43
0.0
 44
0.0
 50
0.0
 71
     0
  0
VIEW
  2
AM_VIEW1
 70
     0
 40
277.50000000000011
 10
249.64779005524869
 20
416.25000000000011
 41
499.29558011049721
 11
0.0
 21
0.0
 31
1.0
 12
0.0
 22
0.0
 32
0.0
 42
50.0
 43
0.0
 44
0.0
 50
0.0
 71
    16
  0
VIEW
  2
AM_VIEW2
 70
     0
 40
277.50000000000011
 10
603.85220994475117
 20
416.25000000000011
 41
499.29558011049721
 11
0.0
 21
0.0
 31
1.0
 12
0.0
 22
0.0
 32
0.0
 42
50.0
 43
0.0
 44
0.0
 50
0.0
 71
    16
  0
VIEW
  2
AM_VIEW3
 70
     0
 40
277.50000000000011
 10
249.64779005524869
 20
138.75
 41
499.29558011049721
 11
0.0
 21
0.0
 31
1.0
 12
0.0
 22
0.0
 32
0.0
 42
50.0
 43
0.0
 44
0.0
 50
0.0
 71
    16
  0
VIEW
  2
AM_VIEW4
 70
     0
 40
277.50000000000011
 10
603.85220994475117
 20
138.75
 41
499.29558011049721
 11
0.0
 21
0.0
 31
1.0
 12
0.0
 22
0.0
 32
0.0
 42
50.0
 43
0.0
 44
0.0
 50
0.0
 71
    16
  0
VIEW
  2
AM_VIEW5
 70
     0
 40
277.50000000000011
 10
426.75
 20
277.50000000000011
 41
499.2955801104971
 11
0.0
 21
0.0
 31
1.0
 12
0.0
 22
0.0
 32
0.0
 42
50.0
 43
0.0
 44
0.0
 50
0.0
 71
    16
  0
VIEW
  2
AM_VIEW6
 70
     0
 40
554.99445000000014
 10
426.75
 20
277.5
 41
998.5811743093924
 11
0.0
 21
0.0
 31
1.0
 12
0.0
 22
0.0
 32
0.0
 42
50.0
 43
0.0
 44
0.0
 50
0.0
 71
    16
  0
ENDTAB
  0
TABLE
  2
UCS
 70
     0
  0
ENDTAB
  0
TABLE
  2
APPID
 70
    97
  0
APPID
  2
ACAD
 70
     0
  0
APPID
  2
MCAD_NO_VIS
 70
     0
  0
APPID
  2
ACAD_TEMP_GRAPHIC
 70
     0
  0
APPID
  2
AD_DRAW
 70
     0
  0
APPID
  2
DESIGNERASSEMBLIES
 70
     0
  0
APPID
  2
ASURF_PCURVE_APPNAME
 70
     0
  0
APPID
  2
GENIUS_GE3SECT_13
 70
     0
  0
APPID
  2
GENIUS_GENCFG_13
 70
     0
  0
APPID
  2
GENIUS_GE3CFG0_13
 70
     0
  0
APPID
  2
GENIUS_GENCFG0_13
 70
     0
  0
APPID
  2
GENIUS_GENCFG1_13
 70
     0
  0
APPID
  2
GENIUS_GENCFG2_13
 70
     0
  0
APPID
  2
GENIUS_GENCFG3_13
 70
     0
  0
APPID
  2
GENIUS_GENCFG4_13
 70
     0
  0
APPID
  2
GENIUS_GEVCFG0_13
 70
     0
  0
APPID
  2
GENIUS_GENOENT_13
 70
     0
  0
APPID
  2
GENIUS_GENREC_14
 70
     0
  0
APPID
  2
GENIUS_GENODEF_13
 70
     0
  0
APPID
  2
GENIUS_GENOBJ-N-REC_13
 70
     0
  0
APPID
  2
GENIUS_GENHINW_13
 70
     0
  0
APPID
  2
GENIUS_FIRSTVISTXT_14
 70
     0
  0
APPID
  2
GENIUS_GENOBJ-N-LEADER_13
 70
     0
  0
APPID
  2
GENIUS_GENOREF_13
 70
     0
  0
APPID
  2
GENIUS_GENOLIS_13
 70
     0
  0
APPID
  2
GEV_VCCNULL_SWITCH_OFF
 70
     0
  0
APPID
  2
GENIUS_GENDTOL_13
 70
     0
  0
APPID
  2
GENIUS_GEFCFG0_13
 70
     0
  0
APPID
  2
GENIUS_GENOBJ-N-TIT_13
 70
     0
  0
APPID
  2
GENIUS_GENTITLE_13
 70
     0
  0
APPID
  2
GENIUS_GENZVEED_13
 70
     0
  0
APPID
  2
GENIUS_GENOBJ-N-SDF_13
 70
     0
  0
APPID
  2
GENIUS_GENSCREG_13
 70
     0
  0
APPID
  2
GENIUS_DUMCFG0_13
 70
     0
  0
APPID
  2
GEVID936201362
 70
     0
  0
APPID
  2
GEVDC
 70
     0
  0
APPID
  2
GEVCON
 70
     0
  0
APPID
  2
VCC
 70
     0
  0
APPID
  2
GEVPT
 70
     0
  0
APPID
  2
GEVIT
 70
     0
  0
APPID
  2
GENBH
 70
     0
  0
APPID
  2
GEVMK
 70
     0
  0
APPID
  2
GENIUS_GENBH_13
 70
     0
  0
APPID
  2
GENIUS_GENOBJ-NBEHI-BHF_13
 70
     0
  0
APPID
  2
GENIUS_GENOBJ-NBEHI-BHB_13
 70
     0
  0
APPID
  2
GENIUS_GENOBJ-F-DESC_13
 70
     0
  0
APPID
  2
GENIUS_GEFDESC_14
 70
     0
  0
APPID
  2
GENIUS_GENOBJ-F-PART_13
 70
     0
  0
APPID
  2
GENIUS_GEFSTDP_13
 70
     0
  0
APPID
  2
GENIUS_GEFPARTINS_13
 70
     0
  0
APPID
  2
GENIUS_GENTRA_14
 70
     0
  0
APPID
  2
GENIUS_GENINF13_13
 70
     0
  0
APPID
  2
GENIUS_GENOBJ-N-INFOPT_13
 70
     0
  0
APPID
  2
GENIUS_GENOBJ-N-RSSYM_13
 70
     0
  0
APPID
  2
GENIUS_GENSYMENT_13
 70
     0
  0
APPID
  2
GENIUS_GENSCSYM_13
 70
     0
  0
APPID
  2
GENIUS_GEFINFNAM_13
 70
     0
  0
APPID
  2
GENIUS_GENSCREG_15
 70
     0
  0
APPID
  2
GENIUS_GENOBJ-N-CEN_13
 70
     0
  0
APPID
  2
GENIUS_GENOBJ-N-CRS_13
 70
     0
  0
APPID
  2
GENIUS_GENOBJ-N-CRC_13
 70
     0
  0
APPID
  2
GENIUS_GENCRC_14
 70
     0
  0
APPID
  2
GEVID942827039
 70
     0
  0
APPID
  2
GEVID942827040
 70
     0
  0
APPID
  2
GEVID942827041
 70
     0
  0
APPID
  2
GENIUS_GENOBJ-F-SCPASSM_13
 70
     0
  0
APPID
  2
GENIUS_GENDIMSH_14
 70
     0
  0
APPID
  2
GENIUS_GENFIL_13
 70
     0
  0
APPID
  2
GENIUS_GENOBJ-N-CHA_13
 70
     0
  0
APPID
  2
GENIUS_GENOBJ-N-FIL_13
 70
     0
  0
APPID
  2
GEVID942827042
 70
     0
  0
APPID
  2
GEVID946020473
 70
     0
  0
APPID
  2
GEVID946020474
 70
     0
  0
APPID
  2
GEVID946020475
 70
     0
  0
APPID
  2
GENIUS_GENOBJ-N-HTC_13
 70
     0
  0
APPID
  2
GENIUS_GENHATCH_13
 70
     0
  0
APPID
  2
GEVID948854295
 70
     0
  0
APPID
  2
GEVID939402019
 70
     0
  0
APPID
  2
GEVID952919491
 70
     0
  0
APPID
  2
GEVID952919492
 70
     0
  0
APPID
  2
GENIUS_GEFWELD_13
 70
     0
  0
APPID
  2
GENIUS_GENOBJ-F-WELS_13
 70
     0
  0
APPID
  2
GEVID952919493
 70
     0
  0
APPID
  2
GENIUS_GENOBJ-N-RSBK_13
 70
     0
  0
APPID
  2
GENIUS_GENOBJ-N-LIB_13
 70
     0
  0
APPID
  2
GENIUS_GENSCALE_13
 70
     0
  0
APPID
  2
GEVID986376691
 70
     0
  0
APPID
  2
ACATTRIBSERVICES
 70
     0
  0
APPID
  2
DCO15
 70
     0
  0
APPID
  2
GEVID1088155249
 70
     0
  0
APPID
  2
ACADM_DIM_EDIT
 70
     0
  0
APPID
  2
AMDT_DM_ADJ
 70
     0
  0
APPID
  2
ACAD_MLEADERVER
 70
     0
  0
APPID
  2
ACAD_DSTYLE_DIMBREAK
 70
     0
  0
APPID
  2
ACAD_DSTYLE_DIMJAG
 70
     0
  0
APPID
  2
ACAD_NAV_VCDISPLAY
 70
     0
  0
APPID
  2
ACADANNOPO
 70
     0
  0
APPID
  2
ACAD_EXEMPT_FROM_CAD_STANDARDS
 70
     0
  0
ENDTAB
  0
TABLE
  2
DIMSTYLE
 70
    16
  0
DIMSTYLE
  2
STANDARD
 70
     0
  3

  4

  5

  6

  7

 40
1.0
 41
0.18
 42
0.0625
 43
0.38
 44
0.18
 45
0.0
 46
0.0
 47
0.0
 48
0.0
140
0.18
141
0.09
142
0.0
143
25.399999999999999
144
1.0
145
0.0
146
1.0
147
0.09
 71
     0
 72
     0
 73
     1
 74
     1
 75
     0
 76
     0
 77
     0
 78
     0
170
     0
171
     2
172
     0
173
     0
174
     0
175
     0
176
     0
177
     0
178
     0
  0
DIMSTYLE
  2
AM_JIS
 70
     0
  3

  4
"
  5

  6

  7

 40
1.0
 41
2.5
 42
1.0
 43
7.0
 44
1.0
 45
0.0
 46
0.0
 47
0.1
 48
0.1000000001
140
2.5
141
0.0
142
0.0
143
0.0393701
144
1.0
145
0.0
146
0.71
147
1.0
 71
     0
 72
     0
 73
     0
 74
     0
 75
     0
 76
     0
 77
     3
 78
     8
170
     0
171
     2
172
     1
173
     0
174
     0
175
     0
176
   256
177
   256
178
     4
  0
DIMSTYLE
  2
AM_JIS$3
 70
     0
  3

  4
"
  5

  6

  7

 40
1.0
 41
2.5
 42
1.0
 43
7.0
 44
1.0
 45
0.0
 46
0.0
 47
0.1
 48
0.1000000001
140
2.5
141
0.0
142
0.0
143
0.0393701
144
1.0
145
0.0
146
0.71
147
1.0
 71
     0
 72
     0
 73
     0
 74
     1
 75
     0
 76
     0
 77
     3
 78
     8
170
     0
171
     2
172
     0
173
     0
174
     0
175
     0
176
   256
177
   256
178
     4
  0
DIMSTYLE
  2
AM_JIS$4
 70
     0
  3

  4
"
  5

  6

  7

 40
1.0
 41
2.5
 42
1.0
 43
7.0
 44
1.0
 45
0.0
 46
0.0
 47
0.1
 48
0.1000000001
140
2.5
141
0.0
142
0.0
143
0.0393701
144
1.0
145
0.0
146
0.71
147
1.0
 71
     0
 72
     0
 73
     0
 74
     0
 75
     0
 76
     0
 77
     3
 78
     8
170
     0
171
     2
172
     0
173
     0
174
     0
175
     0
176
   256
177
   256
178
     4
  0
DIMSTYLE
  2
AM_JIS$6
 70
     0
  3

  4
"
  5

  6

  7

 40
1.0
 41
2.5
 42
1.0
 43
7.0
 44
1.0
 45
0.0
 46
0.0
 47
0.1
 48
0.1000000001
140
2.5
141
0.0
142
0.0
143
0.0393701
144
1.0
145
0.0
146
0.71
147
1.0
 71
     0
 72
     0
 73
     0
 74
     0
 75
     0
 76
     0
 77
     0
 78
     8
170
     0
171
     2
172
     1
173
     0
174
     0
175
     0
176
   256
177
   256
178
     4
  0
DIMSTYLE
  2
AM_JIS$7
 70
     0
  3

  4
"
  5

  6

  7

 40
1.0
 41
2.5
 42
1.0
 43
7.0
 44
1.0
 45
0.0
 46
0.0
 47
0.1
 48
0.1000000001
140
2.5
141
0.0
142
0.0
143
0.0393701
144
1.0
145
0.0
146
0.71
147
1.0
 71
     0
 72
     0
 73
     0
 74
     0
 75
     0
 76
     0
 77
     3
 78
     8
170
     0
171
     2
172
     1
173
     0
174
     0
175
     0
176
   256
177
   256
178
     4
  0
DIMSTYLE
  2
AM_JIS$SF
 70
     0
  3

  4
"
  5
OPEN30
  6
OPEN30
  7
OPEN30
 40
1.0
 41
2.5
 42
1.0
 43
10.0
 44
1.0
 45
0.0
 46
0.0
 47
0.1
 48
0.1
140
3.5
141
0.0
142
0.0
143
0.0393701
144
1.0
145
0.0
146
0.71
147
1.5
 71
     0
 72
     0
 73
     0
 74
     0
 75
     1
 76
     1
 77
     3
 78
     8
170
     0
171
     2
172
     1
173
     0
174
     0
175
     0
176
   256
177
   256
178
     4
  0
DIMSTYLE
  2
AM_JIS$SH
 70
     0
  3

  4
"
  5

  6
NONE
  7

 40
1.0
 41
2.5
 42
1.0
 43
10.0
 44
1.0
 45
0.0
 46
0.0
 47
0.1
 48
0.1
140
3.5
141
0.0
142
0.0
143
0.0393701
144
1.0
145
0.0
146
0.71
147
1.5
 71
     0
 72
     0
 73
     0
 74
     0
 75
     1
 76
     0
 77
     3
 78
     8
170
     0
171
     2
172
     1
173
     1
174
     0
175
     0
176
   256
177
   256
178
     4
  0
DIMSTYLE
  2
AM_ISO
 70
     0
  3

  4
"
  5

  6

  7

 40
1.0
 41
2.5
 42
1.0
 43
10.0
 44
1.0
 45
0.0
 46
0.0
 47
0.0
 48
0.000000001
140
3.0
141
0.0
142
0.0
143
0.0393701
144
1.0
145
0.0
146
0.71
147
1.299999999999998
 71
     1
 72
     0
 73
     0
 74
     0
 75
     0
 76
     0
 77
     1
 78
     8
170
     0
171
     2
172
     1
173
     0
174
     0
175
     0
176
   256
177
   256
178
     4
  0
DIMSTYLE
  2
AM_ISO$3
 70
     0
  3

  4
"
  5

  6

  7

 40
1.0
 41
2.5
 42
1.0
 43
10.0
 44
1.0
 45
0.0
 46
0.0
 47
0.0
 48
0.000000001
140
2.5
141
0.0
142
0.0
143
0.0393701
144
1.0
145
0.0
146
0.71
147
1.299999999999998
 71
     1
 72
     0
 73
     0
 74
     1
 75
     0
 76
     0
 77
     1
 78
     8
170
     0
171
     2
172
     0
173
     0
174
     0
175
     0
176
   256
177
   256
178
     4
  0
DIMSTYLE
  2
AM_ISO$4
 70
     0
  3

  4
"
  5

  6

  7

 40
1.0
 41
2.5
 42
1.0
 43
10.0
 44
1.0
 45
0.0
 46
0.0
 47
0.0
 48
0.000000001
140
2.5
141
0.0
142
0.0
143
0.0393701
144
1.0
145
0.0
146
0.71
147
1.299999999999998
 71
     1
 72
     0
 73
     0
 74
     1
 75
     0
 76
     0
 77
     1
 78
     8
170
     0
171
     2
172
     0
173
     0
174
     0
175
     0
176
   256
177
   256
178
     4
  0
DIMSTYLE
  2
AM_ISO$6
 70
     0
  3

  4
"
  5

  6

  7

 40
1.0
 41
2.5
 42
1.0
 43
10.0
 44
1.0
 45
0.0
 46
0.0
 47
0.0
 48
0.000000001
140
2.5
141
0.0
142
0.0
143
0.0393701
144
1.0
145
0.0
146
0.71
147
1.299999999999998
 71
     1
 72
     0
 73
     0
 74
     0
 75
     0
 76
     0
 77
     0
 78
     8
170
     0
171
     2
172
     1
173
     0
174
     0
175
     0
176
   256
177
   256
178
     4
  0
DIMSTYLE
  2
AM_ISO$7
 70
     0
  3

  4
"
  5

  6

  7

 40
1.0
 41
2.5
 42
1.0
 43
10.0
 44
1.0
 45
0.0
 46
0.0
 47
0.0
 48
0.000000001
140
2.5
141
0.0
142
0.0
143
0.0393701
144
1.0
145
0.0
146
0.71
147
1.299999999999998
 71
     1
 72
     0
 73
     0
 74
     0
 75
     0
 76
     0
 77
     1
 78
     8
170
     0
171
     2
172
     1
173
     0
174
     0
175
     0
176
   256
177
   256
178
     4
  0
DIMSTYLE
  2
AM_ISO$SF
 70
     0
  3

  4
"
  5

  6

  7

 40
1.0
 41
2.5
 42
1.0
 43
10.0
 44
1.0
 45
0.0
 46
0.0
 47
0.1
 48
0.1
140
3.5
141
0.0
142
0.0
143
0.0393701
144
1.0
145
0.0
146
0.71
147
1.5
 71
     0
 72
     0
 73
     0
 74
     0
 75
     1
 76
     1
 77
     1
 78
     8
170
     0
171
     2
172
     1
173
     0
174
     0
175
     0
176
   256
177
   256
178
     4
  0
DIMSTYLE
  2
AM_ISO$SH
 70
     0
  3

  4
"
  5

  6
GENAXEH
  7

 40
1.0
 41
2.5
 42
1.0
 43
10.0
 44
1.0
 45
0.0
 46
0.0
 47
0.1
 48
0.1
140
3.5
141
0.0
142
0.0
143
0.0393701
144
2.0
145
0.0
146
0.71
147
1.5
 71
     0
 72
     0
 73
     0
 74
     0
 75
     1
 76
     1
 77
     1
 78
     8
170
     0
171
     2
172
     1
173
     1
174
     0
175
     0
176
   256
177
   256
178
     4
  0
DIMSTYLE
  2
AM_JIS$0
 70
     0
  3

  4
"
  5

  6

  7

 40
1.0
 41
2.5
 42
1.0
 43
7.0
 44
1.0
 45
0.0
 46
0.0
 47
0.1
 48
0.1000000001
140
2.5
141
0.0
142
0.0
143
0.0393701
144
1.0
145
0.0
146
0.71
147
1.0
 71
     0
 72
     0
 73
     0
 74
     0
 75
     0
 76
     0
 77
     3
 78
     8
170
     0
171
     2
172
     1
173
     0
174
     0
175
     0
176
   256
177
   256
178
     4
  0
ENDTAB
  0
ENDSEC
  0
SECTION
  2
BLOCKS
  0
BLOCK
  8
0
  2
$MODEL_SPACE
 70
     0
 10
0.0
 20
0.0
 30
0.0
  3
$MODEL_SPACE
  1

  0
ENDBLK
  5
1A
  8
0
  0
BLOCK
 67
     1
  8
0
  2
$PAPER_SPACE
 70
     0
 10
0.0
 20
0.0
 30
0.0
  3
$PAPER_SPACE
  1

  0
ENDBLK
  5
17
 67
     1
  8
0
  0
BLOCK
  8
0
  2
_OPEN30
 70
     0
 10
0.0
 20
0.0
 30
0.0
  3
_OPEN30
  1

  0
LINE
  5
21C5
  8
0
 62
     0
 10
-1.0
 20
0.26794919
 30
0.0
 11
0.0
 21
0.0
 31
0.0
  0
LINE
  5
21C6
  8
0
 62
     0
 10
0.0
 20
0.0
 30
0.0
 11
-1.0
 21
-0.26794919
 31
0.0
  0
LINE
  5
21C7
  8
0
 62
     0
 10
0.0
 20
0.0
 30
0.0
 11
-1.0
 21
0.0
 31
0.0
  0
ENDBLK
  5
21C9
  8
0
  0
BLOCK
  8
0
  2
GENAXEH
 70
     0
 10
0.0
 20
0.0
 30
0.0
  3
GENAXEH
  1

  0
LINE
  5
21D0
  8
0
 10
-1.0
 20
0.0
 30
0.0
 11
1.0
 21
0.0
 31
0.0
  0
ENDBLK
  5
21D2
  8
0
  0
BLOCK
  8
0
  2
_NONE
 70
     0
 10
0.0
 20
0.0
 30
0.0
  3
_NONE
  1

  0
ENDBLK
  5
8193
  8
0
  0
ENDSEC
  0
SECTION
  2
ENTITIES
  0
POINT
  5
1B94
  8
0
 10
0.0
 20
0.0
 30
0.0
1001
GENIUS_GENODEF_13
1002
{
1000
HIER
1070
     1
1002
}
1002
{
1000
MANEDIT
1070
     0
1002
}
1002
{
1000
NOSEL
1070
     0
1002
}
1002
{
1000
BEHIND
1070
     0
1002
}
1002
{
1000
REACTOR
1002
}
1001
GENIUS_GENOBJ-N-SDF_13
1002
{
1000
OWNER
1000
GEN
1002
}
1001
GENIUS_GENOENT_13
1002
{
1000
MYREF
1005
1B94
1002
}
1002
{
1000
GRP
1005
0
1002
}
1001
GENIUS_GENOLIS_13
1002
{
1000
ENT
1005
89
1002
}
  0
CIRCLE
  5
15BDB
  8
0
 10
383.25697993684588
 20
248.23370126071029
 30
0.0
 40
15.00000044703483
  0
LINE
  5
15BDC
  8
0
 10
318.25697993684611
 20
171.23370126071029
 30
0.0
 11
413.2569788937646
 21
171.23370126071029
 31
0.0
  0
LINE
  5
15BDD
  8
0
 10
318.25697993684611
 20
325.23370126071018
 30
0.0
 11
413.2569788937646
 21
325.23370126071018
 31
0.0
  0
CIRCLE
  5
15BDE
  8
AM_0
 10
383.25697993684588
 20
248.23370126071029
 30
0.0
 40
27.500000819563869
  0
LINE
  5
15BDF
  8
AM_0
 10
324.2569777016717
 20
293.23370260181508
 30
0.0
 11
407.25698112893889
 21
293.23370260181508
 31
0.0
  0
LINE
  5
15BE0
  8
AM_0
 10
324.2569777016717
 20
203.23369991960581
 30
0.0
 11
407.25698112893889
 21
203.23369991960581
 31
0.0
  0
LINE
  5
15BE1
  8
AM_0
 10
308.2569777016717
 20
299.23370278062862
 30
0.0
 11
423.25698112893878
 21
299.23370278062862
 31
0.0
  0
LINE
  5
15BE2
  8
AM_0
 10
308.2569777016717
 20
197.23369974079179
 30
0.0
 11
423.25698112893878
 21
197.23369974079179
 31
0.0
  0
LINE
  5
15BE8
  8
ﾁｭｳｼﾝｾﾝ1
 10
439.99488465146459
 20
248.23370126071029
 30
0.0
 11
135.8344605006148
 21
248.23370126071029
 31
0.0
  0
LINE
  5
15BF5
  8
ｶｸﾚｾﾝ2
 10
295.25697737384633
 20
288.23370245280307
 30
0.0
 11
295.25697737384633
 21
208.2337000686174
 31
0.0
  0
ARC
  5
15BF6
  8
AM_0
 10
308.2569775526602
 20
272.23370245280307
 30
0.0
 40
4.9999999999999982
 50
89.999999466388203
 51
180.0
1001
GENIUS_GENOBJ-N-FIL_13
1002
{
1000
OWNER
1000
GEN
1002
}
1001
GENIUS_GENODEF_13
1002
{
1000
HIER
1070
     0
1002
}
1002
{
1000
MANEDIT
1070
     0
1002
}
1002
{
1000
NOSEL
1070
     0
1002
}
1002
{
1000
BEHIND
1070
     0
1002
}
1002
{
1000
OTHER
1070
     0
1002
}
1002
{
1000
REACTOR
1002
}
  0
LINE
  5
15BF7
  8
AM_0
 10
297.25697737384621
 20
288.23370245280307
 30
0.0
 11
297.25697737384621
 21
208.2337000686174
 31
0.0
  0
LINE
  5
15BFB
  8
ﾁｭｳｼﾝｾﾝ1
 10
383.25697993684588
 20
332.36030603527843
 30
0.0
 11
383.25697993684588
 21
164.1070964861421
 31
0.0
  0
LINE
  5
15BFC
  8
AM_0
 10
272.75087385822121
 20
304.23370126071018
 30
0.0
 11
272.75087385822121
 21
192.23370126071029
 31
0.0
  0
LINE
  5
15BFD
  8
AM_0
 10
284.25697737384633
 20
197.59341958346411
 30
0.0
 11
284.25697737384633
 21
298.8739905673508
 31
0.0
  0
ARC
  5
15BFF
  8
AM_0
 10
516.25696211505704
 20
248.23370126071029
 30
0.0
 40
235.99999999999989
 50
169.4360382876412
 51
180.00000500895041
  0
LINE
  5
15D5B
  8
0
 10
307.288464000445
 20
178.3662935160356
 30
0.0
 11
298.02830677802342
 21
199.23370126071021
 31
0.0
  0
CIRCLE
  5
15D5C
  8
0
 10
318.25697993684611
 20
183.2337012607104
 30
0.0
 40
4.4999999999999982
  0
LINE
  5
15D5D
  8
ﾁｭｳｼﾝｾﾝ1
 10
318.25697993684611
 20
170.23370126071029
 30
0.0
 11
318.25697993684611
 21
196.23370126071009
 31
0.0
1001
GENIUS_GENODEF_13
1002
{
1000
HIER
1070
     0
1002
}
1002
{
1000
MANEDIT
1070
     0
1002
}
1002
{
1000
NOSEL
1070
     0
1002
}
1002
{
1000
BEHIND
1070
     0
1002
}
1002
{
1000
OTHER
1070
     0
1002
}
1002
{
1000
REACTOR
1002
}
1001
GENIUS_GENOBJ-N-CEN_13
1002
{
1000
OWNER
1000
GEN
1002
}
  0
LINE
  5
15D60
  8
ﾁｭｳｼﾝｾﾝ1
 10
305.25697993684611
 20
183.23370126071029
 30
0.0
 11
331.25697993684599
 21
183.23370126071029
 31
0.0
1001
GENIUS_GENODEF_13
1002
{
1000
HIER
1070
     0
1002
}
1002
{
1000
MANEDIT
1070
     0
1002
}
1002
{
1000
NOSEL
1070
     0
1002
}
1002
{
1000
BEHIND
1070
     0
1002
}
1002
{
1000
OTHER
1070
     0
1002
}
1002
{
1000
REACTOR
1002
}
1001
GENIUS_GENOBJ-N-CEN_13
1002
{
1000
OWNER
1000
GEN
1002
}
  0
ARC
  5
15D62
  8
0
 10
318.25697993684611
 20
183.23370126071029
 30
0.0
 40
11.999999999999989
 50
203.92981687403849
 51
270.0
  0
LINE
  5
15D65
  8
AM_0
 10
303.2569775526602
 20
272.23370245280307
 30
0.0
 11
303.2569775526602
 21
224.2337000686174
 31
0.0
  0
ARC
  5
15D66
  8
AM_0
 10
516.25696211505704
 20
248.23370126071029
 30
0.0
 40
235.99999999999989
 50
180.00000500895041
 51
190.5639717302731
  0
ARC
  5
15D67
  8
ｶｸﾚｾﾝ2
 10
308.2569777016717
 20
208.2337000686174
 30
0.0
 40
13.00000032782555
 50
179.999994991043
 51
203.92981687403849
  0
ARC
  5
15D69
  8
AM_0
 10
308.2569777016717
 20
208.2337000686174
 30
0.0
 40
11.00000032782558
 50
180.00000500895689
 51
270.000000683243
  0
LINE
  5
15D6A
  8
AM_0
 10
284.75697737384633
 20
204.96709206881579
 30
0.0
 11
297.25697737384638
 21
204.96709206881579
 31
0.0
  0
LINE
  5
15D6B
  8
AM_0
 10
285.45076395122862
 20
199.23370126071021
 30
0.0
 11
301.93242205350958
 21
199.23370126071021
 31
0.0
  0
LINE
  5
15D6D
  8
AM_0
 10
272.75087385822121
 20
202.23370126071021
 30
0.0
 11
284.25697737384633
 21
202.23370126071021
 31
0.0
  0
LINE
  5
15D6E
  8
AM_0
 10
272.75087385822121
 20
192.23370126071029
 30
0.0
 11
282.30810243702427
 21
192.23370126071029
 31
0.0
  0
LINE
  5
15D6F
  8
AM_0
 10
264.75087385822133
 20
192.23370126071029
 30
0.0
 11
272.75087385822121
 21
192.23370126071029
 31
0.0
  0
LINE
  5
15D70
  8
AM_0
 10
264.75087385822133
 20
202.23370126071021
 30
0.0
 11
272.75087385822121
 21
202.23370126071021
 31
0.0
  0
ARC
  5
15D71
  8
AM_0
 10
285.4520312554543
 20
198.2303484051115
 30
0.0
 40
1.003353655944897
 50
90.072368503728555
 51
175.63494469419581
  0
ARC
  5
15D72
  8
AM_0
 10
282.30810243702427
 20
194.23370126071029
 30
0.0
 40
1.9999999999999989
 50
270.0
 51
357.99953469735487
1001
GENIUS_GENOBJ-N-FIL_13
1002
{
1000
OWNER
1000
GEN
1002
}
1001
GENIUS_GENODEF_13
1002
{
1000
HIER
1070
     0
1002
}
1002
{
1000
MANEDIT
1070
     0
1002
}
1002
{
1000
NOSEL
1070
     0
1002
}
1002
{
1000
BEHIND
1070
     0
1002
}
1002
{
1000
OTHER
1070
     0
1002
}
1002
{
1000
REACTOR
1002
}
  0
LINE
  5
15D73
  8
AM_0
 10
284.3068835241545
 20
194.16388603507551
 30
0.0
 11
284.45158796954928
 21
198.3067145663743
 31
0.0
  0
LINE
  5
15D74
  8
AM_0
 10
272.75087385822121
 20
216.2937612607102
 30
0.0
 11
282.43162421921488
 21
216.2937612607102
 31
0.0
  0
LINE
  5
15D75
  8
AM_0
 10
264.75087385822133
 20
216.2937612607102
 30
0.0
 11
272.75087385822121
 21
216.2937612607102
 31
0.0
  0
CIRCLE
  5
15D76
  8
0
 10
308.2569777016717
 20
208.2337000686174
 30
0.0
 40
6.4999999999999929
  0
POLYLINE
  5
15D77
  8
0
 66
     1
 10
0.0
 20
0.0
 30
0.0
 70
     1
  0
VERTEX
  5
17AFF
  8
0
 10
311.25697770167181
 20
209.96575087618629
 30
0.0
  0
VERTEX
  5
17B00
  8
0
 10
308.2569777016717
 20
211.69780168375539
 30
0.0
  0
VERTEX
  5
17B01
  8
0
 10
305.25697770167181
 20
209.96575087618629
 30
0.0
  0
VERTEX
  5
17B02
  8
0
 10
305.25697770167181
 20
206.5016492610487
 30
0.0
  0
VERTEX
  5
17B03
  8
0
 10
308.2569777016717
 20
204.7695984534796
 30
0.0
  0
VERTEX
  5
17B04
  8
0
 10
311.25697770167181
 20
206.5016492610487
 30
0.0
  0
SEQEND
  5
17B05
  8
0
  0
CIRCLE
  5
15D78
  8
0
 10
308.2569777016717
 20
208.2337000686174
 30
0.0
 40
8.4999999999999911
  0
ARC
  5
15D7A
  8
AM_0
 10
308.2569777016717
 20
208.2337000686174
 30
0.0
 40
10.999999999999989
 50
359.99999946639139
 51
90.000000533608556
  0
ARC
  5
15D7B
  8
AM_0
 10
324.2569777016717
 20
208.23369991960541
 30
0.0
 40
4.9999999999999982
 50
179.99999946639139
 51
270.0
1001
GENIUS_GENODEF_13
1002
{
1000
HIER
1070
     0
1002
}
1002
{
1000
MANEDIT
1070
     0
1002
}
1002
{
1000
NOSEL
1070
     0
1002
}
1002
{
1000
BEHIND
1070
     0
1002
}
1002
{
1000
OTHER
1070
     0
1002
}
1002
{
1000
REACTOR
1002
}
1001
GENIUS_GENOBJ-N-FIL_13
1002
{
1000
OWNER
1000
GEN
1002
}
  0
ARC
  5
15D7C
  8
AM_0
 10
308.2569775526602
 20
224.2337000686174
 30
0.0
 40
4.9999999999999982
 50
180.0
 51
270.0000005336085
1001
GENIUS_GENOBJ-N-FIL_13
1002
{
1000
OWNER
1000
GEN
1002
}
1001
GENIUS_GENODEF_13
1002
{
1000
HIER
1070
     0
1002
}
1002
{
1000
MANEDIT
1070
     0
1002
}
1002
{
1000
NOSEL
1070
     0
1002
}
1002
{
1000
BEHIND
1070
     0
1002
}
1002
{
1000
OTHER
1070
     0
1002
}
1002
{
1000
REACTOR
1002
}
  0
ARC
  5
15D7D
  8
0
 10
383.25697993684588
 20
248.23370126071029
 30
0.0
 40
9.5000000000000124
 50
108.4084801705864
 51
71.591519829413585
  0
CIRCLE
  5
15D7E
  8
ｽﾝﾎﾟｳｾﾝ
 10
383.25697993684588
 20
248.23370126071029
 30
0.0
 40
3.0
  0
LINE
  5
15D7F
  8
0
 10
386.25697993684599
 20
254.23370126071029
 30
0.0
 11
380.25697993684588
 21
254.23370126071029
 31
0.0
  0
LINE
  5
15D80
  8
0
 10
386.25697993684599
 20
260.23370126071029
 30
0.0
 11
386.25697993684599
 21
254.23370126071029
 31
0.0
  0
LINE
  5
15D81
  8
0
 10
380.25697993684588
 20
260.23370126071029
 30
0.0
 11
386.25697993684599
 21
260.23370126071029
 31
0.0
  0
LINE
  5
15D82
  8
0
 10
380.25697993684588
 20
254.23370126071029
 30
0.0
 11
380.25697993684588
 21
260.23370126071029
 31
0.0
  0
LINE
  5
15DE6
  8
ﾁｭｳｼﾝｾﾝ1
 10
305.25697993684611
 20
313.23370126071018
 30
0.0
 11
331.25697993684599
 21
313.23370126071018
 31
0.0
1001
GENIUS_GENODEF_13
1002
{
1000
HIER
1070
     0
1002
}
1002
{
1000
MANEDIT
1070
     0
1002
}
1002
{
1000
NOSEL
1070
     0
1002
}
1002
{
1000
BEHIND
1070
     0
1002
}
1002
{
1000
OTHER
1070
     0
1002
}
1002
{
1000
REACTOR
1002
}
1001
GENIUS_GENOBJ-N-CEN_13
1002
{
1000
OWNER
1000
GEN
1002
}
  0
LINE
  5
15DE7
  8
0
 10
307.288464000445
 20
318.1011090053849
 30
0.0
 11
298.02830677802319
 21
297.23370126070989
 31
0.0
  0
CIRCLE
  5
15DE8
  8
0
 10
318.25697993684611
 20
313.23370126071018
 30
0.0
 40
4.4999999999999982
  0
LINE
  5
15DE9
  8
ﾁｭｳｼﾝｾﾝ1
 10
318.25697993684611
 20
326.23370126071018
 30
0.0
 11
318.25697993684611
 21
300.23370126071001
 31
0.0
1001
GENIUS_GENODEF_13
1002
{
1000
HIER
1070
     0
1002
}
1002
{
1000
MANEDIT
1070
     0
1002
}
1002
{
1000
NOSEL
1070
     0
1002
}
1002
{
1000
BEHIND
1070
     0
1002
}
1002
{
1000
OTHER
1070
     0
1002
}
1002
{
1000
REACTOR
1002
}
1001
GENIUS_GENOBJ-N-CEN_13
1002
{
1000
OWNER
1000
GEN
1002
}
  0
ARC
  5
15DEA
  8
ｶｸﾚｾﾝ2
 10
308.2569777016717
 20
288.23370245280307
 30
0.0
 40
13.00000032782555
 50
156.07018312596151
 51
180.00000500895689
  0
ARC
  5
15DEC
  8
AM_0
 10
308.2569777016717
 20
288.23370245280307
 30
0.0
 40
11.00000032782555
 50
90.000002504475205
 51
180.00000500895689
  0
LINE
  5
15DED
  8
AM_0
 10
284.75697737384633
 20
291.50031808199918
 30
0.0
 11
297.25697737384621
 21
291.50031808199918
 31
0.0
  0
LINE
  5
15DEE
  8
AM_0
 10
285.45076395122862
 20
297.23370126070989
 30
0.0
 11
301.93242205350958
 21
297.23370126070989
 31
0.0
  0
LINE
  5
15DEF
  8
AM_0
 10
272.75087385822121
 20
294.2337012607104
 30
0.0
 11
284.25697737384633
 21
294.2337012607104
 31
0.0
  0
LINE
  5
15DF0
  8
AM_0
 10
272.75087385822121
 20
280.1736512607103
 30
0.0
 11
282.35688999418409
 21
280.1736512607103
 31
0.0
  0
LINE
  5
15DF1
  8
AM_0
 10
264.75087385822133
 20
280.17364126071038
 30
0.0
 11
272.75087385822121
 21
280.17364126071038
 31
0.0
  0
LINE
  5
15DF2
  8
AM_0
 10
264.75087385822133
 20
294.2337012607104
 30
0.0
 11
272.75087385822121
 21
294.2337012607104
 31
0.0
  0
LINE
  5
15DF7
  8
AM_0
 10
272.75087385822121
 20
304.23370126071018
 30
0.0
 11
282.30810296999698
 21
304.23370126071018
 31
0.0
  0
LINE
  5
15DF8
  8
AM_0
 10
264.75087385822133
 20
304.23370126071018
 30
0.0
 11
272.75087385822121
 21
304.23370126071018
 31
0.0
  0
LINE
  5
15DF9
  8
AM_0
 10
284.30688405712732
 20
302.30351648634502
 30
0.0
 11
284.45158796954928
 21
298.16070321383518
 31
0.0
  0
ARC
  5
15DFA
  8
AM_0
 10
285.45076399494008
 20
298.23370126071018
 30
0.0
 40
1.0000000000000091
 50
187.1807504503941
 51
269.99999749551819
  0
ARC
  5
15DFB
  8
AM_0
 10
282.30810296999698
 20
302.23370126071018
 30
0.0
 40
1.9999999999999989
 50
2.0004653026450301
 51
90.0
1001
GENIUS_GENODEF_13
1002
{
1000
HIER
1070
     0
1002
}
1002
{
1000
MANEDIT
1070
     0
1002
}
1002
{
1000
NOSEL
1070
     0
1002
}
1002
{
1000
BEHIND
1070
     0
1002
}
1002
{
1000
OTHER
1070
     0
1002
}
1002
{
1000
REACTOR
1002
}
1001
GENIUS_GENOBJ-N-FIL_13
1002
{
1000
OWNER
1000
GEN
1002
}
  0
CIRCLE
  5
15DFC
  8
0
 10
308.2569777016717
 20
288.23370245280307
 30
0.0
 40
8.4999999999999911
  0
CIRCLE
  5
15DFE
  8
0
 10
308.2569777016717
 20
288.23370245280307
 30
0.0
 40
6.4999999999999929
  0
ARC
  5
15DFF
  8
AM_0
 10
308.2569777016717
 20
288.23370245280307
 30
0.0
 40
10.999999999999989
 50
269.9999994663882
 51
0.0000005336085289
  0
POLYLINE
  5
15E00
  8
0
 66
     1
 10
0.0
 20
0.0
 30
0.0
 70
     1
  0
VERTEX
  5
17B06
  8
0
 10
311.25697770167181
 20
289.9657532603722
 30
0.0
  0
VERTEX
  5
17B07
  8
0
 10
308.2569777016717
 20
291.69780406794098
 30
0.0
  0
VERTEX
  5
17B08
  8
0
 10
305.25697770167181
 20
289.9657532603722
 30
0.0
  0
VERTEX
  5
17B09
  8
0
 10
305.25697770167181
 20
286.50165164523418
 30
0.0
  0
VERTEX
  5
17B0A
  8
0
 10
308.2569777016717
 20
284.76960083766522
 30
0.0
  0
VERTEX
  5
17B0B
  8
0
 10
311.25697770167181
 20
286.50165164523418
 30
0.0
  0
SEQEND
  5
17B0C
  8
0
  0
ARC
  5
15E01
  8
AM_0
 10
324.2569777016717
 20
288.23370260181491
 30
0.0
 40
4.9999999999999982
 50
90.0
 51
180.0000005336085
1001
GENIUS_GENODEF_13
1002
{
1000
HIER
1070
     0
1002
}
1002
{
1000
MANEDIT
1070
     0
1002
}
1002
{
1000
NOSEL
1070
     0
1002
}
1002
{
1000
BEHIND
1070
     0
1002
}
1002
{
1000
OTHER
1070
     0
1002
}
1002
{
1000
REACTOR
1002
}
1001
GENIUS_GENOBJ-N-FIL_13
1002
{
1000
OWNER
1000
GEN
1002
}
  0
ARC
  5
15E02
  8
0
 10
318.25697993684611
 20
313.23370126071018
 30
0.0
 40
11.999999999999989
 50
90.0
 51
156.07018312596151
  0
LINE
  5
15E05
  8
AM_0
 10
436.25698145676438
 20
288.23370245280307
 30
0.0
 11
436.25698145676438
 21
208.2337000686174
 31
0.0
  0
ARC
  5
15E06
  8
AM_0
 10
423.25698127795027
 20
272.23370245280307
 30
0.0
 40
4.9999999999999982
 50
0.0
 51
90.000000533608556
1001
GENIUS_GENOBJ-N-FIL_13
1002
{
1000
OWNER
1000
GEN
1002
}
1001
GENIUS_GENODEF_13
1002
{
1000
HIER
1070
     0
1002
}
1002
{
1000
MANEDIT
1070
     0
1002
}
1002
{
1000
NOSEL
1070
     0
1002
}
1002
{
1000
BEHIND
1070
     0
1002
}
1002
{
1000
OTHER
1070
     0
1002
}
1002
{
1000
REACTOR
1002
}
  0
LINE
  5
15E07
  8
AM_0
 10
434.25698145676432
 20
288.23370245280307
 30
0.0
 11
434.25698145676432
 21
208.2337000686174
 31
0.0
  0
ARC
  5
15E0A
  8
AM_0
 10
637.92845494300241
 20
248.23370126071029
 30
0.0
 40
56.499999999999972
 50
144.9813717379198
 51
165.88809156090579
  0
LINE
  5
15E0F
  8
0
 10
707.92845453450946
 20
171.23370044451451
 30
0.0
 11
707.92845497435121
 21
325.23370209226567
 31
0.0
  0
ARC
  5
15E10
  8
AM_0
 10
579.81338474216614
 20
273.26092115965059
 30
0.0
 40
0.9999999999999996
 50
92.000000000005315
 51
166.84888173935161
1001
GENIUS_GENODEF_13
1002
{
1000
HIER
1070
     0
1002
}
1002
{
1000
MANEDIT
1070
     0
1002
}
1002
{
1000
NOSEL
1070
     0
1002
}
1002
{
1000
BEHIND
1070
     0
1002
}
1002
{
1000
REACTOR
1002
}
1001
GENIUS_GENOBJ-N-FIL_13
1002
{
1000
OWNER
1000
GEN
1002
}
  0
LINE
  5
15E11
  8
AM_0
 10
579.77848524546334
 20
274.26031198666982
 30
0.0
 11
587.92876034556923
 21
274.54492586473492
 31
0.0
  0
LINE
  5
15E12
  8
AM_0
 10
599.92845381051416
 20
298.1340336573781
 30
0.0
 11
599.92845381051416
 21
198.3333688640424
 31
0.0
  0
LINE
  5
15E13
  8
AM_0
 10
662.92845568806035
 20
299.23370278062879
 30
0.0
 11
662.92845568806035
 21
197.23369974079191
 31
0.0
  0
LINE
  5
15E14
  8
AM_0
 10
595.92845369130498
 20
275.7337020802741
 30
0.0
 11
595.92845369130498
 21
220.73370044114671
 31
0.0
  0
LINE
  5
15E17
  8
ﾁｭｳｼﾝｾﾝ1
 10
637.92845475300237
 20
151.20943560500859
 30
0.0
 11
637.92845475300237
 21
312.39355669757629
 31
0.0
  0
ARC
  5
15E1F
  8
AM_0
 10
605.96590399902425
 20
192.2743371387196
 30
0.0
 40
1.965536666759129
 50
3.1584702260748112
 51
179.35044678892791
  0
LINE
  5
15E20
  8
AM_0
 10
662.92845568806172
 20
197.23369974079179
 30
0.0
 11
599.92845381051382
 21
198.3333688640424
 31
0.0
  0
LINE
  5
15E22
  8
ﾁｭｳｼﾝｾﾝ1
 10
535.83721483834665
 20
248.23370126071029
 30
0.0
 11
740.01969466765797
 21
248.23370126071029
 31
0.0
  0
CIRCLE
  5
15E23
  8
0
 10
413.2569788937646
 20
183.23370126071029
 30
0.0
 40
4.4999999999999982
  0
LINE
  5
15E24
  8
ﾁｭｳｼﾝｾﾝ1
 10
413.2569788937646
 20
170.23370126071029
 30
0.0
 11
413.2569788937646
 21
196.23370126071009
 31
0.0
1001
GENIUS_GENODEF_13
1002
{
1000
HIER
1070
     0
1002
}
1002
{
1000
MANEDIT
1070
     0
1002
}
1002
{
1000
NOSEL
1070
     0
1002
}
1002
{
1000
BEHIND
1070
     0
1002
}
1002
{
1000
OTHER
1070
     0
1002
}
1002
{
1000
REACTOR
1002
}
1001
GENIUS_GENOBJ-N-CEN_13
1002
{
1000
OWNER
1000
GEN
1002
}
  0
LINE
  5
15E25
  8
0
 10
424.22549483016559
 20
178.3662935160356
 30
0.0
 11
435.13954035968652
 21
202.96067487891489
 31
0.0
  0
LINE
  5
15E28
  8
ﾁｭｳｼﾝｾﾝ1
 10
426.25697889376448
 20
183.23370126071029
 30
0.0
 11
400.25697889376471
 21
183.23370126071029
 31
0.0
1001
GENIUS_GENODEF_13
1002
{
1000
HIER
1070
     0
1002
}
1002
{
1000
MANEDIT
1070
     0
1002
}
1002
{
1000
NOSEL
1070
     0
1002
}
1002
{
1000
BEHIND
1070
     0
1002
}
1002
{
1000
OTHER
1070
     0
1002
}
1002
{
1000
REACTOR
1002
}
1001
GENIUS_GENOBJ-N-CEN_13
1002
{
1000
OWNER
1000
GEN
1002
}
  0
ARC
  5
15E29
  8
0
 10
413.2569788937646
 20
183.23370126071029
 30
0.0
 40
11.999999999999989
 50
270.0
 51
336.07018312596148
  0
LINE
  5
15E2C
  8
AM_0
 10
428.25698127795027
 20
272.23370245280307
 30
0.0
 11
428.25698127795027
 21
223.94405820283819
 31
0.0
  0
CIRCLE
  5
15E2D
  8
0
 10
423.25698112893878
 20
208.2337000686174
 30
0.0
 40
6.4999999999999929
  0
CIRCLE
  5
15E2E
  8
0
 10
423.25698112893878
 20
208.2337000686174
 30
0.0
 40
8.4999999999999911
  0
ARC
  5
15E30
  8
AM_0
 10
423.25698112893878
 20
208.2337000686174
 30
0.0
 40
11.00000032782555
 50
269.99999749551819
 51
0.0
  0
ARC
  5
15E31
  8
AM_0
 10
423.25698127795027
 20
224.2337000686174
 30
0.0
 40
4.9999999999999982
 50
269.9999994663882
 51
0.0
1001
GENIUS_GENOBJ-N-FIL_13
1002
{
1000
OWNER
1000
GEN
1002
}
1001
GENIUS_GENODEF_13
1002
{
1000
HIER
1070
     0
1002
}
1002
{
1000
MANEDIT
1070
     0
1002
}
1002
{
1000
NOSEL
1070
     0
1002
}
1002
{
1000
BEHIND
1070
     0
1002
}
1002
{
1000
OTHER
1070
     0
1002
}
1002
{
1000
REACTOR
1002
}
  0
POLYLINE
  5
15E32
  8
0
 66
     1
 10
0.0
 20
0.0
 30
0.0
 70
     1
  0
VERTEX
  5
17B0D
  8
0
 10
426.25698112893878
 20
209.96575087618629
 30
0.0
  0
VERTEX
  5
17B0E
  8
0
 10
423.25698112893878
 20
211.69780168375539
 30
0.0
  0
VERTEX
  5
17B0F
  8
0
 10
420.25698112893878
 20
209.96575087618629
 30
0.0
  0
VERTEX
  5
17B10
  8
0
 10
420.25698112893878
 20
206.5016492610487
 30
0.0
  0
VERTEX
  5
17B11
  8
0
 10
423.25698112893878
 20
204.7695984534796
 30
0.0
  0
VERTEX
  5
17B12
  8
0
 10
426.25698112893878
 20
206.5016492610487
 30
0.0
  0
SEQEND
  5
17B13
  8
0
  0
ARC
  5
15E34
  8
AM_0
 10
423.25698112893878
 20
208.2337000686174
 30
0.0
 40
10.999999999999989
 50
89.999999466388203
 51
180.0000005336085
  0
ARC
  5
15E35
  8
AM_0
 10
407.25698112893889
 20
208.23369991960541
 30
0.0
 40
4.9999999999999982
 50
270.0
 51
0.0000005336085289
1001
GENIUS_GENODEF_13
1002
{
1000
HIER
1070
     0
1002
}
1002
{
1000
MANEDIT
1070
     0
1002
}
1002
{
1000
NOSEL
1070
     0
1002
}
1002
{
1000
BEHIND
1070
     0
1002
}
1002
{
1000
OTHER
1070
     0
1002
}
1002
{
1000
REACTOR
1002
}
1001
GENIUS_GENOBJ-N-FIL_13
1002
{
1000
OWNER
1000
GEN
1002
}
  0
ARC
  5
15E36
  8
AM_0
 10
423.25698112893878
 20
208.2337000686174
 30
0.0
 40
13.00000032782555
 50
336.07018312596148
 51
0.0000050089569452
  0
ARC
  5
15E3F
  8
AM_0
 10
637.92845494300241
 20
248.23370126071029
 30
0.0
 40
56.499999999999972
 50
194.11190843909421
 51
215.0186282620802
  0
LINE
  5
15E40
  8
0
 10
590.33845381051435
 20
201.73370006265719
 30
0.0
 11
590.33845381051435
 21
214.73370006265719
 31
0.0
  0
LINE
  5
15E41
  8
AM_0
 10
598.33845381051424
 20
216.73370006265739
 30
0.0
 11
598.33845381051424
 21
199.73370006265711
 31
0.0
  0
ARC
  5
15E42
  8
AM_0
 10
602.89414371780924
 20
191.2337012607104
 30
0.0
 40
0.9999999999999996
 50
181.9999999999971
 51
270.0
1001
GENIUS_GENODEF_13
1002
{
1000
HIER
1070
     0
1002
}
1002
{
1000
MANEDIT
1070
     0
1002
}
1002
{
1000
NOSEL
1070
     0
1002
}
1002
{
1000
BEHIND
1070
     0
1002
}
1002
{
1000
REACTOR
1002
}
1001
GENIUS_GENOBJ-N-FIL_13
1002
{
1000
OWNER
1000
GEN
1002
}
  0
LINE
  5
15E43
  8
AM_0
 10
602.96276616819546
 20
190.23370126071029
 30
0.0
 11
602.89414371780924
 21
190.23370126071029
 31
0.0
  0
ARC
  5
15E44
  8
AM_0
 10
602.96276616819546
 20
191.2337012607104
 30
0.0
 40
0.9999999999999996
 50
269.999999999995
 51
357.99999999999642
1001
GENIUS_GENODEF_13
1002
{
1000
HIER
1070
     0
1002
}
1002
{
1000
MANEDIT
1070
     0
1002
}
1002
{
1000
NOSEL
1070
     0
1002
}
1002
{
1000
BEHIND
1070
     0
1002
}
1002
{
1000
REACTOR
1002
}
1001
GENIUS_GENOBJ-N-FIL_13
1002
{
1000
OWNER
1000
GEN
1002
}
  0
LINE
  5
15E45
  8
AM_0
 10
603.96215699521451
 20
191.19880176400801
 30
0.0
 11
604.2086925732026
 21
198.2586570185313
 31
0.0
  0
LINE
  5
15E46
  8
AM_0
 10
601.8947528907903
 20
191.19880176400761
 30
0.0
 11
601.64665563779465
 21
198.30337753958739
 31
0.0
  0
LINE
  5
15E47
  8
0
 10
599.92845381051416
 20
199.73370006265711
 30
0.0
 11
598.33845381051424
 21
199.73370006265711
 31
0.0
  0
LINE
  5
15E48
  8
0
 10
598.33845381051424
 20
201.73370006265719
 30
0.0
 11
590.33845381051435
 21
201.73370006265719
 31
0.0
  0
LINE
  5
15E49
  8
AM_0
 10
582.59449966583202
 20
214.28016712710721
 30
0.0
 11
590.33845381051435
 21
214.55059196474841
 31
0.0
  0
LINE
  5
15E4A
  8
AM_0
 10
582.6185835701724
 20
212.2096014380015
 30
0.0
 11
590.33845381051435
 21
211.94001762883229
 31
0.0
  0
LINE
  5
15E4B
  8
AM_0
 10
583.92845494300252
 20
214.32674987185331
 30
0.0
 11
583.92845494300252
 21
222.06217039954549
 31
0.0
  0
ARC
  5
15E4C
  8
AM_0
 10
582.65348306687474
 20
213.2089922650207
 30
0.0
 40
0.9999999999999996
 50
198.56658080190309
 51
267.9999999999946
1001
GENIUS_GENODEF_13
1002
{
1000
HIER
1070
     0
1002
}
1002
{
1000
MANEDIT
1070
     0
1002
}
1002
{
1000
NOSEL
1070
     0
1002
}
1002
{
1000
BEHIND
1070
     0
1002
}
1002
{
1000
REACTOR
1002
}
1001
GENIUS_GENOBJ-N-FIL_13
1002
{
1000
OWNER
1000
GEN
1002
}
  0
ARC
  5
15E4D
  8
AM_0
 10
582.62939916253458
 20
213.28077630008829
 30
0.0
 40
0.9999999999999996
 50
92.000000000005315
 51
198.52714231446819
1001
GENIUS_GENODEF_13
1002
{
1000
HIER
1070
     0
1002
}
1002
{
1000
MANEDIT
1070
     0
1002
}
1002
{
1000
NOSEL
1070
     0
1002
}
1002
{
1000
BEHIND
1070
     0
1002
}
1002
{
1000
REACTOR
1002
}
1001
GENIUS_GENOBJ-N-FIL_13
1002
{
1000
OWNER
1000
GEN
1002
}
  0
ARC
  5
15E4E
  8
AM_0
 10
686.92845494300241
 20
248.23370126071029
 30
0.0
 40
110.9999999999999
 50
198.52714231446819
 51
198.56658080189649
  0
LINE
  5
15E4F
  8
AM_0
 10
579.7621505111407
 20
224.27588718375469
 30
0.0
 11
586.64750088488233
 21
224.51632891702619
 31
0.0
  0
LINE
  5
15E50
  8
AM_0
 10
579.77848524546334
 20
222.20709053475119
 30
0.0
 11
587.92876034556923
 21
221.92247665668609
 31
0.0
  0
ARC
  5
15E51
  8
AM_0
 10
686.92845494300241
 20
248.23370126071029
 30
0.0
 40
110.9999999999999
 50
193.1136701432988
 51
193.15111826064839
  0
ARC
  5
15E52
  8
AM_0
 10
579.81338474216614
 20
223.2064813617703
 30
0.0
 40
0.9999999999999996
 50
193.15111826064839
 51
267.9999999999946
1001
GENIUS_GENODEF_13
1002
{
1000
HIER
1070
     0
1002
}
1002
{
1000
MANEDIT
1070
     0
1002
}
1002
{
1000
NOSEL
1070
     0
1002
}
1002
{
1000
BEHIND
1070
     0
1002
}
1002
{
1000
REACTOR
1002
}
1001
GENIUS_GENOBJ-N-FIL_13
1002
{
1000
OWNER
1000
GEN
1002
}
  0
ARC
  5
15E53
  8
AM_0
 10
579.79705000784338
 20
223.27649635673549
 30
0.0
 40
0.9999999999999996
 50
92.000000000005315
 51
193.1136701432988
1001
GENIUS_GENODEF_13
1002
{
1000
HIER
1070
     0
1002
}
1002
{
1000
MANEDIT
1070
     0
1002
}
1002
{
1000
NOSEL
1070
     0
1002
}
1002
{
1000
BEHIND
1070
     0
1002
}
1002
{
1000
REACTOR
1002
}
1001
GENIUS_GENOBJ-N-FIL_13
1002
{
1000
OWNER
1000
GEN
1002
}
  0
LINE
  5
15E54
  8
0
 10
599.92845381051416
 20
216.73370006265719
 30
0.0
 11
598.33845381051424
 21
216.73370006265719
 31
0.0
  0
LINE
  5
15E55
  8
0
 10
590.33845381051435
 20
214.73370006265719
 30
0.0
 11
598.33845381051424
 21
214.73370006265719
 31
0.0
  0
ARC
  5
15E56
  8
AM_0
 10
590.42845494300218
 20
214.95082277942541
 30
0.0
 40
1.4999999999999989
 50
0.0
 51
35.01862826208832
1001
GENIUS_GENODEF_13
1002
{
1000
HIER
1070
     0
1002
}
1002
{
1000
MANEDIT
1070
     0
1002
}
1002
{
1000
NOSEL
1070
     0
1002
}
1002
{
1000
BEHIND
1070
     0
1002
}
1002
{
1000
REACTOR
1002
}
1001
GENIUS_GENOBJ-N-FIL_13
1002
{
1000
OWNER
1000
GEN
1002
}
  0
LINE
  5
15E57
  8
AM_0
 10
591.92845494300241
 20
214.95082277942541
 30
0.0
 11
591.92845494300195
 21
214.73370006265719
 31
0.0
1001
GENIUS_GENODEF_13
1002
{
1000
HIER
1070
     0
1002
}
1002
{
1000
MANEDIT
1070
     0
1002
}
1002
{
1000
NOSEL
1070
     0
1002
}
1002
{
1000
BEHIND
1070
     0
1002
}
1002
{
1000
REACTOR
1002
}
1001
GENIUS_GENOBJ-N-CEN_13
1002
{
1000
OWNER
1000
GEN
1002
}
  0
LINE
  5
15E58
  8
AM_0
 10
595.92845369130498
 20
220.7337004411464
 30
0.0
 11
599.92845381051416
 21
220.7337004411464
 31
0.0
  0
LINE
  5
15E59
  8
0
 10
592.92845322189771
 20
233.2337008136756
 30
0.0
 11
568.92845322189771
 21
236.23370126071029
 31
0.0
  0
LINE
  5
15E5A
  8
0
 10
592.92845322189771
 20
263.23370170774513
 30
0.0
 11
568.92845322189771
 21
260.23370126071029
 31
0.0
  0
LINE
  5
15E5B
  8
AM_0
 10
568.92845322189771
 20
260.23370126071029
 30
0.0
 11
568.92845322189771
 21
236.23370126071029
 31
0.0
  0
LINE
  5
15E5C
  8
0
 10
540.9284532218976
 20
238.73370126071029
 30
0.0
 11
540.9284532218976
 21
260.23370126071029
 31
0.0
  0
LINE
  5
15E5D
  8
0
 10
540.9284532218976
 20
238.73370126071029
 30
0.0
 11
568.92845322189771
 21
238.73370125774829
 31
0.0
  0
LINE
  5
15E5E
  8
0
 10
540.9284532218976
 20
260.23370126071029
 30
0.0
 11
562.92845322189783
 21
260.23370126071029
 31
0.0
  0
LINE
  5
15E5F
  8
0
 10
568.92845322189771
 20
257.73370126071029
 30
0.0
 11
540.9284532218976
 21
257.73370126071029
 31
0.0
  0
LINE
  5
15E60
  8
0
 10
562.92845322189783
 20
260.23370126071029
 30
0.0
 11
562.92845322189783
 21
257.73370126071029
 31
0.0
  0
LINE
  5
15E63
  8
AM_0
 10
592.92845322189771
 20
263.23370170774513
 30
0.0
 11
592.92845322189771
 21
233.2337008136756
 31
0.0
  0
LINE
  5
15E64
  8
AM_0
 10
577.91571360765681
 20
234.27214331461701
 30
0.0
 11
583.1344727735825
 21
234.45438640048309
 31
0.0
  0
LINE
  5
15E65
  8
AM_0
 10
577.92519576003008
 20
232.20445390464411
 30
0.0
 11
583.81116009697905
 21
231.99891150079691
 31
0.0
  0
ARC
  5
15E66
  8
AM_0
 10
686.92845494300241
 20
248.23370126071029
 30
0.0
 40
110.9999999999999
 50
187.81694783169451
 51
187.85317808881271
  0
ARC
  5
15E67
  8
AM_0
 10
577.96009525673276
 20
233.2038447316632
 30
0.0
 40
0.9999999999999996
 50
187.853178088806
 51
267.9999999999946
1001
GENIUS_GENODEF_13
1002
{
1000
HIER
1070
     0
1002
}
1002
{
1000
MANEDIT
1070
     0
1002
}
1002
{
1000
NOSEL
1070
     0
1002
}
1002
{
1000
BEHIND
1070
     0
1002
}
1002
{
1000
REACTOR
1002
}
1001
GENIUS_GENOBJ-N-FIL_13
1002
{
1000
OWNER
1000
GEN
1002
}
  0
ARC
  5
15E68
  8
AM_0
 10
577.95061310435915
 20
233.2727524875979
 30
0.0
 40
0.9999999999999996
 50
92.000000000005315
 51
187.81694783169451
1001
GENIUS_GENODEF_13
1002
{
1000
HIER
1070
     0
1002
}
1002
{
1000
MANEDIT
1070
     0
1002
}
1002
{
1000
NOSEL
1070
     0
1002
}
1002
{
1000
BEHIND
1070
     0
1002
}
1002
{
1000
REACTOR
1002
}
1001
GENIUS_GENOBJ-N-FIL_13
1002
{
1000
OWNER
1000
GEN
1002
}
  0
LINE
  5
15E6F
  8
AM_0
 10
592.92845322189771
 20
233.2337008136756
 30
0.0
 11
595.92845331130479
 21
233.2337008136756
 31
0.0
  0
ARC
  5
15E70
  8
AM_0
 10
577.96009525673276
 20
263.26355778975761
 30
0.0
 40
0.9999999999999996
 50
92.000000000005315
 51
172.14682191119391
1001
GENIUS_GENODEF_13
1002
{
1000
HIER
1070
     0
1002
}
1002
{
1000
MANEDIT
1070
     0
1002
}
1002
{
1000
NOSEL
1070
     0
1002
}
1002
{
1000
BEHIND
1070
     0
1002
}
1002
{
1000
REACTOR
1002
}
1001
GENIUS_GENOBJ-N-FIL_13
1002
{
1000
OWNER
1000
GEN
1002
}
  0
LINE
  5
15E71
  8
AM_0
 10
577.91571360765681
 20
262.19525920680411
 30
0.0
 11
583.1344727735825
 21
262.01301612093761
 31
0.0
  0
ARC
  5
15E72
  8
AM_0
 10
686.92845494300241
 20
248.23370126071029
 30
0.0
 40
110.9999999999999
 50
172.14682191118709
 51
172.18305216830549
  0
ARC
  5
15E76
  8
AM_0
 10
577.95061310435915
 20
263.194650033823
 30
0.0
 40
0.9999999999999996
 50
172.18305216830549
 51
267.9999999999946
1001
GENIUS_GENODEF_13
1002
{
1000
HIER
1070
     0
1002
}
1002
{
1000
MANEDIT
1070
     0
1002
}
1002
{
1000
NOSEL
1070
     0
1002
}
1002
{
1000
BEHIND
1070
     0
1002
}
1002
{
1000
REACTOR
1002
}
1001
GENIUS_GENOBJ-N-FIL_13
1002
{
1000
OWNER
1000
GEN
1002
}
  0
LINE
  5
15E77
  8
AM_0
 10
577.92519576003008
 20
264.2629486167765
 30
0.0
 11
583.81116009697905
 21
264.4684910206239
 31
0.0
  0
LINE
  5
15E78
  8
AM_0
 10
579.7621505111407
 20
272.1915153376662
 30
0.0
 11
586.64750088488233
 21
271.95107360439488
 31
0.0
  0
ARC
  5
15E79
  8
AM_0
 10
686.92845494300241
 20
248.23370126071029
 30
0.0
 40
110.9999999999999
 50
166.84888173935161
 51
166.88632985669449
  0
ARC
  5
15E7A
  8
AM_0
 10
579.79705000784338
 20
273.19090616468532
 30
0.0
 40
0.9999999999999996
 50
166.8863298567012
 51
267.9999999999946
1001
GENIUS_GENODEF_13
1002
{
1000
HIER
1070
     0
1002
}
1002
{
1000
MANEDIT
1070
     0
1002
}
1002
{
1000
NOSEL
1070
     0
1002
}
1002
{
1000
BEHIND
1070
     0
1002
}
1002
{
1000
REACTOR
1002
}
1001
GENIUS_GENOBJ-N-FIL_13
1002
{
1000
OWNER
1000
GEN
1002
}
  0
LINE
  5
15E7B
  8
AM_0
 10
592.92845322189771
 20
263.23370170774513
 30
0.0
 11
595.92845331130479
 21
263.23370170774513
 31
0.0
  0
LINE
  5
15E7C
  8
0
 10
691.92845490981847
 20
193.32381992344909
 30
0.0
 11
691.92845496723919
 21
173.7238102851731
 31
0.0
  0
LINE
  5
15E7E
  8
AM_0
 10
667.92845494300241
 20
197.05898470572461
 30
0.0
 11
667.92845494300241
 21
181.23370126071029
 31
0.0
  0
LINE
  5
15E80
  8
AM_0
 10
607.92845494300195
 20
198.19372832484891
 30
0.0
 11
607.92845494300241
 21
181.23370126071029
 31
0.0
  0
LINE
  5
15E88
  8
AM_0
 10
607.92845494300241
 20
185.73370126071029
 30
0.0
 11
667.92845494300241
 21
185.73370126071029
 31
0.0
  0
LINE
  5
16419
  8
ﾁｭｳｼﾝｾﾝ1
 10
688.13364021303823
 20
183.2337012607104
 30
0.0
 11
714.13364021303823
 21
183.2337012607104
 31
0.0
1001
GENIUS_GENODEF_13
1002
{
1000
HIER
1070
     0
1002
}
1002
{
1000
MANEDIT
1070
     0
1002
}
1002
{
1000
NOSEL
1070
     0
1002
}
1002
{
1000
BEHIND
1070
     0
1002
}
1002
{
1000
OTHER
1070
     0
1002
}
1002
{
1000
REACTOR
1002
}
1001
GENIUS_GENOBJ-N-CEN_13
1002
{
1000
OWNER
1000
GEN
1002
}
  0
LINE
  5
1641A
  8
0
 10
693.85865597383395
 20
171.72502863684721
 30
0.0
 11
707.92845500289502
 21
171.23370042815799
 31
0.0
  0
ARC
  5
1641F
  8
0
 10
693.92845496723908
 20
173.72381029088541
 30
0.0
 40
1.9999999999999989
 50
180.00000016364561
 51
267.99999999999949
1001
GENIUS_GENOBJ-N-FIL_13
1002
{
1000
OWNER
1000
GEN
1002
}
1001
GENIUS_GENODEF_13
1002
{
1000
HIER
1070
     0
1002
}
1002
{
1000
MANEDIT
1070
     0
1002
}
1002
{
1000
NOSEL
1070
     0
1002
}
1002
{
1000
BEHIND
1070
     0
1002
}
1002
{
1000
OTHER
1070
     0
1002
}
1002
{
1000
REACTOR
1002
}
  0
LINE
  5
16421
  8
0
 10
662.9220881449603
 20
197.2338108866702
 30
0.0
 11
689.03315339992605
 21
196.3219923957175
 31
0.0
  0
ARC
  5
16423
  8
AM_0
 10
672.96276616819523
 20
191.2337012607104
 30
0.0
 40
0.9999999999999996
 50
269.999999999995
 51
357.99999999999642
1001
GENIUS_GENODEF_13
1002
{
1000
HIER
1070
     0
1002
}
1002
{
1000
MANEDIT
1070
     0
1002
}
1002
{
1000
NOSEL
1070
     0
1002
}
1002
{
1000
BEHIND
1070
     0
1002
}
1002
{
1000
REACTOR
1002
}
1001
GENIUS_GENOBJ-N-FIL_13
1002
{
1000
OWNER
1000
GEN
1002
}
  0
ARC
  5
16424
  8
AM_0
 10
637.92845494300241
 20
248.23370126071029
 30
0.0
 40
56.499999999999972
 50
242.4821246347978
 51
295.51787536520271
  0
LINE
  5
16425
  8
AM_0
 10
672.89414371780924
 20
190.23370126071029
 30
0.0
 11
672.96276616819523
 21
190.23370126071029
 31
0.0
  0
ARC
  5
16426
  8
AM_0
 10
672.89414371780924
 20
191.2337012607104
 30
0.0
 40
0.9999999999999996
 50
181.9999999999971
 51
270.0
1001
GENIUS_GENODEF_13
1002
{
1000
HIER
1070
     0
1002
}
1002
{
1000
MANEDIT
1070
     0
1002
}
1002
{
1000
NOSEL
1070
     0
1002
}
1002
{
1000
BEHIND
1070
     0
1002
}
1002
{
1000
REACTOR
1002
}
1001
GENIUS_GENOBJ-N-FIL_13
1002
{
1000
OWNER
1000
GEN
1002
}
  0
LINE
  5
16427
  8
AM_0
 10
671.89475289079041
 20
191.19880176400801
 30
0.0
 11
671.69470358320416
 21
196.92746440511149
 31
0.0
  0
ARC
  5
16429
  8
AM_0
 10
669.89100588698034
 20
192.2743371387196
 30
0.0
 40
1.965536666759129
 50
0.6495532110655964
 51
176.84152977392509
  0
ARC
  5
1642C
  8
0
 10
688.92845490981847
 20
193.32381991466011
 30
0.0
 40
2.9999999999999978
 50
0.0000001678534934
 51
87.999999999999517
1001
GENIUS_GENOBJ-N-FIL_13
1002
{
1000
OWNER
1000
GEN
1002
}
1001
GENIUS_GENODEF_13
1002
{
1000
HIER
1070
     0
1002
}
1002
{
1000
MANEDIT
1070
     0
1002
}
1002
{
1000
NOSEL
1070
     0
1002
}
1002
{
1000
BEHIND
1070
     0
1002
}
1002
{
1000
OTHER
1070
     0
1002
}
1002
{
1000
REACTOR
1002
}
  0
LINE
  5
1642E
  8
AM_0
 10
673.96215699521417
 20
191.19880176400761
 30
0.0
 11
674.15920094649607
 21
196.841402260775
 31
0.0
  0
LINE
  5
16435
  8
AM_0
 10
662.92845568806172
 20
299.23370278062862
 30
0.0
 11
599.92845381051416
 21
298.1340336573781
 31
0.0
  0
CIRCLE
  5
16436
  8
0
 10
413.2569788937646
 20
313.23370126071018
 30
0.0
 40
4.4999999999999982
  0
LINE
  5
16437
  8
ﾁｭｳｼﾝｾﾝ1
 10
413.2569788937646
 20
326.23370126071018
 30
0.0
 11
413.2569788937646
 21
300.23370126071001
 31
0.0
1001
GENIUS_GENODEF_13
1002
{
1000
HIER
1070
     0
1002
}
1002
{
1000
MANEDIT
1070
     0
1002
}
1002
{
1000
NOSEL
1070
     0
1002
}
1002
{
1000
BEHIND
1070
     0
1002
}
1002
{
1000
OTHER
1070
     0
1002
}
1002
{
1000
REACTOR
1002
}
1001
GENIUS_GENOBJ-N-CEN_13
1002
{
1000
OWNER
1000
GEN
1002
}
  0
LINE
  5
16438
  8
0
 10
424.22549483016559
 20
318.1011090053849
 30
0.0
 11
435.13954035968652
 21
293.50672764250572
 31
0.0
  0
CIRCLE
  5
16439
  8
0
 10
423.25698112893878
 20
288.23370245280307
 30
0.0
 40
6.4999999999999929
  0
CIRCLE
  5
1643A
  8
0
 10
423.25698112893878
 20
288.23370245280307
 30
0.0
 40
8.4999999999999911
  0
ARC
  5
1643C
  8
AM_0
 10
423.25698112893878
 20
288.23370245280307
 30
0.0
 40
11.000000327825539
 50
0.0
 51
90.000002504475205
  0
ARC
  5
1643E
  8
AM_0
 10
407.25698112893889
 20
288.23370260181491
 30
0.0
 40
4.9999999999999982
 50
359.99999946639139
 51
90.0
1001
GENIUS_GENODEF_13
1002
{
1000
HIER
1070
     0
1002
}
1002
{
1000
MANEDIT
1070
     0
1002
}
1002
{
1000
NOSEL
1070
     0
1002
}
1002
{
1000
BEHIND
1070
     0
1002
}
1002
{
1000
OTHER
1070
     0
1002
}
1002
{
1000
REACTOR
1002
}
1001
GENIUS_GENOBJ-N-FIL_13
1002
{
1000
OWNER
1000
GEN
1002
}
  0
ARC
  5
1643F
  8
AM_0
 10
423.25698112893878
 20
288.23370245280307
 30
0.0
 40
10.999999999999989
 50
179.99999946639139
 51
270.0000005336085
  0
POLYLINE
  5
16440
  8
0
 66
     1
 10
0.0
 20
0.0
 30
0.0
 70
     1
  0
VERTEX
  5
17B14
  8
0
 10
426.25698112893878
 20
289.9657532603722
 30
0.0
  0
VERTEX
  5
17B15
  8
0
 10
423.25698112893878
 20
291.69780406794098
 30
0.0
  0
VERTEX
  5
17B16
  8
0
 10
420.25698112893878
 20
289.9657532603722
 30
0.0
  0
VERTEX
  5
17B17
  8
0
 10
420.25698112893878
 20
286.50165164523418
 30
0.0
  0
VERTEX
  5
17B18
  8
0
 10
423.25698112893878
 20
284.76960083766522
 30
0.0
  0
VERTEX
  5
17B19
  8
0
 10
426.25698112893878
 20
286.50165164523418
 30
0.0
  0
SEQEND
  5
17B1A
  8
0
  0
LINE
  5
16441
  8
ﾁｭｳｼﾝｾﾝ1
 10
426.25697889376448
 20
313.23370126071018
 30
0.0
 11
400.25697889376471
 21
313.23370126071018
 31
0.0
1001
GENIUS_GENODEF_13
1002
{
1000
HIER
1070
     0
1002
}
1002
{
1000
MANEDIT
1070
     0
1002
}
1002
{
1000
NOSEL
1070
     0
1002
}
1002
{
1000
BEHIND
1070
     0
1002
}
1002
{
1000
OTHER
1070
     0
1002
}
1002
{
1000
REACTOR
1002
}
1001
GENIUS_GENOBJ-N-CEN_13
1002
{
1000
OWNER
1000
GEN
1002
}
  0
ARC
  5
16442
  8
AM_0
 10
423.25698112893878
 20
288.23370245280307
 30
0.0
 40
13.00000032782555
 50
359.99999499104308
 51
23.92981687403848
  0
ARC
  5
16443
  8
0
 10
413.2569788937646
 20
313.23370126071018
 30
0.0
 40
11.999999999999989
 50
23.92981687403848
 51
90.0
  0
LINE
  5
16444
  8
AM_0
 10
598.33845381051424
 20
279.73370245876328
 30
0.0
 11
598.33845381051424
 21
296.7337024587635
 31
0.0
  0
LINE
  5
16445
  8
AM_0
 10
582.6185835701724
 20
284.25780108341939
 30
0.0
 11
590.33845381051435
 21
284.5273848925886
 31
0.0
  0
LINE
  5
16446
  8
AM_0
 10
582.59449966583202
 20
282.18723539431369
 30
0.0
 11
590.33845381051435
 21
281.91681055667271
 31
0.0
  0
ARC
  5
16447
  8
AM_0
 10
582.62939916253458
 20
283.18662622133292
 30
0.0
 40
0.9999999999999996
 50
161.47285768553169
 51
267.9999999999946
1001
GENIUS_GENODEF_13
1002
{
1000
HIER
1070
     0
1002
}
1002
{
1000
MANEDIT
1070
     0
1002
}
1002
{
1000
NOSEL
1070
     0
1002
}
1002
{
1000
BEHIND
1070
     0
1002
}
1002
{
1000
REACTOR
1002
}
1001
GENIUS_GENOBJ-N-FIL_13
1002
{
1000
OWNER
1000
GEN
1002
}
  0
ARC
  5
16448
  8
AM_0
 10
582.65348306687474
 20
283.25841025640023
 30
0.0
 40
0.9999999999999996
 50
92.000000000010218
 51
161.4334191980968
1001
GENIUS_GENODEF_13
1002
{
1000
HIER
1070
     0
1002
}
1002
{
1000
MANEDIT
1070
     0
1002
}
1002
{
1000
NOSEL
1070
     0
1002
}
1002
{
1000
BEHIND
1070
     0
1002
}
1002
{
1000
REACTOR
1002
}
1001
GENIUS_GENOBJ-N-FIL_13
1002
{
1000
OWNER
1000
GEN
1002
}
  0
ARC
  5
16449
  8
AM_0
 10
686.92845494300241
 20
248.23370126071029
 30
0.0
 40
110.9999999999999
 50
161.43341919810351
 51
161.47285768553169
  0
LINE
  5
1644A
  8
AM_0
 10
583.92845494300252
 20
282.14065264956741
 30
0.0
 11
583.92845494300252
 21
274.40523212187509
 31
0.0
  0
LINE
  5
1644B
  8
0
 10
590.33845381051435
 20
294.7337024587635
 30
0.0
 11
590.33845381051435
 21
281.73370245876339
 31
0.0
  0
LINE
  5
1644C
  8
0
 10
599.92845381051416
 20
279.73370245876339
 30
0.0
 11
598.33845381051424
 21
279.73370245876339
 31
0.0
  0
LINE
  5
1644D
  8
AM_0
 10
595.92845369130498
 20
275.7337020802741
 30
0.0
 11
599.92845381051416
 21
275.7337020802741
 31
0.0
  0
LINE
  5
1644E
  8
0
 10
590.33845381051435
 20
281.73370245876339
 30
0.0
 11
598.33845381051424
 21
281.73370245876339
 31
0.0
  0
ARC
  5
1644F
  8
AM_0
 10
590.42845494300218
 20
281.51657974199571
 30
0.0
 40
1.4999999999999989
 50
324.9813717379198
 51
0.0
1001
GENIUS_GENODEF_13
1002
{
1000
HIER
1070
     0
1002
}
1002
{
1000
MANEDIT
1070
     0
1002
}
1002
{
1000
NOSEL
1070
     0
1002
}
1002
{
1000
BEHIND
1070
     0
1002
}
1002
{
1000
REACTOR
1002
}
1001
GENIUS_GENOBJ-N-FIL_13
1002
{
1000
OWNER
1000
GEN
1002
}
  0
LINE
  5
16450
  8
0
 10
598.33845381051424
 20
294.7337024587635
 30
0.0
 11
590.33845381051435
 21
294.7337024587635
 31
0.0
  0
LINE
  5
16451
  8
0
 10
599.92845381051416
 20
296.7337024587635
 30
0.0
 11
598.33845381051424
 21
296.7337024587635
 31
0.0
  0
LINE
  5
16452
  8
AM_0
 10
601.90435512029319
 20
303.54357263354029
 30
0.0
 11
601.71653977425524
 21
298.16524481397261
 31
0.0
  0
LINE
  5
16453
  8
AM_0
 10
603.97492080939924
 20
303.56765653788051
 30
0.0
 11
604.16208651483623
 21
298.20793199111438
 31
0.0
  0
ARC
  5
16454
  8
AM_0
 10
637.92845494300241
 20
199.23370126071029
 30
0.0
 40
110.9999999999999
 50
108.5271423144729
 51
108.5665808018983
  0
ARC
  5
16455
  8
AM_0
 10
602.90374594731247
 20
303.50867313683767
 30
0.0
 40
0.9999999999999996
 50
108.5665808019029
 51
177.99999999999631
1001
GENIUS_GENODEF_13
1002
{
1000
HIER
1070
     0
1002
}
1002
{
1000
MANEDIT
1070
     0
1002
}
1002
{
1000
NOSEL
1070
     0
1002
}
1002
{
1000
BEHIND
1070
     0
1002
}
1002
{
1000
REACTOR
1002
}
1001
GENIUS_GENOBJ-N-FIL_13
1002
{
1000
OWNER
1000
GEN
1002
}
  0
ARC
  5
16456
  8
AM_0
 10
602.97552998238007
 20
303.53275704117772
 30
0.0
 40
0.9999999999999996
 50
1.999999999997129
 51
108.5271423144729
1001
GENIUS_GENODEF_13
1002
{
1000
HIER
1070
     0
1002
}
1002
{
1000
MANEDIT
1070
     0
1002
}
1002
{
1000
NOSEL
1070
     0
1002
}
1002
{
1000
BEHIND
1070
     0
1002
}
1002
{
1000
REACTOR
1002
}
1001
GENIUS_GENOBJ-N-FIL_13
1002
{
1000
OWNER
1000
GEN
1002
}
  0
LINE
  5
1645A
  8
0
 10
662.9220881449603
 20
299.23359163475038
 30
0.0
 11
689.03315339992605
 21
300.14541012570311
 31
0.0
  0
ARC
  5
1645B
  8
AM_0
 10
672.953163938692
 20
303.50867313683767
 30
0.0
 40
0.9999999999999996
 50
2.0000000000036389
 51
71.43341919809707
1001
GENIUS_GENODEF_13
1002
{
1000
HIER
1070
     0
1002
}
1002
{
1000
MANEDIT
1070
     0
1002
}
1002
{
1000
NOSEL
1070
     0
1002
}
1002
{
1000
BEHIND
1070
     0
1002
}
1002
{
1000
REACTOR
1002
}
1001
GENIUS_GENOBJ-N-FIL_13
1002
{
1000
OWNER
1000
GEN
1002
}
  0
ARC
  5
1645F
  8
AM_0
 10
637.92845494300241
 20
248.23370126071029
 30
0.0
 40
56.499999999999972
 50
64.482124634797998
 51
117.5178753652022
  0
ARC
  5
16461
  8
AM_0
 10
622.96750616988959
 20
308.21154309935321
 30
0.0
 40
0.9999999999999996
 50
1.999999999997129
 51
97.816947831692445
1001
GENIUS_GENODEF_13
1002
{
1000
HIER
1070
     0
1002
}
1002
{
1000
MANEDIT
1070
     0
1002
}
1002
{
1000
NOSEL
1070
     0
1002
}
1002
{
1000
BEHIND
1070
     0
1002
}
1002
{
1000
REACTOR
1002
}
1001
GENIUS_GENOBJ-N-FIL_13
1002
{
1000
OWNER
1000
GEN
1002
}
  0
ARC
  5
16462
  8
AM_0
 10
612.90123504406188
 20
306.34877146154662
 30
0.0
 40
0.9999999999999996
 50
103.1511182606541
 51
178.00000000000281
1001
GENIUS_GENODEF_13
1002
{
1000
HIER
1070
     0
1002
}
1002
{
1000
MANEDIT
1070
     0
1002
}
1002
{
1000
NOSEL
1070
     0
1002
}
1002
{
1000
BEHIND
1070
     0
1002
}
1002
{
1000
REACTOR
1002
}
1001
GENIUS_GENOBJ-N-FIL_13
1002
{
1000
OWNER
1000
GEN
1002
}
  0
ARC
  5
16463
  8
AM_0
 10
612.97125003902761
 20
306.3651061958692
 30
0.0
 40
0.9999999999999996
 50
2.0000000000036389
 51
103.11367014329829
1001
GENIUS_GENODEF_13
1002
{
1000
HIER
1070
     0
1002
}
1002
{
1000
MANEDIT
1070
     0
1002
}
1002
{
1000
NOSEL
1070
     0
1002
}
1002
{
1000
BEHIND
1070
     0
1002
}
1002
{
1000
REACTOR
1002
}
1001
GENIUS_GENOBJ-N-FIL_13
1002
{
1000
OWNER
1000
GEN
1002
}
  0
LINE
  5
16464
  8
AM_0
 10
621.89920758693631
 20
308.23696044368251
 30
0.0
 11
621.6936651830888
 21
302.35099610673331
 31
0.0
  0
LINE
  5
16465
  8
AM_0
 10
613.97064086604632
 20
306.40000569257188
 30
0.0
 11
614.21108259931782
 21
299.51465531883048
 31
0.0
  0
LINE
  5
16466
  8
AM_0
 10
611.90184421704305
 20
306.38367095824913
 30
0.0
 11
611.62088759081882
 21
298.33812584818241
 31
0.0
  0
ARC
  5
16467
  8
AM_0
 10
637.92845494300241
 20
199.23370126071029
 30
0.0
 40
110.9999999999999
 50
103.11367014329829
 51
103.1511182606541
  0
ARC
  5
16468
  8
AM_0
 10
622.89859841395514
 20
308.20206094697988
 30
0.0
 40
0.9999999999999996
 50
97.853178088805777
 51
178.00000000000281
1001
GENIUS_GENODEF_13
1002
{
1000
HIER
1070
     0
1002
}
1002
{
1000
MANEDIT
1070
     0
1002
}
1002
{
1000
NOSEL
1070
     0
1002
}
1002
{
1000
BEHIND
1070
     0
1002
}
1002
{
1000
REACTOR
1002
}
1001
GENIUS_GENOBJ-N-FIL_13
1002
{
1000
OWNER
1000
GEN
1002
}
  0
ARC
  5
16469
  8
AM_0
 10
637.92845494300241
 20
199.23370126071029
 30
0.0
 40
110.9999999999999
 50
97.816947831692445
 51
97.853178088805777
  0
LINE
  5
1646A
  8
AM_0
 10
623.96689699690887
 20
308.246442596056
 30
0.0
 11
624.14914008277492
 21
303.0276834301302
 31
0.0
  0
LINE
  5
1646B
  8
AM_0
 10
633.96355315225799
 20
309.1565245652871
 30
0.0
 11
634.12248311361884
 21
304.60536593751328
 31
0.0
  0
LINE
  5
1646C
  8
AM_0
 10
631.89639746410387
 20
309.15341438682668
 30
0.0
 11
631.73014899025588
 21
304.39268098182117
 31
0.0
  0
ARC
  5
1646D
  8
AM_0
 10
632.89578829112293
 20
309.11851489012417
 30
0.0
 40
0.9999999999999996
 50
92.622284087954625
 51
178.00000000000281
1001
GENIUS_GENODEF_13
1002
{
1000
HIER
1070
     0
1002
}
1002
{
1000
MANEDIT
1070
     0
1002
}
1002
{
1000
NOSEL
1070
     0
1002
}
1002
{
1000
BEHIND
1070
     0
1002
}
1002
{
1000
REACTOR
1002
}
1001
GENIUS_GENOBJ-N-FIL_13
1002
{
1000
OWNER
1000
GEN
1002
}
  0
ARC
  5
16472
  8
AM_0
 10
632.9641623252387
 20
309.12162506858459
 30
0.0
 40
0.9999999999999996
 50
2.0000000000036389
 51
92.586633228774915
1001
GENIUS_GENODEF_13
1002
{
1000
HIER
1070
     0
1002
}
1002
{
1000
MANEDIT
1070
     0
1002
}
1002
{
1000
NOSEL
1070
     0
1002
}
1002
{
1000
BEHIND
1070
     0
1002
}
1002
{
1000
REACTOR
1002
}
1001
GENIUS_GENOBJ-N-FIL_13
1002
{
1000
OWNER
1000
GEN
1002
}
  0
ARC
  5
16473
  8
AM_0
 10
637.92845494300241
 20
199.23370126071029
 30
0.0
 40
110.9999999999999
 50
92.586633228774915
 51
92.622284087959514
  0
LINE
  5
1647B
  8
AM_0
 10
653.9577022990685
 20
308.23696044368251
 30
0.0
 11
654.16324470291602
 21
302.35099610673331
 31
0.0
  0
LINE
  5
1647C
  8
AM_0
 10
643.96051242190049
 20
309.15341438682668
 30
0.0
 11
644.12676089574859
 21
304.39268098182117
 31
0.0
  0
LINE
  5
1647D
  8
AM_0
 10
641.89335673374671
 20
309.1565245652871
 30
0.0
 11
641.73442677238575
 21
304.60536593751328
 31
0.0
  0
LINE
  5
1647E
  8
AM_0
 10
651.8900128890956
 20
308.246442596056
 30
0.0
 11
651.70776980322955
 21
303.0276834301302
 31
0.0
  0
ARC
  5
16480
  8
AM_0
 10
642.96112159488189
 20
309.11851489012417
 30
0.0
 40
0.9999999999999996
 50
1.999999999997129
 51
87.377715912045389
1001
GENIUS_GENODEF_13
1002
{
1000
HIER
1070
     0
1002
}
1002
{
1000
MANEDIT
1070
     0
1002
}
1002
{
1000
NOSEL
1070
     0
1002
}
1002
{
1000
BEHIND
1070
     0
1002
}
1002
{
1000
REACTOR
1002
}
1001
GENIUS_GENOBJ-N-FIL_13
1002
{
1000
OWNER
1000
GEN
1002
}
  0
ARC
  5
16481
  8
AM_0
 10
642.89274756076566
 20
309.12162506858459
 30
0.0
 40
0.9999999999999996
 50
87.413366771225085
 51
177.99999999999631
1001
GENIUS_GENODEF_13
1002
{
1000
HIER
1070
     0
1002
}
1002
{
1000
MANEDIT
1070
     0
1002
}
1002
{
1000
NOSEL
1070
     0
1002
}
1002
{
1000
BEHIND
1070
     0
1002
}
1002
{
1000
REACTOR
1002
}
1001
GENIUS_GENOBJ-N-FIL_13
1002
{
1000
OWNER
1000
GEN
1002
}
  0
ARC
  5
16483
  8
AM_0
 10
637.92845494300241
 20
199.23370126071029
 30
0.0
 40
110.9999999999999
 50
87.377715912040486
 51
87.413366771225085
  0
ARC
  5
16484
  8
AM_0
 10
652.88940371611488
 20
308.21154309935321
 30
0.0
 40
0.9999999999999996
 50
82.183052168307555
 51
178.00000000000281
1001
GENIUS_GENODEF_13
1002
{
1000
HIER
1070
     0
1002
}
1002
{
1000
MANEDIT
1070
     0
1002
}
1002
{
1000
NOSEL
1070
     0
1002
}
1002
{
1000
BEHIND
1070
     0
1002
}
1002
{
1000
REACTOR
1002
}
1001
GENIUS_GENOBJ-N-FIL_13
1002
{
1000
OWNER
1000
GEN
1002
}
  0
ARC
  5
16485
  8
AM_0
 10
652.95831147204956
 20
308.20206094697988
 30
0.0
 40
0.9999999999999996
 50
1.999999999997129
 51
82.146821911194223
1001
GENIUS_GENODEF_13
1002
{
1000
HIER
1070
     0
1002
}
1002
{
1000
MANEDIT
1070
     0
1002
}
1002
{
1000
NOSEL
1070
     0
1002
}
1002
{
1000
BEHIND
1070
     0
1002
}
1002
{
1000
REACTOR
1002
}
1001
GENIUS_GENOBJ-N-FIL_13
1002
{
1000
OWNER
1000
GEN
1002
}
  0
ARC
  5
16486
  8
AM_0
 10
637.92845494300241
 20
199.23370126071029
 30
0.0
 40
110.9999999999999
 50
82.146821911194223
 51
82.183052168307555
  0
ARC
  5
16487
  8
AM_0
 10
662.95567484194248
 20
306.34877146154662
 30
0.0
 40
0.9999999999999996
 50
1.999999999997129
 51
76.848881739345899
1001
GENIUS_GENODEF_13
1002
{
1000
HIER
1070
     0
1002
}
1002
{
1000
MANEDIT
1070
     0
1002
}
1002
{
1000
NOSEL
1070
     0
1002
}
1002
{
1000
BEHIND
1070
     0
1002
}
1002
{
1000
REACTOR
1002
}
1001
GENIUS_GENOBJ-N-FIL_13
1002
{
1000
OWNER
1000
GEN
1002
}
  0
ARC
  5
16488
  8
AM_0
 10
662.88565984697721
 20
306.3651061958692
 30
0.0
 40
0.9999999999999996
 50
76.886329856701593
 51
177.99999999999631
1001
GENIUS_GENODEF_13
1002
{
1000
HIER
1070
     0
1002
}
1002
{
1000
MANEDIT
1070
     0
1002
}
1002
{
1000
NOSEL
1070
     0
1002
}
1002
{
1000
BEHIND
1070
     0
1002
}
1002
{
1000
REACTOR
1002
}
1001
GENIUS_GENOBJ-N-FIL_13
1002
{
1000
OWNER
1000
GEN
1002
}
  0
LINE
  5
1648A
  8
AM_0
 10
661.88626901995815
 20
306.40000569257188
 30
0.0
 11
661.64582728668665
 21
299.51465531883048
 31
0.0
  0
LINE
  5
1648B
  8
AM_0
 10
663.95506566896154
 20
306.38367095824913
 30
0.0
 11
664.20552649079275
 21
299.21141142684888
 31
0.0
  0
LINE
  5
1648C
  8
AM_0
 10
671.88198907660535
 20
303.56765653788051
 30
0.0
 11
671.74139498833597
 21
299.54156861610488
 31
0.0
  0
ARC
  5
1648D
  8
AM_0
 10
637.92845494300241
 20
199.23370126071029
 30
0.0
 40
110.9999999999999
 50
71.433419198101703
 51
71.472857685527131
  0
ARC
  5
1648E
  8
AM_0
 10
672.88137990362463
 20
303.53275704117772
 30
0.0
 40
0.9999999999999996
 50
71.472857685527131
 51
178.00000000000281
1001
GENIUS_GENODEF_13
1002
{
1000
HIER
1070
     0
1002
}
1002
{
1000
MANEDIT
1070
     0
1002
}
1002
{
1000
NOSEL
1070
     0
1002
}
1002
{
1000
BEHIND
1070
     0
1002
}
1002
{
1000
REACTOR
1002
}
1001
GENIUS_GENOBJ-N-FIL_13
1002
{
1000
OWNER
1000
GEN
1002
}
  0
ARC
  5
1648F
  8
AM_0
 10
637.92845494300241
 20
199.23370126071029
 30
0.0
 40
110.9999999999999
 50
76.848881739345899
 51
76.886329856701593
  0
LINE
  5
16492
  8
0
 10
691.92845490981836
 20
303.14358259797137
 30
0.0
 11
691.92845496723919
 21
322.74359223624742
 31
0.0
  0
LINE
  5
16494
  8
ﾁｭｳｼﾝｾﾝ1
 10
688.13364021303823
 20
313.23370126071029
 30
0.0
 11
714.13364021303823
 21
313.23370126071029
 31
0.0
1001
GENIUS_GENODEF_13
1002
{
1000
HIER
1070
     0
1002
}
1002
{
1000
MANEDIT
1070
     0
1002
}
1002
{
1000
NOSEL
1070
     0
1002
}
1002
{
1000
BEHIND
1070
     0
1002
}
1002
{
1000
OTHER
1070
     0
1002
}
1002
{
1000
REACTOR
1002
}
1001
GENIUS_GENOBJ-N-CEN_13
1002
{
1000
OWNER
1000
GEN
1002
}
  0
ARC
  5
16499
  8
0
 10
688.92845490981836
 20
303.14358260676028
 30
0.0
 40
2.9999999999999978
 50
272.00000000000051
 51
359.9999998321465
1001
GENIUS_GENOBJ-N-FIL_13
1002
{
1000
OWNER
1000
GEN
1002
}
1001
GENIUS_GENODEF_13
1002
{
1000
HIER
1070
     0
1002
}
1002
{
1000
MANEDIT
1070
     0
1002
}
1002
{
1000
NOSEL
1070
     0
1002
}
1002
{
1000
BEHIND
1070
     0
1002
}
1002
{
1000
OTHER
1070
     0
1002
}
1002
{
1000
REACTOR
1002
}
  0
LINE
  5
1649A
  8
AM_0
 10
673.95255476571151
 20
303.54357263354029
 30
0.0
 11
674.08944447275155
 21
299.62356431090541
 31
0.0
  0
LINE
  5
1649E
  8
0
 10
693.85865597383395
 20
324.74237388457328
 30
0.0
 11
707.92845500289502
 21
325.23370209326248
 31
0.0
  0
ARC
  5
164A0
  8
0
 10
693.92845496723908
 20
322.74359223053523
 30
0.0
 40
1.9999999999999989
 50
92.000000000000483
 51
179.99999983635439
1001
GENIUS_GENOBJ-N-FIL_13
1002
{
1000
OWNER
1000
GEN
1002
}
1001
GENIUS_GENODEF_13
1002
{
1000
HIER
1070
     0
1002
}
1002
{
1000
MANEDIT
1070
     0
1002
}
1002
{
1000
NOSEL
1070
     0
1002
}
1002
{
1000
BEHIND
1070
     0
1002
}
1002
{
1000
OTHER
1070
     0
1002
}
1002
{
1000
REACTOR
1002
}
  0
LINE
  5
16659
  8
AM_0
 10
620.62465475300246
 20
155.73370126071029
 30
0.0
 11
655.2323547530026
 21
155.7337012607104
 31
0.0
  0
LINE
  5
1665A
  8
AM_0
 10
666.4284547530026
 20
158.7337012607106
 30
0.0
 11
609.42845475300282
 21
158.73370126071029
 31
0.0
  0
LINE
  5
1665B
  8
AM_0
 10
670.9284547530026
 20
178.73370126071049
 30
0.0
 11
604.92845475300237
 21
178.73370126071029
 31
0.0
  0
LINE
  5
1665C
  8
AM_0
 10
606.42845475300282
 20
175.23370126071029
 30
0.0
 11
669.42845475300282
 21
175.23370126071049
 31
0.0
  0
LINE
  5
1665D
  8
AM_0
 10
606.4284547530026
 20
181.23370126071029
 30
0.0
 11
669.42845475300282
 21
181.2337012607104
 31
0.0
  0
LINE
  5
1665E
  8
AM_0
 10
615.42558933244345
 20
158.73370126071029
 30
0.0
 11
620.62465475300246
 21
155.73370126071029
 31
0.0
  0
LINE
  5
1665F
  8
AM_0
 10
606.4284547530026
 20
181.23370126071029
 30
0.0
 11
606.42845475300282
 21
162.73370126071029
 31
0.0
  0
LINE
  5
16660
  8
AM_0
 10
604.92845475300237
 20
163.73370126071029
 30
0.0
 11
604.92845475300237
 21
178.73370126071029
 31
0.0
  0
LINE
  5
16661
  8
AM_0
 10
607.92845475300282
 20
175.23370126071029
 30
0.0
 11
607.92845475300282
 21
160.23370126071029
 31
0.0
  0
LINE
  5
16662
  8
AM_0
 10
606.42845475300282
 20
162.73370126071029
 30
0.0
 11
607.92845475300282
 21
162.73370126071029
 31
0.0
  0
LINE
  5
16663
  8
AM_0
 10
606.42845475300226
 20
163.73370126071029
 30
0.0
 11
604.92845475300237
 21
163.73370126071029
 31
0.0
  0
ARC
  5
16664
  8
AM_0
 10
609.42845475300237
 20
160.23370126071049
 30
0.0
 40
1.5
 50
180.0
 51
270.0
  0
LINE
  5
16665
  8
AM_0
 10
655.2323547530026
 20
155.7337012607104
 30
0.0
 11
660.42845475300282
 21
158.7337012607104
 31
0.0
  0
LINE
  5
16666
  8
AM_0
 10
669.42845475300282
 20
162.7337012607106
 30
0.0
 11
669.4284547530026
 21
181.23370126071029
 31
0.0
  0
LINE
  5
16667
  8
AM_0
 10
670.9284547530026
 20
163.7337012607106
 30
0.0
 11
670.9284547530026
 21
178.73370126071049
 31
0.0
  0
LINE
  5
16668
  8
AM_0
 10
667.92845475300282
 20
175.23370126071049
 30
0.0
 11
667.92845475300282
 21
160.2337012607106
 31
0.0
  0
LINE
  5
16669
  8
AM_0
 10
669.42845475300282
 20
163.7337012607106
 30
0.0
 11
670.9284547530026
 21
163.7337012607106
 31
0.0
  0
ARC
  5
1666A
  8
AM_0
 10
666.4284547530026
 20
160.23370126071049
 30
0.0
 40
1.5
 50
270.0
 51
0.0
  0
LINE
  5
1666B
  8
AM_0
 10
667.92845475300282
 20
162.7337012607106
 30
0.0
 11
669.42845475300282
 21
162.7337012607106
 31
0.0
  0
LINE
  5
16A66
  8
AM_0
 10
242.75087385822101
 20
158.73370126071029
 30
0.0
 11
167.75087385822101
 21
158.73370126071029
 31
0.0
  0
LINE
  5
16A67
  8
AM_0
 10
231.5548738582211
 20
155.73370126071029
 30
0.0
 11
195.9468738582211
 21
155.73370126071029
 31
0.0
  0
LINE
  5
16A68
  8
AM_0
 10
245.25087385822101
 20
175.23370126071029
 30
0.0
 11
187.75087385822101
 21
175.23370126071029
 31
0.0
  0
LINE
  5
16A69
  8
AM_0
 10
165.25087385822101
 20
178.73370126071029
 30
0.0
 11
245.25087385822101
 21
178.73370126071029
 31
0.0
  0
LINE
  5
16A6A
  8
AM_0
 10
245.25087385822101
 20
181.23370126071021
 30
0.0
 11
165.25087385822101
 21
181.23370126071021
 31
0.0
  0
LINE
  5
16A6B
  8
AM_0
 10
195.9468738582211
 20
155.73370126071029
 30
0.0
 11
190.758098348018
 21
158.73370126071029
 31
0.0
  0
ARC
  5
16A6C
  8
AM_0
 10
178.25087385822101
 20
171.23370126071029
 30
0.0
 40
3.999999999999996
 50
180.0
 51
0.000000000000007
  0
ARC
  5
16A6D
  8
AM_0
 10
178.25087385822101
 20
171.23370126071029
 30
0.0
 40
7.5000000000000018
 50
180.0
 51
0.000000000000007
  0
ARC
  5
16A6E
  8
AM_0
 10
177.2508738582209
 20
170.23370126071029
 30
0.0
 40
7.499999999999992
 50
180.0
 51
270.0
  0
LINE
  5
16A6F
  8
AM_0
 10
165.25087385822081
 20
181.23370126071021
 30
0.0
 11
165.25087385822101
 21
162.73370126071029
 31
0.0
  0
LINE
  5
16A70
  8
AM_0
 10
166.75087385822101
 20
175.23370126071029
 30
0.0
 11
166.75087385822101
 21
159.73370126071029
 31
0.0
  0
ARC
  5
16A71
  8
AM_0
 10
167.75087385822101
 20
159.73370126071029
 30
0.0
 40
1.0
 50
180.0
 51
270.0
  0
LINE
  5
16A72
  8
AM_0
 10
165.25087385822101
 20
162.73370126071029
 30
0.0
 11
166.75087385822101
 21
162.73370126071029
 31
0.0
  0
LINE
  5
16A73
  8
AM_0
 10
165.25087385822101
 20
175.23370126071029
 30
0.0
 11
168.75087385822101
 21
175.23370126071029
 31
0.0
  0
LINE
  5
16A74
  8
AM_0
 10
170.75087385822101
 20
178.73370126071029
 30
0.0
 11
170.75087385822101
 21
171.23370126071029
 31
0.0
  0
LINE
  5
16A75
  8
AM_0
 10
174.25087385822101
 20
178.73370126071029
 30
0.0
 11
174.25087385822101
 21
171.23370126071029
 31
0.0
  0
LINE
  5
16A76
  8
AM_0
 10
169.75087385822101
 20
174.23370126071029
 30
0.0
 11
169.75087385822101
 21
170.23370126071029
 31
0.0
  0
ARC
  5
16A77
  8
AM_0
 10
168.75087385822101
 20
174.23370126071029
 30
0.0
 40
1.0
 50
0.000000000000007
 51
90.0
  0
ARC
  5
16A78
  8
AM_0
 10
179.25087385822101
 20
170.23370126071029
 30
0.0
 40
7.4999999999999956
 50
270.0
 51
0.000000000000007
  0
LINE
  5
16A79
  8
AM_0
 10
179.25087385822101
 20
162.73370126071029
 30
0.0
 11
177.2508738582209
 21
162.73370126071029
 31
0.0
  0
LINE
  5
16A7A
  8
AM_0
 10
182.2508738582209
 20
178.73370126071029
 30
0.0
 11
182.2508738582209
 21
171.23370126071029
 31
0.0
  0
LINE
  5
16A7B
  8
AM_0
 10
185.7508738582209
 20
171.23370126071029
 30
0.0
 11
185.7508738582209
 21
178.73370126071029
 31
0.0
  0
LINE
  5
16A7C
  8
AM_0
 10
186.7508738582209
 20
170.23370126071029
 30
0.0
 11
186.7508738582209
 21
174.23370126071029
 31
0.0
  0
ARC
  5
16A7D
  8
AM_0
 10
187.75087385822101
 20
174.23370126071029
 30
0.0
 40
1.0
 50
90.0
 51
180.0
  0
LINE
  5
16A7E
  8
AM_0
 10
236.75087385822101
 20
158.73370126071029
 30
0.0
 11
231.5548738582211
 21
155.73370126071029
 31
0.0
  0
LINE
  5
16A7F
  8
AM_0
 10
245.25087385822101
 20
181.23370126071021
 30
0.0
 11
245.25087385822101
 21
175.23370126071029
 31
0.0
  0
LINE
  5
16A80
  8
AM_0
 10
243.75087385822101
 20
175.23370126071029
 30
0.0
 11
243.75087385822101
 21
159.73370126071029
 31
0.0
  0
ARC
  5
16A81
  8
AM_0
 10
242.75087385822101
 20
159.73370126071021
 30
0.0
 40
1.0
 50
270.0
 51
0.000000000000007
  0
LINE
  5
16AC2
  8
AM_0
 10
264.75087385822121
 20
304.23370126071029
 30
0.0
 11
264.75087385822121
 21
192.2337012607104
 31
0.0
  0
LINE
  5
16AC3
  8
AM_0
 10
156.75087385822141
 20
301.23370126071029
 30
0.0
 11
156.75087385822141
 21
195.2337012607104
 31
0.0
  0
LINE
  5
16AC4
  8
AM_0
 10
262.950883858221
 20
287.57363126071027
 30
0.0
 11
258.81087385822138
 21
303.03365126071043
 31
0.0
  0
LINE
  5
16AC5
  8
AM_0
 10
162.11086385822139
 20
284.88369126071018
 30
0.0
 11
156.75087385822141
 21
296.33367126071028
 31
0.0
  0
LINE
  5
16AC6
  8
AM_0
 10
148.75087385822121
 20
301.23370126071029
 30
0.0
 11
148.75087385822121
 21
195.23370126071029
 31
0.0
  0
LINE
  5
16AC7
  8
AM_0
 10
147.75087385822121
 20
298.23370126071029
 30
0.0
 11
147.75087385822121
 21
198.23370126071029
 31
0.0
  0
LINE
  5
16AC8
  8
AM_0
 10
142.75087385822121
 20
296.25372126071022
 30
0.0
 11
142.75087385822121
 21
253.23370126071029
 31
0.0
  0
LINE
  5
16AC9
  8
AM_0
 10
141.25087385822121
 20
268.2336712607102
 30
0.0
 11
142.75087385822121
 21
268.3636712607103
 31
0.0
  0
LINE
  5
16ACA
  8
AM_0
 10
141.25087385822121
 20
265.5137312607103
 30
0.0
 11
142.75087385822121
 21
265.5137312607103
 31
0.0
  0
LINE
  5
16ACB
  8
AM_0
 10
141.25087385822121
 20
263.3837212607101
 30
0.0
 11
142.75087385822121
 21
263.3837212607101
 31
0.0
  0
LINE
  5
16ACC
  8
AM_0
 10
141.25087385822121
 20
233.0836712607103
 30
0.0
 11
142.75087385822121
 21
233.0836712607103
 31
0.0
  0
LINE
  5
16ACD
  8
AM_0
 10
141.25087385822121
 20
230.95367126071031
 30
0.0
 11
142.75087385822121
 21
230.95367126071031
 31
0.0
  0
LINE
  5
16ACE
  8
AM_0
 10
141.25087385822121
 20
228.23367126071031
 30
0.0
 11
142.75087385822121
 21
228.10366126071031
 31
0.0
  0
LINE
  5
16ACF
  8
AM_0
 10
140.25697737384621
 20
233.01186898531969
 30
0.0
 11
140.25697737384621
 21
263.45550301852279
 31
0.0
  0
LINE
  5
16AD0
  8
AM_0
 10
141.25087385822121
 20
268.23370126071029
 30
0.0
 11
141.25087385822121
 21
228.23370126071029
 31
0.0
  0
LINE
  5
16AD1
  8
AM_0
 10
140.25700789142431
 20
233.01186898531969
 30
0.0
 11
140.75700789142431
 21
230.24187997164779
 31
0.0
  0
LINE
  5
16AD2
  8
AM_0
 10
140.75697737384621
 20
230.24187997164779
 30
0.0
 11
141.25700789142431
 21
230.28188851656961
 31
0.0
  0
LINE
  5
16AD3
  8
AM_0
 10
140.25697737384621
 20
263.45553353610092
 30
0.0
 11
140.75697737384621
 21
266.22552254977279
 31
0.0
  0
LINE
  5
16AD4
  8
AM_0
 10
140.75700789142431
 20
266.22552254977279
 30
0.0
 11
141.25697737384621
 21
266.18551400485092
 31
0.0
  0
LINE
  5
16AD5
  8
AM_0
 10
162.11086385822139
 20
211.58370126071031
 30
0.0
 11
156.75087385822141
 21
200.1437012607104
 31
0.0
  0
LINE
  5
16AD6
  8
AM_0
 10
142.75087385822121
 20
200.2136812607103
 30
0.0
 11
142.75087385822121
 21
243.23370126071029
 31
0.0
  0
LINE
  5
16AD7
  8
AM_0
 10
144.75087385822121
 20
200.8336712607103
 30
0.0
 11
144.75087385822121
 21
201.38372126071019
 31
0.0
  0
ARC
  5
16AD8
  8
AM_0
 10
143.74660385822131
 20
201.2640912607103
 30
0.0
 40
0.9956849800000001
 50
180.02113
 51
243.4091400000006
  0
LINE
  5
16AD9
  8
AM_0
 10
144.510943858221
 20
200.73370126071029
 30
0.0
 11
143.2309138582211
 21
201.50372126071019
 31
0.0
  0
LINE
  5
16ADA
  8
AM_0
 10
262.9565638582215
 20
208.91476126071029
 30
0.0
 11
258.81081385822131
 21
193.43365126071021
 31
0.0
  0
LINE
  5
16ADB
  8
AM_0
 10
159.9608938582214
 20
191.95367126071031
 30
0.0
 11
256.8808838582213
 21
191.95367126071031
 31
0.0
  0
LINE
  5
16ADC
  8
AM_0
 10
159.65712385822141
 20
189.10369126071029
 30
0.0
 11
182.08352405688811
 21
189.10369126071029
 31
0.0
  0
ARC
  5
16ADD
  8
AM_0
 10
160.0070438582211
 20
191.1040612607103
 30
0.0
 40
2.000420099999999
 50
188.92682000000141
 51
269.8227099999977
  0
ARC
  5
16ADE
  8
AM_0
 10
159.95571385822129
 20
193.9529412607103
 30
0.0
 40
1.9992489999999989
 50
190.64310000000111
 51
270.1474299999997
  0
ARC
  5
16ADF
  8
AM_0
 10
159.73750385822129
 20
191.10369126071029
 30
0.0
 40
1.9999999999999989
 50
188.62962000000419
 51
269.999989999999
  0
ARC
  5
16AE0
  8
AM_0
 10
159.65712385822141
 20
191.10369126071029
 30
0.0
 40
1.9999999999999989
 50
187.95044000000351
 51
269.999989999999
  0
LINE
  5
16AE1
  8
AM_0
 10
148.75087385822121
 20
195.23370126071029
 30
0.0
 11
156.75087385822121
 21
195.23370126071029
 31
0.0
  0
ARC
  5
16AE2
  8
AM_0
 10
147.247513858221
 20
200.13714126071019
 30
0.0
 40
0.5033929900000002
 50
270.38491000000062
 51
359.61509999999811
  0
ARC
  5
16AE3
  8
AM_0
 10
147.25136385822111
 20
197.98418126071019
 30
0.0
 40
0.49952301
 50
359.9452300000014
 51
90.054773999999625
  0
LINE
  5
16AE4
  8
AM_0
 10
147.75087385822121
 20
198.23370126071029
 30
0.0
 11
148.75087385822121
 21
198.23370126071029
 31
0.0
  0
LINE
  5
16AE5
  8
AM_0
 10
145.03090385822111
 20
200.5936812607103
 30
0.0
 11
147.75087385822121
 21
200.5936812607103
 31
0.0
  0
LINE
  5
16AE6
  8
AM_0
 10
144.99086385822119
 20
199.63372126071019
 30
0.0
 11
147.2508738582211
 21
199.63372126071019
 31
0.0
  0
LINE
  5
16AE7
  8
AM_0
 10
145.02089385822109
 20
198.48370126071029
 30
0.0
 11
147.2508738582211
 21
198.48370126071029
 31
0.0
  0
LINE
  5
16AE8
  8
AM_0
 10
144.75087385822121
 20
198.73370126071029
 30
0.0
 11
144.75087385822121
 21
199.2637312607103
 31
0.0
  0
LINE
  5
16AE9
  8
AM_0
 10
144.5408538582212
 20
199.74368126071019
 30
0.0
 11
143.30086385822119
 21
200.37368126071021
 31
0.0
  0
LINE
  5
16AEA
  8
AM_0
 10
144.52089385822109
 20
198.62371126071019
 30
0.0
 11
143.250933858221
 21
199.35369126071029
 31
0.0
  0
ARC
  5
16AEB
  8
AM_0
 10
144.996723858221
 20
200.63299126071021
 30
0.0
 40
0.9993420200000001
 50
242.86199999999801
 51
269.66546000000159
  0
ARC
  5
16AEC
  8
AM_0
 10
145.02229385822119
 20
201.59734126071029
 30
0.0
 40
1.003743999999998
 50
239.37112999999741
 51
270.49190000000061
  0
ARC
  5
16AED
  8
AM_0
 10
145.03157385822101
 20
199.48479126071021
 30
0.0
 40
1.001123999999999
 50
239.32781999999901
 51
269.38767999999868
  0
ARC
  5
16AEE
  8
AM_0
 10
143.74849385822131
 20
200.21831126071029
 30
0.0
 40
0.9976310099999999
 50
180.2678099999986
 51
240.0792399999994
  0
LINE
  5
16AEF
  8
AM_0
 10
156.75087385822141
 20
200.1436412607103
 30
0.0
 11
157.9908638582215
 21
193.58364126071029
 31
0.0
  0
LINE
  5
16AF0
  8
AM_0
 10
156.75087385822141
 20
198.7936312607103
 30
0.0
 11
158.03084385822109
 21
190.79369126071029
 31
0.0
  0
LINE
  5
16AF1
  8
AM_0
 10
156.75087385822141
 20
197.45364126071021
 30
0.0
 11
157.7600938582213
 21
190.80361126071011
 31
0.0
  0
LINE
  5
16AF2
  8
AM_0
 10
156.75087385822141
 20
197.4537012607104
 30
0.0
 11
157.67635385822129
 21
190.82708126071029
 31
0.0
  0
ARC
  5
16AF3
  8
AM_0
 10
182.08352405688811
 20
187.60369126071029
 30
0.0
 40
1.4999999999999989
 50
1.4997388638672731
 51
90.0
1001
GENIUS_GENODEF_13
1002
{
1000
HIER
1070
     0
1002
}
1002
{
1000
MANEDIT
1070
     0
1002
}
1002
{
1000
NOSEL
1070
     0
1002
}
1002
{
1000
BEHIND
1070
     0
1002
}
1002
{
1000
REACTOR
1002
}
1001
GENIUS_GENOBJ-N-FIL_13
1002
{
1000
OWNER
1000
GEN
1002
}
  0
LINE
  5
16AF4
  8
AM_0
 10
263.75087385822121
 20
195.2336712607102
 30
0.0
 11
258.02507385822128
 21
186.4167112607102
 31
0.0
  0
LINE
  5
16AF5
  8
AM_0
 10
245.3299545440064
 20
185.73370126071029
 30
0.0
 11
256.767053858221
 21
185.73370126071029
 31
0.0
  0
ARC
  5
16AF6
  8
AM_0
 10
245.3299545440064
 20
184.23370126071029
 30
0.0
 40
1.4999999999999989
 50
90.0
 51
178.4998650936468
1001
GENIUS_GENODEF_13
1002
{
1000
HIER
1070
     0
1002
}
1002
{
1000
MANEDIT
1070
     0
1002
}
1002
{
1000
NOSEL
1070
     0
1002
}
1002
{
1000
BEHIND
1070
     0
1002
}
1002
{
1000
REACTOR
1002
}
1001
GENIUS_GENOBJ-N-FIL_13
1002
{
1000
OWNER
1000
GEN
1002
}
  0
ARC
  5
16AF7
  8
AM_0
 10
256.767053858221
 20
187.23370126071029
 30
0.0
 40
1.4999999999999989
 50
269.999989999999
 51
326.99999999999852
  0
ARC
  5
16AF8
  8
AM_0
 10
256.8760538582211
 20
193.95843126071031
 30
0.0
 40
2.0047289999999989
 50
270.13832000000269
 51
344.82650000000189
  0
LINE
  5
16AF9
  8
AM_0
 10
259.29292385822117
 20
195.2337012607104
 30
0.0
 11
264.75087385822121
 21
195.2337012607104
 31
0.0
  0
LINE
  5
16AFA
  8
AM_0
 10
225.7508738582211
 20
222.2337012607104
 30
0.0
 11
159.11086385822131
 21
222.2337012607104
 31
0.0
  0
LINE
  5
16AFB
  8
AM_0
 10
158.2108938582214
 20
221.7437112607104
 30
0.0
 11
225.7508738582211
 21
221.7437112607104
 31
0.0
  0
LINE
  5
16AFC
  8
AM_0
 10
158.43086385822099
 20
214.86370126071029
 30
0.0
 11
225.7708938582214
 21
214.86370126071029
 31
0.0
  0
LINE
  5
16AFD
  8
AM_0
 10
225.7508738582211
 20
274.23370126071029
 30
0.0
 11
159.11086385822131
 21
274.23370126071029
 31
0.0
  0
LINE
  5
16AFE
  8
AM_0
 10
158.2108938582214
 20
274.72369126071032
 30
0.0
 11
225.7508738582211
 21
274.72369126071032
 31
0.0
  0
LINE
  5
16AFF
  8
AM_0
 10
258.08370385822133
 20
272.23370126071029
 30
0.0
 11
159.11086385822131
 21
272.23370126071029
 31
0.0
  0
LINE
  5
16B00
  8
AM_0
 10
158.2108938582214
 20
271.79376126071043
 30
0.0
 11
261.78511385822139
 21
271.79376126071043
 31
0.0
  0
LINE
  5
16B01
  8
AM_0
 10
258.08370385822133
 20
224.23370126071029
 30
0.0
 11
159.11086385822131
 21
224.23370126071029
 31
0.0
  0
LINE
  5
16B02
  8
AM_0
 10
158.2108938582214
 20
224.67364126071041
 30
0.0
 11
261.78511385822139
 21
224.67364126071041
 31
0.0
  0
LINE
  5
16B03
  8
AM_0
 10
158.43086385822099
 20
211.51373126071019
 30
0.0
 11
213.75087385822121
 21
211.51373126071019
 31
0.0
  0
LINE
  5
16B04
  8
AM_0
 10
213.75087385822121
 20
214.2337012607104
 30
0.0
 11
159.11086385822131
 21
214.2337012607104
 31
0.0
  0
LINE
  5
16B05
  8
AM_0
 10
213.75087385822121
 20
212.23370126071029
 30
0.0
 11
159.11086385822131
 21
212.23370126071029
 31
0.0
  0
LINE
  5
16B06
  8
AM_0
 10
158.43086385822099
 20
281.60369126071021
 30
0.0
 11
225.7708938582214
 21
281.60369126071021
 31
0.0
  0
LINE
  5
16B07
  8
AM_0
 10
258.09090385822128
 20
284.23370126071029
 30
0.0
 11
159.11086385822131
 21
284.23370126071029
 31
0.0
  0
LINE
  5
16B08
  8
AM_0
 10
258.09090385822128
 20
282.23370126071029
 30
0.0
 11
159.11086385822131
 21
282.23370126071029
 31
0.0
  0
LINE
  5
16B09
  8
AM_0
 10
158.43086385822099
 20
284.95367126071039
 30
0.0
 11
261.57088385822141
 21
284.95367126071039
 31
0.0
  0
ARC
  5
16B0A
  8
AM_0
 10
158.0150338582211
 20
243.2337012607104
 30
0.0
 40
1.2700129999999981
 50
89.736617000001601
 51
270.26336999999751
  0
ARC
  5
16B0B
  8
AM_0
 10
146.74593385822121
 20
245.23858126071019
 30
0.0
 40
1.004942999999999
 50
270.28113999999943
 51
359.71886999999822
  0
ARC
  5
16B0C
  8
AM_0
 10
143.7459938582212
 20
243.23858126071019
 30
0.0
 40
0.9950770099999999
 50
89.715859999999495
 51
180.28414000000049
  0
ARC
  5
16B0D
  8
AM_0
 10
194.47780385822119
 20
243.2337012607104
 30
0.0
 40
1.2700266
 50
269.6293199999983
 51
90.370670000006356
  0
LINE
  5
16B0E
  8
AM_0
 10
158.08089385822129
 20
231.89373126071041
 30
0.0
 11
194.4221438582212
 21
231.89373126071041
 31
0.0
  0
LINE
  5
16B0F
  8
AM_0
 10
158.08089385822129
 20
234.55364126071049
 30
0.0
 11
194.40956385822111
 21
234.55364126071049
 31
0.0
  0
LINE
  5
16B10
  8
AM_0
 10
193.18959385822129
 20
234.2337012607104
 30
0.0
 11
159.11086385822131
 21
234.2337012607104
 31
0.0
  0
LINE
  5
16B11
  8
AM_0
 10
193.18959385822129
 20
232.2337012607104
 30
0.0
 11
159.11086385822131
 21
232.2337012607104
 31
0.0
  0
LINE
  5
16B12
  8
AM_0
 10
193.18959385822129
 20
244.23370126071029
 30
0.0
 11
159.11086385822131
 21
244.23370126071029
 31
0.0
  0
LINE
  5
16B13
  8
AM_0
 10
193.18959385822129
 20
242.23370126071029
 30
0.0
 11
159.11086385822131
 21
242.23370126071029
 31
0.0
  0
LINE
  5
16B14
  8
AM_0
 10
158.0208938582214
 20
241.9636812607103
 30
0.0
 11
194.46956385822099
 21
241.9636812607103
 31
0.0
  0
ARC
  5
16B15
  8
AM_0
 10
159.29549385822131
 20
223.2337012607104
 30
0.0
 40
1.000013899999999
 50
89.69165999999926
 51
270.30834000000073
  0
ARC
  5
16B16
  8
AM_0
 10
158.2108938582214
 20
223.2086712607103
 30
0.0
 40
1.4650039999999991
 50
90.000002999999296
 51
270.0
  0
LINE
  5
16B17
  8
AM_0
 10
144.75087385822121
 20
222.60369126071029
 30
0.0
 11
144.75087385822121
 21
223.9736912607103
 31
0.0
  0
ARC
  5
16B18
  8
AM_0
 10
143.75112385822109
 20
223.23394126071031
 30
0.0
 40
1.0001959999999981
 50
180.01124999999939
 51
269.98875000000061
  0
ARC
  5
16B19
  8
AM_0
 10
158.42403385822121
 20
213.1886512607104
 30
0.0
 40
1.6750139999999989
 50
89.766498999996756
 51
270.23350999999781
  0
ARC
  5
16B1A
  8
AM_0
 10
159.29549385822131
 20
213.2337012607104
 30
0.0
 40
1.000013899999999
 50
89.69165999999926
 51
270.30834000000073
  0
LINE
  5
16B1B
  8
AM_0
 10
149.4508838582212
 20
205.04375126071031
 30
0.0
 11
155.6808638582213
 21
205.04375126071031
 31
0.0
  0
ARC
  5
16B1C
  8
AM_0
 10
146.74678385822111
 20
202.7378512607103
 30
0.0
 40
1.0041199999999999
 50
270.23460999999998
 51
359.76539000000002
  0
LINE
  5
16B1D
  8
AM_0
 10
145.0008738582211
 20
201.73370126071029
 30
0.0
 11
146.75087385822121
 21
201.73370126071029
 31
0.0
  0
ARC
  5
16B1E
  8
AM_0
 10
146.74764385822121
 20
207.26043126071019
 30
0.0
 40
1.0032760000000001
 50
334.19810000000513
 51
359.61811000000461
  0
ARC
  5
16B1F
  8
AM_0
 10
146.74843385822101
 20
207.25616126071029
 30
0.0
 40
1.002470999999999
 50
270.14107000000013
 51
359.85892999999987
  0
LINE
  5
16B20
  8
AM_0
 10
145.05092385822101
 20
205.11370126071029
 30
0.0
 11
147.75087385822121
 21
205.11370126071029
 31
0.0
  0
LINE
  5
16B21
  8
AM_0
 10
145.02089385822109
 20
206.25372126071019
 30
0.0
 11
146.75087385822121
 21
206.25372126071019
 31
0.0
  0
LINE
  5
16B22
  8
AM_0
 10
144.53090385822111
 20
201.85369126071029
 30
0.0
 11
143.280903858221
 21
202.51369126071029
 31
0.0
  0
LINE
  5
16B23
  8
AM_0
 10
144.75087385822121
 20
205.40374126071029
 30
0.0
 11
144.75087385822121
 21
205.87371126071031
 31
0.0
  0
LINE
  5
16B24
  8
AM_0
 10
143.24086385822119
 20
207.13369126071029
 30
0.0
 11
143.22084385822129
 21
207.14367126071019
 31
0.0
  0
LINE
  5
16B25
  8
AM_0
 10
144.52089385822109
 20
206.3837512607102
 30
0.0
 11
143.24092385822109
 21
207.13372126071019
 31
0.0
  0
LINE
  5
16B26
  8
AM_0
 10
144.50081385822131
 20
205.27367126071019
 30
0.0
 11
143.2008238582211
 21
206.12368126071021
 31
0.0
  0
ARC
  5
16B27
  8
AM_0
 10
145.00606385822101
 20
202.73431126071031
 30
0.0
 40
1.0006820000000001
 50
241.65062000000049
 51
269.70392999999888
  0
ARC
  5
16B28
  8
AM_0
 10
145.01424385822131
 20
207.2546912607103
 30
0.0
 40
1.001044999999998
 50
240.47186999999951
 51
270.37970999999948
  0
ARC
  5
16B29
  8
AM_0
 10
145.04366385822121
 20
206.1141912607103
 30
0.0
 40
1.000521999999999
 50
237.14618000000019
 51
270.41344000000038
  0
ARC
  5
16B2A
  8
AM_0
 10
143.7486138582212
 20
203.39495126071029
 30
0.0
 40
0.9977070099999998
 50
180.074020000004
 51
242.04481000000089
  0
ARC
  5
16B2B
  8
AM_0
 10
143.74965385822111
 20
202.35723126071031
 30
0.0
 40
0.9987969999999998
 50
179.62728000000101
 51
238.70795000000021
  0
ARC
  5
16B2C
  8
AM_0
 10
143.74935385822121
 20
207.99297126071031
 30
0.0
 40
0.9984580299999999
 50
179.95957999999851
 51
239.38656999999779
  0
ARC
  5
16B2D
  8
AM_0
 10
143.74935385822121
 20
207.99297126071031
 30
0.0
 40
0.9984580299999999
 50
179.95957999999851
 51
239.38656999999779
  0
ARC
  5
16B2E
  8
AM_0
 10
143.74996385822121
 20
206.95843126071031
 30
0.0
 40
0.9990889999999998
 50
179.6950899999965
 51
236.6620900000004
  0
ARC
  5
16B2F
  8
AM_0
 10
147.0514138582212
 20
211.84429126071029
 30
0.0
 40
0.6994530000000001
 50
359.95517000000092
 51
90.044829000000746
  0
ARC
  5
16B30
  8
AM_0
 10
146.747513858221
 20
215.49700126071019
 30
0.0
 40
1.003352
 50
270.19111000000021
 51
359.80890000000107
  0
LINE
  5
16B31
  8
AM_0
 10
144.900903858221
 20
214.4937112607102
 30
0.0
 11
146.75087385822121
 21
214.4937112607102
 31
0.0
  0
LINE
  5
16B32
  8
AM_0
 10
144.95088385822109
 20
212.54375126071031
 30
0.0
 11
147.05086385822119
 21
212.54375126071031
 31
0.0
  0
LINE
  5
16B33
  8
AM_0
 10
144.75087385822121
 20
212.84368126071021
 30
0.0
 11
144.75087385822121
 21
213.90374126071029
 31
0.0
  0
LINE
  5
16B34
  8
AM_0
 10
144.61086385822111
 20
214.5336812607103
 30
0.0
 11
143.4608938582212
 21
214.89370126071029
 31
0.0
  0
LINE
  5
16B35
  8
AM_0
 10
144.56093385822101
 20
212.62374126071029
 30
0.0
 11
143.36092385822121
 21
213.14376126071031
 31
0.0
  0
ARC
  5
16B36
  8
AM_0
 10
144.89144385822121
 20
215.49639126071031
 30
0.0
 40
1.002699
 50
253.752720000002
 51
270.54064000000108
  0
ARC
  5
16B37
  8
AM_0
 10
144.95387385822119
 20
213.5488812607102
 30
0.0
 40
1.005233
 50
246.98639000000031
 51
269.82924999999938
  0
ARC
  5
16B38
  8
AM_0
 10
146.75105385822121
 20
221.23382126071019
 30
0.0
 40
0.9998239899999999
 50
359.98991999999532
 51
90.010077000000464
  0
LINE
  5
16B39
  8
AM_0
 10
146.75087385822121
 20
222.23370126071029
 30
0.0
 11
143.75087385822121
 21
222.23370126071029
 31
0.0
  0
ARC
  5
16B3A
  8
AM_0
 10
143.74727385822109
 20
215.8480812607103
 30
0.0
 40
0.99638802
 50
180.24990999999889
 51
253.29664000000031
  0
ARC
  5
16B3B
  8
AM_0
 10
143.7473938582213
 20
214.06219126071031
 30
0.0
 40
0.9965090199999998
 50
179.9137499999965
 51
247.17844999999909
  0
POLYLINE
  5
16B3C
  8
AM_0
 66
     1
 10
0.0
 20
0.0
 30
0.0
  0
VERTEX
  5
16B3D
  8
AM_0
 10
160.61177385822131
 20
221.7506612607103
 30
0.0
 42
0.00068900015
  0
VERTEX
  5
16B3E
  8
AM_0
 10
160.6826538582213
 20
221.17591126071019
 30
0.0
 42
0.00070644648
  0
VERTEX
  5
16B3F
  8
AM_0
 10
160.75515385822109
 20
220.60123126071031
 30
0.0
 42
0.00069245587
  0
VERTEX
  5
16B40
  8
AM_0
 10
160.82924385822139
 20
220.02691126071051
 30
0.0
 42
0.00069587802
  0
VERTEX
  5
16B41
  8
AM_0
 10
160.90492385822131
 20
219.45277126071031
 30
0.0
 42
0.00068980012
  0
VERTEX
  5
16B42
  8
AM_0
 10
160.9822238582212
 20
218.87877126071041
 30
0.0
 42
0.00072079193
  0
VERTEX
  5
16B43
  8
AM_0
 10
161.0611138582214
 20
218.30499126071041
 30
0.0
 42
0.00071003147
  0
VERTEX
  5
16B44
  8
AM_0
 10
161.14165385822139
 20
217.73151126071019
 30
0.0
 42
0.00072658712
  0
VERTEX
  5
16B45
  8
AM_0
 10
161.22381385822129
 20
217.1584212607103
 30
0.0
 42
0.00069571059
  0
VERTEX
  5
16B46
  8
AM_0
 10
161.30763385822141
 20
216.58538126071031
 30
0.0
 42
0.0007126617
  0
VERTEX
  5
16B47
  8
AM_0
 10
161.39306385822141
 20
216.01262126071029
 30
0.0
 42
0.00071614574
  0
VERTEX
  5
16B48
  8
AM_0
 10
161.4800938582213
 20
215.44027126071049
 30
0.0
 42
0.00072290803
  0
VERTEX
  5
16B49
  8
AM_0
 10
161.56880385822129
 20
214.86797126071039
 30
0.0
  0
SEQEND
  5
16B4A
  8
AM_0
  0
ARC
  5
16B4B
  8
AM_0
 10
159.29549385822131
 20
233.23370126071029
 30
0.0
 40
1.000013899999999
 50
89.69165999999926
 51
270.30834000000073
  0
ARC
  5
16B4C
  8
AM_0
 10
159.29549385822131
 20
243.2337012607104
 30
0.0
 40
1.000013899999999
 50
89.69165999999926
 51
270.30834000000073
  0
POLYLINE
  5
16B4D
  8
AM_0
 66
     1
 10
0.0
 20
0.0
 30
0.0
  0
VERTEX
  5
16B4E
  8
AM_0
 10
159.154923858221
 20
241.9633112607103
 30
0.0
 42
0.00076695235
  0
VERTEX
  5
16B4F
  8
AM_0
 10
159.16972385822109
 20
241.34555126071029
 30
0.0
 42
0.00073263043
  0
VERTEX
  5
16B50
  8
AM_0
 10
159.18636385822131
 20
240.7279512607102
 30
0.0
 42
0.00076525988
  0
VERTEX
  5
16B51
  8
AM_0
 10
159.20485385822121
 20
240.11028126071031
 30
0.0
 42
0.00075144488
  0
VERTEX
  5
16B52
  8
AM_0
 10
159.2252238582214
 20
239.49268126071041
 30
0.0
 42
0.00076035096
  0
VERTEX
  5
16B53
  8
AM_0
 10
159.24746385822141
 20
238.8752512607104
 30
0.0
 42
0.00075543154
  0
VERTEX
  5
16B54
  8
AM_0
 10
159.27156385822121
 20
238.2578712607102
 30
0.0
 42
0.0007577325
  0
VERTEX
  5
16B55
  8
AM_0
 10
159.2975438582211
 20
237.64047126071031
 30
0.0
 42
0.00076034585
  0
VERTEX
  5
16B56
  8
AM_0
 10
159.3253938582211
 20
237.0230812607102
 30
0.0
 42
0.00074823143
  0
VERTEX
  5
16B57
  8
AM_0
 10
159.3551238582213
 20
236.40569126071031
 30
0.0
 42
0.00074896605
  0
VERTEX
  5
16B58
  8
AM_0
 10
159.3866838582212
 20
235.7885612607104
 30
0.0
 42
0.00076039763
  0
VERTEX
  5
16B59
  8
AM_0
 10
159.42010385822141
 20
235.17153126071051
 30
0.0
 42
0.00075616127
  0
VERTEX
  5
16B5A
  8
AM_0
 10
159.45540385822139
 20
234.5545012607104
 30
0.0
  0
SEQEND
  5
16B5B
  8
AM_0
  0
ARC
  5
16B5C
  8
AM_0
 10
158.08089385822129
 20
233.2236912607103
 30
0.0
 40
1.3300049999999981
 50
90.000002999999296
 51
270.0
  0
LINE
  5
16B5D
  8
AM_0
 10
144.75087385822121
 20
232.62371126071031
 30
0.0
 11
144.75087385822121
 21
233.8436812607103
 31
0.0
  0
ARC
  5
16B5E
  8
AM_0
 10
143.7459938582212
 20
233.23858126071019
 30
0.0
 40
0.9950810099999999
 50
89.716072000000096
 51
180.2839200000044
  0
ARC
  5
16B5F
  8
AM_0
 10
146.74593385822121
 20
225.23858126071019
 30
0.0
 40
1.0049469
 50
270.28136999999919
 51
359.7186300000007
  0
LINE
  5
16B60
  8
AM_0
 10
146.75087385822121
 20
224.23370126071029
 30
0.0
 11
143.75087385822121
 21
224.23370126071029
 31
0.0
  0
ARC
  5
16B61
  8
AM_0
 10
146.75105385822121
 20
231.23382126071019
 30
0.0
 40
0.9998210099999999
 50
359.98971999999799
 51
90.010281999998284
  0
LINE
  5
16B62
  8
AM_0
 10
146.75087385822121
 20
232.23370126071029
 30
0.0
 11
143.75087385822121
 21
232.23370126071029
 31
0.0
  0
ARC
  5
16B63
  8
AM_0
 10
143.7459938582212
 20
223.23858126071019
 30
0.0
 40
0.9950849999999999
 50
89.71628299999945
 51
180.28371999999919
  0
ARC
  5
16B64
  8
AM_0
 10
143.75112385822109
 20
233.2339412607102
 30
0.0
 40
1.000199999999998
 50
180.01145999999861
 51
269.98854000000142
  0
ARC
  5
16B65
  8
AM_0
 10
146.75105385822121
 20
241.23382126071019
 30
0.0
 40
0.9998279799999998
 50
359.9901599999971
 51
90.009838000000116
  0
ARC
  5
16B66
  8
AM_0
 10
146.74593385822121
 20
235.23858126071019
 30
0.0
 40
1.004939
 50
270.2809399999997
 51
359.71907000000101
  0
LINE
  5
16B67
  8
AM_0
 10
146.75087385822121
 20
234.23370126071029
 30
0.0
 11
143.75087385822121
 21
234.23370126071029
 31
0.0
  0
LINE
  5
16B68
  8
AM_0
 10
144.75087385822121
 20
242.62371126071031
 30
0.0
 11
144.75087385822121
 21
243.78374126071029
 31
0.0
  0
LINE
  5
16B69
  8
AM_0
 10
146.75087385822121
 20
242.23370126071029
 30
0.0
 11
143.75087385822121
 21
242.23370126071029
 31
0.0
  0
LINE
  5
16B6A
  8
AM_0
 10
146.75087385822121
 20
244.23370126071029
 30
0.0
 11
143.75087385822121
 21
244.23370126071029
 31
0.0
  0
ARC
  5
16B6B
  8
AM_0
 10
143.75112385822109
 20
243.2339412607102
 30
0.0
 40
1.0002040000000001
 50
180.01165999999679
 51
269.98832000000073
  0
POLYLINE
  5
16B6C
  8
AM_0
 66
     1
 10
0.0
 20
0.0
 30
0.0
  0
VERTEX
  5
16B6D
  8
AM_0
 10
159.62911385822139
 20
231.8931212607103
 30
0.0
 42
0.00073721992
  0
VERTEX
  5
16B6E
  8
AM_0
 10
159.67326385822139
 20
231.2907112607104
 30
0.0
 42
0.00074398496
  0
VERTEX
  5
16B6F
  8
AM_0
 10
159.71919385822139
 20
230.68844126071031
 30
0.0
 42
0.00073322625
  0
VERTEX
  5
16B70
  8
AM_0
 10
159.76692385822139
 20
230.0861112607104
 30
0.0
 42
0.00073594289
  0
VERTEX
  5
16B71
  8
AM_0
 10
159.81640385822129
 20
229.4841212607102
 30
0.0
 42
0.00074742568
  0
VERTEX
  5
16B72
  8
AM_0
 10
159.86767385822139
 20
228.88226126071021
 30
0.0
 42
0.00073216749
  0
VERTEX
  5
16B73
  8
AM_0
 10
159.92073385822141
 20
228.28045126071041
 30
0.0
 42
0.00074184065
  0
VERTEX
  5
16B74
  8
AM_0
 10
159.97555385822119
 20
227.6789212607103
 30
0.0
 42
0.00072077528
  0
VERTEX
  5
16B75
  8
AM_0
 10
160.03213385822119
 20
227.07769126071051
 30
0.0
 42
0.00074978179
  0
VERTEX
  5
16B76
  8
AM_0
 10
160.09047385822109
 20
226.47649126071039
 30
0.0
 42
0.00074288888
  0
VERTEX
  5
16B77
  8
AM_0
 10
160.15062385822119
 20
225.87547126071041
 30
0.0
 42
0.00072503679
  0
VERTEX
  5
16B78
  8
AM_0
 10
160.21253385822141
 20
225.2747312607103
 30
0.0
 42
0.00074640584
  0
VERTEX
  5
16B79
  8
AM_0
 10
160.27620385822141
 20
224.67413126071031
 30
0.0
  0
SEQEND
  5
16B7A
  8
AM_0
  0
ARC
  5
16B7B
  8
AM_0
 10
193.18959385822129
 20
233.23370126071029
 30
0.0
 40
1.000005699999998
 50
269.999989999999
 51
90.000002999999296
  0
ARC
  5
16B7C
  8
AM_0
 10
193.18959385822129
 20
243.2337012607104
 30
0.0
 40
1.000005699999998
 50
269.999989999999
 51
90.000002999999296
  0
ARC
  5
16B7D
  8
AM_0
 10
194.415853858221
 20
233.2236912607103
 30
0.0
 40
1.3300147999999981
 50
269.72941999999699
 51
90.270566999999375
  0
LINE
  5
16B7E
  8
AM_0
 10
193.18959385822129
 20
254.23370126071029
 30
0.0
 11
159.11086385822131
 21
254.23370126071029
 31
0.0
  0
LINE
  5
16B7F
  8
AM_0
 10
193.18959385822129
 20
252.2337012607104
 30
0.0
 11
159.11086385822131
 21
252.2337012607104
 31
0.0
  0
LINE
  5
16B80
  8
AM_0
 10
158.0208938582214
 20
254.50372126071031
 30
0.0
 11
194.46956385822099
 21
254.50372126071031
 31
0.0
  0
LINE
  5
16B81
  8
AM_0
 10
158.0208938582214
 20
251.9736912607103
 30
0.0
 11
194.46956385822099
 21
251.9736912607103
 31
0.0
  0
LINE
  5
16B82
  8
AM_0
 10
158.0208938582214
 20
244.50372126071019
 30
0.0
 11
194.46956385822099
 21
244.50372126071019
 31
0.0
  0
LINE
  5
16B83
  8
AM_0
 10
193.18959385822129
 20
262.23370126071029
 30
0.0
 11
159.11086385822131
 21
262.23370126071029
 31
0.0
  0
LINE
  5
16B84
  8
AM_0
 10
158.08089385822129
 20
261.91375126071023
 30
0.0
 11
194.40956385822111
 21
261.91375126071023
 31
0.0
  0
LINE
  5
16B85
  8
AM_0
 10
193.18959385822129
 20
264.23370126071029
 30
0.0
 11
159.11086385822131
 21
264.23370126071029
 31
0.0
  0
LINE
  5
16B86
  8
AM_0
 10
158.08089385822129
 20
264.57366126071031
 30
0.0
 11
194.40956385822111
 21
264.57366126071031
 31
0.0
  0
POLYLINE
  5
16B87
  8
AM_0
 66
     1
 10
0.0
 20
0.0
 30
0.0
  0
VERTEX
  5
16B88
  8
AM_0
 10
159.62911385822139
 20
264.57427126071042
 30
0.0
 42
-0.0007337051
  0
VERTEX
  5
16B89
  8
AM_0
 10
159.67325385822139
 20
265.1766912607103
 30
0.0
 42
-0.00075211323
  0
VERTEX
  5
16B8A
  8
AM_0
 10
159.71919385822139
 20
265.77908126071031
 30
0.0
 42
-0.0007297491
  0
VERTEX
  5
16B8B
  8
AM_0
 10
159.76692385822139
 20
266.3812812607103
 30
0.0
 42
-0.00073593041
  0
VERTEX
  5
16B8C
  8
AM_0
 10
159.81640385822129
 20
266.9832712607103
 30
0.0
 42
-0.00074742739
  0
VERTEX
  5
16B8D
  8
AM_0
 10
159.86767385822139
 20
267.5851412607102
 30
0.0
 42
-0.00073217363
  0
VERTEX
  5
16B8E
  8
AM_0
 10
159.92073385822141
 20
268.18694126071023
 30
0.0
 42
-0.00073754168
  0
VERTEX
  5
16B8F
  8
AM_0
 10
159.97555385822119
 20
268.78848126071011
 30
0.0
 42
-0.00073075073
  0
VERTEX
  5
16B90
  8
AM_0
 10
160.03213385822119
 20
269.38984126071023
 30
0.0
 42
-0.00074550816
  0
VERTEX
  5
16B91
  8
AM_0
 10
160.09047385822109
 20
269.99090126071042
 30
0.0
 42
-0.00074288416
  0
VERTEX
  5
16B92
  8
AM_0
 10
160.15062385822119
 20
270.59192126071042
 30
0.0
 42
-0.00072504001
  0
VERTEX
  5
16B93
  8
AM_0
 10
160.21253385822141
 20
271.19267126071031
 30
0.0
 42
-0.00074640667
  0
VERTEX
  5
16B94
  8
AM_0
 10
160.27620385822141
 20
271.7932712607103
 30
0.0
  0
SEQEND
  5
16B95
  8
AM_0
  0
ARC
  5
16B96
  8
AM_0
 10
159.29549385822131
 20
253.23370126071029
 30
0.0
 40
1.000013899999999
 50
89.69165999999926
 51
270.30834000000073
  0
ARC
  5
16B97
  8
AM_0
 10
159.29549385822131
 20
263.23370126071029
 30
0.0
 40
1.000013899999999
 50
89.69165999999926
 51
270.30834000000073
  0
ARC
  5
16B98
  8
AM_0
 10
158.0150338582211
 20
253.23870126071029
 30
0.0
 40
1.2650129999999991
 50
89.735579000001735
 51
270.26441000000409
  0
POLYLINE
  5
16B99
  8
AM_0
 66
     1
 10
0.0
 20
0.0
 30
0.0
  0
VERTEX
  5
16B9A
  8
AM_0
 10
159.154923858221
 20
254.50408126071019
 30
0.0
 42
-0.00076691992
  0
VERTEX
  5
16B9B
  8
AM_0
 10
159.16972385822109
 20
255.1218512607104
 30
0.0
 42
-0.00073262792
  0
VERTEX
  5
16B9C
  8
AM_0
 10
159.18636385822131
 20
255.73944126071049
 30
0.0
 42
-0.00076529537
  0
VERTEX
  5
16B9D
  8
AM_0
 10
159.20485385822121
 20
256.35711126071033
 30
0.0
 42
-0.00075141097
  0
VERTEX
  5
16B9E
  8
AM_0
 10
159.2252238582214
 20
256.97471126071042
 30
0.0
 42
-0.00075841687
  0
VERTEX
  5
16B9F
  8
AM_0
 10
159.24745385822141
 20
257.59214126071032
 30
0.0
 42
-0.00075711788
  0
VERTEX
  5
16BA0
  8
AM_0
 10
159.27156385822121
 20
258.20965126071042
 30
0.0
 42
-0.00075976003
  0
VERTEX
  5
16BA1
  8
AM_0
 10
159.29755385822131
 20
258.8270412607103
 30
0.0
 42
-0.00075797311
  0
VERTEX
  5
16BA2
  8
AM_0
 10
159.3253938582211
 20
259.44432126071052
 30
0.0
 42
-0.0007482613
  0
VERTEX
  5
16BA3
  8
AM_0
 10
159.3551238582213
 20
260.06170126071038
 30
0.0
 42
-0.00074893561
  0
VERTEX
  5
16BA4
  8
AM_0
 10
159.3866838582212
 20
260.67883126071041
 30
0.0
 42
-0.00076039839
  0
VERTEX
  5
16BA5
  8
AM_0
 10
159.42010385822141
 20
261.29586126071018
 30
0.0
 42
-0.00075618786
  0
VERTEX
  5
16BA6
  8
AM_0
 10
159.45540385822139
 20
261.91290126071033
 30
0.0
  0
SEQEND
  5
16BA7
  8
AM_0
  0
ARC
  5
16BA8
  8
AM_0
 10
146.74593385822121
 20
255.2385812607103
 30
0.0
 40
1.0049469
 50
270.28135000000037
 51
359.71866000000068
  0
ARC
  5
16BA9
  8
AM_0
 10
146.75105385822121
 20
251.23382126071019
 30
0.0
 40
0.9998249999999999
 50
359.98994999999871
 51
90.010050000001243
  0
LINE
  5
16BAA
  8
AM_0
 10
144.75087385822121
 20
253.84368126071021
 30
0.0
 11
144.75087385822121
 21
252.68365126071021
 31
0.0
  0
LINE
  5
16BAB
  8
AM_0
 10
146.75087385822121
 20
252.23370126071029
 30
0.0
 11
143.75087385822121
 21
252.23370126071029
 31
0.0
  0
LINE
  5
16BAC
  8
AM_0
 10
146.75087385822121
 20
254.23370126071029
 30
0.0
 11
143.75087385822121
 21
254.23370126071029
 31
0.0
  0
ARC
  5
16BAD
  8
AM_0
 10
143.75112385822109
 20
253.23394126071031
 30
0.0
 40
1.0001959999999981
 50
180.01121999999589
 51
269.98878000000087
  0
ARC
  5
16BAE
  8
AM_0
 10
143.7459938582212
 20
253.2385812607103
 30
0.0
 40
0.9950849999999999
 50
89.716311000000928
 51
180.28368999999969
  0
POLYLINE
  5
16BAF
  8
AM_0
 66
     1
 10
0.0
 20
0.0
 30
0.0
  0
VERTEX
  5
16BB0
  8
AM_0
 10
159.11086385822131
 20
248.23370126071029
 30
0.0
 42
-0.00039106649
  0
VERTEX
  5
16BB1
  8
AM_0
 10
159.10850385822141
 20
248.5448312607104
 30
0.0
 42
-0.00035488198
  0
VERTEX
  5
16BB2
  8
AM_0
 10
159.10661385822141
 20
248.85594126071021
 30
0.0
 42
-0.00039706113
  0
VERTEX
  5
16BB3
  8
AM_0
 10
159.1051838582211
 20
249.16705126071031
 30
0.0
 42
-0.00038765718
  0
VERTEX
  5
16BB4
  8
AM_0
 10
159.1042538582212
 20
249.4781912607105
 30
0.0
 42
-0.00040613432
  0
VERTEX
  5
16BB5
  8
AM_0
 10
159.1038038582212
 20
249.7892912607102
 30
0.0
 42
-0.00035573434
  0
VERTEX
  5
16BB6
  8
AM_0
 10
159.1038438582213
 20
250.10040126071041
 30
0.0
 42
-0.00038545884
  0
VERTEX
  5
16BB7
  8
AM_0
 10
159.1043338582212
 20
250.41153126071021
 30
0.0
 42
-0.00035501205
  0
VERTEX
  5
16BB8
  8
AM_0
 10
159.1052938582213
 20
250.72264126071039
 30
0.0
 42
-0.00040120779
  0
VERTEX
  5
16BB9
  8
AM_0
 10
159.10671385822141
 20
251.03387126071041
 30
0.0
 42
-0.00038317817
  0
VERTEX
  5
16BBA
  8
AM_0
 10
159.10862385822131
 20
251.34500126071029
 30
0.0
 42
-0.00035656084
  0
VERTEX
  5
16BBB
  8
AM_0
 10
159.11100385822121
 20
251.65624126071029
 30
0.0
 42
-0.00040143615
  0
VERTEX
  5
16BBC
  8
AM_0
 10
159.11385385822129
 20
251.9673412607103
 30
0.0
  0
SEQEND
  5
16BBD
  8
AM_0
  0
POLYLINE
  5
16BBE
  8
AM_0
 66
     1
 10
0.0
 20
0.0
 30
0.0
  0
VERTEX
  5
16BBF
  8
AM_0
 10
159.11086385822131
 20
248.23370126071029
 30
0.0
 42
0.00039106589
  0
VERTEX
  5
16BC0
  8
AM_0
 10
159.10850385822141
 20
247.92256126071041
 30
0.0
 42
0.00035488584
  0
VERTEX
  5
16BC1
  8
AM_0
 10
159.10661385822141
 20
247.61145126071031
 30
0.0
 42
0.00039705232
  0
VERTEX
  5
16BC2
  8
AM_0
 10
159.1051838582211
 20
247.30035126071041
 30
0.0
 42
0.0003876649
  0
VERTEX
  5
16BC3
  8
AM_0
 10
159.1042538582212
 20
246.98921126071019
 30
0.0
 42
0.00040613779
  0
VERTEX
  5
16BC4
  8
AM_0
 10
159.1038038582212
 20
246.67810126071049
 30
0.0
 42
0.00035571855
  0
VERTEX
  5
16BC5
  8
AM_0
 10
159.1038438582213
 20
246.3670012607102
 30
0.0
 42
0.00038547358
  0
VERTEX
  5
16BC6
  8
AM_0
 10
159.1043338582212
 20
246.0558612607102
 30
0.0
 42
0.000355015
  0
VERTEX
  5
16BC7
  8
AM_0
 10
159.1052938582213
 20
245.74476126071031
 30
0.0
 42
0.00040118616
  0
VERTEX
  5
16BC8
  8
AM_0
 10
159.10671385822141
 20
245.43353126071031
 30
0.0
 42
0.00038319867
  0
VERTEX
  5
16BC9
  8
AM_0
 10
159.10862385822131
 20
245.12239126071029
 30
0.0
 42
0.00035656356
  0
VERTEX
  5
16BCA
  8
AM_0
 10
159.11100385822121
 20
244.81116126071029
 30
0.0
 42
0.00040140992
  0
VERTEX
  5
16BCB
  8
AM_0
 10
159.11385385822129
 20
244.50005126071031
 30
0.0
  0
SEQEND
  5
16BCC
  8
AM_0
  0
LINE
  5
16BCD
  8
AM_0
 10
144.75087385822121
 20
263.84368126071018
 30
0.0
 11
144.75087385822121
 21
262.63372126071022
 31
0.0
  0
ARC
  5
16BCE
  8
AM_0
 10
146.75105385822121
 20
261.2338212607101
 30
0.0
 40
0.9998210099999999
 50
359.98975000000149
 51
90.010254999999034
  0
LINE
  5
16BCF
  8
AM_0
 10
146.75087385822121
 20
262.23370126071029
 30
0.0
 11
143.75087385822121
 21
262.23370126071029
 31
0.0
  0
ARC
  5
16BD0
  8
AM_0
 10
146.74593385822121
 20
265.2385812607103
 30
0.0
 40
1.004939
 50
270.2809100000008
 51
359.71909999999991
  0
LINE
  5
16BD1
  8
AM_0
 10
146.75087385822121
 20
264.23370126071029
 30
0.0
 11
143.75087385822121
 21
264.23370126071029
 31
0.0
  0
ARC
  5
16BD2
  8
AM_0
 10
143.75112385822109
 20
263.23394126071031
 30
0.0
 40
1.000199999999998
 50
180.01143000000161
 51
269.98856999999839
  0
ARC
  5
16BD3
  8
AM_0
 10
143.7459938582212
 20
263.2385812607103
 30
0.0
 40
0.99508202
 50
89.716098999998195
 51
180.283909999998
  0
ARC
  5
16BD4
  8
AM_0
 10
158.08089385822129
 20
263.24371126071031
 30
0.0
 40
1.3300049999999981
 50
90.000002999999296
 51
270.0
  0
ARC
  5
16BD5
  8
AM_0
 10
159.29549385822131
 20
273.23370126071029
 30
0.0
 40
1.000013899999999
 50
89.69165999999926
 51
270.30834000000073
  0
ARC
  5
16BD6
  8
AM_0
 10
158.42348385822129
 20
283.27874126071032
 30
0.0
 40
1.675015999999999
 50
89.746145000002883
 51
270.25386999999932
  0
ARC
  5
16BD7
  8
AM_0
 10
159.29549385822131
 20
283.23370126071029
 30
0.0
 40
1.000013899999999
 50
89.69165999999926
 51
270.30834000000073
  0
LINE
  5
16BD8
  8
AM_0
 10
144.75087385822121
 20
273.86370126071029
 30
0.0
 11
144.75087385822121
 21
272.4937112607102
 31
0.0
  0
ARC
  5
16BD9
  8
AM_0
 10
146.75105385822121
 20
271.23382126071022
 30
0.0
 40
0.9998289899999999
 50
359.99019000000038
 51
90.009811000000937
  0
LINE
  5
16BDA
  8
AM_0
 10
146.75087385822121
 20
272.23370126071029
 30
0.0
 11
143.75087385822121
 21
272.23370126071029
 31
0.0
  0
ARC
  5
16BDB
  8
AM_0
 10
146.74593385822121
 20
275.23858126071019
 30
0.0
 40
1.004942999999999
 50
270.28111000000013
 51
359.71888999999987
  0
LINE
  5
16BDC
  8
AM_0
 10
146.75087385822121
 20
274.23370126071029
 30
0.0
 11
143.75087385822121
 21
274.23370126071029
 31
0.0
  0
ARC
  5
16BDD
  8
AM_0
 10
143.7459938582212
 20
273.23858126071019
 30
0.0
 40
0.99507803
 50
89.715887000001331
 51
180.28410999999991
  0
ARC
  5
16BDE
  8
AM_0
 10
143.75112385822109
 20
273.23394126071031
 30
0.0
 40
1.000203
 50
180.01164999999551
 51
269.98835000000122
  0
ARC
  5
16BDF
  8
AM_0
 10
158.2108938582214
 20
273.25872126071039
 30
0.0
 40
1.4650039999999991
 50
90.000002999999296
 51
270.0
  0
ARC
  5
16BE0
  8
AM_0
 10
147.04634385822109
 20
284.62823126071032
 30
0.0
 40
0.704566
 50
270.37010000000009
 51
359.62990999999778
  0
ARC
  5
16BE1
  8
AM_0
 10
146.75258385822119
 20
280.9753912607103
 30
0.0
 40
0.9982839799999999
 50
359.90142000000009
 51
90.098576000001316
  0
LINE
  5
16BE2
  8
AM_0
 10
144.95088385822109
 20
283.92364126071033
 30
0.0
 11
147.05086385822119
 21
283.92364126071033
 31
0.0
  0
LINE
  5
16BE3
  8
AM_0
 10
144.900903858221
 20
281.97369126071032
 30
0.0
 11
146.75087385822121
 21
281.97369126071032
 31
0.0
  0
LINE
  5
16BE4
  8
AM_0
 10
144.75087385822121
 20
283.62371126071019
 30
0.0
 11
144.75087385822121
 21
282.56365126071017
 31
0.0
  0
LINE
  5
16BE5
  8
AM_0
 10
144.5608738582211
 20
283.84371126071028
 30
0.0
 11
143.36092385822121
 21
283.33370126071031
 31
0.0
  0
LINE
  5
16BE6
  8
AM_0
 10
144.61086385822111
 20
281.93374126071018
 30
0.0
 11
143.4608938582212
 21
281.58373126071029
 31
0.0
  0
ARC
  5
16BE7
  8
AM_0
 10
144.9518638582212
 20
282.92828126071021
 30
0.0
 40
0.9954450099999999
 50
90.056904999999617
 51
113.127450000002
  0
ARC
  5
16BE8
  8
AM_0
 10
144.8900338582211
 20
280.9810112607102
 30
0.0
 40
0.9927430199999999
 50
89.374554999998793
 51
106.3320700000024
  0
ARC
  5
16BE9
  8
AM_0
 10
143.74727385822109
 20
282.41521126071029
 30
0.0
 40
0.9963999999999998
 50
112.8173600000008
 51
180.0904199999996
  0
ARC
  5
16BEA
  8
AM_0
 10
143.747153858221
 20
280.62945126071031
 30
0.0
 40
0.9962710099999999
 50
106.6979199999999
 51
180.33004999999989
  0
POLYLINE
  5
16BEB
  8
AM_0
 66
     1
 10
0.0
 20
0.0
 30
0.0
  0
VERTEX
  5
16BEC
  8
AM_0
 10
160.61177385822131
 20
274.71673126071028
 30
0.0
 42
-0.00068898288
  0
VERTEX
  5
16BED
  8
AM_0
 10
160.6826538582213
 20
275.29148126071033
 30
0.0
 42
-0.00070644354
  0
VERTEX
  5
16BEE
  8
AM_0
 10
160.75515385822109
 20
275.8661712607103
 30
0.0
 42
-0.00069248071
  0
VERTEX
  5
16BEF
  8
AM_0
 10
160.82924385822139
 20
276.44048126071033
 30
0.0
 42
-0.00069585665
  0
VERTEX
  5
16BF0
  8
AM_0
 10
160.90492385822131
 20
277.01462126071033
 30
0.0
 42
-0.00068980191
  0
VERTEX
  5
16BF1
  8
AM_0
 10
160.9822238582212
 20
277.58862126071028
 30
0.0
 42
-0.00072080104
  0
VERTEX
  5
16BF2
  8
AM_0
 10
161.0611138582214
 20
278.1624112607102
 30
0.0
 42
-0.00071002307
  0
VERTEX
  5
16BF3
  8
AM_0
 10
161.14165385822139
 20
278.73588126071019
 30
0.0
 42
-0.00072659056
  0
VERTEX
  5
16BF4
  8
AM_0
 10
161.22381385822129
 20
279.30898126071031
 30
0.0
 42
-0.00069570481
  0
VERTEX
  5
16BF5
  8
AM_0
 10
161.30763385822141
 20
279.88201126071033
 30
0.0
 42
-0.00071266935
  0
VERTEX
  5
16BF6
  8
AM_0
 10
161.39306385822141
 20
280.45478126071032
 30
0.0
 42
-0.00071614426
  0
VERTEX
  5
16BF7
  8
AM_0
 10
161.4800938582213
 20
281.02712126071032
 30
0.0
 42
-0.00072288975
  0
VERTEX
  5
16BF8
  8
AM_0
 10
161.56880385822129
 20
281.5994212607103
 30
0.0
  0
SEQEND
  5
16BF9
  8
AM_0
  0
ARC
  5
16BFA
  8
AM_0
 10
193.18959385822129
 20
253.23370126071029
 30
0.0
 40
1.000005699999998
 50
269.999989999999
 51
90.000002999999296
  0
ARC
  5
16BFB
  8
AM_0
 10
193.18959385822129
 20
263.23370126071029
 30
0.0
 40
1.000005699999998
 50
269.999989999999
 51
90.000002999999296
  0
ARC
  5
16BFC
  8
AM_0
 10
194.47780385822119
 20
253.24371126071031
 30
0.0
 40
1.2700266
 50
269.6293199999983
 51
90.370670000006356
  0
ARC
  5
16BFD
  8
AM_0
 10
194.415853858221
 20
263.24871126071019
 30
0.0
 40
1.3350147999999991
 50
269.7304299999999
 51
90.269556000003007
  0
ARC
  5
16BFE
  8
AM_0
 10
243.75087385822121
 20
215.7337012607104
 30
0.0
 40
1.4999999999999989
 50
179.999989999999
 51
270.0
  0
ARC
  5
16BFF
  8
AM_0
 10
243.75087385822121
 20
220.7337012607104
 30
0.0
 40
1.4999999999999989
 50
90.000002999999296
 51
180.000010000001
  0
LINE
  5
16C00
  8
AM_0
 10
258.09090385822128
 20
214.2337012607104
 30
0.0
 11
213.75087385822121
 21
214.2337012607104
 31
0.0
  0
LINE
  5
16C01
  8
AM_0
 10
258.09090385822128
 20
212.23370126071029
 30
0.0
 11
213.75087385822121
 21
212.23370126071029
 31
0.0
  0
LINE
  5
16C02
  8
AM_0
 10
213.75087385822121
 20
211.51373126071019
 30
0.0
 11
261.57088385822141
 21
211.51373126071019
 31
0.0
  0
ARC
  5
16C03
  8
AM_0
 10
225.7708938582214
 20
215.87371126071031
 30
0.0
 40
0.9999999999999998
 50
269.999989999999
 51
0.0000006832495117
  0
ARC
  5
16C04
  8
AM_0
 10
225.7508738582211
 20
215.7337012607104
 30
0.0
 40
1.4999999999999989
 50
269.999989999999
 51
0.0000006832495117
  0
ARC
  5
16C05
  8
AM_0
 10
225.7508738582211
 20
220.7337012607104
 30
0.0
 40
1.019999999999998
 50
0.000000000000007
 51
90.000002999999296
  0
ARC
  5
16C06
  8
AM_0
 10
225.7508738582211
 20
220.7337012607104
 30
0.0
 40
1.4999999999999989
 50
0.000000000000007
 51
90.000002999999296
  0
LINE
  5
16C07
  8
AM_0
 10
227.25087385822121
 20
220.7337012607104
 30
0.0
 11
227.25087385822121
 21
215.7337012607104
 31
0.0
  0
CIRCLE
  5
16C08
  8
AM_0
 10
232.2508738582211
 20
219.73370126071029
 30
0.0
 40
1.149999999999999
  0
CIRCLE
  5
16C09
  8
AM_0
 10
232.2508738582211
 20
219.73370126071029
 30
0.0
 40
1.0999999999999981
  0
LINE
  5
16C0A
  8
AM_0
 10
226.7708938582214
 20
220.7337012607104
 30
0.0
 11
226.7708938582214
 21
215.87371126071031
 31
0.0
  0
LINE
  5
16C0B
  8
AM_0
 10
242.2508738582211
 20
220.7337012607104
 30
0.0
 11
242.2508738582211
 21
215.7337012607104
 31
0.0
  0
CIRCLE
  5
16C0C
  8
AM_0
 10
237.25087385822121
 20
219.73370126071029
 30
0.0
 40
0.9999999999999998
  0
ARC
  5
16C0D
  8
AM_0
 10
258.09084385822138
 20
223.2337012607104
 30
0.0
 40
1.0000255999999981
 50
269.5894700000016
 51
90.410530999997775
  0
ARC
  5
16C0E
  8
AM_0
 10
261.79085385822123
 20
223.20367126071031
 30
0.0
 40
1.460011199999999
 50
269.77524999999503
 51
90.224749999995225
  0
LINE
  5
16C0F
  8
AM_0
 10
243.75087385822121
 20
221.75372126071039
 30
0.0
 11
261.78511385822139
 21
221.75372126071039
 31
0.0
  0
LINE
  5
16C10
  8
AM_0
 10
261.57088385822141
 20
214.86370126071029
 30
0.0
 11
243.73085385822131
 21
214.86370126071029
 31
0.0
  0
LINE
  5
16C11
  8
AM_0
 10
258.08370385822133
 20
222.2337012607104
 30
0.0
 11
243.75087385822121
 21
222.2337012607104
 31
0.0
  0
LINE
  5
16C12
  8
AM_0
 10
242.730853858221
 20
220.7337012607104
 30
0.0
 11
242.730853858221
 21
215.87371126071031
 31
0.0
  0
ARC
  5
16C13
  8
AM_0
 10
243.73085385822131
 20
215.87371126071031
 30
0.0
 40
0.9999999999999998
 50
179.999989999999
 51
270.0
  0
ARC
  5
16C14
  8
AM_0
 10
243.75087385822121
 20
220.7337012607104
 30
0.0
 40
1.019999999999998
 50
90.000002999999296
 51
180.000010000001
  0
ARC
  5
16C15
  8
AM_0
 10
258.09090385822128
 20
213.2337012607104
 30
0.0
 40
0.9999999999999998
 50
269.999989999999
 51
90.000002999999296
  0
ARC
  5
16C16
  8
AM_0
 10
261.57088385822141
 20
213.1886512607104
 30
0.0
 40
1.675001999999999
 50
269.999989999999
 51
90.000002999999296
  0
ARC
  5
16C17
  8
AM_0
 10
264.40407385822118
 20
208.5109212607104
 30
0.0
 40
1.502775999999999
 50
90.122413000003235
 51
165.24357000000049
  0
ARC
  5
16C18
  8
AM_0
 10
243.75087385822121
 20
280.73370126071029
 30
0.0
 40
1.4999999999999989
 50
90.000002999999296
 51
180.000010000001
  0
ARC
  5
16C19
  8
AM_0
 10
243.75087385822121
 20
275.73370126071029
 30
0.0
 40
1.4999999999999989
 50
179.999989999999
 51
270.0
  0
ARC
  5
16C1A
  8
AM_0
 10
225.7508738582211
 20
280.73370126071029
 30
0.0
 40
1.4999999999999989
 50
0.000000000000007
 51
90.000002999999296
  0
ARC
  5
16C1B
  8
AM_0
 10
225.7708938582214
 20
280.59368126071018
 30
0.0
 40
0.9999999999999998
 50
0.000000000000007
 51
90.000002999999296
  0
ARC
  5
16C1C
  8
AM_0
 10
225.7508738582211
 20
275.73370126071029
 30
0.0
 40
1.4999999999999989
 50
269.999989999999
 51
0.0000006832495117
  0
ARC
  5
16C1D
  8
AM_0
 10
225.7508738582211
 20
275.73370126071029
 30
0.0
 40
1.019999999999998
 50
269.999989999999
 51
0.0000006832429979
  0
CIRCLE
  5
16C1E
  8
AM_0
 10
232.2508738582211
 20
276.73370126071029
 30
0.0
 40
1.149999999999999
  0
LINE
  5
16C1F
  8
AM_0
 10
242.2508738582211
 20
275.73370126071029
 30
0.0
 11
242.2508738582211
 21
280.73370126071029
 31
0.0
  0
CIRCLE
  5
16C20
  8
AM_0
 10
232.2508738582211
 20
276.73370126071029
 30
0.0
 40
1.0999999999999981
  0
CIRCLE
  5
16C21
  8
AM_0
 10
237.25087385822121
 20
276.73370126071029
 30
0.0
 40
0.9999999999999998
  0
LINE
  5
16C22
  8
AM_0
 10
226.7708938582214
 20
275.73370126071029
 30
0.0
 11
226.7708938582214
 21
280.59368126071018
 31
0.0
  0
LINE
  5
16C23
  8
AM_0
 10
227.25087385822121
 20
275.73370126071029
 30
0.0
 11
227.25087385822121
 21
280.73370126071029
 31
0.0
  0
LINE
  5
16C24
  8
AM_0
 10
243.75087385822121
 20
274.72369126071032
 30
0.0
 11
261.7965338582211
 21
274.72369126071032
 31
0.0
  0
LINE
  5
16C25
  8
AM_0
 10
243.73085385822131
 20
281.59368126071018
 30
0.0
 11
261.57088385822141
 21
281.59368126071018
 31
0.0
  0
LINE
  5
16C26
  8
AM_0
 10
242.730853858221
 20
275.73370126071029
 30
0.0
 11
242.730853858221
 21
280.59368126071018
 31
0.0
  0
LINE
  5
16C27
  8
AM_0
 10
258.09804385822139
 20
274.23370126071029
 30
0.0
 11
243.75087385822121
 21
274.23370126071029
 31
0.0
  0
ARC
  5
16C28
  8
AM_0
 10
243.75087385822121
 20
275.73370126071029
 30
0.0
 40
1.019999999999998
 50
179.999989999999
 51
270.0
  0
ARC
  5
16C29
  8
AM_0
 10
258.09084385822138
 20
273.23370126071029
 30
0.0
 40
1.0000255999999981
 50
269.5894700000016
 51
90.410530999997775
  0
ARC
  5
16C2A
  8
AM_0
 10
243.73085385822131
 20
280.59368126071018
 30
0.0
 40
0.9999999999999998
 50
90.000002999999296
 51
180.000010000001
  0
ARC
  5
16C2B
  8
AM_0
 10
258.09090385822128
 20
283.23370126071029
 30
0.0
 40
0.9999999999999998
 50
269.999989999999
 51
90.000002999999296
  0
ARC
  5
16C2C
  8
AM_0
 10
261.79085385822123
 20
273.26373126071019
 30
0.0
 40
1.460011199999999
 50
269.77524999999503
 51
90.224749999995225
  0
ARC
  5
16C2D
  8
AM_0
 10
264.40407385822118
 20
287.95648126071029
 30
0.0
 40
1.502775999999999
 50
194.75642999999951
 51
269.87757999999872
  0
ARC
  5
16C2E
  8
AM_0
 10
261.57088385822141
 20
283.27874126071032
 30
0.0
 40
1.675001999999999
 50
269.999989999999
 51
90.000002999999296
  0
LINE
  5
16C2F
  8
AM_0
 10
159.9608938582214
 20
304.51373126071019
 30
0.0
 11
256.8808838582213
 21
304.51373126071019
 31
0.0
  0
LINE
  5
16C30
  8
AM_0
 10
160.00087385822141
 20
307.36370126071029
 30
0.0
 11
256.8808838582213
 21
307.36370126071029
 31
0.0
  0
LINE
  5
16C31
  8
AM_0
 10
160.0208938582214
 20
309.21368126071042
 30
0.0
 11
256.8808838582213
 21
309.21368126071042
 31
0.0
  0
LINE
  5
16C32
  8
AM_0
 10
160.040853858221
 20
310.12371126071019
 30
0.0
 11
256.88094385822131
 21
310.12371126071019
 31
0.0
  0
ARC
  5
16C33
  8
AM_0
 10
160.01546385822141
 20
307.21697126071018
 30
0.0
 40
1.996732999999999
 50
89.843966999997292
 51
171.4538799999973
  0
ARC
  5
16C34
  8
AM_0
 10
160.03737385822129
 20
308.12811126071028
 30
0.0
 40
1.9956329999999991
 50
89.899708000000672
 51
172.06112999999951
  0
ARC
  5
16C35
  8
AM_0
 10
160.00112385822101
 20
305.36846126071021
 30
0.0
 40
1.9952829999999979
 50
90.00620399999849
 51
170.90835000000069
  0
ARC
  5
16C36
  8
AM_0
 10
159.94960385822131
 20
302.51959126071017
 30
0.0
 40
1.994108999999999
 50
89.675548000002763
 51
169.18776999999869
  0
LINE
  5
16C37
  8
AM_0
 10
156.75087385822141
 20
297.67373126071033
 30
0.0
 11
158.03084385822109
 21
305.68368126071027
 31
0.0
  0
LINE
  5
16C38
  8
AM_0
 10
156.75087385822141
 20
296.33373126071029
 30
0.0
 11
157.9908638582215
 21
302.89370126071037
 31
0.0
  0
LINE
  5
16C39
  8
AM_0
 10
149.4508838582212
 20
291.42364126071021
 30
0.0
 11
155.6808638582213
 21
291.42364126071021
 31
0.0
  0
LINE
  5
16C3A
  8
AM_0
 10
144.75087385822121
 20
295.63372126071022
 30
0.0
 11
144.75087385822121
 21
295.08367126071028
 31
0.0
  0
LINE
  5
16C3B
  8
AM_0
 10
144.5108238582213
 20
295.73376126071031
 30
0.0
 11
143.2308538582212
 21
294.96374126071032
 31
0.0
  0
ARC
  5
16C3C
  8
AM_0
 10
146.7485538582211
 20
289.22137126071033
 30
0.0
 40
1.002353
 50
0.1343268199984508
 51
89.865672999999404
  0
LINE
  5
16C3D
  8
AM_0
 10
145.05092385822101
 20
291.36370126071029
 30
0.0
 11
147.75087385822121
 21
291.36370126071029
 31
0.0
  0
LINE
  5
16C3E
  8
AM_0
 10
145.02089385822109
 20
290.22369126071032
 30
0.0
 11
146.75087385822121
 21
290.22369126071032
 31
0.0
  0
ARC
  5
16C3F
  8
AM_0
 10
146.75185385822101
 20
293.73467126071017
 30
0.0
 40
0.9990100299999999
 50
359.94319000000132
 51
90.056809000000058
  0
LINE
  5
16C40
  8
AM_0
 10
145.0008738582211
 20
294.73370126071029
 30
0.0
 11
146.75087385822121
 21
294.73370126071029
 31
0.0
  0
LINE
  5
16C41
  8
AM_0
 10
144.75087385822121
 20
291.06365126071017
 30
0.0
 11
144.75087385822121
 21
290.5936812607103
 31
0.0
  0
LINE
  5
16C42
  8
AM_0
 10
144.50081385822131
 20
291.19372126071028
 30
0.0
 11
143.2008238582211
 21
290.34374126071032
 31
0.0
  0
LINE
  5
16C43
  8
AM_0
 10
144.52083385822129
 20
290.08373126071029
 30
0.0
 11
143.24086385822119
 21
289.33373126071029
 31
0.0
  0
LINE
  5
16C44
  8
AM_0
 10
144.53090385822111
 20
294.62374126071029
 30
0.0
 11
143.280903858221
 21
293.95373126071041
 31
0.0
  0
ARC
  5
16C45
  8
AM_0
 10
145.0575138582212
 20
290.36748126071029
 30
0.0
 40
0.99617702
 50
90.381317999999197
 51
123.9704899999973
  0
ARC
  5
16C46
  8
AM_0
 10
145.030293858221
 20
289.22723126071043
 30
0.0
 40
0.99648702
 50
90.540720999998626
 51
120.74376999999789
  0
ARC
  5
16C47
  8
AM_0
 10
144.98598385822129
 20
293.73833126071031
 30
0.0
 40
0.99545902
 50
89.141290999999939
 51
117.2038199999988
  0
ARC
  5
16C48
  8
AM_0
 10
147.24629385822121
 20
298.48833126071031
 30
0.0
 40
0.50463498
 50
270.52383000000037
 51
359.47616999999963
  0
LINE
  5
16C49
  8
AM_0
 10
147.75087385822121
 20
298.23370126071029
 30
0.0
 11
148.75087385822121
 21
298.23370126071029
 31
0.0
  0
ARC
  5
16C4A
  8
AM_0
 10
147.25258385822119
 20
296.33538126071028
 30
0.0
 40
0.4983060100000002
 50
359.80488999999778
 51
90.195107000000036
  0
LINE
  5
16C4B
  8
AM_0
 10
145.02089385822109
 20
297.98370126071029
 30
0.0
 11
147.2508738582211
 21
297.98370126071029
 31
0.0
  0
LINE
  5
16C4C
  8
AM_0
 10
145.03090385822111
 20
295.87371126071031
 30
0.0
 11
147.75087385822121
 21
295.87371126071031
 31
0.0
  0
LINE
  5
16C4D
  8
AM_0
 10
144.99086385822119
 20
296.83367126071028
 30
0.0
 11
147.2508738582211
 21
296.83367126071028
 31
0.0
  0
LINE
  5
16C4E
  8
AM_0
 10
144.5408538582212
 20
296.73370126071029
 30
0.0
 11
143.30086385822119
 21
296.10369126071032
 31
0.0
  0
LINE
  5
16C4F
  8
AM_0
 10
144.75087385822121
 20
297.73370126071029
 30
0.0
 11
144.75087385822121
 21
297.20367126071028
 31
0.0
  0
LINE
  5
16C50
  8
AM_0
 10
144.52089385822109
 20
297.85366126071028
 30
0.0
 11
143.250933858221
 21
297.1136712607103
 31
0.0
  0
ARC
  5
16C51
  8
AM_0
 10
145.01290385822099
 20
296.98785126071027
 30
0.0
 40
0.9959030199999999
 50
89.541266999999138
 51
119.6071699999986
  0
ARC
  5
16C52
  8
AM_0
 10
145.01973385822109
 20
294.8794512607102
 30
0.0
 40
0.99427301
 50
89.356066000000055
 51
120.7809100000017
  0
ARC
  5
16C53
  8
AM_0
 10
144.9756638582212
 20
295.83965126071018
 30
0.0
 40
0.99411702
 50
89.122643999998544
 51
115.9349799999988
  0
ARC
  5
16C54
  8
AM_0
 10
143.7464838582211
 20
295.21343126071031
 30
0.0
 40
0.995579
 50
116.5870899999978
 51
179.98263999999989
  0
ARC
  5
16C55
  8
AM_0
 10
143.7456838582211
 20
289.5112812607104
 30
0.0
 40
0.9948369899999999
 50
123.20496000000099
 51
180.4378599999981
  0
ARC
  5
16C56
  8
AM_0
 10
143.74495385822109
 20
288.47686126071028
 30
0.0
 40
0.99404597
 50
120.4681999999988
 51
180.18564000000029
  0
ARC
  5
16C57
  8
AM_0
 10
143.74410385822119
 20
293.07513126071029
 30
0.0
 40
0.9932109699999999
 50
117.79932000000061
 51
180.08187000000001
  0
ARC
  5
16C58
  8
AM_0
 10
143.7453238582211
 20
294.11272126071032
 30
0.0
 40
0.9944329899999999
 50
121.1521299999998
 51
179.94050999999911
  0
ARC
  5
16C59
  8
AM_0
 10
143.74410385822119
 20
296.2516412607103
 30
0.0
 40
0.99319202
 50
119.77338000000159
 51
179.87958999999799
  0
LINE
  5
16C5A
  8
AM_0
 10
148.75087385822121
 20
301.23370126071029
 30
0.0
 11
156.75087385822121
 21
301.23370126071029
 31
0.0
  0
LINE
  5
16C5B
  8
AM_0
 10
156.75087385822141
 20
299.02371126071017
 30
0.0
 11
158.0408538582212
 21
307.5136712607104
 31
0.0
  0
LINE
  5
16C5C
  8
AM_0
 10
156.75087385822141
 20
299.02371126071017
 30
0.0
 11
158.06087385822141
 21
308.40374126071032
 31
0.0
  0
ARC
  5
16C5D
  8
AM_0
 10
256.8760538582211
 20
308.11895126071039
 30
0.0
 40
2.0047289999999989
 50
15.17349599999655
 51
89.861678000000197
  0
ARC
  5
16C5E
  8
AM_0
 10
256.8760538582211
 20
307.20892126071033
 30
0.0
 40
2.0047289999999989
 50
15.17349599999655
 51
89.861678000000197
  0
LINE
  5
16C5F
  8
AM_0
 10
262.95662385822141
 20
293.16253126071041
 30
0.0
 11
258.81090385822108
 21
308.6436412607103
 31
0.0
  0
LINE
  5
16C60
  8
AM_0
 10
262.95659385822142
 20
292.25253126071033
 30
0.0
 11
258.81087385822138
 21
307.73364126071021
 31
0.0
  0
LINE
  5
16C61
  8
AM_0
 10
262.95659385822142
 20
290.40255126071031
 30
0.0
 11
258.81087385822138
 21
305.88369126071018
 31
0.0
  0
ARC
  5
16C62
  8
AM_0
 10
256.88094385822131
 20
302.51544126071019
 30
0.0
 40
1.9982919999999991
 50
15.03254799999622
 51
90.002632000002976
  0
ARC
  5
16C63
  8
AM_0
 10
256.8760538582211
 20
305.35894126071031
 30
0.0
 40
2.0047289999999989
 50
15.17349599999655
 51
89.861678000000197
  0
ARC
  5
16C64
  8
AM_0
 10
264.40407385822118
 20
292.65643126071029
 30
0.0
 40
1.502775999999999
 50
194.75642999999951
 51
269.87757999999872
  0
ARC
  5
16C65
  8
AM_0
 10
264.40407385822118
 20
290.80645126071028
 30
0.0
 40
1.502775999999999
 50
194.75642999999951
 51
269.87757999999872
  0
ARC
  5
16C66
  8
AM_0
 10
264.40407385822118
 20
293.5664612607103
 30
0.0
 40
1.502775999999999
 50
194.75642999999951
 51
269.87757999999872
  0
LINE
  5
16C67
  8
AM_0
 10
259.29085385822123
 20
301.23370126071029
 30
0.0
 11
264.75087385822121
 21
301.23370126071029
 31
0.0
  0
LINE
  5
16C68
  8
AM_0
 10
243.75087385822121
 20
181.2336412607103
 30
0.0
 11
244.0316129812845
 21
191.95367126071031
 31
0.0
  0
LINE
  5
16C69
  8
AM_0
 10
183.75081385822131
 20
181.2336712607102
 30
0.0
 11
183.47014967088219
 21
191.95367126071011
 31
0.0
  0
CIRCLE
  5
16FCD
  8
AM_0
 10
383.25697993684588
 20
248.23370126071029
 30
0.0
 40
2.5
  0
LINE
  5
16FCE
  8
ｶｸﾚｾﾝ2
 10
298.02830677802319
 20
297.23370126070989
 30
0.0
 11
296.37441847092401
 21
293.50672764250561
 31
0.0
  0
LINE
  5
16FD0
  8
ｶｸﾚｾﾝ2
 10
298.02830677802342
 20
199.23370126071021
 30
0.0
 11
296.37441847092401
 21
202.96067487891489
 31
0.0
  0
LINE
  5
1719A
  8
AM_0
 10
433.15731260127188
 20
480.4978072020138
 30
0.0
 11
298.35664596158051
 21
480.4978072020138
 31
0.0
  0
LINE
  5
1719B
  8
ﾁｭｳｼﾝｾﾝ1
 10
136.2508738582211
 20
518.49782827936906
 30
0.0
 11
439.25698145676421
 21
518.497784829794
 31
0.0
1001
GENIUS_GENODEF_13
1002
{
1000
HIER
1070
     0
1002
}
1002
{
1000
MANEDIT
1070
     0
1002
}
1002
{
1000
NOSEL
1070
     0
1002
}
1002
{
1000
BEHIND
1070
     0
1002
}
1002
{
1000
REACTOR
1002
}
1001
GENIUS_GENOBJ-N-CEN_13
1002
{
1000
OWNER
1000
GEN
1002
}
  0
LINE
  5
1719C
  8
AM_0
 10
140.2569773738461
 20
533.71966055475946
 30
0.0
 11
140.2569773738461
 21
503.27602652155662
 31
0.0
  0
ARC
  5
1719D
  8
AM_0
 10
146.7508738582211
 20
505.49782827936889
 30
0.0
 40
1.0
 50
269.9999969999958
 51
0.0
  0
ARC
  5
1719E
  8
AM_0
 10
143.7508738582211
 20
503.49782827936878
 30
0.0
 40
1.0
 50
90.0
 51
180.00001000000091
  0
LINE
  5
1719F
  8
AM_0
 10
142.7508738582211
 20
470.48146827936921
 30
0.0
 11
142.7508738582211
 21
513.49783827936915
 31
0.0
  0
LINE
  5
171A0
  8
AM_0
 10
147.7508738582211
 20
468.49783827936898
 30
0.0
 11
147.7508738582211
 21
569.6210572793691
 31
0.0
  0
LINE
  5
171A1
  8
AM_0
 10
141.2508738582211
 20
498.49783827936909
 30
0.0
 11
141.2508738582211
 21
538.49781827936886
 31
0.0
  0
LINE
  5
171A2
  8
AM_0
 10
148.7508738582211
 20
465.49783827936892
 30
0.0
 11
148.7508738582211
 21
571.49781927936931
 31
0.0
  0
LINE
  5
171A3
  8
AM_0
 10
144.51863385822099
 20
568.11298527936924
 30
0.0
 11
143.25044385822099
 21
567.38000627936913
 31
0.0
  0
LINE
  5
171A4
  8
AM_0
 10
147.7508738582211
 20
568.49781927936931
 30
0.0
 11
148.7508738582211
 21
568.49781927936931
 31
0.0
  0
LINE
  5
171A5
  8
AM_0
 10
145.0190638582211
 20
568.24721627936924
 30
0.0
 11
147.2508738582211
 21
568.24721627936924
 31
0.0
  0
ARC
  5
171A6
  8
AM_0
 10
147.2508738582211
 20
568.74720927936892
 30
0.0
 40
0.5
 50
269.9999969999958
 51
0.0
  0
ARC
  5
171A7
  8
AM_0
 10
145.0190638582211
 20
567.24720927936892
 30
0.0
 40
1.0
 50
90.0
 51
120.0263999999965
  0
LINE
  5
171A8
  8
AM_0
 10
140.25700789142419
 20
533.71966055475946
 30
0.0
 11
140.75700789142419
 21
536.48964956843145
 31
0.0
  0
LINE
  5
171A9
  8
AM_0
 10
142.7508738582211
 20
566.51423727936913
 30
0.0
 11
142.7508738582211
 21
523.4978182793692
 31
0.0
  0
ARC
  5
171AA
  8
AM_0
 10
146.7508738582211
 20
551.2409982793688
 30
0.0
 40
1.0
 50
0.0
 51
90.0
  0
ARC
  5
171AB
  8
AM_0
 10
144.90120385822109
 20
551.2409982793688
 30
0.0
 40
1.0
 50
90.0
 51
107.0976300000045
  0
ARC
  5
171AC
  8
AM_0
 10
146.7508738582211
 20
559.48275927936902
 30
0.0
 40
1.0
 50
0.0
 51
90.0
  0
LINE
  5
171AD
  8
AM_0
 10
144.5168038582211
 20
560.3456582793691
 30
0.0
 11
143.24544385822119
 21
559.60097627936898
 31
0.0
  0
ARC
  5
171AE
  8
AM_0
 10
143.7508738582211
 20
559.77119527936884
 30
0.0
 40
1.0
 50
123.2547200000059
 51
180.00001000000091
  0
LINE
  5
171AF
  8
AM_0
 10
144.53121385822109
 20
564.883027279369
 30
0.0
 11
143.2826138582212
 21
564.22116227936897
 31
0.0
  0
LINE
  5
171B0
  8
AM_0
 10
144.53749385822121
 20
566.99256227936905
 30
0.0
 11
143.2982338582211
 21
566.36353427936911
 31
0.0
  0
LINE
  5
171B1
  8
AM_0
 10
144.50112385822109
 20
561.45899327936922
 30
0.0
 11
143.2024738582212
 21
560.60743027936905
 31
0.0
  0
LINE
  5
171B2
  8
AM_0
 10
144.51332385822101
 20
565.99691927936931
 30
0.0
 11
143.2364138582212
 21
565.23067627936905
 31
0.0
  0
ARC
  5
171B3
  8
AM_0
 10
143.7508738582211
 20
564.37318527936884
 30
0.0
 40
1.0
 50
120.96660000000119
 51
180.00001000000091
  0
ARC
  5
171B4
  8
AM_0
 10
143.7508738582211
 20
563.33760927936885
 30
0.0
 40
1.0
 50
117.926589999999
 51
180.00001000000091
  0
ARC
  5
171B5
  8
AM_0
 10
143.7508738582211
 20
565.47188727936884
 30
0.0
 40
1.0
 50
116.91125000000299
 51
180.00001000000091
  0
ARC
  5
171B6
  8
AM_0
 10
143.7508738582211
 20
566.51423727936867
 30
0.0
 40
1.0
 50
120.0263900000046
 51
180.00001000000091
  0
LINE
  5
171B7
  8
AM_0
 10
144.9901338582211
 20
567.10090727936893
 30
0.0
 11
147.2508738582211
 21
567.10090727936893
 31
0.0
  0
LINE
  5
171B8
  8
AM_0
 10
144.99953385822101
 20
564.99947527936899
 30
0.0
 11
146.7508738582211
 21
564.99947527936899
 31
0.0
  0
LINE
  5
171B9
  8
AM_0
 10
145.02217385822121
 20
560.48274327936895
 30
0.0
 11
146.7508738582211
 21
560.48274327936895
 31
0.0
  0
LINE
  5
171BA
  8
AM_0
 10
145.04952385822099
 20
561.62275827936924
 30
0.0
 11
147.7508738582211
 21
561.62275827936924
 31
0.0
  0
LINE
  5
171BB
  8
AM_0
 10
145.0279138582209
 20
566.13948927936906
 30
0.0
 11
147.7508738582211
 21
566.13948927936906
 31
0.0
  0
ARC
  5
171BC
  8
AM_0
 10
147.2508738582211
 20
566.60091527936902
 30
0.0
 40
0.5
 50
0.0
 51
90.0
  0
ARC
  5
171BD
  8
AM_0
 10
146.7508738582211
 20
563.99946727936879
 30
0.0
 40
1.0
 50
0.0
 51
90.0
  0
LINE
  5
171BE
  8
AM_0
 10
144.7508738582211
 20
565.89438027936933
 30
0.0
 11
144.7508738582211
 21
565.34835927936911
 31
0.0
  0
LINE
  5
171BF
  8
AM_0
 10
144.7508738582211
 20
561.3282792793691
 30
0.0
 11
144.7508738582211
 21
560.85616427936907
 31
0.0
  0
ARC
  5
171C0
  8
AM_0
 10
145.02217385822121
 20
559.48275927936902
 30
0.0
 40
1.0
 50
90.0
 51
120.3595000000043
  0
ARC
  5
171C1
  8
AM_0
 10
145.04952385822099
 20
560.62277327936874
 30
0.0
 40
1.0
 50
90.0
 51
123.2547299999989
  0
ARC
  5
171C2
  8
AM_0
 10
144.9995338582211
 20
563.99946727936879
 30
0.0
 40
1.0
 50
90.0
 51
117.9266000000051
  0
ARC
  5
171C3
  8
AM_0
 10
145.0279138582211
 20
565.13948227936874
 30
0.0
 40
1.0
 50
90.0
 51
120.96660000000119
  0
ARC
  5
171C4
  8
AM_0
 10
144.99013385822121
 20
566.100923279369
 30
0.0
 40
1.0
 50
90.0
 51
116.9112600000018
  0
LINE
  5
171C5
  8
AM_0
 10
144.7508738582211
 20
567.99398127936911
 30
0.0
 11
144.7508738582211
 21
567.46821727936913
 31
0.0
  0
LINE
  5
171C6
  8
AM_0
 10
144.56276385822099
 20
554.10672927936912
 30
0.0
 11
143.35805385822101
 21
553.59221727936915
 31
0.0
  0
ARC
  5
171C7
  8
AM_0
 10
143.7508738582211
 20
552.67256327936889
 30
0.0
 40
1.0
 50
113.1270199999952
 51
180.00001000000091
  0
LINE
  5
171C8
  8
AM_0
 10
143.24544385822119
 20
559.60093827936885
 30
0.0
 11
143.22188385822099
 21
559.58711327936885
 31
0.0
  0
ARC
  5
171C9
  8
AM_0
 10
143.7508738582211
 20
558.73806927936903
 30
0.0
 40
1.0
 50
120.35951000000171
 51
180.00001000000091
  0
ARC
  5
171CA
  8
AM_0
 10
143.7508738582211
 20
558.73806927936903
 30
0.0
 40
1.0
 50
120.35951000000171
 51
180.00001000000091
  0
LINE
  5
171CB
  8
AM_0
 10
144.90120385822101
 20
552.24098327936906
 30
0.0
 11
146.7508738582211
 21
552.24098327936906
 31
0.0
  0
LINE
  5
171CC
  8
AM_0
 10
144.9555238582212
 20
554.18709727936903
 30
0.0
 11
147.05086385822099
 21
554.18709727936903
 31
0.0
  0
ARC
  5
171CD
  8
AM_0
 10
147.05086385822111
 20
554.88704027936888
 30
0.0
 40
0.6999999900000002
 50
269.9999969999958
 51
0.0
  0
LINE
  5
171CE
  8
AM_0
 10
144.7508738582211
 20
553.89071827936914
 30
0.0
 11
144.7508738582211
 21
552.83076627936896
 31
0.0
  0
ARC
  5
171CF
  8
AM_0
 10
144.9555238582212
 20
553.18708927936882
 30
0.0
 40
1.0
 50
90.0
 51
113.1270299999955
  0
ARC
  5
171D0
  8
AM_0
 10
146.7508738582211
 20
559.48275927936902
 30
0.0
 40
1.0
 50
0.0
 51
25.363240000000559
  0
ARC
  5
171D1
  8
AM_0
 10
143.7508738582211
 20
543.49783827936892
 30
0.0
 40
1.0
 50
90.0
 51
180.00001000000091
  0
LINE
  5
171D2
  8
AM_0
 10
146.7508738582211
 20
544.49781827936908
 30
0.0
 11
143.7508738582211
 21
544.49781827936908
 31
0.0
  0
LINE
  5
171D3
  8
AM_0
 10
144.60719385822119
 20
552.19676327936918
 30
0.0
 11
143.45680385822109
 21
551.8429122793691
 31
0.0
  0
ARC
  5
171D4
  8
AM_0
 10
143.7508738582211
 20
550.88710127936884
 30
0.0
 40
1.0
 50
107.0976300000045
 51
180.00001000000091
  0
ARC
  5
171D5
  8
AM_0
 10
146.7508738582211
 20
545.49782827936895
 30
0.0
 40
1.0
 50
269.9999969999958
 51
0.0
  0
LINE
  5
171D6
  8
AM_0
 10
146.7508738582211
 20
542.49782827936895
 30
0.0
 11
143.7508738582211
 21
542.49782827936895
 31
0.0
  0
LINE
  5
171D7
  8
AM_0
 10
140.7569773738461
 20
536.48964956843145
 30
0.0
 11
141.25700789142411
 21
536.44964102350968
 31
0.0
  0
LINE
  5
171D8
  8
AM_0
 10
141.2509338582212
 20
538.49781827936886
 30
0.0
 11
142.7508738582211
 21
538.62904827936893
 31
0.0
  0
ARC
  5
171D9
  8
AM_0
 10
143.7508738582211
 20
543.49783827936892
 30
0.0
 40
1.0
 50
179.999989999999
 51
269.9999969999958
  0
LINE
  5
171DA
  8
AM_0
 10
144.7508738582211
 20
544.12405827936914
 30
0.0
 11
144.7508738582211
 21
542.76119827936895
 31
0.0
  0
ARC
  5
171DB
  8
AM_0
 10
146.7508738582211
 20
541.49781827936897
 30
0.0
 40
1.0
 50
0.0
 51
90.0
  0
LINE
  5
171DC
  8
AM_0
 10
141.2508738582211
 20
533.64785827936907
 30
0.0
 11
144.54457385822101
 21
533.64785827936907
 31
0.0
  0
LINE
  5
171DD
  8
AM_0
 10
146.7508738582211
 20
532.49781827936908
 30
0.0
 11
143.7508738582211
 21
532.49781827936908
 31
0.0
  0
LINE
  5
171DE
  8
AM_0
 10
146.7508738582211
 20
534.49783827936892
 30
0.0
 11
143.7508738582211
 21
534.49783827936892
 31
0.0
  0
ARC
  5
171DF
  8
AM_0
 10
143.7508738582211
 20
533.49782827936895
 30
0.0
 40
1.0
 50
179.999989999999
 51
269.9999969999958
  0
LINE
  5
171E0
  8
AM_0
 10
141.2508738582211
 20
535.77986827936911
 30
0.0
 11
142.7508738582211
 21
535.77986827936911
 31
0.0
  0
ARC
  5
171E1
  8
AM_0
 10
143.7508738582211
 20
533.49782827936895
 30
0.0
 40
1.0
 50
90.0
 51
180.00001000000091
  0
ARC
  5
171E2
  8
AM_0
 10
146.7508738582211
 20
531.49783827936892
 30
0.0
 40
1.0
 50
0.0
 51
90.0
  0
ARC
  5
171E3
  8
AM_0
 10
146.7508738582211
 20
535.49781827936874
 30
0.0
 40
1.0
 50
269.9999969999958
 51
0.0
  0
LINE
  5
171E4
  8
AM_0
 10
144.7508738582211
 20
534.10493827936898
 30
0.0
 11
144.7508738582211
 21
532.89357827936897
 31
0.0
  0
LINE
  5
171E5
  8
AM_0
 10
146.7508738582211
 20
522.49783827936915
 30
0.0
 11
143.7508738582211
 21
522.49783827936915
 31
0.0
  0
LINE
  5
171E6
  8
AM_0
 10
146.7508738582211
 20
524.49782827936917
 30
0.0
 11
143.7508738582211
 21
524.49782827936917
 31
0.0
  0
ARC
  5
171E7
  8
AM_0
 10
143.7508738582211
 20
523.49781827936874
 30
0.0
 40
1.0
 50
179.999989999999
 51
269.9999969999958
  0
ARC
  5
171E8
  8
AM_0
 10
143.7508738582211
 20
523.49781827936874
 30
0.0
 40
1.0
 50
90.0
 51
180.00001000000091
  0
ARC
  5
171E9
  8
AM_0
 10
146.7508738582211
 20
525.49783827936892
 30
0.0
 40
1.0
 50
269.9999969999958
 51
0.0
  0
ARC
  5
171EA
  8
AM_0
 10
146.7508738582211
 20
521.49782827936895
 30
0.0
 40
1.0
 50
0.0
 51
90.0
  0
LINE
  5
171EB
  8
AM_0
 10
144.7508738582211
 20
524.11110827936909
 30
0.0
 11
144.7508738582211
 21
522.95021827936921
 31
0.0
  0
ARC
  5
171EC
  8
AM_0
 10
146.7508738582211
 20
511.49782827936878
 30
0.0
 40
1.0
 50
0.0
 51
90.0
  0
ARC
  5
171ED
  8
AM_0
 10
143.7508738582211
 20
513.49783827936892
 30
0.0
 40
1.0
 50
179.999989999999
 51
269.9999969999958
  0
LINE
  5
171EE
  8
AM_0
 10
146.7508738582211
 20
514.49782827936906
 30
0.0
 11
143.7508738582211
 21
514.49782827936906
 31
0.0
  0
LINE
  5
171EF
  8
AM_0
 10
146.7508738582211
 20
512.49782827936917
 30
0.0
 11
143.7508738582211
 21
512.49782827936917
 31
0.0
  0
ARC
  5
171F0
  8
AM_0
 10
143.7508738582211
 20
513.49783827936892
 30
0.0
 40
1.0
 50
90.0
 51
180.00001000000091
  0
ARC
  5
171F1
  8
AM_0
 10
146.7508738582211
 20
515.49782827936895
 30
0.0
 40
1.0
 50
269.9999969999958
 51
0.0
  0
LINE
  5
171F2
  8
AM_0
 10
144.7508738582211
 20
512.88461827936919
 30
0.0
 11
144.7508738582211
 21
514.04550827936919
 31
0.0
  0
ARC
  5
171F3
  8
AM_0
 10
146.7508738582211
 20
472.99619827936891
 30
0.0
 40
1.0
 50
269.9999969999958
 51
0.0
  0
LINE
  5
171F4
  8
AM_0
 10
144.53121385822109
 20
472.11266827936907
 30
0.0
 11
143.28255385822109
 21
472.77452827936918
 31
0.0
  0
ARC
  5
171F5
  8
AM_0
 10
143.7508738582211
 20
473.65811827936892
 30
0.0
 40
1.0
 50
179.999989999999
 51
242.07339999999479
  0
LINE
  5
171F6
  8
AM_0
 10
141.2508738582211
 20
503.3477982793691
 30
0.0
 11
145.9283638582211
 21
503.34779827936899
 31
0.0
  0
LINE
  5
171F7
  8
AM_0
 10
146.7508738582211
 20
504.49783827936892
 30
0.0
 11
143.7508738582211
 21
504.49783827936909
 31
0.0
  0
LINE
  5
171F8
  8
AM_0
 10
146.7508738582211
 20
502.49782827936889
 30
0.0
 11
143.7508738582211
 21
502.49782827936912
 31
0.0
  0
LINE
  5
171F9
  8
AM_0
 10
140.75700789142419
 20
500.5060069903065
 30
0.0
 11
141.2569773738461
 21
500.54601553522849
 31
0.0
  0
LINE
  5
171FA
  8
AM_0
 10
140.2569773738461
 20
503.27599600397838
 30
0.0
 11
140.7569773738461
 21
500.5060069903065
 31
0.0
  0
LINE
  5
171FB
  8
AM_0
 10
141.2508738582211
 20
498.49783827936909
 30
0.0
 11
142.7508738582211
 21
498.36661827936899
 31
0.0
  0
LINE
  5
171FC
  8
AM_0
 10
141.2508738582211
 20
501.215858279369
 30
0.0
 11
142.7508738582211
 21
501.215858279369
 31
0.0
  0
ARC
  5
171FD
  8
AM_0
 10
143.7508738582211
 20
503.49782827936878
 30
0.0
 40
1.0
 50
179.999989999999
 51
269.9999969999958
  0
ARC
  5
171FE
  8
AM_0
 10
146.7508738582211
 20
501.49783827936892
 30
0.0
 40
1.0
 50
0.0
 51
90.0
  0
LINE
  5
171FF
  8
AM_0
 10
144.7508738582211
 20
502.890728279369
 30
0.0
 11
144.7508738582211
 21
504.10214827936909
 31
0.0
  0
LINE
  5
17200
  8
AM_0
 10
146.7508738582211
 20
494.49782827936889
 30
0.0
 11
143.7508738582211
 21
494.49782827936912
 31
0.0
  0
LINE
  5
17201
  8
AM_0
 10
146.7508738582211
 20
492.49783827936892
 30
0.0
 11
143.7508738582211
 21
492.49783827936909
 31
0.0
  0
ARC
  5
17202
  8
AM_0
 10
143.7508738582211
 20
493.49782827936878
 30
0.0
 40
1.0
 50
90.0
 51
180.00001000000091
  0
ARC
  5
17203
  8
AM_0
 10
143.7508738582211
 20
493.49782827936878
 30
0.0
 40
1.0
 50
179.999989999999
 51
269.9999969999958
  0
ARC
  5
17204
  8
AM_0
 10
146.7508738582211
 20
495.49783827936892
 30
0.0
 40
1.0
 50
269.9999969999958
 51
0.0
  0
LINE
  5
17205
  8
AM_0
 10
144.7508738582211
 20
492.87166827936909
 30
0.0
 11
144.7508738582211
 21
494.23445827936899
 31
0.0
  0
ARC
  5
17206
  8
AM_0
 10
146.7508738582211
 20
491.49782827936889
 30
0.0
 40
1.0
 50
0.0
 51
90.0
  0
LINE
  5
17207
  8
AM_0
 10
144.5627038582212
 20
482.8889382793692
 30
0.0
 11
143.358113858221
 21
483.40340827936899
 31
0.0
  0
LINE
  5
17208
  8
AM_0
 10
144.60719385822119
 20
484.79889827936898
 30
0.0
 11
143.4568738582212
 21
485.15273827936909
 31
0.0
  0
ARC
  5
17209
  8
AM_0
 10
143.7508738582211
 20
486.10855827936882
 30
0.0
 40
1.0
 50
179.999989999999
 51
252.9023699999955
  0
ARC
  5
1720A
  8
AM_0
 10
143.7508738582211
 20
484.32309827936899
 30
0.0
 40
1.0
 50
179.999989999999
 51
246.87297000000439
  0
LINE
  5
1720B
  8
AM_0
 10
144.9555238582212
 20
482.80862827936909
 30
0.0
 11
147.05086385822099
 21
482.80862827936892
 31
0.0
  0
ARC
  5
1720C
  8
AM_0
 10
147.05086385822111
 20
482.1086182793689
 30
0.0
 40
0.6999999900000002
 50
0.0
 51
90.0
  0
ARC
  5
1720D
  8
AM_0
 10
144.9555238582212
 20
483.80861827936889
 30
0.0
 40
1.0
 50
246.87297000000439
 51
269.9999969999958
  0
LINE
  5
1720E
  8
AM_0
 10
144.90120385822101
 20
484.75472827936909
 30
0.0
 11
146.7508738582211
 21
484.75472827936909
 31
0.0
  0
ARC
  5
1720F
  8
AM_0
 10
146.7508738582211
 20
485.75472827936892
 30
0.0
 40
1.0
 50
269.9999969999958
 51
0.0
  0
ARC
  5
17210
  8
AM_0
 10
144.90120385822109
 20
485.75472827936892
 30
0.0
 40
1.0
 50
252.9023699999955
 51
269.9999969999958
  0
LINE
  5
17211
  8
AM_0
 10
144.7508738582211
 20
483.10494827936918
 30
0.0
 11
144.7508738582211
 21
484.16489827936908
 31
0.0
  0
LINE
  5
17212
  8
AM_0
 10
144.51674385822099
 20
476.65004827936917
 30
0.0
 11
143.24544385822119
 21
477.3947182793691
 31
0.0
  0
LINE
  5
17213
  8
AM_0
 10
144.50112385822109
 20
475.5366782793692
 30
0.0
 11
143.20253385822099
 21
476.38823827936909
 31
0.0
  0
ARC
  5
17214
  8
AM_0
 10
143.7508738582211
 20
477.22450827936888
 30
0.0
 40
1.0
 50
179.999989999999
 51
236.74527000000111
  0
ARC
  5
17215
  8
AM_0
 10
143.7508738582211
 20
478.25758827936897
 30
0.0
 40
1.0
 50
179.999989999999
 51
239.64049999999571
  0
LINE
  5
17216
  8
AM_0
 10
145.04952385822099
 20
475.37294827936921
 30
0.0
 11
147.7508738582211
 21
475.37294827936921
 31
0.0
  0
LINE
  5
17217
  8
AM_0
 10
145.02217385822121
 20
476.51291827936922
 30
0.0
 11
146.7508738582211
 21
476.51291827936922
 31
0.0
  0
ARC
  5
17218
  8
AM_0
 10
146.7508738582211
 20
477.51289827936881
 30
0.0
 40
1.0
 50
269.9999969999958
 51
0.0
  0
LINE
  5
17219
  8
AM_0
 10
144.7508738582211
 20
475.66737827936907
 30
0.0
 11
144.7508738582211
 21
476.1395682793692
 31
0.0
  0
ARC
  5
1721A
  8
AM_0
 10
145.02217385822121
 20
477.51289827936881
 30
0.0
 40
1.0
 50
239.64049999999571
 51
269.9999969999958
  0
ARC
  5
1721B
  8
AM_0
 10
145.04952385822099
 20
476.37294827936898
 30
0.0
 40
1.0
 50
236.74527000000111
 51
269.9999969999958
  0
LINE
  5
1721C
  8
AM_0
 10
144.537553858221
 20
470.00301827936909
 30
0.0
 11
143.2983038582212
 21
470.63203827936923
 31
0.0
  0
LINE
  5
1721D
  8
AM_0
 10
144.51332385822101
 20
470.99872827936912
 30
0.0
 11
143.2362838582211
 21
471.76502827936912
 31
0.0
  0
LINE
  5
1721E
  8
AM_0
 10
144.5186938582211
 20
468.88271827936921
 30
0.0
 11
143.2505138582211
 21
469.61566827936917
 31
0.0
  0
ARC
  5
1721F
  8
AM_0
 10
143.7508738582211
 20
472.62251827936882
 30
0.0
 40
1.0
 50
179.999989999999
 51
239.03339999999869
  0
ARC
  5
17220
  8
AM_0
 10
143.7508738582211
 20
471.52376827936888
 30
0.0
 40
1.0
 50
179.999989999999
 51
243.0887399999981
  0
ARC
  5
17221
  8
AM_0
 10
143.7508738582211
 20
470.48146827936881
 30
0.0
 40
1.0
 50
179.999989999999
 51
239.97360000000339
  0
LINE
  5
17222
  8
AM_0
 10
147.7508738582211
 20
468.49783827936898
 30
0.0
 11
148.7508738582211
 21
468.49783827936898
 31
0.0
  0
LINE
  5
17223
  8
AM_0
 10
144.9901338582211
 20
469.89475827936911
 30
0.0
 11
147.2508738582211
 21
469.89475827936911
 31
0.0
  0
LINE
  5
17224
  8
AM_0
 10
144.99953385822101
 20
471.99617827936908
 30
0.0
 11
146.7508738582211
 21
471.99617827936908
 31
0.0
  0
LINE
  5
17225
  8
AM_0
 10
145.0279138582209
 20
470.85623827936911
 30
0.0
 11
147.7508738582211
 21
470.85623827936911
 31
0.0
  0
LINE
  5
17226
  8
AM_0
 10
145.0190638582211
 20
468.74843827936911
 30
0.0
 11
147.2508738582211
 21
468.74843827936911
 31
0.0
  0
ARC
  5
17227
  8
AM_0
 10
147.2508738582211
 20
468.24844827936897
 30
0.0
 40
0.5
 50
0.0
 51
90.0
  0
ARC
  5
17228
  8
AM_0
 10
147.2508738582211
 20
470.39473827936899
 30
0.0
 40
0.5
 50
269.9999969999958
 51
0.0
  0
LINE
  5
17229
  8
AM_0
 10
144.7508738582211
 20
469.00166827936908
 30
0.0
 11
144.7508738582211
 21
469.52744827936908
 31
0.0
  0
LINE
  5
1722A
  8
AM_0
 10
144.7508738582211
 20
471.10127827936913
 30
0.0
 11
144.7508738582211
 21
471.6473582793692
 31
0.0
  0
ARC
  5
1722B
  8
AM_0
 10
144.9995338582211
 20
472.99619827936891
 30
0.0
 40
1.0
 50
242.07339999999479
 51
269.9999969999958
  0
ARC
  5
1722C
  8
AM_0
 10
145.0279138582211
 20
471.85622827936891
 30
0.0
 40
1.0
 50
239.03339999999869
 51
269.9999969999958
  0
ARC
  5
1722D
  8
AM_0
 10
144.99013385822121
 20
470.89473827936899
 30
0.0
 40
1.0
 50
243.0887399999981
 51
269.9999969999958
  0
ARC
  5
1722E
  8
AM_0
 10
145.0190638582211
 20
469.74844827936892
 30
0.0
 40
1.0
 50
239.97360000000339
 51
269.9999969999958
  0
LINE
  5
1722F
  8
AM_0
 10
297.25697683834079
 20
543.49780907956028
 30
0.0
 11
298.35664622933859
 21
480.49779186215937
 31
0.0
  0
LINE
  5
17230
  8
AM_0
 10
282.38845103373592
 20
462.9657198009586
 30
0.0
 11
282.38846629185042
 21
574.02989757343437
 31
0.0
  0
LINE
  5
17231
  8
AM_0
 10
272.75087385822121
 20
462.49779827936908
 30
0.0
 11
272.75087385822121
 21
574.49781927936897
 31
0.0
  0
LINE
  5
17232
  8
AM_0
 10
283.07250696669939
 20
572.84510231014838
 30
0.0
 11
288.3084598515166
 21
543.15051300665925
 31
0.0
1001
GENIUS_GENODEF_13
1002
{
1000
HIER
1070
     0
1002
}
1002
{
1000
MANEDIT
1070
     0
1002
}
1002
{
1000
NOSEL
1070
     0
1002
}
1002
{
1000
BEHIND
1070
     0
1002
}
1002
{
1000
REACTOR
1002
}
1001
GENIUS_GENOBJ-N-CEN_13
1002
{
1000
OWNER
1000
GEN
1002
}
  0
ARC
  5
17233
  8
AM_0
 10
281.10289096263023
 20
572.49780877936894
 30
0.0
 40
2.0
 50
9.9999917840675501
 51
90.0
1001
GENIUS_GENOBJ-N-CEN_13
1002
{
1000
OWNER
1000
GEN
1002
}
1001
GENIUS_GENODEF_13
1002
{
1000
HIER
1070
     0
1002
}
1002
{
1000
MANEDIT
1070
     0
1002
}
1002
{
1000
NOSEL
1070
     0
1002
}
1002
{
1000
BEHIND
1070
     0
1002
}
1002
{
1000
OTHER
1070
     0
1002
}
1002
{
1000
REACTOR
1002
}
1001
GENIUS_GENOBJ-N-FIL_13
1002
{
1000
OWNER
1000
GEN
1002
}
  0
LINE
  5
17234
  8
AM_0
 10
272.75087385822121
 20
574.49780877936917
 30
0.0
 11
281.10289096263023
 21
574.49780877936917
 31
0.0
  0
LINE
  5
17235
  8
AM_0
 10
296.2742795752248
 20
541.49780907956006
 30
0.0
 11
290.27807540734159
 21
541.49780907956006
 31
0.0
  0
LINE
  5
17236
  8
AM_0
 10
272.75087385822121
 20
564.49783427936893
 30
0.0
 11
282.38846498232249
 21
564.49781292039415
 31
0.0
  0
LINE
  5
17237
  8
AM_0
 10
272.75087385822121
 20
550.43526627936899
 30
0.0
 11
282.38846305073429
 21
550.43773771125996
 31
0.0
  0
ARC
  5
17238
  8
AM_0
 10
290.27807540734159
 20
543.49780907955994
 30
0.0
 40
2.0
 50
189.9999917840675
 51
270.0
1001
GENIUS_GENODEF_13
1002
{
1000
HIER
1070
     0
1002
}
1002
{
1000
MANEDIT
1070
     0
1002
}
1002
{
1000
NOSEL
1070
     0
1002
}
1002
{
1000
BEHIND
1070
     0
1002
}
1002
{
1000
OTHER
1070
     0
1002
}
1002
{
1000
REACTOR
1002
}
1001
GENIUS_GENOBJ-N-FIL_13
1002
{
1000
OWNER
1000
GEN
1002
}
  0
ARC
  5
17239
  8
AM_0
 10
296.2742795752248
 20
542.49780907955994
 30
0.0
 40
1.0
 50
270.0
 51
0.9999999999887256
1001
GENIUS_GENODEF_13
1002
{
1000
HIER
1070
     0
1002
}
1002
{
1000
MANEDIT
1070
     0
1002
}
1002
{
1000
NOSEL
1070
     0
1002
}
1002
{
1000
BEHIND
1070
     0
1002
}
1002
{
1000
OTHER
1070
     0
1002
}
1002
{
1000
REACTOR
1002
}
1001
GENIUS_GENOBJ-N-FIL_13
1002
{
1000
OWNER
1000
GEN
1002
}
  0
LINE
  5
1723A
  8
AM_0
 10
296.35634130549261
 20
482.4978072020138
 30
0.0
 11
287.25697993684588
 21
482.4978072020138
 31
0.0
  0
LINE
  5
1723B
  8
AM_0
 10
283.07249138043358
 20
464.15051214160212
 30
0.0
 11
285.25697993684588
 21
476.53935198847842
 31
0.0
1001
GENIUS_GENODEF_13
1002
{
1000
HIER
1070
     0
1002
}
1002
{
1000
MANEDIT
1070
     0
1002
}
1002
{
1000
NOSEL
1070
     0
1002
}
1002
{
1000
BEHIND
1070
     0
1002
}
1002
{
1000
REACTOR
1002
}
1001
GENIUS_GENOBJ-N-CEN_13
1002
{
1000
OWNER
1000
GEN
1002
}
  0
LINE
  5
1723C
  8
AM_0
 10
272.75087385822121
 20
486.55785877936921
 30
0.0
 11
282.3884542748491
 21
486.55785877936921
 31
0.0
  0
ARC
  5
1723D
  8
AM_0
 10
287.25697993684582
 20
480.49780720201358
 30
0.0
 40
2.0
 50
90.0
 51
180.0
1001
GENIUS_GENODEF_13
1002
{
1000
HIER
1070
     0
1002
}
1002
{
1000
MANEDIT
1070
     0
1002
}
1002
{
1000
NOSEL
1070
     0
1002
}
1002
{
1000
BEHIND
1070
     0
1002
}
1002
{
1000
OTHER
1070
     0
1002
}
1002
{
1000
REACTOR
1002
}
1001
GENIUS_GENOBJ-N-FIL_13
1002
{
1000
OWNER
1000
GEN
1002
}
  0
LINE
  5
1723E
  8
AM_0
 10
285.25697993684588
 20
480.4978072020138
 30
0.0
 11
285.25697993684588
 21
476.53935198847842
 31
0.0
  0
ARC
  5
1723F
  8
AM_0
 10
281.1028759242098
 20
464.49780877936882
 30
0.0
 40
2.0
 50
270.0
 51
349.99999178406978
1001
GENIUS_GENOBJ-N-CEN_13
1002
{
1000
OWNER
1000
GEN
1002
}
1001
GENIUS_GENOBJ-N-FIL_13
1002
{
1000
OWNER
1000
GEN
1002
}
1001
GENIUS_GENODEF_13
1002
{
1000
HIER
1070
     0
1002
}
1002
{
1000
MANEDIT
1070
     0
1002
}
1002
{
1000
NOSEL
1070
     0
1002
}
1002
{
1000
BEHIND
1070
     0
1002
}
1002
{
1000
OTHER
1070
     0
1002
}
1002
{
1000
REACTOR
1002
}
  0
LINE
  5
17240
  8
AM_0
 10
272.75087385822121
 20
472.49780877936911
 30
0.0
 11
282.38845234326442
 21
472.49780877936911
 31
0.0
  0
LINE
  5
17241
  8
AM_0
 10
272.75087385822121
 20
462.49780877936911
 30
0.0
 11
281.10287592420991
 21
462.49780877936911
 31
0.0
  0
ARC
  5
17242
  8
AM_0
 10
296.35634130549261
 20
480.49780720201358
 30
0.0
 40
2.0
 50
1.000000000001755
 51
90.0
1001
GENIUS_GENODEF_13
1002
{
1000
HIER
1070
     0
1002
}
1002
{
1000
MANEDIT
1070
     0
1002
}
1002
{
1000
NOSEL
1070
     0
1002
}
1002
{
1000
BEHIND
1070
     0
1002
}
1002
{
1000
OTHER
1070
     0
1002
}
1002
{
1000
REACTOR
1002
}
1001
GENIUS_GENOBJ-N-FIL_13
1002
{
1000
OWNER
1000
GEN
1002
}
  0
LINE
  5
17243
  8
AM_0
 10
434.25698145676432
 20
543.49779373970705
 30
0.0
 11
433.15731233351391
 21
480.49779186215937
 31
0.0
  0
LINE
  5
17244
  8
ﾁｭｳｼﾝｾﾝ1
 10
383.25697993684588
 20
619.87219589925792
 30
0.0
 11
383.25697993684571
 21
417.1233898205756
 31
0.0
  0
LINE
  5
17246
  8
AM_0
 10
410.7569807564098
 20
476.4978070828044
 30
0.0
 11
355.75697911728219
 21
476.4978070828044
 31
0.0
  0
LINE
  5
17247
  8
AM_0
 10
355.75697911728213
 20
476.4978070828044
 30
0.0
 11
355.75697911728213
 21
480.49780720201358
 31
0.0
  0
LINE
  5
1724A
  8
AM_0
 10
410.7569807564098
 20
476.4978070828044
 30
0.0
 11
410.7569807564098
 21
480.4978072020138
 31
0.0
  0
LINE
  5
1724B
  8
AM_0
 10
149.44090385822111
 20
561.69284560297854
 30
0.0
 11
155.67088385822109
 21
561.69284560297854
 31
0.0
  0
LINE
  5
1724C
  8
AM_0
 10
148.75090385822119
 20
571.50283460297851
 30
0.0
 11
156.75090385822119
 21
571.50283460297851
 31
0.0
  0
LINE
  5
1724D
  8
AM_0
 10
148.75090385822119
 20
571.49784560297837
 30
0.0
 11
156.75090385822119
 21
571.49784560297837
 31
0.0
  0
LINE
  5
1724E
  8
AM_0
 10
149.44090385822111
 20
475.31285160297853
 30
0.0
 11
155.67088385822109
 21
475.31285160297853
 31
0.0
  0
LINE
  5
1724F
  8
AM_0
 10
148.75090385822119
 20
465.50283160297852
 30
0.0
 11
156.75090385822119
 21
465.50283160297852
 31
0.0
  0
LINE
  5
17250
  8
AM_0
 10
148.75090385822119
 20
465.49784160297833
 30
0.0
 11
156.75090385822119
 21
465.49784160297833
 31
0.0
  0
LINE
  5
17251
  8
AM_0
 10
162.0757910745331
 20
481.77786504064233
 30
0.0
 11
156.75090385822119
 21
470.40284160297841
 31
0.0
  0
LINE
  5
17252
  8
AM_0
 10
262.95091385822121
 20
479.16282160297851
 30
0.0
 11
258.80092385822132
 21
463.70283160297828
 31
0.0
  0
LINE
  5
17253
  8
AM_0
 10
264.75090385822108
 20
462.4978416029785
 30
0.0
 11
264.75090385822108
 21
574.49784560297849
 31
0.0
  0
LINE
  5
17254
  8
AM_0
 10
156.75090385822119
 20
465.50283160297852
 30
0.0
 11
156.75090385822119
 21
567.94282960297835
 31
0.0
  0
LINE
  5
17255
  8
AM_0
 10
159.95091385822101
 20
462.21284160297847
 30
0.0
 11
256.87087385822127
 21
462.21284160297847
 31
0.0
  0
LINE
  5
17256
  8
AM_0
 10
160.04088385822101
 20
456.61283160297847
 30
0.0
 11
193.75090385822111
 21
456.61283160297847
 31
0.0
  0
LINE
  5
17257
  8
AM_0
 10
160.02092385822121
 20
457.52284160297847
 30
0.0
 11
193.75090385822111
 21
457.52284160297847
 31
0.0
  0
LINE
  5
17258
  8
AM_0
 10
160.00090385822119
 20
459.3728416029785
 30
0.0
 11
193.75090385822111
 21
459.3728416029785
 31
0.0
  0
ARC
  5
17259
  8
AM_0
 10
159.9993138582212
 20
461.36598160297831
 30
0.0
 40
1.9931281000000001
 50
189.0388199999997
 51
270.04662699999949
  0
LINE
  5
1725A
  8
AM_0
 10
156.75090385822119
 20
467.71286160297848
 30
0.0
 11
158.0609038582212
 21
458.33285160297828
 31
0.0
  0
LINE
  5
1725B
  8
AM_0
 10
156.7509638582211
 20
467.71282160297841
 30
0.0
 11
158.04094385822111
 21
459.22283160297837
 31
0.0
  0
ARC
  5
1725C
  8
AM_0
 10
160.0136038582213
 20
459.51741160297843
 30
0.0
 40
1.994588
 50
188.49291000000531
 51
270.20924699999762
  0
ARC
  5
1725D
  8
AM_0
 10
160.03557385822131
 20
458.60632160297831
 30
0.0
 40
1.9934921000000001
 50
187.88525999999729
 51
270.15390899999858
  0
ARC
  5
1725E
  8
AM_0
 10
159.9537838582211
 20
464.20974160297823
 30
0.0
 40
1.9969039999999989
 50
190.58743999999851
 51
269.91652600000037
  0
LINE
  5
1725F
  8
AM_0
 10
156.75090385822119
 20
469.06283160297852
 30
0.0
 11
158.03087385822101
 21
461.05284160297862
 31
0.0
  0
LINE
  5
17260
  8
AM_0
 10
156.75090385822119
 20
470.40283160297832
 30
0.0
 11
157.99089385822131
 21
463.84283160297838
 31
0.0
  0
ARC
  5
17261
  8
AM_0
 10
193.75047385822111
 20
461.37326160297829
 30
0.0
 40
2.000407899999999
 50
270.01165000000208
 51
359.98835099999928
  0
LINE
  5
17262
  8
AM_0
 10
195.75090385822111
 20
458.61285160297831
 30
0.0
 11
195.75090385822111
 21
462.21284160297847
 31
0.0
  0
ARC
  5
17263
  8
AM_0
 10
193.7493138582212
 20
459.52439160297831
 30
0.0
 40
2.0015439999999991
 50
270.04421600000092
 51
359.95578600099913
  0
ARC
  5
17264
  8
AM_0
 10
193.7496238582211
 20
458.61413160297838
 30
0.0
 40
2.001287899999999
 50
270.036874000002
 51
359.9631280009977
  0
LINE
  5
17265
  8
AM_0
 10
264.75090385822108
 20
462.4978416029785
 30
0.0
 11
272.75087385822121
 21
462.4978416029785
 31
0.0
  0
ARC
  5
17266
  8
AM_0
 10
256.86809385822119
 20
464.2114416029782
 30
0.0
 40
1.9986041000000001
 50
270.08048399999888
 51
345.25728400000048
  0
LINE
  5
17267
  8
AM_0
 10
259.29088385822121
 20
465.50283160297852
 30
0.0
 11
264.75090385822108
 21
465.50283160297852
 31
0.0
  0
LINE
  5
17268
  8
AM_0
 10
258.09089497096198
 20
482.49781133755528
 30
0.0
 11
159.11085497096511
 21
482.49783577259132
 31
0.0
  0
LINE
  5
17269
  8
AM_0
 10
258.09089546469858
 20
484.49781133755511
 30
0.0
 11
159.11085546470181
 21
484.49783577259109
 31
0.0
  0
LINE
  5
1726A
  8
AM_0
 10
258.08369793338193
 20
494.49781133933232
 30
0.0
 11
159.11085793338481
 21
494.4978357725908
 31
0.0
  0
LINE
  5
1726B
  8
AM_0
 10
158.43085479322721
 20
481.7778659404616
 30
0.0
 11
261.57087479322411
 21
481.77784047845842
 31
0.0
  0
LINE
  5
1726C
  8
AM_0
 10
158.21088804199201
 20
494.93777599476482
 30
0.0
 11
261.78510804198919
 21
494.93775042557132
 31
0.0
  0
LINE
  5
1726D
  8
AM_0
 10
158.2108873186852
 20
492.00784599476498
 30
0.0
 11
261.79652731868208
 21
492.00782042275227
 31
0.0
  0
LINE
  5
1726E
  8
AM_0
 10
258.09803743964528
 20
492.49781133579239
 30
0.0
 11
159.1108574396481
 21
492.4978357725908
 31
0.0
  0
LINE
  5
1726F
  8
AM_0
 10
158.4308556202312
 20
485.12784594046173
 30
0.0
 11
261.57087562022798
 21
485.12782047845837
 31
0.0
  0
LINE
  5
17270
  8
AM_0
 10
158.08088982440589
 20
502.15787602685748
 30
0.0
 11
262.07946778080333
 21
502.15785035290372
 31
0.0
  0
LINE
  5
17271
  8
AM_0
 10
158.08089048105359
 20
504.81778602685768
 30
0.0
 11
261.92794293904387
 21
504.81776039031053
 31
0.0
  0
LINE
  5
17272
  8
AM_0
 10
158.02089231035521
 20
512.22781604166926
 30
0.0
 11
262.13699156385911
 21
512.22779033870313
 31
0.0
  0
LINE
  5
17273
  8
AM_0
 10
158.0208929349393
 20
514.75784604166938
 30
0.0
 11
261.9737049109458
 21
514.75782037901354
 31
0.0
  0
LINE
  5
17274
  8
AM_0
 10
258.09423916415949
 20
514.49781133673082
 30
0.0
 11
159.11086287075119
 21
514.49783577259041
 31
0.0
  0
LINE
  5
17275
  8
AM_0
 10
258.09423867042278
 20
512.49781133673082
 30
0.0
 11
159.11086237701451
 21
512.49783577259041
 31
0.0
  0
LINE
  5
17276
  8
AM_0
 10
258.09423669547277
 20
504.49781133673099
 30
0.0
 11
159.11086040206791
 21
504.49783577259058
 31
0.0
  0
LINE
  5
17277
  8
AM_0
 10
258.09423620176091
 20
502.4978113367311
 30
0.0
 11
159.11085990833141
 21
502.49783577259058
 31
0.0
  0
LINE
  5
17278
  8
AM_0
 10
258.09424015165382
 20
534.4978096934185
 30
0.0
 11
159.11086385822119
 21
534.49780969341862
 31
0.0
  0
LINE
  5
17279
  8
AM_0
 10
258.09424015162898
 20
532.49780969341862
 30
0.0
 11
159.11086385822119
 21
532.49780969341862
 31
0.0
  0
LINE
  5
1727A
  8
AM_0
 10
258.09424015163262
 20
524.49780969341862
 30
0.0
 11
159.11086385822119
 21
524.49780969341862
 31
0.0
  0
LINE
  5
1727B
  8
AM_0
 10
258.09424015163262
 20
522.49780969341862
 30
0.0
 11
159.11086385822119
 21
522.49780969341862
 31
0.0
  0
LINE
  5
1727C
  8
AM_0
 10
158.0208938582212
 20
522.23779969341865
 30
0.0
 11
261.97370583423071
 21
522.23779969341865
 31
0.0
  0
LINE
  5
1727D
  8
AM_0
 10
158.0208938582212
 20
524.76782969341866
 30
0.0
 11
262.13699311172809
 21
524.76782969341866
 31
0.0
  0
LINE
  5
1727E
  8
AM_0
 10
158.08089385822109
 20
532.17785969341855
 30
0.0
 11
261.92794631621467
 21
532.17785969341855
 31
0.0
  0
LINE
  5
1727F
  8
AM_0
 10
158.08089385822109
 20
534.83776969341864
 30
0.0
 11
262.07947181462168
 21
534.83776969341864
 31
0.0
  0
LINE
  5
17280
  8
AM_0
 10
158.43086385822119
 20
551.86779969341865
 30
0.0
 11
261.57088385822118
 21
551.86779969341831
 31
0.0
  0
LINE
  5
17281
  8
AM_0
 10
258.09804385822127
 20
544.4978096934185
 30
0.0
 11
159.11086385822119
 21
544.4978096934185
 31
0.0
  0
LINE
  5
17282
  8
AM_0
 10
158.21089385822131
 20
544.98779969341865
 30
0.0
 11
261.7965338582211
 21
544.98779969341865
 31
0.0
  0
LINE
  5
17283
  8
AM_0
 10
158.21089385822131
 20
542.05786969341864
 30
0.0
 11
261.78511385822139
 21
542.05786969341864
 31
0.0
  0
LINE
  5
17284
  8
AM_0
 10
158.43086385822119
 20
555.21777969341883
 30
0.0
 11
261.57088385822118
 21
555.21777969341883
 31
0.0
  0
LINE
  5
17285
  8
AM_0
 10
258.08370385822133
 20
542.49780969341862
 30
0.0
 11
159.11086385822119
 21
542.49780969341862
 31
0.0
  0
LINE
  5
17286
  8
AM_0
 10
258.09090385822128
 20
552.4978096934185
 30
0.0
 11
159.11086385822119
 21
552.4978096934185
 31
0.0
  0
LINE
  5
17287
  8
AM_0
 10
258.09090385822128
 20
554.49780969341862
 30
0.0
 11
159.11086385822119
 21
554.49780969341862
 31
0.0
  0
LINE
  5
17288
  8
AM_0
 10
182.25090385822111
 20
480.27285160297862
 30
0.0
 11
264.75090385822108
 21
480.27285160297862
 31
0.0
  0
LINE
  5
17289
  8
AM_0
 10
182.25090385822111
 20
556.72283660297853
 30
0.0
 11
264.75090385822108
 21
556.72283660297853
 31
0.0
  0
LINE
  5
1728A
  8
AM_0
 10
159.9509138582213
 20
574.78284860297833
 30
0.0
 11
256.87087385822127
 21
574.78284860297833
 31
0.0
  0
LINE
  5
1728B
  8
AM_0
 10
162.08045119750491
 20
555.21777969341883
 30
0.0
 11
156.7508438582212
 21
566.59281660297825
 31
0.0
  0
POLYLINE
  5
1728C
  8
AM_0
 66
     1
 10
0.0
 20
0.0
 30
0.0
  0
VERTEX
  5
1728D
  8
AM_0
 10
159.11086385822449
 20
518.49783577258984
 30
0.0
 42
0.00039106649
  0
VERTEX
  5
1728E
  8
AM_0
 10
159.10850378141629
 20
518.18670577317255
 30
0.0
 42
0.00035488198
  0
VERTEX
  5
1728F
  8
AM_0
 10
159.1066137046131
 20
517.87559577363925
 30
0.0
 42
0.00039706113
  0
VERTEX
  5
17290
  8
AM_0
 10
159.10518362780991
 20
517.56448577399215
 30
0.0
 42
0.00038765718
  0
VERTEX
  5
17291
  8
AM_0
 10
159.10425355099929
 20
517.25334577422166
 30
0.0
 42
0.00040613432
  0
VERTEX
  5
17292
  8
AM_0
 10
159.1038034741986
 20
516.94224577433295
 30
0.0
 42
0.00035573434
  0
VERTEX
  5
17293
  8
AM_0
 10
159.10384339739531
 20
516.63113577432296
 30
0.0
 42
0.00038545884
  0
VERTEX
  5
17294
  8
AM_0
 10
159.10433332058719
 20
516.32000577420206
 30
0.0
 42
0.00035501205
  0
VERTEX
  5
17295
  8
AM_0
 10
159.1052932437841
 20
516.00889577396515
 30
0.0
 42
0.00040120779
  0
VERTEX
  5
17296
  8
AM_0
 10
159.1067131669511
 20
515.69766577361463
 30
0.0
 42
0.00038317817
  0
VERTEX
  5
17297
  8
AM_0
 10
159.1086230901432
 20
515.38653577314312
 30
0.0
 42
0.00035656084
  0
VERTEX
  5
17298
  8
AM_0
 10
159.1110030133076
 20
515.07529577255559
 30
0.0
 42
0.00040143615
  0
VERTEX
  5
17299
  8
AM_0
 10
159.11385293650699
 20
514.76419577185197
 30
0.0
  0
SEQEND
  5
1729A
  8
AM_0
  0
LINE
  5
1729B
  8
AM_0
 10
182.25084385822109
 20
480.27284160297847
 30
0.0
 11
162.07341385822119
 21
481.77284160297859
 31
0.0
  0
ARC
  5
1729C
  8
AM_0
 10
158.21088768033991
 20
493.4728159947648
 30
0.0
 40
1.465004
 50
89.999985855485235
 51
269.99998285548759
  0
ARC
  5
1729D
  8
AM_0
 10
158.4234752067145
 20
483.45279594228339
 30
0.0
 40
1.6750160000000001
 50
89.746115855488739
 51
270.25384085548518
  0
ARC
  5
1729E
  8
AM_0
 10
159.29548521783329
 20
483.4978357270117
 30
0.0
 40
1.0000138999999999
 50
89.691645855488076
 51
270.30832585548961
  0
ARC
  5
1729F
  8
AM_0
 10
159.29548768651659
 20
493.49783572701142
 30
0.0
 40
1.0000138999999999
 50
89.691645855488076
 51
270.30832585548961
  0
POLYLINE
  5
172A0
  8
AM_0
 66
     1
 10
0.0
 20
0.0
 30
0.0
  0
VERTEX
  5
172A1
  8
AM_0
 10
160.6117673204034
 20
492.0148054020637
 30
0.0
 42
0.00068898288
  0
VERTEX
  5
172A2
  8
AM_0
 10
160.68264717851559
 20
491.4400553845656
 30
0.0
 42
0.00070644354
  0
VERTEX
  5
172A3
  8
AM_0
 10
160.75514703664311
 20
490.86536536666762
 30
0.0
 42
0.00069248071
  0
VERTEX
  5
172A4
  8
AM_0
 10
160.8292368948641
 20
490.29105534837709
 30
0.0
 42
0.00069585665
  0
VERTEX
  5
172A5
  8
AM_0
 10
160.9049167531272
 20
489.7169153296943
 30
0.0
 42
0.00068980191
  0
VERTEX
  5
172A6
  8
AM_0
 10
160.98221661142469
 20
489.14291531061127
 30
0.0
 42
0.00072080104
  0
VERTEX
  5
172A7
  8
AM_0
 10
161.06110646977399
 20
488.56912529113589
 30
0.0
 42
0.00071002307
  0
VERTEX
  5
172A8
  8
AM_0
 10
161.14164632820251
 20
487.99565527125321
 30
0.0
 42
0.00072659056
  0
VERTEX
  5
172A9
  8
AM_0
 10
161.2238061867223
 20
487.42255525097062
 30
0.0
 42
0.00069570481
  0
VERTEX
  5
172AA
  8
AM_0
 10
161.30762604525941
 20
486.84952523027778
 30
0.0
 42
0.00071266935
  0
VERTEX
  5
172AB
  8
AM_0
 10
161.3930559038605
 20
486.27675520918802
 30
0.0
 42
0.00071614426
  0
VERTEX
  5
172AC
  8
AM_0
 10
161.48008576256791
 20
485.70441518770309
 30
0.0
 42
0.00072288975
  0
VERTEX
  5
172AD
  8
AM_0
 10
161.5687956212852
 20
485.1321151658035
 30
0.0
  0
SEQEND
  5
172AE
  8
AM_0
  0
POLYLINE
  5
172AF
  8
AM_0
 66
     1
 10
0.0
 20
0.0
 30
0.0
  0
VERTEX
  5
172B0
  8
AM_0
 10
159.15492231026619
 20
512.22745576171314
 30
0.0
 42
0.00076691992
  0
VERTEX
  5
172B1
  8
AM_0
 10
159.16972215775851
 20
511.60968575805958
 30
0.0
 42
0.00073262792
  0
VERTEX
  5
172B2
  8
AM_0
 10
159.18636200529491
 20
510.9920957539515
 30
0.0
 42
0.00076529537
  0
VERTEX
  5
172B3
  8
AM_0
 10
159.20485185281169
 20
510.37442574938723
 30
0.0
 42
0.00075141097
  0
VERTEX
  5
172B4
  8
AM_0
 10
159.225221700346
 20
509.75682574435831
 30
0.0
 42
0.00075841687
  0
VERTEX
  5
172B5
  8
AM_0
 10
159.2474515479222
 20
509.13939573887058
 30
0.0
 42
0.00075711788
  0
VERTEX
  5
172B6
  8
AM_0
 10
159.2715613954785
 20
508.52188573291829
 30
0.0
 42
0.00075976003
  0
VERTEX
  5
172B7
  8
AM_0
 10
159.29755124306431
 20
507.90449572650249
 30
0.0
 42
0.00075797311
  0
VERTEX
  5
172B8
  8
AM_0
 10
159.3253910906775
 20
507.2872157196295
 30
0.0
 42
0.0007482613
  0
VERTEX
  5
172B9
  8
AM_0
 10
159.355120938266
 20
506.66983571229008
 30
0.0
 42
0.00074893561
  0
VERTEX
  5
172BA
  8
AM_0
 10
159.38668078591601
 20
506.0527057044992
 30
0.0
 42
0.00076039839
  0
VERTEX
  5
172BB
  8
AM_0
 10
159.42010063359101
 20
505.43567569624872
 30
0.0
 42
0.00075618786
  0
VERTEX
  5
172BC
  8
AM_0
 10
159.45540048126341
 20
504.81863568753442
 30
0.0
  0
SEQEND
  5
172BD
  8
AM_0
  0
ARC
  5
172BE
  8
AM_0
 10
158.08089015272861
 20
503.48782602685731
 30
0.0
 40
1.3300049999999981
 50
89.999985855485235
 51
269.99998285548759
  0
ARC
  5
172BF
  8
AM_0
 10
159.2954901551997
 20
503.49783572701108
 30
0.0
 40
1.0000138999999999
 50
89.691645855488076
 51
270.30832585548961
  0
POLYLINE
  5
172C0
  8
AM_0
 66
     1
 10
0.0
 20
0.0
 30
0.0
  0
VERTEX
  5
172C1
  8
AM_0
 10
159.62910982425541
 20
502.15726564465081
 30
0.0
 42
0.0007337051
  0
VERTEX
  5
172C2
  8
AM_0
 10
159.67324967553711
 20
501.55484563375398
 30
0.0
 42
0.00075211323
  0
VERTEX
  5
172C3
  8
AM_0
 10
159.719189526826
 20
500.95245562241303
 30
0.0
 42
0.0007297491
  0
VERTEX
  5
172C4
  8
AM_0
 10
159.76691937816179
 20
500.35025561062992
 30
0.0
 42
0.00073593041
  0
VERTEX
  5
172C5
  8
AM_0
 10
159.8163992295496
 20
499.74826559841517
 30
0.0
 42
0.00074742739
  0
VERTEX
  5
172C6
  8
AM_0
 10
159.867669080967
 20
499.14639558575811
 30
0.0
 42
0.00073217363
  0
VERTEX
  5
172C7
  8
AM_0
 10
159.92072893240169
 20
498.54459557265938
 30
0.0
 42
0.00073754168
  0
VERTEX
  5
172C8
  8
AM_0
 10
159.97554878390031
 20
497.94305555912609
 30
0.0
 42
0.00073075073
  0
VERTEX
  5
172C9
  8
AM_0
 10
160.03212863544371
 20
497.3416955451583
 30
0.0
 42
0.00074550816
  0
VERTEX
  5
172CA
  8
AM_0
 10
160.090468487061
 20
496.74063553075581
 30
0.0
 42
0.00074288416
  0
VERTEX
  5
172CB
  8
AM_0
 10
160.1506183386881
 20
496.13961551590683
 30
0.0
 42
0.00072504001
  0
VERTEX
  5
172CC
  8
AM_0
 10
160.21252819038219
 20
495.5388655006231
 30
0.0
 42
0.00074640667
  0
VERTEX
  5
172CD
  8
AM_0
 10
160.27619804211301
 20
494.93826548490529
 30
0.0
  0
SEQEND
  5
172CE
  8
AM_0
  0
ARC
  5
172CF
  8
AM_0
 10
158.01503262264839
 20
513.49283604311586
 30
0.0
 40
1.2650129999999991
 50
89.735575855488506
 51
270.2644068554892
  0
ARC
  5
172D0
  8
AM_0
 10
159.29549262388281
 20
513.49783572701085
 30
0.0
 40
1.0000138999999999
 50
89.691645855488076
 51
270.30832585548961
  0
LINE
  5
172D1
  8
AM_0
 10
182.25090385822111
 20
556.72283660297853
 30
0.0
 11
162.0780538582211
 21
555.22283660297853
 31
0.0
  0
POLYLINE
  5
172D2
  8
AM_0
 66
     1
 10
0.0
 20
0.0
 30
0.0
  0
VERTEX
  5
172D3
  8
AM_0
 10
159.62911385822139
 20
534.83837969341835
 30
0.0
 42
-0.0007337051
  0
VERTEX
  5
172D4
  8
AM_0
 10
159.6732538582213
 20
535.44079969341851
 30
0.0
 42
-0.00075211323
  0
VERTEX
  5
172D5
  8
AM_0
 10
159.7191938582213
 20
536.04318969341853
 30
0.0
 42
-0.0007297491
  0
VERTEX
  5
172D6
  8
AM_0
 10
159.7669238582213
 20
536.64538969341845
 30
0.0
 42
-0.00073593041
  0
VERTEX
  5
172D7
  8
AM_0
 10
159.81640385822109
 20
537.24737969341834
 30
0.0
 42
-0.00074742739
  0
VERTEX
  5
172D8
  8
AM_0
 10
159.86767385822139
 20
537.8492496934183
 30
0.0
 42
-0.00073217363
  0
VERTEX
  5
172D9
  8
AM_0
 10
159.9207338582213
 20
538.45104969341833
 30
0.0
 42
-0.00073754168
  0
VERTEX
  5
172DA
  8
AM_0
 10
159.97555385822119
 20
539.05258969341833
 30
0.0
 42
-0.00073075073
  0
VERTEX
  5
172DB
  8
AM_0
 10
160.0321338582213
 20
539.65394969341833
 30
0.0
 42
-0.00074550816
  0
VERTEX
  5
172DC
  8
AM_0
 10
160.09047385822109
 20
540.25500969341829
 30
0.0
 42
-0.00074288416
  0
VERTEX
  5
172DD
  8
AM_0
 10
160.15062385822119
 20
540.85602969341869
 30
0.0
 42
-0.00072504001
  0
VERTEX
  5
172DE
  8
AM_0
 10
160.21253385822129
 20
541.4567796934183
 30
0.0
 42
-0.00074640667
  0
VERTEX
  5
172DF
  8
AM_0
 10
160.27620385822129
 20
542.0573796934184
 30
0.0
  0
SEQEND
  5
172E0
  8
AM_0
  0
POLYLINE
  5
172E1
  8
AM_0
 66
     1
 10
0.0
 20
0.0
 30
0.0
  0
VERTEX
  5
172E2
  8
AM_0
 10
159.1549238582212
 20
524.76818969341821
 30
0.0
 42
-0.00076691992
  0
VERTEX
  5
172E3
  8
AM_0
 10
159.16972385822109
 20
525.3859596934185
 30
0.0
 42
-0.00073262792
  0
VERTEX
  5
172E4
  8
AM_0
 10
159.1863638582212
 20
526.00354969341845
 30
0.0
 42
-0.00076529537
  0
VERTEX
  5
172E5
  8
AM_0
 10
159.2048538582211
 20
526.62121969341831
 30
0.0
 42
-0.00075141097
  0
VERTEX
  5
172E6
  8
AM_0
 10
159.22522385822131
 20
527.23881969341835
 30
0.0
 42
-0.00075841687
  0
VERTEX
  5
172E7
  8
AM_0
 10
159.24745385822141
 20
527.85624969341825
 30
0.0
 42
-0.00075711788
  0
VERTEX
  5
172E8
  8
AM_0
 10
159.27156385822121
 20
528.47375969341851
 30
0.0
 42
-0.00075976003
  0
VERTEX
  5
172E9
  8
AM_0
 10
159.29755385822131
 20
529.09114969341829
 30
0.0
 42
-0.00075797311
  0
VERTEX
  5
172EA
  8
AM_0
 10
159.3253938582213
 20
529.70842969341845
 30
0.0
 42
-0.0007482613
  0
VERTEX
  5
172EB
  8
AM_0
 10
159.35512385822119
 20
530.32580969341825
 30
0.0
 42
-0.00074893561
  0
VERTEX
  5
172EC
  8
AM_0
 10
159.38668385822109
 20
530.94293969341845
 30
0.0
 42
-0.00076039839
  0
VERTEX
  5
172ED
  8
AM_0
 10
159.4201038582213
 20
531.55996969341834
 30
0.0
 42
-0.00075618786
  0
VERTEX
  5
172EE
  8
AM_0
 10
159.4554038582213
 20
532.17700969341854
 30
0.0
  0
SEQEND
  5
172EF
  8
AM_0
  0
POLYLINE
  5
172F0
  8
AM_0
 66
     1
 10
0.0
 20
0.0
 30
0.0
  0
VERTEX
  5
172F1
  8
AM_0
 10
159.11086385822131
 20
518.4978096934185
 30
0.0
 42
-0.00039106649
  0
VERTEX
  5
172F2
  8
AM_0
 10
159.1085038582213
 20
518.80893969341855
 30
0.0
 42
-0.00035488198
  0
VERTEX
  5
172F3
  8
AM_0
 10
159.10661385822129
 20
519.1200496934182
 30
0.0
 42
-0.00039706113
  0
VERTEX
  5
172F4
  8
AM_0
 10
159.1051838582213
 20
519.43115969341852
 30
0.0
 42
-0.00038765718
  0
VERTEX
  5
172F5
  8
AM_0
 10
159.1042538582212
 20
519.74229969341854
 30
0.0
 42
-0.00040613432
  0
VERTEX
  5
172F6
  8
AM_0
 10
159.1038038582212
 20
520.05339969341833
 30
0.0
 42
-0.00035573434
  0
VERTEX
  5
172F7
  8
AM_0
 10
159.1038438582213
 20
520.36450969341854
 30
0.0
 42
-0.00038545884
  0
VERTEX
  5
172F8
  8
AM_0
 10
159.1043338582212
 20
520.67563969341825
 30
0.0
 42
-0.00035501205
  0
VERTEX
  5
172F9
  8
AM_0
 10
159.1052938582213
 20
520.98674969341835
 30
0.0
 42
-0.00040120779
  0
VERTEX
  5
172FA
  8
AM_0
 10
159.1067138582213
 20
521.29797969341848
 30
0.0
 42
-0.00038317817
  0
VERTEX
  5
172FB
  8
AM_0
 10
159.10862385822131
 20
521.60910969341853
 30
0.0
 42
-0.00035656084
  0
VERTEX
  5
172FC
  8
AM_0
 10
159.11100385822121
 20
521.92034969341853
 30
0.0
 42
-0.00040143615
  0
VERTEX
  5
172FD
  8
AM_0
 10
159.1138538582212
 20
522.23144969341831
 30
0.0
  0
SEQEND
  5
172FE
  8
AM_0
  0
ARC
  5
172FF
  8
AM_0
 10
159.29549385822131
 20
523.4978096934185
 30
0.0
 40
1.0000138999999999
 50
89.691659999999274
 51
270.30834000000073
  0
ARC
  5
17300
  8
AM_0
 10
158.0150338582213
 20
523.50280969341838
 30
0.0
 40
1.2650129999999991
 50
89.735579000001692
 51
270.2644100000025
  0
ARC
  5
17301
  8
AM_0
 10
159.29549385822131
 20
533.4978096934185
 30
0.0
 40
1.0000138999999999
 50
89.691659999999274
 51
270.30834000000073
  0
ARC
  5
17302
  8
AM_0
 10
158.08089385822109
 20
533.50781969341836
 30
0.0
 40
1.3300049999999981
 50
90.00000299999769
 51
270.0
  0
POLYLINE
  5
17303
  8
AM_0
 66
     1
 10
0.0
 20
0.0
 30
0.0
  0
VERTEX
  5
17304
  8
AM_0
 10
160.61177385822131
 20
544.98083969341837
 30
0.0
 42
-0.00068898288
  0
VERTEX
  5
17305
  8
AM_0
 10
160.68265385822119
 20
545.55558969341837
 30
0.0
 42
-0.00070644354
  0
VERTEX
  5
17306
  8
AM_0
 10
160.75515385822121
 20
546.13027969341852
 30
0.0
 42
-0.00069248071
  0
VERTEX
  5
17307
  8
AM_0
 10
160.8292438582213
 20
546.70458969341848
 30
0.0
 42
-0.00069585665
  0
VERTEX
  5
17308
  8
AM_0
 10
160.9049238582212
 20
547.27872969341831
 30
0.0
 42
-0.00068980191
  0
VERTEX
  5
17309
  8
AM_0
 10
160.9822238582212
 20
547.8527296934185
 30
0.0
 42
-0.00072080104
  0
VERTEX
  5
1730A
  8
AM_0
 10
161.0611138582214
 20
548.4265196934183
 30
0.0
 42
-0.00071002307
  0
VERTEX
  5
1730B
  8
AM_0
 10
161.1416538582213
 20
548.99998969341834
 30
0.0
 42
-0.00072659056
  0
VERTEX
  5
1730C
  8
AM_0
 10
161.22381385822109
 20
549.57308969341852
 30
0.0
 42
-0.00069570481
  0
VERTEX
  5
1730D
  8
AM_0
 10
161.30763385822129
 20
550.14611969341854
 30
0.0
 42
-0.00071266935
  0
VERTEX
  5
1730E
  8
AM_0
 10
161.39306385822141
 20
550.71888969341853
 30
0.0
 42
-0.00071614426
  0
VERTEX
  5
1730F
  8
AM_0
 10
161.4800938582213
 20
551.29122969341825
 30
0.0
 42
-0.00072288975
  0
VERTEX
  5
17310
  8
AM_0
 10
161.56880385822129
 20
551.86352969341851
 30
0.0
  0
SEQEND
  5
17311
  8
AM_0
  0
ARC
  5
17312
  8
AM_0
 10
158.2108938582214
 20
543.52282969341854
 30
0.0
 40
1.465004
 50
90.00000299999769
 51
270.0
  0
ARC
  5
17313
  8
AM_0
 10
159.29549385822131
 20
543.4978096934185
 30
0.0
 40
1.0000138999999999
 50
89.691659999999274
 51
270.30834000000073
  0
ARC
  5
17314
  8
AM_0
 10
159.29549385822131
 20
553.49780969341828
 30
0.0
 40
1.0000138999999999
 50
89.691659999999274
 51
270.30834000000073
  0
ARC
  5
17315
  8
AM_0
 10
158.4234838582212
 20
553.54284969341836
 30
0.0
 40
1.6750160000000001
 50
89.746145000004475
 51
270.25387000000092
  0
LINE
  5
17316
  8
ﾁｭｳｼﾝｾﾝ1
 10
213.75090385822099
 20
477.8728147882818
 30
0.0
 11
213.75090385822099
 21
559.12281778828185
 31
0.0
  0
LINE
  5
17317
  8
AM_0
 10
160.04088385822129
 20
580.39283460297861
 30
0.0
 11
193.75090385822131
 21
580.39283460297861
 31
0.0
  0
LINE
  5
17318
  8
AM_0
 10
160.02092385822129
 20
579.47284360297863
 30
0.0
 11
193.75090385822131
 21
579.47284360297863
 31
0.0
  0
LINE
  5
17319
  8
AM_0
 10
160.00090385822131
 20
577.63283960297849
 30
0.0
 11
193.75090385822131
 21
577.63283960297849
 31
0.0
  0
ARC
  5
1731A
  8
AM_0
 10
159.95555385822121
 20
572.78384060297833
 30
0.0
 40
1.9990078999999989
 50
90.133449999996998
 51
169.362590000003
  0
LINE
  5
1731B
  8
AM_0
 10
156.75090385822119
 20
569.28281860297841
 30
0.0
 11
158.06090385822131
 21
578.66282360297851
 31
0.0
  0
LINE
  5
1731C
  8
AM_0
 10
156.7509638582211
 20
569.28284160297858
 30
0.0
 11
158.0409438582214
 21
577.78283360297837
 31
0.0
  0
LINE
  5
1731D
  8
AM_0
 10
156.75090385822119
 20
567.94284560297854
 30
0.0
 11
158.03087385822141
 21
575.94283760297833
 31
0.0
  0
LINE
  5
1731E
  8
AM_0
 10
156.75090385822119
 20
566.59285460297849
 30
0.0
 11
157.9908938582214
 21
573.15285160297833
 31
0.0
  0
ARC
  5
1731F
  8
AM_0
 10
160.00688385822119
 20
575.63266460297825
 30
0.0
 40
2.0001840999999998
 50
90.171470000000838
 51
171.07899999999731
  0
ARC
  5
17320
  8
AM_0
 10
160.01445385822109
 20
577.47550660297838
 30
0.0
 40
1.9973480999999991
 50
89.815320000002416
 51
171.14853000000031
  0
ARC
  5
17321
  8
AM_0
 10
160.04302385822109
 20
578.39236160297833
 30
0.0
 40
2.0004758999999992
 50
90.06031000000398
 51
172.22953999999919
  0
LINE
  5
17322
  8
AM_0
 10
195.75090385822131
 20
578.39284160297848
 30
0.0
 11
195.75090385822131
 21
574.78284860297833
 31
0.0
  0
ARC
  5
17323
  8
AM_0
 10
193.74370385822129
 20
575.62566060297831
 30
0.0
 40
2.0071799999999991
 50
0.2046199999977194
 51
89.795380000002282
  0
ARC
  5
17324
  8
AM_0
 10
193.74761385822109
 20
577.46955560297818
 30
0.0
 40
2.003279899999999
 50
0.0937899999971492
 51
89.906210000002858
  0
ARC
  5
17325
  8
AM_0
 10
193.7429138582211
 20
578.38483160297824
 30
0.0
 40
2.0080360999999991
 50
0.2287899999994725
 51
89.771210000000579
  0
LINE
  5
17326
  8
AM_0
 10
263.25090385822108
 20
556.72282860297855
 30
0.0
 11
258.8008938582214
 21
573.30283060297825
 31
0.0
  0
LINE
  5
17327
  8
AM_0
 10
264.75090385822108
 20
472.49784160297838
 30
0.0
 11
272.75087385822121
 21
472.49784160297838
 31
0.0
  0
LINE
  5
17328
  8
AM_0
 10
264.75090385822108
 20
486.5578316029783
 30
0.0
 11
272.75087385822121
 21
486.5578316029783
 31
0.0
  0
ARC
  5
17329
  8
AM_0
 10
258.09083768651351
 20
493.49781133756937
 30
0.0
 40
1.0000255999999981
 50
269.58945485548259
 51
90.410515855483709
  0
ARC
  5
1732A
  8
AM_0
 10
258.09089521783028
 20
483.49781133755499
 30
0.0
 40
1.0
 50
269.99998285548759
 51
89.999995855486247
  0
ARC
  5
1732B
  8
AM_0
 10
261.57085503895138
 20
483.45279447846377
 30
0.0
 40
1.675026000120903
 50
270.0006727121953
 51
89.999295998823115
  0
ARC
  5
1732C
  8
AM_0
 10
264.40410385822122
 20
478.77507160297819
 30
0.0
 40
1.5027759999999999
 50
90.122410000003541
 51
165.2435700000004
  0
ARC
  5
1732D
  8
AM_0
 10
261.7908476790999
 20
493.46778042415428
 30
0.0
 40
1.460011199999999
 50
269.77523585548391
 51
90.224735855484013
  0
ARC
  5
1732E
  8
AM_0
 10
258.09086005519669
 20
503.49781133756409
 30
0.0
 40
1.000005699999998
 50
269.99998285548759
 51
89.999995855486247
  0
ARC
  5
1732F
  8
AM_0
 10
258.09086252387988
 20
513.49781133756403
 30
0.0
 40
1.000005699999998
 50
269.99998285548759
 51
89.999995855486247
  0
ARC
  5
17330
  8
AM_0
 10
261.91584655149109
 20
503.48280039329637
 30
0.0
 40
1.3350147999999999
 50
269.73042985548369
 51
90.269555855485152
  0
ARC
  5
17331
  8
AM_0
 10
261.9777990214086
 20
513.4878003780027
 30
0.0
 40
1.2700266
 50
269.62931585548409
 51
90.370665855488923
  0
LINE
  5
17332
  8
AM_0
 10
264.75090385822108
 20
550.43783260297835
 30
0.0
 11
272.75087385822121
 21
550.43783260297835
 31
0.0
  0
ARC
  5
17333
  8
AM_0
 10
258.09086375822119
 20
523.4978096934185
 30
0.0
 40
1.000005699999998
 50
269.999989999999
 51
90.00000299999769
  0
ARC
  5
17334
  8
AM_0
 10
258.09086375822119
 20
533.4978096934185
 30
0.0
 40
1.000005699999998
 50
269.999989999999
 51
90.00000299999769
  0
ARC
  5
17335
  8
AM_0
 10
261.97780025822118
 20
523.50781969341847
 30
0.0
 40
1.2700266
 50
269.62931999999989
 51
90.370669999998213
  0
ARC
  5
17336
  8
AM_0
 10
261.9158502582211
 20
533.51281969341835
 30
0.0
 40
1.3350147999999999
 50
269.7304299999999
 51
90.269556000001415
  0
ARC
  5
17337
  8
AM_0
 10
258.09090385822122
 20
553.49780969341828
 30
0.0
 40
1.0
 50
269.999989999999
 51
90.00000299999769
  0
ARC
  5
17338
  8
AM_0
 10
258.09084385822132
 20
543.4978096934185
 30
0.0
 40
1.0000255999999981
 50
269.5894700000033
 51
90.410530999997775
  0
ARC
  5
17339
  8
AM_0
 10
261.79085385822123
 20
543.5278396934184
 30
0.0
 40
1.460011199999999
 50
269.77524999999667
 51
90.224750000003326
  0
ARC
  5
1733A
  8
AM_0
 10
261.5708636904555
 20
553.54282569341785
 30
0.0
 40
1.675026000120903
 50
270.0006898566686
 51
89.999313143289925
  0
LINE
  5
1733B
  8
AM_0
 10
264.75090385822108
 20
564.49783760297851
 30
0.0
 11
272.75087385822121
 21
564.49783760297851
 31
0.0
  0
LINE
  5
1733C
  8
AM_0
 10
264.75090385822108
 20
574.49784560297849
 30
0.0
 11
272.75087385822121
 21
574.49784560297849
 31
0.0
  0
ARC
  5
1733D
  8
AM_0
 10
256.86803385822111
 20
572.78070560297817
 30
0.0
 40
2.0021281000000002
 50
15.11669999999499
 51
89.918480000000088
  0
LINE
  5
1733E
  8
AM_0
 10
259.29088385822121
 20
571.50283460297851
 30
0.0
 11
264.75090385822108
 21
571.50283460297851
 31
0.0
  0
LINE
  5
1733F
  8
ｶｸﾚｾﾝ2
 10
242.25090385822099
 20
549.99780605313265
 30
0.0
 11
168.25090385822099
 21
549.99780605313265
 31
0.0
  0
LINE
  5
17340
  8
ｶｸﾚｾﾝ2
 10
245.25090385822099
 20
546.99780605313265
 30
0.0
 11
245.25090385822099
 21
489.99780605313259
 31
0.0
  0
ARC
  5
17341
  8
ｶｸﾚｾﾝ2
 10
242.25090385822111
 20
546.99780605313242
 30
0.0
 40
3.0
 50
0.0
 51
90.0
  0
LINE
  5
17342
  8
ｶｸﾚｾﾝ2
 10
242.25090385822099
 20
486.99780605313259
 30
0.0
 11
168.25090385822099
 21
486.99780605313259
 31
0.0
  0
ARC
  5
17343
  8
ｶｸﾚｾﾝ2
 10
242.25090385822111
 20
489.99780605313231
 30
0.0
 40
3.0
 50
270.0
 51
0.0
  0
LINE
  5
17344
  8
ｶｸﾚｾﾝ2
 10
165.25090385822099
 20
489.99780605313259
 30
0.0
 11
165.25090385822099
 21
546.99780605313265
 31
0.0
  0
ARC
  5
17345
  8
ｶｸﾚｾﾝ2
 10
168.25090385822099
 20
489.99780605313242
 30
0.0
 40
3.0
 50
180.0
 51
270.0
  0
ARC
  5
17346
  8
ｶｸﾚｾﾝ2
 10
168.25090385822099
 20
546.99780605313242
 30
0.0
 40
3.0
 50
90.0
 51
180.0
  0
LINE
  5
17347
  8
AM_0
 10
297.25697683834079
 20
543.49780907956028
 30
0.0
 11
434.25698145676432
 21
543.49779373970705
 31
0.0
  0
LINE
  5
17348
  8
AM_0
 10
434.25698145676432
 20
543.49779373970705
 30
0.0
 11
436.25698145676381
 21
588.49780907956006
 31
0.0
  0
LINE
  5
17349
  8
AM_0
 10
436.25698145676381
 20
588.49780907956006
 30
0.0
 11
295.25697737384581
 21
588.49780907956028
 31
0.0
  0
LINE
  5
1734A
  8
AM_0
 10
297.25697683834079
 20
543.49780907956028
 30
0.0
 11
295.25697737384581
 21
588.49780907956028
 31
0.0
  0
LINE
  5
1734B
  8
AM_0
 10
295.9680882961473
 20
572.49780904373756
 30
0.0
 11
435.5458705864682
 21
572.49780904373756
 31
0.0
  0
LINE
  5
1734C
  8
AM_0
 10
431.756981128939
 20
478.90780720201383
 30
0.0
 11
414.75698112893889
 21
478.90780720201383
 31
0.0
  0
LINE
  5
1734D
  8
0
 10
431.75698112893889
 20
480.4978072020138
 30
0.0
 11
431.75698112893889
 21
478.90780720201383
 31
0.0
  0
LINE
  5
1734E
  8
0
 10
429.75698112893878
 20
470.90780720201411
 30
0.0
 11
429.75698112893878
 21
478.90780720201383
 31
0.0
  0
LINE
  5
1734F
  8
0
 10
416.75698112893872
 20
478.90780720201383
 30
0.0
 11
416.75698112893872
 21
470.90780720201411
 31
0.0
  0
LINE
  5
17350
  8
0
 10
414.75698112893889
 20
480.4978072020138
 30
0.0
 11
414.75698112893889
 21
478.90780720201383
 31
0.0
  0
LINE
  5
17351
  8
AM_0
 10
416.75698112893872
 20
470.90780720201411
 30
0.0
 11
429.75698112893878
 21
470.90780720201388
 31
0.0
  0
LINE
  5
17352
  8
AM_0
 10
316.75697770167187
 20
478.90780720201383
 30
0.0
 11
299.75697770167181
 21
478.90780720201383
 31
0.0
  0
LINE
  5
17353
  8
0
 10
316.7569777016717
 20
480.49780720201358
 30
0.0
 11
316.7569777016717
 21
478.90780720201383
 31
0.0
  0
LINE
  5
17354
  8
0
 10
314.7569777016717
 20
470.90780720201388
 30
0.0
 11
314.7569777016717
 21
478.90780720201383
 31
0.0
  0
LINE
  5
17355
  8
0
 10
301.75697770167181
 20
478.90780720201383
 30
0.0
 11
301.75697770167181
 21
470.90780720201411
 31
0.0
  0
LINE
  5
17356
  8
0
 10
299.75697770167181
 20
480.4978072020138
 30
0.0
 11
299.75697770167181
 21
478.90780720201383
 31
0.0
  0
LINE
  5
17357
  8
AM_0
 10
301.75697770167181
 20
470.90780720201411
 30
0.0
 11
314.7569777016717
 21
470.90780720201383
 31
0.0
  0
LINE
  5
17358
  8
AM_0
 10
419.7988099472197
 20
588.49780907956028
 30
0.0
 11
419.79880994721958
 21
572.49780904373756
 31
0.0
  0
LINE
  5
17359
  8
AM_0
 10
311.7151488833901
 20
588.49780907956028
 30
0.0
 11
311.7151488833901
 21
572.49780904373756
 31
0.0
  0
LINE
  5
1735A
  8
ﾁｭｳｼﾝｾﾝ1
 10
413.25697889376409
 20
593.49780907956028
 30
0.0
 11
413.25697889376409
 21
567.49780904373756
 31
0.0
  0
LINE
  5
1735B
  8
ﾁｭｳｼﾝｾﾝ1
 10
318.25697993702062
 20
593.49780907956028
 30
0.0
 11
318.25697993702062
 21
567.49780904373756
 31
0.0
  0
LINE
  5
17366
  8
AM_0
 10
691.92845490133118
 20
300.24651627436288
 30
0.0
 11
707.9284549029851
 21
300.24651627436288
 31
0.0
  0
LINE
  5
17367
  8
AM_0
 10
691.92845490133118
 20
196.22088623169799
 30
0.0
 11
707.9284549029851
 21
196.22088623169799
 31
0.0
  0
LINE
  5
17368
  8
0
 10
398.25698038388072
 20
473.49780661339719
 30
0.0
 11
395.25697993684599
 21
449.4978066133973
 31
0.0
  0
LINE
  5
17369
  8
0
 10
368.25697948981121
 20
473.49780661339719
 30
0.0
 11
371.25697993684599
 21
449.4978066133973
 31
0.0
  0
LINE
  5
1736A
  8
AM_0
 10
371.25697993684599
 20
449.4978066133973
 30
0.0
 11
395.25697993684599
 21
449.4978066133973
 31
0.0
  0
LINE
  5
1736B
  8
0
 10
392.75697993684599
 20
421.49780661339719
 30
0.0
 11
373.75697993684599
 21
421.49780661339707
 31
0.0
  0
LINE
  5
1736C
  8
0
 10
392.75697993684599
 20
421.49780661339719
 30
0.0
 11
392.75697993980799
 21
449.4978066133973
 31
0.0
  0
LINE
  5
1736E
  8
0
 10
373.75697993684599
 20
449.4978066133973
 30
0.0
 11
373.75697993684599
 21
421.49780661339719
 31
0.0
  0
LINE
  5
17370
  8
AM_0
 10
368.25697948981121
 20
473.49780661339719
 30
0.0
 11
398.25698038388072
 21
473.49780661339719
 31
0.0
  0
LINE
  5
17371
  8
AM_0
 10
398.25698038388072
 20
473.49780661339719
 30
0.0
 11
398.25698038388072
 21
476.4978067028041
 31
0.0
  0
LINE
  5
17372
  8
AM_0
 10
368.25697948981121
 20
473.49780661339719
 30
0.0
 11
368.25697948981121
 21
476.49780670280433
 31
0.0
  0
LINE
  5
173B3
  8
AM_0
 10
380.25697993684599
 20
421.49780661339707
 30
0.0
 11
380.25697993684588
 21
443.4978066133973
 31
0.0
  0
LINE
  5
173B9
  8
AM_0
 10
386.25697993684599
 20
421.49780661339707
 30
0.0
 11
386.25697993684599
 21
443.4978066133973
 31
0.0
  0
LINE
  5
173BA
  8
AM_0
 10
380.25697993684588
 20
443.4978066133973
 30
0.0
 11
386.25697993684599
 21
443.4978066133973
 31
0.0
  0
ARC
  5
173BB
  8
AM_0
 10
383.25697993684588
 20
443.4978066133973
 30
0.0
 40
3.0
 50
0.0
 51
180.0
  0
LINE
  5
17970
  8
ｶｸﾚｾﾝ2
 10
679.92845619470006
 20
273.7337020802741
 30
0.0
 11
679.92845619469983
 21
222.7337004411464
 31
0.0
  0
LINE
  5
17971
  8
0
 10
734.92845628410703
 20
238.73370126071009
 30
0.0
 11
707.92845472729721
 21
238.73370125785399
 31
0.0
  0
LINE
  5
17972
  8
0
 10
707.92845478156346
 20
257.73370126071018
 30
0.0
 11
734.92845628410703
 21
257.73370126071018
 31
0.0
  0
LINE
  5
17973
  8
ｶｸﾚｾﾝ2
 10
682.92845628410691
 20
263.23370170774513
 30
0.0
 11
682.92845628410691
 21
233.23370081367551
 31
0.0
  0
LINE
  5
17974
  8
ｶｸﾚｾﾝ2
 10
706.92845628410691
 20
260.23370126071029
 30
0.0
 11
706.92845628410691
 21
236.23370126071029
 31
0.0
  0
LINE
  5
17975
  8
ｶｸﾚｾﾝ2
 10
682.92845628410691
 20
233.23370081367551
 30
0.0
 11
706.92845628410691
 21
236.23370126071029
 31
0.0
  0
LINE
  5
17976
  8
ｶｸﾚｾﾝ2
 10
682.92845628410691
 20
233.23370081367551
 30
0.0
 11
679.92845619469983
 21
233.23370081367551
 31
0.0
  0
LINE
  5
17977
  8
ｶｸﾚｾﾝ2
 10
682.92845628410691
 20
263.23370170774513
 30
0.0
 11
706.92845628410691
 21
260.23370126071029
 31
0.0
  0
LINE
  5
17978
  8
ｶｸﾚｾﾝ2
 10
682.92845628410691
 20
263.23370170774513
 30
0.0
 11
679.92845619469983
 21
263.23370170774513
 31
0.0
  0
LINE
  5
17979
  8
0
 10
734.92845628410703
 20
238.73370126071009
 30
0.0
 11
734.92845628410703
 21
260.23370126071029
 31
0.0
  0
LINE
  5
1797A
  8
0
 10
734.92845628410703
 20
260.23370126071029
 30
0.0
 11
712.92845628410691
 21
260.23370126071029
 31
0.0
  0
LINE
  5
1797B
  8
0
 10
712.92845628410691
 20
260.23370126071029
 30
0.0
 11
712.92845628410691
 21
257.73370126071018
 31
0.0
  0
LINE
  5
1797C
  8
ｶｸﾚｾﾝ2
 10
707.92845478156346
 20
257.73370126071018
 30
0.0
 11
706.92845628410691
 21
257.73370126071018
 31
0.0
  0
LINE
  5
1797D
  8
ｶｸﾚｾﾝ2
 10
707.92845472729732
 20
238.73370125785399
 30
0.0
 11
706.92845628410691
 21
238.73370125785399
 31
0.0
  0
LINE
  5
17980
  8
ｶｸﾚｾﾝ2
 10
398.25698038388072
 20
563.49776304619058
 30
0.0
 11
395.25697993684599
 21
587.4977630461907
 31
0.0
  0
LINE
  5
17981
  8
ｶｸﾚｾﾝ2
 10
368.25697948981121
 20
563.49776304619047
 30
0.0
 11
371.25697993684599
 21
587.4977630461907
 31
0.0
  0
LINE
  5
17982
  8
ｶｸﾚｾﾝ2
 10
371.25697993684599
 20
587.4977630461907
 30
0.0
 11
395.25697993684599
 21
587.4977630461907
 31
0.0
  0
LINE
  5
17983
  8
0
 10
392.75697993684599
 20
615.4977630461907
 30
0.0
 11
373.75697993684599
 21
615.4977630461907
 31
0.0
  0
LINE
  5
17984
  8
0
 10
392.75697993684599
 20
615.4977630461907
 30
0.0
 11
392.75697993970232
 21
588.49780907956028
 31
0.0
  0
LINE
  5
17985
  8
ｶｸﾚｾﾝ2
 10
392.75697993970232
 20
588.49780907956006
 30
0.0
 11
392.75697993980799
 21
587.4977630461907
 31
0.0
  0
LINE
  5
17986
  8
ｶｸﾚｾﾝ2
 10
373.75697993684599
 20
587.4977630461907
 30
0.0
 11
373.75697993684599
 21
588.49780907956006
 31
0.0
  0
LINE
  5
17987
  8
0
 10
373.75697993684599
 20
588.49780907956028
 30
0.0
 11
373.75697993684599
 21
615.4977630461907
 31
0.0
  0
LINE
  5
17988
  8
ｶｸﾚｾﾝ2
 10
368.25697948981121
 20
563.49776304619047
 30
0.0
 11
398.25698038388072
 21
563.49776304619058
 31
0.0
  0
LINE
  5
17989
  8
ｶｸﾚｾﾝ2
 10
398.25698038388072
 20
563.49776304619058
 30
0.0
 11
398.25698038388072
 21
560.49776295678373
 31
0.0
  0
LINE
  5
1798A
  8
ｶｸﾚｾﾝ2
 10
368.25697948981121
 20
563.49776304619047
 30
0.0
 11
368.25697948981121
 21
560.4977629567835
 31
0.0
  0
LINE
  5
1798B
  8
AM_0
 10
386.25697993684599
 20
615.4977630461907
 30
0.0
 11
386.25697993684599
 21
593.49776304619036
 31
0.0
  0
LINE
  5
1798C
  8
AM_0
 10
380.25697993684599
 20
615.4977630461907
 30
0.0
 11
380.25697993684599
 21
593.49776304619036
 31
0.0
  0
LINE
  5
1798D
  8
AM_0
 10
380.25697993684599
 20
593.49776304619036
 30
0.0
 11
386.25697993684599
 21
593.49776304619036
 31
0.0
  0
ARC
  5
1798E
  8
AM_0
 10
383.25697993684588
 20
593.49776304619036
 30
0.0
 40
3.0
 50
180.0
 51
0.0
  0
LINE
  5
1798F
  8
ｶｸﾚｾﾝ2
 10
357.7569791172819
 20
560.49776295678384
 30
0.0
 11
408.75698075640958
 21
560.4977629567835
 31
0.0
  0
TEXT
  5
17ADD
  8
AM_0
 10
530.33321280275425
 20
529.87216476390324
 30
0.0
 40
10.0
  1
VC01-007FMT~VC01-060FMT
1001
ACAD
1000
MTEXTBEGIN
1070
    73
1070
     1
1070
    44
1040
1.0
1070
    74
1070
     0
1000
MTEXTEND
  0
VIEWPORT
  5
89
 67
     1
  8
0
 10
210.0
 20
148.5
 30
0.0
 40
420.0
 41
297.0
 68
     1
 69
     1
1001
ACAD
1000
MVIEW
1002
{
1070
    16
1010
0.0
1020
0.0
1030
0.0
1010
0.0
1020
0.0
1030
1.0
1040
0.0
1040
297.0
1040
221.70154043645701
1040
148.5
1040
50.0
1040
0.0
1040
0.0
1070
     0
1070
   100
1070
     1
1070
     1
1070
     0
1070
     0
1070
     0
1070
     0
1040
0.0
1040
0.0
1040
0.0
1040
10.0
1040
10.0
1040
10.0
1040
10.0
1070
     0
1002
{
1002
}
1002
}
1001
GENIUS_GENOREF_13
1005
1B94
1001
GENIUS_GENSCREG_15
1000
PF
1040
1.0
1000
DF
1040
1.0
1000
MIN
1011
0.0
1021
0.0
1031
0.0
1021
0.0
1031
0.0
1000
MAX
1011
420.0
1021
0.0
1031
0.0
1021
297.0
1031
0.0
1000
FLAGS
1070
     4
  0
ENDSEC
  0
EOF
